  0
SECTION
  2
HEADER
  9
$ACADVER
  1
AC1015
  9
$ACADMAINTVER
 70
     6
  9
$DWGCODEPAGE
  3
ANSI_932
  9
$INSBASE
 10
0.0
 20
0.0
 30
0.0
  9
$EXTMIN
 10
-66.836747
 20
10.022127
 30
1.000000E+20
  9
$EXTMAX
 10
405.077083
 20
595.718677
 30
-1.000000E+20
  9
$LIMMIN
 10
-66.836747
 20
10.022127
  9
$LIMMAX
 10
405.077083
 20
595.718677
  9
$ORTHOMODE
 70
     0
  9
$REGENMODE
 70
     1
  9
$FILLMODE
 70
     1
  9
$QTEXTMODE
 70
     0
  9
$MIRRTEXT
 70
     1
  9
$LTSCALE
 40
1.0
  9
$ATTMODE
 70
     1
  9
$TEXTSIZE
 40
0.2
  9
$TRACEWID
 40
0.05
  9
$TEXTSTYLE
  7
Standard
  9
$CLAYER
  8
0
  9
$CELTYPE
  6
Continuous
  9
$CECOLOR
 62
   256
  9
$CELTSCALE
 40
1.0
  9
$DISPSILH
 70
     0
  9
$DIMSCALE
 40
1.0
  9
$DIMASZ
 40
0.18
  9
$DIMEXO
 40
0.0625
  9
$DIMDLI
 40
0.38
  9
$DIMRND
 40
0.0
  9
$DIMDLE
 40
0.0
  9
$DIMEXE
 40
0.18
  9
$DIMTP
 40
0.0
  9
$DIMTM
 40
0.0
  9
$DIMTXT
 40
0.18
  9
$DIMCEN
 40
0.09
  9
$DIMTSZ
 40
0.0
  9
$DIMTOL
 70
     0
  9
$DIMLIM
 70
     0
  9
$DIMTIH
 70
     1
  9
$DIMTOH
 70
     1
  9
$DIMSE1
 70
     0
  9
$DIMSE2
 70
     0
  9
$DIMTAD
 70
     0
  9
$DIMZIN
 70
     0
  9
$DIMBLK
  1

  9
$DIMASO
 70
     1
  9
$DIMSHO
 70
     1
  9
$DIMPOST
  1

  9
$DIMAPOST
  1

  9
$DIMALT
 70
     0
  9
$DIMALTD
 70
     2
  9
$DIMALTF
 40
25.4
  9
$DIMLFAC
 40
1.0
  9
$DIMTOFL
 70
     0
  9
$DIMTVP
 40
0.0
  9
$DIMTIX
 70
     0
  9
$DIMSOXD
 70
     0
  9
$DIMSAH
 70
     0
  9
$DIMBLK1
  1

  9
$DIMBLK2
  1

  9
$DIMSTYLE
  2
Standard
  9
$DIMCLRD
 70
     0
  9
$DIMCLRE
 70
     0
  9
$DIMCLRT
 70
     0
  9
$DIMTFAC
 40
1.0
  9
$DIMGAP
 40
0.09
  9
$DIMJUST
 70
     0
  9
$DIMSD1
 70
     0
  9
$DIMSD2
 70
     0
  9
$DIMTOLJ
 70
     1
  9
$DIMTZIN
 70
     0
  9
$DIMALTZ
 70
     0
  9
$DIMALTTZ
 70
     0
  9
$DIMUPT
 70
     0
  9
$DIMDEC
 70
     4
  9
$DIMTDEC
 70
     4
  9
$DIMALTU
 70
     2
  9
$DIMALTTD
 70
     2
  9
$DIMTXSTY
  7
Standard
  9
$DIMAUNIT
 70
     0
  9
$DIMADEC
 70
     0
  9
$DIMALTRND
 40
0.0
  9
$DIMAZIN
 70
     0
  9
$DIMDSEP
 70
     0
  9
$DIMATFIT
 70
     3
  9
$DIMFRAC
 70
     0
  9
$DIMLDRBLK
  1

  9
$DIMLUNIT
 70
     2
  9
$DIMLWD
 70
     0
  9
$DIMLWE
 70
     0
  9
$DIMTMOVE
 70
     0
  9
$LUNITS
 70
     2
  9
$LUPREC
 70
     4
  9
$SKETCHINC
 40
0.1
  9
$FILLETRAD
 40
0.0
  9
$AUNITS
 70
     0
  9
$AUPREC
 70
     0
  9
$MENU
  1
acad
  9
$ELEVATION
 40
0.0
  9
$PELEVATION
 40
0.0
  9
$THICKNESS
 40
0.0
  9
$LIMCHECK
 70
     0
  9
$CHAMFERA
 40
0.0
  9
$CHAMFERB
 40
0.0
  9
$CHAMFERC
 40
0.0
  9
$CHAMFERD
 40
0.0
  9
$SKPOLY
 70
     0
  9
$TDCREATE
 40
0.000000000
  9
$TDUCREATE
 40
0.000000000
  9
$TDUPDATE
 40
0.000000000
  9
$TDUUPDATE
 40
0.000000000
  9
$TDINDWG
 40
0.0000000000
  9
$TDUSRTIMER
 40
0.0000000000
  9
$USRTIMER
 70
     1
  9
$ANGBASE
 50
0.0
  9
$ANGDIR
 70
     0
  9
$PDMODE
 70
     0
  9
$PDSIZE
 40
0.0
  9
$PLINEWID
 40
0.0
  9
$SPLFRAME
 70
     0
  9
$SPLINETYPE
 70
     6
  9
$SPLINESEGS
 70
     8
  9
$HANDSEED
  5
157
  9
$SURFTAB1
 70
     6
  9
$SURFTAB2
 70
     6
  9
$SURFTYPE
 70
     6
  9
$SURFU
 70
     6
  9
$SURFV
 70
     6
  9
$UCSBASE
  2

  9
$UCSNAME
  2

  9
$UCSORG
 10
0.0
 20
0.0
 30
0.0
  9
$UCSXDIR
 10
1.0
 20
0.0
 30
0.0
  9
$UCSYDIR
 10
0.0
 20
1.0
 30
0.0
  9
$UCSORTHOREF
  2

  9
$UCSORTHOVIEW
 70
     0
  9
$UCSORGTOP
 10
0.0
 20
0.0
 30
0.0
  9
$UCSORGBOTTOM
 10
0.0
 20
0.0
 30
0.0
  9
$UCSORGLEFT
 10
0.0
 20
0.0
 30
0.0
  9
$UCSORGRIGHT
 10
0.0
 20
0.0
 30
0.0
  9
$UCSORGFRONT
 10
0.0
 20
0.0
 30
0.0
  9
$UCSORGBACK
 10
0.0
 20
0.0
 30
0.0
  9
$PUCSBASE
  2

  9
$PUCSNAME
  2

  9
$PUCSORG
 10
0.0
 20
0.0
 30
0.0
  9
$PUCSXDIR
 10
1.0
 20
0.0
 30
0.0
  9
$PUCSYDIR
 10
0.0
 20
1.0
 30
0.0
  9
$PUCSORTHOREF
  2

  9
$PUCSORTHOVIEW
 70
     0
  9
$PUCSORGTOP
 10
0.0
 20
0.0
 30
0.0
  9
$PUCSORGBOTTOM
 10
0.0
 20
0.0
 30
0.0
  9
$PUCSORGLEFT
 10
0.0
 20
0.0
 30
0.0
  9
$PUCSORGRIGHT
 10
0.0
 20
0.0
 30
0.0
  9
$PUCSORGFRONT
 10
0.0
 20
0.0
 30
0.0
  9
$PUCSORGBACK
 10
0.0
 20
0.0
 30
0.0
  9
$USERI1
 70
     0
  9
$USERI2
 70
     0
  9
$USERI3
 70
     0
  9
$USERI4
 70
     0
  9
$USERI5
 70
     0
  9
$USERR1
 40
0.0
  9
$USERR2
 40
0.0
  9
$USERR3
 40
0.0
  9
$USERR4
 40
0.0
  9
$USERR5
 40
0.0
  9
$WORLDVIEW
 70
     1
  9
$SHADEDGE
 70
     3
  9
$SHADEDIF
 70
    70
  9
$TILEMODE
 70
     1
  9
$MAXACTVP
 70
    16
  9
$PINSBASE
 10
0.0
 20
0.0
 30
0.0
  9
$PLIMCHECK
 70
     0
  9
$PEXTMIN
 10
1.000000E+20
 20
1.000000E+20
 30
1.000000E+20
  9
$PEXTMAX
 10
-1.000000E+20
 20
-1.000000E+20
 30
-1.000000E+20
  9
$PLIMMIN
 10
0.0
 20
0.0
  9
$PLIMMAX
 10
12.0
 20
9.0
  9
$UNITMODE
 70
     0
  9
$VISRETAIN
 70
     0
  9
$PLINEGEN
 70
     1
  9
$PSLTSCALE
 70
     0
  9
$TREEDEPTH
 70
  3020
  9
$CMLSTYLE
  2
Standard
  9
$CMLJUST
 70
     0
  9
$CMLSCALE
 40
1.0
  9
$PROXYGRAPHICS
 70
     0
  9
$MEASUREMENT
 70
     1
  9
$CELWEIGHT
370
     0
  9
$ENDCAPS
280
     0
  9
$JOINSTYLE
280
     0
  9
$LWDISPLAY
290
     0
  9
$INSUNITS
 70
     0
  9
$HYPERLINKBASE
  1

  9
$STYLESHEET
  1

  9
$XEDIT
290
     1
  9
$CEPSNTYPE
380
     0
  9
$PSTYLEMODE
290
     1
  9
$FINGERPRINTGUID
  2

  9
$VERSIONGUID
  2

  9
$EXTNAMES
290
     1
  9
$PSVPSCALE
 40
0.0
  0
ENDSEC
  0
SECTION
  2
CLASSES
  0
CLASS
  1
LWPOLYLINE
  2
AcDbPolyline
  3
AutoCAD 2000
 90
    32768
280
     0
281
     1
  0
CLASS
  1
IMAGE
  2
AcDbRasterImage
  3
ISM
 90
    32895
280
     0
281
     1
  0
CLASS
  1
OLE2FRAME
  2
AcDbOle2Frame
  3
AutoCAD 2000
 90
    32768
280
     0
281
     1
  0
CLASS
  1
HATCH
  2
AcDbHatch
  3
AutoCAD 2000
 90
        0
280
     0
281
     1
  0
CLASS
  1
DICTIONARYVAR
  2
AcDbDictionaryVar
  3
AutoCAD 2000
 90
    32768
280
     0
281
     0
  0
CLASS
  1
RASTERVARIABLES
  2
AcDbRasterVariables
  3
ISM
 90
    32768
280
     0
281
     0
  0
CLASS
  1
IMAGEDEF
  2
AcDbRasterImageDef
  3
ISM
 90
    32768
280
     0
281
     0
  0
CLASS
  1
IMAGEDEF_REACTOR
  2
AcDbRasterImageDefReactor
  3
ISM
 90
    32769
280
     0
281
     0
  0
CLASS
  1
IDBUFFER
  2
AcDbIdBuffer
  3
AutoCAD 2000
 90
    32768
280
     0
281
     0
  0
CLASS
  1
SPATIAL_FILTER
  2
AcDbSpatialFilter
  3
AutoCAD 2000
 90
    32768
280
     0
281
     0
  0
CLASS
  1
XRECORD
  2
AcDbXrecord
  3
AutoCAD 2000
 90
    32768
280
     0
281
     0
  0
CLASS
  1
SORTENTSTABLE
  2
AcDbSortentsTable
  3
AutoCAD 2000
 90
    32768
280
     0
281
     0
  0
CLASS
  1
LAYER_INDEX
  2
AcDbLayerIndex
  3
AutoCAD 2000
 90
    32768
280
     0
281
     0
  0
CLASS
  1
SPATIAL_INDEX
  2
AcDbSpatialIndex
  3
AutoCAD 2000
 90
    32768
280
     0
281
     0
  0
CLASS
  1
OBJECT_PTR
  2
CAseDLPNTableRecord
  3
"ASE-LPNTableRecord"
 90
    32769
280
     0
281
     0
  0
CLASS
  1
LAYOUT
  2
AcDbLayout
  3
AutoCAD 2000
 90
        0
280
     0
281
     0
  0
CLASS
  1
PLOTSETTINGS
  2
AcDbPlotSettings
  3
AutoCAD 2000
 90
    32768
280
     0
281
     0
  0
CLASS
  1
ACDBDICTIONARYWDFLT
  2
AcDbDictionaryWithDefault
  3
AutoCAD 2000
 90
        0
280
     0
281
     0
  0
CLASS
  1
ACDBPLACEHOLDER
  2
AcDbPlaceHolder
  3
AutoCAD 2000
 90
        0
280
     0
281
     0
  0
CLASS
  1
VBA_PROJECT
  2
AcDbVbaProject
  3
acadvba
 90
    32768
280
     0
281
     0
  0
CLASS
  1
WIPEOUT
  2
AcDbWipeout
  3
WipeOut|AutoCAD Express Tool|expresstools@autodesk.com
 90
    32895
280
     0
281
     1
  0
CLASS
  1
WIPEOUTVARIABLES
  2
AcDbWipeoutVariables
  3
WipeOut|AutoCAD Express Tool|expresstools@autodesk.com
 90
        0
280
     0
281
     0
  0
CLASS
  1
RTEXT
  2
RText
  3
RText|AutoCAD Express Tool|expresstools@autodesk.com
 90
    32768
280
     0
281
     1
  0
CLASS
  1
ARCALIGNEDTEXT
  2
AcDbArcAlignedText
  3
ATEXT|AutoCAD Express Tool|expresstools@autodesk.com
 90
    32768
280
     0
281
     1
  0
ENDSEC
  0
SECTION
  2
TABLES
  0
TABLE
  2
VPORT
  5
7
100
AcDbSymbolTable
 70
     1
  0
VPORT
  5
15
100
AcDbSymbolTableRecord
100
AcDbViewportTableRecord
  2
*ACTIVE
 70
     0
 10
0.0
 20
0.0
 11
1.0
 21
1.0
 12
6.591288
 22
4.579184
 13
0.0
 23
0.0
 14
1.0
 24
1.0
 15
0.0
 25
0.0
 16
0.0
 26
0.0
 36
1.0
 17
0.0
 27
0.0
 37
0.0
 40
9.158369
 41
0.688564
 42
50.0
 43
0.0
 44
0.0
 50
0.0
 51
0.0
 71
     0
 72
   100
 73
     1
 74
     1
 75
     0
 76
     0
 77
     0
 78
     0
281
     0
 65
     0
110
0.0
120
0.0
130
0.0
111
1.0
121
0.0
131
0.0
112
0.0
122
1.0
132
0.0
345
0
346
0
 79
     0
146
0.0
  0
ENDTAB
  0
TABLE
  2
LTYPE
  5
4
100
AcDbSymbolTable
 70
     3
  0
LTYPE
  5
11
100
AcDbSymbolTableRecord
100
AcDbLinetypeTableRecord
  2
ByBlock
 70
    64
  3

 72
    65
 73
     0
 40
0.0
  0
LTYPE
  5
12
100
AcDbSymbolTableRecord
100
AcDbLinetypeTableRecord
  2
ByLayer
 70
    64
  3

 72
    65
 73
     0
 40
0.0
  0
LTYPE
  5
13
100
AcDbSymbolTableRecord
100
AcDbLinetypeTableRecord
  2
Continuous
 70
    64
  3
Solid line
 72
    65
 73
     0
 40
0.0
  0
ENDTAB
  0
TABLE
  2
LAYER
  5
2
100
AcDbSymbolTable
 70
     2
  0
LAYER
  5
14
100
AcDbSymbolTableRecord
100
AcDbLayerTableRecord
  2
0
 70
     0
 62
     7
  6
Continuous
290
     1
370
    -3
390
1D
  0
LAYER
  5
28
100
AcDbSymbolTableRecord
100
AcDbLayerTableRecord
  2
レイヤー_1
 70
     0
 62
   160
  6
Continuous
290
     1
370
    -3
390
1D
  0
ENDTAB
  0
TABLE
  2
STYLE
  5
3
100
AcDbSymbolTable
 70
     5
  0
STYLE
  5
17
100
AcDbSymbolTableRecord
100
AcDbTextStyleTableRecord
  2
Standard
 70
     0
 40
0.0
 41
1.0
 50
0.0
 71
     0
 42
0.0
  3
txt
  4

  0
STYLE
  5
24
100
AcDbSymbolTableRecord
100
AcDbTextStyleTableRecord
  2
STD
 70
     0
 40
0.0
 41
1.0
 50
0.0
 71
     0
 42
0.0
  3
txt
  4

  0
STYLE
  5
25
100
AcDbSymbolTableRecord
100
AcDbTextStyleTableRecord
  2
TATESTD
 70
     4
 40
0.0
 41
1.0
 50
0.0
 71
     0
 42
0.0
  3
txt
  4

  0
STYLE
  5
26
100
AcDbSymbolTableRecord
100
AcDbTextStyleTableRecord
  2
KANJISTD
 70
     0
 40
0.0
 41
1.0
 50
0.0
 71
     0
 42
0.0
  3
txt
  4
extfont
  0
STYLE
  5
27
100
AcDbSymbolTableRecord
100
AcDbTextStyleTableRecord
  2
KANJITATE
 70
     4
 40
0.0
 41
1.0
 50
0.0
 71
     0
 42
0.0
  3
txt
  4
extfont
  0
ENDTAB
  0
TABLE
  2
VIEW
  5
5
100
AcDbSymbolTable
 70
     0
  0
ENDTAB
  0
TABLE
  2
UCS
  5
6
100
AcDbSymbolTable
 70
     0
  0
ENDTAB
  0
TABLE
  2
APPID
  5
8
100
AcDbSymbolTable
 70
     1
  0
APPID
  5
16
100
AcDbSymbolTableRecord
100
AcDbRegAppTableRecord
  2
ACAD
 70
     0
  0
ENDTAB
  0
TABLE
  2
DIMSTYLE
  5
9
100
AcDbSymbolTable
 70
     1
100
AcDbDimStyleTable
 71
     0
  0
DIMSTYLE
105
18
100
AcDbSymbolTableRecord
100
AcDbDimStyleTableRecord
  2
Standard
 70
     0
  3

  4

 40
1.0
 41
0.18
 42
0.0625
 43
0.38
 44
0.18
 45
0.0
 46
0.0
 47
0.0
 48
0.0
 71
     0
 72
     0
 73
     1
 74
     1
 75
     0
 76
     0
 77
     0
 78
     0
 79
     0
140
0.18
141
0.09
142
0.0
143
25.4
144
1.0
145
0.0
146
1.0
147
0.09
148
0.0
170
     0
171
     2
172
     0
173
     0
174
     0
175
     0
176
     0
177
     0
178
     0
179
     0
271
     4
272
     4
273
     2
274
     2
275
     0
276
     0
277
     2
278
    46
279
     0
280
     0
281
     0
282
     0
283
     1
284
     0
285
     0
286
     0
288
     0
340
17
341
0
342
0
343
0
344
0
371
    -2
372
    -2
  0
ENDTAB
  0
TABLE
  2
BLOCK_RECORD
  5
1
100
AcDbSymbolTable
 70
    23
  0
BLOCK_RECORD
  5
A
100
AcDbSymbolTableRecord
100
AcDbBlockTableRecord
  2
*MODEL_SPACE
340
20
  0
BLOCK_RECORD
  5
B
100
AcDbSymbolTableRecord
100
AcDbBlockTableRecord
  2
*PAPER_SPACE
340
21
  0
BLOCK_RECORD
  5
2E
100
AcDbSymbolTableRecord
100
AcDbBlockTableRecord
  2
AI9-BLK1
340
0
102
{BLKREFS
331
2F
102
}
  0
BLOCK_RECORD
  5
33
100
AcDbSymbolTableRecord
100
AcDbBlockTableRecord
  2
AI9-BLK2
340
0
102
{BLKREFS
331
34
102
}
  0
BLOCK_RECORD
  5
38
100
AcDbSymbolTableRecord
100
AcDbBlockTableRecord
  2
AI9-BLK3
340
0
102
{BLKREFS
331
39
102
}
  0
BLOCK_RECORD
  5
40
100
AcDbSymbolTableRecord
100
AcDbBlockTableRecord
  2
AI9-BLK4
340
0
102
{BLKREFS
331
41
102
}
  0
BLOCK_RECORD
  5
5B
100
AcDbSymbolTableRecord
100
AcDbBlockTableRecord
  2
AI9-BLK5
340
0
102
{BLKREFS
331
5C
102
}
  0
BLOCK_RECORD
  5
5E
100
AcDbSymbolTableRecord
100
AcDbBlockTableRecord
  2
AI9-BLK6
340
0
102
{BLKREFS
331
5F
102
}
  0
BLOCK_RECORD
  5
66
100
AcDbSymbolTableRecord
100
AcDbBlockTableRecord
  2
AI9-BLK7
340
0
102
{BLKREFS
331
67
102
}
  0
BLOCK_RECORD
  5
8D
100
AcDbSymbolTableRecord
100
AcDbBlockTableRecord
  2
AI9-BLK8
340
0
102
{BLKREFS
331
8E
102
}
  0
BLOCK_RECORD
  5
9F
100
AcDbSymbolTableRecord
100
AcDbBlockTableRecord
  2
AI9-BLK9
340
0
102
{BLKREFS
331
A0
102
}
  0
BLOCK_RECORD
  5
A2
100
AcDbSymbolTableRecord
100
AcDbBlockTableRecord
  2
AI9-BLK10
340
0
102
{BLKREFS
331
A3
102
}
  0
BLOCK_RECORD
  5
A7
100
AcDbSymbolTableRecord
100
AcDbBlockTableRecord
  2
AI9-BLK11
340
0
102
{BLKREFS
331
A8
102
}
  0
BLOCK_RECORD
  5
AC
100
AcDbSymbolTableRecord
100
AcDbBlockTableRecord
  2
AI9-BLK12
340
0
102
{BLKREFS
331
AD
102
}
  0
BLOCK_RECORD
  5
B1
100
AcDbSymbolTableRecord
100
AcDbBlockTableRecord
  2
AI9-BLK13
340
0
102
{BLKREFS
331
B2
102
}
  0
BLOCK_RECORD
  5
B6
100
AcDbSymbolTableRecord
100
AcDbBlockTableRecord
  2
AI9-BLK14
340
0
102
{BLKREFS
331
B7
102
}
  0
BLOCK_RECORD
  5
BC
100
AcDbSymbolTableRecord
100
AcDbBlockTableRecord
  2
AI9-BLK15
340
0
102
{BLKREFS
331
BD
102
}
  0
BLOCK_RECORD
  5
CE
100
AcDbSymbolTableRecord
100
AcDbBlockTableRecord
  2
AI9-BLK16
340
0
102
{BLKREFS
331
CF
102
}
  0
BLOCK_RECORD
  5
102
100
AcDbSymbolTableRecord
100
AcDbBlockTableRecord
  2
AI9-BLK17
340
0
102
{BLKREFS
331
103
102
}
  0
BLOCK_RECORD
  5
107
100
AcDbSymbolTableRecord
100
AcDbBlockTableRecord
  2
AI9-BLK18
340
0
102
{BLKREFS
331
108
102
}
  0
BLOCK_RECORD
  5
10C
100
AcDbSymbolTableRecord
100
AcDbBlockTableRecord
  2
AI9-BLK19
340
0
102
{BLKREFS
331
10D
102
}
  0
BLOCK_RECORD
  5
111
100
AcDbSymbolTableRecord
100
AcDbBlockTableRecord
  2
AI9-BLK20
340
0
102
{BLKREFS
331
112
102
}
  0
BLOCK_RECORD
  5
116
100
AcDbSymbolTableRecord
100
AcDbBlockTableRecord
  2
AI9-BLK21
340
0
102
{BLKREFS
331
117
102
}
  0
BLOCK_RECORD
  5
11B
100
AcDbSymbolTableRecord
100
AcDbBlockTableRecord
  2
AI9-BLK22
340
0
102
{BLKREFS
331
11C
102
}
  0
BLOCK_RECORD
  5
139
100
AcDbSymbolTableRecord
100
AcDbBlockTableRecord
  2
AI9-BLK23
340
0
102
{BLKREFS
331
13A
102
}
  0
ENDTAB
  0
ENDSEC
  0
SECTION
  2
BLOCKS
  0
BLOCK
  5
D
100
AcDbEntity
  8
0
100
AcDbBlockBegin
  2
*MODEL_SPACE
 70
     0
 10
0.0
 20
0.0
 30
0.0
  3
*MODEL_SPACE
  1

  0
ENDBLK
  5
E
100
AcDbEntity
  8
0
100
AcDbBlockEnd
  0
BLOCK
  5
F
100
AcDbEntity
 67
     1
  8
0
100
AcDbBlockBegin
  2
*PAPER_SPACE
 70
     0
 10
0.0
 20
0.0
 30
0.0
  3
*PAPER_SPACE
  1

  0
ENDBLK
  5
10
100
AcDbEntity
 67
     1
  8
0
100
AcDbBlockEnd
  0
BLOCK
  5
30
100
AcDbEntity
  8
レイヤー_1
 62
     7
100
AcDbBlockBegin
  2
AI9-BLK1
 70
     0
 10
0.0
 20
0.0
 30
0.0
  3
AI9-BLK1
  1

  0
MTEXT
  5
31
100
AcDbEntity
  8
レイヤー_1
 62
     7
100
AcDbMText
 10
-10.583333
 20
1.620179
 30
0.0
 40
3.149801
 41
0.0
 71
     1
 72
     2
  1
\fMS Gothic|b0|i0|c128;\H3.1498;\C18;\U+3010\U+5074\U+9762\U+56F3\U+3011
  7
STD
210
0.0
220
0.0
230
1.0
 73
     1
 44
1.0
  0
ENDBLK
  5
32
100
AcDbEntity
  8
レイヤー_1
100
AcDbBlockEnd
  0
BLOCK
  5
35
100
AcDbEntity
  8
レイヤー_1
 62
     7
100
AcDbBlockBegin
  2
AI9-BLK2
 70
     0
 10
0.0
 20
0.0
 30
0.0
  3
AI9-BLK2
  1

  0
MTEXT
  5
36
100
AcDbEntity
  8
レイヤー_1
 62
     7
100
AcDbMText
 10
-10.583333
 20
1.620179
 30
0.0
 40
3.149801
 41
0.0
 71
     1
 72
     2
  1
\fMS Gothic|b0|i0|c128;\H3.1498;\C18;\U+3010\U+6B63\U+9762\U+56F3\U+3011
  7
STD
210
0.0
220
0.0
230
1.0
 73
     1
 44
1.0
  0
ENDBLK
  5
37
100
AcDbEntity
  8
レイヤー_1
100
AcDbBlockEnd
  0
BLOCK
  5
3A
100
AcDbEntity
  8
レイヤー_1
 62
     7
100
AcDbBlockBegin
  2
AI9-BLK3
 70
     0
 10
0.0
 20
0.0
 30
0.0
  3
AI9-BLK3
  1

  0
MTEXT
  5
3B
100
AcDbEntity
  8
レイヤー_1
 62
     7
100
AcDbMText
 10
-2.645833
 20
1.350149
 30
0.0
 40
2.624835
 41
0.0
 71
     1
 72
     2
  1
\fMS Gothic|b0|i0|c128;\H2.6248;\C18;\U+0032\U+0031\U+0030
  7
STD
210
0.0
220
0.0
230
1.0
 73
     1
 44
1.0
  0
ENDBLK
  5
3C
100
AcDbEntity
  8
レイヤー_1
100
AcDbBlockEnd
  0
BLOCK
  5
42
100
AcDbEntity
  8
レイヤー_1
 62
     7
100
AcDbBlockBegin
  2
AI9-BLK4
 70
     0
 10
0.0
 20
0.0
 30
0.0
  3
AI9-BLK4
  1

  0
MTEXT
  5
43
100
AcDbEntity
  8
レイヤー_1
 62
     7
100
AcDbMText
 10
-1.350149
 20
-1.763889
 30
0.0
 40
2.624835
 41
0.0
 71
     1
 72
     2
  1
\fMS Gothic|b0|i0|c128;\H2.6248;\C18;\U+0034\U+0030
  7
STD
210
0.0
220
0.0
230
1.0
 11
0.0
 21
1.0
 31
0.0
 73
     1
 44
1.0
  0
ENDBLK
  5
44
100
AcDbEntity
  8
レイヤー_1
100
AcDbBlockEnd
  0
BLOCK
  5
5D
100
AcDbEntity
  8
レイヤー_1
 62
     7
100
AcDbBlockBegin
  2
AI9-BLK5
 70
     0
 10
0.0
 20
0.0
 30
0.0
  3
AI9-BLK5
  1

  0
INSERT
  5
5F
100
AcDbEntity
  8
レイヤー_1
 62
     7
100
AcDbBlockReference
  2
AI9-BLK6
 10
0.0
 20
0.0
 30
0.0
  0
ENDBLK
  5
65
100
AcDbEntity
  8
レイヤー_1
100
AcDbBlockEnd
  0
BLOCK
  5
60
100
AcDbEntity
  8
レイヤー_1
 62
     7
100
AcDbBlockBegin
  2
AI9-BLK6
 70
     0
 10
0.0
 20
0.0
 30
0.0
  3
AI9-BLK6
  1

  0
SPLINE
  5
63
100
AcDbEntity
  8
レイヤー_1
 62
     7
100
AcDbSpline
210
0.0
220
0.0
230
1.0
 70
     8
 71
     3
 72
    11
 73
     7
 74
     0
 42
0.00000001
 43
0.00000001
 40
0.0
 40
0.0
 40
0.0
 40
0.0
 40
1.0
 40
1.0
 40
1.0
 40
2.0
 40
2.0
 40
2.0
 40
2.0
 10
0.2948140462239583
 20
-0.6528455946180555
 30
0.0
 10
1.3600375705295138
 20
-0.0199815538194444
 30
0.0
 10
2.3639383951822914
 20
0.5770534939236111
 30
0.0
 10
4.409291585286458
 20
0.5770534939236111
 30
0.0
 10
6.4494771321614577
 20
0.5770534939236111
 30
0.0
 10
7.4444207085503464
 20
-0.0179144965277778
 30
0.0
 10
8.4989644368489579
 20
-0.6456108940972222
 30
0.0
  0
SPLINE
  5
62
100
AcDbEntity
  8
レイヤー_1
 62
     7
100
AcDbSpline
210
0.0
220
0.0
230
1.0
 70
     8
 71
     3
 72
    11
 73
     7
 74
     0
 42
0.00000001
 43
0.00000001
 40
0.0
 40
0.0
 40
0.0
 40
0.0
 40
1.0
 40
1.0
 40
1.0
 40
2.0
 40
2.0
 40
2.0
 40
2.0
 10
-8.4881123860677068
 20
-1.0941623263888889
 30
0.0
 10
-7.5351989746093739
 20
-1.6043809678819443
 30
0.0
 10
-6.3559427897135414
 20
-2.0581000434027774
 30
0.0
 10
-4.4621738009982632
 20
-2.0581000434027774
 30
0.0
 10
-2.0730000813802083
 20
-2.0581000434027774
 30
0.0
 10
-0.8141621907552082
 20
-1.3112033420138887
 30
0.0
 10
0.2948140462239583
 20
-0.6528455946180555
 30
0.0
  0
SPLINE
  5
61
100
AcDbEntity
  8
レイヤー_1
 62
     7
100
AcDbSpline
210
0.0
220
0.0
230
1.0
 70
     8
 71
     3
 72
    17
 73
    13
 74
     0
 42
0.00000001
 43
0.00000001
 40
0.0
 40
0.0
 40
0.0
 40
0.0
 40
1.0
 40
1.0
 40
1.0
 40
2.0
 40
2.0
 40
2.0
 40
3.0
 40
3.0
 40
3.0
 40
4.0
 40
4.0
 40
4.0
 40
4.0
 10
8.4645134819878471
 20
1.085205078125
 30
0.0
 10
7.5057434082031245
 20
1.6005913628472221
 30
0.0
 10
6.317529975043402
 20
2.0581000434027774
 30
0.0
 10
4.409291585286458
 20
2.0581000434027774
 30
0.0
 10
1.9532830132378471
 20
2.0581000434027774
 30
0.0
 10
0.6761861165364583
 20
1.3005235460069444
 30
0.0
 10
-0.4486375596788194
 20
0.6311414930555555
 30
0.0
 10
-1.5410773383246525
 20
-0.0179144965277778
 30
0.0
 10
-2.4833109537760416
 20
-0.5770534939236111
 30
0.0
 10
-4.4621738009982632
 20
-0.5770534939236111
 30
0.0
 10
-6.4699754503038189
 20
-0.5770534939236111
 30
0.0
 10
-7.455617268880208
 20
0.0034450954861111
 30
0.0
 10
-8.4991366916232636
 20
0.6204616970486111
 30
0.0
  0
ENDBLK
  5
64
100
AcDbEntity
  8
レイヤー_1
100
AcDbBlockEnd
  0
BLOCK
  5
68
100
AcDbEntity
  8
レイヤー_1
 62
     7
100
AcDbBlockBegin
  2
AI9-BLK7
 70
     0
 10
0.0
 20
0.0
 30
0.0
  3
AI9-BLK7
  1

  0
MTEXT
  5
6A
100
AcDbEntity
  8
レイヤー_1
 62
     7
100
AcDbMText
 10
-22.930556
 20
-0.766517
 30
0.0
 40
2.624835
 41
0.0
 71
     1
 72
     2
  1
\fMS Gothic|b0|i0|c128;\H2.6248;\C29;\U+767D\U+FF08\U+FF0B\U+FF09\U+3001\U+9ED2\U+FF08\U+FF0D\U+FF09
  7
STD
210
0.0
220
0.0
230
1.0
 73
     1
 44
1.0
  0
MTEXT
  5
69
100
AcDbEntity
  8
レイヤー_1
 62
     7
100
AcDbMText
 10
-22.930556
 20
3.466816
 30
0.0
 40
2.624835
 41
0.0
 71
     1
 72
     2
  1
\fMS Gothic|b0|i0|c128;\H2.6248;\C29;\U+0055\U+004C\U+0031\U+0036\U+0037\U+0032\U+0020\U+0041\U+0057\U+0047\U+0032\U+0030\U+3000\U+30B3\U+30FC\U+30C9\U+9577\U+FF1A\U+0035\U+006D
  7
STD
210
0.0
220
0.0
230
1.0
 73
     1
 44
1.0
  0
ENDBLK
  5
6B
100
AcDbEntity
  8
レイヤー_1
100
AcDbBlockEnd
  0
BLOCK
  5
8F
100
AcDbEntity
  8
レイヤー_1
 62
     7
100
AcDbBlockBegin
  2
AI9-BLK8
 70
     0
 10
0.0
 20
0.0
 30
0.0
  3
AI9-BLK8
  1

  0
HATCH
  5
98
100
AcDbEntity
  8
レイヤー_1
 62
     7
100
AcDbHatch
 10
0.0
 20
0.0
 30
0.0
210
0.0
220
0.0
230
1.0
  2
SOLID
 70
     1
 71
     0
 91
        3
 92
        1
 93
        1
 72
     4
 94
        3
 73
     0
 74
     0
 95
       17
 96
       13
 40
0.0
 40
0.0
 40
0.0
 40
0.0
 40
1.0
 40
1.0
 40
1.0
 40
2.0
 40
2.0
 40
2.0
 40
3.0
 40
3.0
 40
3.0
 40
4.0
 40
4.0
 40
4.0
 40
4.0
 10
-22.279087999131942
 20
0.6590467664930555
 10
-22.189515516493053
 20
0.7892713758680555
 10
-22.08271755642361
 20
0.9794406467013888
 10
-21.981431749131943
 20
1.2226643880208332
 10
-21.981431749131943
 20
1.2226643880208332
 10
-21.418503146701386
 20
1.2226643880208332
 10
-21.418503146701386
 20
1.2226643880208332
 10
-21.418503146701386
 20
1.2226643880208332
 10
-21.418503146701386
 20
0.6590467664930555
 10
-21.418503146701386
 20
0.6590467664930555
 10
-21.418503146701386
 20
0.6590467664930555
 10
-22.279087999131942
 20
0.6590467664930555
 10
-22.279087999131942
 20
0.6590467664930555
 97
        0
 92
       16
 93
        1
 72
     4
 94
        3
 73
     0
 74
     0
 95
      128
 96
      124
 40
0.0
 40
0.0
 40
0.0
 40
0.0
 40
1.0
 40
1.0
 40
1.0
 40
2.0
 40
2.0
 40
2.0
 40
3.0
 40
3.0
 40
3.0
 40
4.0
 40
4.0
 40
4.0
 40
5.0
 40
5.0
 40
5.0
 40
6.0
 40
6.0
 40
6.0
 40
7.0
 40
7.0
 40
7.0
 40
8.0
 40
8.0
 40
8.0
 40
9.0
 40
9.0
 40
9.0
 40
10.0
 40
10.0
 40
10.0
 40
11.0
 40
11.0
 40
11.0
 40
12.0
 40
12.0
 40
12.0
 40
13.0
 40
13.0
 40
13.0
 40
14.0
 40
14.0
 40
14.0
 40
15.0
 40
15.0
 40
15.0
 40
16.0
 40
16.0
 40
16.0
 40
17.0
 40
17.0
 40
17.0
 40
18.0
 40
18.0
 40
18.0
 40
19.0
 40
19.0
 40
19.0
 40
20.0
 40
20.0
 40
20.0
 40
21.0
 40
21.0
 40
21.0
 40
22.0
 40
22.0
 40
22.0
 40
23.0
 40
23.0
 40
23.0
 40
24.0
 40
24.0
 40
24.0
 40
25.0
 40
25.0
 40
25.0
 40
26.0
 40
26.0
 40
26.0
 40
27.0
 40
27.0
 40
27.0
 40
28.0
 40
28.0
 40
28.0
 40
29.0
 40
29.0
 40
29.0
 40
30.0
 40
30.0
 40
30.0
 40
31.0
 40
31.0
 40
31.0
 40
32.0
 40
32.0
 40
32.0
 40
33.0
 40
33.0
 40
33.0
 40
34.0
 40
34.0
 40
34.0
 40
35.0
 40
35.0
 40
35.0
 40
36.0
 40
36.0
 40
36.0
 40
37.0
 40
37.0
 40
37.0
 40
38.0
 40
38.0
 40
38.0
 40
39.0
 40
39.0
 40
39.0
 40
40.0
 40
40.0
 40
40.0
 40
41.0
 40
41.0
 40
41.0
 40
41.0
 10
-21.727183702256941
 20
2.0653347439236107
 10
-21.666550021701386
 20
2.3326741536458333
 10
-21.637611219618055
 20
2.4801242404513886
 10
-21.607983398437497
 20
2.6296413845486111
 10
-21.607983398437497
 20
2.6296413845486111
 10
-22.409312608506941
 20
2.7006103515624997
 10
-22.409312608506941
 20
2.7006103515624997
 10
-22.491994900173609
 20
2.0887613932291664
 10
-22.676652018229163
 20
1.6794840494791665
 10
-22.788962131076389
 20
1.4651991102430555
 10
-22.788962131076389
 20
1.4651991102430555
 10
-22.788962131076389
 20
1.8338243272569443
 10
-22.788962131076389
 20
1.8338243272569443
 10
-22.788962131076389
 20
1.8338243272569443
 10
-23.353268771701387
 20
1.8338243272569443
 10
-23.353268771701387
 20
1.8338243272569443
 10
-23.353268771701387
 20
1.8338243272569443
 10
-23.353268771701387
 20
2.8129204644097219
 10
-23.353268771701387
 20
2.8129204644097219
 10
-23.353268771701387
 20
2.8129204644097219
 10
-24.171823459201388
 20
2.8129204644097219
 10
-24.171823459201388
 20
2.8129204644097219
 10
-24.171823459201388
 20
2.8129204644097219
 10
-24.171823459201388
 20
1.8338243272569443
 10
-24.171823459201388
 20
1.8338243272569443
 10
-24.171823459201388
 20
1.8338243272569443
 10
-24.896671549479166
 20
1.8338243272569443
 10
-24.896671549479166
 20
1.8338243272569443
 10
-24.896671549479166
 20
1.8338243272569443
 10
-24.896671549479166
 20
1.0145806206597221
 10
-24.896671549479166
 20
1.0145806206597221
 10
-24.896671549479166
 20
1.0145806206597221
 10
-24.237280273437499
 20
1.0145806206597221
 10
-24.237280273437499
 20
1.0145806206597221
 10
-24.504619683159721
 20
0.0830268012152778
 10
-24.765757921006941
 20
-0.3083360460069444
 10
-25.008981662326388
 20
-0.6115044487847222
 10
-25.008981662326388
 20
-0.6115044487847222
 10
-24.729928927951388
 20
-1.780080837673611
 10
-24.729928927951388
 20
-1.780080837673611
 10
-24.587301974826385
 20
-1.5733751085069443
 10
-24.36819390190972
 20
-1.2350667317708333
 10
-24.171823459201388
 20
-0.5584499782986111
 10
-24.171823459201388
 20
-0.5584499782986111
 10
-24.171823459201388
 20
-2.8080973307291663
 10
-24.171823459201388
 20
-2.8080973307291663
 10
-24.171823459201388
 20
-2.8080973307291663
 10
-23.353268771701387
 20
-2.8080973307291663
 10
-23.353268771701387
 20
-2.8080973307291663
 10
-23.353268771701387
 20
-2.8080973307291663
 10
-23.353268771701387
 20
-0.3324517144097222
 10
-23.353268771701387
 20
-0.3324517144097222
 10
-23.294013129340275
 20
-0.5749864366319444
 10
-23.263696289062498
 20
-0.7003879123263889
 10
-23.014960394965275
 20
-1.1634087456597222
 10
-23.014960394965275
 20
-1.1634087456597222
 10
-22.503708224826386
 20
-0.4867919921875
 10
-22.503708224826386
 20
-0.4867919921875
 10
-22.593280707465276
 20
-0.4041097005208333
 10
-22.658048502604164
 20
-0.3379638671875
 10
-22.777248806423611
 20
-0.1905137803819444
 10
-22.777248806423611
 20
-0.1905137803819444
 10
-21.727183702256941
 20
-0.1905137803819444
 10
-21.727183702256941
 20
-0.1905137803819444
 10
-22.212942165798609
 20
-1.0752143012152777
 10
-22.818589952256943
 20
-1.4844916449652776
 10
-23.062502712673609
 20
-1.6388319227430554
 10
-23.062502712673609
 20
-1.6388319227430554
 10
-22.540226236979166
 20
-2.475301106770833
 10
-22.540226236979166
 20
-2.475301106770833
 10
-22.065492078993053
 20
-2.0419080946180554
 10
-21.690665690104165
 20
-1.5375461154513888
 10
-21.418503146701386
 20
-0.9498128255208332
 10
-21.418503146701386
 20
-0.9498128255208332
 10
-21.418503146701386
 20
-2.8080973307291663
 10
-21.418503146701386
 20
-2.8080973307291663
 10
-21.418503146701386
 20
-2.8080973307291663
 10
-20.569631618923609
 20
-2.8080973307291663
 10
-20.569631618923609
 20
-2.8080973307291663
 10
-20.569631618923609
 20
-2.8080973307291663
 10
-20.569631618923609
 20
-1.085549587673611
 10
-20.569631618923609
 20
-1.085549587673611
 10
-20.320206705729166
 20
-1.6140272352430554
 10
-19.981209309895831
 20
-2.1018527560763887
 10
-19.5181884765625
 20
-2.4642768012152776
 10
-19.5181884765625
 20
-2.4642768012152776
 10
-19.168855794270833
 20
-1.4603759765625
 10
-19.168855794270833
 20
-1.4603759765625
 10
-19.429994032118053
 20
-1.2826090494791667
 10
-19.893014865451388
 20
-0.9498128255208332
 10
-20.325718858506942
 20
-0.1905137803819444
 10
-20.325718858506942
 20
-0.1905137803819444
 10
-19.275653754340276
 20
-0.1905137803819444
 10
-19.275653754340276
 20
-0.1905137803819444
 10
-19.275653754340276
 20
-0.1905137803819444
 10
-19.275653754340276
 20
0.6590467664930555
 10
-19.275653754340276
 20
0.6590467664930555
 10
-19.275653754340276
 20
0.6590467664930555
 10
-20.569631618923609
 20
0.6590467664930555
 10
-20.569631618923609
 20
0.6590467664930555
 10
-20.569631618923609
 20
0.6590467664930555
 10
-20.569631618923609
 20
1.2226643880208332
 10
-20.569631618923609
 20
1.2226643880208332
 10
-20.569631618923609
 20
1.2226643880208332
 10
-19.364537217881942
 20
1.2226643880208332
 10
-19.364537217881942
 20
1.2226643880208332
 10
-19.364537217881942
 20
1.2226643880208332
 10
-19.364537217881942
 20
2.0653347439236107
 10
-19.364537217881942
 20
2.0653347439236107
 10
-19.364537217881942
 20
2.0653347439236107
 10
-20.569631618923609
 20
2.0653347439236107
 10
-20.569631618923609
 20
2.0653347439236107
 10
-20.569631618923609
 20
2.0653347439236107
 10
-20.569631618923609
 20
2.8129204644097219
 10
-20.569631618923609
 20
2.8129204644097219
 10
-20.569631618923609
 20
2.8129204644097219
 10
-21.418503146701386
 20
2.8129204644097219
 10
-21.418503146701386
 20
2.8129204644097219
 10
-21.418503146701386
 20
2.8129204644097219
 10
-21.418503146701386
 20
2.0653347439236107
 10
-21.418503146701386
 20
2.0653347439236107
 10
-21.418503146701386
 20
2.0653347439236107
 10
-21.727183702256941
 20
2.0653347439236107
 10
-21.727183702256941
 20
2.0653347439236107
 97
        0
 92
        1
 93
        1
 72
     4
 94
        3
 73
     0
 74
     0
 95
       23
 96
       19
 40
0.0
 40
0.0
 40
0.0
 40
0.0
 40
1.0
 40
1.0
 40
1.0
 40
2.0
 40
2.0
 40
2.0
 40
3.0
 40
3.0
 40
3.0
 40
4.0
 40
4.0
 40
4.0
 40
5.0
 40
5.0
 40
5.0
 40
6.0
 40
6.0
 40
6.0
 40
6.0
 10
-22.788962131076389
 20
0.6590467664930555
 10
-22.788962131076389
 20
0.6590467664930555
 10
-22.788962131076389
 20
-0.1663981119791667
 10
-22.788962131076389
 20
-0.1663981119791667
 10
-22.889558919270833
 20
-0.0361735026041667
 10
-23.19892849392361
 20
0.3737928602430555
 10
-23.353268771701387
 20
0.7534423828125
 10
-23.353268771701387
 20
0.7534423828125
 10
-23.353268771701387
 20
1.0145806206597221
 10
-23.353268771701387
 20
1.0145806206597221
 10
-23.353268771701387
 20
1.0145806206597221
 10
-22.807565646701388
 20
1.0145806206597221
 10
-22.807565646701388
 20
1.0145806206597221
 10
-22.807565646701388
 20
1.0145806206597221
 10
-22.350056966145832
 20
0.6590467664930555
 10
-22.350056966145832
 20
0.6590467664930555
 10
-22.350056966145832
 20
0.6590467664930555
 10
-22.788962131076389
 20
0.6590467664930555
 10
-22.788962131076389
 20
0.6590467664930555
 97
        0
 75
     2
 76
     1
 98
        1
 10
0.0
 20
0.0
  0
HATCH
  5
97
100
AcDbEntity
  8
レイヤー_1
 62
     7
100
AcDbHatch
 10
0.0
 20
0.0
 30
0.0
210
0.0
220
0.0
230
1.0
  2
SOLID
 70
     1
 71
     0
 91
        2
 92
        1
 93
        1
 72
     4
 94
        3
 73
     0
 74
     0
 95
       44
 96
       40
 40
0.0
 40
0.0
 40
0.0
 40
0.0
 40
1.0
 40
1.0
 40
1.0
 40
2.0
 40
2.0
 40
2.0
 40
3.0
 40
3.0
 40
3.0
 40
4.0
 40
4.0
 40
4.0
 40
5.0
 40
5.0
 40
5.0
 40
6.0
 40
6.0
 40
6.0
 40
7.0
 40
7.0
 40
7.0
 40
8.0
 40
8.0
 40
8.0
 40
9.0
 40
9.0
 40
9.0
 40
10.0
 40
10.0
 40
10.0
 40
11.0
 40
11.0
 40
11.0
 40
12.0
 40
12.0
 40
12.0
 40
13.0
 40
13.0
 40
13.0
 40
13.0
 10
-18.995912000868053
 20
-1.7456298828124999
 10
-18.883601888020831
 20
-1.7394287109374997
 10
-18.824346245659722
 20
-1.7394287109374997
 10
-18.74717610677083
 20
-1.7332275390624998
 10
-18.622463650173611
 20
-1.7270263671874999
 10
-18.023017035590275
 20
-1.6739718967013888
 10
-17.885902235243055
 20
-1.6677707248263887
 10
-17.885902235243055
 20
-1.6677707248263887
 10
-17.885902235243055
 20
-0.2380560980902778
 10
-17.885902235243055
 20
-0.2380560980902778
 10
-17.885902235243055
 20
-0.2380560980902778
 10
-18.830547417534721
 20
-0.2380560980902778
 10
-18.830547417534721
 20
-0.2380560980902778
 10
-18.830547417534721
 20
-0.2380560980902778
 10
-18.830547417534721
 20
0.6225287543402778
 10
-18.830547417534721
 20
0.6225287543402778
 10
-18.830547417534721
 20
0.6225287543402778
 10
-16.052422417534721
 20
0.6225287543402778
 10
-16.052422417534721
 20
0.6225287543402778
 10
-16.052422417534721
 20
0.6225287543402778
 10
-16.052422417534721
 20
-0.2380560980902778
 10
-16.052422417534721
 20
-0.2380560980902778
 10
-16.052422417534721
 20
-0.2380560980902778
 10
-16.978464084201388
 20
-0.2380560980902778
 10
-16.978464084201388
 20
-0.2380560980902778
 10
-16.978464084201388
 20
-0.2380560980902778
 10
-16.978464084201388
 20
-1.5906005859374999
 10
-16.978464084201388
 20
-1.5906005859374999
 10
-16.308048502604166
 20
-1.5258327907986109
 10
-16.064135742187499
 20
-1.4782904730902777
 10
-15.84433865017361
 20
-1.4369493272569442
 10
-15.84433865017361
 20
-1.4369493272569442
 10
-15.833314344618055
 20
-2.279619683159722
 10
-15.833314344618055
 20
-2.279619683159722
 10
-16.509242078993054
 20
-2.4222466362847221
 10
-16.883379448784719
 20
-2.4642768012152776
 10
-18.895315212673609
 20
-2.677183702256944
 10
-18.895315212673609
 20
-2.677183702256944
 10
-18.995912000868053
 20
-1.7456298828124999
 10
-18.995912000868053
 20
-1.7456298828124999
 97
        0
 92
        1
 93
        1
 72
     4
 94
        3
 73
     0
 74
     0
 95
       71
 96
       67
 40
0.0
 40
0.0
 40
0.0
 40
0.0
 40
1.0
 40
1.0
 40
1.0
 40
2.0
 40
2.0
 40
2.0
 40
3.0
 40
3.0
 40
3.0
 40
4.0
 40
4.0
 40
4.0
 40
5.0
 40
5.0
 40
5.0
 40
6.0
 40
6.0
 40
6.0
 40
7.0
 40
7.0
 40
7.0
 40
8.0
 40
8.0
 40
8.0
 40
9.0
 40
9.0
 40
9.0
 40
10.0
 40
10.0
 40
10.0
 40
11.0
 40
11.0
 40
11.0
 40
12.0
 40
12.0
 40
12.0
 40
13.0
 40
13.0
 40
13.0
 40
14.0
 40
14.0
 40
14.0
 40
15.0
 40
15.0
 40
15.0
 40
16.0
 40
16.0
 40
16.0
 40
17.0
 40
17.0
 40
17.0
 40
18.0
 40
18.0
 40
18.0
 40
19.0
 40
19.0
 40
19.0
 40
20.0
 40
20.0
 40
20.0
 40
21.0
 40
21.0
 40
21.0
 40
22.0
 40
22.0
 40
22.0
 40
22.0
 10
-13.90337185329861
 20
2.000566948784722
 10
-13.90337185329861
 20
2.000566948784722
 10
-13.345955403645831
 20
2.000566948784722
 10
-13.345955403645831
 20
2.000566948784722
 10
-13.345955403645831
 20
2.000566948784722
 10
-13.345955403645831
 20
1.1392930772569443
 10
-13.345955403645831
 20
1.1392930772569443
 10
-13.345955403645831
 20
1.1392930772569443
 10
-14.996156141493055
 20
1.1392930772569443
 10
-14.996156141493055
 20
1.1392930772569443
 10
-14.959638129340277
 20
0.3910183376736111
 10
-14.876955837673609
 20
-0.3565673828124999
 10
-14.639933268229166
 20
-1.0683241102430554
 10
-14.579988606770833
 20
-1.2460910373263887
 10
-14.420825195312499
 20
-1.6677707248263887
 10
-14.247881401909721
 20
-1.6677707248263887
 10
-14.081827799479166
 20
-1.6677707248263887
 10
-13.762122938368055
 20
-1.2584933810763888
 10
-13.62431911892361
 20
-0.8609293619791666
 10
-13.62431911892361
 20
-0.8609293619791666
 10
-13.244669596354166
 20
-1.8103976779513886
 10
-13.244669596354166
 20
-1.8103976779513886
 10
-13.369382052951387
 20
-2.1549072265625
 10
-13.672550455729166
 20
-2.8191216362847218
 10
-14.223765733506943
 20
-2.8191216362847218
 10
-14.502818467881943
 20
-2.8191216362847218
 10
-14.788072374131943
 20
-2.6654703776041666
 10
-14.94861382378472
 20
-2.4863254123263885
 10
-15.809198676215276
 20
-1.5375461154513888
 10
-15.868454318576388
 20
0.1843126085069444
 10
-15.90359429253472
 20
1.1392930772569443
 10
-15.90359429253472
 20
1.1392930772569443
 10
-18.942857530381943
 20
1.1392930772569443
 10
-18.942857530381943
 20
1.1392930772569443
 10
-18.942857530381943
 20
1.1392930772569443
 10
-18.942857530381943
 20
2.000566948784722
 10
-18.942857530381943
 20
2.000566948784722
 10
-18.942857530381943
 20
2.000566948784722
 10
-15.933222113715276
 20
2.000566948784722
 10
-15.933222113715276
 20
2.000566948784722
 10
-15.939423285590276
 20
2.0887613932291664
 10
-15.951136610243054
 20
2.5228434244791664
 10
-15.957337782118055
 20
2.6172390407986108
 10
-15.957337782118055
 20
2.6709825303819441
 10
-15.957337782118055
 20
2.7178358289930551
 10
-15.963538953993053
 20
2.8246337890624997
 10
-15.963538953993053
 20
2.8246337890624997
 10
-15.01338161892361
 20
2.8246337890624997
 10
-15.01338161892361
 20
2.8246337890624997
 10
-15.01958279079861
 20
2.356789822048611
 10
-15.01958279079861
 20
2.2196750217013888
 10
-15.01338161892361
 20
2.000566948784722
 10
-15.01338161892361
 20
2.000566948784722
 10
-14.431849500868054
 20
2.000566948784722
 10
-14.431849500868054
 20
2.000566948784722
 10
-14.586189778645831
 20
2.2258761935763887
 10
-14.717103407118055
 20
2.4160454644097218
 10
-14.865242513020831
 20
2.5517822265624996
 10
-14.865242513020831
 20
2.5517822265624996
 10
-14.099053276909721
 20
2.8611518012152777
 10
-14.099053276909721
 20
2.8611518012152777
 10
-14.010858832465276
 20
2.7950059678819441
 10
-13.933688693576388
 20
2.7412624782986108
 10
-13.523033311631943
 20
2.1666205512152774
 10
-13.523033311631943
 20
2.1666205512152774
 10
-13.90337185329861
 20
2.000566948784722
 10
-13.90337185329861
 20
2.000566948784722
 97
        0
 75
     2
 76
     1
 98
        1
 10
0.0
 20
0.0
  0
HATCH
  5
96
100
AcDbEntity
  8
レイヤー_1
 62
     7
100
AcDbHatch
 10
0.0
 20
0.0
 30
0.0
210
0.0
220
0.0
230
1.0
  2
SOLID
 70
     1
 71
     0
 91
        4
 92
        1
 93
        1
 72
     4
 94
        3
 73
     0
 74
     0
 95
       14
 96
       10
 40
0.0
 40
0.0
 40
0.0
 40
0.0
 40
1.0
 40
1.0
 40
1.0
 40
2.0
 40
2.0
 40
2.0
 40
3.0
 40
3.0
 40
3.0
 40
3.0
 10
-11.114222547743054
 20
1.3053466796875
 10
-10.550604926215277
 20
1.7332275390624998
 10
-10.348033311631944
 20
1.9585367838541665
 10
-10.199205186631943
 20
2.1418158637152778
 10
-10.022127278645833
 20
1.9468234592013887
 10
-9.7906168619791654
 20
1.6973985460069443
 10
-9.2738525390624993
 20
1.3053466796875
 10
-9.2738525390624993
 20
1.3053466796875
 10
-11.114222547743054
 20
1.3053466796875
 10
-11.114222547743054
 20
1.3053466796875
 97
        0
 92
       16
 93
        1
 72
     4
 94
        3
 73
     0
 74
     0
 95
       35
 96
       31
 40
0.0
 40
0.0
 40
0.0
 40
0.0
 40
1.0
 40
1.0
 40
1.0
 40
2.0
 40
2.0
 40
2.0
 40
3.0
 40
3.0
 40
3.0
 40
4.0
 40
4.0
 40
4.0
 40
5.0
 40
5.0
 40
5.0
 40
6.0
 40
6.0
 40
6.0
 40
7.0
 40
7.0
 40
7.0
 40
8.0
 40
8.0
 40
8.0
 40
9.0
 40
9.0
 40
9.0
 40
10.0
 40
10.0
 40
10.0
 40
10.0
 10
-11.784638129340276
 20
0.5109076605902777
 10
-11.784638129340276
 20
0.5109076605902777
 10
-8.6268636067708329
 20
0.5109076605902777
 10
-8.6268636067708329
 20
0.5109076605902777
 10
-8.6268636067708329
 20
0.5109076605902777
 10
-8.6268636067708329
 20
0.8726426866319443
 10
-8.6268636067708329
 20
0.8726426866319443
 10
-8.2051839192708318
 20
0.6177056206597221
 10
-7.9502468532986104
 20
0.5047064887152777
 10
-7.7428521050347214
 20
0.4144449869791667
 10
-7.7428521050347214
 20
0.4144449869791667
 10
-7.2791422526041663
 20
1.3115478515624999
 10
-7.2791422526041663
 20
1.3115478515624999
 10
-8.181068250868055
 20
1.6505452473958331
 10
-9.0361409505208332
 20
2.1301025390624999
 10
-9.6652153862847214
 20
2.8611518012152777
 10
-9.6652153862847214
 20
2.8611518012152777
 10
-10.722170681423609
 20
2.8611518012152777
 10
-10.722170681423609
 20
2.8611518012152777
 10
-11.101820203993055
 20
2.325783962673611
 10
-11.7605224609375
 20
1.8400254991319442
 10
-13.137871636284721
 20
1.2991455078124998
 10
-13.137871636284721
 20
1.2991455078124998
 10
-12.686564127604166
 20
0.3979085286458333
 10
-12.686564127604166
 20
0.3979085286458333
 10
-12.508797200520831
 20
0.4681884765625
 10
-12.248347981770833
 20
0.5694742838541667
 10
-11.784638129340276
 20
0.8485270182291665
 10
-11.784638129340276
 20
0.8485270182291665
 10
-11.784638129340276
 20
0.5109076605902777
 10
-11.784638129340276
 20
0.5109076605902777
 97
        0
 92
       16
 93
        1
 72
     4
 94
        3
 73
     0
 74
     0
 95
       44
 96
       40
 40
0.0
 40
0.0
 40
0.0
 40
0.0
 40
1.0
 40
1.0
 40
1.0
 40
2.0
 40
2.0
 40
2.0
 40
3.0
 40
3.0
 40
3.0
 40
4.0
 40
4.0
 40
4.0
 40
5.0
 40
5.0
 40
5.0
 40
6.0
 40
6.0
 40
6.0
 40
7.0
 40
7.0
 40
7.0
 40
8.0
 40
8.0
 40
8.0
 40
9.0
 40
9.0
 40
9.0
 40
10.0
 40
10.0
 40
10.0
 40
11.0
 40
11.0
 40
11.0
 40
12.0
 40
12.0
 40
12.0
 40
13.0
 40
13.0
 40
13.0
 40
13.0
 10
-7.5168538411458323
 20
-2.4105333116319443
 10
-7.8730767144097218
 20
-1.8462266710069444
 10
-8.2472140842013886
 20
-1.3177490234374998
 10
-8.7639784071180546
 20
-0.7603325737847222
 10
-8.7639784071180546
 20
-0.7603325737847222
 10
-7.5354573567708325
 20
-0.7603325737847222
 10
-7.5354573567708325
 20
-0.7603325737847222
 10
-7.5354573567708325
 20
-0.7603325737847222
 10
-7.5354573567708325
 20
0.0947401258680556
 10
-7.5354573567708325
 20
0.0947401258680556
 10
-7.5354573567708325
 20
0.0947401258680556
 10
-12.888446723090276
 20
0.0947401258680556
 10
-12.888446723090276
 20
0.0947401258680556
 10
-12.888446723090276
 20
0.0947401258680556
 10
-12.888446723090276
 20
-0.7603325737847222
 10
-12.888446723090276
 20
-0.7603325737847222
 10
-12.888446723090276
 20
-0.7603325737847222
 10
-11.56553005642361
 20
-0.7603325737847222
 10
-11.56553005642361
 20
-0.7603325737847222
 10
-11.68955349392361
 20
-1.1454942491319444
 10
-11.826668294270831
 20
-1.4658881293402777
 10
-11.974118381076387
 20
-1.780080837673611
 10
-12.080916341145832
 20
-1.780080837673611
 10
-12.544626193576388
 20
-1.7869710286458331
 10
-12.639710828993055
 20
-1.7869710286458331
 10
-12.686564127604166
 20
-1.7869710286458331
 10
-12.728594292534721
 20
-1.7869710286458331
 10
-12.847794596354165
 20
-1.780080837673611
 10
-12.847794596354165
 20
-1.780080837673611
 10
-12.704478624131943
 20
-2.7006103515624997
 10
-12.704478624131943
 20
-2.7006103515624997
 10
-11.3574462890625
 20
-2.6592692057291663
 10
-11.149362521701388
 20
-2.6413547092013885
 10
-8.615150282118055
 20
-2.4394721137152775
 10
-8.5028401692708329
 20
-2.6241292317708331
 10
-8.4490966796875
 20
-2.7130126953124996
 10
-8.3719265407986097
 20
-2.8611518012152777
 10
-8.3719265407986097
 20
-2.8611518012152777
 10
-7.5168538411458323
 20
-2.4105333116319443
 10
-7.5168538411458323
 20
-2.4105333116319443
 97
        0
 92
        1
 93
        1
 72
     4
 94
        3
 73
     0
 74
     0
 95
       23
 96
       19
 40
0.0
 40
0.0
 40
0.0
 40
0.0
 40
1.0
 40
1.0
 40
1.0
 40
2.0
 40
2.0
 40
2.0
 40
3.0
 40
3.0
 40
3.0
 40
4.0
 40
4.0
 40
4.0
 40
5.0
 40
5.0
 40
5.0
 40
6.0
 40
6.0
 40
6.0
 40
6.0
 10
-9.6066487630208321
 20
-1.0917507595486111
 10
-9.4640218098958329
 20
-1.2646945529513889
 10
-9.3565348307291654
 20
-1.3949191623263888
 10
-9.1195122612847221
 20
-1.7098008897569443
 10
-9.3103705512152768
 20
-1.7153130425347221
 10
-10.246747504340277
 20
-1.7573432074652777
 10
-10.45552029079861
 20
-1.7690565321180554
 10
-10.561629231770832
 20
-1.7745686848958331
 10
-10.609171549479166
 20
-1.7745686848958331
 10
-11.037052408854166
 20
-1.7745686848958331
 10
-10.859285481770833
 20
-1.4190348307291665
 10
-10.740085177951388
 20
-1.1510064019097221
 10
-10.574031575520833
 20
-0.7603325737847222
 10
-10.574031575520833
 20
-0.7603325737847222
 10
-8.9059163411458329
 20
-0.7603325737847222
 10
-8.9059163411458329
 20
-0.7603325737847222
 10
-8.9059163411458329
 20
-0.7603325737847222
 10
-9.6066487630208321
 20
-1.0917507595486111
 10
-9.6066487630208321
 20
-1.0917507595486111
 97
        0
 75
     2
 76
     1
 98
        1
 10
0.0
 20
0.0
  0
HATCH
  5
95
100
AcDbEntity
  8
レイヤー_1
 62
     7
100
AcDbHatch
 10
0.0
 20
0.0
 30
0.0
210
0.0
220
0.0
230
1.0
  2
SOLID
 70
     1
 71
     0
 91
        2
 92
        1
 93
        1
 72
     4
 94
        3
 73
     0
 74
     0
 95
       53
 96
       49
 40
0.0
 40
0.0
 40
0.0
 40
0.0
 40
1.0
 40
1.0
 40
1.0
 40
2.0
 40
2.0
 40
2.0
 40
3.0
 40
3.0
 40
3.0
 40
4.0
 40
4.0
 40
4.0
 40
5.0
 40
5.0
 40
5.0
 40
6.0
 40
6.0
 40
6.0
 40
7.0
 40
7.0
 40
7.0
 40
8.0
 40
8.0
 40
8.0
 40
9.0
 40
9.0
 40
9.0
 40
10.0
 40
10.0
 40
10.0
 40
11.0
 40
11.0
 40
11.0
 40
12.0
 40
12.0
 40
12.0
 40
13.0
 40
13.0
 40
13.0
 40
14.0
 40
14.0
 40
14.0
 40
15.0
 40
15.0
 40
15.0
 40
16.0
 40
16.0
 40
16.0
 40
16.0
 10
-3.659035915798611
 20
2.8129204644097219
 10
-3.659035915798611
 20
2.8129204644097219
 10
-2.7323052300347221
 20
2.8129204644097219
 10
-2.7323052300347221
 20
2.8129204644097219
 10
-2.7323052300347221
 20
2.8129204644097219
 10
-2.7323052300347221
 20
1.3418646918402777
 10
-2.7323052300347221
 20
1.3418646918402777
 10
-2.7323052300347221
 20
1.3418646918402777
 10
-1.581643337673611
 20
1.3418646918402777
 10
-1.581643337673611
 20
1.3418646918402777
 10
-1.581643337673611
 20
1.3418646918402777
 10
-1.581643337673611
 20
0.4268473307291666
 10
-1.581643337673611
 20
0.4268473307291666
 10
-1.581643337673611
 20
0.4268473307291666
 10
-2.7323052300347221
 20
0.4268473307291666
 10
-2.7323052300347221
 20
0.4268473307291666
 10
-2.7323052300347221
 20
0.4268473307291666
 10
-2.7323052300347221
 20
-1.7456298828124999
 10
-2.7323052300347221
 20
-1.7456298828124999
 10
-2.7323052300347221
 20
-1.7456298828124999
 10
-1.4927598741319443
 20
-1.7456298828124999
 10
-1.4927598741319443
 20
-1.7456298828124999
 10
-1.4927598741319443
 20
-1.7456298828124999
 10
-1.4927598741319443
 20
-2.6475558810763888
 10
-1.4927598741319443
 20
-2.6475558810763888
 10
-1.4927598741319443
 20
-2.6475558810763888
 10
-5.018470594618055
 20
-2.6475558810763888
 10
-5.018470594618055
 20
-2.6475558810763888
 10
-5.018470594618055
 20
-2.6475558810763888
 10
-5.018470594618055
 20
-1.7456298828124999
 10
-5.018470594618055
 20
-1.7456298828124999
 10
-5.018470594618055
 20
-1.7456298828124999
 10
-3.659035915798611
 20
-1.7456298828124999
 10
-3.659035915798611
 20
-1.7456298828124999
 10
-3.659035915798611
 20
-1.7456298828124999
 10
-3.659035915798611
 20
0.4268473307291666
 10
-3.659035915798611
 20
0.4268473307291666
 10
-3.659035915798611
 20
0.4268473307291666
 10
-4.7283935546875
 20
0.4268473307291666
 10
-4.7283935546875
 20
0.4268473307291666
 10
-4.7283935546875
 20
0.4268473307291666
 10
-4.7283935546875
 20
1.3418646918402777
 10
-4.7283935546875
 20
1.3418646918402777
 10
-4.7283935546875
 20
1.3418646918402777
 10
-3.659035915798611
 20
1.3418646918402777
 10
-3.659035915798611
 20
1.3418646918402777
 10
-3.659035915798611
 20
1.3418646918402777
 10
-3.659035915798611
 20
2.8129204644097219
 10
-3.659035915798611
 20
2.8129204644097219
 97
        0
 92
        1
 93
        1
 72
     4
 94
        3
 73
     0
 74
     0
 95
       59
 96
       55
 40
0.0
 40
0.0
 40
0.0
 40
0.0
 40
1.0
 40
1.0
 40
1.0
 40
2.0
 40
2.0
 40
2.0
 40
3.0
 40
3.0
 40
3.0
 40
4.0
 40
4.0
 40
4.0
 40
5.0
 40
5.0
 40
5.0
 40
6.0
 40
6.0
 40
6.0
 40
7.0
 40
7.0
 40
7.0
 40
8.0
 40
8.0
 40
8.0
 40
9.0
 40
9.0
 40
9.0
 40
10.0
 40
10.0
 40
10.0
 40
11.0
 40
11.0
 40
11.0
 40
12.0
 40
12.0
 40
12.0
 40
13.0
 40
13.0
 40
13.0
 40
14.0
 40
14.0
 40
14.0
 40
15.0
 40
15.0
 40
15.0
 40
16.0
 40
16.0
 40
16.0
 40
17.0
 40
17.0
 40
17.0
 40
18.0
 40
18.0
 40
18.0
 40
18.0
 10
-5.422235785590277
 20
-2.8136094835069443
 10
-5.422235785590277
 20
-2.8136094835069443
 10
-6.3234727647569438
 20
-2.8136094835069443
 10
-6.3234727647569438
 20
-2.8136094835069443
 10
-6.3234727647569438
 20
-2.8136094835069443
 10
-6.3234727647569438
 20
-0.8306125217013888
 10
-6.3234727647569438
 20
-0.8306125217013888
 10
-6.5673855251736102
 20
-1.0386962890625
 10
-6.7334391276041661
 20
-1.1578965928819442
 10
-6.9539252387152768
 20
-1.3053466796875
 10
-6.9539252387152768
 20
-1.3053466796875
 10
-7.178545464409722
 20
-0.2552815755208333
 10
-7.178545464409722
 20
-0.2552815755208333
 10
-6.5143310546874993
 20
0.1422824435763889
 10
-5.9679389105902771
 20
0.7768690321180555
 10
-5.7722574869791661
 20
1.1689208984374999
 10
-5.7722574869791661
 20
1.1689208984374999
 10
-7.0717475043402773
 20
1.1689208984374999
 10
-7.0717475043402773
 20
1.1689208984374999
 10
-7.0717475043402773
 20
1.1689208984374999
 10
-7.0717475043402773
 20
2.000566948784722
 10
-7.0717475043402773
 20
2.000566948784722
 10
-7.0717475043402773
 20
2.000566948784722
 10
-6.3234727647569438
 20
2.000566948784722
 10
-6.3234727647569438
 20
2.000566948784722
 10
-6.3234727647569438
 20
2.000566948784722
 10
-6.3234727647569438
 20
2.8191216362847218
 10
-6.3234727647569438
 20
2.8191216362847218
 10
-6.3234727647569438
 20
2.8191216362847218
 10
-5.422235785590277
 20
2.8191216362847218
 10
-5.422235785590277
 20
2.8191216362847218
 10
-5.422235785590277
 20
2.8191216362847218
 10
-5.422235785590277
 20
2.000566948784722
 10
-5.422235785590277
 20
2.000566948784722
 10
-5.422235785590277
 20
2.000566948784722
 10
-4.8165879991319436
 20
2.000566948784722
 10
-4.8165879991319436
 20
2.000566948784722
 10
-4.8165879991319436
 20
2.000566948784722
 10
-4.8165879991319436
 20
1.1634087456597222
 10
-4.8165879991319436
 20
1.1634087456597222
 10
-4.904782443576388
 20
0.9498128255208332
 10
-5.018470594618055
 20
0.6941867404513888
 10
-5.2851209852430552
 20
0.3083360460069444
 10
-4.9585259331597218
 20
-0.0533989800347222
 10
-4.6677598741319439
 20
-0.2256537543402778
 10
-4.4782796223958332
 20
-0.3324517144097222
 10
-4.4782796223958332
 20
-0.3324517144097222
 10
-4.9233859592013882
 20
-1.1751220703124998
 10
-4.9233859592013882
 20
-1.1751220703124998
 10
-5.0956407335069436
 20
-1.0152696397569443
 10
-5.2320665147569443
 20
-0.8726426866319443
 10
-5.422235785590277
 20
-0.6059922960069444
 10
-5.422235785590277
 20
-0.6059922960069444
 10
-5.422235785590277
 20
-2.8136094835069443
 10
-5.422235785590277
 20
-2.8136094835069443
 97
        0
 75
     2
 76
     1
 98
        1
 10
0.0
 20
0.0
  0
HATCH
  5
94
100
AcDbEntity
  8
レイヤー_1
 62
     7
100
AcDbHatch
 10
0.0
 20
0.0
 30
0.0
210
0.0
220
0.0
230
1.0
  2
SOLID
 70
     1
 71
     0
 91
        1
 92
        1
 93
        1
 72
     4
 94
        3
 73
     0
 74
     0
 95
       47
 96
       43
 40
0.0
 40
0.0
 40
0.0
 40
0.0
 40
1.0
 40
1.0
 40
1.0
 40
2.0
 40
2.0
 40
2.0
 40
3.0
 40
3.0
 40
3.0
 40
4.0
 40
4.0
 40
4.0
 40
5.0
 40
5.0
 40
5.0
 40
6.0
 40
6.0
 40
6.0
 40
7.0
 40
7.0
 40
7.0
 40
8.0
 40
8.0
 40
8.0
 40
9.0
 40
9.0
 40
9.0
 40
10.0
 40
10.0
 40
10.0
 40
11.0
 40
11.0
 40
11.0
 40
12.0
 40
12.0
 40
12.0
 40
13.0
 40
13.0
 40
13.0
 40
14.0
 40
14.0
 40
14.0
 40
14.0
 10
1.0180257161458333
 20
0.5991021050347222
 10
1.4817355685763887
 20
0.4096218532986111
 10
1.8255560980902776
 20
0.2373670789930555
 10
2.2520589192708331
 20
-0.0837158203125
 10
2.5021728515624999
 20
0.2669949001736111
 10
2.6627143012152774
 20
0.6053032769097222
 10
2.8101643880208331
 20
1.1275797526041667
 10
2.8101643880208331
 20
1.1275797526041667
 10
1.0951958550347221
 20
1.1275797526041667
 10
1.0951958550347221
 20
1.1275797526041667
 10
0.6211507161458333
 20
0.5281331380208333
 10
0.1036973741319444
 20
0.0768256293402778
 10
-0.5067735460069444
 20
-0.2731960720486111
 10
-0.5067735460069444
 20
-0.2731960720486111
 10
-1.1124213324652776
 20
0.4144449869791667
 10
-1.1124213324652776
 20
0.4144449869791667
 10
-0.0141248914930556
 20
1.0028672960069445
 10
0.5143527560763889
 20
1.7263373480902777
 10
0.899514431423611
 20
2.7178358289930551
 10
0.899514431423611
 20
2.7178358289930551
 10
1.9144395616319443
 20
2.5869222005208332
 10
1.9144395616319443
 20
2.5869222005208332
 10
1.8427815755208332
 20
2.3740152994791663
 10
1.795928276909722
 20
2.2610161675347222
 10
1.6650146484374999
 20
1.9943657769097221
 10
1.6650146484374999
 20
1.9943657769097221
 10
3.9801188151041664
 20
1.9943657769097221
 10
3.9801188151041664
 20
1.9943657769097221
 10
3.576353624131944
 20
-0.564651150173611
 10
2.2348334418402778
 20
-2.0481092664930554
 10
-0.2401231553819444
 20
-2.630330403645833
 10
-0.2401231553819444
 20
-2.630330403645833
 10
-0.7444851345486111
 20
-1.780080837673611
 10
-0.7444851345486111
 20
-1.780080837673611
 10
-0.3648356119791666
 20
-1.7153130425347221
 10
0.5674072265625
 20
-1.5609727647569442
 10
1.5644178602430554
 20
-0.7899603949652777
 10
1.0476535373263889
 20
-0.3737928602430555
 10
0.6321750217013888
 20
-0.1663981119791667
 10
0.3889512803819444
 20
-0.0423746744791667
 10
0.3889512803819444
 20
-0.0423746744791667
 10
1.0180257161458333
 20
0.5991021050347222
 10
1.0180257161458333
 20
0.5991021050347222
 97
        0
 75
     2
 76
     1
 98
        1
 10
0.0
 20
0.0
  0
HATCH
  5
93
100
AcDbEntity
  8
レイヤー_1
 62
     7
100
AcDbHatch
 10
0.0
 20
0.0
 30
0.0
210
0.0
220
0.0
230
1.0
  2
SOLID
 70
     1
 71
     0
 91
        1
 92
        1
 93
        1
 72
     4
 94
        3
 73
     0
 74
     0
 95
       68
 96
       64
 40
0.0
 40
0.0
 40
0.0
 40
0.0
 40
1.0
 40
1.0
 40
1.0
 40
2.0
 40
2.0
 40
2.0
 40
3.0
 40
3.0
 40
3.0
 40
4.0
 40
4.0
 40
4.0
 40
5.0
 40
5.0
 40
5.0
 40
6.0
 40
6.0
 40
6.0
 40
7.0
 40
7.0
 40
7.0
 40
8.0
 40
8.0
 40
8.0
 40
9.0
 40
9.0
 40
9.0
 40
10.0
 40
10.0
 40
10.0
 40
11.0
 40
11.0
 40
11.0
 40
12.0
 40
12.0
 40
12.0
 40
13.0
 40
13.0
 40
13.0
 40
14.0
 40
14.0
 40
14.0
 40
15.0
 40
15.0
 40
15.0
 40
16.0
 40
16.0
 40
16.0
 40
17.0
 40
17.0
 40
17.0
 40
18.0
 40
18.0
 40
18.0
 40
19.0
 40
19.0
 40
19.0
 40
20.0
 40
20.0
 40
20.0
 40
21.0
 40
21.0
 40
21.0
 40
21.0
 10
9.5184543185763886
 20
1.6030029296874999
 10
9.5184543185763886
 20
1.6030029296874999
 10
9.5184543185763886
 20
0.6941867404513888
 10
9.5184543185763886
 20
0.6941867404513888
 10
9.5184543185763886
 20
0.0651123046875
 10
9.4647108289930539
 20
-1.1454942491319444
 10
9.3572238498263882
 20
-1.6202284071180555
 10
9.1622314453125
 20
-2.480813259548611
 10
8.6633816189236104
 20
-2.5579833984374996
 10
8.1349039713541664
 20
-2.5579833984374996
 10
7.5533718532986107
 20
-2.5579833984374996
 10
7.2619167751736109
 20
-2.4932156032986108
 10
7.1082655164930548
 20
-2.4573866102430553
 10
7.1082655164930548
 20
-2.4573866102430553
 10
7.0552110460069439
 20
-1.5258327907986109
 10
7.0552110460069439
 20
-1.5258327907986109
 10
7.2743191189236107
 20
-1.5664849175347222
 10
7.6071153428819436
 20
-1.6264295789930554
 10
7.9626491970486102
 20
-1.6264295789930554
 10
8.2472140842013886
 20
-1.6264295789930554
 10
8.3602132161458318
 20
-1.5609727647569442
 10
8.4201578776041668
 20
-1.4011203342013887
 10
8.5200656467013882
 20
-1.0807264539930554
 10
8.5676079644097207
 20
0.2601047092013888
 10
8.5676079644097207
 20
0.4034206814236111
 10
8.5676079644097207
 20
0.4034206814236111
 10
8.5676079644097207
 20
0.7127902560763888
 10
8.5676079644097207
 20
0.7127902560763888
 10
8.5676079644097207
 20
0.7127902560763888
 10
7.2743191189236107
 20
0.7127902560763888
 10
7.2743191189236107
 20
0.7127902560763888
 10
7.1496066623263879
 20
-0.0120578342013889
 10
6.9539252387152768
 20
-0.5343343098958333
 10
6.7279269748263886
 20
-0.9498128255208332
 10
6.1822238498263884
 20
-1.9592258029513887
 10
5.4580647786458325
 20
-2.4105333116319443
 10
5.1610975477430552
 20
-2.5945014105902775
 10
5.1610975477430552
 20
-2.5945014105902775
 10
4.5079074435763884
 20
-1.8758544921874998
 10
4.5079074435763884
 20
-1.8758544921874998
 10
5.7074896918402773
 20
-1.2116400824652778
 10
6.0747368706597218
 20
-0.4626763237847222
 10
6.2883327907986102
 20
0.7127902560763888
 10
6.2883327907986102
 20
0.7127902560763888
 10
4.7869601779513884
 20
0.7127902560763888
 10
4.7869601779513884
 20
0.7127902560763888
 10
4.7869601779513884
 20
0.7127902560763888
 10
4.7869601779513884
 20
1.6030029296874999
 10
4.7869601779513884
 20
1.6030029296874999
 10
4.7869601779513884
 20
1.6030029296874999
 10
6.3958197699652768
 20
1.6030029296874999
 10
6.3958197699652768
 20
1.6030029296874999
 10
6.4247585720486109
 20
2.000566948784722
 10
6.4316487630208323
 20
2.2493028428819444
 10
6.4316487630208323
 20
2.6296413845486111
 10
6.4316487630208323
 20
2.6296413845486111
 10
7.4341715494791663
 20
2.6172390407986108
 10
7.4341715494791663
 20
2.6172390407986108
 10
7.416257052951388
 20
2.1066758897569442
 10
7.3990315755208327
 20
1.8992811414930555
 10
7.375604926215277
 20
1.6030029296874999
 10
7.375604926215277
 20
1.6030029296874999
 10
9.5184543185763886
 20
1.6030029296874999
 10
9.5184543185763886
 20
1.6030029296874999
 97
        0
 75
     2
 76
     1
 98
        1
 10
0.0
 20
0.0
  0
HATCH
  5
92
100
AcDbEntity
  8
レイヤー_1
 62
     7
100
AcDbHatch
 10
0.0
 20
0.0
 30
0.0
210
0.0
220
0.0
230
1.0
  2
SOLID
 70
     1
 71
     0
 91
        3
 92
        1
 93
        1
 72
     4
 94
        3
 73
     0
 74
     0
 95
       17
 96
       13
 40
0.0
 40
0.0
 40
0.0
 40
0.0
 40
1.0
 40
1.0
 40
1.0
 40
2.0
 40
2.0
 40
2.0
 40
3.0
 40
3.0
 40
3.0
 40
4.0
 40
4.0
 40
4.0
 40
4.0
 10
10.639488389756943
 20
-1.5203206380208332
 10
12.508797200520831
 20
-1.3528889973958331
 10
13.815177408854165
 20
-1.0097574869791666
 10
14.622707790798609
 20
1.6973985460069443
 10
14.622707790798609
 20
1.6973985460069443
 10
15.518432617187498
 20
1.2702067057291666
 10
15.518432617187498
 20
1.2702067057291666
 10
14.557250976562498
 20
-1.5850884331597221
 10
13.096530490451388
 20
-2.2734185112847221
 10
10.899937608506944
 20
-2.5407579210069442
 10
10.899937608506944
 20
-2.5407579210069442
 10
10.639488389756943
 20
-1.5203206380208332
 10
10.639488389756943
 20
-1.5203206380208332
 97
        0
 92
        1
 93
        1
 72
     4
 94
        3
 73
     0
 74
     0
 95
       17
 96
       13
 40
0.0
 40
0.0
 40
0.0
 40
0.0
 40
1.0
 40
1.0
 40
1.0
 40
2.0
 40
2.0
 40
2.0
 40
3.0
 40
3.0
 40
3.0
 40
4.0
 40
4.0
 40
4.0
 40
4.0
 10
12.076093207465277
 20
-0.3917073567708333
 10
11.56553005642361
 20
-0.1071424696180555
 10
10.953681098090277
 20
0.1298800998263889
 10
10.32529568142361
 20
0.3028238932291666
 10
10.32529568142361
 20
0.3028238932291666
 10
10.657402886284721
 20
1.0972629123263888
 10
10.657402886284721
 20
1.0972629123263888
 10
11.120423719618055
 20
1.0028672960069445
 10
11.874210611979166
 20
0.7658447265624999
 10
12.438517252604166
 20
0.4571641710069444
 10
12.438517252604166
 20
0.4571641710069444
 10
12.076093207465277
 20
-0.3917073567708333
 10
12.076093207465277
 20
-0.3917073567708333
 97
        0
 92
        1
 93
        1
 72
     4
 94
        3
 73
     0
 74
     0
 95
       17
 96
       13
 40
0.0
 40
0.0
 40
0.0
 40
0.0
 40
1.0
 40
1.0
 40
1.0
 40
2.0
 40
2.0
 40
2.0
 40
3.0
 40
3.0
 40
3.0
 40
4.0
 40
4.0
 40
4.0
 40
4.0
 10
12.598369683159721
 20
1.0380072699652776
 10
12.022349717881943
 20
1.3356635199652775
 10
11.405677625868055
 20
1.5368570963541666
 10
10.782115342881944
 20
1.6911973741319444
 10
10.782115342881944
 20
1.6911973741319444
 10
11.120423719618055
 20
2.4801242404513886
 10
11.120423719618055
 20
2.4801242404513886
 10
11.684041341145832
 20
2.3740152994791663
 10
12.396487087673609
 20
2.1604193793402775
 10
12.972507052951388
 20
1.8813666449652775
 10
12.972507052951388
 20
1.8813666449652775
 10
12.598369683159721
 20
1.0380072699652776
 10
12.598369683159721
 20
1.0380072699652776
 97
        0
 75
     2
 76
     1
 98
        1
 10
0.0
 20
0.0
  0
HATCH
  5
91
100
AcDbEntity
  8
レイヤー_1
 62
     7
100
AcDbHatch
 10
0.0
 20
0.0
 30
0.0
210
0.0
220
0.0
230
1.0
  2
SOLID
 70
     1
 71
     0
 91
        1
 92
        3
 72
     0
 73
     1
 93
       12
 10
19.75727810329861
 20
1.4183458116319443
 10
19.75727810329861
 20
-2.4394721137152775
 10
16.124080403645831
 20
-2.4394721137152775
 10
16.124080403645831
 20
-1.6202284071180555
 10
18.853974066840276
 20
-1.6202284071180555
 10
18.853974066840276
 20
-0.8726426866319443
 10
16.278420681423608
 20
-0.8726426866319443
 10
16.278420681423608
 20
-0.0892279730902778
 10
18.853974066840276
 20
-0.0892279730902778
 10
18.853974066840276
 20
0.6177056206597221
 10
16.183336046006943
 20
0.6177056206597221
 10
16.183336046006943
 20
1.4183458116319443
 97
        0
 75
     2
 76
     1
 98
        1
 10
0.0
 20
0.0
  0
HATCH
  5
90
100
AcDbEntity
  8
レイヤー_1
 62
     7
100
AcDbHatch
 10
0.0
 20
0.0
 30
0.0
210
0.0
220
0.0
230
1.0
  2
SOLID
 70
     1
 71
     0
 91
        1
 92
        3
 72
     0
 73
     1
 93
        4
 10
25.008981662326388
 20
0.3855061848958333
 10
25.008981662326388
 20
-0.3620795355902777
 10
20.604771592881942
 20
-0.3620795355902777
 10
20.604771592881942
 20
0.3855061848958333
 97
        0
 75
     2
 76
     1
 98
        1
 10
0.0
 20
0.0
  0
ENDBLK
  5
99
100
AcDbEntity
  8
レイヤー_1
100
AcDbBlockEnd
  0
BLOCK
  5
A1
100
AcDbEntity
  8
レイヤー_1
 62
     7
100
AcDbBlockBegin
  2
AI9-BLK9
 70
     0
 10
0.0
 20
0.0
 30
0.0
  3
AI9-BLK9
  1

  0
INSERT
  5
B7
100
AcDbEntity
  8
レイヤー_1
 62
     7
100
AcDbBlockReference
  2
AI9-BLK14
 10
6.617684
 20
1.868792
 30
0.0
  0
INSERT
  5
B2
100
AcDbEntity
  8
レイヤー_1
 62
     7
100
AcDbBlockReference
  2
AI9-BLK13
 10
-22.129571
 20
3.748264
 30
0.0
  0
INSERT
  5
AD
100
AcDbEntity
  8
レイヤー_1
 62
     7
100
AcDbBlockReference
  2
AI9-BLK12
 10
-18.380962
 20
-0.001378
 30
0.0
  0
INSERT
  5
A8
100
AcDbEntity
  8
レイヤー_1
 62
     7
100
AcDbBlockReference
  2
AI9-BLK11
 10
-14.629598
 20
3.748264
 30
0.0
  0
INSERT
  5
A3
100
AcDbEntity
  8
レイヤー_1
 62
     7
100
AcDbBlockReference
  2
AI9-BLK10
 10
-22.129571
 20
-3.75102
 30
0.0
  0
ENDBLK
  5
C6
100
AcDbEntity
  8
レイヤー_1
100
AcDbBlockEnd
  0
BLOCK
  5
A4
100
AcDbEntity
  8
レイヤー_1
 62
     7
100
AcDbBlockBegin
  2
AI9-BLK10
 70
     0
 10
0.0
 20
0.0
 30
0.0
  3
AI9-BLK10
  1

  0
HATCH
  5
A5
100
AcDbEntity
  8
レイヤー_1
 62
     7
100
AcDbHatch
 10
0.0
 20
0.0
 30
0.0
210
0.0
220
0.0
230
1.0
  2
SOLID
 70
     1
 71
     0
 91
        1
 92
        1
 93
        1
 72
     4
 94
        3
 73
     0
 74
     0
 95
       29
 96
       25
 40
0.0
 40
0.0
 40
0.0
 40
0.0
 40
1.0
 40
1.0
 40
1.0
 40
2.0
 40
2.0
 40
2.0
 40
3.0
 40
3.0
 40
3.0
 40
4.0
 40
4.0
 40
4.0
 40
5.0
 40
5.0
 40
5.0
 40
6.0
 40
6.0
 40
6.0
 40
7.0
 40
7.0
 40
7.0
 40
8.0
 40
8.0
 40
8.0
 40
8.0
 10
1.625051540798611
 20
-1.8737874348958332
 10
1.7628553602430554
 20
-1.8737874348958332
 10
1.8737874348958332
 20
-1.7618218315972221
 10
1.8737874348958332
 20
-1.6236735026041664
 10
1.8737874348958332
 20
-1.6236735026041664
 10
1.8737874348958332
 20
1.6247070312499998
 10
1.8737874348958332
 20
1.6247070312499998
 10
1.8737874348958332
 20
1.7618218315972221
 10
1.7628553602430554
 20
1.8737874348958332
 10
1.625051540798611
 20
1.8737874348958332
 10
1.625051540798611
 20
1.8737874348958332
 10
-1.6236735026041664
 20
1.8737874348958332
 10
-1.6236735026041664
 20
1.8737874348958332
 10
-1.7628553602430554
 20
1.8737874348958332
 10
-1.8737874348958332
 20
1.7618218315972221
 10
-1.8737874348958332
 20
1.6247070312499998
 10
-1.8737874348958332
 20
1.6247070312499998
 10
-1.8737874348958332
 20
-1.6236735026041664
 10
-1.8737874348958332
 20
-1.6236735026041664
 10
-1.8737874348958332
 20
-1.7618218315972221
 10
-1.7628553602430554
 20
-1.8737874348958332
 10
-1.6236735026041664
 20
-1.8737874348958332
 10
-1.6236735026041664
 20
-1.8737874348958332
 10
1.625051540798611
 20
-1.8737874348958332
 10
1.625051540798611
 20
-1.8737874348958332
 97
        0
 75
     2
 76
     1
 98
        1
 10
0.0
 20
0.0
  0
ENDBLK
  5
A6
100
AcDbEntity
  8
レイヤー_1
100
AcDbBlockEnd
  0
BLOCK
  5
A9
100
AcDbEntity
  8
レイヤー_1
 62
     7
100
AcDbBlockBegin
  2
AI9-BLK11
 70
     0
 10
0.0
 20
0.0
 30
0.0
  3
AI9-BLK11
  1

  0
HATCH
  5
AA
100
AcDbEntity
  8
レイヤー_1
 62
     7
100
AcDbHatch
 10
0.0
 20
0.0
 30
0.0
210
0.0
220
0.0
230
1.0
  2
SOLID
 70
     1
 71
     0
 91
        1
 92
        1
 93
        1
 72
     4
 94
        3
 73
     0
 74
     0
 95
       29
 96
       25
 40
0.0
 40
0.0
 40
0.0
 40
0.0
 40
1.0
 40
1.0
 40
1.0
 40
2.0
 40
2.0
 40
2.0
 40
3.0
 40
3.0
 40
3.0
 40
4.0
 40
4.0
 40
4.0
 40
5.0
 40
5.0
 40
5.0
 40
6.0
 40
6.0
 40
6.0
 40
7.0
 40
7.0
 40
7.0
 40
8.0
 40
8.0
 40
8.0
 40
8.0
 10
1.6243625217013888
 20
-1.8737874348958332
 10
1.7614773220486108
 20
-1.8737874348958332
 10
1.8737874348958332
 20
-1.7614773220486108
 10
1.8737874348958332
 20
-1.6243625217013888
 10
1.8737874348958332
 20
-1.6243625217013888
 10
1.8737874348958332
 20
1.6243625217013888
 10
1.8737874348958332
 20
1.6243625217013888
 10
1.8737874348958332
 20
1.7628553602430554
 10
1.7614773220486108
 20
1.8737874348958332
 10
1.6243625217013888
 20
1.8737874348958332
 10
1.6243625217013888
 20
1.8737874348958332
 10
-1.625051540798611
 20
1.8737874348958332
 10
-1.625051540798611
 20
1.8737874348958332
 10
-1.7628553602430554
 20
1.8737874348958332
 10
-1.8737874348958332
 20
1.7628553602430554
 10
-1.8737874348958332
 20
1.6243625217013888
 10
-1.8737874348958332
 20
1.6243625217013888
 10
-1.8737874348958332
 20
-1.6243625217013888
 10
-1.8737874348958332
 20
-1.6243625217013888
 10
-1.8737874348958332
 20
-1.7614773220486108
 10
-1.7628553602430554
 20
-1.8737874348958332
 10
-1.625051540798611
 20
-1.8737874348958332
 10
-1.625051540798611
 20
-1.8737874348958332
 10
1.6243625217013888
 20
-1.8737874348958332
 10
1.6243625217013888
 20
-1.8737874348958332
 97
        0
 75
     2
 76
     1
 98
        1
 10
0.0
 20
0.0
  0
ENDBLK
  5
AB
100
AcDbEntity
  8
レイヤー_1
100
AcDbBlockEnd
  0
BLOCK
  5
AE
100
AcDbEntity
  8
レイヤー_1
 62
     7
100
AcDbBlockBegin
  2
AI9-BLK12
 70
     0
 10
0.0
 20
0.0
 30
0.0
  3
AI9-BLK12
  1

  0
HATCH
  5
AF
100
AcDbEntity
  8
レイヤー_1
 62
     7
100
AcDbHatch
 10
0.0
 20
0.0
 30
0.0
210
0.0
220
0.0
230
1.0
  2
SOLID
 70
     1
 71
     0
 91
        1
 92
        1
 93
        1
 72
     4
 94
        3
 73
     0
 74
     0
 95
       29
 96
       25
 40
0.0
 40
0.0
 40
0.0
 40
0.0
 40
1.0
 40
1.0
 40
1.0
 40
2.0
 40
2.0
 40
2.0
 40
3.0
 40
3.0
 40
3.0
 40
4.0
 40
4.0
 40
4.0
 40
5.0
 40
5.0
 40
5.0
 40
6.0
 40
6.0
 40
6.0
 40
7.0
 40
7.0
 40
7.0
 40
8.0
 40
8.0
 40
8.0
 40
8.0
 10
1.6260850694444442
 20
-1.873442925347222
 10
1.7631998697916664
 20
-1.873442925347222
 10
1.8741319444444442
 20
-1.7618218315972221
 10
1.8741319444444442
 20
-1.6229844835069442
 10
1.8741319444444442
 20
-1.6229844835069442
 10
1.8741319444444442
 20
1.6247070312499998
 10
1.8741319444444442
 20
1.6247070312499998
 10
1.8741319444444442
 20
1.7621663411458333
 10
1.7631998697916664
 20
1.873442925347222
 10
1.6260850694444442
 20
1.873442925347222
 10
1.6260850694444442
 20
1.873442925347222
 10
-1.6226399739583333
 20
1.873442925347222
 10
-1.6226399739583333
 20
1.873442925347222
 10
-1.7604437934027777
 20
1.873442925347222
 10
-1.8741319444444442
 20
1.7621663411458333
 10
-1.8741319444444442
 20
1.6247070312499998
 10
-1.8741319444444442
 20
1.6247070312499998
 10
-1.8741319444444442
 20
-1.6229844835069442
 10
-1.8741319444444442
 20
-1.6229844835069442
 10
-1.8741319444444442
 20
-1.7618218315972221
 10
-1.7604437934027777
 20
-1.873442925347222
 10
-1.6226399739583333
 20
-1.873442925347222
 10
-1.6226399739583333
 20
-1.873442925347222
 10
1.6260850694444442
 20
-1.873442925347222
 10
1.6260850694444442
 20
-1.873442925347222
 97
        0
 75
     2
 76
     1
 98
        1
 10
0.0
 20
0.0
  0
ENDBLK
  5
B0
100
AcDbEntity
  8
レイヤー_1
100
AcDbBlockEnd
  0
BLOCK
  5
B3
100
AcDbEntity
  8
レイヤー_1
 62
     7
100
AcDbBlockBegin
  2
AI9-BLK13
 70
     0
 10
0.0
 20
0.0
 30
0.0
  3
AI9-BLK13
  1

  0
HATCH
  5
B4
100
AcDbEntity
  8
レイヤー_1
 62
     7
100
AcDbHatch
 10
0.0
 20
0.0
 30
0.0
210
0.0
220
0.0
230
1.0
  2
SOLID
 70
     1
 71
     0
 91
        1
 92
        1
 93
        1
 72
     4
 94
        3
 73
     0
 74
     0
 95
       29
 96
       25
 40
0.0
 40
0.0
 40
0.0
 40
0.0
 40
1.0
 40
1.0
 40
1.0
 40
2.0
 40
2.0
 40
2.0
 40
3.0
 40
3.0
 40
3.0
 40
4.0
 40
4.0
 40
4.0
 40
5.0
 40
5.0
 40
5.0
 40
6.0
 40
6.0
 40
6.0
 40
7.0
 40
7.0
 40
7.0
 40
8.0
 40
8.0
 40
8.0
 40
8.0
 10
1.625051540798611
 20
-1.8737874348958332
 10
1.7628553602430554
 20
-1.8737874348958332
 10
1.8737874348958332
 20
-1.7614773220486108
 10
1.8737874348958332
 20
-1.6243625217013888
 10
1.8737874348958332
 20
-1.6243625217013888
 10
1.8737874348958332
 20
1.6243625217013888
 10
1.8737874348958332
 20
1.6243625217013888
 10
1.8737874348958332
 20
1.7628553602430554
 10
1.7628553602430554
 20
1.8737874348958332
 10
1.625051540798611
 20
1.8737874348958332
 10
1.625051540798611
 20
1.8737874348958332
 10
-1.6236735026041664
 20
1.8737874348958332
 10
-1.6236735026041664
 20
1.8737874348958332
 10
-1.7628553602430554
 20
1.8737874348958332
 10
-1.8737874348958332
 20
1.7628553602430554
 10
-1.8737874348958332
 20
1.6243625217013888
 10
-1.8737874348958332
 20
1.6243625217013888
 10
-1.8737874348958332
 20
-1.6243625217013888
 10
-1.8737874348958332
 20
-1.6243625217013888
 10
-1.8737874348958332
 20
-1.7614773220486108
 10
-1.7628553602430554
 20
-1.8737874348958332
 10
-1.6236735026041664
 20
-1.8737874348958332
 10
-1.6236735026041664
 20
-1.8737874348958332
 10
1.625051540798611
 20
-1.8737874348958332
 10
1.625051540798611
 20
-1.8737874348958332
 97
        0
 75
     2
 76
     1
 98
        1
 10
0.0
 20
0.0
  0
ENDBLK
  5
B5
100
AcDbEntity
  8
レイヤー_1
100
AcDbBlockEnd
  0
BLOCK
  5
B8
100
AcDbEntity
  8
レイヤー_1
 62
     7
100
AcDbBlockBegin
  2
AI9-BLK14
 70
     0
 10
0.0
 20
0.0
 30
0.0
  3
AI9-BLK14
  1

  0
HATCH
  5
C4
100
AcDbEntity
  8
レイヤー_1
 62
     7
100
AcDbHatch
 10
0.0
 20
0.0
 30
0.0
210
0.0
220
0.0
230
1.0
  2
SOLID
 70
     1
 71
     0
 91
        1
 92
        1
 93
        1
 72
     4
 94
        3
 73
     0
 74
     0
 95
       68
 96
       64
 40
0.0
 40
0.0
 40
0.0
 40
0.0
 40
1.0
 40
1.0
 40
1.0
 40
2.0
 40
2.0
 40
2.0
 40
3.0
 40
3.0
 40
3.0
 40
4.0
 40
4.0
 40
4.0
 40
5.0
 40
5.0
 40
5.0
 40
6.0
 40
6.0
 40
6.0
 40
7.0
 40
7.0
 40
7.0
 40
8.0
 40
8.0
 40
8.0
 40
9.0
 40
9.0
 40
9.0
 40
10.0
 40
10.0
 40
10.0
 40
11.0
 40
11.0
 40
11.0
 40
12.0
 40
12.0
 40
12.0
 40
13.0
 40
13.0
 40
13.0
 40
14.0
 40
14.0
 40
14.0
 40
15.0
 40
15.0
 40
15.0
 40
16.0
 40
16.0
 40
16.0
 40
17.0
 40
17.0
 40
17.0
 40
18.0
 40
18.0
 40
18.0
 40
19.0
 40
19.0
 40
19.0
 40
20.0
 40
20.0
 40
20.0
 40
21.0
 40
21.0
 40
21.0
 40
21.0
 10
-8.1135443793402775
 20
-3.6406046549479165
 10
-8.1135443793402775
 20
-3.7026163736979165
 10
-8.1624647352430539
 20
-3.7505032009548609
 10
-8.2217203776041661
 20
-3.7505032009548609
 10
-8.2217203776041661
 20
-3.7505032009548609
 10
-11.221709526909722
 20
-3.7505032009548609
 10
-11.221709526909722
 20
-3.7505032009548609
 10
-12.147062174479165
 20
-3.7505032009548609
 10
-12.898092990451389
 20
-3.000161404079861
 10
-12.898092990451389
 20
-2.0741197374131941
 10
-12.898092990451389
 20
-1.1487670898437499
 10
-12.147062174479165
 20
-0.3980807834201389
 10
-11.221709526909722
 20
-0.3980807834201389
 10
-11.221709526909722
 20
-0.3980807834201389
 10
-10.05244411892361
 20
-0.3980807834201389
 10
-10.05244411892361
 20
-0.3980807834201389
 10
-9.9911214192708329
 20
-0.3980807834201389
 10
-9.9428900824652775
 20
-0.4470011393229166
 10
-9.9428900824652775
 20
-0.5083238389756944
 10
-9.9428900824652775
 20
-0.5083238389756944
 10
-9.9428900824652775
 20
-1.5725138346354166
 10
-9.9428900824652775
 20
-1.5725138346354166
 10
-9.9428900824652775
 20
-1.6324584960937498
 10
-9.9911214192708329
 20
-1.6813788519965276
 10
-10.05244411892361
 20
-1.6813788519965276
 10
-10.05244411892361
 20
-1.6813788519965276
 10
-11.136960177951387
 20
-1.682412380642361
 10
-11.136960177951387
 20
-1.682412380642361
 10
-11.351245117187499
 20
-1.682412380642361
 10
-11.526255967881943
 20
-1.8570787217881943
 10
-11.526255967881943
 20
-2.0717081705729163
 10
-11.526255967881943
 20
-2.287371148003472
 10
-11.351245117187499
 20
-2.4630710177951385
 10
-11.136960177951387
 20
-2.4630710177951385
 10
-11.136960177951387
 20
-2.4630710177951385
 10
-9.61836208767361
 20
-2.4610039605034721
 10
-9.61836208767361
 20
-2.4610039605034721
 10
-9.61836208767361
 20
-2.4610039605034721
 10
-9.61836208767361
 20
-0.2130791558159722
 10
-9.61836208767361
 20
-0.2130791558159722
 10
-9.61836208767361
 20
0.1159274631076389
 10
-9.8843234592013882
 20
0.3822333441840278
 10
-10.215052625868054
 20
0.3822333441840278
 10
-10.215052625868054
 20
0.3822333441840278
 10
-12.348255750868054
 20
0.3822333441840278
 10
-12.348255750868054
 20
0.3822333441840278
 10
-12.410267469618054
 20
0.3822333441840278
 10
-12.458498806423609
 20
0.4308091905381944
 10
-12.458498806423609
 20
0.4917873806423611
 10
-12.458498806423609
 20
0.4917873806423611
 10
-12.458498806423609
 20
1.5604560004340275
 10
-12.458498806423609
 20
1.5604560004340275
 10
-12.458498806423609
 20
1.620400661892361
 10
-12.410267469618054
 20
1.6703545464409721
 10
-12.348255750868054
 20
1.6703545464409721
 10
-12.348255750868054
 20
1.6703545464409721
 10
-9.7940619574652761
 20
1.6703545464409721
 10
-9.7940619574652761
 20
1.6703545464409721
 10
-8.8625081380208321
 20
1.6703545464409721
 10
-8.1135443793402775
 20
0.9169121636284722
 10
-8.1135443793402775
 20
-0.0142971462673611
 10
-8.1135443793402775
 20
-0.0142971462673611
 10
-8.1135443793402775
 20
-3.6406046549479165
 10
-8.1135443793402775
 20
-3.6406046549479165
 97
        0
 75
     2
 76
     1
 98
        1
 10
0.0
 20
0.0
  0
INSERT
  5
BD
100
AcDbEntity
  8
レイヤー_1
 62
     7
100
AcDbBlockReference
  2
AI9-BLK15
 10
7.290167
 20
-1.04283
 30
0.0
  0
HATCH
  5
BB
100
AcDbEntity
  8
レイヤー_1
 62
     7
100
AcDbHatch
 10
0.0
 20
0.0
 30
0.0
210
0.0
220
0.0
230
1.0
  2
SOLID
 70
     1
 71
     0
 91
        1
 92
        1
 93
        1
 72
     4
 94
        3
 73
     0
 74
     0
 95
       47
 96
       43
 40
0.0
 40
0.0
 40
0.0
 40
0.0
 40
1.0
 40
1.0
 40
1.0
 40
2.0
 40
2.0
 40
2.0
 40
3.0
 40
3.0
 40
3.0
 40
4.0
 40
4.0
 40
4.0
 40
5.0
 40
5.0
 40
5.0
 40
6.0
 40
6.0
 40
6.0
 40
7.0
 40
7.0
 40
7.0
 40
8.0
 40
8.0
 40
8.0
 40
9.0
 40
9.0
 40
9.0
 40
10.0
 40
10.0
 40
10.0
 40
11.0
 40
11.0
 40
11.0
 40
12.0
 40
12.0
 40
12.0
 40
13.0
 40
13.0
 40
13.0
 40
14.0
 40
14.0
 40
14.0
 40
14.0
 10
-11.423592122395831
 20
3.7560153537326384
 10
-11.423592122395831
 20
3.7560153537326384
 10
-17.287833658854165
 20
3.7560153537326384
 10
-17.287833658854165
 20
3.7560153537326384
 10
-17.341577148437498
 20
3.7560153537326384
 10
-17.385674370659721
 20
3.7119181315104162
 10
-17.385674370659721
 20
3.6574856228298609
 10
-17.385674370659721
 20
3.6574856228298609
 10
-17.385674370659721
 20
2.3621297200520832
 10
-17.385674370659721
 20
2.3621297200520832
 10
-17.385674370659721
 20
2.3073527018229165
 10
-17.341577148437498
 20
2.2632554796006943
 10
-17.287833658854165
 20
2.2632554796006943
 10
-17.287833658854165
 20
2.2632554796006943
 10
-15.223532443576387
 20
2.2632554796006943
 10
-15.223532443576387
 20
2.2632554796006943
 10
-15.223532443576387
 20
2.2632554796006943
 10
-15.223532443576387
 20
-3.6406046549479165
 10
-15.223532443576387
 20
-3.6406046549479165
 10
-15.223532443576387
 20
-3.7026163736979165
 10
-15.175301106770831
 20
-3.7505032009548609
 10
-15.114667426215277
 20
-3.7505032009548609
 10
-15.114667426215277
 20
-3.7505032009548609
 10
-13.597447374131944
 20
-3.7505032009548609
 10
-13.597447374131944
 20
-3.7505032009548609
 10
-13.536124674479165
 20
-3.7505032009548609
 10
-13.489271375868054
 20
-3.7026163736979165
 10
-13.489271375868054
 20
-3.6406046549479165
 10
-13.489271375868054
 20
-3.6406046549479165
 10
-13.489271375868054
 20
2.2632554796006943
 10
-13.489271375868054
 20
2.2632554796006943
 10
-13.489271375868054
 20
2.2632554796006943
 10
-11.423592122395831
 20
2.2632554796006943
 10
-11.423592122395831
 20
2.2632554796006943
 10
-11.369159613715278
 20
2.2632554796006943
 10
-11.3264404296875
 20
2.3073527018229165
 10
-11.3264404296875
 20
2.3621297200520832
 10
-11.3264404296875
 20
2.3621297200520832
 10
-11.3264404296875
 20
3.6574856228298609
 10
-11.3264404296875
 20
3.6574856228298609
 10
-11.3264404296875
 20
3.7119181315104162
 10
-11.369159613715278
 20
3.7560153537326384
 10
-11.423592122395831
 20
3.7560153537326384
 97
        0
 75
     2
 76
     1
 98
        1
 10
0.0
 20
0.0
  0
HATCH
  5
BA
100
AcDbEntity
  8
レイヤー_1
 62
     7
100
AcDbHatch
 10
0.0
 20
0.0
 30
0.0
210
0.0
220
0.0
230
1.0
  2
SOLID
 70
     1
 71
     0
 91
        1
 92
        1
 93
        1
 72
     4
 94
        3
 73
     0
 74
     0
 95
       29
 96
       25
 40
0.0
 40
0.0
 40
0.0
 40
0.0
 40
1.0
 40
1.0
 40
1.0
 40
2.0
 40
2.0
 40
2.0
 40
3.0
 40
3.0
 40
3.0
 40
4.0
 40
4.0
 40
4.0
 40
5.0
 40
5.0
 40
5.0
 40
6.0
 40
6.0
 40
6.0
 40
7.0
 40
7.0
 40
7.0
 40
8.0
 40
8.0
 40
8.0
 40
8.0
 10
-6.2662841796874993
 20
-3.7505032009548609
 10
-6.2063395182291661
 20
-3.7505032009548609
 10
-6.1560411241319439
 20
-3.7026163736979165
 10
-6.1560411241319439
 20
-3.6395711263020831
 10
-6.1560411241319439
 20
-3.6395711263020831
 10
-6.1560411241319439
 20
1.5676907009548611
 10
-6.1560411241319439
 20
1.5676907009548611
 10
-6.1560411241319439
 20
1.6279798719618055
 10
-6.2063395182291661
 20
1.6765557183159721
 10
-6.2662841796874993
 20
1.6765557183159721
 10
-6.2662841796874993
 20
1.6765557183159721
 10
-7.5533718532986107
 20
1.6765557183159721
 10
-7.5533718532986107
 20
1.6765557183159721
 10
-7.6146945529513879
 20
1.6765557183159721
 10
-7.6636149088541661
 20
1.6279798719618055
 10
-7.6636149088541661
 20
1.5676907009548611
 10
-7.6636149088541661
 20
1.5676907009548611
 10
-7.6636149088541661
 20
-3.6395711263020831
 10
-7.6636149088541661
 20
-3.6395711263020831
 10
-7.6636149088541661
 20
-3.7026163736979165
 10
-7.6146945529513879
 20
-3.7505032009548609
 10
-7.5533718532986107
 20
-3.7505032009548609
 10
-7.5533718532986107
 20
-3.7505032009548609
 10
-6.2662841796874993
 20
-3.7505032009548609
 10
-6.2662841796874993
 20
-3.7505032009548609
 97
        0
 75
     2
 76
     1
 98
        1
 10
0.0
 20
0.0
  0
HATCH
  5
B9
100
AcDbEntity
  8
レイヤー_1
 62
     7
100
AcDbHatch
 10
0.0
 20
0.0
 30
0.0
210
0.0
220
0.0
230
1.0
  2
SOLID
 70
     1
 71
     0
 91
        1
 92
        1
 93
        1
 72
     4
 94
        3
 73
     0
 74
     0
 95
       29
 96
       25
 40
0.0
 40
0.0
 40
0.0
 40
0.0
 40
1.0
 40
1.0
 40
1.0
 40
2.0
 40
2.0
 40
2.0
 40
3.0
 40
3.0
 40
3.0
 40
4.0
 40
4.0
 40
4.0
 40
5.0
 40
5.0
 40
5.0
 40
6.0
 40
6.0
 40
6.0
 40
7.0
 40
7.0
 40
7.0
 40
8.0
 40
8.0
 40
8.0
 40
8.0
 10
-4.1420383029513888
 20
1.6731106228298609
 10
-4.2447021484374998
 20
1.6731106228298609
 10
-4.336341688368055
 20
1.6217787000868054
 10
-4.3914632161458327
 20
1.5435750325520832
 10
-4.3914632161458327
 20
1.5435750325520832
 10
-6.1560411241319439
 20
-1.0405910915798611
 10
-6.1560411241319439
 20
-1.0405910915798611
 10
-6.1560411241319439
 20
-1.0405910915798611
 10
-4.4031765407986105
 20
-3.7449910481770829
 10
-4.4031765407986105
 20
-3.7449910481770829
 10
-4.4031765407986105
 20
-3.7449910481770829
 10
-2.5593614366319444
 20
-3.7449910481770829
 10
-2.5593614366319444
 20
-3.7449910481770829
 10
-2.5593614366319444
 20
-3.7449910481770829
 10
-4.5664740668402777
 20
-1.0405910915798611
 10
-4.5664740668402777
 20
-1.0405910915798611
 10
-4.5664740668402777
 20
-1.0405910915798611
 10
-2.5607394748263888
 20
1.6713880750868053
 10
-2.5607394748263888
 20
1.6713880750868053
 10
-2.5607394748263888
 20
1.6713880750868053
 10
-4.1427273220486107
 20
1.6713880750868053
 10
-4.1427273220486107
 20
1.6713880750868053
 10
-4.1427273220486107
 20
1.6713880750868053
 10
-4.1420383029513888
 20
1.6731106228298609
 10
-4.1420383029513888
 20
1.6731106228298609
 97
        0
 75
     2
 76
     1
 98
        1
 10
0.0
 20
0.0
  0
ENDBLK
  5
C5
100
AcDbEntity
  8
レイヤー_1
100
AcDbBlockEnd
  0
BLOCK
  5
BE
100
AcDbEntity
  8
レイヤー_1
 62
     7
100
AcDbBlockBegin
  2
AI9-BLK15
 70
     0
 10
0.0
 20
0.0
 30
0.0
  3
AI9-BLK15
  1

  0
HATCH
  5
C2
100
AcDbEntity
  8
レイヤー_1
 62
     7
100
AcDbHatch
 10
0.0
 20
0.0
 30
0.0
210
0.0
220
0.0
230
1.0
  2
SOLID
 70
     1
 71
     0
 91
        1
 92
        1
 93
        1
 72
     4
 94
        3
 73
     0
 74
     0
 95
       68
 96
       64
 40
0.0
 40
0.0
 40
0.0
 40
0.0
 40
1.0
 40
1.0
 40
1.0
 40
2.0
 40
2.0
 40
2.0
 40
3.0
 40
3.0
 40
3.0
 40
4.0
 40
4.0
 40
4.0
 40
5.0
 40
5.0
 40
5.0
 40
6.0
 40
6.0
 40
6.0
 40
7.0
 40
7.0
 40
7.0
 40
8.0
 40
8.0
 40
8.0
 40
9.0
 40
9.0
 40
9.0
 40
10.0
 40
10.0
 40
10.0
 40
11.0
 40
11.0
 40
11.0
 40
12.0
 40
12.0
 40
12.0
 40
13.0
 40
13.0
 40
13.0
 40
14.0
 40
14.0
 40
14.0
 40
15.0
 40
15.0
 40
15.0
 40
16.0
 40
16.0
 40
16.0
 40
17.0
 40
17.0
 40
17.0
 40
18.0
 40
18.0
 40
18.0
 40
19.0
 40
19.0
 40
19.0
 40
20.0
 40
20.0
 40
20.0
 40
21.0
 40
21.0
 40
21.0
 40
21.0
 10
-5.3095811631944443
 20
-2.5977742513020829
 10
-5.3095811631944443
 20
-2.6597859700520829
 10
-5.3585015190972216
 20
-2.7076727973090273
 10
-5.4198242187499996
 20
-2.7076727973090273
 10
-5.4198242187499996
 20
-2.7076727973090273
 10
-8.4198133680555554
 20
-2.7076727973090273
 10
-8.4198133680555554
 20
-2.7076727973090273
 10
-9.3444769965277761
 20
-2.7076727973090273
 10
-10.095507812499999
 20
-1.9573310004340276
 10
-10.095507812499999
 20
-1.031289333767361
 10
-10.095507812499999
 20
-0.1059366861979167
 10
-9.3444769965277761
 20
0.6447496202256944
 10
-8.4198133680555554
 20
0.6447496202256944
 10
-8.4198133680555554
 20
0.6447496202256944
 10
-7.2505479600694436
 20
0.6447496202256944
 10
-7.2505479600694436
 20
0.6447496202256944
 10
-7.1899142795138884
 20
0.6447496202256944
 10
-7.1403049045138882
 20
0.5958292643229166
 10
-7.1403049045138882
 20
0.5345065646701388
 10
-7.1403049045138882
 20
0.5345065646701388
 10
-7.1403049045138882
 20
-0.5296834309895833
 10
-7.1403049045138882
 20
-0.5296834309895833
 10
-7.1403049045138882
 20
-0.5896280924479166
 10
-7.1899142795138884
 20
-0.6385484483506944
 10
-7.2505479600694436
 20
-0.6385484483506944
 10
-7.2505479600694436
 20
-0.6385484483506944
 10
-8.3343749999999996
 20
-0.6395819769965278
 10
-8.3343749999999996
 20
-0.6395819769965278
 10
-8.5493489583333329
 20
-0.6395819769965278
 10
-8.723670789930555
 20
-0.814248318142361
 10
-8.723670789930555
 20
-1.0288777669270832
 10
-8.723670789930555
 20
-1.2445407443576388
 10
-8.5493489583333329
 20
-1.4202406141493054
 10
-8.3343749999999996
 20
-1.4202406141493054
 10
-8.3343749999999996
 20
-1.4202406141493054
 10
-6.8157769097222216
 20
-1.4181735568576388
 10
-6.8157769097222216
 20
-1.4181735568576388
 10
-6.8157769097222216
 20
-1.4181735568576388
 10
-6.8157769097222216
 20
0.829751247829861
 10
-6.8157769097222216
 20
0.829751247829861
 10
-6.8157769097222216
 20
1.1587578667534721
 10
-7.0824273003472218
 20
1.4250637478298609
 10
-7.4117784288194439
 20
1.4250637478298609
 10
-7.4117784288194439
 20
1.4250637478298609
 10
-9.5477376302083332
 20
1.4250637478298609
 10
-9.5477376302083332
 20
1.4250637478298609
 10
-9.6076822916666664
 20
1.4250637478298609
 10
-9.6566026475694429
 20
1.4736395941840277
 10
-9.6566026475694429
 20
1.5346177842881943
 10
-9.6566026475694429
 20
1.5346177842881943
 10
-9.6566026475694429
 20
2.6032864040798609
 10
-9.6566026475694429
 20
2.6032864040798609
 10
-9.6566026475694429
 20
2.6632310655381941
 10
-9.6076822916666664
 20
2.7131849500868053
 10
-9.5477376302083332
 20
2.7131849500868053
 10
-9.5477376302083332
 20
2.7131849500868053
 10
-6.9921657986111105
 20
2.7131849500868053
 10
-6.9921657986111105
 20
2.7131849500868053
 10
-6.0613009982638886
 20
2.7131849500868053
 10
-5.3095811631944443
 20
1.9597425672743054
 10
-5.3095811631944443
 20
1.0285332573784722
 10
-5.3095811631944443
 20
1.0285332573784722
 10
-5.3095811631944443
 20
-2.5977742513020829
 10
-5.3095811631944443
 20
-2.5977742513020829
 97
        0
 75
     2
 76
     1
 98
        1
 10
0.0
 20
0.0
  0
HATCH
  5
C1
100
AcDbEntity
  8
レイヤー_1
 62
     7
100
AcDbHatch
 10
0.0
 20
0.0
 30
0.0
210
0.0
220
0.0
230
1.0
  2
SOLID
 70
     1
 71
     0
 91
        1
 92
        1
 93
        1
 72
     4
 94
        3
 73
     0
 74
     0
 95
       65
 96
       61
 40
0.0
 40
0.0
 40
0.0
 40
0.0
 40
1.0
 40
1.0
 40
1.0
 40
2.0
 40
2.0
 40
2.0
 40
3.0
 40
3.0
 40
3.0
 40
4.0
 40
4.0
 40
4.0
 40
5.0
 40
5.0
 40
5.0
 40
6.0
 40
6.0
 40
6.0
 40
7.0
 40
7.0
 40
7.0
 40
8.0
 40
8.0
 40
8.0
 40
9.0
 40
9.0
 40
9.0
 40
10.0
 40
10.0
 40
10.0
 40
11.0
 40
11.0
 40
11.0
 40
12.0
 40
12.0
 40
12.0
 40
13.0
 40
13.0
 40
13.0
 40
14.0
 40
14.0
 40
14.0
 40
15.0
 40
15.0
 40
15.0
 40
16.0
 40
16.0
 40
16.0
 40
17.0
 40
17.0
 40
17.0
 40
18.0
 40
18.0
 40
18.0
 40
19.0
 40
19.0
 40
19.0
 40
20.0
 40
20.0
 40
20.0
 40
20.0
 10
-4.6729275173611109
 20
-2.7131849500868053
 10
-4.7328721788194441
 20
-2.7131849500868053
 10
-4.7811035156249995
 20
-2.6659871419270833
 10
-4.7811035156249995
 20
-2.6063869900173611
 10
-4.7811035156249995
 20
-2.6063869900173611
 10
-4.7811035156249995
 20
-1.5359958224826387
 10
-4.7811035156249995
 20
-1.5359958224826387
 10
-4.7811035156249995
 20
-1.4760511610243054
 10
-4.7328721788194441
 20
-1.4247192382812499
 10
-4.6729275173611109
 20
-1.4247192382812499
 10
-4.6729275173611109
 20
-1.4247192382812499
 10
-2.1235568576388886
 20
-1.4247192382812499
 10
-2.1235568576388886
 20
-1.4247192382812499
 10
-1.9085828993055554
 20
-1.4247192382812499
 10
-1.7342610677083332
 20
-1.2472968207465276
 10
-1.7342610677083332
 20
-1.0302558051215276
 10
-1.7342610677083332
 20
-0.8166598849826389
 10
-1.9085828993055554
 20
-0.6395819769965278
 10
-2.1235568576388886
 20
-0.6395819769965278
 10
-2.1235568576388886
 20
-0.6395819769965278
 10
-3.2542371961805552
 20
-0.6085761176215278
 10
-3.2542371961805552
 20
-0.6085761176215278
 10
-4.1747667100694441
 20
-0.6085761176215278
 10
-4.9216634114583329
 20
0.1331529405381944
 10
-4.9216634114583329
 20
1.0481703016493054
 10
-4.9216634114583329
 20
1.9628431532118054
 10
-4.1747667100694441
 20
2.705950249565972
 10
-3.2542371961805552
 20
2.705950249565972
 10
-3.2542371961805552
 20
2.705950249565972
 10
-0.6869520399305555
 20
2.705950249565972
 10
-0.6869520399305555
 20
2.705950249565972
 10
-0.6263183593749999
 20
2.705950249565972
 10
-0.5780870225694444
 20
2.6580634223090276
 10
-0.5780870225694444
 20
2.5988077799479163
 10
-0.5780870225694444
 20
2.5988077799479163
 10
-0.5780870225694444
 20
1.5404744466145832
 10
-0.5780870225694444
 20
1.5404744466145832
 10
-0.5780870225694444
 20
1.4791517469618054
 10
-0.6263183593749999
 20
1.4278198242187499
 10
-0.6869520399305555
 20
1.4278198242187499
 10
-0.6869520399305555
 20
1.4278198242187499
 10
-3.095762803819444
 20
1.4278198242187499
 10
-3.095762803819444
 20
1.4278198242187499
 10
-3.3100477430555553
 20
1.4278198242187499
 10
-3.4857476128472218
 20
1.2500528971354166
 10
-3.4857476128472218
 20
1.0357679578993055
 10
-3.4857476128472218
 20
0.8197604709201388
 10
-3.3100477430555553
 20
0.6457831488715278
 10
-3.095762803819444
 20
0.6457831488715278
 10
-3.095762803819444
 20
0.6457831488715278
 10
-1.9513020833333332
 20
0.6109876844618055
 10
-1.9513020833333332
 20
0.6109876844618055
 10
-1.0300835503472221
 20
0.6109876844618055
 10
-0.2818088107638889
 20
-0.13177490234375
 10
-0.2818088107638889
 20
-1.0471367730034722
 10
-0.2818088107638889
 20
-1.9642211914062497
 10
-1.0300835503472221
 20
-2.7131849500868053
 10
-1.9513020833333332
 20
-2.7131849500868053
 10
-1.9513020833333332
 20
-2.7131849500868053
 10
-4.6729275173611109
 20
-2.7131849500868053
 10
-4.6729275173611109
 20
-2.7131849500868053
 97
        0
 75
     2
 76
     1
 98
        1
 10
0.0
 20
0.0
  0
HATCH
  5
C0
100
AcDbEntity
  8
レイヤー_1
 62
     7
100
AcDbHatch
 10
0.0
 20
0.0
 30
0.0
210
0.0
220
0.0
230
1.0
  2
SOLID
 70
     1
 71
     0
 91
        1
 92
        1
 93
        1
 72
     4
 94
        3
 73
     0
 74
     0
 95
       65
 96
       61
 40
0.0
 40
0.0
 40
0.0
 40
0.0
 40
1.0
 40
1.0
 40
1.0
 40
2.0
 40
2.0
 40
2.0
 40
3.0
 40
3.0
 40
3.0
 40
4.0
 40
4.0
 40
4.0
 40
5.0
 40
5.0
 40
5.0
 40
6.0
 40
6.0
 40
6.0
 40
7.0
 40
7.0
 40
7.0
 40
8.0
 40
8.0
 40
8.0
 40
9.0
 40
9.0
 40
9.0
 40
10.0
 40
10.0
 40
10.0
 40
11.0
 40
11.0
 40
11.0
 40
12.0
 40
12.0
 40
12.0
 40
13.0
 40
13.0
 40
13.0
 40
14.0
 40
14.0
 40
14.0
 40
15.0
 40
15.0
 40
15.0
 40
16.0
 40
16.0
 40
16.0
 40
17.0
 40
17.0
 40
17.0
 40
18.0
 40
18.0
 40
18.0
 40
19.0
 40
19.0
 40
19.0
 40
20.0
 40
20.0
 40
20.0
 40
20.0
 10
4.465532769097222
 20
2.7114624023437499
 10
4.465532769097222
 20
2.7114624023437499
 10
3.2611273871527775
 20
2.7114624023437499
 10
3.2611273871527775
 20
2.7114624023437499
 10
3.2004937065972219
 20
2.7114624023437499
 10
3.0744032118055551
 20
2.6621975368923607
 10
3.0744032118055551
 20
2.6025973849826385
 10
3.0744032118055551
 20
2.6025973849826385
 10
3.0744032118055551
 20
0.6512953016493055
 10
3.0744032118055551
 20
0.6512953016493055
 10
3.0744032118055551
 20
0.6512953016493055
 10
1.5647623697916666
 20
0.6512953016493055
 10
1.5647623697916666
 20
0.6512953016493055
 10
1.5647623697916666
 20
0.6512953016493055
 10
1.5647623697916666
 20
2.6025973849826385
 10
1.5647623697916666
 20
2.6025973849826385
 10
1.5647623697916666
 20
2.6621975368923607
 10
1.5151529947916664
 20
2.7114624023437499
 10
1.4558973524305554
 20
2.7114624023437499
 10
1.4558973524305554
 20
2.7114624023437499
 10
0.1729437934027778
 20
2.7114624023437499
 10
0.1729437934027778
 20
2.7114624023437499
 10
0.1129991319444444
 20
2.7114624023437499
 10
0.0640787760416667
 20
2.6621975368923607
 10
0.0640787760416667
 20
2.6025973849826385
 10
0.0640787760416667
 20
2.6025973849826385
 10
0.0640787760416667
 20
-2.5977742513020829
 10
0.0640787760416667
 20
-2.5977742513020829
 10
0.0640787760416667
 20
-2.6597859700520829
 10
0.1129991319444444
 20
-2.7076727973090273
 10
0.1729437934027778
 20
-2.7076727973090273
 10
0.1729437934027778
 20
-2.7076727973090273
 10
1.4558973524305554
 20
-2.7076727973090273
 10
1.4558973524305554
 20
-2.7076727973090273
 10
1.5151529947916664
 20
-2.7076727973090273
 10
1.5647623697916666
 20
-2.6597859700520829
 10
1.5647623697916666
 20
-2.5977742513020829
 10
1.5647623697916666
 20
-2.5977742513020829
 10
1.5647623697916666
 20
-0.6354478624131944
 10
1.5647623697916666
 20
-0.6354478624131944
 10
1.5647623697916666
 20
-0.6354478624131944
 10
3.0744032118055551
 20
-0.6354478624131944
 10
3.0744032118055551
 20
-0.6354478624131944
 10
3.0744032118055551
 20
-0.6354478624131944
 10
3.0744032118055551
 20
-2.5977742513020829
 10
3.0744032118055551
 20
-2.5977742513020829
 10
3.0744032118055551
 20
-2.6597859700520829
 10
3.1233235677083329
 20
-2.7076727973090273
 10
3.1832682291666665
 20
-2.7076727973090273
 10
3.1832682291666665
 20
-2.7076727973090273
 10
4.465532769097222
 20
-2.7076727973090273
 10
4.465532769097222
 20
-2.7076727973090273
 10
4.5254774305555552
 20
-2.7076727973090273
 10
4.5743977864583325
 20
-2.6597859700520829
 10
4.5743977864583325
 20
-2.5977742513020829
 10
4.5743977864583325
 20
-2.5977742513020829
 10
4.5743977864583325
 20
2.6025973849826385
 10
4.5743977864583325
 20
2.6025973849826385
 10
4.5743977864583325
 20
2.6621975368923607
 10
4.5254774305555552
 20
2.7114624023437499
 10
4.465532769097222
 20
2.7114624023437499
 97
        0
 75
     2
 76
     1
 98
        1
 10
0.0
 20
0.0
  0
HATCH
  5
BF
100
AcDbEntity
  8
レイヤー_1
 62
     7
100
AcDbHatch
 10
0.0
 20
0.0
 30
0.0
210
0.0
220
0.0
230
1.0
  2
SOLID
 70
     1
 71
     0
 91
        2
 92
        1
 93
        1
 72
     4
 94
        3
 73
     0
 74
     0
 95
       29
 96
       25
 40
0.0
 40
0.0
 40
0.0
 40
0.0
 40
1.0
 40
1.0
 40
1.0
 40
2.0
 40
2.0
 40
2.0
 40
3.0
 40
3.0
 40
3.0
 40
4.0
 40
4.0
 40
4.0
 40
5.0
 40
5.0
 40
5.0
 40
6.0
 40
6.0
 40
6.0
 40
7.0
 40
7.0
 40
7.0
 40
8.0
 40
8.0
 40
8.0
 40
8.0
 10
8.5927571614583318
 20
-0.8611016167534722
 10
8.5927571614583318
 20
-1.1639255099826389
 10
8.3467773437499986
 20
-1.4095608181423609
 10
8.0442979600694429
 20
-1.4095608181423609
 10
8.0442979600694429
 20
-1.4095608181423609
 10
7.0590006510416661
 20
-1.4095608181423609
 10
7.0590006510416661
 20
-1.4095608181423609
 10
6.7551432291666664
 20
-1.4095608181423609
 10
6.5098524305555552
 20
-1.1639255099826389
 10
6.5098524305555552
 20
-0.8611016167534722
 10
6.5098524305555552
 20
-0.8611016167534722
 10
6.5098524305555552
 20
0.8707478841145833
 10
6.5098524305555552
 20
0.8707478841145833
 10
6.5098524305555552
 20
1.1732272677951388
 10
6.7551432291666664
 20
1.4185180664062498
 10
7.0590006510416661
 20
1.4185180664062498
 10
7.0590006510416661
 20
1.4185180664062498
 10
8.0442979600694429
 20
1.4185180664062498
 10
8.0442979600694429
 20
1.4185180664062498
 10
8.3467773437499986
 20
1.4185180664062498
 10
8.5927571614583318
 20
1.1732272677951388
 10
8.5927571614583318
 20
0.8707478841145833
 10
8.5927571614583318
 20
0.8707478841145833
 10
8.5927571614583318
 20
-0.8611016167534722
 10
8.5927571614583318
 20
-0.8611016167534722
 97
        0
 92
       16
 93
        1
 72
     4
 94
        3
 73
     0
 74
     0
 95
       29
 96
       25
 40
0.0
 40
0.0
 40
0.0
 40
0.0
 40
1.0
 40
1.0
 40
1.0
 40
2.0
 40
2.0
 40
2.0
 40
3.0
 40
3.0
 40
3.0
 40
4.0
 40
4.0
 40
4.0
 40
5.0
 40
5.0
 40
5.0
 40
6.0
 40
6.0
 40
6.0
 40
7.0
 40
7.0
 40
7.0
 40
8.0
 40
8.0
 40
8.0
 40
8.0
 10
8.5576171875
 20
2.7121514214409719
 10
8.5576171875
 20
2.7121514214409719
 10
6.5456814236111107
 20
2.7121514214409719
 10
6.5456814236111107
 20
2.7121514214409719
 10
5.6968098958333329
 20
2.7121514214409719
 10
5.0064127604166666
 20
2.02313232421875
 10
5.0064127604166666
 20
1.1732272677951388
 10
5.0064127604166666
 20
1.1732272677951388
 10
5.0064127604166666
 20
-1.1639255099826389
 10
5.0064127604166666
 20
-1.1639255099826389
 10
5.0064127604166666
 20
-2.0134860568576385
 10
5.6968098958333329
 20
-2.7021606445312498
 10
6.5456814236111107
 20
-2.7021606445312498
 10
6.5456814236111107
 20
-2.7021606445312498
 10
8.5576171875
 20
-2.7021606445312498
 10
8.5576171875
 20
-2.7021606445312498
 10
9.4071777343749989
 20
-2.7021606445312498
 10
10.095507812499999
 20
-2.0134860568576385
 10
10.095507812499999
 20
-1.1639255099826389
 10
10.095507812499999
 20
-1.1639255099826389
 10
10.095507812499999
 20
1.1732272677951388
 10
10.095507812499999
 20
1.1732272677951388
 10
10.095507812499999
 20
2.02313232421875
 10
9.4071777343749989
 20
2.7121514214409719
 10
8.5576171875
 20
2.7121514214409719
 97
        0
 75
     2
 76
     1
 98
        1
 10
0.0
 20
0.0
  0
ENDBLK
  5
C3
100
AcDbEntity
  8
レイヤー_1
100
AcDbBlockEnd
  0
BLOCK
  5
D0
100
AcDbEntity
  8
レイヤー_1
 62
     7
100
AcDbBlockBegin
  2
AI9-BLK16
 70
     0
 10
0.0
 20
0.0
 30
0.0
  3
AI9-BLK16
  1

  0
MTEXT
  5
D3
100
AcDbEntity
  8
レイヤー_1
 62
     7
100
AcDbMText
 10
-10.456295
 20
1.231302
 30
0.0
 40
2.393849
 41
0.0
 71
     1
 72
     2
  1
\fMS Gothic|b0|i0|c128;\H2.3938;\C7;\U+91CD\U+91CF
  7
STD
210
0.0
220
0.0
230
1.0
 73
     1
 44
1.0
  0
MTEXT
  5
D2
100
AcDbEntity
  8
レイヤー_1
 62
     7
100
AcDbMText
 10
-4.021718
 20
1.231302
 30
0.0
 40
2.393849
 41
0.0
 71
     1
 72
     2
  1
\fMS Gothic|b0|i0|c128;\H2.3938;\C7;\U+FF0F
  7
STD
210
0.0
220
0.0
230
1.0
 73
     1
 44
1.0
  0
MTEXT
  5
D1
100
AcDbEntity
  8
レイヤー_1
 62
     7
100
AcDbMText
 10
-0.804344
 20
1.231302
 30
0.0
 40
2.393849
 41
0.0
 71
     1
 72
     2
  1
\fMS Gothic|b0|i0|c128;\H2.3938;\C7;\U+7D04\U+0030\U+002E\U+0034\U+006B\U+0067
  7
STD
210
0.0
220
0.0
230
1.0
 73
     1
 44
1.0
  0
ENDBLK
  5
D4
100
AcDbEntity
  8
レイヤー_1
100
AcDbBlockEnd
  0
BLOCK
  5
104
100
AcDbEntity
  8
レイヤー_1
 62
     7
100
AcDbBlockBegin
  2
AI9-BLK17
 70
     0
 10
0.0
 20
0.0
 30
0.0
  3
AI9-BLK17
  1

  0
MTEXT
  5
105
100
AcDbEntity
  8
レイヤー_1
 62
     7
100
AcDbMText
 10
-1.624449
 20
1.200985
 30
0.0
 40
2.393849
 41
0.0
 71
     1
 72
     2
  1
\fMS Gothic|b0|i0|c128;\H2.3938;\C7;\U+4ED8
  7
STD
210
0.0
220
0.0
230
1.0
 73
     1
 44
1.0
  0
ENDBLK
  5
106
100
AcDbEntity
  8
レイヤー_1
100
AcDbBlockEnd
  0
BLOCK
  5
109
100
AcDbEntity
  8
レイヤー_1
 62
     7
100
AcDbBlockBegin
  2
AI9-BLK18
 70
     0
 10
0.0
 20
0.0
 30
0.0
  3
AI9-BLK18
  1

  0
MTEXT
  5
10A
100
AcDbEntity
  8
レイヤー_1
 62
     7
100
AcDbMText
 10
-1.624449
 20
1.200985
 30
0.0
 40
2.393849
 41
0.0
 71
     1
 72
     2
  1
\fMS Gothic|b0|i0|c128;\H2.3938;\C7;\U+3000
  7
STD
210
0.0
220
0.0
230
1.0
 73
     1
 44
1.0
  0
ENDBLK
  5
10B
100
AcDbEntity
  8
レイヤー_1
100
AcDbBlockEnd
  0
BLOCK
  5
10E
100
AcDbEntity
  8
レイヤー_1
 62
     7
100
AcDbBlockBegin
  2
AI9-BLK19
 70
     0
 10
0.0
 20
0.0
 30
0.0
  3
AI9-BLK19
  1

  0
MTEXT
  5
10F
100
AcDbEntity
  8
レイヤー_1
 62
     7
100
AcDbMText
 10
-1.624449
 20
1.200985
 30
0.0
 40
2.393849
 41
0.0
 71
     1
 72
     2
  1
\fMS Gothic|b0|i0|c128;\H2.3938;\C7;\U+65E5
  7
STD
210
0.0
220
0.0
230
1.0
 73
     1
 44
1.0
  0
ENDBLK
  5
110
100
AcDbEntity
  8
レイヤー_1
100
AcDbBlockEnd
  0
BLOCK
  5
113
100
AcDbEntity
  8
レイヤー_1
 62
     7
100
AcDbBlockBegin
  2
AI9-BLK20
 70
     0
 10
0.0
 20
0.0
 30
0.0
  3
AI9-BLK20
  1

  0
MTEXT
  5
114
100
AcDbEntity
  8
レイヤー_1
 62
     7
100
AcDbMText
 10
-1.608687
 20
1.231302
 30
0.0
 40
2.393849
 41
0.0
 71
     1
 72
     2
  1
\fMS Gothic|b0|i0|c128;\H2.3938;\C7;\U+4E8B
  7
STD
210
0.0
220
0.0
230
1.0
 73
     1
 44
1.0
  0
ENDBLK
  5
115
100
AcDbEntity
  8
レイヤー_1
100
AcDbBlockEnd
  0
BLOCK
  5
118
100
AcDbEntity
  8
レイヤー_1
 62
     7
100
AcDbBlockBegin
  2
AI9-BLK21
 70
     0
 10
0.0
 20
0.0
 30
0.0
  3
AI9-BLK21
  1

  0
MTEXT
  5
119
100
AcDbEntity
  8
レイヤー_1
 62
     7
100
AcDbMText
 10
-1.624449
 20
1.200985
 30
0.0
 40
2.393849
 41
0.0
 71
     1
 72
     2
  1
\fMS Gothic|b0|i0|c128;\H2.3938;\C7;\U+3000
  7
STD
210
0.0
220
0.0
230
1.0
 73
     1
 44
1.0
  0
ENDBLK
  5
11A
100
AcDbEntity
  8
レイヤー_1
100
AcDbBlockEnd
  0
BLOCK
  5
11D
100
AcDbEntity
  8
レイヤー_1
 62
     7
100
AcDbBlockBegin
  2
AI9-BLK22
 70
     0
 10
0.0
 20
0.0
 30
0.0
  3
AI9-BLK22
  1

  0
MTEXT
  5
11E
100
AcDbEntity
  8
レイヤー_1
 62
     7
100
AcDbMText
 10
-1.608687
 20
1.231302
 30
0.0
 40
2.393849
 41
0.0
 71
     1
 72
     2
  1
\fMS Gothic|b0|i0|c128;\H2.3938;\C7;\U+8A18
  7
STD
210
0.0
220
0.0
230
1.0
 73
     1
 44
1.0
  0
ENDBLK
  5
11F
100
AcDbEntity
  8
レイヤー_1
100
AcDbBlockEnd
  0
BLOCK
  5
13B
100
AcDbEntity
  8
レイヤー_1
 62
     7
100
AcDbBlockBegin
  2
AI9-BLK23
 70
     0
 10
0.0
 20
0.0
 30
0.0
  3
AI9-BLK23
  1

  0
MTEXT
  5
13C
100
AcDbEntity
  8
レイヤー_1
 62
     7
100
AcDbMText
 10
-4.03748
 20
1.201157
 30
0.0
 40
2.393849
 41
0.0
 71
     1
 72
     2
  1
\fMS Gothic|b0|i0|c128;\H2.3938;\C7;\U+7B26\U+0020\U+53F7
  7
STD
210
0.0
220
0.0
230
1.0
 73
     1
 44
1.0
  0
ENDBLK
  5
13D
100
AcDbEntity
  8
レイヤー_1
100
AcDbBlockEnd
  0
ENDSEC
  0
SECTION
  2
ENTITIES
  0
MTEXT
  5
156
100
AcDbEntity
  8
レイヤー_1
 62
     7
100
AcDbMText
 10
196.087945
 20
15.940653
 30
0.0
 40
2.393849
 41
0.0
 71
     1
 72
     2
  1
\fMS Gothic|b0|i0|c128;\H2.3938;\C7;\U+FF11
  7
STD
210
0.0
220
0.0
230
1.0
 73
     1
 44
1.0
  0
MTEXT
  5
155
100
AcDbEntity
  8
レイヤー_1
 62
     7
100
AcDbMText
 10
199.30532
 20
15.940653
 30
0.0
 40
2.393849
 41
0.0
 71
     1
 72
     2
  1
\fMS Gothic|b0|i0|c128;\H2.3938;\C7;\U+FF1A
  7
STD
210
0.0
220
0.0
230
1.0
 73
     1
 44
1.0
  0
MTEXT
  5
154
100
AcDbEntity
  8
レイヤー_1
 62
     7
100
AcDbMText
 10
202.522694
 20
15.940653
 30
0.0
 40
2.393849
 41
0.0
 71
     1
 72
     2
  1
\fMS Gothic|b0|i0|c128;\H2.3938;\C7;\U+FF11
  7
STD
210
0.0
220
0.0
230
1.0
 73
     1
 44
1.0
  0
MTEXT
  5
153
100
AcDbEntity
  8
レイヤー_1
 62
     7
100
AcDbMText
 10
228.874574
 20
20.202926
 30
0.0
 40
2.393849
 41
0.0
 71
     1
 72
     2
  1
\fMS Gothic|b0|i0|c128;\H2.3938;\C7;\U+0044\U+0065\U+002D\U+0073\U+0069\U+0067\U+006E\U+0020\U+30DE\U+30FC\U+30D9\U+30E9\U+30A4\U+30C8\U+0020\U+0034\U+0030\U+00D7\U+0032\U+0031\U+0030
  7
STD
210
0.0
220
0.0
230
1.0
 73
     1
 44
1.0
  0
MTEXT
  5
152
100
AcDbEntity
  8
レイヤー_1
 62
     7
100
AcDbMText
 10
170.179966
 20
32.111932
 30
0.0
 40
2.393849
 41
0.0
 71
     1
 72
     2
  1
\fMS Gothic|b0|i0|c128;\H2.3938;\C7;\U+0032\U+0030\U+0031\U+0031
  7
STD
210
0.0
220
0.0
230
1.0
 73
     1
 44
1.0
  0
MTEXT
  5
151
100
AcDbEntity
  8
レイヤー_1
 62
     7
100
AcDbMText
 10
176.614715
 20
32.111932
 30
0.0
 40
2.393849
 41
0.0
 71
     1
 72
     2
  1
\fMS Gothic|b0|i0|c128;\H2.3938;\C7;\U+3000
  7
STD
210
0.0
220
0.0
230
1.0
 73
     1
 44
1.0
  0
MTEXT
  5
150
100
AcDbEntity
  8
レイヤー_1
 62
     7
100
AcDbMText
 10
179.831917
 20
32.111932
 30
0.0
 40
2.393849
 41
0.0
 71
     1
 72
     2
  1
\fMS Gothic|b0|i0|c128;\H2.3938;\C7;\U+5E74
  7
STD
210
0.0
220
0.0
230
1.0
 73
     1
 44
1.0
  0
MTEXT
  5
14F
100
AcDbEntity
  8
レイヤー_1
 62
     7
100
AcDbMText
 10
183.049292
 20
32.111932
 30
0.0
 40
2.393849
 41
0.0
 71
     1
 72
     2
  1
\fMS Gothic|b0|i0|c128;\H2.3938;\C7;\U+3000
  7
STD
210
0.0
220
0.0
230
1.0
 73
     1
 44
1.0
  0
MTEXT
  5
14E
100
AcDbEntity
  8
レイヤー_1
 62
     7
100
AcDbMText
 10
186.266667
 20
32.111932
 30
0.0
 40
2.393849
 41
0.0
 71
     1
 72
     2
  1
\fMS Gothic|b0|i0|c128;\H2.3938;\C7;\U+3000\U+0034
  7
STD
210
0.0
220
0.0
230
1.0
 73
     1
 44
1.0
  0
MTEXT
  5
14D
100
AcDbEntity
  8
レイヤー_1
 62
     7
100
AcDbMText
 10
192.701244
 20
32.111932
 30
0.0
 40
2.393849
 41
0.0
 71
     1
 72
     2
  1
\fMS Gothic|b0|i0|c128;\H2.3938;\C7;\U+6708
  7
STD
210
0.0
220
0.0
230
1.0
 73
     1
 44
1.0
  0
MTEXT
  5
14C
100
AcDbEntity
  8
レイヤー_1
 62
     7
100
AcDbMText
 10
195.918618
 20
32.111932
 30
0.0
 40
2.393849
 41
0.0
 71
     1
 72
     2
  1
\fMS Gothic|b0|i0|c128;\H2.3938;\C7;\U+3000
  7
STD
210
0.0
220
0.0
230
1.0
 73
     1
 44
1.0
  0
MTEXT
  5
14B
100
AcDbEntity
  8
レイヤー_1
 62
     7
100
AcDbMText
 10
201.710341
 20
32.111932
 30
0.0
 40
2.393849
 41
0.0
 71
     1
 72
     2
  1
\fMS Gothic|b0|i0|c128;\H2.3938;\C7;\U+0032\U+0031
  7
STD
210
0.0
220
0.0
230
1.0
 73
     1
 44
1.0
  0
MTEXT
  5
14A
100
AcDbEntity
  8
レイヤー_1
 62
     7
100
AcDbMText
 10
205.57057
 20
32.111932
 30
0.0
 40
2.393849
 41
0.0
 71
     1
 72
     2
  1
\fMS Gothic|b0|i0|c128;\H2.3938;\C7;\U+65E5
  7
STD
210
0.0
220
0.0
230
1.0
 73
     1
 44
1.0
  0
LINE
  5
149
100
AcDbEntity
  8
レイヤー_1
 62
     7
100
AcDbLine
 10
181.980279
 20
18.658293
 30
0.0
 11
216.947654
 21
18.658293
 31
0.0
  0
LINE
  5
148
100
AcDbEntity
  8
レイヤー_1
 62
     7
100
AcDbLine
 10
148.960244
 20
27.124959
 30
0.0
 11
281.971419
 21
27.124959
 31
0.0
  0
LINE
  5
147
100
AcDbEntity
  8
レイヤー_1
 62
     7
100
AcDbLine
 10
281.971419
 20
35.168224
 30
0.0
 11
281.971419
 21
10.191626
 31
0.0
  0
POLYLINE
  5
142
100
AcDbEntity
  8
レイヤー_1
 62
     7
100
AcDb2dPolyline
 66
     1
 10
0.0
 20
0.0
 30
0.0
  0
VERTEX
  5
143
100
AcDbEntity
  8
レイヤー_1
 62
     7
100
AcDbVertex
100
AcDb2dVertex
 10
15.017516
 20
287.051557
 30
0.0
  0
VERTEX
  5
144
100
AcDbEntity
  8
レイヤー_1
 62
     7
100
AcDbVertex
100
AcDb2dVertex
 10
404.907585
 20
287.051557
 30
0.0
  0
VERTEX
  5
145
100
AcDbEntity
  8
レイヤー_1
 62
     7
100
AcDbVertex
100
AcDb2dVertex
 10
404.907585
 20
10.191626
 30
0.0
  0
SEQEND
  5
146
100
AcDbEntity
  8
レイヤー_1
 62
     7
  0
MTEXT
  5
141
100
AcDbEntity
  8
レイヤー_1
 62
     7
100
AcDbMText
 10
49.784041
 20
282.509519
 30
0.0
 40
2.393849
 41
0.0
 71
     1
 72
     2
  1
\fMS Gothic|b0|i0|c128;\H2.3938;\C7;\U+56F3
  7
STD
210
0.0
220
0.0
230
1.0
 11
-1.0
 21
0.0
 31
0.0
 73
     1
 44
1.0
  0
MTEXT
  5
140
100
AcDbEntity
  8
レイヤー_1
 62
     7
100
AcDbMText
 10
46.566667
 20
282.509519
 30
0.0
 40
2.393849
 41
0.0
 71
     1
 72
     2
  1
\fMS Gothic|b0|i0|c128;\H2.3938;\C7;\U+3000
  7
STD
210
0.0
220
0.0
230
1.0
 11
-1.0
 21
0.0
 31
0.0
 73
     1
 44
1.0
  0
MTEXT
  5
13F
100
AcDbEntity
  8
レイヤー_1
 62
     7
100
AcDbMText
 10
43.349292
 20
282.509519
 30
0.0
 40
2.393849
 41
0.0
 71
     1
 72
     2
  1
\fMS Gothic|b0|i0|c128;\H2.3938;\C7;\U+756A
  7
STD
210
0.0
220
0.0
230
1.0
 11
-1.0
 21
0.0
 31
0.0
 73
     1
 44
1.0
  0
LINE
  5
13E
100
AcDbEntity
  8
レイヤー_1
 62
     7
100
AcDbLine
 10
52.948189
 20
280.109001
 30
0.0
 11
52.948189
 21
287.051557
 31
0.0
  0
INSERT
  5
13A
100
AcDbEntity
  8
レイヤー_1
 62
     7
100
AcDbBlockReference
  2
AI9-BLK23
 10
30.114785
 20
12.284177
 30
0.0
  0
MTEXT
  5
138
100
AcDbEntity
  8
レイヤー_1
 62
     7
100
AcDbMText
 10
18.118618
 20
33.043141
 30
0.0
 40
2.393849
 41
0.0
 71
     1
 72
     2
  1
\fMS Gothic|b0|i0|c128;\H2.3938;\C7;\U+5099
  7
STD
210
0.0
220
0.0
230
1.0
 73
     1
 44
1.0
  0
MTEXT
  5
137
100
AcDbEntity
  8
レイヤー_1
 62
     7
100
AcDbMText
 10
21.335993
 20
33.043141
 30
0.0
 40
2.393849
 41
0.0
 71
     1
 72
     2
  1
\fMS Gothic|b0|i0|c128;\H2.3938;\C7;\U+3000
  7
STD
210
0.0
220
0.0
230
1.0
 73
     1
 44
1.0
  0
MTEXT
  5
136
100
AcDbEntity
  8
レイヤー_1
 62
     7
100
AcDbMText
 10
18.203368
 20
28.809808
 30
0.0
 40
2.393849
 41
0.0
 71
     1
 72
     2
  1
\fMS Gothic|b0|i0|c128;\H2.3938;\C7;\U+3000
  7
STD
210
0.0
220
0.0
230
1.0
 73
     1
 44
1.0
  0
MTEXT
  5
135
100
AcDbEntity
  8
レイヤー_1
 62
     7
100
AcDbMText
 10
18.118618
 20
24.491725
 30
0.0
 40
2.393849
 41
0.0
 71
     1
 72
     2
  1
\fMS Gothic|b0|i0|c128;\H2.3938;\C7;
  7
STD
210
0.0
220
0.0
230
1.0
 73
     1
 44
1.0
  0
MTEXT
  5
134
100
AcDbEntity
  8
レイヤー_1
 62
     7
100
AcDbMText
 10
21.335993
 20
24.491725
 30
0.0
 40
2.393849
 41
0.0
 71
     1
 72
     2
  1
\fMS Gothic|b0|i0|c128;\H2.3938;\C7;\U+3000
  7
STD
210
0.0
220
0.0
230
1.0
 73
     1
 44
1.0
  0
MTEXT
  5
133
100
AcDbEntity
  8
レイヤー_1
 62
     7
100
AcDbMText
 10
18.203368
 20
20.343141
 30
0.0
 40
2.393849
 41
0.0
 71
     1
 72
     2
  1
\fMS Gothic|b0|i0|c128;\H2.3938;\C7;\U+3000
  7
STD
210
0.0
220
0.0
230
1.0
 73
     1
 44
1.0
  0
MTEXT
  5
132
100
AcDbEntity
  8
レイヤー_1
 62
     7
100
AcDbMText
 10
18.118618
 20
16.109808
 30
0.0
 40
2.393849
 41
0.0
 71
     1
 72
     2
  1
\fMS Gothic|b0|i0|c128;\H2.3938;\C7;\U+6B04
  7
STD
210
0.0
220
0.0
230
1.0
 73
     1
 44
1.0
  0
MTEXT
  5
131
100
AcDbEntity
  8
レイヤー_1
 62
     7
100
AcDbMText
 10
28.109395
 20
25.761932
 30
0.0
 40
2.393849
 41
0.0
 71
     1
 72
     2
  1
\fMS Gothic|b0|i0|c128;\H2.3938;\C7;\U+2461
  7
STD
210
0.0
220
0.0
230
1.0
 73
     1
 44
1.0
  0
MTEXT
  5
130
100
AcDbEntity
  8
レイヤー_1
 62
     7
100
AcDbMText
 10
28.109395
 20
18.90378
 30
0.0
 40
2.393849
 41
0.0
 71
     1
 72
     2
  1
\fMS Gothic|b0|i0|c128;\H2.3938;\C7;\U+2460
  7
STD
210
0.0
220
0.0
230
1.0
 73
     1
 44
1.0
  0
LINE
  5
12F
100
AcDbEntity
  8
レイヤー_1
 62
     7
100
AcDbLine
 10
37.962196
 20
287.051557
 30
0.0
 11
37.962196
 21
280.109001
 31
0.0
  0
LINE
  5
12E
100
AcDbEntity
  8
レイヤー_1
 62
     7
100
AcDbLine
 10
52.948189
 20
280.109001
 30
0.0
 11
52.948189
 21
287.051557
 31
0.0
  0
LINE
  5
12D
100
AcDbEntity
  8
レイヤー_1
 62
     7
100
AcDbLine
 10
37.962196
 20
287.051557
 30
0.0
 11
37.962196
 21
280.109001
 31
0.0
  0
LINE
  5
12C
100
AcDbEntity
  8
レイヤー_1
 62
     7
100
AcDbLine
 10
15.017516
 20
280.109001
 30
0.0
 11
52.948189
 21
280.109001
 31
0.0
  0
LINE
  5
12B
100
AcDbEntity
  8
レイヤー_1
 62
     7
100
AcDbLine
 10
15.017516
 20
10.191626
 30
0.0
 11
15.017516
 21
287.051557
 31
0.0
  0
LINE
  5
12A
100
AcDbEntity
  8
レイヤー_1
 62
     7
100
AcDbLine
 10
25.008293
 20
35.168224
 30
0.0
 11
25.008293
 21
10.191626
 31
0.0
  0
MTEXT
  5
129
100
AcDbEntity
  8
レイヤー_1
 62
     7
100
AcDbMText
 10
28.109395
 20
32.704488
 30
0.0
 40
2.393849
 41
0.0
 71
     1
 72
     2
  1
\fMS Gothic|b0|i0|c128;\H2.3938;\C7;\U+2462
  7
STD
210
0.0
220
0.0
230
1.0
 73
     1
 44
1.0
  0
LINE
  5
128
100
AcDbEntity
  8
レイヤー_1
 62
     7
100
AcDbLine
 10
34.998897
 20
35.168224
 30
0.0
 11
34.998897
 21
10.191626
 31
0.0
  0
LINE
  5
127
100
AcDbEntity
  8
レイヤー_1
 62
     7
100
AcDbLine
 10
15.017516
 20
10.191626
 30
0.0
 11
15.017516
 21
35.168224
 31
0.0
  0
LINE
  5
126
100
AcDbEntity
  8
レイヤー_1
 62
     7
100
AcDbLine
 10
25.008293
 20
35.168224
 30
0.0
 11
25.008293
 21
10.191626
 31
0.0
  0
LINE
  5
125
100
AcDbEntity
  8
レイヤー_1
 62
     7
100
AcDbLine
 10
34.998897
 20
35.168224
 30
0.0
 11
34.998897
 21
10.191626
 31
0.0
  0
POLYLINE
  5
120
100
AcDbEntity
  8
レイヤー_1
 62
     7
100
AcDb2dPolyline
 66
     1
 10
0.0
 20
0.0
 30
0.0
  0
VERTEX
  5
121
100
AcDbEntity
  8
レイヤー_1
 62
     7
100
AcDbVertex
100
AcDb2dVertex
 10
15.017516
 20
10.191626
 30
0.0
  0
VERTEX
  5
122
100
AcDbEntity
  8
レイヤー_1
 62
     7
100
AcDbVertex
100
AcDb2dVertex
 10
15.017516
 20
35.168224
 30
0.0
  0
VERTEX
  5
123
100
AcDbEntity
  8
レイヤー_1
 62
     7
100
AcDbVertex
100
AcDb2dVertex
 10
404.907585
 20
35.168224
 30
0.0
  0
SEQEND
  5
124
100
AcDbEntity
  8
レイヤー_1
 62
     7
  0
INSERT
  5
11C
100
AcDbEntity
  8
レイヤー_1
 62
     7
100
AcDbBlockReference
  2
AI9-BLK22
 10
100.160639
 20
11.999784
 30
0.0
  0
INSERT
  5
117
100
AcDbEntity
  8
レイヤー_1
 62
     7
100
AcDbBlockReference
  2
AI9-BLK21
 10
103.393775
 20
12.030101
 30
0.0
  0
INSERT
  5
112
100
AcDbEntity
  8
レイヤー_1
 62
     7
100
AcDbBlockReference
  2
AI9-BLK20
 10
106.595388
 20
11.999784
 30
0.0
  0
INSERT
  5
10D
100
AcDbEntity
  8
レイヤー_1
 62
     7
100
AcDbBlockReference
  2
AI9-BLK19
 10
42.687748
 20
12.1996
 30
0.0
  0
INSERT
  5
108
100
AcDbEntity
  8
レイヤー_1
 62
     7
100
AcDbBlockReference
  2
AI9-BLK18
 10
45.905122
 20
12.1996
 30
0.0
  0
INSERT
  5
103
100
AcDbEntity
  8
レイヤー_1
 62
     7
100
AcDbBlockReference
  2
AI9-BLK17
 10
49.122497
 20
12.1996
 30
0.0
  0
LINE
  5
101
100
AcDbEntity
  8
レイヤー_1
 62
     7
100
AcDbLine
 10
25.008293
 20
28.140918
 30
0.0
 11
148.960244
 21
28.140918
 31
0.0
  0
LINE
  5
100
100
AcDbEntity
  8
レイヤー_1
 62
     7
100
AcDbLine
 10
25.008293
 20
21.113612
 30
0.0
 11
148.960244
 21
21.113612
 31
0.0
  0
LINE
  5
FF
100
AcDbEntity
  8
レイヤー_1
 62
     7
100
AcDbLine
 10
25.008293
 20
14.171056
 30
0.0
 11
148.960244
 21
14.171056
 31
0.0
  0
LINE
  5
FE
100
AcDbEntity
  8
レイヤー_1
 62
     7
100
AcDbLine
 10
404.907585
 20
10.191626
 30
0.0
 11
15.017516
 21
10.191626
 31
0.0
  0
MTEXT
  5
FD
100
AcDbEntity
  8
レイヤー_1
 62
     7
100
AcDbMText
 10
150.283333
 20
25.169031
 30
0.0
 40
2.393849
 41
0.0
 71
     1
 72
     2
  1
\fMS Gothic|b0|i0|c128;\H2.3938;\C7;\U+88FD\U+0020\U+56F3
  7
STD
210
0.0
220
0.0
230
1.0
 73
     1
 44
1.0
  0
LINE
  5
FC
100
AcDbEntity
  8
レイヤー_1
 62
     7
100
AcDbLine
 10
25.008293
 20
14.171056
 30
0.0
 11
148.960244
 21
14.171056
 31
0.0
  0
LINE
  5
FB
100
AcDbEntity
  8
レイヤー_1
 62
     7
100
AcDbLine
 10
58.959536
 20
35.168224
 30
0.0
 11
58.959536
 21
10.191626
 31
0.0
  0
MTEXT
  5
FA
100
AcDbEntity
  8
レイヤー_1
 62
     7
100
AcDbMText
 10
150.114007
 20
32.365835
 30
0.0
 40
2.393849
 41
0.0
 71
     1
 72
     2
  1
\fMS Gothic|b0|i0|c128;\H2.3938;\C7;\U+65E5\U+0020\U+4ED8
  7
STD
210
0.0
220
0.0
230
1.0
 73
     1
 44
1.0
  0
MTEXT
  5
F9
100
AcDbEntity
  8
レイヤー_1
 62
     7
100
AcDbMText
 10
161.290069
 20
25.169031
 30
0.0
 40
2.393849
 41
0.0
 71
     1
 72
     2
  1
\fMS Gothic|b0|i0|c128;\H2.3938;\C7;\U+691C\U+0020\U+56F3
  7
STD
210
0.0
220
0.0
230
1.0
 73
     1
 44
1.0
  0
MTEXT
  5
F8
100
AcDbEntity
  8
レイヤー_1
 62
     7
100
AcDbMText
 10
172.212055
 20
25.25378
 30
0.0
 40
2.393849
 41
0.0
 71
     1
 72
     2
  1
\fMS Gothic|b0|i0|c128;\H2.3938;\C7;\U+627F\U+0020\U+8A8D
  7
STD
210
0.0
220
0.0
230
1.0
 73
     1
 44
1.0
  0
MTEXT
  5
F7
100
AcDbEntity
  8
レイヤー_1
 62
     7
100
AcDbMText
 10
172.381382
 20
17.154016
 30
0.0
 40
2.393849
 41
0.0
 71
     1
 72
     2
  1
\fMS Gothic|b0|i0|c128;\H2.3938;\C7;\U+53E4\U+0020\U+6FA4
  7
STD
210
0.0
220
0.0
230
1.0
 73
     1
 44
1.0
  0
MTEXT
  5
F6
100
AcDbEntity
  8
レイヤー_1
 62
     7
100
AcDbMText
 10
161.538116
 20
17.154016
 30
0.0
 40
2.393849
 41
0.0
 71
     1
 72
     2
  1
\fMS Gothic|b0|i0|c128;\H2.3938;\C7;\U+82B1\U+0020\U+7530
  7
STD
210
0.0
220
0.0
230
1.0
 73
     1
 44
1.0
  0
MTEXT
  5
F5
100
AcDbEntity
  8
レイヤー_1
 62
     7
100
AcDbMText
 10
182.795388
 20
17.887821
 30
0.0
 40
2.393849
 41
0.0
 71
     1
 72
     2
  1
\fMS Gothic|b0|i0|c128;\H2.3938;\C7;\U+5C3A
  7
STD
210
0.0
220
0.0
230
1.0
 73
     1
 44
1.0
  0
MTEXT
  5
F4
100
AcDbEntity
  8
レイヤー_1
 62
     7
100
AcDbMText
 10
182.795388
 20
13.654488
 30
0.0
 40
2.393849
 41
0.0
 71
     1
 72
     2
  1
\fMS Gothic|b0|i0|c128;\H2.3938;\C7;\U+5EA6
  7
STD
210
0.0
220
0.0
230
1.0
 73
     1
 44
1.0
  0
MTEXT
  5
F3
100
AcDbEntity
  8
レイヤー_1
 62
     7
100
AcDbMText
 10
182.710639
 20
26.100585
 30
0.0
 40
2.393849
 41
0.0
 71
     1
 72
     2
  1
\fMS Gothic|b0|i0|c128;\H2.3938;\C7;\U+56F3
  7
STD
210
0.0
220
0.0
230
1.0
 73
     1
 44
1.0
  0
MTEXT
  5
F2
100
AcDbEntity
  8
レイヤー_1
 62
     7
100
AcDbMText
 10
185.928014
 20
26.100585
 30
0.0
 40
2.393849
 41
0.0
 71
     1
 72
     2
  1
\fMS Gothic|b0|i0|c128;\H2.3938;\C7;\U+3000
  7
STD
210
0.0
220
0.0
230
1.0
 73
     1
 44
1.0
  0
MTEXT
  5
F1
100
AcDbEntity
  8
レイヤー_1
 62
     7
100
AcDbMText
 10
182.879966
 20
21.867251
 30
0.0
 40
2.393849
 41
0.0
 71
     1
 72
     2
  1
\fMS Gothic|b0|i0|c128;\H2.3938;\C7;\U+756A
  7
STD
210
0.0
220
0.0
230
1.0
 73
     1
 44
1.0
  0
MTEXT
  5
F0
100
AcDbEntity
  8
レイヤー_1
 62
     7
100
AcDbMText
 10
150.368083
 20
17.154016
 30
0.0
 40
2.393849
 41
0.0
 71
     1
 72
     2
  1
\fMS Gothic|b0|i0|c128;\H2.3938;\C7;\U+6728\U+0020\U+8C37
  7
STD
210
0.0
220
0.0
230
1.0
 73
     1
 44
1.0
  0
LINE
  5
EF
100
AcDbEntity
  8
レイヤー_1
 62
     7
100
AcDbLine
 10
148.960244
 20
35.168224
 30
0.0
 11
148.960244
 21
10.191626
 31
0.0
  0
LINE
  5
EE
100
AcDbEntity
  8
レイヤー_1
 62
     7
100
AcDbLine
 10
148.960244
 20
21.113612
 30
0.0
 11
181.980279
 21
21.113612
 31
0.0
  0
LINE
  5
ED
100
AcDbEntity
  8
レイヤー_1
 62
     7
100
AcDbLine
 10
159.96698
 20
35.168224
 30
0.0
 11
159.96698
 21
10.191626
 31
0.0
  0
MTEXT
  5
EC
100
AcDbEntity
  8
レイヤー_1
 62
     7
100
AcDbMText
 10
217.762763
 20
20.089237
 30
0.0
 40
2.393849
 41
0.0
 71
     1
 72
     2
  1
\fMS Gothic|b0|i0|c128;\H2.3938;\C7;\U+3000
  7
STD
210
0.0
220
0.0
230
1.0
 73
     1
 44
1.0
  0
MTEXT
  5
EB
100
AcDbEntity
  8
レイヤー_1
 62
     7
100
AcDbMText
 10
217.678014
 20
24.153072
 30
0.0
 40
2.393849
 41
0.0
 71
     1
 72
     2
  1
\fMS Gothic|b0|i0|c128;\H2.3938;\C7;\U+54C1
  7
STD
210
0.0
220
0.0
230
1.0
 73
     1
 44
1.0
  0
MTEXT
  5
EA
100
AcDbEntity
  8
レイヤー_1
 62
     7
100
AcDbMText
 10
220.895388
 20
24.153072
 30
0.0
 40
2.393849
 41
0.0
 71
     1
 72
     2
  1
\fMS Gothic|b0|i0|c128;\H2.3938;\C7;\U+3000
  7
STD
210
0.0
220
0.0
230
1.0
 73
     1
 44
1.0
  0
MTEXT
  5
E9
100
AcDbEntity
  8
レイヤー_1
 62
     7
100
AcDbMText
 10
218.101416
 20
20.004488
 30
0.0
 40
2.393849
 41
0.0
 71
     1
 72
     2
  1
\fMS Gothic|b0|i0|c128;\H2.3938;\C7;\U+3000\U+3000
  7
STD
210
0.0
220
0.0
230
1.0
 73
     1
 44
1.0
  0
MTEXT
  5
E8
100
AcDbEntity
  8
レイヤー_1
 62
     7
100
AcDbMText
 10
217.847168
 20
15.771155
 30
0.0
 40
2.393849
 41
0.0
 71
     1
 72
     2
  1
\fMS Gothic|b0|i0|c128;\H2.3938;\C7;
  7
STD
210
0.0
220
0.0
230
1.0
 73
     1
 44
1.0
  0
MTEXT
  5
E7
100
AcDbEntity
  8
レイヤー_1
 62
     7
100
AcDbMText
 10
217.847168
 20
34.397753
 30
0.0
 40
2.393849
 41
0.0
 71
     1
 72
     2
  1
\fMS Gothic|b0|i0|c128;\H2.3938;\C7;\U+54C1
  7
STD
210
0.0
220
0.0
230
1.0
 73
     1
 44
1.0
  0
MTEXT
  5
E6
100
AcDbEntity
  8
レイヤー_1
 62
     7
100
AcDbMText
 10
218.016667
 20
30.164419
 30
0.0
 40
2.393849
 41
0.0
 71
     1
 72
     2
  1
\fMS Gothic|b0|i0|c128;\H2.3938;\C7;\U+756A
  7
STD
210
0.0
220
0.0
230
1.0
 73
     1
 44
1.0
  0
LINE
  5
E5
100
AcDbEntity
  8
レイヤー_1
 62
     7
100
AcDbLine
 10
170.973543
 20
27.124959
 30
0.0
 11
170.973543
 21
10.191626
 31
0.0
  0
LINE
  5
E4
100
AcDbEntity
  8
レイヤー_1
 62
     7
100
AcDbLine
 10
181.980279
 20
27.124959
 30
0.0
 11
181.980279
 21
10.191626
 31
0.0
  0
LINE
  5
E3
100
AcDbEntity
  8
レイヤー_1
 62
     7
100
AcDbLine
 10
186.975667
 20
27.124959
 30
0.0
 11
186.975667
 21
10.191626
 31
0.0
  0
LINE
  5
E2
100
AcDbEntity
  8
レイヤー_1
 62
     7
100
AcDbLine
 10
148.960244
 20
35.168224
 30
0.0
 11
148.960244
 21
10.191626
 31
0.0
  0
LINE
  5
E1
100
AcDbEntity
  8
レイヤー_1
 62
     7
100
AcDbLine
 10
148.960244
 20
21.113612
 30
0.0
 11
181.980279
 21
21.113612
 31
0.0
  0
LINE
  5
E0
100
AcDbEntity
  8
レイヤー_1
 62
     7
100
AcDbLine
 10
159.96698
 20
35.168224
 30
0.0
 11
159.96698
 21
10.191626
 31
0.0
  0
LINE
  5
DF
100
AcDbEntity
  8
レイヤー_1
 62
     7
100
AcDbLine
 10
170.973543
 20
27.124959
 30
0.0
 11
170.973543
 21
10.191626
 31
0.0
  0
LINE
  5
DE
100
AcDbEntity
  8
レイヤー_1
 62
     7
100
AcDbLine
 10
181.980279
 20
27.124959
 30
0.0
 11
181.980279
 21
10.191626
 31
0.0
  0
LINE
  5
DD
100
AcDbEntity
  8
レイヤー_1
 62
     7
100
AcDbLine
 10
186.975667
 20
27.124959
 30
0.0
 11
186.975667
 21
10.191626
 31
0.0
  0
LINE
  5
DC
100
AcDbEntity
  8
レイヤー_1
 62
     7
100
AcDbLine
 10
181.980279
 20
18.658293
 30
0.0
 11
216.947654
 21
18.658293
 31
0.0
  0
LINE
  5
DB
100
AcDbEntity
  8
レイヤー_1
 62
     7
100
AcDbLine
 10
148.960244
 20
27.124959
 30
0.0
 11
281.971419
 21
27.124959
 31
0.0
  0
LINE
  5
DA
100
AcDbEntity
  8
レイヤー_1
 62
     7
100
AcDbLine
 10
216.947654
 20
35.168224
 30
0.0
 11
216.947654
 21
10.191626
 31
0.0
  0
LINE
  5
D9
100
AcDbEntity
  8
レイヤー_1
 62
     7
100
AcDbLine
 10
221.943042
 20
35.168224
 30
0.0
 11
221.943042
 21
10.191626
 31
0.0
  0
MTEXT
  5
D8
100
AcDbEntity
  8
レイヤー_1
 62
     7
100
AcDbMText
 10
217.762763
 20
20.089237
 30
0.0
 40
2.393849
 41
0.0
 71
     1
 72
     2
  1
\fMS Gothic|b0|i0|c128;\H2.3938;\C7;\U+3000
  7
STD
210
0.0
220
0.0
230
1.0
 73
     1
 44
1.0
  0
LINE
  5
D7
100
AcDbEntity
  8
レイヤー_1
 62
     7
100
AcDbLine
 10
216.947654
 20
35.168224
 30
0.0
 11
216.947654
 21
10.191626
 31
0.0
  0
LINE
  5
D6
100
AcDbEntity
  8
レイヤー_1
 62
     7
100
AcDbLine
 10
221.943042
 20
35.168224
 30
0.0
 11
221.943042
 21
10.191626
 31
0.0
  0
MTEXT
  5
D5
100
AcDbEntity
  8
レイヤー_1
 62
     7
100
AcDbMText
 10
62.314715
 20
32.704488
 30
0.0
 40
2.393849
 41
0.0
 71
     1
 72
     2
  1
\fMS Gothic|b0|i0|c128;\H2.3938;\C7;\U+6D88\U+8CBB\U+96FB\U+529B\U+FF0F\U+0020\U+004C\U+0045\U+0044\U+0020\U+0030\U+002E\U+0033\U+0036\U+0057
  7
STD
210
0.0
220
0.0
230
1.0
 73
     1
 44
1.0
  0
INSERT
  5
CF
100
AcDbEntity
  8
レイヤー_1
 62
     7
100
AcDbBlockReference
  2
AI9-BLK16
 10
72.77101
 20
17.234951
 30
0.0
  0
MTEXT
  5
CD
100
AcDbEntity
  8
レイヤー_1
 62
     7
100
AcDbMText
 10
62.314715
 20
25.874586
 30
0.0
 40
2.393849
 41
0.0
 71
     1
 72
     2
  1
\fMS Gothic|b0|i0|c128;\H2.3938;\C7;\U+6750\U+8CEA
  7
STD
210
0.0
220
0.0
230
1.0
 73
     1
 44
1.0
  0
MTEXT
  5
CC
100
AcDbEntity
  8
レイヤー_1
 62
     7
100
AcDbMText
 10
69.278459
 20
25.874586
 30
0.0
 40
2.393849
 41
0.0
 71
     1
 72
     2
  1
\fMS Gothic|b0|i0|c128;\H2.3938;\C7;\U+FF0F
  7
STD
210
0.0
220
0.0
230
1.0
 73
     1
 44
1.0
  0
MTEXT
  5
CB
100
AcDbEntity
  8
レイヤー_1
 62
     7
100
AcDbMText
 10
72.495833
 20
25.874586
 30
0.0
 40
2.393849
 41
0.0
 71
     1
 72
     2
  1
\fMS Gothic|b0|i0|c128;\H2.3938;\C7;\U+4EBA\U+5DE5\U+5927\U+7406\U+77F3
  7
STD
210
0.0
220
0.0
230
1.0
 73
     1
 44
1.0
  0
LINE
  5
CA
100
AcDbEntity
  8
レイヤー_1
 62
     7
100
AcDbLine
 10
281.971419
 20
35.168224
 30
0.0
 11
281.971419
 21
10.191626
 31
0.0
  0
MTEXT
  5
C9
100
AcDbEntity
  8
レイヤー_1
 62
     7
100
AcDbMText
 10
38.862055
 20
32.704488
 30
0.0
 40
2.393849
 41
0.0
 71
     1
 72
     2
  1
\fMS Gothic|b0|i0|c128;\H2.3938;\C7;\U+0032\U+0030\U+0031\U+0031\U+002E\U+0034\U+002E\U+0032\U+0031
  7
STD
210
0.0
220
0.0
230
1.0
 73
     1
 44
1.0
  0
MTEXT
  5
C8
100
AcDbEntity
  8
レイヤー_1
 62
     7
100
AcDbMText
 10
38.862055
 20
25.661335
 30
0.0
 40
2.393849
 41
0.0
 71
     1
 72
     2
  1
\fMS Gothic|b0|i0|c128;\H2.3938;\C7;\U+0032\U+0030\U+0031\U+0031\U+002E\U+0034\U+002E\U+0032\U+0031
  7
STD
210
0.0
220
0.0
230
1.0
 73
     1
 44
1.0
  0
MTEXT
  5
C7
100
AcDbEntity
  8
レイヤー_1
 62
     7
100
AcDbMText
 10
38.862055
 20
18.976472
 30
0.0
 40
2.393849
 41
0.0
 71
     1
 72
     2
  1
\fMS Gothic|b0|i0|c128;\H2.3938;\C7;\U+0032\U+0030\U+0031\U+0031\U+002E\U+0034\U+002E\U+0032\U+0031
  7
STD
210
0.0
220
0.0
230
1.0
 73
     1
 44
1.0
  0
INSERT
  5
A0
100
AcDbEntity
  8
レイヤー_1
 62
     7
100
AcDbBlockReference
  2
AI9-BLK9
 10
313.563978
 20
22.287356
 30
0.0
  0
MTEXT
  5
9E
100
AcDbEntity
  8
レイヤー_1
 62
     7
100
AcDbMText
 10
345.894132
 20
16.029051
 30
0.0
 40
2.849494
 41
0.0
 71
     1
 72
     2
  1
\fHGPGothicE|b0|i0|c128;\H2.8495;\C7;\U+FF26\U+FF21\U+FF38\U+002E\U+0020
  7
STD
210
0.0
220
0.0
230
1.0
 73
     1
 44
1.0
  0
MTEXT
  5
9D
100
AcDbEntity
  8
レイヤー_1
 62
     7
100
AcDbMText
 10
345.894132
 20
20.624809
 30
0.0
 40
2.849494
 41
0.0
 71
     1
 72
     2
  1
\fHGPGothicE|b0|i0|c128;\H2.8495;\C7;\U+FF34\U+FF25\U+FF2C\U+002E\U+0020\U+0020
  7
STD
210
0.0
220
0.0
230
1.0
 73
     1
 44
1.0
  0
MTEXT
  5
9C
100
AcDbEntity
  8
レイヤー_1
 62
     7
100
AcDbMText
 10
345.894132
 20
25.220566
 30
0.0
 40
2.849494
 41
0.0
 71
     1
 72
     2
  1
\fHGPGothicE|b0|i0|c128;\H2.8495;\C7;\U+548C\U+6B4C\U+5C71\U+770C\U+6D77\U+5357\U+5E02\U+5357\U+8D64\U+5742\U+FF12\U+FF10\U+002D\U+FF11
  7
STD
210
0.0
220
0.0
230
1.0
 73
     1
 44
1.0
  0
MTEXT
  5
9B
100
AcDbEntity
  8
レイヤー_1
 62
     7
100
AcDbMText
 10
359.465742
 20
15.61564
 30
0.0
 40
2.849494
 41
0.0
 71
     1
 72
     2
  1
\fHGPGothicE|b0|i0|c128;\H2.8495;\C7;\U+FF10\U+FF17\U+FF13\U+002D\U+FF14\U+FF18\U+FF16\U+002D\U+FF12\U+FF15\U+FF16\U+FF10\U+FF08\U+4EE3\U+FF09
  7
STD
210
0.0
220
0.0
230
1.0
 73
     1
 44
1.0
  0
MTEXT
  5
9A
100
AcDbEntity
  8
レイヤー_1
 62
     7
100
AcDbMText
 10
359.465742
 20
20.211397
 30
0.0
 40
2.849494
 41
0.0
 71
     1
 72
     2
  1
\fHGPGothicE|b0|i0|c128;\H2.8495;\C7;\U+FF10\U+FF17\U+FF13\U+002D\U+FF14\U+FF18\U+FF12\U+002D\U+FF14\U+FF11\U+FF12\U+FF18\U+FF08\U+4EE3\U+FF09
  7
STD
210
0.0
220
0.0
230
1.0
 73
     1
 44
1.0
  0
INSERT
  5
8E
100
AcDbEntity
  8
レイヤー_1
 62
     7
100
AcDbBlockReference
  2
AI9-BLK8
 10
370.903114
 20
29.366683
 30
0.0
  0
MTEXT
  5
8C
100
AcDbEntity
  8
レイヤー_1
 62
     7
100
AcDbMText
 10
-66.836747
 20
593.318442
 30
0.0
 40
8.873324
 41
0.0
 71
     1
 72
     2
  1
\fMS Gothic|b0|i0|c128;\H8.8733;\W1.10;\C7;\U+90E8\U+5206\U+30AB\U+30C3\U+30C8\U+30BF\U+30A4\U+30D7
  7
STD
210
0.0
220
0.0
230
1.0
 73
     1
 44
1.0
  0
MTEXT
  5
8B
100
AcDbEntity
  8
レイヤー_1
 62
     7
100
AcDbMText
 10
245.765188
 20
31.958969
 30
0.0
 40
2.393849
 41
0.0
 71
     1
 72
     2
  1
\fMS Gothic|b0|i0|c128;\H2.3938;\C7;\U+0044\U+004D\U+0042\U+004C\U+002D\U+0030\U+0031
  7
STD
210
0.0
220
0.0
230
1.0
 73
     1
 44
1.0
  0
MTEXT
  5
8A
100
AcDbEntity
  8
レイヤー_1
 62
     7
100
AcDbMText
 10
194.580027
 20
23.635619
 30
0.0
 40
2.393849
 41
0.0
 71
     1
 72
     2
  1
\fMS Gothic|b0|i0|c128;\H2.3938;\C7;\U+0034\U+0033\U+0035\U+0034\U+0036\U+0033\U+0030\U+0030
  7
STD
210
0.0
220
0.0
230
1.0
 73
     1
 44
1.0
  0
MTEXT
  5
89
100
AcDbEntity
  8
レイヤー_1
 62
     7
100
AcDbMText
 10
33.125627
 20
282.608221
 30
0.0
 40
2.393849
 41
0.0
 71
     1
 72
     2
  1
\fMS Gothic|b0|i0|c128;\H2.3938;\C7;\U+0034\U+0033\U+0035\U+0034\U+0036\U+0033\U+0030\U+0030
  7
STD
210
0.0
220
0.0
230
1.0
 11
-1.0
 21
0.0
 31
0.0
 73
     1
 44
1.0
  0
POLYLINE
  5
83
100
AcDbEntity
  8
レイヤー_1
 62
    18
100
AcDb2dPolyline
 66
     1
 10
0.0
 20
0.0
 30
0.0
  0
VERTEX
  5
84
100
AcDbEntity
  8
レイヤー_1
 62
    18
100
AcDbVertex
100
AcDb2dVertex
 10
200.142995
 20
98.838756
 30
0.0
  0
VERTEX
  5
85
100
AcDbEntity
  8
レイヤー_1
 62
    18
100
AcDbVertex
100
AcDb2dVertex
 10
200.142995
 20
109.938854
 30
0.0
  0
VERTEX
  5
86
100
AcDbEntity
  8
レイヤー_1
 62
    18
100
AcDbVertex
100
AcDb2dVertex
 10
197.242224
 20
109.938854
 30
0.0
  0
VERTEX
  5
87
100
AcDbEntity
  8
レイヤー_1
 62
    18
100
AcDbVertex
100
AcDb2dVertex
 10
197.242224
 20
97.445904
 30
0.0
  0
SEQEND
  5
88
100
AcDbEntity
  8
レイヤー_1
 62
    18
  0
POLYLINE
  5
7D
100
AcDbEntity
  8
レイヤー_1
 62
    18
100
AcDb2dPolyline
 66
     1
 10
0.0
 20
0.0
 30
0.0
  0
VERTEX
  5
7E
100
AcDbEntity
  8
レイヤー_1
 62
    18
100
AcDbVertex
100
AcDb2dVertex
 10
197.242224
 20
95.933507
 30
0.0
  0
VERTEX
  5
7F
100
AcDbEntity
  8
レイヤー_1
 62
    18
100
AcDbVertex
100
AcDb2dVertex
 10
197.242224
 20
86.070543
 30
0.0
  0
VERTEX
  5
80
100
AcDbEntity
  8
レイヤー_1
 62
    18
100
AcDbVertex
100
AcDb2dVertex
 10
200.142995
 20
86.070543
 30
0.0
  0
VERTEX
  5
81
100
AcDbEntity
  8
レイヤー_1
 62
    18
100
AcDbVertex
100
AcDb2dVertex
 10
200.142995
 20
97.151004
 30
0.0
  0
SEQEND
  5
82
100
AcDbEntity
  8
レイヤー_1
 62
    18
  0
POLYLINE
  5
77
100
AcDbEntity
  8
レイヤー_1
 62
    18
100
AcDb2dPolyline
 66
     1
 10
0.0
 20
0.0
 30
0.0
  0
VERTEX
  5
78
100
AcDbEntity
  8
レイヤー_1
 62
    18
100
AcDbVertex
100
AcDb2dVertex
 10
203.042387
 20
99.811995
 30
0.0
  0
VERTEX
  5
79
100
AcDbEntity
  8
レイヤー_1
 62
    18
100
AcDbVertex
100
AcDb2dVertex
 10
203.042387
 20
109.938854
 30
0.0
  0
VERTEX
  5
7A
100
AcDbEntity
  8
レイヤー_1
 62
    18
100
AcDbVertex
100
AcDb2dVertex
 10
200.142995
 20
109.938854
 30
0.0
  0
VERTEX
  5
7B
100
AcDbEntity
  8
レイヤー_1
 62
    18
100
AcDbVertex
100
AcDb2dVertex
 10
200.142995
 20
98.838756
 30
0.0
  0
SEQEND
  5
7C
100
AcDbEntity
  8
レイヤー_1
 62
    18
  0
POLYLINE
  5
71
100
AcDbEntity
  8
レイヤー_1
 62
    18
100
AcDb2dPolyline
 66
     1
 10
0.0
 20
0.0
 30
0.0
  0
VERTEX
  5
72
100
AcDbEntity
  8
レイヤー_1
 62
    18
100
AcDbVertex
100
AcDb2dVertex
 10
200.142995
 20
97.122754
 30
0.0
  0
VERTEX
  5
73
100
AcDbEntity
  8
レイヤー_1
 62
    18
100
AcDbVertex
100
AcDb2dVertex
 10
200.142995
 20
86.070543
 30
0.0
  0
VERTEX
  5
74
100
AcDbEntity
  8
レイヤー_1
 62
    18
100
AcDbVertex
100
AcDb2dVertex
 10
203.042387
 20
86.070543
 30
0.0
  0
VERTEX
  5
75
100
AcDbEntity
  8
レイヤー_1
 62
    18
100
AcDbVertex
100
AcDb2dVertex
 10
203.042387
 20
98.315101
 30
0.0
  0
SEQEND
  5
76
100
AcDbEntity
  8
レイヤー_1
 62
    18
  0
POLYLINE
  5
6C
100
AcDbEntity
  8
レイヤー_1
 62
    18
100
AcDb2dPolyline
 66
     1
 10
0.0
 20
0.0
 30
0.0
  0
VERTEX
  5
6D
100
AcDbEntity
  8
レイヤー_1
 62
    18
100
AcDbVertex
100
AcDb2dVertex
 10
201.645401
 20
89.956955
 30
0.0
  0
VERTEX
  5
6E
100
AcDbEntity
  8
レイヤー_1
 62
    18
100
AcDbVertex
100
AcDb2dVertex
 10
211.523351
 20
96.541911
 30
0.0
  0
VERTEX
  5
6F
100
AcDbEntity
  8
レイヤー_1
 62
    18
100
AcDbVertex
100
AcDb2dVertex
 10
224.223351
 20
96.541911
 30
0.0
  0
SEQEND
  5
70
100
AcDbEntity
  8
レイヤー_1
 62
    18
  0
INSERT
  5
67
100
AcDbEntity
  8
レイヤー_1
 62
     7
100
AcDbBlockReference
  2
AI9-BLK7
 10
248.917795
 20
95.097038
 30
0.0
  0
INSERT
  5
5C
100
AcDbEntity
  8
レイヤー_1
 62
     7
100
AcDbBlockReference
  2
AI9-BLK5
 10
199.948433
 20
97.834855
 30
0.0
  0
POLYLINE
  5
55
100
AcDbEntity
  8
レイヤー_1
 62
     7
100
AcDb2dPolyline
 66
     1
 10
0.0
 20
0.0
 30
0.0
 70
     1
  0
VERTEX
  5
56
100
AcDbEntity
  8
レイヤー_1
 62
     7
100
AcDbVertex
100
AcDb2dVertex
 10
305.143132
 20
176.740978
 30
0.0
  0
VERTEX
  5
57
100
AcDbEntity
  8
レイヤー_1
 62
     7
100
AcDbVertex
100
AcDb2dVertex
 10
95.14303
 20
176.740978
 30
0.0
  0
VERTEX
  5
58
100
AcDbEntity
  8
レイヤー_1
 62
     7
100
AcDbVertex
100
AcDb2dVertex
 10
95.14303
 20
216.740948
 30
0.0
  0
VERTEX
  5
59
100
AcDbEntity
  8
レイヤー_1
 62
     7
100
AcDbVertex
100
AcDb2dVertex
 10
305.143132
 20
216.740948
 30
0.0
  0
SEQEND
  5
5A
100
AcDbEntity
  8
レイヤー_1
 62
     7
  0
POLYLINE
  5
4F
100
AcDbEntity
  8
レイヤー_1
 62
     7
100
AcDb2dPolyline
 66
     1
 10
0.0
 20
0.0
 30
0.0
 70
     1
  0
VERTEX
  5
50
100
AcDbEntity
  8
レイヤー_1
 62
     7
100
AcDbVertex
100
AcDb2dVertex
 10
305.143132
 20
109.938854
 30
0.0
  0
VERTEX
  5
51
100
AcDbEntity
  8
レイヤー_1
 62
     7
100
AcDbVertex
100
AcDb2dVertex
 10
95.14303
 20
109.938854
 30
0.0
  0
VERTEX
  5
52
100
AcDbEntity
  8
レイヤー_1
 62
     7
100
AcDbVertex
100
AcDb2dVertex
 10
95.14303
 20
131.938889
 30
0.0
  0
VERTEX
  5
53
100
AcDbEntity
  8
レイヤー_1
 62
     7
100
AcDbVertex
100
AcDb2dVertex
 10
305.143132
 20
131.938889
 30
0.0
  0
SEQEND
  5
54
100
AcDbEntity
  8
レイヤー_1
 62
     7
  0
MTEXT
  5
4E
100
AcDbEntity
  8
レイヤー_1
 62
     7
100
AcDbMText
 10
325.959416
 20
117.410921
 30
0.0
 40
2.624835
 41
0.0
 71
     1
 72
     2
  1
\fMS Gothic|b0|i0|c128;\H2.6248;\C18;\U+0032\U+0036\U+002E\U+0035
  7
STD
210
0.0
220
0.0
230
1.0
 11
0.0
 21
1.0
 31
0.0
 73
     1
 44
1.0
  0
LINE
  5
4D
100
AcDbEntity
  8
レイヤー_1
 62
    18
100
AcDbLine
 10
308.664708
 20
131.938889
 30
0.0
 11
336.283694
 21
131.938889
 31
0.0
  0
LINE
  5
4C
100
AcDbEntity
  8
レイヤー_1
 62
    18
100
AcDbLine
 10
308.664708
 20
109.938854
 30
0.0
 11
336.283694
 21
109.938854
 31
0.0
  0
LINE
  5
4B
100
AcDbEntity
  8
レイヤー_1
 62
    18
100
AcDbLine
 10
329.642584
 20
131.938889
 30
0.0
 11
329.642584
 21
109.938854
 31
0.0
  0
HATCH
  5
4A
100
AcDbEntity
  8
レイヤー_1
 62
    18
100
AcDbHatch
 10
0.0
 20
0.0
 30
0.0
210
0.0
220
0.0
230
1.0
  2
SOLID
 70
     1
 71
     0
 91
        1
 92
        3
 72
     0
 73
     1
 93
        3
 10
330.02808973524304
 20
130.71587999131944
 10
329.64258355034718
 20
131.93888888888887
 10
329.25673285590273
 20
130.71587999131944
 97
        0
 75
     2
 76
     1
 98
        1
 10
0.0
 20
0.0
  0
HATCH
  5
49
100
AcDbEntity
  8
レイヤー_1
 62
    18
100
AcDbHatch
 10
0.0
 20
0.0
 30
0.0
210
0.0
220
0.0
230
1.0
  2
SOLID
 70
     1
 71
     0
 91
        1
 92
        3
 72
     0
 73
     1
 93
        3
 10
329.25707736545138
 20
177.96398654513888
 10
329.64258355034718
 20
176.74097764756942
 10
330.02843424479164
 20
177.96398654513888
 97
        0
 75
     2
 76
     1
 98
        1
 10
0.0
 20
0.0
  0
HATCH
  5
48
100
AcDbEntity
  8
レイヤー_1
 62
    18
100
AcDbHatch
 10
0.0
 20
0.0
 30
0.0
210
0.0
220
0.0
230
1.0
  2
SOLID
 70
     1
 71
     0
 91
        1
 92
        3
 72
     0
 73
     1
 93
        3
 10
330.02808973524304
 20
215.51793891059026
 10
329.64258355034718
 20
216.74094780815969
 10
329.25673285590273
 20
215.51793891059026
 97
        0
 75
     2
 76
     1
 98
        1
 10
0.0
 20
0.0
  0
HATCH
  5
47
100
AcDbEntity
  8
レイヤー_1
 62
    18
100
AcDbHatch
 10
0.0
 20
0.0
 30
0.0
210
0.0
220
0.0
230
1.0
  2
SOLID
 70
     1
 71
     0
 91
        1
 92
        3
 72
     0
 73
     1
 93
        3
 10
303.92012261284719
 20
239.32044813368054
 10
305.14313151041665
 20
239.70595431857637
 10
303.92012261284719
 20
240.0918050130208
 97
        0
 75
     2
 76
     1
 98
        1
 10
0.0
 20
0.0
  0
HATCH
  5
46
100
AcDbEntity
  8
レイヤー_1
 62
    18
100
AcDbHatch
 10
0.0
 20
0.0
 30
0.0
210
0.0
220
0.0
230
1.0
  2
SOLID
 70
     1
 71
     0
 91
        1
 92
        3
 72
     0
 73
     1
 93
        3
 10
96.366038682725687
 20
240.09146050347221
 10
95.143029785156244
 20
239.70595431857637
 10
96.366038682725687
 20
239.32010362413192
 97
        0
 75
     2
 76
     1
 98
        1
 10
0.0
 20
0.0
  0
HATCH
  5
45
100
AcDbEntity
  8
レイヤー_1
 62
    18
100
AcDbHatch
 10
0.0
 20
0.0
 30
0.0
210
0.0
220
0.0
230
1.0
  2
SOLID
 70
     1
 71
     0
 91
        1
 92
        3
 72
     0
 73
     1
 93
        3
 10
329.25707736545138
 20
111.16186252170138
 10
329.64258355034718
 20
109.93885362413194
 10
330.02843424479164
 20
111.16186252170138
 97
        0
 75
     2
 76
     1
 98
        1
 10
0.0
 20
0.0
  0
INSERT
  5
41
100
AcDbEntity
  8
レイヤー_1
 62
     7
100
AcDbBlockReference
  2
AI9-BLK4
 10
327.142822
 20
196.74079
 30
0.0
  0
LINE
  5
3F
100
AcDbEntity
  8
レイヤー_1
 62
    18
100
AcDbLine
 10
309.033333
 20
216.740948
 30
0.0
 11
336.521406
 21
216.740948
 31
0.0
  0
LINE
  5
3E
100
AcDbEntity
  8
レイヤー_1
 62
    18
100
AcDbLine
 10
308.647827
 20
176.740978
 30
0.0
 11
336.1359
 21
176.740978
 31
0.0
  0
LINE
  5
3D
100
AcDbEntity
  8
レイヤー_1
 62
    18
100
AcDbLine
 10
329.642584
 20
216.740948
 30
0.0
 11
329.642584
 21
176.740978
 31
0.0
  0
INSERT
  5
39
100
AcDbEntity
  8
レイヤー_1
 62
     7
100
AcDbBlockReference
  2
AI9-BLK3
 10
205.143034
 20
242.038973
 30
0.0
  0
INSERT
  5
34
100
AcDbEntity
  8
レイヤー_1
 62
     7
100
AcDbBlockReference
  2
AI9-BLK2
 10
202.023844
 20
166.276845
 30
0.0
  0
INSERT
  5
2F
100
AcDbEntity
  8
レイヤー_1
 62
     7
100
AcDbBlockReference
  2
AI9-BLK1
 10
202.023844
 20
71.379622
 30
0.0
  0
LINE
  5
2D
100
AcDbEntity
  8
レイヤー_1
 62
    18
100
AcDbLine
 10
95.14303
 20
220.489556
 30
0.0
 11
95.14303
 21
246.201165
 31
0.0
  0
LINE
  5
2C
100
AcDbEntity
  8
レイヤー_1
 62
    18
100
AcDbLine
 10
305.143132
 20
220.489556
 30
0.0
 11
305.143132
 21
246.201165
 31
0.0
  0
LINE
  5
2B
100
AcDbEntity
  8
レイヤー_1
 62
    18
100
AcDbLine
 10
95.14303
 20
239.705954
 30
0.0
 11
305.143132
 21
239.705954
 31
0.0
  0
MTEXT
  5
2A
100
AcDbEntity
  8
レイヤー_1
 62
     7
100
AcDbMText
 10
374.812264
 20
39.837755
 30
0.0
 40
2.362351
 41
0.0
 71
     1
 72
     2
  1
\fMS Gothic|b0|i0|c128;\H2.3624;\C29;\U+5BF8\U+6CD5\U+516C\U+5DEE\U+FF1A\U+00B1\U+0030\U+002E\U+0035\U+006D\U+006D
  7
STD
210
0.0
220
0.0
230
1.0
 73
     1
 44
1.0
  0
MTEXT
  5
29
100
AcDbEntity
  8
レイヤー_1
 62
     7
100
AcDbMText
 10
374.812264
 20
43.647686
 30
0.0
 40
2.362351
 41
0.0
 71
     1
 72
     2
  1
\fMS Gothic|b0|i0|c128;\H2.3624;\C29;\U+5BF8\U+6CD5\U+6570\U+5024\U+FF1A\U+006D\U+006D\U+8868\U+8A18
  7
STD
210
0.0
220
0.0
230
1.0
 73
     1
 44
1.0
  0
ENDSEC
  0
SECTION
  2
OBJECTS
  0
DICTIONARY
  5
19
100
AcDbDictionary
280
     0
281
     1
  3
ACAD_GROUP
350
1A
  3
ACAD_MLINESTYLE
350
1B
  3
ACAD_LAYOUT
350
1E
  3
ACAD_PLOTSETTINGS
350
22
  3
ACAD_PLOTSTYLENAME
350
1F
  3
ACAD_WIPEOUT_VARS
350
23
  0
DICTIONARY
  5
1A
102
{ACAD_REACTORS
330
19
102
}
100
AcDbDictionary
280
     0
281
     1
  0
DICTIONARY
  5
1B
102
{ACAD_REACTORS
330
19
102
}
100
AcDbDictionary
280
     0
281
     1
  3
Standard
350
1C
  0
MLINESTYLE
  5
1C
102
{ACAD_REACTORS
330
1B
102
}
100
AcDbMlineStyle
  2
Standard
 70
     0
  3

 62
     0
 51
90.0
 52
90.0
 71
     2
 49
0.5
 62
   256
  6
ByLayer
 49
-0.5
 62
   256
  6
ByLayer
  0
ACDBDICTIONARYWDFLT
  5
1F
102
{ACAD_REACTORS
330
19
102
}
100
AcDbDictionary
281
     1
  3
Normal
350
1D
100
AcDbDictionaryWithDefault
340
1D
  0
ACDBPLACEHOLDER
  5
1D
102
{ACAD_REACTORS
330
1F
102
}
  0
LAYOUT
  5
20
102
{ACAD_REACTORS
330
1E
102
}
100
AcDbPlotSettings
  1

  2

  4

  6

 40
0.0
 41
0.0
 42
0.0
 43
0.0
 44
0.0
 45
0.0
 46
0.0
 47
0.0
 48
0.0
 49
0.0
140
0.0
141
0.0
142
1.0
143
1.0
 70
  1024
 72
     0
 73
     0
 74
     0
  7

 75
     0
147
1.0
148
0.0
149
0.0
100
AcDbLayout
  1
Model
 70
     0
 71
     0
 10
0.0
 20
0.0
 11
0.0
 21
0.0
 12
0.0
 22
0.0
 32
0.0
 14
0.0
 24
0.0
 34
0.0
 15
0.0
 25
0.0
 35
0.0
146
0.0
 13
0.0
 23
0.0
 33
0.0
 16
0.0
 26
0.0
 36
0.0
 17
0.0
 27
0.0
 37
0.0
 76
     0
330
A
331
0
345
0
346
0
  0
LAYOUT
  5
21
102
{ACAD_REACTORS
330
1E
102
}
100
AcDbPlotSettings
  1

  2

  4

  6

 40
0.0
 41
0.0
 42
0.0
 43
0.0
 44
0.0
 45
0.0
 46
0.0
 47
0.0
 48
0.0
 49
0.0
140
0.0
141
0.0
142
1.0
143
1.0
 70
     0
 72
     0
 73
     0
 74
     0
  7

 75
     0
147
1.0
148
0.0
149
0.0
100
AcDbLayout
  1
Layout1
 70
     0
 71
     0
 10
0.0
 20
0.0
 11
0.0
 21
0.0
 12
0.0
 22
0.0
 32
0.0
 14
0.0
 24
0.0
 34
0.0
 15
0.0
 25
0.0
 35
0.0
146
0.0
 13
0.0
 23
0.0
 33
0.0
 16
0.0
 26
0.0
 36
0.0
 17
0.0
 27
0.0
 37
0.0
 76
     0
330
B
331
0
345
0
346
0
  0
DICTIONARY
  5
1E
102
{ACAD_REACTORS
330
19
102
}
100
AcDbDictionary
280
     0
281
     1
  3
Layout1
350
21
  3
Model
350
20
  0
DICTIONARY
  5
22
102
{ACAD_REACTORS
330
19
102
}
100
AcDbDictionary
280
     0
281
     1
  0
WIPEOUTVARIABLES
  5
23
100
AcDbWipeoutVariables
 70
     1
  0
ENDSEC
  0
EOF
