  0
SECTION
  2
HEADER
  9
$ACADVER
  1
AC1015
  9
$ACADMAINTVER
 70
     6
  9
$DWGCODEPAGE
  3
ANSI_932
  9
$INSBASE
 10
0.0
 20
0.0
 30
0.0
  9
$EXTMIN
 10
14.848189
 20
-153.942714
 30
1.000000E+20
  9
$EXTMAX
 10
405.077083
 20
287.220884
 30
-1.000000E+20
  9
$LIMMIN
 10
14.848189
 20
-153.942714
  9
$LIMMAX
 10
405.077083
 20
287.220884
  9
$ORTHOMODE
 70
     0
  9
$REGENMODE
 70
     1
  9
$FILLMODE
 70
     1
  9
$QTEXTMODE
 70
     0
  9
$MIRRTEXT
 70
     1
  9
$LTSCALE
 40
1.0
  9
$ATTMODE
 70
     1
  9
$TEXTSIZE
 40
0.2
  9
$TRACEWID
 40
0.05
  9
$TEXTSTYLE
  7
Standard
  9
$CLAYER
  8
0
  9
$CELTYPE
  6
Continuous
  9
$CECOLOR
 62
   256
  9
$CELTSCALE
 40
1.0
  9
$DISPSILH
 70
     0
  9
$DIMSCALE
 40
1.0
  9
$DIMASZ
 40
0.18
  9
$DIMEXO
 40
0.0625
  9
$DIMDLI
 40
0.38
  9
$DIMRND
 40
0.0
  9
$DIMDLE
 40
0.0
  9
$DIMEXE
 40
0.18
  9
$DIMTP
 40
0.0
  9
$DIMTM
 40
0.0
  9
$DIMTXT
 40
0.18
  9
$DIMCEN
 40
0.09
  9
$DIMTSZ
 40
0.0
  9
$DIMTOL
 70
     0
  9
$DIMLIM
 70
     0
  9
$DIMTIH
 70
     1
  9
$DIMTOH
 70
     1
  9
$DIMSE1
 70
     0
  9
$DIMSE2
 70
     0
  9
$DIMTAD
 70
     0
  9
$DIMZIN
 70
     0
  9
$DIMBLK
  1

  9
$DIMASO
 70
     1
  9
$DIMSHO
 70
     1
  9
$DIMPOST
  1

  9
$DIMAPOST
  1

  9
$DIMALT
 70
     0
  9
$DIMALTD
 70
     2
  9
$DIMALTF
 40
25.4
  9
$DIMLFAC
 40
1.0
  9
$DIMTOFL
 70
     0
  9
$DIMTVP
 40
0.0
  9
$DIMTIX
 70
     0
  9
$DIMSOXD
 70
     0
  9
$DIMSAH
 70
     0
  9
$DIMBLK1
  1

  9
$DIMBLK2
  1

  9
$DIMSTYLE
  2
Standard
  9
$DIMCLRD
 70
     0
  9
$DIMCLRE
 70
     0
  9
$DIMCLRT
 70
     0
  9
$DIMTFAC
 40
1.0
  9
$DIMGAP
 40
0.09
  9
$DIMJUST
 70
     0
  9
$DIMSD1
 70
     0
  9
$DIMSD2
 70
     0
  9
$DIMTOLJ
 70
     1
  9
$DIMTZIN
 70
     0
  9
$DIMALTZ
 70
     0
  9
$DIMALTTZ
 70
     0
  9
$DIMUPT
 70
     0
  9
$DIMDEC
 70
     4
  9
$DIMTDEC
 70
     4
  9
$DIMALTU
 70
     2
  9
$DIMALTTD
 70
     2
  9
$DIMTXSTY
  7
Standard
  9
$DIMAUNIT
 70
     0
  9
$DIMADEC
 70
     0
  9
$DIMALTRND
 40
0.0
  9
$DIMAZIN
 70
     0
  9
$DIMDSEP
 70
     0
  9
$DIMATFIT
 70
     3
  9
$DIMFRAC
 70
     0
  9
$DIMLDRBLK
  1

  9
$DIMLUNIT
 70
     2
  9
$DIMLWD
 70
     0
  9
$DIMLWE
 70
     0
  9
$DIMTMOVE
 70
     0
  9
$LUNITS
 70
     2
  9
$LUPREC
 70
     4
  9
$SKETCHINC
 40
0.1
  9
$FILLETRAD
 40
0.0
  9
$AUNITS
 70
     0
  9
$AUPREC
 70
     0
  9
$MENU
  1
acad
  9
$ELEVATION
 40
0.0
  9
$PELEVATION
 40
0.0
  9
$THICKNESS
 40
0.0
  9
$LIMCHECK
 70
     0
  9
$CHAMFERA
 40
0.0
  9
$CHAMFERB
 40
0.0
  9
$CHAMFERC
 40
0.0
  9
$CHAMFERD
 40
0.0
  9
$SKPOLY
 70
     0
  9
$TDCREATE
 40
0.000000000
  9
$TDUCREATE
 40
0.000000000
  9
$TDUPDATE
 40
0.000000000
  9
$TDUUPDATE
 40
0.000000000
  9
$TDINDWG
 40
0.0000000000
  9
$TDUSRTIMER
 40
0.0000000000
  9
$USRTIMER
 70
     1
  9
$ANGBASE
 50
0.0
  9
$ANGDIR
 70
     0
  9
$PDMODE
 70
     0
  9
$PDSIZE
 40
0.0
  9
$PLINEWID
 40
0.0
  9
$SPLFRAME
 70
     0
  9
$SPLINETYPE
 70
     6
  9
$SPLINESEGS
 70
     8
  9
$HANDSEED
  5
3A4
  9
$SURFTAB1
 70
     6
  9
$SURFTAB2
 70
     6
  9
$SURFTYPE
 70
     6
  9
$SURFU
 70
     6
  9
$SURFV
 70
     6
  9
$UCSBASE
  2

  9
$UCSNAME
  2

  9
$UCSORG
 10
0.0
 20
0.0
 30
0.0
  9
$UCSXDIR
 10
1.0
 20
0.0
 30
0.0
  9
$UCSYDIR
 10
0.0
 20
1.0
 30
0.0
  9
$UCSORTHOREF
  2

  9
$UCSORTHOVIEW
 70
     0
  9
$UCSORGTOP
 10
0.0
 20
0.0
 30
0.0
  9
$UCSORGBOTTOM
 10
0.0
 20
0.0
 30
0.0
  9
$UCSORGLEFT
 10
0.0
 20
0.0
 30
0.0
  9
$UCSORGRIGHT
 10
0.0
 20
0.0
 30
0.0
  9
$UCSORGFRONT
 10
0.0
 20
0.0
 30
0.0
  9
$UCSORGBACK
 10
0.0
 20
0.0
 30
0.0
  9
$PUCSBASE
  2

  9
$PUCSNAME
  2

  9
$PUCSORG
 10
0.0
 20
0.0
 30
0.0
  9
$PUCSXDIR
 10
1.0
 20
0.0
 30
0.0
  9
$PUCSYDIR
 10
0.0
 20
1.0
 30
0.0
  9
$PUCSORTHOREF
  2

  9
$PUCSORTHOVIEW
 70
     0
  9
$PUCSORGTOP
 10
0.0
 20
0.0
 30
0.0
  9
$PUCSORGBOTTOM
 10
0.0
 20
0.0
 30
0.0
  9
$PUCSORGLEFT
 10
0.0
 20
0.0
 30
0.0
  9
$PUCSORGRIGHT
 10
0.0
 20
0.0
 30
0.0
  9
$PUCSORGFRONT
 10
0.0
 20
0.0
 30
0.0
  9
$PUCSORGBACK
 10
0.0
 20
0.0
 30
0.0
  9
$USERI1
 70
     0
  9
$USERI2
 70
     0
  9
$USERI3
 70
     0
  9
$USERI4
 70
     0
  9
$USERI5
 70
     0
  9
$USERR1
 40
0.0
  9
$USERR2
 40
0.0
  9
$USERR3
 40
0.0
  9
$USERR4
 40
0.0
  9
$USERR5
 40
0.0
  9
$WORLDVIEW
 70
     1
  9
$SHADEDGE
 70
     3
  9
$SHADEDIF
 70
    70
  9
$TILEMODE
 70
     1
  9
$MAXACTVP
 70
    16
  9
$PINSBASE
 10
0.0
 20
0.0
 30
0.0
  9
$PLIMCHECK
 70
     0
  9
$PEXTMIN
 10
1.000000E+20
 20
1.000000E+20
 30
1.000000E+20
  9
$PEXTMAX
 10
-1.000000E+20
 20
-1.000000E+20
 30
-1.000000E+20
  9
$PLIMMIN
 10
0.0
 20
0.0
  9
$PLIMMAX
 10
12.0
 20
9.0
  9
$UNITMODE
 70
     0
  9
$VISRETAIN
 70
     0
  9
$PLINEGEN
 70
     1
  9
$PSLTSCALE
 70
     0
  9
$TREEDEPTH
 70
  3020
  9
$CMLSTYLE
  2
Standard
  9
$CMLJUST
 70
     0
  9
$CMLSCALE
 40
1.0
  9
$PROXYGRAPHICS
 70
     0
  9
$MEASUREMENT
 70
     1
  9
$CELWEIGHT
370
     0
  9
$ENDCAPS
280
     0
  9
$JOINSTYLE
280
     0
  9
$LWDISPLAY
290
     0
  9
$INSUNITS
 70
     0
  9
$HYPERLINKBASE
  1

  9
$STYLESHEET
  1

  9
$XEDIT
290
     1
  9
$CEPSNTYPE
380
     0
  9
$PSTYLEMODE
290
     1
  9
$FINGERPRINTGUID
  2

  9
$VERSIONGUID
  2

  9
$EXTNAMES
290
     1
  9
$PSVPSCALE
 40
0.0
  0
ENDSEC
  0
SECTION
  2
CLASSES
  0
CLASS
  1
LWPOLYLINE
  2
AcDbPolyline
  3
AutoCAD 2000
 90
    32768
280
     0
281
     1
  0
CLASS
  1
IMAGE
  2
AcDbRasterImage
  3
ISM
 90
    32895
280
     0
281
     1
  0
CLASS
  1
OLE2FRAME
  2
AcDbOle2Frame
  3
AutoCAD 2000
 90
    32768
280
     0
281
     1
  0
CLASS
  1
HATCH
  2
AcDbHatch
  3
AutoCAD 2000
 90
        0
280
     0
281
     1
  0
CLASS
  1
DICTIONARYVAR
  2
AcDbDictionaryVar
  3
AutoCAD 2000
 90
    32768
280
     0
281
     0
  0
CLASS
  1
RASTERVARIABLES
  2
AcDbRasterVariables
  3
ISM
 90
    32768
280
     0
281
     0
  0
CLASS
  1
IMAGEDEF
  2
AcDbRasterImageDef
  3
ISM
 90
    32768
280
     0
281
     0
  0
CLASS
  1
IMAGEDEF_REACTOR
  2
AcDbRasterImageDefReactor
  3
ISM
 90
    32769
280
     0
281
     0
  0
CLASS
  1
IDBUFFER
  2
AcDbIdBuffer
  3
AutoCAD 2000
 90
    32768
280
     0
281
     0
  0
CLASS
  1
SPATIAL_FILTER
  2
AcDbSpatialFilter
  3
AutoCAD 2000
 90
    32768
280
     0
281
     0
  0
CLASS
  1
XRECORD
  2
AcDbXrecord
  3
AutoCAD 2000
 90
    32768
280
     0
281
     0
  0
CLASS
  1
SORTENTSTABLE
  2
AcDbSortentsTable
  3
AutoCAD 2000
 90
    32768
280
     0
281
     0
  0
CLASS
  1
LAYER_INDEX
  2
AcDbLayerIndex
  3
AutoCAD 2000
 90
    32768
280
     0
281
     0
  0
CLASS
  1
SPATIAL_INDEX
  2
AcDbSpatialIndex
  3
AutoCAD 2000
 90
    32768
280
     0
281
     0
  0
CLASS
  1
OBJECT_PTR
  2
CAseDLPNTableRecord
  3
"ASE-LPNTableRecord"
 90
    32769
280
     0
281
     0
  0
CLASS
  1
LAYOUT
  2
AcDbLayout
  3
AutoCAD 2000
 90
        0
280
     0
281
     0
  0
CLASS
  1
PLOTSETTINGS
  2
AcDbPlotSettings
  3
AutoCAD 2000
 90
    32768
280
     0
281
     0
  0
CLASS
  1
ACDBDICTIONARYWDFLT
  2
AcDbDictionaryWithDefault
  3
AutoCAD 2000
 90
        0
280
     0
281
     0
  0
CLASS
  1
ACDBPLACEHOLDER
  2
AcDbPlaceHolder
  3
AutoCAD 2000
 90
        0
280
     0
281
     0
  0
CLASS
  1
VBA_PROJECT
  2
AcDbVbaProject
  3
acadvba
 90
    32768
280
     0
281
     0
  0
CLASS
  1
WIPEOUT
  2
AcDbWipeout
  3
WipeOut|AutoCAD Express Tool|expresstools@autodesk.com
 90
    32895
280
     0
281
     1
  0
CLASS
  1
WIPEOUTVARIABLES
  2
AcDbWipeoutVariables
  3
WipeOut|AutoCAD Express Tool|expresstools@autodesk.com
 90
        0
280
     0
281
     0
  0
CLASS
  1
RTEXT
  2
RText
  3
RText|AutoCAD Express Tool|expresstools@autodesk.com
 90
    32768
280
     0
281
     1
  0
CLASS
  1
ARCALIGNEDTEXT
  2
AcDbArcAlignedText
  3
ATEXT|AutoCAD Express Tool|expresstools@autodesk.com
 90
    32768
280
     0
281
     1
  0
ENDSEC
  0
SECTION
  2
TABLES
  0
TABLE
  2
VPORT
  5
7
100
AcDbSymbolTable
 70
     1
  0
VPORT
  5
15
100
AcDbSymbolTableRecord
100
AcDbViewportTableRecord
  2
*ACTIVE
 70
     0
 10
0.0
 20
0.0
 11
1.0
 21
1.0
 12
6.591288
 22
4.579184
 13
0.0
 23
0.0
 14
1.0
 24
1.0
 15
0.0
 25
0.0
 16
0.0
 26
0.0
 36
1.0
 17
0.0
 27
0.0
 37
0.0
 40
9.158369
 41
0.688564
 42
50.0
 43
0.0
 44
0.0
 50
0.0
 51
0.0
 71
     0
 72
   100
 73
     1
 74
     1
 75
     0
 76
     0
 77
     0
 78
     0
281
     0
 65
     0
110
0.0
120
0.0
130
0.0
111
1.0
121
0.0
131
0.0
112
0.0
122
1.0
132
0.0
345
0
346
0
 79
     0
146
0.0
  0
ENDTAB
  0
TABLE
  2
LTYPE
  5
4
100
AcDbSymbolTable
 70
     3
  0
LTYPE
  5
11
100
AcDbSymbolTableRecord
100
AcDbLinetypeTableRecord
  2
ByBlock
 70
    64
  3

 72
    65
 73
     0
 40
0.0
  0
LTYPE
  5
12
100
AcDbSymbolTableRecord
100
AcDbLinetypeTableRecord
  2
ByLayer
 70
    64
  3

 72
    65
 73
     0
 40
0.0
  0
LTYPE
  5
13
100
AcDbSymbolTableRecord
100
AcDbLinetypeTableRecord
  2
Continuous
 70
    64
  3
Solid line
 72
    65
 73
     0
 40
0.0
  0
ENDTAB
  0
TABLE
  2
LAYER
  5
2
100
AcDbSymbolTable
 70
     2
  0
LAYER
  5
14
100
AcDbSymbolTableRecord
100
AcDbLayerTableRecord
  2
0
 70
     0
 62
     7
  6
Continuous
290
     1
370
    -3
390
1D
  0
LAYER
  5
28
100
AcDbSymbolTableRecord
100
AcDbLayerTableRecord
  2
レイヤー_1
 70
     0
 62
   160
  6
Continuous
290
     1
370
    -3
390
1D
  0
ENDTAB
  0
TABLE
  2
STYLE
  5
3
100
AcDbSymbolTable
 70
     5
  0
STYLE
  5
17
100
AcDbSymbolTableRecord
100
AcDbTextStyleTableRecord
  2
Standard
 70
     0
 40
0.0
 41
1.0
 50
0.0
 71
     0
 42
0.0
  3
txt
  4

  0
STYLE
  5
24
100
AcDbSymbolTableRecord
100
AcDbTextStyleTableRecord
  2
STD
 70
     0
 40
0.0
 41
1.0
 50
0.0
 71
     0
 42
0.0
  3
txt
  4

  0
STYLE
  5
25
100
AcDbSymbolTableRecord
100
AcDbTextStyleTableRecord
  2
TATESTD
 70
     4
 40
0.0
 41
1.0
 50
0.0
 71
     0
 42
0.0
  3
txt
  4

  0
STYLE
  5
26
100
AcDbSymbolTableRecord
100
AcDbTextStyleTableRecord
  2
KANJISTD
 70
     0
 40
0.0
 41
1.0
 50
0.0
 71
     0
 42
0.0
  3
txt
  4
extfont
  0
STYLE
  5
27
100
AcDbSymbolTableRecord
100
AcDbTextStyleTableRecord
  2
KANJITATE
 70
     4
 40
0.0
 41
1.0
 50
0.0
 71
     0
 42
0.0
  3
txt
  4
extfont
  0
ENDTAB
  0
TABLE
  2
VIEW
  5
5
100
AcDbSymbolTable
 70
     0
  0
ENDTAB
  0
TABLE
  2
UCS
  5
6
100
AcDbSymbolTable
 70
     0
  0
ENDTAB
  0
TABLE
  2
APPID
  5
8
100
AcDbSymbolTable
 70
     1
  0
APPID
  5
16
100
AcDbSymbolTableRecord
100
AcDbRegAppTableRecord
  2
ACAD
 70
     0
  0
ENDTAB
  0
TABLE
  2
DIMSTYLE
  5
9
100
AcDbSymbolTable
 70
     1
100
AcDbDimStyleTable
 71
     0
  0
DIMSTYLE
105
18
100
AcDbSymbolTableRecord
100
AcDbDimStyleTableRecord
  2
Standard
 70
     0
  3

  4

 40
1.0
 41
0.18
 42
0.0625
 43
0.38
 44
0.18
 45
0.0
 46
0.0
 47
0.0
 48
0.0
 71
     0
 72
     0
 73
     1
 74
     1
 75
     0
 76
     0
 77
     0
 78
     0
 79
     0
140
0.18
141
0.09
142
0.0
143
25.4
144
1.0
145
0.0
146
1.0
147
0.09
148
0.0
170
     0
171
     2
172
     0
173
     0
174
     0
175
     0
176
     0
177
     0
178
     0
179
     0
271
     4
272
     4
273
     2
274
     2
275
     0
276
     0
277
     2
278
    46
279
     0
280
     0
281
     0
282
     0
283
     1
284
     0
285
     0
286
     0
288
     0
340
17
341
0
342
0
343
0
344
0
371
    -2
372
    -2
  0
ENDTAB
  0
TABLE
  2
BLOCK_RECORD
  5
1
100
AcDbSymbolTable
 70
   121
  0
BLOCK_RECORD
  5
A
100
AcDbSymbolTableRecord
100
AcDbBlockTableRecord
  2
*MODEL_SPACE
340
20
  0
BLOCK_RECORD
  5
B
100
AcDbSymbolTableRecord
100
AcDbBlockTableRecord
  2
*PAPER_SPACE
340
21
  0
BLOCK_RECORD
  5
2E
100
AcDbSymbolTableRecord
100
AcDbBlockTableRecord
  2
AI9-BLK1
340
0
102
{BLKREFS
331
2F
102
}
  0
BLOCK_RECORD
  5
33
100
AcDbSymbolTableRecord
100
AcDbBlockTableRecord
  2
AI9-BLK2
340
0
102
{BLKREFS
331
34
102
}
  0
BLOCK_RECORD
  5
36
100
AcDbSymbolTableRecord
100
AcDbBlockTableRecord
  2
AI9-BLK3
340
0
102
{BLKREFS
331
37
102
}
  0
BLOCK_RECORD
  5
3D
100
AcDbSymbolTableRecord
100
AcDbBlockTableRecord
  2
AI9-BLK4
340
0
102
{BLKREFS
331
3E
102
}
  0
BLOCK_RECORD
  5
42
100
AcDbSymbolTableRecord
100
AcDbBlockTableRecord
  2
AI9-BLK5
340
0
102
{BLKREFS
331
43
102
}
  0
BLOCK_RECORD
  5
47
100
AcDbSymbolTableRecord
100
AcDbBlockTableRecord
  2
AI9-BLK6
340
0
102
{BLKREFS
331
48
102
}
  0
BLOCK_RECORD
  5
4A
100
AcDbSymbolTableRecord
100
AcDbBlockTableRecord
  2
AI9-BLK7
340
0
102
{BLKREFS
331
4B
102
}
  0
BLOCK_RECORD
  5
55
100
AcDbSymbolTableRecord
100
AcDbBlockTableRecord
  2
AI9-BLK8
340
0
102
{BLKREFS
331
56
102
}
  0
BLOCK_RECORD
  5
60
100
AcDbSymbolTableRecord
100
AcDbBlockTableRecord
  2
AI9-BLK9
340
0
102
{BLKREFS
331
61
102
}
  0
BLOCK_RECORD
  5
67
100
AcDbSymbolTableRecord
100
AcDbBlockTableRecord
  2
AI9-BLK10
340
0
102
{BLKREFS
331
68
102
}
  0
BLOCK_RECORD
  5
70
100
AcDbSymbolTableRecord
100
AcDbBlockTableRecord
  2
AI9-BLK11
340
0
102
{BLKREFS
331
71
102
}
  0
BLOCK_RECORD
  5
75
100
AcDbSymbolTableRecord
100
AcDbBlockTableRecord
  2
AI9-BLK12
340
0
102
{BLKREFS
331
76
102
}
  0
BLOCK_RECORD
  5
7A
100
AcDbSymbolTableRecord
100
AcDbBlockTableRecord
  2
AI9-BLK13
340
0
102
{BLKREFS
331
7B
102
}
  0
BLOCK_RECORD
  5
7F
100
AcDbSymbolTableRecord
100
AcDbBlockTableRecord
  2
AI9-BLK14
340
0
102
{BLKREFS
331
80
102
}
  0
BLOCK_RECORD
  5
87
100
AcDbSymbolTableRecord
100
AcDbBlockTableRecord
  2
AI9-BLK15
340
0
102
{BLKREFS
331
88
102
}
  0
BLOCK_RECORD
  5
8D
100
AcDbSymbolTableRecord
100
AcDbBlockTableRecord
  2
AI9-BLK16
340
0
102
{BLKREFS
331
8E
102
}
  0
BLOCK_RECORD
  5
99
100
AcDbSymbolTableRecord
100
AcDbBlockTableRecord
  2
AI9-BLK17
340
0
102
{BLKREFS
331
9A
102
}
  0
BLOCK_RECORD
  5
A3
100
AcDbSymbolTableRecord
100
AcDbBlockTableRecord
  2
AI9-BLK18
340
0
102
{BLKREFS
331
A4
102
}
  0
BLOCK_RECORD
  5
AD
100
AcDbSymbolTableRecord
100
AcDbBlockTableRecord
  2
AI9-BLK19
340
0
102
{BLKREFS
331
AE
102
}
  0
BLOCK_RECORD
  5
B0
100
AcDbSymbolTableRecord
100
AcDbBlockTableRecord
  2
AI9-BLK20
340
0
102
{BLKREFS
331
B1
102
}
  0
BLOCK_RECORD
  5
B6
100
AcDbSymbolTableRecord
100
AcDbBlockTableRecord
  2
AI9-BLK21
340
0
102
{BLKREFS
331
B7
102
}
  0
BLOCK_RECORD
  5
BC
100
AcDbSymbolTableRecord
100
AcDbBlockTableRecord
  2
AI9-BLK22
340
0
102
{BLKREFS
331
BD
102
}
  0
BLOCK_RECORD
  5
C2
100
AcDbSymbolTableRecord
100
AcDbBlockTableRecord
  2
AI9-BLK23
340
0
102
{BLKREFS
331
C3
102
}
  0
BLOCK_RECORD
  5
C8
100
AcDbSymbolTableRecord
100
AcDbBlockTableRecord
  2
AI9-BLK24
340
0
102
{BLKREFS
331
C9
102
}
  0
BLOCK_RECORD
  5
CE
100
AcDbSymbolTableRecord
100
AcDbBlockTableRecord
  2
AI9-BLK25
340
0
102
{BLKREFS
331
CF
102
}
  0
BLOCK_RECORD
  5
D7
100
AcDbSymbolTableRecord
100
AcDbBlockTableRecord
  2
AI9-BLK26
340
0
102
{BLKREFS
331
D8
102
}
  0
BLOCK_RECORD
  5
10F
100
AcDbSymbolTableRecord
100
AcDbBlockTableRecord
  2
AI9-BLK27
340
0
102
{BLKREFS
331
110
102
}
  0
BLOCK_RECORD
  5
11B
100
AcDbSymbolTableRecord
100
AcDbBlockTableRecord
  2
AI9-BLK28
340
0
102
{BLKREFS
331
11C
102
}
  0
BLOCK_RECORD
  5
11E
100
AcDbSymbolTableRecord
100
AcDbBlockTableRecord
  2
AI9-BLK29
340
0
102
{BLKREFS
331
11F
102
}
  0
BLOCK_RECORD
  5
129
100
AcDbSymbolTableRecord
100
AcDbBlockTableRecord
  2
AI9-BLK30
340
0
102
{BLKREFS
331
12A
102
}
  0
BLOCK_RECORD
  5
13C
100
AcDbSymbolTableRecord
100
AcDbBlockTableRecord
  2
AI9-BLK31
340
0
102
{BLKREFS
331
13D
102
}
  0
BLOCK_RECORD
  5
14C
100
AcDbSymbolTableRecord
100
AcDbBlockTableRecord
  2
AI9-BLK32
340
0
102
{BLKREFS
331
14D
102
}
  0
BLOCK_RECORD
  5
151
100
AcDbSymbolTableRecord
100
AcDbBlockTableRecord
  2
AI9-BLK33
340
0
102
{BLKREFS
331
152
102
}
  0
BLOCK_RECORD
  5
156
100
AcDbSymbolTableRecord
100
AcDbBlockTableRecord
  2
AI9-BLK34
340
0
102
{BLKREFS
331
157
102
}
  0
BLOCK_RECORD
  5
15B
100
AcDbSymbolTableRecord
100
AcDbBlockTableRecord
  2
AI9-BLK35
340
0
102
{BLKREFS
331
15C
102
}
  0
BLOCK_RECORD
  5
160
100
AcDbSymbolTableRecord
100
AcDbBlockTableRecord
  2
AI9-BLK36
340
0
102
{BLKREFS
331
161
102
}
  0
BLOCK_RECORD
  5
16E
100
AcDbSymbolTableRecord
100
AcDbBlockTableRecord
  2
AI9-BLK37
340
0
102
{BLKREFS
331
16F
102
}
  0
BLOCK_RECORD
  5
185
100
AcDbSymbolTableRecord
100
AcDbBlockTableRecord
  2
AI9-BLK38
340
0
102
{BLKREFS
331
186
102
}
  0
BLOCK_RECORD
  5
1A5
100
AcDbSymbolTableRecord
100
AcDbBlockTableRecord
  2
AI9-BLK39
340
0
102
{BLKREFS
331
1A6
102
}
  0
BLOCK_RECORD
  5
1B2
100
AcDbSymbolTableRecord
100
AcDbBlockTableRecord
  2
AI9-BLK40
340
0
102
{BLKREFS
331
1B3
102
}
  0
BLOCK_RECORD
  5
1BB
100
AcDbSymbolTableRecord
100
AcDbBlockTableRecord
  2
AI9-BLK41
340
0
102
{BLKREFS
331
1BC
102
}
  0
BLOCK_RECORD
  5
1C9
100
AcDbSymbolTableRecord
100
AcDbBlockTableRecord
  2
AI9-BLK42
340
0
102
{BLKREFS
331
1CA
102
}
  0
BLOCK_RECORD
  5
1D4
100
AcDbSymbolTableRecord
100
AcDbBlockTableRecord
  2
AI9-BLK43
340
0
102
{BLKREFS
331
1D5
102
}
  0
BLOCK_RECORD
  5
1D7
100
AcDbSymbolTableRecord
100
AcDbBlockTableRecord
  2
AI9-BLK44
340
0
102
{BLKREFS
331
1D8
102
}
  0
BLOCK_RECORD
  5
1DC
100
AcDbSymbolTableRecord
100
AcDbBlockTableRecord
  2
AI9-BLK45
340
0
102
{BLKREFS
331
1DD
102
}
  0
BLOCK_RECORD
  5
1E1
100
AcDbSymbolTableRecord
100
AcDbBlockTableRecord
  2
AI9-BLK46
340
0
102
{BLKREFS
331
1E2
102
}
  0
BLOCK_RECORD
  5
1E6
100
AcDbSymbolTableRecord
100
AcDbBlockTableRecord
  2
AI9-BLK47
340
0
102
{BLKREFS
331
1E7
102
}
  0
BLOCK_RECORD
  5
1EB
100
AcDbSymbolTableRecord
100
AcDbBlockTableRecord
  2
AI9-BLK48
340
0
102
{BLKREFS
331
1EC
102
}
  0
BLOCK_RECORD
  5
1F1
100
AcDbSymbolTableRecord
100
AcDbBlockTableRecord
  2
AI9-BLK49
340
0
102
{BLKREFS
331
1F2
102
}
  0
BLOCK_RECORD
  5
1FC
100
AcDbSymbolTableRecord
100
AcDbBlockTableRecord
  2
AI9-BLK50
340
0
102
{BLKREFS
331
1FD
102
}
  0
BLOCK_RECORD
  5
201
100
AcDbSymbolTableRecord
100
AcDbBlockTableRecord
  2
AI9-BLK51
340
0
102
{BLKREFS
331
202
102
}
  0
BLOCK_RECORD
  5
206
100
AcDbSymbolTableRecord
100
AcDbBlockTableRecord
  2
AI9-BLK52
340
0
102
{BLKREFS
331
207
102
}
  0
BLOCK_RECORD
  5
20C
100
AcDbSymbolTableRecord
100
AcDbBlockTableRecord
  2
AI9-BLK53
340
0
102
{BLKREFS
331
20D
102
}
  0
BLOCK_RECORD
  5
211
100
AcDbSymbolTableRecord
100
AcDbBlockTableRecord
  2
AI9-BLK54
340
0
102
{BLKREFS
331
212
102
}
  0
BLOCK_RECORD
  5
216
100
AcDbSymbolTableRecord
100
AcDbBlockTableRecord
  2
AI9-BLK55
340
0
102
{BLKREFS
331
217
102
}
  0
BLOCK_RECORD
  5
21B
100
AcDbSymbolTableRecord
100
AcDbBlockTableRecord
  2
AI9-BLK56
340
0
102
{BLKREFS
331
21C
102
}
  0
BLOCK_RECORD
  5
21E
100
AcDbSymbolTableRecord
100
AcDbBlockTableRecord
  2
AI9-BLK57
340
0
102
{BLKREFS
331
21F
102
}
  0
BLOCK_RECORD
  5
224
100
AcDbSymbolTableRecord
100
AcDbBlockTableRecord
  2
AI9-BLK58
340
0
102
{BLKREFS
331
225
102
}
  0
BLOCK_RECORD
  5
229
100
AcDbSymbolTableRecord
100
AcDbBlockTableRecord
  2
AI9-BLK59
340
0
102
{BLKREFS
331
22A
102
}
  0
BLOCK_RECORD
  5
22F
100
AcDbSymbolTableRecord
100
AcDbBlockTableRecord
  2
AI9-BLK60
340
0
102
{BLKREFS
331
230
102
}
  0
BLOCK_RECORD
  5
23A
100
AcDbSymbolTableRecord
100
AcDbBlockTableRecord
  2
AI9-BLK61
340
0
102
{BLKREFS
331
23B
102
}
  0
BLOCK_RECORD
  5
24C
100
AcDbSymbolTableRecord
100
AcDbBlockTableRecord
  2
AI9-BLK62
340
0
102
{BLKREFS
331
24D
102
}
  0
BLOCK_RECORD
  5
251
100
AcDbSymbolTableRecord
100
AcDbBlockTableRecord
  2
AI9-BLK63
340
0
102
{BLKREFS
331
252
102
}
  0
BLOCK_RECORD
  5
256
100
AcDbSymbolTableRecord
100
AcDbBlockTableRecord
  2
AI9-BLK64
340
0
102
{BLKREFS
331
257
102
}
  0
BLOCK_RECORD
  5
25B
100
AcDbSymbolTableRecord
100
AcDbBlockTableRecord
  2
AI9-BLK65
340
0
102
{BLKREFS
331
25C
102
}
  0
BLOCK_RECORD
  5
260
100
AcDbSymbolTableRecord
100
AcDbBlockTableRecord
  2
AI9-BLK66
340
0
102
{BLKREFS
331
261
102
}
  0
BLOCK_RECORD
  5
265
100
AcDbSymbolTableRecord
100
AcDbBlockTableRecord
  2
AI9-BLK67
340
0
102
{BLKREFS
331
266
102
}
  0
BLOCK_RECORD
  5
26A
100
AcDbSymbolTableRecord
100
AcDbBlockTableRecord
  2
AI9-BLK68
340
0
102
{BLKREFS
331
26B
102
}
  0
BLOCK_RECORD
  5
272
100
AcDbSymbolTableRecord
100
AcDbBlockTableRecord
  2
AI9-BLK69
340
0
102
{BLKREFS
331
273
102
}
  0
BLOCK_RECORD
  5
279
100
AcDbSymbolTableRecord
100
AcDbBlockTableRecord
  2
AI9-BLK70
340
0
102
{BLKREFS
331
27A
102
}
  0
BLOCK_RECORD
  5
27E
100
AcDbSymbolTableRecord
100
AcDbBlockTableRecord
  2
AI9-BLK71
340
0
102
{BLKREFS
331
27F
102
}
  0
BLOCK_RECORD
  5
283
100
AcDbSymbolTableRecord
100
AcDbBlockTableRecord
  2
AI9-BLK72
340
0
102
{BLKREFS
331
284
102
}
  0
BLOCK_RECORD
  5
288
100
AcDbSymbolTableRecord
100
AcDbBlockTableRecord
  2
AI9-BLK73
340
0
102
{BLKREFS
331
289
102
}
  0
BLOCK_RECORD
  5
28D
100
AcDbSymbolTableRecord
100
AcDbBlockTableRecord
  2
AI9-BLK74
340
0
102
{BLKREFS
331
28E
102
}
  0
BLOCK_RECORD
  5
292
100
AcDbSymbolTableRecord
100
AcDbBlockTableRecord
  2
AI9-BLK75
340
0
102
{BLKREFS
331
293
102
}
  0
BLOCK_RECORD
  5
299
100
AcDbSymbolTableRecord
100
AcDbBlockTableRecord
  2
AI9-BLK76
340
0
102
{BLKREFS
331
29A
102
}
  0
BLOCK_RECORD
  5
2A0
100
AcDbSymbolTableRecord
100
AcDbBlockTableRecord
  2
AI9-BLK77
340
0
102
{BLKREFS
331
2A1
102
}
  0
BLOCK_RECORD
  5
2A7
100
AcDbSymbolTableRecord
100
AcDbBlockTableRecord
  2
AI9-BLK78
340
0
102
{BLKREFS
331
2A8
102
}
  0
BLOCK_RECORD
  5
2AE
100
AcDbSymbolTableRecord
100
AcDbBlockTableRecord
  2
AI9-BLK79
340
0
102
{BLKREFS
331
2AF
102
}
  0
BLOCK_RECORD
  5
2B7
100
AcDbSymbolTableRecord
100
AcDbBlockTableRecord
  2
AI9-BLK80
340
0
102
{BLKREFS
331
2B8
102
}
  0
BLOCK_RECORD
  5
2C2
100
AcDbSymbolTableRecord
100
AcDbBlockTableRecord
  2
AI9-BLK81
340
0
102
{BLKREFS
331
2C3
102
}
  0
BLOCK_RECORD
  5
2C5
100
AcDbSymbolTableRecord
100
AcDbBlockTableRecord
  2
AI9-BLK82
340
0
102
{BLKREFS
331
2C6
102
}
  0
BLOCK_RECORD
  5
2CB
100
AcDbSymbolTableRecord
100
AcDbBlockTableRecord
  2
AI9-BLK83
340
0
102
{BLKREFS
331
2CC
102
}
  0
BLOCK_RECORD
  5
2CE
100
AcDbSymbolTableRecord
100
AcDbBlockTableRecord
  2
AI9-BLK84
340
0
102
{BLKREFS
331
2CF
102
}
  0
BLOCK_RECORD
  5
2D4
100
AcDbSymbolTableRecord
100
AcDbBlockTableRecord
  2
AI9-BLK85
340
0
102
{BLKREFS
331
2D5
102
}
  0
BLOCK_RECORD
  5
2D7
100
AcDbSymbolTableRecord
100
AcDbBlockTableRecord
  2
AI9-BLK86
340
0
102
{BLKREFS
331
2D8
102
}
  0
BLOCK_RECORD
  5
2DD
100
AcDbSymbolTableRecord
100
AcDbBlockTableRecord
  2
AI9-BLK87
340
0
102
{BLKREFS
331
2DE
102
}
  0
BLOCK_RECORD
  5
2E0
100
AcDbSymbolTableRecord
100
AcDbBlockTableRecord
  2
AI9-BLK88
340
0
102
{BLKREFS
331
2E1
102
}
  0
BLOCK_RECORD
  5
2E6
100
AcDbSymbolTableRecord
100
AcDbBlockTableRecord
  2
AI9-BLK89
340
0
102
{BLKREFS
331
2E7
102
}
  0
BLOCK_RECORD
  5
2E9
100
AcDbSymbolTableRecord
100
AcDbBlockTableRecord
  2
AI9-BLK90
340
0
102
{BLKREFS
331
2EA
102
}
  0
BLOCK_RECORD
  5
2EF
100
AcDbSymbolTableRecord
100
AcDbBlockTableRecord
  2
AI9-BLK91
340
0
102
{BLKREFS
331
2F0
102
}
  0
BLOCK_RECORD
  5
2F2
100
AcDbSymbolTableRecord
100
AcDbBlockTableRecord
  2
AI9-BLK92
340
0
102
{BLKREFS
331
2F3
102
}
  0
BLOCK_RECORD
  5
301
100
AcDbSymbolTableRecord
100
AcDbBlockTableRecord
  2
AI9-BLK93
340
0
102
{BLKREFS
331
302
102
}
  0
BLOCK_RECORD
  5
30C
100
AcDbSymbolTableRecord
100
AcDbBlockTableRecord
  2
AI9-BLK94
340
0
102
{BLKREFS
331
30D
102
}
  0
BLOCK_RECORD
  5
311
100
AcDbSymbolTableRecord
100
AcDbBlockTableRecord
  2
AI9-BLK95
340
0
102
{BLKREFS
331
312
102
}
  0
BLOCK_RECORD
  5
316
100
AcDbSymbolTableRecord
100
AcDbBlockTableRecord
  2
AI9-BLK96
340
0
102
{BLKREFS
331
317
102
}
  0
BLOCK_RECORD
  5
31B
100
AcDbSymbolTableRecord
100
AcDbBlockTableRecord
  2
AI9-BLK97
340
0
102
{BLKREFS
331
31C
102
}
  0
BLOCK_RECORD
  5
320
100
AcDbSymbolTableRecord
100
AcDbBlockTableRecord
  2
AI9-BLK98
340
0
102
{BLKREFS
331
321
102
}
  0
BLOCK_RECORD
  5
325
100
AcDbSymbolTableRecord
100
AcDbBlockTableRecord
  2
AI9-BLK99
340
0
102
{BLKREFS
331
326
102
}
  0
BLOCK_RECORD
  5
32A
100
AcDbSymbolTableRecord
100
AcDbBlockTableRecord
  2
AI9-BLK100
340
0
102
{BLKREFS
331
32B
102
}
  0
BLOCK_RECORD
  5
32F
100
AcDbSymbolTableRecord
100
AcDbBlockTableRecord
  2
AI9-BLK101
340
0
102
{BLKREFS
331
330
102
}
  0
BLOCK_RECORD
  5
334
100
AcDbSymbolTableRecord
100
AcDbBlockTableRecord
  2
AI9-BLK102
340
0
102
{BLKREFS
331
335
102
}
  0
BLOCK_RECORD
  5
339
100
AcDbSymbolTableRecord
100
AcDbBlockTableRecord
  2
AI9-BLK103
340
0
102
{BLKREFS
331
33A
102
}
  0
BLOCK_RECORD
  5
33C
100
AcDbSymbolTableRecord
100
AcDbBlockTableRecord
  2
AI9-BLK104
340
0
102
{BLKREFS
331
33D
102
}
  0
BLOCK_RECORD
  5
345
100
AcDbSymbolTableRecord
100
AcDbBlockTableRecord
  2
AI9-BLK105
340
0
102
{BLKREFS
331
346
102
}
  0
BLOCK_RECORD
  5
34A
100
AcDbSymbolTableRecord
100
AcDbBlockTableRecord
  2
AI9-BLK106
340
0
102
{BLKREFS
331
34B
102
}
  0
BLOCK_RECORD
  5
34F
100
AcDbSymbolTableRecord
100
AcDbBlockTableRecord
  2
AI9-BLK107
340
0
102
{BLKREFS
331
350
102
}
  0
BLOCK_RECORD
  5
35C
100
AcDbSymbolTableRecord
100
AcDbBlockTableRecord
  2
AI9-BLK108
340
0
102
{BLKREFS
331
35D
102
}
  0
BLOCK_RECORD
  5
361
100
AcDbSymbolTableRecord
100
AcDbBlockTableRecord
  2
AI9-BLK109
340
0
102
{BLKREFS
331
362
102
}
  0
BLOCK_RECORD
  5
366
100
AcDbSymbolTableRecord
100
AcDbBlockTableRecord
  2
AI9-BLK110
340
0
102
{BLKREFS
331
367
102
}
  0
BLOCK_RECORD
  5
36B
100
AcDbSymbolTableRecord
100
AcDbBlockTableRecord
  2
AI9-BLK111
340
0
102
{BLKREFS
331
36C
102
}
  0
BLOCK_RECORD
  5
370
100
AcDbSymbolTableRecord
100
AcDbBlockTableRecord
  2
AI9-BLK112
340
0
102
{BLKREFS
331
371
102
}
  0
BLOCK_RECORD
  5
375
100
AcDbSymbolTableRecord
100
AcDbBlockTableRecord
  2
AI9-BLK113
340
0
102
{BLKREFS
331
376
102
}
  0
BLOCK_RECORD
  5
37A
100
AcDbSymbolTableRecord
100
AcDbBlockTableRecord
  2
AI9-BLK114
340
0
102
{BLKREFS
331
37B
102
}
  0
BLOCK_RECORD
  5
37F
100
AcDbSymbolTableRecord
100
AcDbBlockTableRecord
  2
AI9-BLK115
340
0
102
{BLKREFS
331
380
102
}
  0
BLOCK_RECORD
  5
384
100
AcDbSymbolTableRecord
100
AcDbBlockTableRecord
  2
AI9-BLK116
340
0
102
{BLKREFS
331
385
102
}
  0
BLOCK_RECORD
  5
389
100
AcDbSymbolTableRecord
100
AcDbBlockTableRecord
  2
AI9-BLK117
340
0
102
{BLKREFS
331
38A
102
}
  0
BLOCK_RECORD
  5
390
100
AcDbSymbolTableRecord
100
AcDbBlockTableRecord
  2
AI9-BLK118
340
0
102
{BLKREFS
331
391
102
}
  0
BLOCK_RECORD
  5
395
100
AcDbSymbolTableRecord
100
AcDbBlockTableRecord
  2
AI9-BLK119
340
0
102
{BLKREFS
331
396
102
}
  0
BLOCK_RECORD
  5
39A
100
AcDbSymbolTableRecord
100
AcDbBlockTableRecord
  2
AI9-BLK120
340
0
102
{BLKREFS
331
39B
102
}
  0
BLOCK_RECORD
  5
39F
100
AcDbSymbolTableRecord
100
AcDbBlockTableRecord
  2
AI9-BLK121
340
0
102
{BLKREFS
331
3A0
102
}
  0
ENDTAB
  0
ENDSEC
  0
SECTION
  2
BLOCKS
  0
BLOCK
  5
D
100
AcDbEntity
  8
0
100
AcDbBlockBegin
  2
*MODEL_SPACE
 70
     0
 10
0.0
 20
0.0
 30
0.0
  3
*MODEL_SPACE
  1

  0
ENDBLK
  5
E
100
AcDbEntity
  8
0
100
AcDbBlockEnd
  0
BLOCK
  5
F
100
AcDbEntity
 67
     1
  8
0
100
AcDbBlockBegin
  2
*PAPER_SPACE
 70
     0
 10
0.0
 20
0.0
 30
0.0
  3
*PAPER_SPACE
  1

  0
ENDBLK
  5
10
100
AcDbEntity
 67
     1
  8
0
100
AcDbBlockEnd
  0
BLOCK
  5
30
100
AcDbEntity
  8
レイヤー_1
 62
     7
100
AcDbBlockBegin
  2
AI9-BLK1
 70
     0
 10
0.0
 20
0.0
 30
0.0
  3
AI9-BLK1
  1

  0
MTEXT
  5
31
100
AcDbEntity
  8
レイヤー_1
 62
     7
100
AcDbMText
 10
-12.869326
 20
1.2313
 30
0.0
 40
2.393848
 41
0.0
 71
     1
 72
     2
  1
\fMS Gothic|b0|i0|c128;\H2.3938;\C7;\U+30B3\U+30FC\U+30C9\U+9577\U+FF1A\U+7D04\U+FF15\U+FF4D
  7
STD
210
0.0
220
0.0
230
1.0
 73
     1
 44
1.0
  0
ENDBLK
  5
32
100
AcDbEntity
  8
レイヤー_1
100
AcDbBlockEnd
  0
BLOCK
  5
35
100
AcDbEntity
  8
レイヤー_1
 62
     7
100
AcDbBlockBegin
  2
AI9-BLK2
 70
     0
 10
0.0
 20
0.0
 30
0.0
  3
AI9-BLK2
  1

  0
INSERT
  5
37
100
AcDbEntity
  8
レイヤー_1
 62
     7
100
AcDbBlockReference
  2
AI9-BLK3
 10
0.0
 20
0.0
 30
0.0
  0
ENDBLK
  5
3C
100
AcDbEntity
  8
レイヤー_1
100
AcDbBlockEnd
  0
BLOCK
  5
38
100
AcDbEntity
  8
レイヤー_1
 62
     7
100
AcDbBlockBegin
  2
AI9-BLK3
 70
     0
 10
0.0
 20
0.0
 30
0.0
  3
AI9-BLK3
  1

  0
SPLINE
  5
3A
100
AcDbEntity
  8
レイヤー_1
 62
     7
100
AcDbSpline
210
0.0
220
0.0
230
1.0
 70
     8
 71
     3
 72
    17
 73
    13
 74
     0
 42
0.00000001
 43
0.00000001
 40
0.0
 40
0.0
 40
0.0
 40
0.0
 40
1.0
 40
1.0
 40
1.0
 40
2.0
 40
2.0
 40
2.0
 40
3.0
 40
3.0
 40
3.0
 40
4.0
 40
4.0
 40
4.0
 40
4.0
 10
-2.2268235948350692
 20
-0.6258015950520833
 30
0.0
 10
-1.9758483886718747
 20
-0.8128702799479166
 30
0.0
 10
-1.6664788140190971
 20
-0.9803019205729165
 30
0.0
 10
-1.1703850640190971
 20
-0.9803019205729165
 30
0.0
 10
-0.543722195095486
 20
-0.9803019205729165
 30
0.0
 10
-0.213165283203125
 20
-0.7046942816840277
 30
0.0
 10
0.0781175401475694
 20
-0.4621595594618055
 30
0.0
 10
0.3568257649739583
 20
-0.2299601236979167
 30
0.0
 10
0.6195142957899305
 20
-0.0094740125868056
 30
0.0
 10
1.1566046820746527
 20
-0.0094740125868056
 30
0.0
 10
1.6923170301649304
 20
-0.0094740125868056
 30
0.0
 10
1.9531107584635414
 20
-0.2296156141493055
 30
0.0
 10
2.229235161675347
 20
-0.4600925021701389
 30
0.0
  0
SPLINE
  5
39
100
AcDbEntity
  8
レイヤー_1
 62
     7
100
AcDbSpline
210
0.0
220
0.0
230
1.0
 70
     8
 71
     3
 72
    17
 73
    13
 74
     0
 42
0.00000001
 43
0.00000001
 40
0.0
 40
0.0
 40
0.0
 40
0.0
 40
1.0
 40
1.0
 40
1.0
 40
2.0
 40
2.0
 40
2.0
 40
3.0
 40
3.0
 40
3.0
 40
4.0
 40
4.0
 40
4.0
 40
4.0
 10
2.2204501681857636
 20
0.6220119900173611
 30
0.0
 10
1.9689581976996526
 20
0.8121812608506944
 30
0.0
 10
1.6566602918836804
 20
0.9803019205729165
 30
0.0
 10
1.1566046820746527
 20
0.9803019205729165
 30
0.0
 10
0.5120273166232638
 20
0.9803019205729165
 30
0.0
 10
0.1776807996961805
 20
0.7012491861979167
 30
0.0
 10
-0.1182529025607639
 20
0.4545803493923611
 30
0.0
 10
-0.4036790635850694
 20
0.21549072265625
 30
0.0
 10
-0.6513814290364582
 20
0.0087849934895833
 30
0.0
 10
-1.1703850640190971
 20
0.0087849934895833
 30
0.0
 10
-1.6964511447482638
 20
0.0087849934895833
 30
0.0
 10
-1.9560390896267359
 20
0.2237589518229166
 30
0.0
 10
-2.2294074164496527
 20
0.4497572157118055
 30
0.0
  0
ENDBLK
  5
3B
100
AcDbEntity
  8
レイヤー_1
100
AcDbBlockEnd
  0
BLOCK
  5
3F
100
AcDbEntity
  8
レイヤー_1
 62
     7
100
AcDbBlockBegin
  2
AI9-BLK4
 70
     0
 10
0.0
 20
0.0
 30
0.0
  3
AI9-BLK4
  1

  0
SPLINE
  5
40
100
AcDbEntity
  8
レイヤー_1
 62
     7
100
AcDbSpline
210
0.0
220
0.0
230
1.0
 70
     8
 71
     3
 72
    20
 73
    16
 74
     0
 42
0.00000001
 43
0.00000001
 40
0.0
 40
0.0
 40
0.0
 40
0.0
 40
1.0
 40
1.0
 40
1.0
 40
2.0
 40
2.0
 40
2.0
 40
3.0
 40
3.0
 40
3.0
 40
4.0
 40
4.0
 40
4.0
 40
5.0
 40
5.0
 40
5.0
 40
5.0
 10
58.333390299479163
 20
-2.7625359429253469
 30
0.0
 10
58.333390299479163
 20
29.453240966796873
 30
0.0
 10
32.21681043836805
 20
55.570509847005205
 30
0.0
 10
0.0
 20
55.570509847005205
 30
0.0
 10
-32.216465928819439
 20
55.570509847005205
 30
0.0
 10
-58.333390299479163
 20
29.453240966796873
 30
0.0
 10
-58.333390299479163
 20
-2.7625359429253469
 30
0.0
 10
-58.333390299479163
 20
-26.108570014105901
 30
0.0
 10
-44.617087131076381
 20
-46.248081461588541
 30
0.0
 10
-24.805032009548608
 20
-55.570509847005205
 30
0.0
 10
-24.805032009548608
 20
-55.570509847005205
 30
0.0
 10
24.805032009548608
 20
-55.570509847005205
 30
0.0
 10
24.805032009548608
 20
-55.570509847005205
 30
0.0
 10
44.617087131076381
 20
-46.248081461588541
 30
0.0
 10
58.333390299479163
 20
-26.108570014105901
 30
0.0
 10
58.333390299479163
 20
-2.7625359429253469
 30
0.0
  0
ENDBLK
  5
41
100
AcDbEntity
  8
レイヤー_1
100
AcDbBlockEnd
  0
BLOCK
  5
44
100
AcDbEntity
  8
レイヤー_1
 62
     7
100
AcDbBlockBegin
  2
AI9-BLK5
 70
     0
 10
0.0
 20
0.0
 30
0.0
  3
AI9-BLK5
  1

  0
SPLINE
  5
45
100
AcDbEntity
  8
レイヤー_1
 62
     7
100
AcDbSpline
210
0.0
220
0.0
230
1.0
 70
     8
 71
     3
 72
    20
 73
    16
 74
     0
 42
0.00000001
 43
0.00000001
 40
0.0
 40
0.0
 40
0.0
 40
0.0
 40
1.0
 40
1.0
 40
1.0
 40
2.0
 40
2.0
 40
2.0
 40
3.0
 40
3.0
 40
3.0
 40
4.0
 40
4.0
 40
4.0
 40
5.0
 40
5.0
 40
5.0
 40
5.0
 10
58.333390299479163
 20
-2.7626220703124997
 30
0.0
 10
58.333390299479163
 20
29.45315483940972
 30
0.0
 10
32.216638183593744
 20
55.570423719618049
 30
0.0
 10
0.0
 20
55.570423719618049
 30
0.0
 10
-32.216465928819439
 20
55.570423719618049
 30
0.0
 10
-58.333390299479163
 20
29.45315483940972
 30
0.0
 10
-58.333390299479163
 20
-2.7626220703124997
 30
0.0
 10
-58.333390299479163
 20
-26.108656141493054
 30
0.0
 10
-44.616914876302076
 20
-46.247995334201384
 30
0.0
 10
-24.805204264322914
 20
-55.570423719618049
 30
0.0
 10
-24.805204264322914
 20
-55.570423719618049
 30
0.0
 10
24.805204264322914
 20
-55.570423719618049
 30
0.0
 10
24.805204264322914
 20
-55.570423719618049
 30
0.0
 10
44.617087131076381
 20
-46.247995334201384
 30
0.0
 10
58.333390299479163
 20
-26.108656141493054
 30
0.0
 10
58.333390299479163
 20
-2.7626220703124997
 30
0.0
  0
ENDBLK
  5
46
100
AcDbEntity
  8
レイヤー_1
100
AcDbBlockEnd
  0
BLOCK
  5
49
100
AcDbEntity
  8
レイヤー_1
 62
     7
100
AcDbBlockBegin
  2
AI9-BLK6
 70
     0
 10
0.0
 20
0.0
 30
0.0
  3
AI9-BLK6
  1

  0
CIRCLE
  5
53
100
AcDbEntity
  8
レイヤー_1
 62
     7
100
AcDbCircle
 10
-9.067233
 20
-0.000086
 30
0.0
 40
58.33339
  0
LINE
  5
52
100
AcDbEntity
  8
レイヤー_1
 62
     7
100
AcDbLine
 10
-70.577863
 20
-20.579364
 30
0.0
 11
70.577863
 21
27.093523
 31
0.0
  0
HATCH
  5
51
100
AcDbEntity
  8
レイヤー_1
 62
     7
100
AcDbHatch
 10
0.0
 20
0.0
 30
0.0
210
0.0
220
0.0
230
1.0
  2
SOLID
 70
     1
 71
     0
 91
        1
 92
        3
 72
     0
 73
     0
 93
        4
 10
-64.499852837456586
 20
-18.411882188585068
 10
-67.491056993272565
 20
-18.604463026258678
 10
-66.995135498046864
 20
-20.072418212890621
 10
-64.499852837456586
 20
-18.411882188585068
 97
        0
 75
     2
 76
     1
 98
        1
 10
0.0
 20
0.0
  0
HATCH
  5
50
100
AcDbEntity
  8
レイヤー_1
 62
     7
100
AcDbHatch
 10
0.0
 20
0.0
 30
0.0
210
0.0
220
0.0
230
1.0
  2
SOLID
 70
     1
 71
     0
 91
        1
 92
        3
 72
     0
 73
     0
 93
        4
 10
45.928548855251734
 20
18.705921088324651
 10
48.919753011067705
 20
18.898329671223955
 10
48.423831515842011
 20
20.366284857855902
 10
45.928548855251734
 20
18.705921088324651
 97
        0
 75
     2
 76
     1
 98
        1
 10
0.0
 20
0.0
  0
INSERT
  5
4B
100
AcDbEntity
  8
レイヤー_1
 62
     7
100
AcDbBlockReference
  2
AI9-BLK7
 10
54.245182
 20
23.790538
 30
0.0
  0
ENDBLK
  5
54
100
AcDbEntity
  8
レイヤー_1
100
AcDbBlockEnd
  0
BLOCK
  5
4C
100
AcDbEntity
  8
レイヤー_1
 62
     7
100
AcDbBlockBegin
  2
AI9-BLK7
 70
     0
 10
0.0
 20
0.0
 30
0.0
  3
AI9-BLK7
  1

  0
MTEXT
  5
4E
100
AcDbEntity
  8
レイヤー_1
 62
     7
100
AcDbMText
 10
-4.609915
 20
-0.132021
 30
0.0
 40
2.624835
 41
0.0
 71
     1
 72
     2
  1
\fMS Gothic|b0|i0|c128;\H2.6248;\C7;\U+03A6
  7
STD
210
0.0
220
0.0
230
0.9999999999999999
 11
0.9474
 21
0.32
 31
0.0
 73
     1
 44
1.0
  0
MTEXT
  5
4D
100
AcDbEntity
  8
レイヤー_1
 62
     7
100
AcDbMText
 10
-1.267483
 20
0.996937
 30
0.0
 40
2.624835
 41
0.0
 71
     1
 72
     2
  1
\fMS Gothic|b0|i0|c128;\H2.6248;\C7;\U+0033\U+0035\U+0030
  7
STD
210
0.0
220
0.0
230
0.9999999999999999
 11
0.9474
 21
0.32
 31
0.0
 73
     1
 44
1.0
  0
ENDBLK
  5
4F
100
AcDbEntity
  8
レイヤー_1
100
AcDbBlockEnd
  0
BLOCK
  5
57
100
AcDbEntity
  8
レイヤー_1
 62
     7
100
AcDbBlockBegin
  2
AI9-BLK8
 70
     0
 10
0.0
 20
0.0
 30
0.0
  3
AI9-BLK8
  1

  0
SPLINE
  5
5E
100
AcDbEntity
  8
レイヤー_1
 62
     7
100
AcDbSpline
210
0.0
220
0.0
230
1.0
 70
     8
 71
     3
 72
    29
 73
    25
 74
     0
 42
0.00000001
 43
0.00000001
 40
0.0
 40
0.0
 40
0.0
 40
0.0
 40
1.0
 40
1.0
 40
1.0
 40
2.0
 40
2.0
 40
2.0
 40
3.0
 40
3.0
 40
3.0
 40
4.0
 40
4.0
 40
4.0
 40
5.0
 40
5.0
 40
5.0
 40
6.0
 40
6.0
 40
6.0
 40
7.0
 40
7.0
 40
7.0
 40
8.0
 40
8.0
 40
8.0
 40
8.0
 10
3.3333882649739581
 20
-0.6662814670138888
 30
0.0
 10
3.3333882649739581
 20
-0.8509385850694444
 30
0.0
 10
3.1838711208767356
 20
-0.9997667100694444
 30
0.0
 10
2.9999030219184024
 20
-0.9997667100694444
 30
0.0
 10
2.9999030219184024
 20
-0.9997667100694444
 30
0.0
 10
-3.0002475314670134
 20
-0.9997667100694444
 30
0.0
 10
-3.0002475314670134
 20
-0.9997667100694444
 30
0.0
 10
-3.1842156304253471
 20
-0.9997667100694444
 30
0.0
 10
-3.3333882649739581
 20
-0.8509385850694444
 30
0.0
 10
-3.3333882649739581
 20
-0.6662814670138888
 30
0.0
 10
-3.3333882649739581
 20
-0.6662814670138888
 30
0.0
 10
-3.3333882649739581
 20
0.6669704861111111
 30
0.0
 10
-3.3333882649739581
 20
0.6669704861111111
 30
0.0
 10
-3.3333882649739581
 20
0.8509385850694444
 30
0.0
 10
-3.1842156304253471
 20
0.9997667100694444
 30
0.0
 10
-3.0002475314670134
 20
0.9997667100694444
 30
0.0
 10
-3.0002475314670134
 20
0.9997667100694444
 30
0.0
 10
2.9999030219184024
 20
0.9997667100694444
 30
0.0
 10
2.9999030219184024
 20
0.9997667100694444
 30
0.0
 10
3.1838711208767356
 20
0.9997667100694444
 30
0.0
 10
3.3333882649739581
 20
0.8509385850694444
 30
0.0
 10
3.3333882649739581
 20
0.6669704861111111
 30
0.0
 10
3.3333882649739581
 20
0.6669704861111111
 30
0.0
 10
3.3333882649739581
 20
-0.6662814670138888
 30
0.0
 10
3.3333882649739581
 20
-0.6662814670138888
 30
0.0
  0
POLYLINE
  5
58
100
AcDbEntity
  8
レイヤー_1
 62
     7
100
AcDb2dPolyline
 66
     1
 10
0.0
 20
0.0
 30
0.0
 70
     1
  0
VERTEX
  5
59
100
AcDbEntity
  8
レイヤー_1
 62
     7
100
AcDbVertex
100
AcDb2dVertex
 10
1.833394
 20
-0.999767
 30
0.0
  0
VERTEX
  5
5A
100
AcDbEntity
  8
レイヤー_1
 62
     7
100
AcDbVertex
100
AcDb2dVertex
 10
-1.833394
 20
-0.999767
 30
0.0
  0
VERTEX
  5
5B
100
AcDbEntity
  8
レイヤー_1
 62
     7
100
AcDbVertex
100
AcDb2dVertex
 10
-1.833394
 20
0.999767
 30
0.0
  0
VERTEX
  5
5C
100
AcDbEntity
  8
レイヤー_1
 62
     7
100
AcDbVertex
100
AcDb2dVertex
 10
1.833394
 20
0.999767
 30
0.0
  0
SEQEND
  5
5D
100
AcDbEntity
  8
レイヤー_1
 62
     7
  0
ENDBLK
  5
5F
100
AcDbEntity
  8
レイヤー_1
100
AcDbBlockEnd
  0
BLOCK
  5
62
100
AcDbEntity
  8
レイヤー_1
 62
     7
100
AcDbBlockBegin
  2
AI9-BLK9
 70
     0
 10
0.0
 20
0.0
 30
0.0
  3
AI9-BLK9
  1

  0
MTEXT
  5
65
100
AcDbEntity
  8
レイヤー_1
 62
     7
100
AcDbMText
 10
-17.991667
 20
1.620179
 30
0.0
 40
3.149801
 41
0.0
 71
     1
 72
     2
  1
\fMS Gothic|b0|i0|c128;\H3.1498;\C7;\U+25A0\U+4ED8\U+5C5E\U+54C1
  7
STD
210
0.0
220
0.0
230
1.0
 73
     1
 44
1.0
  0
MTEXT
  5
64
100
AcDbEntity
  8
レイヤー_1
 62
     7
100
AcDbMText
 10
-1.058333
 20
1.620179
 30
0.0
 40
3.149801
 41
0.0
 71
     1
 72
     2
  1
\fMS Gothic|b0|i0|c128;\H3.1498;\C7;\U+0020
  7
STD
210
0.0
220
0.0
230
1.0
 73
     1
 44
1.0
  0
MTEXT
  5
63
100
AcDbEntity
  8
レイヤー_1
 62
     7
100
AcDbMText
 10
1.058333
 20
1.620179
 30
0.0
 40
3.149801
 41
0.0
 71
     1
 72
     2
  1
\fMS Gothic|b0|i0|c128;\H3.1498;\C7;\U+30B9\U+30D1\U+30A4\U+30AF
  7
STD
210
0.0
220
0.0
230
1.0
 73
     1
 44
1.0
  0
ENDBLK
  5
66
100
AcDbEntity
  8
レイヤー_1
100
AcDbBlockEnd
  0
BLOCK
  5
69
100
AcDbEntity
  8
レイヤー_1
 62
     7
100
AcDbBlockBegin
  2
AI9-BLK10
 70
     0
 10
0.0
 20
0.0
 30
0.0
  3
AI9-BLK10
  1

  0
MTEXT
  5
6E
100
AcDbEntity
  8
レイヤー_1
 62
     7
100
AcDbMText
 10
-27.516667
 20
1.620179
 30
0.0
 40
3.149801
 41
0.0
 71
     1
 72
     2
  1
\fMS Gothic|b0|i0|c128;\H3.1498;\C7;\U+3010\U+6B63\U+9762\U+56F3
  7
STD
210
0.0
220
0.0
230
1.0
 73
     1
 44
1.0
  0
MTEXT
  5
6D
100
AcDbEntity
  8
レイヤー_1
 62
     7
100
AcDbMText
 10
-10.583333
 20
1.620179
 30
0.0
 40
3.149801
 41
0.0
 71
     1
 72
     2
  1
\fMS Gothic|b0|i0|c128;\H3.1498;\C7;\U+0028
  7
STD
210
0.0
220
0.0
230
1.0
 73
     1
 44
1.0
  0
MTEXT
  5
6C
100
AcDbEntity
  8
レイヤー_1
 62
     7
100
AcDbMText
 10
-8.466667
 20
1.620179
 30
0.0
 40
3.149801
 41
0.0
 71
     1
 72
     2
  1
\fMS Gothic|b0|i0|c128;\H3.1498;\C7;\U+30B9\U+30D1\U+30A4\U+30AF\U+4F7F\U+7528\U+6642
  7
STD
210
0.0
220
0.0
230
1.0
 73
     1
 44
1.0
  0
MTEXT
  5
6B
100
AcDbEntity
  8
レイヤー_1
 62
     7
100
AcDbMText
 10
21.166667
 20
1.620179
 30
0.0
 40
3.149801
 41
0.0
 71
     1
 72
     2
  1
\fMS Gothic|b0|i0|c128;\H3.1498;\C7;\U+0029
  7
STD
210
0.0
220
0.0
230
1.0
 73
     1
 44
1.0
  0
MTEXT
  5
6A
100
AcDbEntity
  8
レイヤー_1
 62
     7
100
AcDbMText
 10
23.283333
 20
1.620179
 30
0.0
 40
3.149801
 41
0.0
 71
     1
 72
     2
  1
\fMS Gothic|b0|i0|c128;\H3.1498;\C7;\U+3011
  7
STD
210
0.0
220
0.0
230
1.0
 73
     1
 44
1.0
  0
ENDBLK
  5
6F
100
AcDbEntity
  8
レイヤー_1
100
AcDbBlockEnd
  0
BLOCK
  5
72
100
AcDbEntity
  8
レイヤー_1
 62
     7
100
AcDbBlockBegin
  2
AI9-BLK11
 70
     0
 10
0.0
 20
0.0
 30
0.0
  3
AI9-BLK11
  1

  0
MTEXT
  5
73
100
AcDbEntity
  8
レイヤー_1
 62
     7
100
AcDbMText
 10
-19.049914
 20
1.620179
 30
0.0
 40
3.149801
 41
0.0
 71
     1
 72
     2
  1
\fMS Gothic|b0|i0|c128;\H3.1498;\C7;\U+3010\U+30B9\U+30D1\U+30A4\U+30AF\U+6B63\U+9762\U+56F3\U+3011
  7
STD
210
0.0
220
0.0
230
1.0
 73
     1
 44
1.0
  0
ENDBLK
  5
74
100
AcDbEntity
  8
レイヤー_1
100
AcDbBlockEnd
  0
BLOCK
  5
77
100
AcDbEntity
  8
レイヤー_1
 62
     7
100
AcDbBlockBegin
  2
AI9-BLK12
 70
     0
 10
0.0
 20
0.0
 30
0.0
  3
AI9-BLK12
  1

  0
MTEXT
  5
78
100
AcDbEntity
  8
レイヤー_1
 62
     7
100
AcDbMText
 10
-10.583333
 20
1.620179
 30
0.0
 40
3.149801
 41
0.0
 71
     1
 72
     2
  1
\fMS Gothic|b0|i0|c128;\H3.1498;\C7;\U+3010\U+5E95\U+9762\U+56F3\U+3011
  7
STD
210
0.0
220
0.0
230
1.0
 73
     1
 44
1.0
  0
ENDBLK
  5
79
100
AcDbEntity
  8
レイヤー_1
100
AcDbBlockEnd
  0
BLOCK
  5
7C
100
AcDbEntity
  8
レイヤー_1
 62
     7
100
AcDbBlockBegin
  2
AI9-BLK13
 70
     0
 10
0.0
 20
0.0
 30
0.0
  3
AI9-BLK13
  1

  0
MTEXT
  5
7D
100
AcDbEntity
  8
レイヤー_1
 62
     7
100
AcDbMText
 10
-10.583333
 20
1.620179
 30
0.0
 40
3.149801
 41
0.0
 71
     1
 72
     2
  1
\fMS Gothic|b0|i0|c128;\H3.1498;\C7;\U+3010\U+6B63\U+9762\U+56F3\U+3011
  7
STD
210
0.0
220
0.0
230
1.0
 73
     1
 44
1.0
  0
ENDBLK
  5
7E
100
AcDbEntity
  8
レイヤー_1
100
AcDbBlockEnd
  0
BLOCK
  5
81
100
AcDbEntity
  8
レイヤー_1
 62
     7
100
AcDbBlockBegin
  2
AI9-BLK14
 70
     0
 10
0.0
 20
0.0
 30
0.0
  3
AI9-BLK14
  1

  0
MTEXT
  5
82
100
AcDbEntity
  8
レイヤー_1
 62
     7
100
AcDbMText
 10
-10.583333
 20
1.620179
 30
0.0
 40
3.149801
 41
0.0
 71
     1
 72
     2
  1
\fMS Gothic|b0|i0|c128;\H3.1498;\C7;\U+3010\U+4E0A\U+9762\U+56F3\U+3011
  7
STD
210
0.0
220
0.0
230
1.0
 73
     1
 44
1.0
  0
ENDBLK
  5
83
100
AcDbEntity
  8
レイヤー_1
100
AcDbBlockEnd
  0
BLOCK
  5
89
100
AcDbEntity
  8
レイヤー_1
 62
     7
100
AcDbBlockBegin
  2
AI9-BLK15
 70
     0
 10
0.0
 20
0.0
 30
0.0
  3
AI9-BLK15
  1

  0
MTEXT
  5
8B
100
AcDbEntity
  8
レイヤー_1
 62
     7
100
AcDbMText
 10
-6.173611
 20
1.350149
 30
0.0
 40
2.624835
 41
0.0
 71
     1
 72
     2
  1
\fMS Gothic|b0|i0|c128;\H2.6248;\C7;\U+03A6
  7
STD
210
0.0
220
0.0
230
1.0
 73
     1
 44
1.0
  0
MTEXT
  5
8A
100
AcDbEntity
  8
レイヤー_1
 62
     7
100
AcDbMText
 10
-2.645833
 20
1.350149
 30
0.0
 40
2.624835
 41
0.0
 71
     1
 72
     2
  1
\fMS Gothic|b0|i0|c128;\H2.6248;\C7;\U+0031\U+0032\U+0037\U+002E\U+0035
  7
STD
210
0.0
220
0.0
230
1.0
 73
     1
 44
1.0
  0
ENDBLK
  5
8C
100
AcDbEntity
  8
レイヤー_1
100
AcDbBlockEnd
  0
BLOCK
  5
8F
100
AcDbEntity
  8
レイヤー_1
 62
     7
100
AcDbBlockBegin
  2
AI9-BLK16
 70
     0
 10
0.0
 20
0.0
 30
0.0
  3
AI9-BLK16
  1

  0
MTEXT
  5
91
100
AcDbEntity
  8
レイヤー_1
 62
     7
100
AcDbMText
 10
-4.409722
 20
1.350149
 30
0.0
 40
2.624835
 41
0.0
 71
     1
 72
     2
  1
\fMS Gothic|b0|i0|c128;\H2.6248;\C7;\U+03A6
  7
STD
210
0.0
220
0.0
230
1.0
 73
     1
 44
1.0
  0
MTEXT
  5
90
100
AcDbEntity
  8
レイヤー_1
 62
     7
100
AcDbMText
 10
-0.881944
 20
1.350149
 30
0.0
 40
2.624835
 41
0.0
 71
     1
 72
     2
  1
\fMS Gothic|b0|i0|c128;\H2.6248;\C7;\U+0033\U+0035\U+0030
  7
STD
210
0.0
220
0.0
230
1.0
 73
     1
 44
1.0
  0
ENDBLK
  5
92
100
AcDbEntity
  8
レイヤー_1
100
AcDbBlockEnd
  0
BLOCK
  5
9B
100
AcDbEntity
  8
レイヤー_1
 62
     7
100
AcDbBlockBegin
  2
AI9-BLK17
 70
     0
 10
0.0
 20
0.0
 30
0.0
  3
AI9-BLK17
  1

  0
SPLINE
  5
A1
100
AcDbEntity
  8
レイヤー_1
 62
     7
100
AcDbSpline
210
0.0
220
0.0
230
1.0
 70
     8
 71
     3
 72
    17
 73
    13
 74
     0
 42
0.00000001
 43
0.00000001
 40
0.0
 40
0.0
 40
0.0
 40
0.0
 40
1.0
 40
1.0
 40
1.0
 40
2.0
 40
2.0
 40
2.0
 40
3.0
 40
3.0
 40
3.0
 40
4.0
 40
4.0
 40
4.0
 40
4.0
 10
4.3359110514322916
 20
-16.181268988715278
 30
0.0
 10
4.3359110514322916
 20
-16.181268988715278
 30
0.0
 10
4.5295254177517359
 20
-16.906117078993056
 30
0.0
 10
4.5295254177517359
 20
-16.906117078993056
 30
0.0
 10
5.5162007649739575
 20
-16.640155707465276
 30
0.0
 10
6.4753153483072907
 20
-16.289444986979166
 30
0.0
 10
7.3951558430989577
 20
-15.859497070312498
 30
0.0
 10
7.3951558430989577
 20
-15.859497070312498
 30
0.0
 10
7.0782070583767354
 20
-15.180124240451388
 30
0.0
 10
7.0782070583767354
 20
-15.180124240451388
 30
0.0
 10
6.1976406521267355
 20
-15.590779622395832
 30
0.0
 10
5.2798672146267354
 20
-15.927020941840276
 30
0.0
 10
4.3359110514322916
 20
-16.181268988715278
 30
0.0
  0
SPLINE
  5
A0
100
AcDbEntity
  8
レイヤー_1
 62
     7
100
AcDbSpline
210
0.0
220
0.0
230
1.0
 70
     8
 71
     3
 72
    17
 73
    13
 74
     0
 42
0.00000001
 43
0.00000001
 40
0.0
 40
0.0
 40
0.0
 40
0.0
 40
1.0
 40
1.0
 40
1.0
 40
2.0
 40
2.0
 40
2.0
 40
3.0
 40
3.0
 40
3.0
 40
4.0
 40
4.0
 40
4.0
 40
4.0
 10
15.182449679904513
 20
-7.0793267144097216
 30
0.0
 10
15.182449679904513
 20
-7.0793267144097216
 30
0.0
 10
15.862511528862846
 20
-7.3962754991319439
 30
0.0
 10
15.862511528862846
 20
-7.3962754991319439
 30
0.0
 10
16.284880235460069
 20
-6.4881483289930548
 30
0.0
 10
16.634901936848959
 20
-5.5304117838541664
 30
0.0
 10
16.903619384765623
 20
-4.5292670355902773
 30
0.0
 10
16.903619384765623
 20
-4.5292670355902773
 30
0.0
 10
16.178771294487845
 20
-4.3349636501736111
 30
0.0
 10
16.178771294487845
 20
-4.3349636501736111
 30
0.0
 10
15.92245619032118
 20
-5.2933892144097214
 30
0.0
 10
15.586903889973957
 20
-6.2097846137152768
 30
0.0
 10
15.182449679904513
 20
-7.0793267144097216
 30
0.0
  0
SPLINE
  5
9F
100
AcDbEntity
  8
レイヤー_1
 62
     7
100
AcDbSpline
210
0.0
220
0.0
230
1.0
 70
     8
 71
     3
 72
    17
 73
    13
 74
     0
 42
0.00000001
 43
0.00000001
 40
0.0
 40
0.0
 40
0.0
 40
0.0
 40
1.0
 40
1.0
 40
1.0
 40
2.0
 40
2.0
 40
2.0
 40
3.0
 40
3.0
 40
3.0
 40
4.0
 40
4.0
 40
4.0
 40
4.0
 10
7.0782070583767354
 20
-15.180124240451388
 30
0.0
 10
7.0782070583767354
 20
-15.180124240451388
 30
0.0
 10
7.3951558430989577
 20
-15.859497070312498
 30
0.0
 10
7.3951558430989577
 20
-15.859497070312498
 30
0.0
 10
11.046268039279513
 20
-14.154863823784721
 30
0.0
 10
14.091732449001736
 20
-11.20586208767361
 30
0.0
 10
15.862511528862846
 20
-7.3962754991319439
 30
0.0
 10
15.862511528862846
 20
-7.3962754991319439
 30
0.0
 10
15.182449679904513
 20
-7.0793267144097216
 30
0.0
 10
15.182449679904513
 20
-7.0793267144097216
 30
0.0
 10
13.487462700737845
 20
-10.724926757812499
 30
0.0
 10
10.572911919487847
 20
-13.547837999131943
 30
0.0
 10
7.0782070583767354
 20
-15.180124240451388
 30
0.0
  0
SPLINE
  5
9E
100
AcDbEntity
  8
レイヤー_1
 62
     7
100
AcDbSpline
210
0.0
220
0.0
230
1.0
 70
     8
 71
     3
 72
    23
 73
    19
 74
     0
 42
0.00000001
 43
0.00000001
 40
0.0
 40
0.0
 40
0.0
 40
0.0
 40
1.0
 40
1.0
 40
1.0
 40
2.0
 40
2.0
 40
2.0
 40
3.0
 40
3.0
 40
3.0
 40
4.0
 40
4.0
 40
4.0
 40
5.0
 40
5.0
 40
5.0
 40
6.0
 40
6.0
 40
6.0
 40
6.0
 10
-16.179288058810762
 20
4.335652669270833
 30
0.0
 10
-15.922628445095485
 20
5.2940782335069443
 30
0.0
 10
-15.587076144748263
 20
6.2104736328124996
 30
0.0
 10
-15.182621934678819
 20
7.0800157335069436
 30
0.0
 10
-15.182621934678819
 20
7.0800157335069436
 30
0.0
 10
-15.862339274088541
 20
7.3969645182291659
 30
0.0
 10
-15.862339274088541
 20
7.3969645182291659
 30
0.0
 10
-16.285052490234374
 20
6.4881483289930548
 30
0.0
 10
-16.635418701171872
 20
5.5311008029513884
 30
0.0
 10
-16.903791639539929
 20
4.5292670355902773
 30
0.0
 10
-16.903791639539929
 20
4.5292670355902773
 30
0.0
 10
-16.903791639539929
 20
4.5292670355902773
 30
0.0
 10
-16.903791639539929
 20
4.5292670355902773
 30
0.0
 10
-16.903791639539929
 20
4.5292670355902773
 30
0.0
 10
-16.179288058810762
 20
4.335652669270833
 30
0.0
 10
-16.179288058810762
 20
4.335652669270833
 30
0.0
 10
-16.179288058810762
 20
4.335652669270833
 30
0.0
 10
-16.179288058810762
 20
4.335652669270833
 30
0.0
 10
-16.179288058810762
 20
4.335652669270833
 30
0.0
  0
SPLINE
  5
9D
100
AcDbEntity
  8
レイヤー_1
 62
     7
100
AcDbSpline
210
0.0
220
0.0
230
1.0
 70
     8
 71
     3
 72
    17
 73
    13
 74
     0
 42
0.00000001
 43
0.00000001
 40
0.0
 40
0.0
 40
0.0
 40
0.0
 40
1.0
 40
1.0
 40
1.0
 40
2.0
 40
2.0
 40
2.0
 40
3.0
 40
3.0
 40
3.0
 40
4.0
 40
4.0
 40
4.0
 40
4.0
 10
-7.0783793131510411
 20
15.180124240451388
 30
0.0
 10
-7.0783793131510411
 20
15.180124240451388
 30
0.0
 10
-7.3953280978732634
 20
15.860186089409721
 30
0.0
 10
-7.3953280978732634
 20
15.860186089409721
 30
0.0
 10
-11.04678480360243
 20
14.154863823784721
 30
0.0
 10
-14.09190470377604
 20
11.20586208767361
 30
0.0
 10
-15.862339274088541
 20
7.3969645182291659
 30
0.0
 10
-15.862339274088541
 20
7.3969645182291659
 30
0.0
 10
-15.182621934678819
 20
7.0800157335069436
 30
0.0
 10
-15.182621934678819
 20
7.0800157335069436
 30
0.0
 10
-13.487634955512151
 20
10.725615776909722
 30
0.0
 10
-10.573428683810763
 20
13.548527018229166
 30
0.0
 10
-7.0783793131510411
 20
15.180124240451388
 30
0.0
  0
SPLINE
  5
9C
100
AcDbEntity
  8
レイヤー_1
 62
     7
100
AcDbSpline
210
0.0
220
0.0
230
1.0
 70
     8
 71
     3
 72
    17
 73
    13
 74
     0
 42
0.00000001
 43
0.00000001
 40
0.0
 40
0.0
 40
0.0
 40
0.0
 40
1.0
 40
1.0
 40
1.0
 40
2.0
 40
2.0
 40
2.0
 40
3.0
 40
3.0
 40
3.0
 40
4.0
 40
4.0
 40
4.0
 40
4.0
 10
-4.3357387966579859
 20
16.181268988715278
 30
0.0
 10
-4.3357387966579859
 20
16.181268988715278
 30
0.0
 10
-4.5300421820746521
 20
16.906117078993056
 30
0.0
 10
-4.5300421820746521
 20
16.906117078993056
 30
0.0
 10
-5.5167175292968746
 20
16.640844726562499
 30
0.0
 10
-6.4751430935329859
 20
16.289444986979166
 30
0.0
 10
-7.3953280978732634
 20
15.860186089409721
 30
0.0
 10
-7.3953280978732634
 20
15.860186089409721
 30
0.0
 10
-7.0783793131510411
 20
15.180124240451388
 30
0.0
 10
-7.0783793131510411
 20
15.180124240451388
 30
0.0
 10
-6.1978129069010413
 20
15.591468641493055
 30
0.0
 10
-5.2803839789496525
 20
15.927709960937499
 30
0.0
 10
-4.3357387966579859
 20
16.181268988715278
 30
0.0
  0
ENDBLK
  5
A2
100
AcDbEntity
  8
レイヤー_1
100
AcDbBlockEnd
  0
BLOCK
  5
A5
100
AcDbEntity
  8
レイヤー_1
 62
     7
100
AcDbBlockBegin
  2
AI9-BLK18
 70
     0
 10
0.0
 20
0.0
 30
0.0
  3
AI9-BLK18
  1

  0
SPLINE
  5
AB
100
AcDbEntity
  8
レイヤー_1
 62
     7
100
AcDbSpline
210
0.0
220
0.0
230
1.0
 70
     8
 71
     3
 72
    17
 73
    13
 74
     0
 42
0.00000001
 43
0.00000001
 40
0.0
 40
0.0
 40
0.0
 40
0.0
 40
1.0
 40
1.0
 40
1.0
 40
2.0
 40
2.0
 40
2.0
 40
3.0
 40
3.0
 40
3.0
 40
4.0
 40
4.0
 40
4.0
 40
4.0
 10
-16.181699625651039
 20
-4.3361694335937493
 30
0.0
 10
-16.181699625651039
 20
-4.3361694335937493
 30
0.0
 10
-16.905858696831597
 20
-4.5304728190104164
 30
0.0
 10
-16.905858696831597
 20
-4.5304728190104164
 30
0.0
 10
-16.64058634440104
 20
-5.517148166232638
 30
0.0
 10
-16.289531114366319
 20
-6.4755737304687493
 30
0.0
 10
-15.859927707248263
 20
-7.3961032443576382
 30
0.0
 10
-15.859927707248263
 20
-7.3961032443576382
 30
0.0
 10
-15.179865858289929
 20
-7.0791544596354159
 30
0.0
 10
-15.179865858289929
 20
-7.0791544596354159
 30
0.0
 10
-15.591210259331596
 20
-6.1978990342881941
 30
0.0
 10
-15.92745157877604
 20
-5.2808146158854159
 30
0.0
 10
-16.181699625651039
 20
-4.3361694335937493
 30
0.0
  0
SPLINE
  5
AA
100
AcDbEntity
  8
レイヤー_1
 62
     7
100
AcDbSpline
210
0.0
220
0.0
230
1.0
 70
     8
 71
     3
 72
    17
 73
    13
 74
     0
 42
0.00000001
 43
0.00000001
 40
0.0
 40
0.0
 40
0.0
 40
0.0
 40
1.0
 40
1.0
 40
1.0
 40
2.0
 40
2.0
 40
2.0
 40
3.0
 40
3.0
 40
3.0
 40
4.0
 40
4.0
 40
4.0
 40
4.0
 10
-7.0797573513454859
 20
-15.18270806206597
 30
0.0
 10
-7.0797573513454859
 20
-15.18270806206597
 30
0.0
 10
-7.3967061360677073
 20
-15.862769911024303
 30
0.0
 10
-7.3967061360677073
 20
-15.862769911024303
 30
0.0
 10
-6.4878899468315963
 20
-16.285138617621527
 30
0.0
 10
-5.5308424207899298
 20
-16.635849338107636
 30
0.0
 10
-4.5293531629774302
 20
-16.903877766927081
 30
0.0
 10
-4.5293531629774302
 20
-16.903877766927081
 30
0.0
 10
-4.3353942871093745
 20
-16.179718695746526
 30
0.0
 10
-4.3353942871093745
 20
-16.179718695746526
 30
0.0
 10
-5.2938198513454857
 20
-15.922714572482638
 30
0.0
 10
-6.2098707411024296
 20
-15.587162272135416
 30
0.0
 10
-7.0797573513454859
 20
-15.18270806206597
 30
0.0
  0
SPLINE
  5
A9
100
AcDbEntity
  8
レイヤー_1
 62
     7
100
AcDbSpline
210
0.0
220
0.0
230
1.0
 70
     8
 71
     3
 72
    17
 73
    13
 74
     0
 42
0.00000001
 43
0.00000001
 40
0.0
 40
0.0
 40
0.0
 40
0.0
 40
1.0
 40
1.0
 40
1.0
 40
2.0
 40
2.0
 40
2.0
 40
3.0
 40
3.0
 40
3.0
 40
4.0
 40
4.0
 40
4.0
 40
4.0
 10
-15.179865858289929
 20
-7.0791544596354159
 30
0.0
 10
-15.179865858289929
 20
-7.0791544596354159
 30
0.0
 10
-15.859927707248263
 20
-7.3961032443576382
 30
0.0
 10
-15.859927707248263
 20
-7.3961032443576382
 30
0.0
 10
-14.154949951171874
 20
-11.047215440538194
 30
0.0
 10
-11.205603705512152
 20
-14.091990831163193
 30
0.0
 10
-7.3967061360677073
 20
-15.862769911024303
 30
0.0
 10
-7.3967061360677073
 20
-15.862769911024303
 30
0.0
 10
-7.0797573513454859
 20
-15.18270806206597
 30
0.0
 10
-7.0797573513454859
 20
-15.18270806206597
 30
0.0
 10
-10.725357394748263
 20
-13.488410101996527
 30
0.0
 10
-13.548268636067707
 20
-10.573859320746527
 30
0.0
 10
-15.179865858289929
 20
-7.0791544596354159
 30
0.0
  0
SPLINE
  5
A8
100
AcDbEntity
  8
レイヤー_1
 62
     7
100
AcDbSpline
210
0.0
220
0.0
230
1.0
 70
     8
 71
     3
 72
    23
 73
    19
 74
     0
 42
0.00000001
 43
0.00000001
 40
0.0
 40
0.0
 40
0.0
 40
0.0
 40
1.0
 40
1.0
 40
1.0
 40
2.0
 40
2.0
 40
2.0
 40
3.0
 40
3.0
 40
3.0
 40
4.0
 40
4.0
 40
4.0
 40
5.0
 40
5.0
 40
5.0
 40
6.0
 40
6.0
 40
6.0
 40
6.0
 10
4.3352220323350688
 20
16.178685167100692
 30
0.0
 10
5.29364759657118
 20
15.922370062934027
 30
0.0
 10
6.2100429958767354
 20
15.586817762586804
 30
0.0
 10
7.0795850965711802
 20
15.18236355251736
 30
0.0
 10
7.0795850965711802
 20
15.18236355251736
 30
0.0
 10
7.3965338812934025
 20
15.861736382378471
 30
0.0
 10
7.3965338812934025
 20
15.861736382378471
 30
0.0
 10
6.4877176920572914
 20
16.284794108072916
 30
0.0
 10
5.5306701660156241
 20
16.634815809461806
 30
0.0
 10
4.5295254177517359
 20
16.90353325737847
 30
0.0
 10
4.528836398654513
 20
16.90353325737847
 30
0.0
 10
4.528836398654513
 20
16.90353325737847
 30
0.0
 10
4.528836398654513
 20
16.90353325737847
 30
0.0
 10
4.528836398654513
 20
16.90353325737847
 30
0.0
 10
4.3352220323350688
 20
16.178685167100692
 30
0.0
 10
4.3352220323350688
 20
16.178685167100692
 30
0.0
 10
4.3352220323350688
 20
16.178685167100692
 30
0.0
 10
4.3352220323350688
 20
16.178685167100692
 30
0.0
 10
4.3352220323350688
 20
16.178685167100692
 30
0.0
  0
SPLINE
  5
A7
100
AcDbEntity
  8
レイヤー_1
 62
     7
100
AcDbSpline
210
0.0
220
0.0
230
1.0
 70
     8
 71
     3
 72
    17
 73
    13
 74
     0
 42
0.00000001
 43
0.00000001
 40
0.0
 40
0.0
 40
0.0
 40
0.0
 40
1.0
 40
1.0
 40
1.0
 40
2.0
 40
2.0
 40
2.0
 40
3.0
 40
3.0
 40
3.0
 40
4.0
 40
4.0
 40
4.0
 40
4.0
 10
15.179693603515624
 20
7.0781209309895825
 30
0.0
 10
15.179693603515624
 20
7.0781209309895825
 30
0.0
 10
15.859755452473957
 20
7.3950697157118048
 30
0.0
 10
15.859755452473957
 20
7.3950697157118048
 30
0.0
 10
14.154433186848957
 20
11.04618191189236
 30
0.0
 10
11.205431450737846
 20
14.091646321614583
 30
0.0
 10
7.3965338812934025
 20
15.861736382378471
 30
0.0
 10
7.3965338812934025
 20
15.861736382378471
 30
0.0
 10
7.0795850965711802
 20
15.18236355251736
 30
0.0
 10
7.0795850965711802
 20
15.18236355251736
 30
0.0
 10
10.725185139973958
 20
13.487376573350693
 30
0.0
 10
13.548096381293401
 20
10.572825792100694
 30
0.0
 10
15.179693603515624
 20
7.0781209309895825
 30
0.0
  0
SPLINE
  5
A6
100
AcDbEntity
  8
レイヤー_1
 62
     7
100
AcDbSpline
210
0.0
220
0.0
230
1.0
 70
     8
 71
     3
 72
    17
 73
    13
 74
     0
 42
0.00000001
 43
0.00000001
 40
0.0
 40
0.0
 40
0.0
 40
0.0
 40
1.0
 40
1.0
 40
1.0
 40
2.0
 40
2.0
 40
2.0
 40
3.0
 40
3.0
 40
3.0
 40
4.0
 40
4.0
 40
4.0
 40
4.0
 10
16.181527370876733
 20
4.3358249240451388
 30
0.0
 10
16.181527370876733
 20
4.3358249240451388
 30
0.0
 10
16.905686442057291
 20
4.529439290364583
 30
0.0
 10
16.905686442057291
 20
4.529439290364583
 30
0.0
 10
16.640414089626734
 20
5.5161146375868046
 30
0.0
 10
16.289014350043402
 20
6.4745402018229159
 30
0.0
 10
15.859755452473957
 20
7.3950697157118048
 30
0.0
 10
15.859755452473957
 20
7.3950697157118048
 30
0.0
 10
15.179693603515624
 20
7.0781209309895825
 30
0.0
 10
15.179693603515624
 20
7.0781209309895825
 30
0.0
 10
15.591038004557291
 20
6.1975545247395827
 30
0.0
 10
15.927279324001734
 20
5.2797810872395825
 30
0.0
 10
16.181527370876733
 20
4.3358249240451388
 30
0.0
  0
ENDBLK
  5
AC
100
AcDbEntity
  8
レイヤー_1
100
AcDbBlockEnd
  0
BLOCK
  5
AF
100
AcDbEntity
  8
レイヤー_1
 62
     7
100
AcDbBlockBegin
  2
AI9-BLK19
 70
     0
 10
0.0
 20
0.0
 30
0.0
  3
AI9-BLK19
  1

  0
INSERT
  5
CF
100
AcDbEntity
  8
レイヤー_1
 62
     7
100
AcDbBlockReference
  2
AI9-BLK25
 10
0.0
 20
19.25016
 30
0.0
  0
INSERT
  5
C9
100
AcDbEntity
  8
レイヤー_1
 62
     7
100
AcDbBlockReference
  2
AI9-BLK24
 10
0.0
 20
-19.249988
 30
0.0
  0
INSERT
  5
C3
100
AcDbEntity
  8
レイヤー_1
 62
     7
100
AcDbBlockReference
  2
AI9-BLK23
 10
-16.671075
 20
9.624908
 30
0.0
  0
INSERT
  5
BD
100
AcDbEntity
  8
レイヤー_1
 62
     7
100
AcDbBlockReference
  2
AI9-BLK22
 10
16.670903
 20
-9.624908
 30
0.0
  0
INSERT
  5
B7
100
AcDbEntity
  8
レイヤー_1
 62
     7
100
AcDbBlockReference
  2
AI9-BLK21
 10
-16.671075
 20
-9.62508
 30
0.0
  0
INSERT
  5
B1
100
AcDbEntity
  8
レイヤー_1
 62
     7
100
AcDbBlockReference
  2
AI9-BLK20
 10
16.670903
 20
9.624908
 30
0.0
  0
ENDBLK
  5
D4
100
AcDbEntity
  8
レイヤー_1
100
AcDbBlockEnd
  0
BLOCK
  5
B2
100
AcDbEntity
  8
レイヤー_1
 62
     7
100
AcDbBlockBegin
  2
AI9-BLK20
 70
     0
 10
0.0
 20
0.0
 30
0.0
  3
AI9-BLK20
  1

  0
CIRCLE
  5
B4
100
AcDbEntity
  8
レイヤー_1
 62
     7
100
AcDbCircle
 10
0.000172
 20
-0.000172
 30
0.0
 40
1.1667
  0
CIRCLE
  5
B3
100
AcDbEntity
  8
レイヤー_1
 62
     7
100
AcDbCircle
 10
0.000172
 20
0.000172
 30
0.0
 40
1.005559
  0
ENDBLK
  5
B5
100
AcDbEntity
  8
レイヤー_1
100
AcDbBlockEnd
  0
BLOCK
  5
B8
100
AcDbEntity
  8
レイヤー_1
 62
     7
100
AcDbBlockBegin
  2
AI9-BLK21
 70
     0
 10
0.0
 20
0.0
 30
0.0
  3
AI9-BLK21
  1

  0
CIRCLE
  5
BA
100
AcDbEntity
  8
レイヤー_1
 62
     7
100
AcDbCircle
 10
0.0
 20
0.0
 30
0.0
 40
1.166786
  0
CIRCLE
  5
B9
100
AcDbEntity
  8
レイヤー_1
 62
     7
100
AcDbCircle
 10
0.0
 20
0.0
 30
0.0
 40
1.005346
  0
ENDBLK
  5
BB
100
AcDbEntity
  8
レイヤー_1
100
AcDbBlockEnd
  0
BLOCK
  5
BE
100
AcDbEntity
  8
レイヤー_1
 62
     7
100
AcDbBlockBegin
  2
AI9-BLK22
 70
     0
 10
0.0
 20
0.0
 30
0.0
  3
AI9-BLK22
  1

  0
CIRCLE
  5
C0
100
AcDbEntity
  8
レイヤー_1
 62
     7
100
AcDbCircle
 10
0.000172
 20
-0.000172
 30
0.0
 40
1.1667
  0
CIRCLE
  5
BF
100
AcDbEntity
  8
レイヤー_1
 62
     7
100
AcDbCircle
 10
0.000172
 20
-0.000172
 30
0.0
 40
1.00526
  0
ENDBLK
  5
C1
100
AcDbEntity
  8
レイヤー_1
100
AcDbBlockEnd
  0
BLOCK
  5
C4
100
AcDbEntity
  8
レイヤー_1
 62
     7
100
AcDbBlockBegin
  2
AI9-BLK23
 70
     0
 10
0.0
 20
0.0
 30
0.0
  3
AI9-BLK23
  1

  0
CIRCLE
  5
C6
100
AcDbEntity
  8
レイヤー_1
 62
     7
100
AcDbCircle
 10
0.0
 20
-0.000172
 30
0.0
 40
1.166786
  0
CIRCLE
  5
C5
100
AcDbEntity
  8
レイヤー_1
 62
     7
100
AcDbCircle
 10
0.0
 20
0.000172
 30
0.0
 40
1.005645
  0
ENDBLK
  5
C7
100
AcDbEntity
  8
レイヤー_1
100
AcDbBlockEnd
  0
BLOCK
  5
CA
100
AcDbEntity
  8
レイヤー_1
 62
     7
100
AcDbBlockBegin
  2
AI9-BLK24
 70
     0
 10
0.0
 20
0.0
 30
0.0
  3
AI9-BLK24
  1

  0
CIRCLE
  5
CC
100
AcDbEntity
  8
レイヤー_1
 62
     7
100
AcDbCircle
 10
0.0
 20
-0.000345
 30
0.0
 40
1.166595
  0
CIRCLE
  5
CB
100
AcDbEntity
  8
レイヤー_1
 62
     7
100
AcDbCircle
 10
0.0
 20
-0.000345
 30
0.0
 40
1.005365
  0
ENDBLK
  5
CD
100
AcDbEntity
  8
レイヤー_1
100
AcDbBlockEnd
  0
BLOCK
  5
D0
100
AcDbEntity
  8
レイヤー_1
 62
     7
100
AcDbBlockBegin
  2
AI9-BLK25
 70
     0
 10
0.0
 20
0.0
 30
0.0
  3
AI9-BLK25
  1

  0
CIRCLE
  5
D2
100
AcDbEntity
  8
レイヤー_1
 62
     7
100
AcDbCircle
 10
0.0
 20
0.000172
 30
0.0
 40
1.166595
  0
CIRCLE
  5
D1
100
AcDbEntity
  8
レイヤー_1
 62
     7
100
AcDbCircle
 10
0.0
 20
0.000172
 30
0.0
 40
1.005365
  0
ENDBLK
  5
D3
100
AcDbEntity
  8
レイヤー_1
100
AcDbBlockEnd
  0
BLOCK
  5
D9
100
AcDbEntity
  8
レイヤー_1
 62
     7
100
AcDbBlockBegin
  2
AI9-BLK26
 70
     0
 10
0.0
 20
0.0
 30
0.0
  3
AI9-BLK26
  1

  0
SPLINE
  5
109
100
AcDbEntity
  8
レイヤー_1
 62
     7
100
AcDbSpline
210
0.0
220
0.0
230
1.0
 70
     8
 71
     3
 72
    29
 73
    25
 74
     0
 42
0.00000001
 43
0.00000001
 40
0.0
 40
0.0
 40
0.0
 40
0.0
 40
1.0
 40
1.0
 40
1.0
 40
2.0
 40
2.0
 40
2.0
 40
3.0
 40
3.0
 40
3.0
 40
4.0
 40
4.0
 40
4.0
 40
5.0
 40
5.0
 40
5.0
 40
6.0
 40
6.0
 40
6.0
 40
7.0
 40
7.0
 40
7.0
 40
8.0
 40
8.0
 40
8.0
 40
8.0
 10
-2.2671312120225693
 20
0.2676839192708333
 30
0.0
 10
-2.1920281304253471
 20
0.1932698567708333
 30
0.0
 10
-2.1548210991753471
 20
0.1009412977430556
 30
0.0
 10
-2.1548210991753471
 20
-0.0093017578125
 30
0.0
 10
-2.1548210991753471
 20
-0.1195448133680555
 30
0.0
 10
-2.1920281304253471
 20
-0.2118733723958333
 30
0.0
 10
-2.2671312120225693
 20
-0.2862874348958333
 30
0.0
 10
-2.3415452745225691
 20
-0.3607014973958333
 30
0.0
 10
-2.4352518717447915
 20
-0.3979085286458333
 30
0.0
 10
-2.5482510036892361
 20
-0.3979085286458333
 30
0.0
 10
-2.6640062120225694
 20
-0.3979085286458333
 30
0.0
 10
-2.7597798665364581
 20
-0.3607014973958333
 30
0.0
 10
-2.8341939290364579
 20
-0.2862874348958333
 30
0.0
 10
-2.9086079915364582
 20
-0.2118733723958333
 30
0.0
 10
-2.9458150227864581
 20
-0.1195448133680555
 30
0.0
 10
-2.9458150227864581
 20
-0.0093017578125
 30
0.0
 10
-2.9458150227864581
 20
0.1009412977430556
 30
0.0
 10
-2.9086079915364582
 20
0.1932698567708333
 30
0.0
 10
-2.8341939290364579
 20
0.2676839192708333
 30
0.0
 10
-2.7597798665364581
 20
0.3420979817708333
 30
0.0
 10
-2.6640062120225694
 20
0.3793050130208333
 30
0.0
 10
-2.5482510036892361
 20
0.3793050130208333
 30
0.0
 10
-2.4352518717447915
 20
0.3793050130208333
 30
0.0
 10
-2.3415452745225691
 20
0.3420979817708333
 30
0.0
 10
-2.2671312120225693
 20
0.2676839192708333
 30
0.0
  0
SPLINE
  5
108
100
AcDbEntity
  8
レイヤー_1
 62
     7
100
AcDbSpline
210
0.0
220
0.0
230
1.0
 70
     8
 71
     3
 72
    29
 73
    25
 74
     0
 42
0.00000001
 43
0.00000001
 40
0.0
 40
0.0
 40
0.0
 40
0.0
 40
1.0
 40
1.0
 40
1.0
 40
2.0
 40
2.0
 40
2.0
 40
3.0
 40
3.0
 40
3.0
 40
4.0
 40
4.0
 40
4.0
 40
5.0
 40
5.0
 40
5.0
 40
6.0
 40
6.0
 40
6.0
 40
7.0
 40
7.0
 40
7.0
 40
8.0
 40
8.0
 40
8.0
 40
8.0
 10
-2.5482510036892361
 20
0.2807752821180555
 30
0.0
 10
-2.6288662380642358
 20
0.2807752821180555
 30
0.0
 10
-2.6957010904947913
 20
0.2539035373263889
 30
0.0
 10
-2.7494445800781246
 20
0.2001600477430555
 30
0.0
 10
-2.7997429741753468
 20
0.1498616536458333
 30
0.0
 10
-2.8252366807725693
 20
0.0795817057291667
 30
0.0
 10
-2.8252366807725693
 20
-0.0093017578125
 30
0.0
 10
-2.8252366807725693
 20
-0.0988742404513889
 30
0.0
 10
-2.7997429741753468
 20
-0.1684651692708333
 30
0.0
 10
-2.7494445800781246
 20
-0.2194525824652778
 30
0.0
 10
-2.6957010904947913
 20
-0.2731960720486111
 30
0.0
 10
-2.6288662380642358
 20
-0.2993787977430555
 30
0.0
 10
-2.5482510036892361
 20
-0.2993787977430555
 30
0.0
 10
-2.4710808648003471
 20
-0.2993787977430555
 30
0.0
 10
-2.4049350314670135
 20
-0.2731960720486111
 30
0.0
 10
-2.3518805609809026
 20
-0.2194525824652778
 30
0.0
 10
-2.300893147786458
 20
-0.1684651692708333
 30
0.0
 10
-2.275399441189236
 20
-0.0988742404513889
 30
0.0
 10
-2.275399441189236
 20
-0.0093017578125
 30
0.0
 10
-2.275399441189236
 20
0.0795817057291667
 30
0.0
 10
-2.300893147786458
 20
0.1498616536458333
 30
0.0
 10
-2.3518805609809026
 20
0.2001600477430555
 30
0.0
 10
-2.4049350314670135
 20
0.2539035373263889
 30
0.0
 10
-2.4710808648003471
 20
0.2807752821180555
 30
0.0
 10
-2.5482510036892361
 20
0.2807752821180555
 30
0.0
  0
POLYLINE
  5
FA
100
AcDbEntity
  8
レイヤー_1
 62
     7
100
AcDb2dPolyline
 66
     1
 10
0.0
 20
0.0
 30
0.0
 70
     1
  0
VERTEX
  5
FB
100
AcDbEntity
  8
レイヤー_1
 62
     7
100
AcDbVertex
100
AcDb2dVertex
 10
-1.744166
 20
0.36897
 30
0.0
  0
VERTEX
  5
FC
100
AcDbEntity
  8
レイヤー_1
 62
     7
100
AcDbVertex
100
AcDb2dVertex
 10
-1.628411
 20
0.36897
 30
0.0
  0
VERTEX
  5
FD
100
AcDbEntity
  8
レイヤー_1
 62
     7
100
AcDbVertex
100
AcDb2dVertex
 10
-1.186233
 20
-0.238056
 30
0.0
  0
VERTEX
  5
FE
100
AcDbEntity
  8
レイヤー_1
 62
     7
100
AcDbVertex
100
AcDb2dVertex
 10
-1.177275
 20
-0.238056
 30
0.0
  0
VERTEX
  5
FF
100
AcDbEntity
  8
レイヤー_1
 62
     7
100
AcDbVertex
100
AcDb2dVertex
 10
-1.177275
 20
0.36897
 30
0.0
  0
VERTEX
  5
100
100
AcDbEntity
  8
レイヤー_1
 62
     7
100
AcDbVertex
100
AcDb2dVertex
 10
-1.074611
 20
0.36897
 30
0.0
  0
VERTEX
  5
101
100
AcDbEntity
  8
レイヤー_1
 62
     7
100
AcDbVertex
100
AcDb2dVertex
 10
-1.074611
 20
-0.394463
 30
0.0
  0
VERTEX
  5
102
100
AcDbEntity
  8
レイヤー_1
 62
     7
100
AcDbVertex
100
AcDb2dVertex
 10
-1.190367
 20
-0.394463
 30
0.0
  0
VERTEX
  5
103
100
AcDbEntity
  8
レイヤー_1
 62
     7
100
AcDbVertex
100
AcDb2dVertex
 10
-1.632545
 20
0.213251
 30
0.0
  0
VERTEX
  5
104
100
AcDbEntity
  8
レイヤー_1
 62
     7
100
AcDbVertex
100
AcDb2dVertex
 10
-1.641502
 20
0.213251
 30
0.0
  0
VERTEX
  5
105
100
AcDbEntity
  8
レイヤー_1
 62
     7
100
AcDbVertex
100
AcDb2dVertex
 10
-1.641502
 20
-0.394463
 30
0.0
  0
VERTEX
  5
106
100
AcDbEntity
  8
レイヤー_1
 62
     7
100
AcDbVertex
100
AcDb2dVertex
 10
-1.744166
 20
-0.394463
 30
0.0
  0
SEQEND
  5
107
100
AcDbEntity
  8
レイヤー_1
 62
     7
  0
POLYLINE
  5
F4
100
AcDbEntity
  8
レイヤー_1
 62
     7
100
AcDb2dPolyline
 66
     1
 10
0.0
 20
0.0
 30
0.0
 70
     1
  0
VERTEX
  5
F5
100
AcDbEntity
  8
レイヤー_1
 62
     7
100
AcDbVertex
100
AcDb2dVertex
 10
-0.816918
 20
-0.506774
 30
0.0
  0
VERTEX
  5
F6
100
AcDbEntity
  8
レイヤー_1
 62
     7
100
AcDbVertex
100
AcDb2dVertex
 10
-0.343562
 20
0.533645
 30
0.0
  0
VERTEX
  5
F7
100
AcDbEntity
  8
レイヤー_1
 62
     7
100
AcDbVertex
100
AcDb2dVertex
 10
-0.299465
 20
0.506774
 30
0.0
  0
VERTEX
  5
F8
100
AcDbEntity
  8
レイヤー_1
 62
     7
100
AcDbVertex
100
AcDb2dVertex
 10
-0.772821
 20
-0.533645
 30
0.0
  0
SEQEND
  5
F9
100
AcDbEntity
  8
レイヤー_1
 62
     7
  0
SPLINE
  5
F3
100
AcDbEntity
  8
レイヤー_1
 62
     7
100
AcDbSpline
210
0.0
220
0.0
230
1.0
 70
     8
 71
     3
 72
    29
 73
    25
 74
     0
 42
0.00000001
 43
0.00000001
 40
0.0
 40
0.0
 40
0.0
 40
0.0
 40
1.0
 40
1.0
 40
1.0
 40
2.0
 40
2.0
 40
2.0
 40
3.0
 40
3.0
 40
3.0
 40
4.0
 40
4.0
 40
4.0
 40
5.0
 40
5.0
 40
5.0
 40
6.0
 40
6.0
 40
6.0
 40
7.0
 40
7.0
 40
7.0
 40
8.0
 40
8.0
 40
8.0
 40
8.0
 10
0.5893697102864582
 20
0.2676839192708333
 30
0.0
 10
0.6637837727864583
 20
0.1932698567708333
 30
0.0
 10
0.7009908040364583
 20
0.1009412977430556
 30
0.0
 10
0.7009908040364583
 20
-0.0093017578125
 30
0.0
 10
0.7009908040364583
 20
-0.1195448133680555
 30
0.0
 10
0.6637837727864583
 20
-0.2118733723958333
 30
0.0
 10
0.5893697102864582
 20
-0.2862874348958333
 30
0.0
 10
0.5149556477864583
 20
-0.3607014973958333
 30
0.0
 10
0.4212490505642361
 20
-0.3979085286458333
 30
0.0
 10
0.3082499186197916
 20
-0.3979085286458333
 30
0.0
 10
0.1918056911892361
 20
-0.3979085286458333
 30
0.0
 10
0.0967210557725694
 20
-0.3607014973958333
 30
0.0
 10
0.0223069932725694
 20
-0.2862874348958333
 30
0.0
 10
-0.0521070692274306
 20
-0.2118733723958333
 30
0.0
 10
-0.0893141004774305
 20
-0.1195448133680555
 30
0.0
 10
-0.0893141004774305
 20
-0.0093017578125
 30
0.0
 10
-0.0893141004774305
 20
0.1009412977430556
 30
0.0
 10
-0.0521070692274306
 20
0.1932698567708333
 30
0.0
 10
0.0223069932725694
 20
0.2676839192708333
 30
0.0
 10
0.0967210557725694
 20
0.3420979817708333
 30
0.0
 10
0.1918056911892361
 20
0.3793050130208333
 30
0.0
 10
0.3082499186197916
 20
0.3793050130208333
 30
0.0
 10
0.4212490505642361
 20
0.3793050130208333
 30
0.0
 10
0.5149556477864583
 20
0.3420979817708333
 30
0.0
 10
0.5893697102864582
 20
0.2676839192708333
 30
0.0
  0
SPLINE
  5
F2
100
AcDbEntity
  8
レイヤー_1
 62
     7
100
AcDbSpline
210
0.0
220
0.0
230
1.0
 70
     8
 71
     3
 72
    29
 73
    25
 74
     0
 42
0.00000001
 43
0.00000001
 40
0.0
 40
0.0
 40
0.0
 40
0.0
 40
1.0
 40
1.0
 40
1.0
 40
2.0
 40
2.0
 40
2.0
 40
3.0
 40
3.0
 40
3.0
 40
4.0
 40
4.0
 40
4.0
 40
5.0
 40
5.0
 40
5.0
 40
6.0
 40
6.0
 40
6.0
 40
7.0
 40
7.0
 40
7.0
 40
8.0
 40
8.0
 40
8.0
 40
8.0
 10
0.3082499186197916
 20
0.2807752821180555
 30
0.0
 10
0.2276346842447916
 20
0.2807752821180555
 30
0.0
 10
0.1607998318142361
 20
0.2539035373263889
 30
0.0
 10
0.1070563422309028
 20
0.2001600477430555
 30
0.0
 10
0.0567579481336805
 20
0.1498616536458333
 30
0.0
 10
0.0312642415364583
 20
0.0795817057291667
 30
0.0
 10
0.0312642415364583
 20
-0.0093017578125
 30
0.0
 10
0.0312642415364583
 20
-0.0988742404513889
 30
0.0
 10
0.0567579481336805
 20
-0.1684651692708333
 30
0.0
 10
0.1070563422309028
 20
-0.2194525824652778
 30
0.0
 10
0.1607998318142361
 20
-0.2731960720486111
 30
0.0
 10
0.2276346842447916
 20
-0.2993787977430555
 30
0.0
 10
0.3082499186197916
 20
-0.2993787977430555
 30
0.0
 10
0.3854200575086805
 20
-0.2993787977430555
 30
0.0
 10
0.4508768717447916
 20
-0.2731960720486111
 30
0.0
 10
0.5046203613281249
 20
-0.2194525824652778
 30
0.0
 10
0.5549187554253472
 20
-0.1684651692708333
 30
0.0
 10
0.5804124620225694
 20
-0.0988742404513889
 30
0.0
 10
0.5804124620225694
 20
-0.0093017578125
 30
0.0
 10
0.5804124620225694
 20
0.0795817057291667
 30
0.0
 10
0.5549187554253472
 20
0.1498616536458333
 30
0.0
 10
0.5046203613281249
 20
0.2001600477430555
 30
0.0
 10
0.4508768717447916
 20
0.2539035373263889
 30
0.0
 10
0.3854200575086805
 20
0.2807752821180555
 30
0.0
 10
0.3082499186197916
 20
0.2807752821180555
 30
0.0
  0
POLYLINE
  5
E6
100
AcDbEntity
  8
レイヤー_1
 62
     7
100
AcDb2dPolyline
 66
     1
 10
0.0
 20
0.0
 30
0.0
 70
     1
  0
VERTEX
  5
E7
100
AcDbEntity
  8
レイヤー_1
 62
     7
100
AcDbVertex
100
AcDb2dVertex
 10
1.196396
 20
0.36897
 30
0.0
  0
VERTEX
  5
E8
100
AcDbEntity
  8
レイヤー_1
 62
     7
100
AcDbVertex
100
AcDb2dVertex
 10
1.803421
 20
0.36897
 30
0.0
  0
VERTEX
  5
E9
100
AcDbEntity
  8
レイヤー_1
 62
     7
100
AcDbVertex
100
AcDb2dVertex
 10
1.803421
 20
0.271129
 30
0.0
  0
VERTEX
  5
EA
100
AcDbEntity
  8
レイヤー_1
 62
     7
100
AcDbVertex
100
AcDb2dVertex
 10
1.299059
 20
0.271129
 30
0.0
  0
VERTEX
  5
EB
100
AcDbEntity
  8
レイヤー_1
 62
     7
100
AcDbVertex
100
AcDb2dVertex
 10
1.299059
 20
0.03893
 30
0.0
  0
VERTEX
  5
EC
100
AcDbEntity
  8
レイヤー_1
 62
     7
100
AcDbVertex
100
AcDb2dVertex
 10
1.669752
 20
0.03893
 30
0.0
  0
VERTEX
  5
ED
100
AcDbEntity
  8
レイヤー_1
 62
     7
100
AcDbVertex
100
AcDb2dVertex
 10
1.669752
 20
-0.0596
 30
0.0
  0
VERTEX
  5
EE
100
AcDbEntity
  8
レイヤー_1
 62
     7
100
AcDbVertex
100
AcDb2dVertex
 10
1.299059
 20
-0.0596
 30
0.0
  0
VERTEX
  5
EF
100
AcDbEntity
  8
レイヤー_1
 62
     7
100
AcDbVertex
100
AcDb2dVertex
 10
1.299059
 20
-0.394463
 30
0.0
  0
VERTEX
  5
F0
100
AcDbEntity
  8
レイヤー_1
 62
     7
100
AcDbVertex
100
AcDb2dVertex
 10
1.196396
 20
-0.394463
 30
0.0
  0
SEQEND
  5
F1
100
AcDbEntity
  8
レイヤー_1
 62
     7
  0
POLYLINE
  5
DA
100
AcDbEntity
  8
レイヤー_1
 62
     7
100
AcDb2dPolyline
 66
     1
 10
0.0
 20
0.0
 30
0.0
 70
     1
  0
VERTEX
  5
DB
100
AcDbEntity
  8
レイヤー_1
 62
     7
100
AcDbVertex
100
AcDb2dVertex
 10
2.338789
 20
0.36897
 30
0.0
  0
VERTEX
  5
DC
100
AcDbEntity
  8
レイヤー_1
 62
     7
100
AcDbVertex
100
AcDb2dVertex
 10
2.945815
 20
0.36897
 30
0.0
  0
VERTEX
  5
DD
100
AcDbEntity
  8
レイヤー_1
 62
     7
100
AcDbVertex
100
AcDb2dVertex
 10
2.945815
 20
0.271129
 30
0.0
  0
VERTEX
  5
DE
100
AcDbEntity
  8
レイヤー_1
 62
     7
100
AcDbVertex
100
AcDb2dVertex
 10
2.441453
 20
0.271129
 30
0.0
  0
VERTEX
  5
DF
100
AcDbEntity
  8
レイヤー_1
 62
     7
100
AcDbVertex
100
AcDb2dVertex
 10
2.441453
 20
0.03893
 30
0.0
  0
VERTEX
  5
E0
100
AcDbEntity
  8
レイヤー_1
 62
     7
100
AcDbVertex
100
AcDb2dVertex
 10
2.812145
 20
0.03893
 30
0.0
  0
VERTEX
  5
E1
100
AcDbEntity
  8
レイヤー_1
 62
     7
100
AcDbVertex
100
AcDb2dVertex
 10
2.812145
 20
-0.0596
 30
0.0
  0
VERTEX
  5
E2
100
AcDbEntity
  8
レイヤー_1
 62
     7
100
AcDbVertex
100
AcDb2dVertex
 10
2.441453
 20
-0.0596
 30
0.0
  0
VERTEX
  5
E3
100
AcDbEntity
  8
レイヤー_1
 62
     7
100
AcDbVertex
100
AcDb2dVertex
 10
2.441453
 20
-0.394463
 30
0.0
  0
VERTEX
  5
E4
100
AcDbEntity
  8
レイヤー_1
 62
     7
100
AcDbVertex
100
AcDb2dVertex
 10
2.338789
 20
-0.394463
 30
0.0
  0
SEQEND
  5
E5
100
AcDbEntity
  8
レイヤー_1
 62
     7
  0
ENDBLK
  5
10A
100
AcDbEntity
  8
レイヤー_1
100
AcDbBlockEnd
  0
BLOCK
  5
111
100
AcDbEntity
  8
レイヤー_1
 62
     7
100
AcDbBlockBegin
  2
AI9-BLK27
 70
     0
 10
0.0
 20
0.0
 30
0.0
  3
AI9-BLK27
  1

  0
MTEXT
  5
113
100
AcDbEntity
  8
レイヤー_1
 62
     7
100
AcDbMText
 10
-4.409722
 20
1.350149
 30
0.0
 40
2.624835
 41
0.0
 71
     1
 72
     2
  1
\fMS Gothic|b0|i0|c128;\H2.6248;\C7;\U+03A6
  7
STD
210
0.0
220
0.0
230
1.0
 73
     1
 44
1.0
  0
MTEXT
  5
112
100
AcDbEntity
  8
レイヤー_1
 62
     7
100
AcDbMText
 10
-0.881944
 20
1.350149
 30
0.0
 40
2.624835
 41
0.0
 71
     1
 72
     2
  1
\fMS Gothic|b0|i0|c128;\H2.6248;\C7;\U+0033\U+0035\U+0030
  7
STD
210
0.0
220
0.0
230
1.0
 73
     1
 44
1.0
  0
ENDBLK
  5
114
100
AcDbEntity
  8
レイヤー_1
100
AcDbBlockEnd
  0
BLOCK
  5
11D
100
AcDbEntity
  8
レイヤー_1
 62
     7
100
AcDbBlockBegin
  2
AI9-BLK28
 70
     0
 10
0.0
 20
0.0
 30
0.0
  3
AI9-BLK28
  1

  0
HATCH
  5
127
100
AcDbEntity
  8
レイヤー_1
 62
     7
100
AcDbHatch
 10
0.0
 20
0.0
 30
0.0
210
0.0
220
0.0
230
1.0
  2
SOLID
 70
     1
 71
     0
 91
        1
 92
        3
 72
     0
 73
     0
 93
        4
 10
-27.257423231336801
 20
84.544968668619788
 10
-27.810705566406249
 20
82.476877848307282
 10
-26.704140896267358
 20
82.476877848307282
 10
-27.257423231336801
 20
84.544968668619788
 97
        0
 75
     2
 76
     1
 98
        1
 10
0.0
 20
0.0
  0
HATCH
  5
126
100
AcDbEntity
  8
レイヤー_1
 62
     7
100
AcDbHatch
 10
0.0
 20
0.0
 30
0.0
210
0.0
220
0.0
230
1.0
  2
SOLID
 70
     1
 71
     0
 91
        1
 92
        3
 72
     0
 73
     0
 93
        4
 10
-27.257423231336801
 20
-84.521542019314225
 10
-26.704140896267358
 20
-82.453106689453122
 10
-27.810705566406249
 20
-82.453106689453122
 10
-27.257423231336801
 20
-84.521542019314225
 97
        0
 75
     2
 76
     1
 98
        1
 10
0.0
 20
0.0
  0
LINE
  5
125
100
AcDbEntity
  8
レイヤー_1
 62
     7
100
AcDbLine
 10
32.162895
 20
84.521542
 30
0.0
 11
-30.564026
 21
84.521542
 31
0.0
  0
LINE
  5
124
100
AcDbEntity
  8
レイヤー_1
 62
     7
100
AcDbLine
 10
9.023566
 20
-84.521542
 30
0.0
 11
-30.564026
 21
-84.521542
 31
0.0
  0
LINE
  5
123
100
AcDbEntity
  8
レイヤー_1
 62
     7
100
AcDbLine
 10
-27.257423
 20
-84.521542
 30
0.0
 11
-27.257423
 21
83.877998
 31
0.0
  0
INSERT
  5
11F
100
AcDbEntity
  8
レイヤー_1
 62
     7
100
AcDbBlockReference
  2
AI9-BLK29
 10
-30.405896
 20
3.305655
 30
0.0
  0
ENDBLK
  5
128
100
AcDbEntity
  8
レイヤー_1
100
AcDbBlockEnd
  0
BLOCK
  5
120
100
AcDbEntity
  8
レイヤー_1
 62
     7
100
AcDbBlockBegin
  2
AI9-BLK29
 70
     0
 10
0.0
 20
0.0
 30
0.0
  3
AI9-BLK29
  1

  0
MTEXT
  5
121
100
AcDbEntity
  8
レイヤー_1
 62
     7
100
AcDbMText
 10
-1.350149
 20
-4.409722
 30
0.0
 40
2.624835
 41
0.0
 71
     1
 72
     2
  1
\fMS Gothic|b0|i0|c128;\H2.6248;\C7;\U+0035\U+0030\U+0032\U+002E\U+0035
  7
STD
210
0.0
220
0.0
230
1.0
 11
0.0
 21
1.0
 31
0.0
 73
     1
 44
1.0
  0
ENDBLK
  5
122
100
AcDbEntity
  8
レイヤー_1
100
AcDbBlockEnd
  0
BLOCK
  5
12B
100
AcDbEntity
  8
レイヤー_1
 62
     7
100
AcDbBlockBegin
  2
AI9-BLK30
 70
     0
 10
0.0
 20
0.0
 30
0.0
  3
AI9-BLK30
  1

  0
POLYLINE
  5
12F
100
AcDbEntity
  8
レイヤー_1
 62
     7
100
AcDb2dPolyline
 66
     1
 10
0.0
 20
0.0
 30
0.0
 70
     1
  0
VERTEX
  5
130
100
AcDbEntity
  8
レイヤー_1
 62
     7
100
AcDbVertex
100
AcDb2dVertex
 10
0.36518
 20
-26.833504
 30
0.0
  0
VERTEX
  5
131
100
AcDbEntity
  8
レイヤー_1
 62
     7
100
AcDbVertex
100
AcDb2dVertex
 10
-0.368281
 20
-26.833504
 30
0.0
  0
VERTEX
  5
132
100
AcDbEntity
  8
レイヤー_1
 62
     7
100
AcDbVertex
100
AcDb2dVertex
 10
-0.368281
 20
26.833504
 30
0.0
  0
VERTEX
  5
133
100
AcDbEntity
  8
レイヤー_1
 62
     7
100
AcDbVertex
100
AcDb2dVertex
 10
0.36518
 20
26.833504
 30
0.0
  0
SEQEND
  5
134
100
AcDbEntity
  8
レイヤー_1
 62
     7
  0
SPLINE
  5
12E
100
AcDbEntity
  8
レイヤー_1
 62
     7
100
AcDbSpline
210
0.0
220
0.0
230
1.0
 70
     8
 71
     3
 72
    11
 73
     7
 74
     0
 42
0.00000001
 43
0.00000001
 40
0.0
 40
0.0
 40
0.0
 40
0.0
 40
1.0
 40
1.0
 40
1.0
 40
2.0
 40
2.0
 40
2.0
 40
2.0
 10
-7.1230794270833329
 20
26.833504231770831
 30
0.0
 10
-7.1041314019097213
 20
26.833504231770831
 30
0.0
 10
-7.0848388671874991
 20
26.833504231770831
 30
0.0
 10
-7.0652018229166664
 20
26.833504231770831
 30
0.0
 10
-5.654090711805555
 20
26.833504231770831
 30
0.0
 10
-0.3824055989583333
 20
26.833504231770831
 30
0.0
 10
-0.3824055989583333
 20
26.833504231770831
 30
0.0
  0
SPLINE
  5
12D
100
AcDbEntity
  8
レイヤー_1
 62
     7
100
AcDbSpline
210
0.0
220
0.0
230
1.0
 70
     8
 71
     3
 72
    32
 73
    28
 74
     0
 42
0.00000001
 43
0.00000001
 40
0.0
 40
0.0
 40
0.0
 40
0.0
 40
1.0
 40
1.0
 40
1.0
 40
2.0
 40
2.0
 40
2.0
 40
3.0
 40
3.0
 40
3.0
 40
4.0
 40
4.0
 40
4.0
 40
5.0
 40
5.0
 40
5.0
 40
6.0
 40
6.0
 40
6.0
 40
7.0
 40
7.0
 40
7.0
 40
8.0
 40
8.0
 40
8.0
 40
9.0
 40
9.0
 40
9.0
 40
9.0
 10
8.3219726562499989
 20
26.119335937499997
 30
0.0
 10
8.2747748480902779
 20
25.805487738715275
 30
0.0
 10
8.1634982638888882
 20
25.354180230034721
 30
0.0
 10
8.0291395399305543
 20
24.705124240451386
 30
0.0
 10
7.6877305772569438
 20
23.056646050347219
 30
0.0
 10
2.7626220703124997
 20
-0.8333685980902778
 30
0.0
 10
2.7626220703124997
 20
-0.8333685980902778
 30
0.0
 10
2.7626220703124997
 20
-0.8333685980902778
 30
0.0
 10
2.7626220703124997
 20
-17.204462348090278
 30
0.0
 10
2.7626220703124997
 20
-17.204462348090278
 30
0.0
 10
2.7626220703124997
 20
-17.204462348090278
 30
0.0
 10
0.3793050130208333
 20
-26.833504231770831
 30
0.0
 10
0.3793050130208333
 20
-26.833504231770831
 30
0.0
 10
0.3793050130208333
 20
-26.833504231770831
 30
0.0
 10
-0.3824055989583333
 20
-26.833504231770831
 30
0.0
 10
-0.3824055989583333
 20
-26.833504231770831
 30
0.0
 10
-0.3824055989583333
 20
-26.833504231770831
 30
0.0
 10
-2.7657226562499999
 20
-17.204462348090278
 30
0.0
 10
-2.7657226562499999
 20
-17.204462348090278
 30
0.0
 10
-2.7657226562499999
 20
-17.204462348090278
 30
0.0
 10
-2.7657226562499999
 20
-0.8333685980902778
 30
0.0
 10
-2.7657226562499999
 20
-0.8333685980902778
 30
0.0
 10
-2.7657226562499999
 20
-0.8333685980902778
 30
0.0
 10
-7.6908311631944439
 20
23.056646050347219
 30
0.0
 10
-8.0325846354166668
 20
24.705124240451386
 30
0.0
 10
-8.1641872829861111
 20
25.339710828993052
 30
0.0
 10
-8.2733968098958321
 20
25.785161675347219
 30
0.0
 10
-8.3223171657986104
 20
26.09797634548611
 30
0.0
  0
SPLINE
  5
12C
100
AcDbEntity
  8
レイヤー_1
 62
     7
100
AcDbSpline
210
0.0
220
0.0
230
1.0
 70
     8
 71
     3
 72
     8
 73
     4
 74
     0
 42
0.00000001
 43
0.00000001
 40
0.0
 40
0.0
 40
0.0
 40
0.0
 40
1.0
 40
1.0
 40
1.0
 40
1.0
 10
0.3793050130208333
 20
26.833504231770831
 30
0.0
 10
0.3793050130208333
 20
26.833504231770831
 30
0.0
 10
5.6509901258680548
 20
26.833504231770831
 30
0.0
 10
7.0621012369791663
 20
26.833504231770831
 30
0.0
  0
ENDBLK
  5
135
100
AcDbEntity
  8
レイヤー_1
100
AcDbBlockEnd
  0
BLOCK
  5
13E
100
AcDbEntity
  8
レイヤー_1
 62
     7
100
AcDbBlockBegin
  2
AI9-BLK31
 70
     0
 10
0.0
 20
0.0
 30
0.0
  3
AI9-BLK31
  1

  0
POLYLINE
  5
145
100
AcDbEntity
  8
レイヤー_1
 62
     7
100
AcDb2dPolyline
 66
     1
 10
0.0
 20
0.0
 30
0.0
  0
VERTEX
  5
146
100
AcDbEntity
  8
レイヤー_1
 62
     7
100
AcDbVertex
100
AcDb2dVertex
 10
-16.767969
 20
2.2636
 30
0.0
  0
VERTEX
  5
147
100
AcDbEntity
  8
レイヤー_1
 62
     7
100
AcDbVertex
100
AcDb2dVertex
 10
-15.559429
 20
-2.166104
 30
0.0
  0
VERTEX
  5
148
100
AcDbEntity
  8
レイヤー_1
 62
     7
100
AcDbVertex
100
AcDb2dVertex
 10
-7.542003
 20
-2.166104
 30
0.0
  0
VERTEX
  5
149
100
AcDbEntity
  8
レイヤー_1
 62
     7
100
AcDbVertex
100
AcDb2dVertex
 10
-5.052233
 20
2.190564
 30
0.0
  0
SEQEND
  5
14A
100
AcDbEntity
  8
レイヤー_1
 62
     7
  0
POLYLINE
  5
13F
100
AcDbEntity
  8
レイヤー_1
 62
     7
100
AcDb2dPolyline
 66
     1
 10
0.0
 20
0.0
 30
0.0
  0
VERTEX
  5
140
100
AcDbEntity
  8
レイヤー_1
 62
     7
100
AcDbVertex
100
AcDb2dVertex
 10
16.767969
 20
2.2636
 30
0.0
  0
VERTEX
  5
141
100
AcDbEntity
  8
レイヤー_1
 62
     7
100
AcDbVertex
100
AcDb2dVertex
 10
15.560118
 20
-2.166104
 30
0.0
  0
VERTEX
  5
142
100
AcDbEntity
  8
レイヤー_1
 62
     7
100
AcDbVertex
100
AcDb2dVertex
 10
7.542003
 20
-2.166104
 30
0.0
  0
VERTEX
  5
143
100
AcDbEntity
  8
レイヤー_1
 62
     7
100
AcDbVertex
100
AcDb2dVertex
 10
5.052577
 20
2.190564
 30
0.0
  0
SEQEND
  5
144
100
AcDbEntity
  8
レイヤー_1
 62
     7
  0
ENDBLK
  5
14B
100
AcDbEntity
  8
レイヤー_1
100
AcDbBlockEnd
  0
BLOCK
  5
14E
100
AcDbEntity
  8
レイヤー_1
 62
     7
100
AcDbBlockBegin
  2
AI9-BLK32
 70
     0
 10
0.0
 20
0.0
 30
0.0
  3
AI9-BLK32
  1

  0
MTEXT
  5
14F
100
AcDbEntity
  8
レイヤー_1
 62
     7
100
AcDbMText
 10
-1.350149
 20
-2.645833
 30
0.0
 40
2.624835
 41
0.0
 71
     1
 72
     2
  1
\fMS Gothic|b0|i0|c128;\H2.6248;\C7;\U+0031\U+0036\U+0031
  7
STD
210
0.0
220
0.0
230
1.0
 11
0.0
 21
1.0
 31
0.0
 73
     1
 44
1.0
  0
ENDBLK
  5
150
100
AcDbEntity
  8
レイヤー_1
100
AcDbBlockEnd
  0
BLOCK
  5
153
100
AcDbEntity
  8
レイヤー_1
 62
     7
100
AcDbBlockBegin
  2
AI9-BLK33
 70
     0
 10
0.0
 20
0.0
 30
0.0
  3
AI9-BLK33
  1

  0
MTEXT
  5
154
100
AcDbEntity
  8
レイヤー_1
 62
     7
100
AcDbMText
 10
-1.350149
 20
-3.527778
 30
0.0
 40
2.624835
 41
0.0
 71
     1
 72
     2
  1
\fMS Gothic|b0|i0|c128;\H2.6248;\C7;\U+0031\U+0032\U+002E\U+0035
  7
STD
210
0.0
220
0.0
230
1.0
 11
0.0
 21
1.0
 31
0.0
 73
     1
 44
1.0
  0
ENDBLK
  5
155
100
AcDbEntity
  8
レイヤー_1
100
AcDbBlockEnd
  0
BLOCK
  5
158
100
AcDbEntity
  8
レイヤー_1
 62
     7
100
AcDbBlockBegin
  2
AI9-BLK34
 70
     0
 10
0.0
 20
0.0
 30
0.0
  3
AI9-BLK34
  1

  0
MTEXT
  5
159
100
AcDbEntity
  8
レイヤー_1
 62
     7
100
AcDbMText
 10
-1.350149
 20
-2.645833
 30
0.0
 40
2.624835
 41
0.0
 71
     1
 72
     2
  1
\fMS Gothic|b0|i0|c128;\H2.6248;\C7;\U+0033\U+0033\U+0031
  7
STD
210
0.0
220
0.0
230
1.0
 11
0.0
 21
1.0
 31
0.0
 73
     1
 44
1.0
  0
ENDBLK
  5
15A
100
AcDbEntity
  8
レイヤー_1
100
AcDbBlockEnd
  0
BLOCK
  5
15D
100
AcDbEntity
  8
レイヤー_1
 62
     7
100
AcDbBlockBegin
  2
AI9-BLK35
 70
     0
 10
0.0
 20
0.0
 30
0.0
  3
AI9-BLK35
  1

  0
MTEXT
  5
15E
100
AcDbEntity
  8
レイヤー_1
 62
     7
100
AcDbMText
 10
-1.763889
 20
1.350149
 30
0.0
 40
2.624835
 41
0.0
 71
     1
 72
     2
  1
\fMS Gothic|b0|i0|c128;\H2.6248;\C7;\U+0035\U+0030
  7
STD
210
0.0
220
0.0
230
1.0
 73
     1
 44
1.0
  0
ENDBLK
  5
15F
100
AcDbEntity
  8
レイヤー_1
100
AcDbBlockEnd
  0
BLOCK
  5
162
100
AcDbEntity
  8
レイヤー_1
 62
     7
100
AcDbBlockBegin
  2
AI9-BLK36
 70
     0
 10
0.0
 20
0.0
 30
0.0
  3
AI9-BLK36
  1

  0
MTEXT
  5
163
100
AcDbEntity
  8
レイヤー_1
 62
     7
100
AcDbMText
 10
-1.350149
 20
-1.763889
 30
0.0
 40
2.624835
 41
0.0
 71
     1
 72
     2
  1
\fMS Gothic|b0|i0|c128;\H2.6248;\C7;\U+0033\U+0035
  7
STD
210
0.0
220
0.0
230
1.0
 11
0.0
 21
1.0
 31
0.0
 73
     1
 44
1.0
  0
ENDBLK
  5
164
100
AcDbEntity
  8
レイヤー_1
100
AcDbBlockEnd
  0
BLOCK
  5
170
100
AcDbEntity
  8
レイヤー_1
 62
     7
100
AcDbBlockBegin
  2
AI9-BLK37
 70
     0
 10
0.0
 20
0.0
 30
0.0
  3
AI9-BLK37
  1

  0
POLYLINE
  5
178
100
AcDbEntity
  8
レイヤー_1
 62
     7
100
AcDb2dPolyline
 66
     1
 10
0.0
 20
0.0
 30
0.0
 70
     1
  0
VERTEX
  5
179
100
AcDbEntity
  8
レイヤー_1
 62
     7
100
AcDbVertex
100
AcDb2dVertex
 10
5.666838
 20
21.000096
 30
0.0
  0
VERTEX
  5
17A
100
AcDbEntity
  8
レイヤー_1
 62
     7
100
AcDbVertex
100
AcDb2dVertex
 10
-5.666838
 20
21.000096
 30
0.0
  0
VERTEX
  5
17B
100
AcDbEntity
  8
レイヤー_1
 62
     7
100
AcDbVertex
100
AcDb2dVertex
 10
-5.666838
 20
32.666912
 30
0.0
  0
VERTEX
  5
17C
100
AcDbEntity
  8
レイヤー_1
 62
     7
100
AcDbVertex
100
AcDb2dVertex
 10
5.666838
 20
32.666912
 30
0.0
  0
SEQEND
  5
17D
100
AcDbEntity
  8
レイヤー_1
 62
     7
  0
POLYLINE
  5
172
100
AcDbEntity
  8
レイヤー_1
 62
     7
100
AcDb2dPolyline
 66
     1
 10
0.0
 20
0.0
 30
0.0
 70
     1
  0
VERTEX
  5
173
100
AcDbEntity
  8
レイヤー_1
 62
     7
100
AcDbVertex
100
AcDb2dVertex
 10
0.366903
 20
-32.666912
 30
0.0
  0
VERTEX
  5
174
100
AcDbEntity
  8
レイヤー_1
 62
     7
100
AcDbVertex
100
AcDb2dVertex
 10
-0.366214
 20
-32.666912
 30
0.0
  0
VERTEX
  5
175
100
AcDbEntity
  8
レイヤー_1
 62
     7
100
AcDbVertex
100
AcDb2dVertex
 10
-0.366214
 20
21.000096
 30
0.0
  0
VERTEX
  5
176
100
AcDbEntity
  8
レイヤー_1
 62
     7
100
AcDbVertex
100
AcDb2dVertex
 10
0.366903
 20
21.000096
 30
0.0
  0
SEQEND
  5
177
100
AcDbEntity
  8
レイヤー_1
 62
     7
  0
SPLINE
  5
171
100
AcDbEntity
  8
レイヤー_1
 62
     7
100
AcDbSpline
210
0.0
220
0.0
230
1.0
 70
     8
 71
     3
 72
    38
 73
    34
 74
     0
 42
0.00000001
 43
0.00000001
 40
0.0
 40
0.0
 40
0.0
 40
0.0
 40
1.0
 40
1.0
 40
1.0
 40
2.0
 40
2.0
 40
2.0
 40
3.0
 40
3.0
 40
3.0
 40
4.0
 40
4.0
 40
4.0
 40
5.0
 40
5.0
 40
5.0
 40
6.0
 40
6.0
 40
6.0
 40
7.0
 40
7.0
 40
7.0
 40
8.0
 40
8.0
 40
8.0
 40
9.0
 40
9.0
 40
9.0
 40
10.0
 40
10.0
 40
10.0
 40
11.0
 40
11.0
 40
11.0
 40
11.0
 10
0.3813720703125
 20
21.000096299913192
 30
0.0
 10
0.3813720703125
 20
21.000096299913192
 30
0.0
 10
5.6530571831597216
 20
21.000096299913192
 30
0.0
 10
7.064168294270833
 20
21.000096299913192
 30
0.0
 10
8.6702718098958318
 20
21.000096299913192
 30
0.0
 10
8.482169596354165
 20
21.050394694010414
 30
0.0
 10
8.0308620876736097
 20
18.871716308593747
 30
0.0
 10
7.6897976345486105
 20
17.223238118489583
 30
0.0
 10
2.7646891276041665
 20
-6.6667765299479163
 30
0.0
 10
2.7646891276041665
 20
-6.6667765299479163
 30
0.0
 10
2.7646891276041665
 20
-6.6667765299479163
 30
0.0
 10
2.7646891276041665
 20
-23.037870279947914
 30
0.0
 10
2.7646891276041665
 20
-23.037870279947914
 30
0.0
 10
2.7646891276041665
 20
-23.037870279947914
 30
0.0
 10
0.3813720703125
 20
-32.666912163628467
 30
0.0
 10
0.3813720703125
 20
-32.666912163628467
 30
0.0
 10
0.3813720703125
 20
-32.666912163628467
 30
0.0
 10
-0.3806830512152777
 20
-32.666912163628467
 30
0.0
 10
-0.3806830512152777
 20
-32.666912163628467
 30
0.0
 10
-0.3806830512152777
 20
-32.666912163628467
 30
0.0
 10
-2.7640001085069441
 20
-23.037870279947914
 30
0.0
 10
-2.7640001085069441
 20
-23.037870279947914
 30
0.0
 10
-2.7640001085069441
 20
-23.037870279947914
 30
0.0
 10
-2.7640001085069441
 20
-6.6667765299479163
 30
0.0
 10
-2.7640001085069441
 20
-6.6667765299479163
 30
0.0
 10
-2.7640001085069441
 20
-6.6667765299479163
 30
0.0
 10
-7.6891086154513886
 20
17.223238118489583
 30
0.0
 10
-8.0308620876736097
 20
18.871716308593747
 30
0.0
 10
-8.482169596354165
 20
21.050394694010414
 30
0.0
 10
-8.6702718098958318
 20
21.000096299913192
 30
0.0
 10
-7.0634792751736102
 20
21.000096299913192
 30
0.0
 10
-5.6523681640624996
 20
21.000096299913192
 30
0.0
 10
-0.3806830512152777
 20
21.000096299913192
 30
0.0
 10
-0.3806830512152777
 20
21.000096299913192
 30
0.0
  0
ENDBLK
  5
17E
100
AcDbEntity
  8
レイヤー_1
100
AcDbBlockEnd
  0
BLOCK
  5
187
100
AcDbEntity
  8
レイヤー_1
 62
     7
100
AcDbBlockBegin
  2
AI9-BLK38
 70
     0
 10
0.0
 20
0.0
 30
0.0
  3
AI9-BLK38
  1

  0
POLYLINE
  5
18E
100
AcDbEntity
  8
レイヤー_1
 62
     7
100
AcDb2dPolyline
 66
     1
 10
0.0
 20
0.0
 30
0.0
  0
VERTEX
  5
18F
100
AcDbEntity
  8
レイヤー_1
 62
     7
100
AcDbVertex
100
AcDb2dVertex
 10
-16.767969
 20
2.2636
 30
0.0
  0
VERTEX
  5
190
100
AcDbEntity
  8
レイヤー_1
 62
     7
100
AcDbVertex
100
AcDb2dVertex
 10
-15.559774
 20
-2.166104
 30
0.0
  0
VERTEX
  5
191
100
AcDbEntity
  8
レイヤー_1
 62
     7
100
AcDbVertex
100
AcDb2dVertex
 10
-7.542003
 20
-2.166104
 30
0.0
  0
VERTEX
  5
192
100
AcDbEntity
  8
レイヤー_1
 62
     7
100
AcDbVertex
100
AcDb2dVertex
 10
-5.052405
 20
2.190564
 30
0.0
  0
SEQEND
  5
193
100
AcDbEntity
  8
レイヤー_1
 62
     7
  0
POLYLINE
  5
188
100
AcDbEntity
  8
レイヤー_1
 62
     7
100
AcDb2dPolyline
 66
     1
 10
0.0
 20
0.0
 30
0.0
  0
VERTEX
  5
189
100
AcDbEntity
  8
レイヤー_1
 62
     7
100
AcDbVertex
100
AcDb2dVertex
 10
16.767969
 20
2.2636
 30
0.0
  0
VERTEX
  5
18A
100
AcDbEntity
  8
レイヤー_1
 62
     7
100
AcDbVertex
100
AcDb2dVertex
 10
15.559946
 20
-2.166104
 30
0.0
  0
VERTEX
  5
18B
100
AcDbEntity
  8
レイヤー_1
 62
     7
100
AcDbVertex
100
AcDb2dVertex
 10
7.542003
 20
-2.166104
 30
0.0
  0
VERTEX
  5
18C
100
AcDbEntity
  8
レイヤー_1
 62
     7
100
AcDbVertex
100
AcDb2dVertex
 10
5.052405
 20
2.190564
 30
0.0
  0
SEQEND
  5
18D
100
AcDbEntity
  8
レイヤー_1
 62
     7
  0
ENDBLK
  5
194
100
AcDbEntity
  8
レイヤー_1
100
AcDbBlockEnd
  0
BLOCK
  5
1A7
100
AcDbEntity
  8
レイヤー_1
 62
     7
100
AcDbBlockBegin
  2
AI9-BLK39
 70
     0
 10
0.0
 20
0.0
 30
0.0
  3
AI9-BLK39
  1

  0
HATCH
  5
1B0
100
AcDbEntity
  8
レイヤー_1
 62
     7
100
AcDbHatch
 10
0.0
 20
0.0
 30
0.0
210
0.0
220
0.0
230
1.0
  2
SOLID
 70
     1
 71
     0
 91
        3
 92
        1
 93
        1
 72
     4
 94
        3
 73
     0
 74
     0
 95
       17
 96
       13
 40
0.0
 40
0.0
 40
0.0
 40
0.0
 40
1.0
 40
1.0
 40
1.0
 40
2.0
 40
2.0
 40
2.0
 40
3.0
 40
3.0
 40
3.0
 40
4.0
 40
4.0
 40
4.0
 40
4.0
 10
-22.279087999131942
 20
0.6590467664930555
 10
-22.189515516493053
 20
0.7892713758680555
 10
-22.08271755642361
 20
0.9794406467013888
 10
-21.981431749131943
 20
1.2226643880208332
 10
-21.981431749131943
 20
1.2226643880208332
 10
-21.418503146701386
 20
1.2226643880208332
 10
-21.418503146701386
 20
1.2226643880208332
 10
-21.418503146701386
 20
1.2226643880208332
 10
-21.418503146701386
 20
0.6590467664930555
 10
-21.418503146701386
 20
0.6590467664930555
 10
-21.418503146701386
 20
0.6590467664930555
 10
-22.279087999131942
 20
0.6590467664930555
 10
-22.279087999131942
 20
0.6590467664930555
 97
        0
 92
       16
 93
        1
 72
     4
 94
        3
 73
     0
 74
     0
 95
      128
 96
      124
 40
0.0
 40
0.0
 40
0.0
 40
0.0
 40
1.0
 40
1.0
 40
1.0
 40
2.0
 40
2.0
 40
2.0
 40
3.0
 40
3.0
 40
3.0
 40
4.0
 40
4.0
 40
4.0
 40
5.0
 40
5.0
 40
5.0
 40
6.0
 40
6.0
 40
6.0
 40
7.0
 40
7.0
 40
7.0
 40
8.0
 40
8.0
 40
8.0
 40
9.0
 40
9.0
 40
9.0
 40
10.0
 40
10.0
 40
10.0
 40
11.0
 40
11.0
 40
11.0
 40
12.0
 40
12.0
 40
12.0
 40
13.0
 40
13.0
 40
13.0
 40
14.0
 40
14.0
 40
14.0
 40
15.0
 40
15.0
 40
15.0
 40
16.0
 40
16.0
 40
16.0
 40
17.0
 40
17.0
 40
17.0
 40
18.0
 40
18.0
 40
18.0
 40
19.0
 40
19.0
 40
19.0
 40
20.0
 40
20.0
 40
20.0
 40
21.0
 40
21.0
 40
21.0
 40
22.0
 40
22.0
 40
22.0
 40
23.0
 40
23.0
 40
23.0
 40
24.0
 40
24.0
 40
24.0
 40
25.0
 40
25.0
 40
25.0
 40
26.0
 40
26.0
 40
26.0
 40
27.0
 40
27.0
 40
27.0
 40
28.0
 40
28.0
 40
28.0
 40
29.0
 40
29.0
 40
29.0
 40
30.0
 40
30.0
 40
30.0
 40
31.0
 40
31.0
 40
31.0
 40
32.0
 40
32.0
 40
32.0
 40
33.0
 40
33.0
 40
33.0
 40
34.0
 40
34.0
 40
34.0
 40
35.0
 40
35.0
 40
35.0
 40
36.0
 40
36.0
 40
36.0
 40
37.0
 40
37.0
 40
37.0
 40
38.0
 40
38.0
 40
38.0
 40
39.0
 40
39.0
 40
39.0
 40
40.0
 40
40.0
 40
40.0
 40
41.0
 40
41.0
 40
41.0
 40
41.0
 10
-21.727183702256941
 20
2.0653347439236107
 10
-21.666550021701386
 20
2.3326741536458333
 10
-21.637611219618055
 20
2.4801242404513886
 10
-21.607983398437497
 20
2.6296413845486111
 10
-21.607983398437497
 20
2.6296413845486111
 10
-22.409312608506941
 20
2.7006103515624997
 10
-22.409312608506941
 20
2.7006103515624997
 10
-22.491994900173609
 20
2.0887613932291664
 10
-22.676652018229163
 20
1.6794840494791665
 10
-22.788962131076389
 20
1.4651991102430555
 10
-22.788962131076389
 20
1.4651991102430555
 10
-22.788962131076389
 20
1.8338243272569443
 10
-22.788962131076389
 20
1.8338243272569443
 10
-22.788962131076389
 20
1.8338243272569443
 10
-23.353268771701387
 20
1.8338243272569443
 10
-23.353268771701387
 20
1.8338243272569443
 10
-23.353268771701387
 20
1.8338243272569443
 10
-23.353268771701387
 20
2.8129204644097219
 10
-23.353268771701387
 20
2.8129204644097219
 10
-23.353268771701387
 20
2.8129204644097219
 10
-24.171823459201388
 20
2.8129204644097219
 10
-24.171823459201388
 20
2.8129204644097219
 10
-24.171823459201388
 20
2.8129204644097219
 10
-24.171823459201388
 20
1.8338243272569443
 10
-24.171823459201388
 20
1.8338243272569443
 10
-24.171823459201388
 20
1.8338243272569443
 10
-24.896671549479166
 20
1.8338243272569443
 10
-24.896671549479166
 20
1.8338243272569443
 10
-24.896671549479166
 20
1.8338243272569443
 10
-24.896671549479166
 20
1.0145806206597221
 10
-24.896671549479166
 20
1.0145806206597221
 10
-24.896671549479166
 20
1.0145806206597221
 10
-24.237280273437499
 20
1.0145806206597221
 10
-24.237280273437499
 20
1.0145806206597221
 10
-24.504619683159721
 20
0.0830268012152778
 10
-24.765757921006941
 20
-0.3083360460069444
 10
-25.008981662326388
 20
-0.6115044487847222
 10
-25.008981662326388
 20
-0.6115044487847222
 10
-24.729928927951388
 20
-1.780080837673611
 10
-24.729928927951388
 20
-1.780080837673611
 10
-24.587301974826385
 20
-1.5733751085069443
 10
-24.36819390190972
 20
-1.2350667317708333
 10
-24.171823459201388
 20
-0.5584499782986111
 10
-24.171823459201388
 20
-0.5584499782986111
 10
-24.171823459201388
 20
-2.8080973307291663
 10
-24.171823459201388
 20
-2.8080973307291663
 10
-24.171823459201388
 20
-2.8080973307291663
 10
-23.353268771701387
 20
-2.8080973307291663
 10
-23.353268771701387
 20
-2.8080973307291663
 10
-23.353268771701387
 20
-2.8080973307291663
 10
-23.353268771701387
 20
-0.3324517144097222
 10
-23.353268771701387
 20
-0.3324517144097222
 10
-23.294013129340275
 20
-0.5749864366319444
 10
-23.263696289062498
 20
-0.7003879123263889
 10
-23.014960394965275
 20
-1.1634087456597222
 10
-23.014960394965275
 20
-1.1634087456597222
 10
-22.503708224826386
 20
-0.4867919921875
 10
-22.503708224826386
 20
-0.4867919921875
 10
-22.593280707465276
 20
-0.4041097005208333
 10
-22.658048502604164
 20
-0.3379638671875
 10
-22.777248806423611
 20
-0.1905137803819444
 10
-22.777248806423611
 20
-0.1905137803819444
 10
-21.727183702256941
 20
-0.1905137803819444
 10
-21.727183702256941
 20
-0.1905137803819444
 10
-22.212942165798609
 20
-1.0752143012152777
 10
-22.818589952256943
 20
-1.4844916449652776
 10
-23.062502712673609
 20
-1.6388319227430554
 10
-23.062502712673609
 20
-1.6388319227430554
 10
-22.540226236979166
 20
-2.475301106770833
 10
-22.540226236979166
 20
-2.475301106770833
 10
-22.065492078993053
 20
-2.0419080946180554
 10
-21.690665690104165
 20
-1.5375461154513888
 10
-21.418503146701386
 20
-0.9498128255208332
 10
-21.418503146701386
 20
-0.9498128255208332
 10
-21.418503146701386
 20
-2.8080973307291663
 10
-21.418503146701386
 20
-2.8080973307291663
 10
-21.418503146701386
 20
-2.8080973307291663
 10
-20.569631618923609
 20
-2.8080973307291663
 10
-20.569631618923609
 20
-2.8080973307291663
 10
-20.569631618923609
 20
-2.8080973307291663
 10
-20.569631618923609
 20
-1.085549587673611
 10
-20.569631618923609
 20
-1.085549587673611
 10
-20.320206705729166
 20
-1.6140272352430554
 10
-19.981209309895831
 20
-2.1018527560763887
 10
-19.5181884765625
 20
-2.4642768012152776
 10
-19.5181884765625
 20
-2.4642768012152776
 10
-19.168855794270833
 20
-1.4603759765625
 10
-19.168855794270833
 20
-1.4603759765625
 10
-19.429994032118053
 20
-1.2826090494791667
 10
-19.893014865451388
 20
-0.9498128255208332
 10
-20.325718858506942
 20
-0.1905137803819444
 10
-20.325718858506942
 20
-0.1905137803819444
 10
-19.275653754340276
 20
-0.1905137803819444
 10
-19.275653754340276
 20
-0.1905137803819444
 10
-19.275653754340276
 20
-0.1905137803819444
 10
-19.275653754340276
 20
0.6590467664930555
 10
-19.275653754340276
 20
0.6590467664930555
 10
-19.275653754340276
 20
0.6590467664930555
 10
-20.569631618923609
 20
0.6590467664930555
 10
-20.569631618923609
 20
0.6590467664930555
 10
-20.569631618923609
 20
0.6590467664930555
 10
-20.569631618923609
 20
1.2226643880208332
 10
-20.569631618923609
 20
1.2226643880208332
 10
-20.569631618923609
 20
1.2226643880208332
 10
-19.364537217881942
 20
1.2226643880208332
 10
-19.364537217881942
 20
1.2226643880208332
 10
-19.364537217881942
 20
1.2226643880208332
 10
-19.364537217881942
 20
2.0653347439236107
 10
-19.364537217881942
 20
2.0653347439236107
 10
-19.364537217881942
 20
2.0653347439236107
 10
-20.569631618923609
 20
2.0653347439236107
 10
-20.569631618923609
 20
2.0653347439236107
 10
-20.569631618923609
 20
2.0653347439236107
 10
-20.569631618923609
 20
2.8129204644097219
 10
-20.569631618923609
 20
2.8129204644097219
 10
-20.569631618923609
 20
2.8129204644097219
 10
-21.418503146701386
 20
2.8129204644097219
 10
-21.418503146701386
 20
2.8129204644097219
 10
-21.418503146701386
 20
2.8129204644097219
 10
-21.418503146701386
 20
2.0653347439236107
 10
-21.418503146701386
 20
2.0653347439236107
 10
-21.418503146701386
 20
2.0653347439236107
 10
-21.727183702256941
 20
2.0653347439236107
 10
-21.727183702256941
 20
2.0653347439236107
 97
        0
 92
        1
 93
        1
 72
     4
 94
        3
 73
     0
 74
     0
 95
       23
 96
       19
 40
0.0
 40
0.0
 40
0.0
 40
0.0
 40
1.0
 40
1.0
 40
1.0
 40
2.0
 40
2.0
 40
2.0
 40
3.0
 40
3.0
 40
3.0
 40
4.0
 40
4.0
 40
4.0
 40
5.0
 40
5.0
 40
5.0
 40
6.0
 40
6.0
 40
6.0
 40
6.0
 10
-22.788962131076389
 20
0.6590467664930555
 10
-22.788962131076389
 20
0.6590467664930555
 10
-22.788962131076389
 20
-0.1663981119791667
 10
-22.788962131076389
 20
-0.1663981119791667
 10
-22.889558919270833
 20
-0.0361735026041667
 10
-23.19892849392361
 20
0.3737928602430555
 10
-23.353268771701387
 20
0.7534423828125
 10
-23.353268771701387
 20
0.7534423828125
 10
-23.353268771701387
 20
1.0145806206597221
 10
-23.353268771701387
 20
1.0145806206597221
 10
-23.353268771701387
 20
1.0145806206597221
 10
-22.807565646701388
 20
1.0145806206597221
 10
-22.807565646701388
 20
1.0145806206597221
 10
-22.807565646701388
 20
1.0145806206597221
 10
-22.350056966145832
 20
0.6590467664930555
 10
-22.350056966145832
 20
0.6590467664930555
 10
-22.350056966145832
 20
0.6590467664930555
 10
-22.788962131076389
 20
0.6590467664930555
 10
-22.788962131076389
 20
0.6590467664930555
 97
        0
 75
     2
 76
     1
 98
        1
 10
0.0
 20
0.0
  0
HATCH
  5
1AF
100
AcDbEntity
  8
レイヤー_1
 62
     7
100
AcDbHatch
 10
0.0
 20
0.0
 30
0.0
210
0.0
220
0.0
230
1.0
  2
SOLID
 70
     1
 71
     0
 91
        2
 92
        1
 93
        1
 72
     4
 94
        3
 73
     0
 74
     0
 95
       44
 96
       40
 40
0.0
 40
0.0
 40
0.0
 40
0.0
 40
1.0
 40
1.0
 40
1.0
 40
2.0
 40
2.0
 40
2.0
 40
3.0
 40
3.0
 40
3.0
 40
4.0
 40
4.0
 40
4.0
 40
5.0
 40
5.0
 40
5.0
 40
6.0
 40
6.0
 40
6.0
 40
7.0
 40
7.0
 40
7.0
 40
8.0
 40
8.0
 40
8.0
 40
9.0
 40
9.0
 40
9.0
 40
10.0
 40
10.0
 40
10.0
 40
11.0
 40
11.0
 40
11.0
 40
12.0
 40
12.0
 40
12.0
 40
13.0
 40
13.0
 40
13.0
 40
13.0
 10
-18.995912000868053
 20
-1.7456298828124999
 10
-18.883601888020831
 20
-1.7394287109374997
 10
-18.824346245659722
 20
-1.7394287109374997
 10
-18.74717610677083
 20
-1.7332275390624998
 10
-18.622463650173611
 20
-1.7270263671874999
 10
-18.023017035590275
 20
-1.6739718967013888
 10
-17.885902235243055
 20
-1.6677707248263887
 10
-17.885902235243055
 20
-1.6677707248263887
 10
-17.885902235243055
 20
-0.2380560980902778
 10
-17.885902235243055
 20
-0.2380560980902778
 10
-17.885902235243055
 20
-0.2380560980902778
 10
-18.830547417534721
 20
-0.2380560980902778
 10
-18.830547417534721
 20
-0.2380560980902778
 10
-18.830547417534721
 20
-0.2380560980902778
 10
-18.830547417534721
 20
0.6225287543402778
 10
-18.830547417534721
 20
0.6225287543402778
 10
-18.830547417534721
 20
0.6225287543402778
 10
-16.052422417534721
 20
0.6225287543402778
 10
-16.052422417534721
 20
0.6225287543402778
 10
-16.052422417534721
 20
0.6225287543402778
 10
-16.052422417534721
 20
-0.2380560980902778
 10
-16.052422417534721
 20
-0.2380560980902778
 10
-16.052422417534721
 20
-0.2380560980902778
 10
-16.978464084201388
 20
-0.2380560980902778
 10
-16.978464084201388
 20
-0.2380560980902778
 10
-16.978464084201388
 20
-0.2380560980902778
 10
-16.978464084201388
 20
-1.5906005859374999
 10
-16.978464084201388
 20
-1.5906005859374999
 10
-16.308048502604166
 20
-1.5258327907986109
 10
-16.064135742187499
 20
-1.4782904730902777
 10
-15.84433865017361
 20
-1.4369493272569442
 10
-15.84433865017361
 20
-1.4369493272569442
 10
-15.833314344618055
 20
-2.279619683159722
 10
-15.833314344618055
 20
-2.279619683159722
 10
-16.509242078993054
 20
-2.4222466362847221
 10
-16.883379448784719
 20
-2.4642768012152776
 10
-18.895315212673609
 20
-2.677183702256944
 10
-18.895315212673609
 20
-2.677183702256944
 10
-18.995912000868053
 20
-1.7456298828124999
 10
-18.995912000868053
 20
-1.7456298828124999
 97
        0
 92
        1
 93
        1
 72
     4
 94
        3
 73
     0
 74
     0
 95
       71
 96
       67
 40
0.0
 40
0.0
 40
0.0
 40
0.0
 40
1.0
 40
1.0
 40
1.0
 40
2.0
 40
2.0
 40
2.0
 40
3.0
 40
3.0
 40
3.0
 40
4.0
 40
4.0
 40
4.0
 40
5.0
 40
5.0
 40
5.0
 40
6.0
 40
6.0
 40
6.0
 40
7.0
 40
7.0
 40
7.0
 40
8.0
 40
8.0
 40
8.0
 40
9.0
 40
9.0
 40
9.0
 40
10.0
 40
10.0
 40
10.0
 40
11.0
 40
11.0
 40
11.0
 40
12.0
 40
12.0
 40
12.0
 40
13.0
 40
13.0
 40
13.0
 40
14.0
 40
14.0
 40
14.0
 40
15.0
 40
15.0
 40
15.0
 40
16.0
 40
16.0
 40
16.0
 40
17.0
 40
17.0
 40
17.0
 40
18.0
 40
18.0
 40
18.0
 40
19.0
 40
19.0
 40
19.0
 40
20.0
 40
20.0
 40
20.0
 40
21.0
 40
21.0
 40
21.0
 40
22.0
 40
22.0
 40
22.0
 40
22.0
 10
-13.90337185329861
 20
2.000566948784722
 10
-13.90337185329861
 20
2.000566948784722
 10
-13.345955403645831
 20
2.000566948784722
 10
-13.345955403645831
 20
2.000566948784722
 10
-13.345955403645831
 20
2.000566948784722
 10
-13.345955403645831
 20
1.1392930772569443
 10
-13.345955403645831
 20
1.1392930772569443
 10
-13.345955403645831
 20
1.1392930772569443
 10
-14.996156141493055
 20
1.1392930772569443
 10
-14.996156141493055
 20
1.1392930772569443
 10
-14.959638129340277
 20
0.3910183376736111
 10
-14.876955837673609
 20
-0.3565673828124999
 10
-14.639933268229166
 20
-1.0683241102430554
 10
-14.579988606770833
 20
-1.2460910373263887
 10
-14.420825195312499
 20
-1.6677707248263887
 10
-14.247881401909721
 20
-1.6677707248263887
 10
-14.081827799479166
 20
-1.6677707248263887
 10
-13.762122938368055
 20
-1.2584933810763888
 10
-13.62431911892361
 20
-0.8609293619791666
 10
-13.62431911892361
 20
-0.8609293619791666
 10
-13.244669596354166
 20
-1.8103976779513886
 10
-13.244669596354166
 20
-1.8103976779513886
 10
-13.369382052951387
 20
-2.1549072265625
 10
-13.672550455729166
 20
-2.8191216362847218
 10
-14.223765733506943
 20
-2.8191216362847218
 10
-14.502818467881943
 20
-2.8191216362847218
 10
-14.788072374131943
 20
-2.6654703776041666
 10
-14.94861382378472
 20
-2.4863254123263885
 10
-15.809198676215276
 20
-1.5375461154513888
 10
-15.868454318576388
 20
0.1843126085069444
 10
-15.90359429253472
 20
1.1392930772569443
 10
-15.90359429253472
 20
1.1392930772569443
 10
-18.942857530381943
 20
1.1392930772569443
 10
-18.942857530381943
 20
1.1392930772569443
 10
-18.942857530381943
 20
1.1392930772569443
 10
-18.942857530381943
 20
2.000566948784722
 10
-18.942857530381943
 20
2.000566948784722
 10
-18.942857530381943
 20
2.000566948784722
 10
-15.933222113715276
 20
2.000566948784722
 10
-15.933222113715276
 20
2.000566948784722
 10
-15.939423285590276
 20
2.0887613932291664
 10
-15.951136610243054
 20
2.5228434244791664
 10
-15.957337782118055
 20
2.6172390407986108
 10
-15.957337782118055
 20
2.6709825303819441
 10
-15.957337782118055
 20
2.7178358289930551
 10
-15.963538953993053
 20
2.8246337890624997
 10
-15.963538953993053
 20
2.8246337890624997
 10
-15.01338161892361
 20
2.8246337890624997
 10
-15.01338161892361
 20
2.8246337890624997
 10
-15.01958279079861
 20
2.356789822048611
 10
-15.01958279079861
 20
2.2196750217013888
 10
-15.01338161892361
 20
2.000566948784722
 10
-15.01338161892361
 20
2.000566948784722
 10
-14.431849500868054
 20
2.000566948784722
 10
-14.431849500868054
 20
2.000566948784722
 10
-14.586189778645831
 20
2.2258761935763887
 10
-14.717103407118055
 20
2.4160454644097218
 10
-14.865242513020831
 20
2.5517822265624996
 10
-14.865242513020831
 20
2.5517822265624996
 10
-14.099053276909721
 20
2.8611518012152777
 10
-14.099053276909721
 20
2.8611518012152777
 10
-14.010858832465276
 20
2.7950059678819441
 10
-13.933688693576388
 20
2.7412624782986108
 10
-13.523033311631943
 20
2.1666205512152774
 10
-13.523033311631943
 20
2.1666205512152774
 10
-13.90337185329861
 20
2.000566948784722
 10
-13.90337185329861
 20
2.000566948784722
 97
        0
 75
     2
 76
     1
 98
        1
 10
0.0
 20
0.0
  0
HATCH
  5
1AE
100
AcDbEntity
  8
レイヤー_1
 62
     7
100
AcDbHatch
 10
0.0
 20
0.0
 30
0.0
210
0.0
220
0.0
230
1.0
  2
SOLID
 70
     1
 71
     0
 91
        4
 92
        1
 93
        1
 72
     4
 94
        3
 73
     0
 74
     0
 95
       14
 96
       10
 40
0.0
 40
0.0
 40
0.0
 40
0.0
 40
1.0
 40
1.0
 40
1.0
 40
2.0
 40
2.0
 40
2.0
 40
3.0
 40
3.0
 40
3.0
 40
3.0
 10
-11.114222547743054
 20
1.3053466796875
 10
-10.550604926215277
 20
1.7332275390624998
 10
-10.348033311631944
 20
1.9585367838541665
 10
-10.199205186631943
 20
2.1418158637152778
 10
-10.022127278645833
 20
1.9468234592013887
 10
-9.7906168619791654
 20
1.6973985460069443
 10
-9.2738525390624993
 20
1.3053466796875
 10
-9.2738525390624993
 20
1.3053466796875
 10
-11.114222547743054
 20
1.3053466796875
 10
-11.114222547743054
 20
1.3053466796875
 97
        0
 92
       16
 93
        1
 72
     4
 94
        3
 73
     0
 74
     0
 95
       35
 96
       31
 40
0.0
 40
0.0
 40
0.0
 40
0.0
 40
1.0
 40
1.0
 40
1.0
 40
2.0
 40
2.0
 40
2.0
 40
3.0
 40
3.0
 40
3.0
 40
4.0
 40
4.0
 40
4.0
 40
5.0
 40
5.0
 40
5.0
 40
6.0
 40
6.0
 40
6.0
 40
7.0
 40
7.0
 40
7.0
 40
8.0
 40
8.0
 40
8.0
 40
9.0
 40
9.0
 40
9.0
 40
10.0
 40
10.0
 40
10.0
 40
10.0
 10
-11.784638129340276
 20
0.5109076605902777
 10
-11.784638129340276
 20
0.5109076605902777
 10
-8.6268636067708329
 20
0.5109076605902777
 10
-8.6268636067708329
 20
0.5109076605902777
 10
-8.6268636067708329
 20
0.5109076605902777
 10
-8.6268636067708329
 20
0.8726426866319443
 10
-8.6268636067708329
 20
0.8726426866319443
 10
-8.2051839192708318
 20
0.6177056206597221
 10
-7.9502468532986104
 20
0.5047064887152777
 10
-7.7428521050347214
 20
0.4144449869791667
 10
-7.7428521050347214
 20
0.4144449869791667
 10
-7.2791422526041663
 20
1.3115478515624999
 10
-7.2791422526041663
 20
1.3115478515624999
 10
-8.181068250868055
 20
1.6505452473958331
 10
-9.0361409505208332
 20
2.1301025390624999
 10
-9.6652153862847214
 20
2.8611518012152777
 10
-9.6652153862847214
 20
2.8611518012152777
 10
-10.722170681423609
 20
2.8611518012152777
 10
-10.722170681423609
 20
2.8611518012152777
 10
-11.101820203993055
 20
2.325783962673611
 10
-11.7605224609375
 20
1.8400254991319442
 10
-13.137871636284721
 20
1.2991455078124998
 10
-13.137871636284721
 20
1.2991455078124998
 10
-12.686564127604166
 20
0.3979085286458333
 10
-12.686564127604166
 20
0.3979085286458333
 10
-12.508797200520831
 20
0.4681884765625
 10
-12.248347981770833
 20
0.5694742838541667
 10
-11.784638129340276
 20
0.8485270182291665
 10
-11.784638129340276
 20
0.8485270182291665
 10
-11.784638129340276
 20
0.5109076605902777
 10
-11.784638129340276
 20
0.5109076605902777
 97
        0
 92
       16
 93
        1
 72
     4
 94
        3
 73
     0
 74
     0
 95
       44
 96
       40
 40
0.0
 40
0.0
 40
0.0
 40
0.0
 40
1.0
 40
1.0
 40
1.0
 40
2.0
 40
2.0
 40
2.0
 40
3.0
 40
3.0
 40
3.0
 40
4.0
 40
4.0
 40
4.0
 40
5.0
 40
5.0
 40
5.0
 40
6.0
 40
6.0
 40
6.0
 40
7.0
 40
7.0
 40
7.0
 40
8.0
 40
8.0
 40
8.0
 40
9.0
 40
9.0
 40
9.0
 40
10.0
 40
10.0
 40
10.0
 40
11.0
 40
11.0
 40
11.0
 40
12.0
 40
12.0
 40
12.0
 40
13.0
 40
13.0
 40
13.0
 40
13.0
 10
-7.5168538411458323
 20
-2.4105333116319443
 10
-7.8730767144097218
 20
-1.8462266710069444
 10
-8.2472140842013886
 20
-1.3177490234374998
 10
-8.7639784071180546
 20
-0.7603325737847222
 10
-8.7639784071180546
 20
-0.7603325737847222
 10
-7.5354573567708325
 20
-0.7603325737847222
 10
-7.5354573567708325
 20
-0.7603325737847222
 10
-7.5354573567708325
 20
-0.7603325737847222
 10
-7.5354573567708325
 20
0.0947401258680556
 10
-7.5354573567708325
 20
0.0947401258680556
 10
-7.5354573567708325
 20
0.0947401258680556
 10
-12.888446723090276
 20
0.0947401258680556
 10
-12.888446723090276
 20
0.0947401258680556
 10
-12.888446723090276
 20
0.0947401258680556
 10
-12.888446723090276
 20
-0.7603325737847222
 10
-12.888446723090276
 20
-0.7603325737847222
 10
-12.888446723090276
 20
-0.7603325737847222
 10
-11.56553005642361
 20
-0.7603325737847222
 10
-11.56553005642361
 20
-0.7603325737847222
 10
-11.68955349392361
 20
-1.1454942491319444
 10
-11.826668294270831
 20
-1.4658881293402777
 10
-11.974118381076387
 20
-1.780080837673611
 10
-12.080916341145832
 20
-1.780080837673611
 10
-12.544626193576388
 20
-1.7869710286458331
 10
-12.639710828993055
 20
-1.7869710286458331
 10
-12.686564127604166
 20
-1.7869710286458331
 10
-12.728594292534721
 20
-1.7869710286458331
 10
-12.847794596354165
 20
-1.780080837673611
 10
-12.847794596354165
 20
-1.780080837673611
 10
-12.704478624131943
 20
-2.7006103515624997
 10
-12.704478624131943
 20
-2.7006103515624997
 10
-11.3574462890625
 20
-2.6592692057291663
 10
-11.149362521701388
 20
-2.6413547092013885
 10
-8.615150282118055
 20
-2.4394721137152775
 10
-8.5028401692708329
 20
-2.6241292317708331
 10
-8.4490966796875
 20
-2.7130126953124996
 10
-8.3719265407986097
 20
-2.8611518012152777
 10
-8.3719265407986097
 20
-2.8611518012152777
 10
-7.5168538411458323
 20
-2.4105333116319443
 10
-7.5168538411458323
 20
-2.4105333116319443
 97
        0
 92
        1
 93
        1
 72
     4
 94
        3
 73
     0
 74
     0
 95
       23
 96
       19
 40
0.0
 40
0.0
 40
0.0
 40
0.0
 40
1.0
 40
1.0
 40
1.0
 40
2.0
 40
2.0
 40
2.0
 40
3.0
 40
3.0
 40
3.0
 40
4.0
 40
4.0
 40
4.0
 40
5.0
 40
5.0
 40
5.0
 40
6.0
 40
6.0
 40
6.0
 40
6.0
 10
-9.6066487630208321
 20
-1.0917507595486111
 10
-9.4640218098958329
 20
-1.2646945529513889
 10
-9.3565348307291654
 20
-1.3949191623263888
 10
-9.1195122612847221
 20
-1.7098008897569443
 10
-9.3103705512152768
 20
-1.7153130425347221
 10
-10.246747504340277
 20
-1.7573432074652777
 10
-10.45552029079861
 20
-1.7690565321180554
 10
-10.561629231770832
 20
-1.7745686848958331
 10
-10.609171549479166
 20
-1.7745686848958331
 10
-11.037052408854166
 20
-1.7745686848958331
 10
-10.859285481770833
 20
-1.4190348307291665
 10
-10.740085177951388
 20
-1.1510064019097221
 10
-10.574031575520833
 20
-0.7603325737847222
 10
-10.574031575520833
 20
-0.7603325737847222
 10
-8.9059163411458329
 20
-0.7603325737847222
 10
-8.9059163411458329
 20
-0.7603325737847222
 10
-8.9059163411458329
 20
-0.7603325737847222
 10
-9.6066487630208321
 20
-1.0917507595486111
 10
-9.6066487630208321
 20
-1.0917507595486111
 97
        0
 75
     2
 76
     1
 98
        1
 10
0.0
 20
0.0
  0
HATCH
  5
1AD
100
AcDbEntity
  8
レイヤー_1
 62
     7
100
AcDbHatch
 10
0.0
 20
0.0
 30
0.0
210
0.0
220
0.0
230
1.0
  2
SOLID
 70
     1
 71
     0
 91
        2
 92
        1
 93
        1
 72
     4
 94
        3
 73
     0
 74
     0
 95
       53
 96
       49
 40
0.0
 40
0.0
 40
0.0
 40
0.0
 40
1.0
 40
1.0
 40
1.0
 40
2.0
 40
2.0
 40
2.0
 40
3.0
 40
3.0
 40
3.0
 40
4.0
 40
4.0
 40
4.0
 40
5.0
 40
5.0
 40
5.0
 40
6.0
 40
6.0
 40
6.0
 40
7.0
 40
7.0
 40
7.0
 40
8.0
 40
8.0
 40
8.0
 40
9.0
 40
9.0
 40
9.0
 40
10.0
 40
10.0
 40
10.0
 40
11.0
 40
11.0
 40
11.0
 40
12.0
 40
12.0
 40
12.0
 40
13.0
 40
13.0
 40
13.0
 40
14.0
 40
14.0
 40
14.0
 40
15.0
 40
15.0
 40
15.0
 40
16.0
 40
16.0
 40
16.0
 40
16.0
 10
-3.659035915798611
 20
2.8129204644097219
 10
-3.659035915798611
 20
2.8129204644097219
 10
-2.7323052300347221
 20
2.8129204644097219
 10
-2.7323052300347221
 20
2.8129204644097219
 10
-2.7323052300347221
 20
2.8129204644097219
 10
-2.7323052300347221
 20
1.3418646918402777
 10
-2.7323052300347221
 20
1.3418646918402777
 10
-2.7323052300347221
 20
1.3418646918402777
 10
-1.581643337673611
 20
1.3418646918402777
 10
-1.581643337673611
 20
1.3418646918402777
 10
-1.581643337673611
 20
1.3418646918402777
 10
-1.581643337673611
 20
0.4268473307291666
 10
-1.581643337673611
 20
0.4268473307291666
 10
-1.581643337673611
 20
0.4268473307291666
 10
-2.7323052300347221
 20
0.4268473307291666
 10
-2.7323052300347221
 20
0.4268473307291666
 10
-2.7323052300347221
 20
0.4268473307291666
 10
-2.7323052300347221
 20
-1.7456298828124999
 10
-2.7323052300347221
 20
-1.7456298828124999
 10
-2.7323052300347221
 20
-1.7456298828124999
 10
-1.4927598741319443
 20
-1.7456298828124999
 10
-1.4927598741319443
 20
-1.7456298828124999
 10
-1.4927598741319443
 20
-1.7456298828124999
 10
-1.4927598741319443
 20
-2.6475558810763888
 10
-1.4927598741319443
 20
-2.6475558810763888
 10
-1.4927598741319443
 20
-2.6475558810763888
 10
-5.018470594618055
 20
-2.6475558810763888
 10
-5.018470594618055
 20
-2.6475558810763888
 10
-5.018470594618055
 20
-2.6475558810763888
 10
-5.018470594618055
 20
-1.7456298828124999
 10
-5.018470594618055
 20
-1.7456298828124999
 10
-5.018470594618055
 20
-1.7456298828124999
 10
-3.659035915798611
 20
-1.7456298828124999
 10
-3.659035915798611
 20
-1.7456298828124999
 10
-3.659035915798611
 20
-1.7456298828124999
 10
-3.659035915798611
 20
0.4268473307291666
 10
-3.659035915798611
 20
0.4268473307291666
 10
-3.659035915798611
 20
0.4268473307291666
 10
-4.7283935546875
 20
0.4268473307291666
 10
-4.7283935546875
 20
0.4268473307291666
 10
-4.7283935546875
 20
0.4268473307291666
 10
-4.7283935546875
 20
1.3418646918402777
 10
-4.7283935546875
 20
1.3418646918402777
 10
-4.7283935546875
 20
1.3418646918402777
 10
-3.659035915798611
 20
1.3418646918402777
 10
-3.659035915798611
 20
1.3418646918402777
 10
-3.659035915798611
 20
1.3418646918402777
 10
-3.659035915798611
 20
2.8129204644097219
 10
-3.659035915798611
 20
2.8129204644097219
 97
        0
 92
        1
 93
        1
 72
     4
 94
        3
 73
     0
 74
     0
 95
       59
 96
       55
 40
0.0
 40
0.0
 40
0.0
 40
0.0
 40
1.0
 40
1.0
 40
1.0
 40
2.0
 40
2.0
 40
2.0
 40
3.0
 40
3.0
 40
3.0
 40
4.0
 40
4.0
 40
4.0
 40
5.0
 40
5.0
 40
5.0
 40
6.0
 40
6.0
 40
6.0
 40
7.0
 40
7.0
 40
7.0
 40
8.0
 40
8.0
 40
8.0
 40
9.0
 40
9.0
 40
9.0
 40
10.0
 40
10.0
 40
10.0
 40
11.0
 40
11.0
 40
11.0
 40
12.0
 40
12.0
 40
12.0
 40
13.0
 40
13.0
 40
13.0
 40
14.0
 40
14.0
 40
14.0
 40
15.0
 40
15.0
 40
15.0
 40
16.0
 40
16.0
 40
16.0
 40
17.0
 40
17.0
 40
17.0
 40
18.0
 40
18.0
 40
18.0
 40
18.0
 10
-5.422235785590277
 20
-2.8136094835069443
 10
-5.422235785590277
 20
-2.8136094835069443
 10
-6.3234727647569438
 20
-2.8136094835069443
 10
-6.3234727647569438
 20
-2.8136094835069443
 10
-6.3234727647569438
 20
-2.8136094835069443
 10
-6.3234727647569438
 20
-0.8306125217013888
 10
-6.3234727647569438
 20
-0.8306125217013888
 10
-6.5673855251736102
 20
-1.0386962890625
 10
-6.7334391276041661
 20
-1.1578965928819442
 10
-6.9539252387152768
 20
-1.3053466796875
 10
-6.9539252387152768
 20
-1.3053466796875
 10
-7.178545464409722
 20
-0.2552815755208333
 10
-7.178545464409722
 20
-0.2552815755208333
 10
-6.5143310546874993
 20
0.1422824435763889
 10
-5.9679389105902771
 20
0.7768690321180555
 10
-5.7722574869791661
 20
1.1689208984374999
 10
-5.7722574869791661
 20
1.1689208984374999
 10
-7.0717475043402773
 20
1.1689208984374999
 10
-7.0717475043402773
 20
1.1689208984374999
 10
-7.0717475043402773
 20
1.1689208984374999
 10
-7.0717475043402773
 20
2.000566948784722
 10
-7.0717475043402773
 20
2.000566948784722
 10
-7.0717475043402773
 20
2.000566948784722
 10
-6.3234727647569438
 20
2.000566948784722
 10
-6.3234727647569438
 20
2.000566948784722
 10
-6.3234727647569438
 20
2.000566948784722
 10
-6.3234727647569438
 20
2.8191216362847218
 10
-6.3234727647569438
 20
2.8191216362847218
 10
-6.3234727647569438
 20
2.8191216362847218
 10
-5.422235785590277
 20
2.8191216362847218
 10
-5.422235785590277
 20
2.8191216362847218
 10
-5.422235785590277
 20
2.8191216362847218
 10
-5.422235785590277
 20
2.000566948784722
 10
-5.422235785590277
 20
2.000566948784722
 10
-5.422235785590277
 20
2.000566948784722
 10
-4.8165879991319436
 20
2.000566948784722
 10
-4.8165879991319436
 20
2.000566948784722
 10
-4.8165879991319436
 20
2.000566948784722
 10
-4.8165879991319436
 20
1.1634087456597222
 10
-4.8165879991319436
 20
1.1634087456597222
 10
-4.904782443576388
 20
0.9498128255208332
 10
-5.018470594618055
 20
0.6941867404513888
 10
-5.2851209852430552
 20
0.3083360460069444
 10
-4.9585259331597218
 20
-0.0533989800347222
 10
-4.6677598741319439
 20
-0.2256537543402778
 10
-4.4782796223958332
 20
-0.3324517144097222
 10
-4.4782796223958332
 20
-0.3324517144097222
 10
-4.9233859592013882
 20
-1.1751220703124998
 10
-4.9233859592013882
 20
-1.1751220703124998
 10
-5.0956407335069436
 20
-1.0152696397569443
 10
-5.2320665147569443
 20
-0.8726426866319443
 10
-5.422235785590277
 20
-0.6059922960069444
 10
-5.422235785590277
 20
-0.6059922960069444
 10
-5.422235785590277
 20
-2.8136094835069443
 10
-5.422235785590277
 20
-2.8136094835069443
 97
        0
 75
     2
 76
     1
 98
        1
 10
0.0
 20
0.0
  0
HATCH
  5
1AC
100
AcDbEntity
  8
レイヤー_1
 62
     7
100
AcDbHatch
 10
0.0
 20
0.0
 30
0.0
210
0.0
220
0.0
230
1.0
  2
SOLID
 70
     1
 71
     0
 91
        1
 92
        1
 93
        1
 72
     4
 94
        3
 73
     0
 74
     0
 95
       47
 96
       43
 40
0.0
 40
0.0
 40
0.0
 40
0.0
 40
1.0
 40
1.0
 40
1.0
 40
2.0
 40
2.0
 40
2.0
 40
3.0
 40
3.0
 40
3.0
 40
4.0
 40
4.0
 40
4.0
 40
5.0
 40
5.0
 40
5.0
 40
6.0
 40
6.0
 40
6.0
 40
7.0
 40
7.0
 40
7.0
 40
8.0
 40
8.0
 40
8.0
 40
9.0
 40
9.0
 40
9.0
 40
10.0
 40
10.0
 40
10.0
 40
11.0
 40
11.0
 40
11.0
 40
12.0
 40
12.0
 40
12.0
 40
13.0
 40
13.0
 40
13.0
 40
14.0
 40
14.0
 40
14.0
 40
14.0
 10
1.0180257161458333
 20
0.5991021050347222
 10
1.4817355685763887
 20
0.4096218532986111
 10
1.8255560980902776
 20
0.2373670789930555
 10
2.2520589192708331
 20
-0.0837158203125
 10
2.5021728515624999
 20
0.2669949001736111
 10
2.6627143012152774
 20
0.6053032769097222
 10
2.8101643880208331
 20
1.1275797526041667
 10
2.8101643880208331
 20
1.1275797526041667
 10
1.0951958550347221
 20
1.1275797526041667
 10
1.0951958550347221
 20
1.1275797526041667
 10
0.6211507161458333
 20
0.5281331380208333
 10
0.1036973741319444
 20
0.0768256293402778
 10
-0.5067735460069444
 20
-0.2731960720486111
 10
-0.5067735460069444
 20
-0.2731960720486111
 10
-1.1124213324652776
 20
0.4144449869791667
 10
-1.1124213324652776
 20
0.4144449869791667
 10
-0.0141248914930556
 20
1.0028672960069445
 10
0.5143527560763889
 20
1.7263373480902777
 10
0.899514431423611
 20
2.7178358289930551
 10
0.899514431423611
 20
2.7178358289930551
 10
1.9144395616319443
 20
2.5869222005208332
 10
1.9144395616319443
 20
2.5869222005208332
 10
1.8427815755208332
 20
2.3740152994791663
 10
1.795928276909722
 20
2.2610161675347222
 10
1.6650146484374999
 20
1.9943657769097221
 10
1.6650146484374999
 20
1.9943657769097221
 10
3.9801188151041664
 20
1.9943657769097221
 10
3.9801188151041664
 20
1.9943657769097221
 10
3.576353624131944
 20
-0.564651150173611
 10
2.2348334418402778
 20
-2.0481092664930554
 10
-0.2401231553819444
 20
-2.630330403645833
 10
-0.2401231553819444
 20
-2.630330403645833
 10
-0.7444851345486111
 20
-1.780080837673611
 10
-0.7444851345486111
 20
-1.780080837673611
 10
-0.3648356119791666
 20
-1.7153130425347221
 10
0.5674072265625
 20
-1.5609727647569442
 10
1.5644178602430554
 20
-0.7899603949652777
 10
1.0476535373263889
 20
-0.3737928602430555
 10
0.6321750217013888
 20
-0.1663981119791667
 10
0.3889512803819444
 20
-0.0423746744791667
 10
0.3889512803819444
 20
-0.0423746744791667
 10
1.0180257161458333
 20
0.5991021050347222
 10
1.0180257161458333
 20
0.5991021050347222
 97
        0
 75
     2
 76
     1
 98
        1
 10
0.0
 20
0.0
  0
HATCH
  5
1AB
100
AcDbEntity
  8
レイヤー_1
 62
     7
100
AcDbHatch
 10
0.0
 20
0.0
 30
0.0
210
0.0
220
0.0
230
1.0
  2
SOLID
 70
     1
 71
     0
 91
        1
 92
        1
 93
        1
 72
     4
 94
        3
 73
     0
 74
     0
 95
       68
 96
       64
 40
0.0
 40
0.0
 40
0.0
 40
0.0
 40
1.0
 40
1.0
 40
1.0
 40
2.0
 40
2.0
 40
2.0
 40
3.0
 40
3.0
 40
3.0
 40
4.0
 40
4.0
 40
4.0
 40
5.0
 40
5.0
 40
5.0
 40
6.0
 40
6.0
 40
6.0
 40
7.0
 40
7.0
 40
7.0
 40
8.0
 40
8.0
 40
8.0
 40
9.0
 40
9.0
 40
9.0
 40
10.0
 40
10.0
 40
10.0
 40
11.0
 40
11.0
 40
11.0
 40
12.0
 40
12.0
 40
12.0
 40
13.0
 40
13.0
 40
13.0
 40
14.0
 40
14.0
 40
14.0
 40
15.0
 40
15.0
 40
15.0
 40
16.0
 40
16.0
 40
16.0
 40
17.0
 40
17.0
 40
17.0
 40
18.0
 40
18.0
 40
18.0
 40
19.0
 40
19.0
 40
19.0
 40
20.0
 40
20.0
 40
20.0
 40
21.0
 40
21.0
 40
21.0
 40
21.0
 10
9.5184543185763886
 20
1.6030029296874999
 10
9.5184543185763886
 20
1.6030029296874999
 10
9.5184543185763886
 20
0.6941867404513888
 10
9.5184543185763886
 20
0.6941867404513888
 10
9.5184543185763886
 20
0.0651123046875
 10
9.4647108289930539
 20
-1.1454942491319444
 10
9.3572238498263882
 20
-1.6202284071180555
 10
9.1622314453125
 20
-2.480813259548611
 10
8.6633816189236104
 20
-2.5579833984374996
 10
8.1349039713541664
 20
-2.5579833984374996
 10
7.5533718532986107
 20
-2.5579833984374996
 10
7.2619167751736109
 20
-2.4932156032986108
 10
7.1082655164930548
 20
-2.4573866102430553
 10
7.1082655164930548
 20
-2.4573866102430553
 10
7.0552110460069439
 20
-1.5258327907986109
 10
7.0552110460069439
 20
-1.5258327907986109
 10
7.2743191189236107
 20
-1.5664849175347222
 10
7.6071153428819436
 20
-1.6264295789930554
 10
7.9626491970486102
 20
-1.6264295789930554
 10
8.2472140842013886
 20
-1.6264295789930554
 10
8.3602132161458318
 20
-1.5609727647569442
 10
8.4201578776041668
 20
-1.4011203342013887
 10
8.5200656467013882
 20
-1.0807264539930554
 10
8.5676079644097207
 20
0.2601047092013888
 10
8.5676079644097207
 20
0.4034206814236111
 10
8.5676079644097207
 20
0.4034206814236111
 10
8.5676079644097207
 20
0.7127902560763888
 10
8.5676079644097207
 20
0.7127902560763888
 10
8.5676079644097207
 20
0.7127902560763888
 10
7.2743191189236107
 20
0.7127902560763888
 10
7.2743191189236107
 20
0.7127902560763888
 10
7.1496066623263879
 20
-0.0120578342013889
 10
6.9539252387152768
 20
-0.5343343098958333
 10
6.7279269748263886
 20
-0.9498128255208332
 10
6.1822238498263884
 20
-1.9592258029513887
 10
5.4580647786458325
 20
-2.4105333116319443
 10
5.1610975477430552
 20
-2.5945014105902775
 10
5.1610975477430552
 20
-2.5945014105902775
 10
4.5079074435763884
 20
-1.8758544921874998
 10
4.5079074435763884
 20
-1.8758544921874998
 10
5.7074896918402773
 20
-1.2116400824652778
 10
6.0747368706597218
 20
-0.4626763237847222
 10
6.2883327907986102
 20
0.7127902560763888
 10
6.2883327907986102
 20
0.7127902560763888
 10
4.7869601779513884
 20
0.7127902560763888
 10
4.7869601779513884
 20
0.7127902560763888
 10
4.7869601779513884
 20
0.7127902560763888
 10
4.7869601779513884
 20
1.6030029296874999
 10
4.7869601779513884
 20
1.6030029296874999
 10
4.7869601779513884
 20
1.6030029296874999
 10
6.3958197699652768
 20
1.6030029296874999
 10
6.3958197699652768
 20
1.6030029296874999
 10
6.4247585720486109
 20
2.000566948784722
 10
6.4316487630208323
 20
2.2493028428819444
 10
6.4316487630208323
 20
2.6296413845486111
 10
6.4316487630208323
 20
2.6296413845486111
 10
7.4341715494791663
 20
2.6172390407986108
 10
7.4341715494791663
 20
2.6172390407986108
 10
7.416257052951388
 20
2.1066758897569442
 10
7.3990315755208327
 20
1.8992811414930555
 10
7.375604926215277
 20
1.6030029296874999
 10
7.375604926215277
 20
1.6030029296874999
 10
9.5184543185763886
 20
1.6030029296874999
 10
9.5184543185763886
 20
1.6030029296874999
 97
        0
 75
     2
 76
     1
 98
        1
 10
0.0
 20
0.0
  0
HATCH
  5
1AA
100
AcDbEntity
  8
レイヤー_1
 62
     7
100
AcDbHatch
 10
0.0
 20
0.0
 30
0.0
210
0.0
220
0.0
230
1.0
  2
SOLID
 70
     1
 71
     0
 91
        3
 92
        1
 93
        1
 72
     4
 94
        3
 73
     0
 74
     0
 95
       17
 96
       13
 40
0.0
 40
0.0
 40
0.0
 40
0.0
 40
1.0
 40
1.0
 40
1.0
 40
2.0
 40
2.0
 40
2.0
 40
3.0
 40
3.0
 40
3.0
 40
4.0
 40
4.0
 40
4.0
 40
4.0
 10
10.639488389756943
 20
-1.5203206380208332
 10
12.508797200520831
 20
-1.3528889973958331
 10
13.815177408854165
 20
-1.0097574869791666
 10
14.622707790798609
 20
1.6973985460069443
 10
14.622707790798609
 20
1.6973985460069443
 10
15.518432617187498
 20
1.2702067057291666
 10
15.518432617187498
 20
1.2702067057291666
 10
14.557250976562498
 20
-1.5850884331597221
 10
13.096530490451388
 20
-2.2734185112847221
 10
10.899937608506944
 20
-2.5407579210069442
 10
10.899937608506944
 20
-2.5407579210069442
 10
10.639488389756943
 20
-1.5203206380208332
 10
10.639488389756943
 20
-1.5203206380208332
 97
        0
 92
        1
 93
        1
 72
     4
 94
        3
 73
     0
 74
     0
 95
       17
 96
       13
 40
0.0
 40
0.0
 40
0.0
 40
0.0
 40
1.0
 40
1.0
 40
1.0
 40
2.0
 40
2.0
 40
2.0
 40
3.0
 40
3.0
 40
3.0
 40
4.0
 40
4.0
 40
4.0
 40
4.0
 10
12.076093207465277
 20
-0.3917073567708333
 10
11.56553005642361
 20
-0.1071424696180555
 10
10.953681098090277
 20
0.1298800998263889
 10
10.32529568142361
 20
0.3028238932291666
 10
10.32529568142361
 20
0.3028238932291666
 10
10.657402886284721
 20
1.0972629123263888
 10
10.657402886284721
 20
1.0972629123263888
 10
11.120423719618055
 20
1.0028672960069445
 10
11.874210611979166
 20
0.7658447265624999
 10
12.438517252604166
 20
0.4571641710069444
 10
12.438517252604166
 20
0.4571641710069444
 10
12.076093207465277
 20
-0.3917073567708333
 10
12.076093207465277
 20
-0.3917073567708333
 97
        0
 92
        1
 93
        1
 72
     4
 94
        3
 73
     0
 74
     0
 95
       17
 96
       13
 40
0.0
 40
0.0
 40
0.0
 40
0.0
 40
1.0
 40
1.0
 40
1.0
 40
2.0
 40
2.0
 40
2.0
 40
3.0
 40
3.0
 40
3.0
 40
4.0
 40
4.0
 40
4.0
 40
4.0
 10
12.598369683159721
 20
1.0380072699652776
 10
12.022349717881943
 20
1.3356635199652775
 10
11.405677625868055
 20
1.5368570963541666
 10
10.782115342881944
 20
1.6911973741319444
 10
10.782115342881944
 20
1.6911973741319444
 10
11.120423719618055
 20
2.4801242404513886
 10
11.120423719618055
 20
2.4801242404513886
 10
11.684041341145832
 20
2.3740152994791663
 10
12.396487087673609
 20
2.1604193793402775
 10
12.972507052951388
 20
1.8813666449652775
 10
12.972507052951388
 20
1.8813666449652775
 10
12.598369683159721
 20
1.0380072699652776
 10
12.598369683159721
 20
1.0380072699652776
 97
        0
 75
     2
 76
     1
 98
        1
 10
0.0
 20
0.0
  0
HATCH
  5
1A9
100
AcDbEntity
  8
レイヤー_1
 62
     7
100
AcDbHatch
 10
0.0
 20
0.0
 30
0.0
210
0.0
220
0.0
230
1.0
  2
SOLID
 70
     1
 71
     0
 91
        1
 92
        3
 72
     0
 73
     1
 93
       12
 10
19.75727810329861
 20
1.4183458116319443
 10
19.75727810329861
 20
-2.4394721137152775
 10
16.124080403645831
 20
-2.4394721137152775
 10
16.124080403645831
 20
-1.6202284071180555
 10
18.853974066840276
 20
-1.6202284071180555
 10
18.853974066840276
 20
-0.8726426866319443
 10
16.278420681423608
 20
-0.8726426866319443
 10
16.278420681423608
 20
-0.0892279730902778
 10
18.853974066840276
 20
-0.0892279730902778
 10
18.853974066840276
 20
0.6177056206597221
 10
16.183336046006943
 20
0.6177056206597221
 10
16.183336046006943
 20
1.4183458116319443
 97
        0
 75
     2
 76
     1
 98
        1
 10
0.0
 20
0.0
  0
HATCH
  5
1A8
100
AcDbEntity
  8
レイヤー_1
 62
     7
100
AcDbHatch
 10
0.0
 20
0.0
 30
0.0
210
0.0
220
0.0
230
1.0
  2
SOLID
 70
     1
 71
     0
 91
        1
 92
        3
 72
     0
 73
     1
 93
        4
 10
25.008981662326388
 20
0.3855061848958333
 10
25.008981662326388
 20
-0.3620795355902777
 10
20.604771592881942
 20
-0.3620795355902777
 10
20.604771592881942
 20
0.3855061848958333
 97
        0
 75
     2
 76
     1
 98
        1
 10
0.0
 20
0.0
  0
ENDBLK
  5
1B1
100
AcDbEntity
  8
レイヤー_1
100
AcDbBlockEnd
  0
BLOCK
  5
1B4
100
AcDbEntity
  8
レイヤー_1
 62
     7
100
AcDbBlockBegin
  2
AI9-BLK40
 70
     0
 10
0.0
 20
0.0
 30
0.0
  3
AI9-BLK40
  1

  0
MTEXT
  5
1B9
100
AcDbEntity
  8
レイヤー_1
 62
     7
100
AcDbMText
 10
-13.49375
 20
3.155412
 30
0.0
 40
2.362351
 41
0.0
 71
     1
 72
     2
  1
\fMS Gothic|b0|i0|c128;\H2.3624;\C7;\U+5BF8\U+6CD5\U+516C\U+5DEE\U+FF1B\U+00B1
  7
STD
210
0.0
220
0.0
230
1.0
 73
     1
 44
1.0
  0
MTEXT
  5
1B8
100
AcDbEntity
  8
レイヤー_1
 62
     7
100
AcDbMText
 10
5.55625
 20
3.155412
 30
0.0
 40
2.362351
 41
0.0
 71
     1
 72
     2
  1
\fMS Gothic|b0|i0|c128;\H2.3624;\C7;\U+0030\U+002E\U+0035\U+006D\U+006D
  7
STD
210
0.0
220
0.0
230
1.0
 73
     1
 44
1.0
  0
MTEXT
  5
1B7
100
AcDbEntity
  8
レイヤー_1
 62
     7
100
AcDbMText
 10
-13.49375
 20
-0.725143
 30
0.0
 40
2.362351
 41
0.0
 71
     1
 72
     2
  1
\fMS Gothic|b0|i0|c128;\H2.3624;\C7;\U+5BF8\U+6CD5\U+6570\U+5024\U+FF1A
  7
STD
210
0.0
220
0.0
230
1.0
 73
     1
 44
1.0
  0
MTEXT
  5
1B6
100
AcDbEntity
  8
レイヤー_1
 62
     7
100
AcDbMText
 10
2.38125
 20
-0.725143
 30
0.0
 40
2.362351
 41
0.0
 71
     1
 72
     2
  1
\fMS Gothic|b0|i0|c128;\H2.3624;\C7;\U+006D\U+006D
  7
STD
210
0.0
220
0.0
230
1.0
 73
     1
 44
1.0
  0
MTEXT
  5
1B5
100
AcDbEntity
  8
レイヤー_1
 62
     7
100
AcDbMText
 10
5.55625
 20
-0.725143
 30
0.0
 40
2.362351
 41
0.0
 71
     1
 72
     2
  1
\fMS Gothic|b0|i0|c128;\H2.3624;\C7;\U+8868\U+8A18
  7
STD
210
0.0
220
0.0
230
1.0
 73
     1
 44
1.0
  0
ENDBLK
  5
1BA
100
AcDbEntity
  8
レイヤー_1
100
AcDbBlockEnd
  0
BLOCK
  5
1BD
100
AcDbEntity
  8
レイヤー_1
 62
     7
100
AcDbBlockBegin
  2
AI9-BLK41
 70
     0
 10
0.0
 20
0.0
 30
0.0
  3
AI9-BLK41
  1

  0
MTEXT
  5
1C7
100
AcDbEntity
  8
レイヤー_1
 62
     7
100
AcDbMText
 10
-18.209052
 20
3.733332
 30
0.0
 40
2.849493
 41
0.0
 71
     1
 72
     2
  1
\fHGPGothicE|b0|i0|c128;\H2.8495;\C7;\U+FF10\U+FF17\U+FF13
  7
STD
210
0.0
220
0.0
230
1.0
 73
     1
 44
1.0
  0
MTEXT
  5
1C6
100
AcDbEntity
  8
レイヤー_1
 62
     7
100
AcDbMText
 10
-10.470679
 20
3.733332
 30
0.0
 40
2.849493
 41
0.0
 71
     1
 72
     2
  1
\fHGPGothicE|b0|i0|c128;\H2.8495;\C7;\U+002D
  7
STD
210
0.0
220
0.0
230
1.0
 73
     1
 44
1.0
  0
MTEXT
  5
1C5
100
AcDbEntity
  8
レイヤー_1
 62
     7
100
AcDbMText
 10
-9.088162
 20
3.733332
 30
0.0
 40
2.849493
 41
0.0
 71
     1
 72
     2
  1
\fHGPGothicE|b0|i0|c128;\H2.8495;\C7;\U+FF14\U+FF18\U+FF12
  7
STD
210
0.0
220
0.0
230
1.0
 73
     1
 44
1.0
  0
MTEXT
  5
1C4
100
AcDbEntity
  8
レイヤー_1
 62
     7
100
AcDbMText
 10
-1.349788
 20
3.733332
 30
0.0
 40
2.849493
 41
0.0
 71
     1
 72
     2
  1
\fHGPGothicE|b0|i0|c128;\H2.8495;\C7;\U+002D
  7
STD
210
0.0
220
0.0
230
1.0
 73
     1
 44
1.0
  0
MTEXT
  5
1C3
100
AcDbEntity
  8
レイヤー_1
 62
     7
100
AcDbMText
 10
0.032728
 20
3.733332
 30
0.0
 40
2.849493
 41
0.0
 71
     1
 72
     2
  1
\fHGPGothicE|b0|i0|c128;\H2.8495;\C7;\U+FF14\U+FF11\U+FF12\U+FF18\U+FF08\U+4EE3\U+FF09
  7
STD
210
0.0
220
0.0
230
1.0
 73
     1
 44
1.0
  0
MTEXT
  5
1C2
100
AcDbEntity
  8
レイヤー_1
 62
     7
100
AcDbMText
 10
-18.209052
 20
-0.801791
 30
0.0
 40
2.849493
 41
0.0
 71
     1
 72
     2
  1
\fHGPGothicE|b0|i0|c128;\H2.8495;\C7;\U+FF10\U+FF17\U+FF13
  7
STD
210
0.0
220
0.0
230
1.0
 73
     1
 44
1.0
  0
MTEXT
  5
1C1
100
AcDbEntity
  8
レイヤー_1
 62
     7
100
AcDbMText
 10
-10.470679
 20
-0.801791
 30
0.0
 40
2.849493
 41
0.0
 71
     1
 72
     2
  1
\fHGPGothicE|b0|i0|c128;\H2.8495;\C7;\U+002D
  7
STD
210
0.0
220
0.0
230
1.0
 73
     1
 44
1.0
  0
MTEXT
  5
1C0
100
AcDbEntity
  8
レイヤー_1
 62
     7
100
AcDbMText
 10
-9.088162
 20
-0.801791
 30
0.0
 40
2.849493
 41
0.0
 71
     1
 72
     2
  1
\fHGPGothicE|b0|i0|c128;\H2.8495;\C7;\U+FF14\U+FF18\U+FF16
  7
STD
210
0.0
220
0.0
230
1.0
 73
     1
 44
1.0
  0
MTEXT
  5
1BF
100
AcDbEntity
  8
レイヤー_1
 62
     7
100
AcDbMText
 10
-1.349788
 20
-0.801791
 30
0.0
 40
2.849493
 41
0.0
 71
     1
 72
     2
  1
\fHGPGothicE|b0|i0|c128;\H2.8495;\C7;\U+002D
  7
STD
210
0.0
220
0.0
230
1.0
 73
     1
 44
1.0
  0
MTEXT
  5
1BE
100
AcDbEntity
  8
レイヤー_1
 62
     7
100
AcDbMText
 10
0.032728
 20
-0.801791
 30
0.0
 40
2.849493
 41
0.0
 71
     1
 72
     2
  1
\fHGPGothicE|b0|i0|c128;\H2.8495;\C7;\U+FF12\U+FF15\U+FF16\U+FF10\U+FF08\U+4EE3\U+FF09
  7
STD
210
0.0
220
0.0
230
1.0
 73
     1
 44
1.0
  0
ENDBLK
  5
1C8
100
AcDbEntity
  8
レイヤー_1
100
AcDbBlockEnd
  0
BLOCK
  5
1CB
100
AcDbEntity
  8
レイヤー_1
 62
     7
100
AcDbBlockBegin
  2
AI9-BLK42
 70
     0
 10
0.0
 20
0.0
 30
0.0
  3
AI9-BLK42
  1

  0
MTEXT
  5
1D2
100
AcDbEntity
  8
レイヤー_1
 62
     7
100
AcDbMText
 10
-23.486938
 20
6.000894
 30
0.0
 40
2.849493
 41
0.0
 71
     1
 72
     2
  1
\fHGPGothicE|b0|i0|c128;\H2.8495;\C7;\U+548C\U+6B4C\U+5C71\U+770C\U+6D77\U+5357\U+5E02\U+5357\U+8D64\U+5742\U+FF12\U+FF10
  7
STD
210
0.0
220
0.0
230
1.0
 73
     1
 44
1.0
  0
MTEXT
  5
1D1
100
AcDbEntity
  8
レイヤー_1
 62
     7
100
AcDbMText
 10
19.746943
 20
6.000894
 30
0.0
 40
2.849493
 41
0.0
 71
     1
 72
     2
  1
\fHGPGothicE|b0|i0|c128;\H2.8495;\C7;\U+002D
  7
STD
210
0.0
220
0.0
230
1.0
 73
     1
 44
1.0
  0
MTEXT
  5
1D0
100
AcDbEntity
  8
レイヤー_1
 62
     7
100
AcDbMText
 10
21.018528
 20
6.000894
 30
0.0
 40
2.849493
 41
0.0
 71
     1
 72
     2
  1
\fHGPGothicE|b0|i0|c128;\H2.8495;\C7;\U+FF11
  7
STD
210
0.0
220
0.0
230
1.0
 73
     1
 44
1.0
  0
MTEXT
  5
1CF
100
AcDbEntity
  8
レイヤー_1
 62
     7
100
AcDbMText
 10
-23.486938
 20
1.46577
 30
0.0
 40
2.849493
 41
0.0
 71
     1
 72
     2
  1
\fHGPGothicE|b0|i0|c128;\H2.8495;\C7;\U+FF34\U+FF25\U+FF2C
  7
STD
210
0.0
220
0.0
230
1.0
 73
     1
 44
1.0
  0
MTEXT
  5
1CE
100
AcDbEntity
  8
レイヤー_1
 62
     7
100
AcDbMText
 10
-15.378906
 20
1.46577
 30
0.0
 40
2.849493
 41
0.0
 71
     1
 72
     2
  1
\fHGPGothicE|b0|i0|c128;\H2.8495;\C7;\U+002E\U+0020\U+0020
  7
STD
210
0.0
220
0.0
230
1.0
 73
     1
 44
1.0
  0
MTEXT
  5
1CD
100
AcDbEntity
  8
レイヤー_1
 62
     7
100
AcDbMText
 10
-23.486938
 20
-3.069353
 30
0.0
 40
2.849493
 41
0.0
 71
     1
 72
     2
  1
\fHGPGothicE|b0|i0|c128;\H2.8495;\C7;\U+FF26\U+FF21\U+FF38
  7
STD
210
0.0
220
0.0
230
1.0
 73
     1
 44
1.0
  0
MTEXT
  5
1CC
100
AcDbEntity
  8
レイヤー_1
 62
     7
100
AcDbMText
 10
-14.465956
 20
-3.069353
 30
0.0
 40
2.849493
 41
0.0
 71
     1
 72
     2
  1
\fHGPGothicE|b0|i0|c128;\H2.8495;\C7;\U+002E\U+0020
  7
STD
210
0.0
220
0.0
230
1.0
 73
     1
 44
1.0
  0
ENDBLK
  5
1D3
100
AcDbEntity
  8
レイヤー_1
100
AcDbBlockEnd
  0
BLOCK
  5
1D6
100
AcDbEntity
  8
レイヤー_1
 62
     7
100
AcDbBlockBegin
  2
AI9-BLK43
 70
     0
 10
0.0
 20
0.0
 30
0.0
  3
AI9-BLK43
  1

  0
INSERT
  5
1EC
100
AcDbEntity
  8
レイヤー_1
 62
     7
100
AcDbBlockReference
  2
AI9-BLK48
 10
6.617684
 20
1.868792
 30
0.0
  0
INSERT
  5
1E7
100
AcDbEntity
  8
レイヤー_1
 62
     7
100
AcDbBlockReference
  2
AI9-BLK47
 10
-22.129571
 20
3.748264
 30
0.0
  0
INSERT
  5
1E2
100
AcDbEntity
  8
レイヤー_1
 62
     7
100
AcDbBlockReference
  2
AI9-BLK46
 10
-18.380962
 20
-0.001378
 30
0.0
  0
INSERT
  5
1DD
100
AcDbEntity
  8
レイヤー_1
 62
     7
100
AcDbBlockReference
  2
AI9-BLK45
 10
-14.629598
 20
3.748264
 30
0.0
  0
INSERT
  5
1D8
100
AcDbEntity
  8
レイヤー_1
 62
     7
100
AcDbBlockReference
  2
AI9-BLK44
 10
-22.129571
 20
-3.75102
 30
0.0
  0
ENDBLK
  5
1FB
100
AcDbEntity
  8
レイヤー_1
100
AcDbBlockEnd
  0
BLOCK
  5
1D9
100
AcDbEntity
  8
レイヤー_1
 62
     7
100
AcDbBlockBegin
  2
AI9-BLK44
 70
     0
 10
0.0
 20
0.0
 30
0.0
  3
AI9-BLK44
  1

  0
HATCH
  5
1DA
100
AcDbEntity
  8
レイヤー_1
 62
     7
100
AcDbHatch
 10
0.0
 20
0.0
 30
0.0
210
0.0
220
0.0
230
1.0
  2
SOLID
 70
     1
 71
     0
 91
        1
 92
        1
 93
        1
 72
     4
 94
        3
 73
     0
 74
     0
 95
       29
 96
       25
 40
0.0
 40
0.0
 40
0.0
 40
0.0
 40
1.0
 40
1.0
 40
1.0
 40
2.0
 40
2.0
 40
2.0
 40
3.0
 40
3.0
 40
3.0
 40
4.0
 40
4.0
 40
4.0
 40
5.0
 40
5.0
 40
5.0
 40
6.0
 40
6.0
 40
6.0
 40
7.0
 40
7.0
 40
7.0
 40
8.0
 40
8.0
 40
8.0
 40
8.0
 10
1.625051540798611
 20
-1.8737874348958332
 10
1.7628553602430554
 20
-1.8737874348958332
 10
1.8737874348958332
 20
-1.7618218315972221
 10
1.8737874348958332
 20
-1.6236735026041664
 10
1.8737874348958332
 20
-1.6236735026041664
 10
1.8737874348958332
 20
1.6247070312499998
 10
1.8737874348958332
 20
1.6247070312499998
 10
1.8737874348958332
 20
1.7618218315972221
 10
1.7628553602430554
 20
1.8737874348958332
 10
1.625051540798611
 20
1.8737874348958332
 10
1.625051540798611
 20
1.8737874348958332
 10
-1.6236735026041664
 20
1.8737874348958332
 10
-1.6236735026041664
 20
1.8737874348958332
 10
-1.7628553602430554
 20
1.8737874348958332
 10
-1.8737874348958332
 20
1.7618218315972221
 10
-1.8737874348958332
 20
1.6247070312499998
 10
-1.8737874348958332
 20
1.6247070312499998
 10
-1.8737874348958332
 20
-1.6236735026041664
 10
-1.8737874348958332
 20
-1.6236735026041664
 10
-1.8737874348958332
 20
-1.7618218315972221
 10
-1.7628553602430554
 20
-1.8737874348958332
 10
-1.6236735026041664
 20
-1.8737874348958332
 10
-1.6236735026041664
 20
-1.8737874348958332
 10
1.625051540798611
 20
-1.8737874348958332
 10
1.625051540798611
 20
-1.8737874348958332
 97
        0
 75
     2
 76
     1
 98
        1
 10
0.0
 20
0.0
  0
ENDBLK
  5
1DB
100
AcDbEntity
  8
レイヤー_1
100
AcDbBlockEnd
  0
BLOCK
  5
1DE
100
AcDbEntity
  8
レイヤー_1
 62
     7
100
AcDbBlockBegin
  2
AI9-BLK45
 70
     0
 10
0.0
 20
0.0
 30
0.0
  3
AI9-BLK45
  1

  0
HATCH
  5
1DF
100
AcDbEntity
  8
レイヤー_1
 62
     7
100
AcDbHatch
 10
0.0
 20
0.0
 30
0.0
210
0.0
220
0.0
230
1.0
  2
SOLID
 70
     1
 71
     0
 91
        1
 92
        1
 93
        1
 72
     4
 94
        3
 73
     0
 74
     0
 95
       29
 96
       25
 40
0.0
 40
0.0
 40
0.0
 40
0.0
 40
1.0
 40
1.0
 40
1.0
 40
2.0
 40
2.0
 40
2.0
 40
3.0
 40
3.0
 40
3.0
 40
4.0
 40
4.0
 40
4.0
 40
5.0
 40
5.0
 40
5.0
 40
6.0
 40
6.0
 40
6.0
 40
7.0
 40
7.0
 40
7.0
 40
8.0
 40
8.0
 40
8.0
 40
8.0
 10
1.6243625217013888
 20
-1.8737874348958332
 10
1.7614773220486108
 20
-1.8737874348958332
 10
1.8737874348958332
 20
-1.7614773220486108
 10
1.8737874348958332
 20
-1.6243625217013888
 10
1.8737874348958332
 20
-1.6243625217013888
 10
1.8737874348958332
 20
1.6243625217013888
 10
1.8737874348958332
 20
1.6243625217013888
 10
1.8737874348958332
 20
1.7628553602430554
 10
1.7614773220486108
 20
1.8737874348958332
 10
1.6243625217013888
 20
1.8737874348958332
 10
1.6243625217013888
 20
1.8737874348958332
 10
-1.625051540798611
 20
1.8737874348958332
 10
-1.625051540798611
 20
1.8737874348958332
 10
-1.7628553602430554
 20
1.8737874348958332
 10
-1.8737874348958332
 20
1.7628553602430554
 10
-1.8737874348958332
 20
1.6243625217013888
 10
-1.8737874348958332
 20
1.6243625217013888
 10
-1.8737874348958332
 20
-1.6243625217013888
 10
-1.8737874348958332
 20
-1.6243625217013888
 10
-1.8737874348958332
 20
-1.7614773220486108
 10
-1.7628553602430554
 20
-1.8737874348958332
 10
-1.625051540798611
 20
-1.8737874348958332
 10
-1.625051540798611
 20
-1.8737874348958332
 10
1.6243625217013888
 20
-1.8737874348958332
 10
1.6243625217013888
 20
-1.8737874348958332
 97
        0
 75
     2
 76
     1
 98
        1
 10
0.0
 20
0.0
  0
ENDBLK
  5
1E0
100
AcDbEntity
  8
レイヤー_1
100
AcDbBlockEnd
  0
BLOCK
  5
1E3
100
AcDbEntity
  8
レイヤー_1
 62
     7
100
AcDbBlockBegin
  2
AI9-BLK46
 70
     0
 10
0.0
 20
0.0
 30
0.0
  3
AI9-BLK46
  1

  0
HATCH
  5
1E4
100
AcDbEntity
  8
レイヤー_1
 62
     7
100
AcDbHatch
 10
0.0
 20
0.0
 30
0.0
210
0.0
220
0.0
230
1.0
  2
SOLID
 70
     1
 71
     0
 91
        1
 92
        1
 93
        1
 72
     4
 94
        3
 73
     0
 74
     0
 95
       29
 96
       25
 40
0.0
 40
0.0
 40
0.0
 40
0.0
 40
1.0
 40
1.0
 40
1.0
 40
2.0
 40
2.0
 40
2.0
 40
3.0
 40
3.0
 40
3.0
 40
4.0
 40
4.0
 40
4.0
 40
5.0
 40
5.0
 40
5.0
 40
6.0
 40
6.0
 40
6.0
 40
7.0
 40
7.0
 40
7.0
 40
8.0
 40
8.0
 40
8.0
 40
8.0
 10
1.6260850694444442
 20
-1.873442925347222
 10
1.7631998697916664
 20
-1.873442925347222
 10
1.8741319444444442
 20
-1.7618218315972221
 10
1.8741319444444442
 20
-1.6229844835069442
 10
1.8741319444444442
 20
-1.6229844835069442
 10
1.8741319444444442
 20
1.6247070312499998
 10
1.8741319444444442
 20
1.6247070312499998
 10
1.8741319444444442
 20
1.7621663411458333
 10
1.7631998697916664
 20
1.873442925347222
 10
1.6260850694444442
 20
1.873442925347222
 10
1.6260850694444442
 20
1.873442925347222
 10
-1.6226399739583333
 20
1.873442925347222
 10
-1.6226399739583333
 20
1.873442925347222
 10
-1.7604437934027777
 20
1.873442925347222
 10
-1.8741319444444442
 20
1.7621663411458333
 10
-1.8741319444444442
 20
1.6247070312499998
 10
-1.8741319444444442
 20
1.6247070312499998
 10
-1.8741319444444442
 20
-1.6229844835069442
 10
-1.8741319444444442
 20
-1.6229844835069442
 10
-1.8741319444444442
 20
-1.7618218315972221
 10
-1.7604437934027777
 20
-1.873442925347222
 10
-1.6226399739583333
 20
-1.873442925347222
 10
-1.6226399739583333
 20
-1.873442925347222
 10
1.6260850694444442
 20
-1.873442925347222
 10
1.6260850694444442
 20
-1.873442925347222
 97
        0
 75
     2
 76
     1
 98
        1
 10
0.0
 20
0.0
  0
ENDBLK
  5
1E5
100
AcDbEntity
  8
レイヤー_1
100
AcDbBlockEnd
  0
BLOCK
  5
1E8
100
AcDbEntity
  8
レイヤー_1
 62
     7
100
AcDbBlockBegin
  2
AI9-BLK47
 70
     0
 10
0.0
 20
0.0
 30
0.0
  3
AI9-BLK47
  1

  0
HATCH
  5
1E9
100
AcDbEntity
  8
レイヤー_1
 62
     7
100
AcDbHatch
 10
0.0
 20
0.0
 30
0.0
210
0.0
220
0.0
230
1.0
  2
SOLID
 70
     1
 71
     0
 91
        1
 92
        1
 93
        1
 72
     4
 94
        3
 73
     0
 74
     0
 95
       29
 96
       25
 40
0.0
 40
0.0
 40
0.0
 40
0.0
 40
1.0
 40
1.0
 40
1.0
 40
2.0
 40
2.0
 40
2.0
 40
3.0
 40
3.0
 40
3.0
 40
4.0
 40
4.0
 40
4.0
 40
5.0
 40
5.0
 40
5.0
 40
6.0
 40
6.0
 40
6.0
 40
7.0
 40
7.0
 40
7.0
 40
8.0
 40
8.0
 40
8.0
 40
8.0
 10
1.625051540798611
 20
-1.8737874348958332
 10
1.7628553602430554
 20
-1.8737874348958332
 10
1.8737874348958332
 20
-1.7614773220486108
 10
1.8737874348958332
 20
-1.6243625217013888
 10
1.8737874348958332
 20
-1.6243625217013888
 10
1.8737874348958332
 20
1.6243625217013888
 10
1.8737874348958332
 20
1.6243625217013888
 10
1.8737874348958332
 20
1.7628553602430554
 10
1.7628553602430554
 20
1.8737874348958332
 10
1.625051540798611
 20
1.8737874348958332
 10
1.625051540798611
 20
1.8737874348958332
 10
-1.6236735026041664
 20
1.8737874348958332
 10
-1.6236735026041664
 20
1.8737874348958332
 10
-1.7628553602430554
 20
1.8737874348958332
 10
-1.8737874348958332
 20
1.7628553602430554
 10
-1.8737874348958332
 20
1.6243625217013888
 10
-1.8737874348958332
 20
1.6243625217013888
 10
-1.8737874348958332
 20
-1.6243625217013888
 10
-1.8737874348958332
 20
-1.6243625217013888
 10
-1.8737874348958332
 20
-1.7614773220486108
 10
-1.7628553602430554
 20
-1.8737874348958332
 10
-1.6236735026041664
 20
-1.8737874348958332
 10
-1.6236735026041664
 20
-1.8737874348958332
 10
1.625051540798611
 20
-1.8737874348958332
 10
1.625051540798611
 20
-1.8737874348958332
 97
        0
 75
     2
 76
     1
 98
        1
 10
0.0
 20
0.0
  0
ENDBLK
  5
1EA
100
AcDbEntity
  8
レイヤー_1
100
AcDbBlockEnd
  0
BLOCK
  5
1ED
100
AcDbEntity
  8
レイヤー_1
 62
     7
100
AcDbBlockBegin
  2
AI9-BLK48
 70
     0
 10
0.0
 20
0.0
 30
0.0
  3
AI9-BLK48
  1

  0
HATCH
  5
1F9
100
AcDbEntity
  8
レイヤー_1
 62
     7
100
AcDbHatch
 10
0.0
 20
0.0
 30
0.0
210
0.0
220
0.0
230
1.0
  2
SOLID
 70
     1
 71
     0
 91
        1
 92
        1
 93
        1
 72
     4
 94
        3
 73
     0
 74
     0
 95
       68
 96
       64
 40
0.0
 40
0.0
 40
0.0
 40
0.0
 40
1.0
 40
1.0
 40
1.0
 40
2.0
 40
2.0
 40
2.0
 40
3.0
 40
3.0
 40
3.0
 40
4.0
 40
4.0
 40
4.0
 40
5.0
 40
5.0
 40
5.0
 40
6.0
 40
6.0
 40
6.0
 40
7.0
 40
7.0
 40
7.0
 40
8.0
 40
8.0
 40
8.0
 40
9.0
 40
9.0
 40
9.0
 40
10.0
 40
10.0
 40
10.0
 40
11.0
 40
11.0
 40
11.0
 40
12.0
 40
12.0
 40
12.0
 40
13.0
 40
13.0
 40
13.0
 40
14.0
 40
14.0
 40
14.0
 40
15.0
 40
15.0
 40
15.0
 40
16.0
 40
16.0
 40
16.0
 40
17.0
 40
17.0
 40
17.0
 40
18.0
 40
18.0
 40
18.0
 40
19.0
 40
19.0
 40
19.0
 40
20.0
 40
20.0
 40
20.0
 40
21.0
 40
21.0
 40
21.0
 40
21.0
 10
-8.1135443793402775
 20
-3.6406046549479165
 10
-8.1135443793402775
 20
-3.7026163736979165
 10
-8.1624647352430539
 20
-3.7505032009548609
 10
-8.2217203776041661
 20
-3.7505032009548609
 10
-8.2217203776041661
 20
-3.7505032009548609
 10
-11.221709526909722
 20
-3.7505032009548609
 10
-11.221709526909722
 20
-3.7505032009548609
 10
-12.147062174479165
 20
-3.7505032009548609
 10
-12.898092990451389
 20
-3.000161404079861
 10
-12.898092990451389
 20
-2.0741197374131941
 10
-12.898092990451389
 20
-1.1487670898437499
 10
-12.147062174479165
 20
-0.3980807834201389
 10
-11.221709526909722
 20
-0.3980807834201389
 10
-11.221709526909722
 20
-0.3980807834201389
 10
-10.05244411892361
 20
-0.3980807834201389
 10
-10.05244411892361
 20
-0.3980807834201389
 10
-9.9911214192708329
 20
-0.3980807834201389
 10
-9.9428900824652775
 20
-0.4470011393229166
 10
-9.9428900824652775
 20
-0.5083238389756944
 10
-9.9428900824652775
 20
-0.5083238389756944
 10
-9.9428900824652775
 20
-1.5725138346354166
 10
-9.9428900824652775
 20
-1.5725138346354166
 10
-9.9428900824652775
 20
-1.6324584960937498
 10
-9.9911214192708329
 20
-1.6813788519965276
 10
-10.05244411892361
 20
-1.6813788519965276
 10
-10.05244411892361
 20
-1.6813788519965276
 10
-11.136960177951387
 20
-1.682412380642361
 10
-11.136960177951387
 20
-1.682412380642361
 10
-11.351245117187499
 20
-1.682412380642361
 10
-11.526255967881943
 20
-1.8570787217881943
 10
-11.526255967881943
 20
-2.0717081705729163
 10
-11.526255967881943
 20
-2.287371148003472
 10
-11.351245117187499
 20
-2.4630710177951385
 10
-11.136960177951387
 20
-2.4630710177951385
 10
-11.136960177951387
 20
-2.4630710177951385
 10
-9.61836208767361
 20
-2.4610039605034721
 10
-9.61836208767361
 20
-2.4610039605034721
 10
-9.61836208767361
 20
-2.4610039605034721
 10
-9.61836208767361
 20
-0.2130791558159722
 10
-9.61836208767361
 20
-0.2130791558159722
 10
-9.61836208767361
 20
0.1159274631076389
 10
-9.8843234592013882
 20
0.3822333441840278
 10
-10.215052625868054
 20
0.3822333441840278
 10
-10.215052625868054
 20
0.3822333441840278
 10
-12.348255750868054
 20
0.3822333441840278
 10
-12.348255750868054
 20
0.3822333441840278
 10
-12.410267469618054
 20
0.3822333441840278
 10
-12.458498806423609
 20
0.4308091905381944
 10
-12.458498806423609
 20
0.4917873806423611
 10
-12.458498806423609
 20
0.4917873806423611
 10
-12.458498806423609
 20
1.5604560004340275
 10
-12.458498806423609
 20
1.5604560004340275
 10
-12.458498806423609
 20
1.620400661892361
 10
-12.410267469618054
 20
1.6703545464409721
 10
-12.348255750868054
 20
1.6703545464409721
 10
-12.348255750868054
 20
1.6703545464409721
 10
-9.7940619574652761
 20
1.6703545464409721
 10
-9.7940619574652761
 20
1.6703545464409721
 10
-8.8625081380208321
 20
1.6703545464409721
 10
-8.1135443793402775
 20
0.9169121636284722
 10
-8.1135443793402775
 20
-0.0142971462673611
 10
-8.1135443793402775
 20
-0.0142971462673611
 10
-8.1135443793402775
 20
-3.6406046549479165
 10
-8.1135443793402775
 20
-3.6406046549479165
 97
        0
 75
     2
 76
     1
 98
        1
 10
0.0
 20
0.0
  0
INSERT
  5
1F2
100
AcDbEntity
  8
レイヤー_1
 62
     7
100
AcDbBlockReference
  2
AI9-BLK49
 10
7.290167
 20
-1.04283
 30
0.0
  0
HATCH
  5
1F0
100
AcDbEntity
  8
レイヤー_1
 62
     7
100
AcDbHatch
 10
0.0
 20
0.0
 30
0.0
210
0.0
220
0.0
230
1.0
  2
SOLID
 70
     1
 71
     0
 91
        1
 92
        1
 93
        1
 72
     4
 94
        3
 73
     0
 74
     0
 95
       47
 96
       43
 40
0.0
 40
0.0
 40
0.0
 40
0.0
 40
1.0
 40
1.0
 40
1.0
 40
2.0
 40
2.0
 40
2.0
 40
3.0
 40
3.0
 40
3.0
 40
4.0
 40
4.0
 40
4.0
 40
5.0
 40
5.0
 40
5.0
 40
6.0
 40
6.0
 40
6.0
 40
7.0
 40
7.0
 40
7.0
 40
8.0
 40
8.0
 40
8.0
 40
9.0
 40
9.0
 40
9.0
 40
10.0
 40
10.0
 40
10.0
 40
11.0
 40
11.0
 40
11.0
 40
12.0
 40
12.0
 40
12.0
 40
13.0
 40
13.0
 40
13.0
 40
14.0
 40
14.0
 40
14.0
 40
14.0
 10
-11.423592122395831
 20
3.7560153537326384
 10
-11.423592122395831
 20
3.7560153537326384
 10
-17.287833658854165
 20
3.7560153537326384
 10
-17.287833658854165
 20
3.7560153537326384
 10
-17.341577148437498
 20
3.7560153537326384
 10
-17.385674370659721
 20
3.7119181315104162
 10
-17.385674370659721
 20
3.6574856228298609
 10
-17.385674370659721
 20
3.6574856228298609
 10
-17.385674370659721
 20
2.3621297200520832
 10
-17.385674370659721
 20
2.3621297200520832
 10
-17.385674370659721
 20
2.3073527018229165
 10
-17.341577148437498
 20
2.2632554796006943
 10
-17.287833658854165
 20
2.2632554796006943
 10
-17.287833658854165
 20
2.2632554796006943
 10
-15.223532443576387
 20
2.2632554796006943
 10
-15.223532443576387
 20
2.2632554796006943
 10
-15.223532443576387
 20
2.2632554796006943
 10
-15.223532443576387
 20
-3.6406046549479165
 10
-15.223532443576387
 20
-3.6406046549479165
 10
-15.223532443576387
 20
-3.7026163736979165
 10
-15.175301106770831
 20
-3.7505032009548609
 10
-15.114667426215277
 20
-3.7505032009548609
 10
-15.114667426215277
 20
-3.7505032009548609
 10
-13.597447374131944
 20
-3.7505032009548609
 10
-13.597447374131944
 20
-3.7505032009548609
 10
-13.536124674479165
 20
-3.7505032009548609
 10
-13.489271375868054
 20
-3.7026163736979165
 10
-13.489271375868054
 20
-3.6406046549479165
 10
-13.489271375868054
 20
-3.6406046549479165
 10
-13.489271375868054
 20
2.2632554796006943
 10
-13.489271375868054
 20
2.2632554796006943
 10
-13.489271375868054
 20
2.2632554796006943
 10
-11.423592122395831
 20
2.2632554796006943
 10
-11.423592122395831
 20
2.2632554796006943
 10
-11.369159613715278
 20
2.2632554796006943
 10
-11.3264404296875
 20
2.3073527018229165
 10
-11.3264404296875
 20
2.3621297200520832
 10
-11.3264404296875
 20
2.3621297200520832
 10
-11.3264404296875
 20
3.6574856228298609
 10
-11.3264404296875
 20
3.6574856228298609
 10
-11.3264404296875
 20
3.7119181315104162
 10
-11.369159613715278
 20
3.7560153537326384
 10
-11.423592122395831
 20
3.7560153537326384
 97
        0
 75
     2
 76
     1
 98
        1
 10
0.0
 20
0.0
  0
HATCH
  5
1EF
100
AcDbEntity
  8
レイヤー_1
 62
     7
100
AcDbHatch
 10
0.0
 20
0.0
 30
0.0
210
0.0
220
0.0
230
1.0
  2
SOLID
 70
     1
 71
     0
 91
        1
 92
        1
 93
        1
 72
     4
 94
        3
 73
     0
 74
     0
 95
       29
 96
       25
 40
0.0
 40
0.0
 40
0.0
 40
0.0
 40
1.0
 40
1.0
 40
1.0
 40
2.0
 40
2.0
 40
2.0
 40
3.0
 40
3.0
 40
3.0
 40
4.0
 40
4.0
 40
4.0
 40
5.0
 40
5.0
 40
5.0
 40
6.0
 40
6.0
 40
6.0
 40
7.0
 40
7.0
 40
7.0
 40
8.0
 40
8.0
 40
8.0
 40
8.0
 10
-6.2662841796874993
 20
-3.7505032009548609
 10
-6.2063395182291661
 20
-3.7505032009548609
 10
-6.1560411241319439
 20
-3.7026163736979165
 10
-6.1560411241319439
 20
-3.6395711263020831
 10
-6.1560411241319439
 20
-3.6395711263020831
 10
-6.1560411241319439
 20
1.5676907009548611
 10
-6.1560411241319439
 20
1.5676907009548611
 10
-6.1560411241319439
 20
1.6279798719618055
 10
-6.2063395182291661
 20
1.6765557183159721
 10
-6.2662841796874993
 20
1.6765557183159721
 10
-6.2662841796874993
 20
1.6765557183159721
 10
-7.5533718532986107
 20
1.6765557183159721
 10
-7.5533718532986107
 20
1.6765557183159721
 10
-7.6146945529513879
 20
1.6765557183159721
 10
-7.6636149088541661
 20
1.6279798719618055
 10
-7.6636149088541661
 20
1.5676907009548611
 10
-7.6636149088541661
 20
1.5676907009548611
 10
-7.6636149088541661
 20
-3.6395711263020831
 10
-7.6636149088541661
 20
-3.6395711263020831
 10
-7.6636149088541661
 20
-3.7026163736979165
 10
-7.6146945529513879
 20
-3.7505032009548609
 10
-7.5533718532986107
 20
-3.7505032009548609
 10
-7.5533718532986107
 20
-3.7505032009548609
 10
-6.2662841796874993
 20
-3.7505032009548609
 10
-6.2662841796874993
 20
-3.7505032009548609
 97
        0
 75
     2
 76
     1
 98
        1
 10
0.0
 20
0.0
  0
HATCH
  5
1EE
100
AcDbEntity
  8
レイヤー_1
 62
     7
100
AcDbHatch
 10
0.0
 20
0.0
 30
0.0
210
0.0
220
0.0
230
1.0
  2
SOLID
 70
     1
 71
     0
 91
        1
 92
        1
 93
        1
 72
     4
 94
        3
 73
     0
 74
     0
 95
       29
 96
       25
 40
0.0
 40
0.0
 40
0.0
 40
0.0
 40
1.0
 40
1.0
 40
1.0
 40
2.0
 40
2.0
 40
2.0
 40
3.0
 40
3.0
 40
3.0
 40
4.0
 40
4.0
 40
4.0
 40
5.0
 40
5.0
 40
5.0
 40
6.0
 40
6.0
 40
6.0
 40
7.0
 40
7.0
 40
7.0
 40
8.0
 40
8.0
 40
8.0
 40
8.0
 10
-4.1420383029513888
 20
1.6731106228298609
 10
-4.2447021484374998
 20
1.6731106228298609
 10
-4.336341688368055
 20
1.6217787000868054
 10
-4.3914632161458327
 20
1.5435750325520832
 10
-4.3914632161458327
 20
1.5435750325520832
 10
-6.1560411241319439
 20
-1.0405910915798611
 10
-6.1560411241319439
 20
-1.0405910915798611
 10
-6.1560411241319439
 20
-1.0405910915798611
 10
-4.4031765407986105
 20
-3.7449910481770829
 10
-4.4031765407986105
 20
-3.7449910481770829
 10
-4.4031765407986105
 20
-3.7449910481770829
 10
-2.5593614366319444
 20
-3.7449910481770829
 10
-2.5593614366319444
 20
-3.7449910481770829
 10
-2.5593614366319444
 20
-3.7449910481770829
 10
-4.5664740668402777
 20
-1.0405910915798611
 10
-4.5664740668402777
 20
-1.0405910915798611
 10
-4.5664740668402777
 20
-1.0405910915798611
 10
-2.5607394748263888
 20
1.6713880750868053
 10
-2.5607394748263888
 20
1.6713880750868053
 10
-2.5607394748263888
 20
1.6713880750868053
 10
-4.1427273220486107
 20
1.6713880750868053
 10
-4.1427273220486107
 20
1.6713880750868053
 10
-4.1427273220486107
 20
1.6713880750868053
 10
-4.1420383029513888
 20
1.6731106228298609
 10
-4.1420383029513888
 20
1.6731106228298609
 97
        0
 75
     2
 76
     1
 98
        1
 10
0.0
 20
0.0
  0
ENDBLK
  5
1FA
100
AcDbEntity
  8
レイヤー_1
100
AcDbBlockEnd
  0
BLOCK
  5
1F3
100
AcDbEntity
  8
レイヤー_1
 62
     7
100
AcDbBlockBegin
  2
AI9-BLK49
 70
     0
 10
0.0
 20
0.0
 30
0.0
  3
AI9-BLK49
  1

  0
HATCH
  5
1F7
100
AcDbEntity
  8
レイヤー_1
 62
     7
100
AcDbHatch
 10
0.0
 20
0.0
 30
0.0
210
0.0
220
0.0
230
1.0
  2
SOLID
 70
     1
 71
     0
 91
        1
 92
        1
 93
        1
 72
     4
 94
        3
 73
     0
 74
     0
 95
       68
 96
       64
 40
0.0
 40
0.0
 40
0.0
 40
0.0
 40
1.0
 40
1.0
 40
1.0
 40
2.0
 40
2.0
 40
2.0
 40
3.0
 40
3.0
 40
3.0
 40
4.0
 40
4.0
 40
4.0
 40
5.0
 40
5.0
 40
5.0
 40
6.0
 40
6.0
 40
6.0
 40
7.0
 40
7.0
 40
7.0
 40
8.0
 40
8.0
 40
8.0
 40
9.0
 40
9.0
 40
9.0
 40
10.0
 40
10.0
 40
10.0
 40
11.0
 40
11.0
 40
11.0
 40
12.0
 40
12.0
 40
12.0
 40
13.0
 40
13.0
 40
13.0
 40
14.0
 40
14.0
 40
14.0
 40
15.0
 40
15.0
 40
15.0
 40
16.0
 40
16.0
 40
16.0
 40
17.0
 40
17.0
 40
17.0
 40
18.0
 40
18.0
 40
18.0
 40
19.0
 40
19.0
 40
19.0
 40
20.0
 40
20.0
 40
20.0
 40
21.0
 40
21.0
 40
21.0
 40
21.0
 10
-5.3095811631944443
 20
-2.5977742513020829
 10
-5.3095811631944443
 20
-2.6597859700520829
 10
-5.3585015190972216
 20
-2.7076727973090273
 10
-5.4198242187499996
 20
-2.7076727973090273
 10
-5.4198242187499996
 20
-2.7076727973090273
 10
-8.4198133680555554
 20
-2.7076727973090273
 10
-8.4198133680555554
 20
-2.7076727973090273
 10
-9.3444769965277761
 20
-2.7076727973090273
 10
-10.095507812499999
 20
-1.9573310004340276
 10
-10.095507812499999
 20
-1.031289333767361
 10
-10.095507812499999
 20
-0.1059366861979167
 10
-9.3444769965277761
 20
0.6447496202256944
 10
-8.4198133680555554
 20
0.6447496202256944
 10
-8.4198133680555554
 20
0.6447496202256944
 10
-7.2505479600694436
 20
0.6447496202256944
 10
-7.2505479600694436
 20
0.6447496202256944
 10
-7.1899142795138884
 20
0.6447496202256944
 10
-7.1403049045138882
 20
0.5958292643229166
 10
-7.1403049045138882
 20
0.5345065646701388
 10
-7.1403049045138882
 20
0.5345065646701388
 10
-7.1403049045138882
 20
-0.5296834309895833
 10
-7.1403049045138882
 20
-0.5296834309895833
 10
-7.1403049045138882
 20
-0.5896280924479166
 10
-7.1899142795138884
 20
-0.6385484483506944
 10
-7.2505479600694436
 20
-0.6385484483506944
 10
-7.2505479600694436
 20
-0.6385484483506944
 10
-8.3343749999999996
 20
-0.6395819769965278
 10
-8.3343749999999996
 20
-0.6395819769965278
 10
-8.5493489583333329
 20
-0.6395819769965278
 10
-8.723670789930555
 20
-0.814248318142361
 10
-8.723670789930555
 20
-1.0288777669270832
 10
-8.723670789930555
 20
-1.2445407443576388
 10
-8.5493489583333329
 20
-1.4202406141493054
 10
-8.3343749999999996
 20
-1.4202406141493054
 10
-8.3343749999999996
 20
-1.4202406141493054
 10
-6.8157769097222216
 20
-1.4181735568576388
 10
-6.8157769097222216
 20
-1.4181735568576388
 10
-6.8157769097222216
 20
-1.4181735568576388
 10
-6.8157769097222216
 20
0.829751247829861
 10
-6.8157769097222216
 20
0.829751247829861
 10
-6.8157769097222216
 20
1.1587578667534721
 10
-7.0824273003472218
 20
1.4250637478298609
 10
-7.4117784288194439
 20
1.4250637478298609
 10
-7.4117784288194439
 20
1.4250637478298609
 10
-9.5477376302083332
 20
1.4250637478298609
 10
-9.5477376302083332
 20
1.4250637478298609
 10
-9.6076822916666664
 20
1.4250637478298609
 10
-9.6566026475694429
 20
1.4736395941840277
 10
-9.6566026475694429
 20
1.5346177842881943
 10
-9.6566026475694429
 20
1.5346177842881943
 10
-9.6566026475694429
 20
2.6032864040798609
 10
-9.6566026475694429
 20
2.6032864040798609
 10
-9.6566026475694429
 20
2.6632310655381941
 10
-9.6076822916666664
 20
2.7131849500868053
 10
-9.5477376302083332
 20
2.7131849500868053
 10
-9.5477376302083332
 20
2.7131849500868053
 10
-6.9921657986111105
 20
2.7131849500868053
 10
-6.9921657986111105
 20
2.7131849500868053
 10
-6.0613009982638886
 20
2.7131849500868053
 10
-5.3095811631944443
 20
1.9597425672743054
 10
-5.3095811631944443
 20
1.0285332573784722
 10
-5.3095811631944443
 20
1.0285332573784722
 10
-5.3095811631944443
 20
-2.5977742513020829
 10
-5.3095811631944443
 20
-2.5977742513020829
 97
        0
 75
     2
 76
     1
 98
        1
 10
0.0
 20
0.0
  0
HATCH
  5
1F6
100
AcDbEntity
  8
レイヤー_1
 62
     7
100
AcDbHatch
 10
0.0
 20
0.0
 30
0.0
210
0.0
220
0.0
230
1.0
  2
SOLID
 70
     1
 71
     0
 91
        1
 92
        1
 93
        1
 72
     4
 94
        3
 73
     0
 74
     0
 95
       65
 96
       61
 40
0.0
 40
0.0
 40
0.0
 40
0.0
 40
1.0
 40
1.0
 40
1.0
 40
2.0
 40
2.0
 40
2.0
 40
3.0
 40
3.0
 40
3.0
 40
4.0
 40
4.0
 40
4.0
 40
5.0
 40
5.0
 40
5.0
 40
6.0
 40
6.0
 40
6.0
 40
7.0
 40
7.0
 40
7.0
 40
8.0
 40
8.0
 40
8.0
 40
9.0
 40
9.0
 40
9.0
 40
10.0
 40
10.0
 40
10.0
 40
11.0
 40
11.0
 40
11.0
 40
12.0
 40
12.0
 40
12.0
 40
13.0
 40
13.0
 40
13.0
 40
14.0
 40
14.0
 40
14.0
 40
15.0
 40
15.0
 40
15.0
 40
16.0
 40
16.0
 40
16.0
 40
17.0
 40
17.0
 40
17.0
 40
18.0
 40
18.0
 40
18.0
 40
19.0
 40
19.0
 40
19.0
 40
20.0
 40
20.0
 40
20.0
 40
20.0
 10
-4.6729275173611109
 20
-2.7131849500868053
 10
-4.7328721788194441
 20
-2.7131849500868053
 10
-4.7811035156249995
 20
-2.6659871419270833
 10
-4.7811035156249995
 20
-2.6063869900173611
 10
-4.7811035156249995
 20
-2.6063869900173611
 10
-4.7811035156249995
 20
-1.5359958224826387
 10
-4.7811035156249995
 20
-1.5359958224826387
 10
-4.7811035156249995
 20
-1.4760511610243054
 10
-4.7328721788194441
 20
-1.4247192382812499
 10
-4.6729275173611109
 20
-1.4247192382812499
 10
-4.6729275173611109
 20
-1.4247192382812499
 10
-2.1235568576388886
 20
-1.4247192382812499
 10
-2.1235568576388886
 20
-1.4247192382812499
 10
-1.9085828993055554
 20
-1.4247192382812499
 10
-1.7342610677083332
 20
-1.2472968207465276
 10
-1.7342610677083332
 20
-1.0302558051215276
 10
-1.7342610677083332
 20
-0.8166598849826389
 10
-1.9085828993055554
 20
-0.6395819769965278
 10
-2.1235568576388886
 20
-0.6395819769965278
 10
-2.1235568576388886
 20
-0.6395819769965278
 10
-3.2542371961805552
 20
-0.6085761176215278
 10
-3.2542371961805552
 20
-0.6085761176215278
 10
-4.1747667100694441
 20
-0.6085761176215278
 10
-4.9216634114583329
 20
0.1331529405381944
 10
-4.9216634114583329
 20
1.0481703016493054
 10
-4.9216634114583329
 20
1.9628431532118054
 10
-4.1747667100694441
 20
2.705950249565972
 10
-3.2542371961805552
 20
2.705950249565972
 10
-3.2542371961805552
 20
2.705950249565972
 10
-0.6869520399305555
 20
2.705950249565972
 10
-0.6869520399305555
 20
2.705950249565972
 10
-0.6263183593749999
 20
2.705950249565972
 10
-0.5780870225694444
 20
2.6580634223090276
 10
-0.5780870225694444
 20
2.5988077799479163
 10
-0.5780870225694444
 20
2.5988077799479163
 10
-0.5780870225694444
 20
1.5404744466145832
 10
-0.5780870225694444
 20
1.5404744466145832
 10
-0.5780870225694444
 20
1.4791517469618054
 10
-0.6263183593749999
 20
1.4278198242187499
 10
-0.6869520399305555
 20
1.4278198242187499
 10
-0.6869520399305555
 20
1.4278198242187499
 10
-3.095762803819444
 20
1.4278198242187499
 10
-3.095762803819444
 20
1.4278198242187499
 10
-3.3100477430555553
 20
1.4278198242187499
 10
-3.4857476128472218
 20
1.2500528971354166
 10
-3.4857476128472218
 20
1.0357679578993055
 10
-3.4857476128472218
 20
0.8197604709201388
 10
-3.3100477430555553
 20
0.6457831488715278
 10
-3.095762803819444
 20
0.6457831488715278
 10
-3.095762803819444
 20
0.6457831488715278
 10
-1.9513020833333332
 20
0.6109876844618055
 10
-1.9513020833333332
 20
0.6109876844618055
 10
-1.0300835503472221
 20
0.6109876844618055
 10
-0.2818088107638889
 20
-0.13177490234375
 10
-0.2818088107638889
 20
-1.0471367730034722
 10
-0.2818088107638889
 20
-1.9642211914062497
 10
-1.0300835503472221
 20
-2.7131849500868053
 10
-1.9513020833333332
 20
-2.7131849500868053
 10
-1.9513020833333332
 20
-2.7131849500868053
 10
-4.6729275173611109
 20
-2.7131849500868053
 10
-4.6729275173611109
 20
-2.7131849500868053
 97
        0
 75
     2
 76
     1
 98
        1
 10
0.0
 20
0.0
  0
HATCH
  5
1F5
100
AcDbEntity
  8
レイヤー_1
 62
     7
100
AcDbHatch
 10
0.0
 20
0.0
 30
0.0
210
0.0
220
0.0
230
1.0
  2
SOLID
 70
     1
 71
     0
 91
        1
 92
        1
 93
        1
 72
     4
 94
        3
 73
     0
 74
     0
 95
       65
 96
       61
 40
0.0
 40
0.0
 40
0.0
 40
0.0
 40
1.0
 40
1.0
 40
1.0
 40
2.0
 40
2.0
 40
2.0
 40
3.0
 40
3.0
 40
3.0
 40
4.0
 40
4.0
 40
4.0
 40
5.0
 40
5.0
 40
5.0
 40
6.0
 40
6.0
 40
6.0
 40
7.0
 40
7.0
 40
7.0
 40
8.0
 40
8.0
 40
8.0
 40
9.0
 40
9.0
 40
9.0
 40
10.0
 40
10.0
 40
10.0
 40
11.0
 40
11.0
 40
11.0
 40
12.0
 40
12.0
 40
12.0
 40
13.0
 40
13.0
 40
13.0
 40
14.0
 40
14.0
 40
14.0
 40
15.0
 40
15.0
 40
15.0
 40
16.0
 40
16.0
 40
16.0
 40
17.0
 40
17.0
 40
17.0
 40
18.0
 40
18.0
 40
18.0
 40
19.0
 40
19.0
 40
19.0
 40
20.0
 40
20.0
 40
20.0
 40
20.0
 10
4.465532769097222
 20
2.7114624023437499
 10
4.465532769097222
 20
2.7114624023437499
 10
3.2611273871527775
 20
2.7114624023437499
 10
3.2611273871527775
 20
2.7114624023437499
 10
3.2004937065972219
 20
2.7114624023437499
 10
3.0744032118055551
 20
2.6621975368923607
 10
3.0744032118055551
 20
2.6025973849826385
 10
3.0744032118055551
 20
2.6025973849826385
 10
3.0744032118055551
 20
0.6512953016493055
 10
3.0744032118055551
 20
0.6512953016493055
 10
3.0744032118055551
 20
0.6512953016493055
 10
1.5647623697916666
 20
0.6512953016493055
 10
1.5647623697916666
 20
0.6512953016493055
 10
1.5647623697916666
 20
0.6512953016493055
 10
1.5647623697916666
 20
2.6025973849826385
 10
1.5647623697916666
 20
2.6025973849826385
 10
1.5647623697916666
 20
2.6621975368923607
 10
1.5151529947916664
 20
2.7114624023437499
 10
1.4558973524305554
 20
2.7114624023437499
 10
1.4558973524305554
 20
2.7114624023437499
 10
0.1729437934027778
 20
2.7114624023437499
 10
0.1729437934027778
 20
2.7114624023437499
 10
0.1129991319444444
 20
2.7114624023437499
 10
0.0640787760416667
 20
2.6621975368923607
 10
0.0640787760416667
 20
2.6025973849826385
 10
0.0640787760416667
 20
2.6025973849826385
 10
0.0640787760416667
 20
-2.5977742513020829
 10
0.0640787760416667
 20
-2.5977742513020829
 10
0.0640787760416667
 20
-2.6597859700520829
 10
0.1129991319444444
 20
-2.7076727973090273
 10
0.1729437934027778
 20
-2.7076727973090273
 10
0.1729437934027778
 20
-2.7076727973090273
 10
1.4558973524305554
 20
-2.7076727973090273
 10
1.4558973524305554
 20
-2.7076727973090273
 10
1.5151529947916664
 20
-2.7076727973090273
 10
1.5647623697916666
 20
-2.6597859700520829
 10
1.5647623697916666
 20
-2.5977742513020829
 10
1.5647623697916666
 20
-2.5977742513020829
 10
1.5647623697916666
 20
-0.6354478624131944
 10
1.5647623697916666
 20
-0.6354478624131944
 10
1.5647623697916666
 20
-0.6354478624131944
 10
3.0744032118055551
 20
-0.6354478624131944
 10
3.0744032118055551
 20
-0.6354478624131944
 10
3.0744032118055551
 20
-0.6354478624131944
 10
3.0744032118055551
 20
-2.5977742513020829
 10
3.0744032118055551
 20
-2.5977742513020829
 10
3.0744032118055551
 20
-2.6597859700520829
 10
3.1233235677083329
 20
-2.7076727973090273
 10
3.1832682291666665
 20
-2.7076727973090273
 10
3.1832682291666665
 20
-2.7076727973090273
 10
4.465532769097222
 20
-2.7076727973090273
 10
4.465532769097222
 20
-2.7076727973090273
 10
4.5254774305555552
 20
-2.7076727973090273
 10
4.5743977864583325
 20
-2.6597859700520829
 10
4.5743977864583325
 20
-2.5977742513020829
 10
4.5743977864583325
 20
-2.5977742513020829
 10
4.5743977864583325
 20
2.6025973849826385
 10
4.5743977864583325
 20
2.6025973849826385
 10
4.5743977864583325
 20
2.6621975368923607
 10
4.5254774305555552
 20
2.7114624023437499
 10
4.465532769097222
 20
2.7114624023437499
 97
        0
 75
     2
 76
     1
 98
        1
 10
0.0
 20
0.0
  0
HATCH
  5
1F4
100
AcDbEntity
  8
レイヤー_1
 62
     7
100
AcDbHatch
 10
0.0
 20
0.0
 30
0.0
210
0.0
220
0.0
230
1.0
  2
SOLID
 70
     1
 71
     0
 91
        2
 92
        1
 93
        1
 72
     4
 94
        3
 73
     0
 74
     0
 95
       29
 96
       25
 40
0.0
 40
0.0
 40
0.0
 40
0.0
 40
1.0
 40
1.0
 40
1.0
 40
2.0
 40
2.0
 40
2.0
 40
3.0
 40
3.0
 40
3.0
 40
4.0
 40
4.0
 40
4.0
 40
5.0
 40
5.0
 40
5.0
 40
6.0
 40
6.0
 40
6.0
 40
7.0
 40
7.0
 40
7.0
 40
8.0
 40
8.0
 40
8.0
 40
8.0
 10
8.5927571614583318
 20
-0.8611016167534722
 10
8.5927571614583318
 20
-1.1639255099826389
 10
8.3467773437499986
 20
-1.4095608181423609
 10
8.0442979600694429
 20
-1.4095608181423609
 10
8.0442979600694429
 20
-1.4095608181423609
 10
7.0590006510416661
 20
-1.4095608181423609
 10
7.0590006510416661
 20
-1.4095608181423609
 10
6.7551432291666664
 20
-1.4095608181423609
 10
6.5098524305555552
 20
-1.1639255099826389
 10
6.5098524305555552
 20
-0.8611016167534722
 10
6.5098524305555552
 20
-0.8611016167534722
 10
6.5098524305555552
 20
0.8707478841145833
 10
6.5098524305555552
 20
0.8707478841145833
 10
6.5098524305555552
 20
1.1732272677951388
 10
6.7551432291666664
 20
1.4185180664062498
 10
7.0590006510416661
 20
1.4185180664062498
 10
7.0590006510416661
 20
1.4185180664062498
 10
8.0442979600694429
 20
1.4185180664062498
 10
8.0442979600694429
 20
1.4185180664062498
 10
8.3467773437499986
 20
1.4185180664062498
 10
8.5927571614583318
 20
1.1732272677951388
 10
8.5927571614583318
 20
0.8707478841145833
 10
8.5927571614583318
 20
0.8707478841145833
 10
8.5927571614583318
 20
-0.8611016167534722
 10
8.5927571614583318
 20
-0.8611016167534722
 97
        0
 92
       16
 93
        1
 72
     4
 94
        3
 73
     0
 74
     0
 95
       29
 96
       25
 40
0.0
 40
0.0
 40
0.0
 40
0.0
 40
1.0
 40
1.0
 40
1.0
 40
2.0
 40
2.0
 40
2.0
 40
3.0
 40
3.0
 40
3.0
 40
4.0
 40
4.0
 40
4.0
 40
5.0
 40
5.0
 40
5.0
 40
6.0
 40
6.0
 40
6.0
 40
7.0
 40
7.0
 40
7.0
 40
8.0
 40
8.0
 40
8.0
 40
8.0
 10
8.5576171875
 20
2.7121514214409719
 10
8.5576171875
 20
2.7121514214409719
 10
6.5456814236111107
 20
2.7121514214409719
 10
6.5456814236111107
 20
2.7121514214409719
 10
5.6968098958333329
 20
2.7121514214409719
 10
5.0064127604166666
 20
2.02313232421875
 10
5.0064127604166666
 20
1.1732272677951388
 10
5.0064127604166666
 20
1.1732272677951388
 10
5.0064127604166666
 20
-1.1639255099826389
 10
5.0064127604166666
 20
-1.1639255099826389
 10
5.0064127604166666
 20
-2.0134860568576385
 10
5.6968098958333329
 20
-2.7021606445312498
 10
6.5456814236111107
 20
-2.7021606445312498
 10
6.5456814236111107
 20
-2.7021606445312498
 10
8.5576171875
 20
-2.7021606445312498
 10
8.5576171875
 20
-2.7021606445312498
 10
9.4071777343749989
 20
-2.7021606445312498
 10
10.095507812499999
 20
-2.0134860568576385
 10
10.095507812499999
 20
-1.1639255099826389
 10
10.095507812499999
 20
-1.1639255099826389
 10
10.095507812499999
 20
1.1732272677951388
 10
10.095507812499999
 20
1.1732272677951388
 10
10.095507812499999
 20
2.02313232421875
 10
9.4071777343749989
 20
2.7121514214409719
 10
8.5576171875
 20
2.7121514214409719
 97
        0
 75
     2
 76
     1
 98
        1
 10
0.0
 20
0.0
  0
ENDBLK
  5
1F8
100
AcDbEntity
  8
レイヤー_1
100
AcDbBlockEnd
  0
BLOCK
  5
1FE
100
AcDbEntity
  8
レイヤー_1
 62
     7
100
AcDbBlockBegin
  2
AI9-BLK50
 70
     0
 10
0.0
 20
0.0
 30
0.0
  3
AI9-BLK50
  1

  0
MTEXT
  5
1FF
100
AcDbEntity
  8
レイヤー_1
 62
     7
100
AcDbMText
 10
-8.043351
 20
1.2313
 30
0.0
 40
2.393848
 41
0.0
 71
     1
 72
     2
  1
\fMS Gothic|b0|i0|c128;\H2.3938;\C7;\U+0032\U+0030\U+0031\U+0031\U+002E\U+0031\U+0032\U+002E\U+0032\U+0037
  7
STD
210
0.0
220
0.0
230
1.0
 73
     1
 44
1.0
  0
ENDBLK
  5
200
100
AcDbEntity
  8
レイヤー_1
100
AcDbBlockEnd
  0
BLOCK
  5
203
100
AcDbEntity
  8
レイヤー_1
 62
     7
100
AcDbBlockBegin
  2
AI9-BLK51
 70
     0
 10
0.0
 20
0.0
 30
0.0
  3
AI9-BLK51
  1

  0
MTEXT
  5
204
100
AcDbEntity
  8
レイヤー_1
 62
     7
100
AcDbMText
 10
-8.043351
 20
1.2313
 30
0.0
 40
2.393848
 41
0.0
 71
     1
 72
     2
  1
\fMS Gothic|b0|i0|c128;\H2.3938;\C7;\U+0032\U+0030\U+0031\U+0031\U+002E\U+0031\U+0032\U+002E\U+0032\U+0037
  7
STD
210
0.0
220
0.0
230
1.0
 73
     1
 44
1.0
  0
ENDBLK
  5
205
100
AcDbEntity
  8
レイヤー_1
100
AcDbBlockEnd
  0
BLOCK
  5
208
100
AcDbEntity
  8
レイヤー_1
 62
     7
100
AcDbBlockBegin
  2
AI9-BLK52
 70
     0
 10
0.0
 20
0.0
 30
0.0
  3
AI9-BLK52
  1

  0
MTEXT
  5
209
100
AcDbEntity
  8
レイヤー_1
 62
     7
100
AcDbMText
 10
-8.043351
 20
1.2313
 30
0.0
 40
2.393848
 41
0.0
 71
     1
 72
     2
  1
\fMS Gothic|b0|i0|c128;\H2.3938;\C7;\U+0032\U+0030\U+0031\U+0031\U+002E\U+0031\U+0032\U+002E\U+0032\U+0037
  7
STD
210
0.0
220
0.0
230
1.0
 73
     1
 44
1.0
  0
ENDBLK
  5
20A
100
AcDbEntity
  8
レイヤー_1
100
AcDbBlockEnd
  0
BLOCK
  5
20E
100
AcDbEntity
  8
レイヤー_1
 62
     7
100
AcDbBlockBegin
  2
AI9-BLK53
 70
     0
 10
0.0
 20
0.0
 30
0.0
  3
AI9-BLK53
  1

  0
MTEXT
  5
20F
100
AcDbEntity
  8
レイヤー_1
 62
     7
100
AcDbMText
 10
-20.912677
 20
1.2313
 30
0.0
 40
2.393848
 41
0.0
 71
     1
 72
     2
  1
\fMS Gothic|b0|i0|c128;\H2.3938;\C7;\U+30DD\U+30EA\U+30A8\U+30C1\U+30EC\U+30F3\U+3001\U+30D7\U+30E9\U+30B9\U+30C1\U+30C3\U+30AF
  7
STD
210
0.0
220
0.0
230
1.0
 73
     1
 44
1.0
  0
ENDBLK
  5
210
100
AcDbEntity
  8
レイヤー_1
100
AcDbBlockEnd
  0
BLOCK
  5
213
100
AcDbEntity
  8
レイヤー_1
 62
     7
100
AcDbBlockBegin
  2
AI9-BLK54
 70
     0
 10
0.0
 20
0.0
 30
0.0
  3
AI9-BLK54
  1

  0
MTEXT
  5
214
100
AcDbEntity
  8
レイヤー_1
 62
     7
100
AcDbMText
 10
-1.608687
 20
1.2313
 30
0.0
 40
2.393848
 41
0.0
 71
     1
 72
     2
  1
\fMS Gothic|b0|i0|c128;\H2.3938;\C7;\U+FF0F
  7
STD
210
0.0
220
0.0
230
1.0
 73
     1
 44
1.0
  0
ENDBLK
  5
215
100
AcDbEntity
  8
レイヤー_1
100
AcDbBlockEnd
  0
BLOCK
  5
218
100
AcDbEntity
  8
レイヤー_1
 62
     7
100
AcDbBlockBegin
  2
AI9-BLK55
 70
     0
 10
0.0
 20
0.0
 30
0.0
  3
AI9-BLK55
  1

  0
MTEXT
  5
219
100
AcDbEntity
  8
レイヤー_1
 62
     7
100
AcDbMText
 10
-3.217375
 20
1.2313
 30
0.0
 40
2.393848
 41
0.0
 71
     1
 72
     2
  1
\fMS Gothic|b0|i0|c128;\H2.3938;\C7;\U+6750\U+8CEA
  7
STD
210
0.0
220
0.0
230
1.0
 73
     1
 44
1.0
  0
ENDBLK
  5
21A
100
AcDbEntity
  8
レイヤー_1
100
AcDbBlockEnd
  0
BLOCK
  5
21D
100
AcDbEntity
  8
レイヤー_1
 62
     7
100
AcDbBlockBegin
  2
AI9-BLK56
 70
     0
 10
0.0
 20
0.0
 30
0.0
  3
AI9-BLK56
  1

  0
INSERT
  5
22A
100
AcDbEntity
  8
レイヤー_1
 62
     7
100
AcDbBlockReference
  2
AI9-BLK59
 10
-8.043264
 20
0.0
 30
0.0
  0
INSERT
  5
225
100
AcDbEntity
  8
レイヤー_1
 62
     7
100
AcDbBlockReference
  2
AI9-BLK58
 10
-3.217375
 20
0.0
 30
0.0
  0
INSERT
  5
21F
100
AcDbEntity
  8
レイヤー_1
 62
     7
100
AcDbBlockReference
  2
AI9-BLK57
 10
4.825976
 20
0.0
 30
0.0
  0
ENDBLK
  5
22E
100
AcDbEntity
  8
レイヤー_1
100
AcDbBlockEnd
  0
BLOCK
  5
220
100
AcDbEntity
  8
レイヤー_1
 62
     7
100
AcDbBlockBegin
  2
AI9-BLK57
 70
     0
 10
0.0
 20
0.0
 30
0.0
  3
AI9-BLK57
  1

  0
MTEXT
  5
222
100
AcDbEntity
  8
レイヤー_1
 62
     7
100
AcDbMText
 10
-6.434663
 20
1.2313
 30
0.0
 40
2.393848
 41
0.0
 71
     1
 72
     2
  1
\fMS Gothic|b0|i0|c128;\H2.3938;\C7;\U+7D04
  7
STD
210
0.0
220
0.0
230
1.0
 73
     1
 44
1.0
  0
MTEXT
  5
221
100
AcDbEntity
  8
レイヤー_1
 62
     7
100
AcDbMText
 10
-3.217289
 20
1.2313
 30
0.0
 40
2.393848
 41
0.0
 71
     1
 72
     2
  1
\fMS Gothic|b0|i0|c128;\H2.3938;\C7;\U+0031\U+002E\U+0033\U+0036\U+006B\U+0067
  7
STD
210
0.0
220
0.0
230
1.0
 73
     1
 44
1.0
  0
ENDBLK
  5
223
100
AcDbEntity
  8
レイヤー_1
100
AcDbBlockEnd
  0
BLOCK
  5
226
100
AcDbEntity
  8
レイヤー_1
 62
     7
100
AcDbBlockBegin
  2
AI9-BLK58
 70
     0
 10
0.0
 20
0.0
 30
0.0
  3
AI9-BLK58
  1

  0
MTEXT
  5
227
100
AcDbEntity
  8
レイヤー_1
 62
     7
100
AcDbMText
 10
-1.608687
 20
1.2313
 30
0.0
 40
2.393848
 41
0.0
 71
     1
 72
     2
  1
\fMS Gothic|b0|i0|c128;\H2.3938;\C7;\U+FF0F
  7
STD
210
0.0
220
0.0
230
1.0
 73
     1
 44
1.0
  0
ENDBLK
  5
228
100
AcDbEntity
  8
レイヤー_1
100
AcDbBlockEnd
  0
BLOCK
  5
22B
100
AcDbEntity
  8
レイヤー_1
 62
     7
100
AcDbBlockBegin
  2
AI9-BLK59
 70
     0
 10
0.0
 20
0.0
 30
0.0
  3
AI9-BLK59
  1

  0
MTEXT
  5
22C
100
AcDbEntity
  8
レイヤー_1
 62
     7
100
AcDbMText
 10
-3.217375
 20
1.2313
 30
0.0
 40
2.393848
 41
0.0
 71
     1
 72
     2
  1
\fMS Gothic|b0|i0|c128;\H2.3938;\C7;\U+91CD\U+91CF
  7
STD
210
0.0
220
0.0
230
1.0
 73
     1
 44
1.0
  0
ENDBLK
  5
22D
100
AcDbEntity
  8
レイヤー_1
100
AcDbBlockEnd
  0
BLOCK
  5
231
100
AcDbEntity
  8
レイヤー_1
 62
     7
100
AcDbBlockBegin
  2
AI9-BLK60
 70
     0
 10
0.0
 20
0.0
 30
0.0
  3
AI9-BLK60
  1

  0
MTEXT
  5
236
100
AcDbEntity
  8
レイヤー_1
 62
     7
100
AcDbMText
 10
-33.781917
 20
1.2313
 30
0.0
 40
2.393848
 41
0.0
 71
     1
 72
     2
  1
\fMS Gothic|b0|i0|c128;\H2.3938;\C7;\U+6D88\U+8CBB\U+96FB\U+529B\U+FF0F\U+7D04
  7
STD
210
0.0
220
0.0
230
1.0
 73
     1
 44
1.0
  0
MTEXT
  5
235
100
AcDbEntity
  8
レイヤー_1
 62
     7
100
AcDbMText
 10
-14.477842
 20
1.2313
 30
0.0
 40
2.393848
 41
0.0
 71
     1
 72
     2
  1
\fMS Gothic|b0|i0|c128;\H2.3938;\C7;\U+0032\U+002E\U+0038
  7
STD
210
0.0
220
0.0
230
1.0
 73
     1
 44
1.0
  0
MTEXT
  5
234
100
AcDbEntity
  8
レイヤー_1
 62
     7
100
AcDbMText
 10
-9.651952
 20
1.2313
 30
0.0
 40
2.393848
 41
0.0
 71
     1
 72
     2
  1
\fMS Gothic|b0|i0|c128;\H2.3938;\C7;\U+FF37\U+FF08\U+767D\U+FF09\U+3000\U+7D04
  7
STD
210
0.0
220
0.0
230
1.0
 73
     1
 44
1.0
  0
MTEXT
  5
233
100
AcDbEntity
  8
レイヤー_1
 62
     7
100
AcDbMText
 10
9.652124
 20
1.2313
 30
0.0
 40
2.393848
 41
0.0
 71
     1
 72
     2
  1
\fMS Gothic|b0|i0|c128;\H2.3938;\C7;\U+0032\U+002E\U+0036
  7
STD
210
0.0
220
0.0
230
1.0
 73
     1
 44
1.0
  0
MTEXT
  5
232
100
AcDbEntity
  8
レイヤー_1
 62
     7
100
AcDbMText
 10
14.478014
 20
1.2313
 30
0.0
 40
2.393848
 41
0.0
 71
     1
 72
     2
  1
\fMS Gothic|b0|i0|c128;\H2.3938;\C7;\U+FF37\U+FF08\U+96FB\U+7403\U+8272\U+FF09
  7
STD
210
0.0
220
0.0
230
1.0
 73
     1
 44
1.0
  0
ENDBLK
  5
237
100
AcDbEntity
  8
レイヤー_1
100
AcDbBlockEnd
  0
BLOCK
  5
23C
100
AcDbEntity
  8
レイヤー_1
 62
     7
100
AcDbBlockBegin
  2
AI9-BLK61
 70
     0
 10
0.0
 20
0.0
 30
0.0
  3
AI9-BLK61
  1

  0
MTEXT
  5
23D
100
AcDbEntity
  8
レイヤー_1
 62
     7
100
AcDbMText
 10
-1.608687
 20
1.2313
 30
0.0
 40
2.393848
 41
0.0
 71
     1
 72
     2
  1
\fMS Gothic|b0|i0|c128;\H2.3938;\C7;\U+3000
  7
STD
210
0.0
220
0.0
230
1.0
 73
     1
 44
1.0
  0
ENDBLK
  5
23E
100
AcDbEntity
  8
レイヤー_1
100
AcDbBlockEnd
  0
BLOCK
  5
24E
100
AcDbEntity
  8
レイヤー_1
 62
     7
100
AcDbBlockBegin
  2
AI9-BLK62
 70
     0
 10
0.0
 20
0.0
 30
0.0
  3
AI9-BLK62
  1

  0
MTEXT
  5
24F
100
AcDbEntity
  8
レイヤー_1
 62
     7
100
AcDbMText
 10
-1.608687
 20
1.2313
 30
0.0
 40
2.393848
 41
0.0
 71
     1
 72
     2
  1
\fMS Gothic|b0|i0|c128;\H2.3938;\C7;\U+756A
  7
STD
210
0.0
220
0.0
230
1.0
 73
     1
 44
1.0
  0
ENDBLK
  5
250
100
AcDbEntity
  8
レイヤー_1
100
AcDbBlockEnd
  0
BLOCK
  5
253
100
AcDbEntity
  8
レイヤー_1
 62
     7
100
AcDbBlockBegin
  2
AI9-BLK63
 70
     0
 10
0.0
 20
0.0
 30
0.0
  3
AI9-BLK63
  1

  0
MTEXT
  5
254
100
AcDbEntity
  8
レイヤー_1
 62
     7
100
AcDbMText
 10
-1.608687
 20
1.2313
 30
0.0
 40
2.393848
 41
0.0
 71
     1
 72
     2
  1
\fMS Gothic|b0|i0|c128;\H2.3938;\C7;\U+54C1
  7
STD
210
0.0
220
0.0
230
1.0
 73
     1
 44
1.0
  0
ENDBLK
  5
255
100
AcDbEntity
  8
レイヤー_1
100
AcDbBlockEnd
  0
BLOCK
  5
258
100
AcDbEntity
  8
レイヤー_1
 62
     7
100
AcDbBlockBegin
  2
AI9-BLK64
 70
     0
 10
0.0
 20
0.0
 30
0.0
  3
AI9-BLK64
  1

  0
MTEXT
  5
259
100
AcDbEntity
  8
レイヤー_1
 62
     7
100
AcDbMText
 10
-1.608687
 20
1.2313
 30
0.0
 40
2.393848
 41
0.0
 71
     1
 72
     2
  1
\fMS Gothic|b0|i0|c128;\H2.3938;\C7;
  7
STD
210
0.0
220
0.0
230
1.0
 73
     1
 44
1.0
  0
ENDBLK
  5
25A
100
AcDbEntity
  8
レイヤー_1
100
AcDbBlockEnd
  0
BLOCK
  5
25D
100
AcDbEntity
  8
レイヤー_1
 62
     7
100
AcDbBlockBegin
  2
AI9-BLK65
 70
     0
 10
0.0
 20
0.0
 30
0.0
  3
AI9-BLK65
  1

  0
MTEXT
  5
25E
100
AcDbEntity
  8
レイヤー_1
 62
     7
100
AcDbMText
 10
-3.217375
 20
1.2313
 30
0.0
 40
2.393848
 41
0.0
 71
     1
 72
     2
  1
\fMS Gothic|b0|i0|c128;\H2.3938;\C7;\U+3000\U+3000
  7
STD
210
0.0
220
0.0
230
1.0
 73
     1
 44
1.0
  0
ENDBLK
  5
25F
100
AcDbEntity
  8
レイヤー_1
100
AcDbBlockEnd
  0
BLOCK
  5
262
100
AcDbEntity
  8
レイヤー_1
 62
     7
100
AcDbBlockBegin
  2
AI9-BLK66
 70
     0
 10
0.0
 20
0.0
 30
0.0
  3
AI9-BLK66
  1

  0
MTEXT
  5
263
100
AcDbEntity
  8
レイヤー_1
 62
     7
100
AcDbMText
 10
-1.608687
 20
1.2313
 30
0.0
 40
2.393848
 41
0.0
 71
     1
 72
     2
  1
\fMS Gothic|b0|i0|c128;\H2.3938;\C7;\U+3000
  7
STD
210
0.0
220
0.0
230
1.0
 73
     1
 44
1.0
  0
ENDBLK
  5
264
100
AcDbEntity
  8
レイヤー_1
100
AcDbBlockEnd
  0
BLOCK
  5
267
100
AcDbEntity
  8
レイヤー_1
 62
     7
100
AcDbBlockBegin
  2
AI9-BLK67
 70
     0
 10
0.0
 20
0.0
 30
0.0
  3
AI9-BLK67
  1

  0
MTEXT
  5
268
100
AcDbEntity
  8
レイヤー_1
 62
     7
100
AcDbMText
 10
-1.608687
 20
1.2313
 30
0.0
 40
2.393848
 41
0.0
 71
     1
 72
     2
  1
\fMS Gothic|b0|i0|c128;\H2.3938;\C7;\U+54C1
  7
STD
210
0.0
220
0.0
230
1.0
 73
     1
 44
1.0
  0
ENDBLK
  5
269
100
AcDbEntity
  8
レイヤー_1
100
AcDbBlockEnd
  0
BLOCK
  5
26C
100
AcDbEntity
  8
レイヤー_1
 62
     7
100
AcDbBlockBegin
  2
AI9-BLK68
 70
     0
 10
0.0
 20
0.0
 30
0.0
  3
AI9-BLK68
  1

  0
MTEXT
  5
26D
100
AcDbEntity
  8
レイヤー_1
 62
     7
100
AcDbMText
 10
-1.608687
 20
1.2313
 30
0.0
 40
2.393848
 41
0.0
 71
     1
 72
     2
  1
\fMS Gothic|b0|i0|c128;\H2.3938;\C7;\U+3000
  7
STD
210
0.0
220
0.0
230
1.0
 73
     1
 44
1.0
  0
ENDBLK
  5
26E
100
AcDbEntity
  8
レイヤー_1
100
AcDbBlockEnd
  0
BLOCK
  5
274
100
AcDbEntity
  8
レイヤー_1
 62
     7
100
AcDbBlockBegin
  2
AI9-BLK69
 70
     0
 10
0.0
 20
0.0
 30
0.0
  3
AI9-BLK69
  1

  0
MTEXT
  5
277
100
AcDbEntity
  8
レイヤー_1
 62
     7
100
AcDbMText
 10
-4.021718
 20
1.2313
 30
0.0
 40
2.393848
 41
0.0
 71
     1
 72
     2
  1
\fMS Gothic|b0|i0|c128;\H2.3938;\C7;\U+82B1
  7
STD
210
0.0
220
0.0
230
1.0
 73
     1
 44
1.0
  0
MTEXT
  5
276
100
AcDbEntity
  8
レイヤー_1
 62
     7
100
AcDbMText
 10
-0.804344
 20
1.2313
 30
0.0
 40
2.393848
 41
0.0
 71
     1
 72
     2
  1
\fMS Gothic|b0|i0|c128;\H2.3938;\C7;\U+0020
  7
STD
210
0.0
220
0.0
230
1.0
 73
     1
 44
1.0
  0
MTEXT
  5
275
100
AcDbEntity
  8
レイヤー_1
 62
     7
100
AcDbMText
 10
0.804344
 20
1.2313
 30
0.0
 40
2.393848
 41
0.0
 71
     1
 72
     2
  1
\fMS Gothic|b0|i0|c128;\H2.3938;\C7;\U+7530
  7
STD
210
0.0
220
0.0
230
1.0
 73
     1
 44
1.0
  0
ENDBLK
  5
278
100
AcDbEntity
  8
レイヤー_1
100
AcDbBlockEnd
  0
BLOCK
  5
27B
100
AcDbEntity
  8
レイヤー_1
 62
     7
100
AcDbBlockBegin
  2
AI9-BLK70
 70
     0
 10
0.0
 20
0.0
 30
0.0
  3
AI9-BLK70
  1

  0
MTEXT
  5
27C
100
AcDbEntity
  8
レイヤー_1
 62
     7
100
AcDbMText
 10
-1.608687
 20
1.2313
 30
0.0
 40
2.393848
 41
0.0
 71
     1
 72
     2
  1
\fMS Gothic|b0|i0|c128;\H2.3938;\C7;\U+756A
  7
STD
210
0.0
220
0.0
230
1.0
 73
     1
 44
1.0
  0
ENDBLK
  5
27D
100
AcDbEntity
  8
レイヤー_1
100
AcDbBlockEnd
  0
BLOCK
  5
280
100
AcDbEntity
  8
レイヤー_1
 62
     7
100
AcDbBlockBegin
  2
AI9-BLK71
 70
     0
 10
0.0
 20
0.0
 30
0.0
  3
AI9-BLK71
  1

  0
MTEXT
  5
281
100
AcDbEntity
  8
レイヤー_1
 62
     7
100
AcDbMText
 10
-1.608687
 20
1.2313
 30
0.0
 40
2.393848
 41
0.0
 71
     1
 72
     2
  1
\fMS Gothic|b0|i0|c128;\H2.3938;\C7;\U+3000
  7
STD
210
0.0
220
0.0
230
1.0
 73
     1
 44
1.0
  0
ENDBLK
  5
282
100
AcDbEntity
  8
レイヤー_1
100
AcDbBlockEnd
  0
BLOCK
  5
285
100
AcDbEntity
  8
レイヤー_1
 62
     7
100
AcDbBlockBegin
  2
AI9-BLK72
 70
     0
 10
0.0
 20
0.0
 30
0.0
  3
AI9-BLK72
  1

  0
MTEXT
  5
286
100
AcDbEntity
  8
レイヤー_1
 62
     7
100
AcDbMText
 10
-1.608687
 20
1.2313
 30
0.0
 40
2.393848
 41
0.0
 71
     1
 72
     2
  1
\fMS Gothic|b0|i0|c128;\H2.3938;\C7;\U+56F3
  7
STD
210
0.0
220
0.0
230
1.0
 73
     1
 44
1.0
  0
ENDBLK
  5
287
100
AcDbEntity
  8
レイヤー_1
100
AcDbBlockEnd
  0
BLOCK
  5
28A
100
AcDbEntity
  8
レイヤー_1
 62
     7
100
AcDbBlockBegin
  2
AI9-BLK73
 70
     0
 10
0.0
 20
0.0
 30
0.0
  3
AI9-BLK73
  1

  0
MTEXT
  5
28B
100
AcDbEntity
  8
レイヤー_1
 62
     7
100
AcDbMText
 10
-1.608687
 20
1.2313
 30
0.0
 40
2.393848
 41
0.0
 71
     1
 72
     2
  1
\fMS Gothic|b0|i0|c128;\H2.3938;\C7;\U+5EA6
  7
STD
210
0.0
220
0.0
230
1.0
 73
     1
 44
1.0
  0
ENDBLK
  5
28C
100
AcDbEntity
  8
レイヤー_1
100
AcDbBlockEnd
  0
BLOCK
  5
28F
100
AcDbEntity
  8
レイヤー_1
 62
     7
100
AcDbBlockBegin
  2
AI9-BLK74
 70
     0
 10
0.0
 20
0.0
 30
0.0
  3
AI9-BLK74
  1

  0
MTEXT
  5
290
100
AcDbEntity
  8
レイヤー_1
 62
     7
100
AcDbMText
 10
-1.608687
 20
1.2313
 30
0.0
 40
2.393848
 41
0.0
 71
     1
 72
     2
  1
\fMS Gothic|b0|i0|c128;\H2.3938;\C7;\U+5C3A
  7
STD
210
0.0
220
0.0
230
1.0
 73
     1
 44
1.0
  0
ENDBLK
  5
291
100
AcDbEntity
  8
レイヤー_1
100
AcDbBlockEnd
  0
BLOCK
  5
294
100
AcDbEntity
  8
レイヤー_1
 62
     7
100
AcDbBlockBegin
  2
AI9-BLK75
 70
     0
 10
0.0
 20
0.0
 30
0.0
  3
AI9-BLK75
  1

  0
MTEXT
  5
297
100
AcDbEntity
  8
レイヤー_1
 62
     7
100
AcDbMText
 10
-4.021718
 20
1.2313
 30
0.0
 40
2.393848
 41
0.0
 71
     1
 72
     2
  1
\fMS Gothic|b0|i0|c128;\H2.3938;\C7;\U+53E4
  7
STD
210
0.0
220
0.0
230
1.0
 73
     1
 44
1.0
  0
MTEXT
  5
296
100
AcDbEntity
  8
レイヤー_1
 62
     7
100
AcDbMText
 10
-0.804344
 20
1.2313
 30
0.0
 40
2.393848
 41
0.0
 71
     1
 72
     2
  1
\fMS Gothic|b0|i0|c128;\H2.3938;\C7;\U+0020
  7
STD
210
0.0
220
0.0
230
1.0
 73
     1
 44
1.0
  0
MTEXT
  5
295
100
AcDbEntity
  8
レイヤー_1
 62
     7
100
AcDbMText
 10
0.804344
 20
1.2313
 30
0.0
 40
2.393848
 41
0.0
 71
     1
 72
     2
  1
\fMS Gothic|b0|i0|c128;\H2.3938;\C7;\U+6FA4
  7
STD
210
0.0
220
0.0
230
1.0
 73
     1
 44
1.0
  0
ENDBLK
  5
298
100
AcDbEntity
  8
レイヤー_1
100
AcDbBlockEnd
  0
BLOCK
  5
29B
100
AcDbEntity
  8
レイヤー_1
 62
     7
100
AcDbBlockBegin
  2
AI9-BLK76
 70
     0
 10
0.0
 20
0.0
 30
0.0
  3
AI9-BLK76
  1

  0
MTEXT
  5
29E
100
AcDbEntity
  8
レイヤー_1
 62
     7
100
AcDbMText
 10
-4.021718
 20
1.2313
 30
0.0
 40
2.393848
 41
0.0
 71
     1
 72
     2
  1
\fMS Gothic|b0|i0|c128;\H2.3938;\C7;\U+627F
  7
STD
210
0.0
220
0.0
230
1.0
 73
     1
 44
1.0
  0
MTEXT
  5
29D
100
AcDbEntity
  8
レイヤー_1
 62
     7
100
AcDbMText
 10
-0.804344
 20
1.2313
 30
0.0
 40
2.393848
 41
0.0
 71
     1
 72
     2
  1
\fMS Gothic|b0|i0|c128;\H2.3938;\C7;\U+0020
  7
STD
210
0.0
220
0.0
230
1.0
 73
     1
 44
1.0
  0
MTEXT
  5
29C
100
AcDbEntity
  8
レイヤー_1
 62
     7
100
AcDbMText
 10
0.804344
 20
1.2313
 30
0.0
 40
2.393848
 41
0.0
 71
     1
 72
     2
  1
\fMS Gothic|b0|i0|c128;\H2.3938;\C7;\U+8A8D
  7
STD
210
0.0
220
0.0
230
1.0
 73
     1
 44
1.0
  0
ENDBLK
  5
29F
100
AcDbEntity
  8
レイヤー_1
100
AcDbBlockEnd
  0
BLOCK
  5
2A2
100
AcDbEntity
  8
レイヤー_1
 62
     7
100
AcDbBlockBegin
  2
AI9-BLK77
 70
     0
 10
0.0
 20
0.0
 30
0.0
  3
AI9-BLK77
  1

  0
MTEXT
  5
2A5
100
AcDbEntity
  8
レイヤー_1
 62
     7
100
AcDbMText
 10
-4.021718
 20
1.2313
 30
0.0
 40
2.393848
 41
0.0
 71
     1
 72
     2
  1
\fMS Gothic|b0|i0|c128;\H2.3938;\C7;\U+691C
  7
STD
210
0.0
220
0.0
230
1.0
 73
     1
 44
1.0
  0
MTEXT
  5
2A4
100
AcDbEntity
  8
レイヤー_1
 62
     7
100
AcDbMText
 10
-0.804344
 20
1.2313
 30
0.0
 40
2.393848
 41
0.0
 71
     1
 72
     2
  1
\fMS Gothic|b0|i0|c128;\H2.3938;\C7;\U+0020
  7
STD
210
0.0
220
0.0
230
1.0
 73
     1
 44
1.0
  0
MTEXT
  5
2A3
100
AcDbEntity
  8
レイヤー_1
 62
     7
100
AcDbMText
 10
0.804344
 20
1.2313
 30
0.0
 40
2.393848
 41
0.0
 71
     1
 72
     2
  1
\fMS Gothic|b0|i0|c128;\H2.3938;\C7;\U+56F3
  7
STD
210
0.0
220
0.0
230
1.0
 73
     1
 44
1.0
  0
ENDBLK
  5
2A6
100
AcDbEntity
  8
レイヤー_1
100
AcDbBlockEnd
  0
BLOCK
  5
2A9
100
AcDbEntity
  8
レイヤー_1
 62
     7
100
AcDbBlockBegin
  2
AI9-BLK78
 70
     0
 10
0.0
 20
0.0
 30
0.0
  3
AI9-BLK78
  1

  0
MTEXT
  5
2AC
100
AcDbEntity
  8
レイヤー_1
 62
     7
100
AcDbMText
 10
-4.021718
 20
1.2313
 30
0.0
 40
2.393848
 41
0.0
 71
     1
 72
     2
  1
\fMS Gothic|b0|i0|c128;\H2.3938;\C7;\U+82B1
  7
STD
210
0.0
220
0.0
230
1.0
 73
     1
 44
1.0
  0
MTEXT
  5
2AB
100
AcDbEntity
  8
レイヤー_1
 62
     7
100
AcDbMText
 10
-0.804344
 20
1.2313
 30
0.0
 40
2.393848
 41
0.0
 71
     1
 72
     2
  1
\fMS Gothic|b0|i0|c128;\H2.3938;\C7;\U+0020
  7
STD
210
0.0
220
0.0
230
1.0
 73
     1
 44
1.0
  0
MTEXT
  5
2AA
100
AcDbEntity
  8
レイヤー_1
 62
     7
100
AcDbMText
 10
0.804344
 20
1.2313
 30
0.0
 40
2.393848
 41
0.0
 71
     1
 72
     2
  1
\fMS Gothic|b0|i0|c128;\H2.3938;\C7;\U+7530
  7
STD
210
0.0
220
0.0
230
1.0
 73
     1
 44
1.0
  0
ENDBLK
  5
2AD
100
AcDbEntity
  8
レイヤー_1
100
AcDbBlockEnd
  0
BLOCK
  5
2B0
100
AcDbEntity
  8
レイヤー_1
 62
     7
100
AcDbBlockBegin
  2
AI9-BLK79
 70
     0
 10
0.0
 20
0.0
 30
0.0
  3
AI9-BLK79
  1

  0
MTEXT
  5
2B3
100
AcDbEntity
  8
レイヤー_1
 62
     7
100
AcDbMText
 10
-4.021718
 20
1.2313
 30
0.0
 40
2.393848
 41
0.0
 71
     1
 72
     2
  1
\fMS Gothic|b0|i0|c128;\H2.3938;\C7;\U+65E5
  7
STD
210
0.0
220
0.0
230
1.0
 73
     1
 44
1.0
  0
MTEXT
  5
2B2
100
AcDbEntity
  8
レイヤー_1
 62
     7
100
AcDbMText
 10
-0.804344
 20
1.2313
 30
0.0
 40
2.393848
 41
0.0
 71
     1
 72
     2
  1
\fMS Gothic|b0|i0|c128;\H2.3938;\C7;\U+0020
  7
STD
210
0.0
220
0.0
230
1.0
 73
     1
 44
1.0
  0
MTEXT
  5
2B1
100
AcDbEntity
  8
レイヤー_1
 62
     7
100
AcDbMText
 10
0.804344
 20
1.2313
 30
0.0
 40
2.393848
 41
0.0
 71
     1
 72
     2
  1
\fMS Gothic|b0|i0|c128;\H2.3938;\C7;\U+4ED8
  7
STD
210
0.0
220
0.0
230
1.0
 73
     1
 44
1.0
  0
ENDBLK
  5
2B4
100
AcDbEntity
  8
レイヤー_1
100
AcDbBlockEnd
  0
BLOCK
  5
2B9
100
AcDbEntity
  8
レイヤー_1
 62
     7
100
AcDbBlockBegin
  2
AI9-BLK80
 70
     0
 10
0.0
 20
0.0
 30
0.0
  3
AI9-BLK80
  1

  0
MTEXT
  5
2BC
100
AcDbEntity
  8
レイヤー_1
 62
     7
100
AcDbMText
 10
-4.021718
 20
1.2313
 30
0.0
 40
2.393848
 41
0.0
 71
     1
 72
     2
  1
\fMS Gothic|b0|i0|c128;\H2.3938;\C7;\U+88FD
  7
STD
210
0.0
220
0.0
230
1.0
 73
     1
 44
1.0
  0
MTEXT
  5
2BB
100
AcDbEntity
  8
レイヤー_1
 62
     7
100
AcDbMText
 10
-0.804344
 20
1.2313
 30
0.0
 40
2.393848
 41
0.0
 71
     1
 72
     2
  1
\fMS Gothic|b0|i0|c128;\H2.3938;\C7;\U+0020
  7
STD
210
0.0
220
0.0
230
1.0
 73
     1
 44
1.0
  0
MTEXT
  5
2BA
100
AcDbEntity
  8
レイヤー_1
 62
     7
100
AcDbMText
 10
0.804344
 20
1.2313
 30
0.0
 40
2.393848
 41
0.0
 71
     1
 72
     2
  1
\fMS Gothic|b0|i0|c128;\H2.3938;\C7;\U+56F3
  7
STD
210
0.0
220
0.0
230
1.0
 73
     1
 44
1.0
  0
ENDBLK
  5
2BD
100
AcDbEntity
  8
レイヤー_1
100
AcDbBlockEnd
  0
BLOCK
  5
2C4
100
AcDbEntity
  8
レイヤー_1
 62
     7
100
AcDbBlockBegin
  2
AI9-BLK81
 70
     0
 10
0.0
 20
0.0
 30
0.0
  3
AI9-BLK81
  1

  0
INSERT
  5
2C6
100
AcDbEntity
  8
レイヤー_1
 62
     7
100
AcDbBlockReference
  2
AI9-BLK82
 10
-0.015761
 20
-0.030317
 30
0.0
  0
ENDBLK
  5
2CA
100
AcDbEntity
  8
レイヤー_1
100
AcDbBlockEnd
  0
BLOCK
  5
2C7
100
AcDbEntity
  8
レイヤー_1
 62
     7
100
AcDbBlockBegin
  2
AI9-BLK82
 70
     0
 10
0.0
 20
0.0
 30
0.0
  3
AI9-BLK82
  1

  0
MTEXT
  5
2C8
100
AcDbEntity
  8
レイヤー_1
 62
     7
100
AcDbMText
 10
-1.608687
 20
1.2313
 30
0.0
 40
2.393848
 41
0.0
 71
     1
 72
     2
  1
\fMS Gothic|b0|i0|c128;\H2.3938;\C7;\U+4ED8
  7
STD
210
0.0
220
0.0
230
1.0
 73
     1
 44
1.0
  0
ENDBLK
  5
2C9
100
AcDbEntity
  8
レイヤー_1
100
AcDbBlockEnd
  0
BLOCK
  5
2CD
100
AcDbEntity
  8
レイヤー_1
 62
     7
100
AcDbBlockBegin
  2
AI9-BLK83
 70
     0
 10
0.0
 20
0.0
 30
0.0
  3
AI9-BLK83
  1

  0
INSERT
  5
2CF
100
AcDbEntity
  8
レイヤー_1
 62
     7
100
AcDbBlockReference
  2
AI9-BLK84
 10
-0.015761
 20
-0.030317
 30
0.0
  0
ENDBLK
  5
2D3
100
AcDbEntity
  8
レイヤー_1
100
AcDbBlockEnd
  0
BLOCK
  5
2D0
100
AcDbEntity
  8
レイヤー_1
 62
     7
100
AcDbBlockBegin
  2
AI9-BLK84
 70
     0
 10
0.0
 20
0.0
 30
0.0
  3
AI9-BLK84
  1

  0
MTEXT
  5
2D1
100
AcDbEntity
  8
レイヤー_1
 62
     7
100
AcDbMText
 10
-1.608687
 20
1.2313
 30
0.0
 40
2.393848
 41
0.0
 71
     1
 72
     2
  1
\fMS Gothic|b0|i0|c128;\H2.3938;\C7;\U+3000
  7
STD
210
0.0
220
0.0
230
1.0
 73
     1
 44
1.0
  0
ENDBLK
  5
2D2
100
AcDbEntity
  8
レイヤー_1
100
AcDbBlockEnd
  0
BLOCK
  5
2D6
100
AcDbEntity
  8
レイヤー_1
 62
     7
100
AcDbBlockBegin
  2
AI9-BLK85
 70
     0
 10
0.0
 20
0.0
 30
0.0
  3
AI9-BLK85
  1

  0
INSERT
  5
2D8
100
AcDbEntity
  8
レイヤー_1
 62
     7
100
AcDbBlockReference
  2
AI9-BLK86
 10
-0.015761
 20
-0.030317
 30
0.0
  0
ENDBLK
  5
2DC
100
AcDbEntity
  8
レイヤー_1
100
AcDbBlockEnd
  0
BLOCK
  5
2D9
100
AcDbEntity
  8
レイヤー_1
 62
     7
100
AcDbBlockBegin
  2
AI9-BLK86
 70
     0
 10
0.0
 20
0.0
 30
0.0
  3
AI9-BLK86
  1

  0
MTEXT
  5
2DA
100
AcDbEntity
  8
レイヤー_1
 62
     7
100
AcDbMText
 10
-1.608687
 20
1.2313
 30
0.0
 40
2.393848
 41
0.0
 71
     1
 72
     2
  1
\fMS Gothic|b0|i0|c128;\H2.3938;\C7;\U+65E5
  7
STD
210
0.0
220
0.0
230
1.0
 73
     1
 44
1.0
  0
ENDBLK
  5
2DB
100
AcDbEntity
  8
レイヤー_1
100
AcDbBlockEnd
  0
BLOCK
  5
2DF
100
AcDbEntity
  8
レイヤー_1
 62
     7
100
AcDbBlockBegin
  2
AI9-BLK87
 70
     0
 10
0.0
 20
0.0
 30
0.0
  3
AI9-BLK87
  1

  0
INSERT
  5
2E1
100
AcDbEntity
  8
レイヤー_1
 62
     7
100
AcDbBlockReference
  2
AI9-BLK88
 10
0.0
 20
0.0
 30
0.0
  0
ENDBLK
  5
2E5
100
AcDbEntity
  8
レイヤー_1
100
AcDbBlockEnd
  0
BLOCK
  5
2E2
100
AcDbEntity
  8
レイヤー_1
 62
     7
100
AcDbBlockBegin
  2
AI9-BLK88
 70
     0
 10
0.0
 20
0.0
 30
0.0
  3
AI9-BLK88
  1

  0
MTEXT
  5
2E3
100
AcDbEntity
  8
レイヤー_1
 62
     7
100
AcDbMText
 10
-1.608687
 20
1.2313
 30
0.0
 40
2.393848
 41
0.0
 71
     1
 72
     2
  1
\fMS Gothic|b0|i0|c128;\H2.3938;\C7;\U+4E8B
  7
STD
210
0.0
220
0.0
230
1.0
 73
     1
 44
1.0
  0
ENDBLK
  5
2E4
100
AcDbEntity
  8
レイヤー_1
100
AcDbBlockEnd
  0
BLOCK
  5
2E8
100
AcDbEntity
  8
レイヤー_1
 62
     7
100
AcDbBlockBegin
  2
AI9-BLK89
 70
     0
 10
0.0
 20
0.0
 30
0.0
  3
AI9-BLK89
  1

  0
INSERT
  5
2EA
100
AcDbEntity
  8
レイヤー_1
 62
     7
100
AcDbBlockReference
  2
AI9-BLK90
 10
-0.015761
 20
-0.030317
 30
0.0
  0
ENDBLK
  5
2EE
100
AcDbEntity
  8
レイヤー_1
100
AcDbBlockEnd
  0
BLOCK
  5
2EB
100
AcDbEntity
  8
レイヤー_1
 62
     7
100
AcDbBlockBegin
  2
AI9-BLK90
 70
     0
 10
0.0
 20
0.0
 30
0.0
  3
AI9-BLK90
  1

  0
MTEXT
  5
2EC
100
AcDbEntity
  8
レイヤー_1
 62
     7
100
AcDbMText
 10
-1.608687
 20
1.2313
 30
0.0
 40
2.393848
 41
0.0
 71
     1
 72
     2
  1
\fMS Gothic|b0|i0|c128;\H2.3938;\C7;\U+3000
  7
STD
210
0.0
220
0.0
230
1.0
 73
     1
 44
1.0
  0
ENDBLK
  5
2ED
100
AcDbEntity
  8
レイヤー_1
100
AcDbBlockEnd
  0
BLOCK
  5
2F1
100
AcDbEntity
  8
レイヤー_1
 62
     7
100
AcDbBlockBegin
  2
AI9-BLK91
 70
     0
 10
0.0
 20
0.0
 30
0.0
  3
AI9-BLK91
  1

  0
INSERT
  5
2F3
100
AcDbEntity
  8
レイヤー_1
 62
     7
100
AcDbBlockReference
  2
AI9-BLK92
 10
0.0
 20
0.0
 30
0.0
  0
ENDBLK
  5
2F7
100
AcDbEntity
  8
レイヤー_1
100
AcDbBlockEnd
  0
BLOCK
  5
2F4
100
AcDbEntity
  8
レイヤー_1
 62
     7
100
AcDbBlockBegin
  2
AI9-BLK92
 70
     0
 10
0.0
 20
0.0
 30
0.0
  3
AI9-BLK92
  1

  0
MTEXT
  5
2F5
100
AcDbEntity
  8
レイヤー_1
 62
     7
100
AcDbMText
 10
-1.608687
 20
1.2313
 30
0.0
 40
2.393848
 41
0.0
 71
     1
 72
     2
  1
\fMS Gothic|b0|i0|c128;\H2.3938;\C7;\U+8A18
  7
STD
210
0.0
220
0.0
230
1.0
 73
     1
 44
1.0
  0
ENDBLK
  5
2F6
100
AcDbEntity
  8
レイヤー_1
100
AcDbBlockEnd
  0
BLOCK
  5
303
100
AcDbEntity
  8
レイヤー_1
 62
     7
100
AcDbBlockBegin
  2
AI9-BLK93
 70
     0
 10
0.0
 20
0.0
 30
0.0
  3
AI9-BLK93
  1

  0
MTEXT
  5
304
100
AcDbEntity
  8
レイヤー_1
 62
     7
100
AcDbMText
 10
-1.608687
 20
1.2313
 30
0.0
 40
2.393848
 41
0.0
 71
     1
 72
     2
  1
\fMS Gothic|b0|i0|c128;\H2.3938;\C7;\U+2462
  7
STD
210
0.0
220
0.0
230
1.0
 73
     1
 44
1.0
  0
ENDBLK
  5
305
100
AcDbEntity
  8
レイヤー_1
100
AcDbBlockEnd
  0
BLOCK
  5
30E
100
AcDbEntity
  8
レイヤー_1
 62
     7
100
AcDbBlockBegin
  2
AI9-BLK94
 70
     0
 10
0.0
 20
0.0
 30
0.0
  3
AI9-BLK94
  1

  0
MTEXT
  5
30F
100
AcDbEntity
  8
レイヤー_1
 62
     7
100
AcDbMText
 10
-1.608687
 20
1.2313
 30
0.0
 40
2.393848
 41
0.0
 71
     1
 72
     2
  1
\fMS Gothic|b0|i0|c128;\H2.3938;\C7;\U+2460
  7
STD
210
0.0
220
0.0
230
1.0
 73
     1
 44
1.0
  0
ENDBLK
  5
310
100
AcDbEntity
  8
レイヤー_1
100
AcDbBlockEnd
  0
BLOCK
  5
313
100
AcDbEntity
  8
レイヤー_1
 62
     7
100
AcDbBlockBegin
  2
AI9-BLK95
 70
     0
 10
0.0
 20
0.0
 30
0.0
  3
AI9-BLK95
  1

  0
MTEXT
  5
314
100
AcDbEntity
  8
レイヤー_1
 62
     7
100
AcDbMText
 10
-1.608687
 20
1.2313
 30
0.0
 40
2.393848
 41
0.0
 71
     1
 72
     2
  1
\fMS Gothic|b0|i0|c128;\H2.3938;\C7;\U+2461
  7
STD
210
0.0
220
0.0
230
1.0
 73
     1
 44
1.0
  0
ENDBLK
  5
315
100
AcDbEntity
  8
レイヤー_1
100
AcDbBlockEnd
  0
BLOCK
  5
318
100
AcDbEntity
  8
レイヤー_1
 62
     7
100
AcDbBlockBegin
  2
AI9-BLK96
 70
     0
 10
0.0
 20
0.0
 30
0.0
  3
AI9-BLK96
  1

  0
MTEXT
  5
319
100
AcDbEntity
  8
レイヤー_1
 62
     7
100
AcDbMText
 10
-1.608687
 20
1.2313
 30
0.0
 40
2.393848
 41
0.0
 71
     1
 72
     2
  1
\fMS Gothic|b0|i0|c128;\H2.3938;\C7;\U+6B04
  7
STD
210
0.0
220
0.0
230
1.0
 73
     1
 44
1.0
  0
ENDBLK
  5
31A
100
AcDbEntity
  8
レイヤー_1
100
AcDbBlockEnd
  0
BLOCK
  5
31D
100
AcDbEntity
  8
レイヤー_1
 62
     7
100
AcDbBlockBegin
  2
AI9-BLK97
 70
     0
 10
0.0
 20
0.0
 30
0.0
  3
AI9-BLK97
  1

  0
MTEXT
  5
31E
100
AcDbEntity
  8
レイヤー_1
 62
     7
100
AcDbMText
 10
-1.608687
 20
1.2313
 30
0.0
 40
2.393848
 41
0.0
 71
     1
 72
     2
  1
\fMS Gothic|b0|i0|c128;\H2.3938;\C7;\U+3000
  7
STD
210
0.0
220
0.0
230
1.0
 73
     1
 44
1.0
  0
ENDBLK
  5
31F
100
AcDbEntity
  8
レイヤー_1
100
AcDbBlockEnd
  0
BLOCK
  5
322
100
AcDbEntity
  8
レイヤー_1
 62
     7
100
AcDbBlockBegin
  2
AI9-BLK98
 70
     0
 10
0.0
 20
0.0
 30
0.0
  3
AI9-BLK98
  1

  0
MTEXT
  5
323
100
AcDbEntity
  8
レイヤー_1
 62
     7
100
AcDbMText
 10
-1.608687
 20
1.2313
 30
0.0
 40
2.393848
 41
0.0
 71
     1
 72
     2
  1
\fMS Gothic|b0|i0|c128;\H2.3938;\C7;\U+3000
  7
STD
210
0.0
220
0.0
230
1.0
 73
     1
 44
1.0
  0
ENDBLK
  5
324
100
AcDbEntity
  8
レイヤー_1
100
AcDbBlockEnd
  0
BLOCK
  5
327
100
AcDbEntity
  8
レイヤー_1
 62
     7
100
AcDbBlockBegin
  2
AI9-BLK99
 70
     0
 10
0.0
 20
0.0
 30
0.0
  3
AI9-BLK99
  1

  0
MTEXT
  5
328
100
AcDbEntity
  8
レイヤー_1
 62
     7
100
AcDbMText
 10
-1.608687
 20
1.2313
 30
0.0
 40
2.393848
 41
0.0
 71
     1
 72
     2
  1
\fMS Gothic|b0|i0|c128;\H2.3938;\C7;
  7
STD
210
0.0
220
0.0
230
1.0
 73
     1
 44
1.0
  0
ENDBLK
  5
329
100
AcDbEntity
  8
レイヤー_1
100
AcDbBlockEnd
  0
BLOCK
  5
32C
100
AcDbEntity
  8
レイヤー_1
 62
     7
100
AcDbBlockBegin
  2
AI9-BLK100
 70
     0
 10
0.0
 20
0.0
 30
0.0
  3
AI9-BLK100
  1

  0
MTEXT
  5
32D
100
AcDbEntity
  8
レイヤー_1
 62
     7
100
AcDbMText
 10
-1.608687
 20
1.2313
 30
0.0
 40
2.393848
 41
0.0
 71
     1
 72
     2
  1
\fMS Gothic|b0|i0|c128;\H2.3938;\C7;\U+3000
  7
STD
210
0.0
220
0.0
230
1.0
 73
     1
 44
1.0
  0
ENDBLK
  5
32E
100
AcDbEntity
  8
レイヤー_1
100
AcDbBlockEnd
  0
BLOCK
  5
331
100
AcDbEntity
  8
レイヤー_1
 62
     7
100
AcDbBlockBegin
  2
AI9-BLK101
 70
     0
 10
0.0
 20
0.0
 30
0.0
  3
AI9-BLK101
  1

  0
MTEXT
  5
332
100
AcDbEntity
  8
レイヤー_1
 62
     7
100
AcDbMText
 10
-1.608687
 20
1.2313
 30
0.0
 40
2.393848
 41
0.0
 71
     1
 72
     2
  1
\fMS Gothic|b0|i0|c128;\H2.3938;\C7;\U+3000
  7
STD
210
0.0
220
0.0
230
1.0
 73
     1
 44
1.0
  0
ENDBLK
  5
333
100
AcDbEntity
  8
レイヤー_1
100
AcDbBlockEnd
  0
BLOCK
  5
336
100
AcDbEntity
  8
レイヤー_1
 62
     7
100
AcDbBlockBegin
  2
AI9-BLK102
 70
     0
 10
0.0
 20
0.0
 30
0.0
  3
AI9-BLK102
  1

  0
MTEXT
  5
337
100
AcDbEntity
  8
レイヤー_1
 62
     7
100
AcDbMText
 10
-1.608687
 20
1.2313
 30
0.0
 40
2.393848
 41
0.0
 71
     1
 72
     2
  1
\fMS Gothic|b0|i0|c128;\H2.3938;\C7;\U+5099
  7
STD
210
0.0
220
0.0
230
1.0
 73
     1
 44
1.0
  0
ENDBLK
  5
338
100
AcDbEntity
  8
レイヤー_1
100
AcDbBlockEnd
  0
BLOCK
  5
33B
100
AcDbEntity
  8
レイヤー_1
 62
     7
100
AcDbBlockBegin
  2
AI9-BLK103
 70
     0
 10
0.0
 20
0.0
 30
0.0
  3
AI9-BLK103
  1

  0
INSERT
  5
33D
100
AcDbEntity
  8
レイヤー_1
 62
     7
100
AcDbBlockReference
  2
AI9-BLK104
 10
-0.015761
 20
-0.030145
 30
0.0
  0
ENDBLK
  5
343
100
AcDbEntity
  8
レイヤー_1
100
AcDbBlockEnd
  0
BLOCK
  5
33E
100
AcDbEntity
  8
レイヤー_1
 62
     7
100
AcDbBlockBegin
  2
AI9-BLK104
 70
     0
 10
0.0
 20
0.0
 30
0.0
  3
AI9-BLK104
  1

  0
MTEXT
  5
341
100
AcDbEntity
  8
レイヤー_1
 62
     7
100
AcDbMText
 10
-4.021718
 20
1.2313
 30
0.0
 40
2.393848
 41
0.0
 71
     1
 72
     2
  1
\fMS Gothic|b0|i0|c128;\H2.3938;\C7;\U+7B26
  7
STD
210
0.0
220
0.0
230
1.0
 73
     1
 44
1.0
  0
MTEXT
  5
340
100
AcDbEntity
  8
レイヤー_1
 62
     7
100
AcDbMText
 10
-0.804344
 20
1.2313
 30
0.0
 40
2.393848
 41
0.0
 71
     1
 72
     2
  1
\fMS Gothic|b0|i0|c128;\H2.3938;\C7;\U+0020
  7
STD
210
0.0
220
0.0
230
1.0
 73
     1
 44
1.0
  0
MTEXT
  5
33F
100
AcDbEntity
  8
レイヤー_1
 62
     7
100
AcDbMText
 10
0.804344
 20
1.2313
 30
0.0
 40
2.393848
 41
0.0
 71
     1
 72
     2
  1
\fMS Gothic|b0|i0|c128;\H2.3938;\C7;\U+53F7
  7
STD
210
0.0
220
0.0
230
1.0
 73
     1
 44
1.0
  0
ENDBLK
  5
342
100
AcDbEntity
  8
レイヤー_1
100
AcDbBlockEnd
  0
BLOCK
  5
347
100
AcDbEntity
  8
レイヤー_1
 62
     7
100
AcDbBlockBegin
  2
AI9-BLK105
 70
     0
 10
0.0
 20
0.0
 30
0.0
  3
AI9-BLK105
  1

  0
MTEXT
  5
348
100
AcDbEntity
  8
レイヤー_1
 62
     7
100
AcDbMText
 10
1.608687
 20
-1.2313
 30
0.0
 40
2.393848
 41
0.0
 71
     1
 72
     2
  1
\fMS Gothic|b0|i0|c128;\H2.3938;\C7;\U+756A
  7
STD
210
0.0
220
0.0
230
1.0
 11
-1.0
 21
0.0
 31
0.0
 73
     1
 44
1.0
  0
ENDBLK
  5
349
100
AcDbEntity
  8
レイヤー_1
100
AcDbBlockEnd
  0
BLOCK
  5
34C
100
AcDbEntity
  8
レイヤー_1
 62
     7
100
AcDbBlockBegin
  2
AI9-BLK106
 70
     0
 10
0.0
 20
0.0
 30
0.0
  3
AI9-BLK106
  1

  0
MTEXT
  5
34D
100
AcDbEntity
  8
レイヤー_1
 62
     7
100
AcDbMText
 10
1.608687
 20
-1.2313
 30
0.0
 40
2.393848
 41
0.0
 71
     1
 72
     2
  1
\fMS Gothic|b0|i0|c128;\H2.3938;\C7;\U+3000
  7
STD
210
0.0
220
0.0
230
1.0
 11
-1.0
 21
0.0
 31
0.0
 73
     1
 44
1.0
  0
ENDBLK
  5
34E
100
AcDbEntity
  8
レイヤー_1
100
AcDbBlockEnd
  0
BLOCK
  5
351
100
AcDbEntity
  8
レイヤー_1
 62
     7
100
AcDbBlockBegin
  2
AI9-BLK107
 70
     0
 10
0.0
 20
0.0
 30
0.0
  3
AI9-BLK107
  1

  0
MTEXT
  5
352
100
AcDbEntity
  8
レイヤー_1
 62
     7
100
AcDbMText
 10
1.608687
 20
-1.2313
 30
0.0
 40
2.393848
 41
0.0
 71
     1
 72
     2
  1
\fMS Gothic|b0|i0|c128;\H2.3938;\C7;\U+56F3
  7
STD
210
0.0
220
0.0
230
1.0
 11
-1.0
 21
0.0
 31
0.0
 73
     1
 44
1.0
  0
ENDBLK
  5
353
100
AcDbEntity
  8
レイヤー_1
100
AcDbBlockEnd
  0
BLOCK
  5
35E
100
AcDbEntity
  8
レイヤー_1
 62
     7
100
AcDbBlockBegin
  2
AI9-BLK108
 70
     0
 10
0.0
 20
0.0
 30
0.0
  3
AI9-BLK108
  1

  0
MTEXT
  5
35F
100
AcDbEntity
  8
レイヤー_1
 62
     7
100
AcDbMText
 10
-1.608687
 20
1.2313
 30
0.0
 40
2.393848
 41
0.0
 71
     1
 72
     2
  1
\fMS Gothic|b0|i0|c128;\H2.3938;\C7;\U+65E5
  7
STD
210
0.0
220
0.0
230
1.0
 73
     1
 44
1.0
  0
ENDBLK
  5
360
100
AcDbEntity
  8
レイヤー_1
100
AcDbBlockEnd
  0
BLOCK
  5
363
100
AcDbEntity
  8
レイヤー_1
 62
     7
100
AcDbBlockBegin
  2
AI9-BLK109
 70
     0
 10
0.0
 20
0.0
 30
0.0
  3
AI9-BLK109
  1

  0
MTEXT
  5
364
100
AcDbEntity
  8
レイヤー_1
 62
     7
100
AcDbMText
 10
-1.608687
 20
1.2313
 30
0.0
 40
2.393848
 41
0.0
 71
     1
 72
     2
  1
\fMS Gothic|b0|i0|c128;\H2.3938;\C7;\U+0032\U+0037
  7
STD
210
0.0
220
0.0
230
1.0
 73
     1
 44
1.0
  0
ENDBLK
  5
365
100
AcDbEntity
  8
レイヤー_1
100
AcDbBlockEnd
  0
BLOCK
  5
368
100
AcDbEntity
  8
レイヤー_1
 62
     7
100
AcDbBlockBegin
  2
AI9-BLK110
 70
     0
 10
0.0
 20
0.0
 30
0.0
  3
AI9-BLK110
  1

  0
MTEXT
  5
369
100
AcDbEntity
  8
レイヤー_1
 62
     7
100
AcDbMText
 10
-1.608687
 20
1.2313
 30
0.0
 40
2.393848
 41
0.0
 71
     1
 72
     2
  1
\fMS Gothic|b0|i0|c128;\H2.3938;\C7;\U+3000
  7
STD
210
0.0
220
0.0
230
1.0
 73
     1
 44
1.0
  0
ENDBLK
  5
36A
100
AcDbEntity
  8
レイヤー_1
100
AcDbBlockEnd
  0
BLOCK
  5
36D
100
AcDbEntity
  8
レイヤー_1
 62
     7
100
AcDbBlockBegin
  2
AI9-BLK111
 70
     0
 10
0.0
 20
0.0
 30
0.0
  3
AI9-BLK111
  1

  0
MTEXT
  5
36E
100
AcDbEntity
  8
レイヤー_1
 62
     7
100
AcDbMText
 10
-1.608687
 20
1.2313
 30
0.0
 40
2.393848
 41
0.0
 71
     1
 72
     2
  1
\fMS Gothic|b0|i0|c128;\H2.3938;\C7;\U+6708
  7
STD
210
0.0
220
0.0
230
1.0
 73
     1
 44
1.0
  0
ENDBLK
  5
36F
100
AcDbEntity
  8
レイヤー_1
100
AcDbBlockEnd
  0
BLOCK
  5
372
100
AcDbEntity
  8
レイヤー_1
 62
     7
100
AcDbBlockBegin
  2
AI9-BLK112
 70
     0
 10
0.0
 20
0.0
 30
0.0
  3
AI9-BLK112
  1

  0
MTEXT
  5
373
100
AcDbEntity
  8
レイヤー_1
 62
     7
100
AcDbMText
 10
-2.413031
 20
1.2313
 30
0.0
 40
2.393848
 41
0.0
 71
     1
 72
     2
  1
\fMS Gothic|b0|i0|c128;\H2.3938;\C7;\U+0020\U+0031\U+0032
  7
STD
210
0.0
220
0.0
230
1.0
 73
     1
 44
1.0
  0
ENDBLK
  5
374
100
AcDbEntity
  8
レイヤー_1
100
AcDbBlockEnd
  0
BLOCK
  5
377
100
AcDbEntity
  8
レイヤー_1
 62
     7
100
AcDbBlockBegin
  2
AI9-BLK113
 70
     0
 10
0.0
 20
0.0
 30
0.0
  3
AI9-BLK113
  1

  0
MTEXT
  5
378
100
AcDbEntity
  8
レイヤー_1
 62
     7
100
AcDbMText
 10
-1.608687
 20
1.2313
 30
0.0
 40
2.393848
 41
0.0
 71
     1
 72
     2
  1
\fMS Gothic|b0|i0|c128;\H2.3938;\C7;\U+3000
  7
STD
210
0.0
220
0.0
230
1.0
 73
     1
 44
1.0
  0
ENDBLK
  5
379
100
AcDbEntity
  8
レイヤー_1
100
AcDbBlockEnd
  0
BLOCK
  5
37C
100
AcDbEntity
  8
レイヤー_1
 62
     7
100
AcDbBlockBegin
  2
AI9-BLK114
 70
     0
 10
0.0
 20
0.0
 30
0.0
  3
AI9-BLK114
  1

  0
MTEXT
  5
37D
100
AcDbEntity
  8
レイヤー_1
 62
     7
100
AcDbMText
 10
-1.608687
 20
1.2313
 30
0.0
 40
2.393848
 41
0.0
 71
     1
 72
     2
  1
\fMS Gothic|b0|i0|c128;\H2.3938;\C7;\U+5E74
  7
STD
210
0.0
220
0.0
230
1.0
 73
     1
 44
1.0
  0
ENDBLK
  5
37E
100
AcDbEntity
  8
レイヤー_1
100
AcDbBlockEnd
  0
BLOCK
  5
381
100
AcDbEntity
  8
レイヤー_1
 62
     7
100
AcDbBlockBegin
  2
AI9-BLK115
 70
     0
 10
0.0
 20
0.0
 30
0.0
  3
AI9-BLK115
  1

  0
MTEXT
  5
382
100
AcDbEntity
  8
レイヤー_1
 62
     7
100
AcDbMText
 10
-1.608687
 20
1.2313
 30
0.0
 40
2.393848
 41
0.0
 71
     1
 72
     2
  1
\fMS Gothic|b0|i0|c128;\H2.3938;\C7;\U+3000
  7
STD
210
0.0
220
0.0
230
1.0
 73
     1
 44
1.0
  0
ENDBLK
  5
383
100
AcDbEntity
  8
レイヤー_1
100
AcDbBlockEnd
  0
BLOCK
  5
386
100
AcDbEntity
  8
レイヤー_1
 62
     7
100
AcDbBlockBegin
  2
AI9-BLK116
 70
     0
 10
0.0
 20
0.0
 30
0.0
  3
AI9-BLK116
  1

  0
MTEXT
  5
387
100
AcDbEntity
  8
レイヤー_1
 62
     7
100
AcDbMText
 10
-3.217375
 20
1.2313
 30
0.0
 40
2.393848
 41
0.0
 71
     1
 72
     2
  1
\fMS Gothic|b0|i0|c128;\H2.3938;\C7;\U+0032\U+0030\U+0031\U+0031
  7
STD
210
0.0
220
0.0
230
1.0
 73
     1
 44
1.0
  0
ENDBLK
  5
388
100
AcDbEntity
  8
レイヤー_1
100
AcDbBlockEnd
  0
BLOCK
  5
38B
100
AcDbEntity
  8
レイヤー_1
 62
     7
100
AcDbBlockBegin
  2
AI9-BLK117
 70
     0
 10
0.0
 20
0.0
 30
0.0
  3
AI9-BLK117
  1

  0
MTEXT
  5
38E
100
AcDbEntity
  8
レイヤー_1
 62
     7
100
AcDbMText
 10
-12.064897
 20
1.2313
 30
0.0
 40
2.393848
 41
0.0
 71
     1
 72
     2
  1
\fMS Gothic|b0|i0|c128;\H2.3938;\C7;\U+FF28\U+FF22\U+FF26
  7
STD
210
0.0
220
0.0
230
1.0
 73
     1
 44
1.0
  0
MTEXT
  5
38D
100
AcDbEntity
  8
レイヤー_1
 62
     7
100
AcDbMText
 10
-2.412773
 20
1.2313
 30
0.0
 40
2.393848
 41
0.0
 71
     1
 72
     2
  1
\fMS Gothic|b0|i0|c128;\H2.3938;\C7;\U+002D
  7
STD
210
0.0
220
0.0
230
1.0
 73
     1
 44
1.0
  0
MTEXT
  5
38C
100
AcDbEntity
  8
レイヤー_1
 62
     7
100
AcDbMText
 10
-0.804258
 20
1.2313
 30
0.0
 40
2.393848
 41
0.0
 71
     1
 72
     2
  1
\fMS Gothic|b0|i0|c128;\H2.3938;\C7;\U+25A1\U+FF10\U+FF12\U+25A1
  7
STD
210
0.0
220
0.0
230
1.0
 73
     1
 44
1.0
  0
ENDBLK
  5
38F
100
AcDbEntity
  8
レイヤー_1
100
AcDbBlockEnd
  0
BLOCK
  5
392
100
AcDbEntity
  8
レイヤー_1
 62
     7
100
AcDbBlockBegin
  2
AI9-BLK118
 70
     0
 10
0.0
 20
0.0
 30
0.0
  3
AI9-BLK118
  1

  0
MTEXT
  5
393
100
AcDbEntity
  8
レイヤー_1
 62
     7
100
AcDbMText
 10
-19.304076
 20
1.2313
 30
0.0
 40
2.393848
 41
0.0
 71
     1
 72
     2
  1
\fMS Gothic|b0|i0|c128;\H2.3938;\C7;\U+30DC\U+30FC\U+30EB\U+30B9\U+30BF\U+30F3\U+30C9\U+30E9\U+30A4\U+30C8\U+FF12\U+578B
  7
STD
210
0.0
220
0.0
230
1.0
 73
     1
 44
1.0
  0
ENDBLK
  5
394
100
AcDbEntity
  8
レイヤー_1
100
AcDbBlockEnd
  0
BLOCK
  5
397
100
AcDbEntity
  8
レイヤー_1
 62
     7
100
AcDbBlockBegin
  2
AI9-BLK119
 70
     0
 10
0.0
 20
0.0
 30
0.0
  3
AI9-BLK119
  1

  0
MTEXT
  5
398
100
AcDbEntity
  8
レイヤー_1
 62
     7
100
AcDbMText
 10
-1.608687
 20
1.2313
 30
0.0
 40
2.393848
 41
0.0
 71
     1
 72
     2
  1
\fMS Gothic|b0|i0|c128;\H2.3938;\C7;\U+FF11
  7
STD
210
0.0
220
0.0
230
1.0
 73
     1
 44
1.0
  0
ENDBLK
  5
399
100
AcDbEntity
  8
レイヤー_1
100
AcDbBlockEnd
  0
BLOCK
  5
39C
100
AcDbEntity
  8
レイヤー_1
 62
     7
100
AcDbBlockBegin
  2
AI9-BLK120
 70
     0
 10
0.0
 20
0.0
 30
0.0
  3
AI9-BLK120
  1

  0
MTEXT
  5
39D
100
AcDbEntity
  8
レイヤー_1
 62
     7
100
AcDbMText
 10
-1.608687
 20
1.2313
 30
0.0
 40
2.393848
 41
0.0
 71
     1
 72
     2
  1
\fMS Gothic|b0|i0|c128;\H2.3938;\C7;\U+FF1A
  7
STD
210
0.0
220
0.0
230
1.0
 73
     1
 44
1.0
  0
ENDBLK
  5
39E
100
AcDbEntity
  8
レイヤー_1
100
AcDbBlockEnd
  0
BLOCK
  5
3A1
100
AcDbEntity
  8
レイヤー_1
 62
     7
100
AcDbBlockBegin
  2
AI9-BLK121
 70
     0
 10
0.0
 20
0.0
 30
0.0
  3
AI9-BLK121
  1

  0
MTEXT
  5
3A2
100
AcDbEntity
  8
レイヤー_1
 62
     7
100
AcDbMText
 10
-1.608687
 20
1.2313
 30
0.0
 40
2.393848
 41
0.0
 71
     1
 72
     2
  1
\fMS Gothic|b0|i0|c128;\H2.3938;\C7;\U+FF13
  7
STD
210
0.0
220
0.0
230
1.0
 73
     1
 44
1.0
  0
ENDBLK
  5
3A3
100
AcDbEntity
  8
レイヤー_1
100
AcDbBlockEnd
  0
ENDSEC
  0
SECTION
  2
ENTITIES
  0
INSERT
  5
3A0
100
AcDbEntity
  8
レイヤー_1
 62
     7
100
AcDbBlockReference
  2
AI9-BLK121
 10
197.696632
 20
14.709352
 30
0.0
  0
INSERT
  5
39B
100
AcDbEntity
  8
レイヤー_1
 62
     7
100
AcDbBlockReference
  2
AI9-BLK120
 10
200.914007
 20
14.709352
 30
0.0
  0
INSERT
  5
396
100
AcDbEntity
  8
レイヤー_1
 62
     7
100
AcDbBlockReference
  2
AI9-BLK119
 10
204.131382
 20
14.709352
 30
0.0
  0
INSERT
  5
391
100
AcDbEntity
  8
レイヤー_1
 62
     7
100
AcDbBlockReference
  2
AI9-BLK118
 10
247.599185
 20
18.506881
 30
0.0
  0
INSERT
  5
38A
100
AcDbEntity
  8
レイヤー_1
 62
     7
100
AcDbBlockReference
  2
AI9-BLK117
 10
247.961953
 20
30.907502
 30
0.0
  0
INSERT
  5
385
100
AcDbEntity
  8
レイヤー_1
 62
     7
100
AcDbBlockReference
  2
AI9-BLK116
 10
173.39734
 20
30.88063
 30
0.0
  0
INSERT
  5
380
100
AcDbEntity
  8
レイヤー_1
 62
     7
100
AcDbBlockReference
  2
AI9-BLK115
 10
178.223402
 20
30.88063
 30
0.0
  0
INSERT
  5
37B
100
AcDbEntity
  8
レイヤー_1
 62
     7
100
AcDbBlockReference
  2
AI9-BLK114
 10
181.440605
 20
30.88063
 30
0.0
  0
INSERT
  5
376
100
AcDbEntity
  8
レイヤー_1
 62
     7
100
AcDbBlockReference
  2
AI9-BLK113
 10
184.657979
 20
30.88063
 30
0.0
  0
INSERT
  5
371
100
AcDbEntity
  8
レイヤー_1
 62
     7
100
AcDbBlockReference
  2
AI9-BLK112
 10
188.679698
 20
30.88063
 30
0.0
  0
INSERT
  5
36C
100
AcDbEntity
  8
レイヤー_1
 62
     7
100
AcDbBlockReference
  2
AI9-BLK111
 10
194.309931
 20
30.88063
 30
0.0
  0
INSERT
  5
367
100
AcDbEntity
  8
レイヤー_1
 62
     7
100
AcDbBlockReference
  2
AI9-BLK110
 10
197.527306
 20
30.88063
 30
0.0
  0
INSERT
  5
362
100
AcDbEntity
  8
レイヤー_1
 62
     7
100
AcDbBlockReference
  2
AI9-BLK109
 10
202.683236
 20
30.88063
 30
0.0
  0
INSERT
  5
35D
100
AcDbEntity
  8
レイヤー_1
 62
     7
100
AcDbBlockReference
  2
AI9-BLK108
 10
207.179258
 20
30.88063
 30
0.0
  0
LINE
  5
35B
100
AcDbEntity
  8
レイヤー_1
 62
     7
100
AcDbLine
 10
181.980279
 20
18.658293
 30
0.0
 11
216.947654
 21
18.658293
 31
0.0
  0
LINE
  5
35A
100
AcDbEntity
  8
レイヤー_1
 62
     7
100
AcDbLine
 10
148.960244
 20
27.124959
 30
0.0
 11
281.971419
 21
27.124959
 31
0.0
  0
LINE
  5
359
100
AcDbEntity
  8
レイヤー_1
 62
     7
100
AcDbLine
 10
281.971419
 20
35.168224
 30
0.0
 11
281.971419
 21
10.191626
 31
0.0
  0
POLYLINE
  5
354
100
AcDbEntity
  8
レイヤー_1
 62
     7
100
AcDb2dPolyline
 66
     1
 10
0.0
 20
0.0
 30
0.0
  0
VERTEX
  5
355
100
AcDbEntity
  8
レイヤー_1
 62
     7
100
AcDbVertex
100
AcDb2dVertex
 10
15.017516
 20
287.051557
 30
0.0
  0
VERTEX
  5
356
100
AcDbEntity
  8
レイヤー_1
 62
     7
100
AcDbVertex
100
AcDb2dVertex
 10
404.907585
 20
287.051557
 30
0.0
  0
VERTEX
  5
357
100
AcDbEntity
  8
レイヤー_1
 62
     7
100
AcDbVertex
100
AcDb2dVertex
 10
404.907585
 20
10.191626
 30
0.0
  0
SEQEND
  5
358
100
AcDbEntity
  8
レイヤー_1
 62
     7
  0
INSERT
  5
350
100
AcDbEntity
  8
レイヤー_1
 62
     7
100
AcDbBlockReference
  2
AI9-BLK107
 10
48.175354
 20
283.740648
 30
0.0
  0
INSERT
  5
34B
100
AcDbEntity
  8
レイヤー_1
 62
     7
100
AcDbBlockReference
  2
AI9-BLK106
 10
44.957979
 20
283.740648
 30
0.0
  0
INSERT
  5
346
100
AcDbEntity
  8
レイヤー_1
 62
     7
100
AcDbBlockReference
  2
AI9-BLK105
 10
41.740605
 20
283.740648
 30
0.0
  0
LINE
  5
344
100
AcDbEntity
  8
レイヤー_1
 62
     7
100
AcDbLine
 10
52.948189
 20
280.109001
 30
0.0
 11
52.948189
 21
287.051557
 31
0.0
  0
INSERT
  5
33A
100
AcDbEntity
  8
レイヤー_1
 62
     7
100
AcDbBlockReference
  2
AI9-BLK103
 10
30.114785
 20
12.284177
 30
0.0
  0
INSERT
  5
335
100
AcDbEntity
  8
レイヤー_1
 62
     7
100
AcDbBlockReference
  2
AI9-BLK102
 10
19.727306
 20
31.811839
 30
0.0
  0
INSERT
  5
330
100
AcDbEntity
  8
レイヤー_1
 62
     7
100
AcDbBlockReference
  2
AI9-BLK101
 10
22.94468
 20
31.811839
 30
0.0
  0
INSERT
  5
32B
100
AcDbEntity
  8
レイヤー_1
 62
     7
100
AcDbBlockReference
  2
AI9-BLK100
 10
19.812055
 20
27.578506
 30
0.0
  0
INSERT
  5
326
100
AcDbEntity
  8
レイヤー_1
 62
     7
100
AcDbBlockReference
  2
AI9-BLK99
 10
19.727306
 20
23.260423
 30
0.0
  0
INSERT
  5
321
100
AcDbEntity
  8
レイヤー_1
 62
     7
100
AcDbBlockReference
  2
AI9-BLK98
 10
22.94468
 20
23.260423
 30
0.0
  0
INSERT
  5
31C
100
AcDbEntity
  8
レイヤー_1
 62
     7
100
AcDbBlockReference
  2
AI9-BLK97
 10
19.812055
 20
19.111839
 30
0.0
  0
INSERT
  5
317
100
AcDbEntity
  8
レイヤー_1
 62
     7
100
AcDbBlockReference
  2
AI9-BLK96
 10
19.727306
 20
14.878506
 30
0.0
  0
INSERT
  5
312
100
AcDbEntity
  8
レイヤー_1
 62
     7
100
AcDbBlockReference
  2
AI9-BLK95
 10
29.718083
 20
24.53063
 30
0.0
  0
INSERT
  5
30D
100
AcDbEntity
  8
レイヤー_1
 62
     7
100
AcDbBlockReference
  2
AI9-BLK94
 10
29.718083
 20
17.672479
 30
0.0
  0
LINE
  5
30B
100
AcDbEntity
  8
レイヤー_1
 62
     7
100
AcDbLine
 10
37.962196
 20
287.051557
 30
0.0
 11
37.962196
 21
280.109001
 31
0.0
  0
LINE
  5
30A
100
AcDbEntity
  8
レイヤー_1
 62
     7
100
AcDbLine
 10
52.948189
 20
280.109001
 30
0.0
 11
52.948189
 21
287.051557
 31
0.0
  0
LINE
  5
309
100
AcDbEntity
  8
レイヤー_1
 62
     7
100
AcDbLine
 10
37.962196
 20
287.051557
 30
0.0
 11
37.962196
 21
280.109001
 31
0.0
  0
LINE
  5
308
100
AcDbEntity
  8
レイヤー_1
 62
     7
100
AcDbLine
 10
15.017516
 20
280.109001
 30
0.0
 11
52.948189
 21
280.109001
 31
0.0
  0
LINE
  5
307
100
AcDbEntity
  8
レイヤー_1
 62
     7
100
AcDbLine
 10
15.017516
 20
10.191626
 30
0.0
 11
15.017516
 21
287.051557
 31
0.0
  0
LINE
  5
306
100
AcDbEntity
  8
レイヤー_1
 62
     7
100
AcDbLine
 10
25.008293
 20
35.168224
 30
0.0
 11
25.008293
 21
10.191626
 31
0.0
  0
INSERT
  5
302
100
AcDbEntity
  8
レイヤー_1
 62
     7
100
AcDbBlockReference
  2
AI9-BLK93
 10
29.718083
 20
31.473187
 30
0.0
  0
LINE
  5
300
100
AcDbEntity
  8
レイヤー_1
 62
     7
100
AcDbLine
 10
34.998897
 20
35.168224
 30
0.0
 11
34.998897
 21
10.191626
 31
0.0
  0
LINE
  5
2FF
100
AcDbEntity
  8
レイヤー_1
 62
     7
100
AcDbLine
 10
15.017516
 20
10.191626
 30
0.0
 11
15.017516
 21
35.168224
 31
0.0
  0
LINE
  5
2FE
100
AcDbEntity
  8
レイヤー_1
 62
     7
100
AcDbLine
 10
25.008293
 20
35.168224
 30
0.0
 11
25.008293
 21
10.191626
 31
0.0
  0
LINE
  5
2FD
100
AcDbEntity
  8
レイヤー_1
 62
     7
100
AcDbLine
 10
34.998897
 20
35.168224
 30
0.0
 11
34.998897
 21
10.191626
 31
0.0
  0
POLYLINE
  5
2F8
100
AcDbEntity
  8
レイヤー_1
 62
     7
100
AcDb2dPolyline
 66
     1
 10
0.0
 20
0.0
 30
0.0
  0
VERTEX
  5
2F9
100
AcDbEntity
  8
レイヤー_1
 62
     7
100
AcDbVertex
100
AcDb2dVertex
 10
15.017516
 20
10.191626
 30
0.0
  0
VERTEX
  5
2FA
100
AcDbEntity
  8
レイヤー_1
 62
     7
100
AcDbVertex
100
AcDb2dVertex
 10
15.017516
 20
35.168224
 30
0.0
  0
VERTEX
  5
2FB
100
AcDbEntity
  8
レイヤー_1
 62
     7
100
AcDbVertex
100
AcDb2dVertex
 10
404.907585
 20
35.168224
 30
0.0
  0
SEQEND
  5
2FC
100
AcDbEntity
  8
レイヤー_1
 62
     7
  0
INSERT
  5
2F0
100
AcDbEntity
  8
レイヤー_1
 62
     7
100
AcDbBlockReference
  2
AI9-BLK91
 10
100.160639
 20
11.999784
 30
0.0
  0
INSERT
  5
2E7
100
AcDbEntity
  8
レイヤー_1
 62
     7
100
AcDbBlockReference
  2
AI9-BLK89
 10
103.393775
 20
12.030101
 30
0.0
  0
INSERT
  5
2DE
100
AcDbEntity
  8
レイヤー_1
 62
     7
100
AcDbBlockReference
  2
AI9-BLK87
 10
106.595388
 20
11.999784
 30
0.0
  0
INSERT
  5
2D5
100
AcDbEntity
  8
レイヤー_1
 62
     7
100
AcDbBlockReference
  2
AI9-BLK85
 10
42.687748
 20
12.1996
 30
0.0
  0
INSERT
  5
2CC
100
AcDbEntity
  8
レイヤー_1
 62
     7
100
AcDbBlockReference
  2
AI9-BLK83
 10
45.905122
 20
12.1996
 30
0.0
  0
INSERT
  5
2C3
100
AcDbEntity
  8
レイヤー_1
 62
     7
100
AcDbBlockReference
  2
AI9-BLK81
 10
49.122497
 20
12.1996
 30
0.0
  0
LINE
  5
2C1
100
AcDbEntity
  8
レイヤー_1
 62
     7
100
AcDbLine
 10
25.008293
 20
28.140918
 30
0.0
 11
148.960244
 21
28.140918
 31
0.0
  0
LINE
  5
2C0
100
AcDbEntity
  8
レイヤー_1
 62
     7
100
AcDbLine
 10
25.008293
 20
21.113612
 30
0.0
 11
148.960244
 21
21.113612
 31
0.0
  0
LINE
  5
2BF
100
AcDbEntity
  8
レイヤー_1
 62
     7
100
AcDbLine
 10
25.008293
 20
14.171056
 30
0.0
 11
148.960244
 21
14.171056
 31
0.0
  0
LINE
  5
2BE
100
AcDbEntity
  8
レイヤー_1
 62
     7
100
AcDbLine
 10
404.907585
 20
10.191626
 30
0.0
 11
15.017516
 21
10.191626
 31
0.0
  0
INSERT
  5
2B8
100
AcDbEntity
  8
レイヤー_1
 62
     7
100
AcDbBlockReference
  2
AI9-BLK80
 10
154.305052
 20
23.937729
 30
0.0
  0
LINE
  5
2B6
100
AcDbEntity
  8
レイヤー_1
 62
     7
100
AcDbLine
 10
25.008293
 20
14.171056
 30
0.0
 11
148.960244
 21
14.171056
 31
0.0
  0
LINE
  5
2B5
100
AcDbEntity
  8
レイヤー_1
 62
     7
100
AcDbLine
 10
58.959536
 20
35.168224
 30
0.0
 11
58.959536
 21
10.191626
 31
0.0
  0
INSERT
  5
2AF
100
AcDbEntity
  8
レイヤー_1
 62
     7
100
AcDbBlockReference
  2
AI9-BLK79
 10
154.135725
 20
31.134534
 30
0.0
  0
INSERT
  5
2A8
100
AcDbEntity
  8
レイヤー_1
 62
     7
100
AcDbBlockReference
  2
AI9-BLK78
 10
165.481114
 20
15.922715
 30
0.0
  0
INSERT
  5
2A1
100
AcDbEntity
  8
レイヤー_1
 62
     7
100
AcDbBlockReference
  2
AI9-BLK77
 10
165.311787
 20
23.937729
 30
0.0
  0
INSERT
  5
29A
100
AcDbEntity
  8
レイヤー_1
 62
     7
100
AcDbBlockReference
  2
AI9-BLK76
 10
176.233773
 20
24.022479
 30
0.0
  0
INSERT
  5
293
100
AcDbEntity
  8
レイヤー_1
 62
     7
100
AcDbBlockReference
  2
AI9-BLK75
 10
176.4031
 20
15.922715
 30
0.0
  0
INSERT
  5
28E
100
AcDbEntity
  8
レイヤー_1
 62
     7
100
AcDbBlockReference
  2
AI9-BLK74
 10
184.404076
 20
16.65652
 30
0.0
  0
INSERT
  5
289
100
AcDbEntity
  8
レイヤー_1
 62
     7
100
AcDbBlockReference
  2
AI9-BLK73
 10
184.404076
 20
12.423187
 30
0.0
  0
INSERT
  5
284
100
AcDbEntity
  8
レイヤー_1
 62
     7
100
AcDbBlockReference
  2
AI9-BLK72
 10
184.319326
 20
24.869283
 30
0.0
  0
INSERT
  5
27F
100
AcDbEntity
  8
レイヤー_1
 62
     7
100
AcDbBlockReference
  2
AI9-BLK71
 10
187.536701
 20
24.869283
 30
0.0
  0
INSERT
  5
27A
100
AcDbEntity
  8
レイヤー_1
 62
     7
100
AcDbBlockReference
  2
AI9-BLK70
 10
184.488653
 20
20.63595
 30
0.0
  0
INSERT
  5
273
100
AcDbEntity
  8
レイヤー_1
 62
     7
100
AcDbBlockReference
  2
AI9-BLK69
 10
154.389801
 20
15.922715
 30
0.0
  0
LINE
  5
271
100
AcDbEntity
  8
レイヤー_1
 62
     7
100
AcDbLine
 10
148.960244
 20
35.168224
 30
0.0
 11
148.960244
 21
10.191626
 31
0.0
  0
LINE
  5
270
100
AcDbEntity
  8
レイヤー_1
 62
     7
100
AcDbLine
 10
148.960244
 20
21.113612
 30
0.0
 11
181.980279
 21
21.113612
 31
0.0
  0
LINE
  5
26F
100
AcDbEntity
  8
レイヤー_1
 62
     7
100
AcDbLine
 10
159.96698
 20
35.168224
 30
0.0
 11
159.96698
 21
10.191626
 31
0.0
  0
INSERT
  5
26B
100
AcDbEntity
  8
レイヤー_1
 62
     7
100
AcDbBlockReference
  2
AI9-BLK68
 10
219.37145
 20
18.857936
 30
0.0
  0
INSERT
  5
266
100
AcDbEntity
  8
レイヤー_1
 62
     7
100
AcDbBlockReference
  2
AI9-BLK67
 10
219.286701
 20
22.921771
 30
0.0
  0
INSERT
  5
261
100
AcDbEntity
  8
レイヤー_1
 62
     7
100
AcDbBlockReference
  2
AI9-BLK66
 10
222.504076
 20
22.921771
 30
0.0
  0
INSERT
  5
25C
100
AcDbEntity
  8
レイヤー_1
 62
     7
100
AcDbBlockReference
  2
AI9-BLK65
 10
221.318791
 20
18.773187
 30
0.0
  0
INSERT
  5
257
100
AcDbEntity
  8
レイヤー_1
 62
     7
100
AcDbBlockReference
  2
AI9-BLK64
 10
219.455855
 20
14.539853
 30
0.0
  0
INSERT
  5
252
100
AcDbEntity
  8
レイヤー_1
 62
     7
100
AcDbBlockReference
  2
AI9-BLK63
 10
219.455855
 20
33.166451
 30
0.0
  0
INSERT
  5
24D
100
AcDbEntity
  8
レイヤー_1
 62
     7
100
AcDbBlockReference
  2
AI9-BLK62
 10
219.625354
 20
28.933118
 30
0.0
  0
LINE
  5
24B
100
AcDbEntity
  8
レイヤー_1
 62
     7
100
AcDbLine
 10
170.973543
 20
27.124959
 30
0.0
 11
170.973543
 21
10.191626
 31
0.0
  0
LINE
  5
24A
100
AcDbEntity
  8
レイヤー_1
 62
     7
100
AcDbLine
 10
181.980279
 20
27.124959
 30
0.0
 11
181.980279
 21
10.191626
 31
0.0
  0
LINE
  5
249
100
AcDbEntity
  8
レイヤー_1
 62
     7
100
AcDbLine
 10
186.975667
 20
27.124959
 30
0.0
 11
186.975667
 21
10.191626
 31
0.0
  0
LINE
  5
248
100
AcDbEntity
  8
レイヤー_1
 62
     7
100
AcDbLine
 10
148.960244
 20
35.168224
 30
0.0
 11
148.960244
 21
10.191626
 31
0.0
  0
LINE
  5
247
100
AcDbEntity
  8
レイヤー_1
 62
     7
100
AcDbLine
 10
148.960244
 20
21.113612
 30
0.0
 11
181.980279
 21
21.113612
 31
0.0
  0
LINE
  5
246
100
AcDbEntity
  8
レイヤー_1
 62
     7
100
AcDbLine
 10
159.96698
 20
35.168224
 30
0.0
 11
159.96698
 21
10.191626
 31
0.0
  0
LINE
  5
245
100
AcDbEntity
  8
レイヤー_1
 62
     7
100
AcDbLine
 10
170.973543
 20
27.124959
 30
0.0
 11
170.973543
 21
10.191626
 31
0.0
  0
LINE
  5
244
100
AcDbEntity
  8
レイヤー_1
 62
     7
100
AcDbLine
 10
181.980279
 20
27.124959
 30
0.0
 11
181.980279
 21
10.191626
 31
0.0
  0
LINE
  5
243
100
AcDbEntity
  8
レイヤー_1
 62
     7
100
AcDbLine
 10
186.975667
 20
27.124959
 30
0.0
 11
186.975667
 21
10.191626
 31
0.0
  0
LINE
  5
242
100
AcDbEntity
  8
レイヤー_1
 62
     7
100
AcDbLine
 10
181.980279
 20
18.658293
 30
0.0
 11
216.947654
 21
18.658293
 31
0.0
  0
LINE
  5
241
100
AcDbEntity
  8
レイヤー_1
 62
     7
100
AcDbLine
 10
148.960244
 20
27.124959
 30
0.0
 11
281.971419
 21
27.124959
 31
0.0
  0
LINE
  5
240
100
AcDbEntity
  8
レイヤー_1
 62
     7
100
AcDbLine
 10
216.947654
 20
35.168224
 30
0.0
 11
216.947654
 21
10.191626
 31
0.0
  0
LINE
  5
23F
100
AcDbEntity
  8
レイヤー_1
 62
     7
100
AcDbLine
 10
221.943042
 20
35.168224
 30
0.0
 11
221.943042
 21
10.191626
 31
0.0
  0
INSERT
  5
23B
100
AcDbEntity
  8
レイヤー_1
 62
     7
100
AcDbBlockReference
  2
AI9-BLK61
 10
219.37145
 20
18.857936
 30
0.0
  0
LINE
  5
239
100
AcDbEntity
  8
レイヤー_1
 62
     7
100
AcDbLine
 10
216.947654
 20
35.168224
 30
0.0
 11
216.947654
 21
10.191626
 31
0.0
  0
LINE
  5
238
100
AcDbEntity
  8
レイヤー_1
 62
     7
100
AcDbLine
 10
221.943042
 20
35.168224
 30
0.0
 11
221.943042
 21
10.191626
 31
0.0
  0
INSERT
  5
230
100
AcDbEntity
  8
レイヤー_1
 62
     7
100
AcDbBlockReference
  2
AI9-BLK60
 10
96.096632
 20
31.473187
 30
0.0
  0
INSERT
  5
21C
100
AcDbEntity
  8
レイヤー_1
 62
     7
100
AcDbBlockReference
  2
AI9-BLK56
 10
73.575354
 20
17.234951
 30
0.0
  0
INSERT
  5
217
100
AcDbEntity
  8
レイヤー_1
 62
     7
100
AcDbBlockReference
  2
AI9-BLK55
 10
65.53209
 20
24.643285
 30
0.0
  0
INSERT
  5
212
100
AcDbEntity
  8
レイヤー_1
 62
     7
100
AcDbBlockReference
  2
AI9-BLK54
 10
70.887146
 20
24.643285
 30
0.0
  0
INSERT
  5
20D
100
AcDbEntity
  8
レイヤー_1
 62
     7
100
AcDbBlockReference
  2
AI9-BLK53
 10
93.40851
 20
24.643285
 30
0.0
  0
LINE
  5
20B
100
AcDbEntity
  8
レイヤー_1
 62
     7
100
AcDbLine
 10
281.971419
 20
35.168224
 30
0.0
 11
281.971419
 21
10.191626
 31
0.0
  0
INSERT
  5
207
100
AcDbEntity
  8
レイヤー_1
 62
     7
100
AcDbBlockReference
  2
AI9-BLK52
 10
46.68957
 20
31.473187
 30
0.0
  0
INSERT
  5
202
100
AcDbEntity
  8
レイヤー_1
 62
     7
100
AcDbBlockReference
  2
AI9-BLK51
 10
46.68957
 20
24.445881
 30
0.0
  0
INSERT
  5
1FD
100
AcDbEntity
  8
レイヤー_1
 62
     7
100
AcDbBlockReference
  2
AI9-BLK50
 10
46.68957
 20
17.418575
 30
0.0
  0
INSERT
  5
1D5
100
AcDbEntity
  8
レイヤー_1
 62
     7
100
AcDbBlockReference
  2
AI9-BLK43
 10
313.563978
 20
22.287356
 30
0.0
  0
INSERT
  5
1CA
100
AcDbEntity
  8
レイヤー_1
 62
     7
100
AcDbBlockReference
  2
AI9-BLK42
 10
369.381071
 20
19.219671
 30
0.0
  0
INSERT
  5
1BC
100
AcDbEntity
  8
レイヤー_1
 62
     7
100
AcDbBlockReference
  2
AI9-BLK41
 10
377.674794
 20
16.478064
 30
0.0
  0
INSERT
  5
1B3
100
AcDbEntity
  8
レイヤー_1
 62
     7
100
AcDbBlockReference
  2
AI9-BLK40
 10
387.36378
 20
40.272477
 30
0.0
  0
INSERT
  5
1A6
100
AcDbEntity
  8
レイヤー_1
 62
     7
100
AcDbBlockReference
  2
AI9-BLK39
 10
370.903114
 20
29.366683
 30
0.0
  0
LINE
  5
1A4
100
AcDbEntity
  8
レイヤー_1
 62
     7
100
AcDbLine
 10
339.128998
 20
-118.922285
 30
0.0
 11
374.117733
 21
-153.911019
 31
0.0
  0
HATCH
  5
1A3
100
AcDbEntity
  8
レイヤー_1
 62
     7
100
AcDbHatch
 10
0.0
 20
0.0
 30
0.0
210
0.0
220
0.0
230
1.0
  2
SOLID
 70
     1
 71
     0
 91
        1
 92
        3
 72
     0
 73
     0
 93
        4
 10
22.072726779513886
 20
51.984423828124996
 10
22.626009114583333
 20
54.052170138888883
 10
21.519444444444442
 20
54.052170138888883
 10
22.072726779513886
 20
51.984423828124996
 97
        0
 75
     2
 76
     1
 98
        1
 10
0.0
 20
0.0
  0
HATCH
  5
1A2
100
AcDbEntity
  8
レイヤー_1
 62
     7
100
AcDbHatch
 10
0.0
 20
0.0
 30
0.0
210
0.0
220
0.0
230
1.0
  2
SOLID
 70
     1
 71
     0
 91
        1
 92
        3
 72
     0
 73
     0
 93
        4
 10
25.458738878038194
 20
39.460812717013887
 10
27.526829698350692
 20
38.90753038194444
 10
27.526829698350692
 20
40.014095052083327
 10
25.458738878038194
 20
39.460812717013887
 97
        0
 75
     2
 76
     1
 98
        1
 10
0.0
 20
0.0
  0
HATCH
  5
1A1
100
AcDbEntity
  8
レイヤー_1
 62
     7
100
AcDbHatch
 10
0.0
 20
0.0
 30
0.0
210
0.0
220
0.0
230
1.0
  2
SOLID
 70
     1
 71
     0
 91
        1
 92
        3
 72
     0
 73
     0
 93
        4
 10
142.44453531901041
 20
39.460812717013887
 10
140.37644449869791
 20
40.014095052083327
 10
140.37644449869791
 20
38.90753038194444
 10
142.44453531901041
 20
39.460812717013887
 97
        0
 75
     2
 76
     1
 98
        1
 10
0.0
 20
0.0
  0
HATCH
  5
1A0
100
AcDbEntity
  8
レイヤー_1
 62
     7
100
AcDbHatch
 10
0.0
 20
0.0
 30
0.0
210
0.0
220
0.0
230
1.0
  2
SOLID
 70
     1
 71
     0
 91
        1
 92
        3
 72
     0
 73
     0
 93
        4
 10
148.40420600043402
 20
40.708970811631943
 10
150.47229682074652
 20
40.155688476562496
 10
150.47229682074652
 20
41.262253146701383
 10
148.40420600043402
 20
40.708970811631943
 97
        0
 75
     2
 76
     1
 98
        1
 10
0.0
 20
0.0
  0
HATCH
  5
19F
100
AcDbEntity
  8
レイヤー_1
 62
     7
100
AcDbHatch
 10
0.0
 20
0.0
 30
0.0
210
0.0
220
0.0
230
1.0
  2
SOLID
 70
     1
 71
     0
 91
        1
 92
        3
 72
     0
 73
     0
 93
        4
 10
185.61261528862846
 20
55.40023600260416
 10
187.68070610894097
 20
54.84695366753472
 10
187.68070610894097
 20
55.953518337673607
 10
185.61261528862846
 20
55.40023600260416
 97
        0
 75
     2
 76
     1
 98
        1
 10
0.0
 20
0.0
  0
HATCH
  5
19E
100
AcDbEntity
  8
レイヤー_1
 62
     7
100
AcDbHatch
 10
0.0
 20
0.0
 30
0.0
210
0.0
220
0.0
230
1.0
  2
SOLID
 70
     1
 71
     0
 91
        1
 92
        3
 72
     0
 73
     0
 93
        4
 10
228.11217447916664
 20
55.40023600260416
 10
226.04442816840276
 20
55.953518337673607
 10
226.04442816840276
 20
54.84695366753472
 10
228.11217447916664
 20
55.40023600260416
 97
        0
 75
     2
 76
     1
 98
        1
 10
0.0
 20
0.0
  0
HATCH
  5
19D
100
AcDbEntity
  8
レイヤー_1
 62
     7
100
AcDbHatch
 10
0.0
 20
0.0
 30
0.0
210
0.0
220
0.0
230
1.0
  2
SOLID
 70
     1
 71
     0
 91
        1
 92
        3
 72
     0
 73
     0
 93
        4
 10
193.03214518229166
 20
247.78453097873262
 10
192.47886284722222
 20
245.71644015842011
 10
193.5854275173611
 20
245.71644015842011
 10
193.03214518229166
 20
247.78453097873262
 97
        0
 75
     2
 76
     1
 98
        1
 10
0.0
 20
0.0
  0
HATCH
  5
19C
100
AcDbEntity
  8
レイヤー_1
 62
     7
100
AcDbHatch
 10
0.0
 20
0.0
 30
0.0
210
0.0
220
0.0
230
1.0
  2
SOLID
 70
     1
 71
     0
 91
        1
 92
        3
 72
     0
 73
     0
 93
        4
 10
193.03214518229166
 20
236.10531277126734
 10
193.5854275173611
 20
238.17374810112844
 10
192.47886284722222
 20
238.17374810112844
 10
193.03214518229166
 20
236.10531277126734
 97
        0
 75
     2
 76
     1
 98
        1
 10
0.0
 20
0.0
  0
HATCH
  5
19B
100
AcDbEntity
  8
レイヤー_1
 62
     7
100
AcDbHatch
 10
0.0
 20
0.0
 30
0.0
210
0.0
220
0.0
230
1.0
  2
SOLID
 70
     1
 71
     0
 91
        1
 92
        3
 72
     0
 73
     0
 93
        4
 10
217.09131401909721
 20
253.86994764539929
 10
215.02287868923608
 20
254.42322998046873
 10
215.02287868923608
 20
253.31666531032982
 10
217.09131401909721
 20
253.86994764539929
 97
        0
 75
     2
 76
     1
 98
        1
 10
0.0
 20
0.0
  0
HATCH
  5
19A
100
AcDbEntity
  8
レイヤー_1
 62
     7
100
AcDbHatch
 10
0.0
 20
0.0
 30
0.0
210
0.0
220
0.0
230
1.0
  2
SOLID
 70
     1
 71
     0
 91
        1
 92
        3
 72
     0
 73
     0
 93
        4
 10
200.42463107638886
 20
253.86994764539929
 10
202.49306640624999
 20
253.31666531032982
 10
202.49306640624999
 20
254.42322998046873
 10
200.42463107638886
 20
253.86994764539929
 97
        0
 75
     2
 76
     1
 98
        1
 10
0.0
 20
0.0
  0
HATCH
  5
199
100
AcDbEntity
  8
レイヤー_1
 62
     7
100
AcDbHatch
 10
0.0
 20
0.0
 30
0.0
210
0.0
220
0.0
230
1.0
  2
SOLID
 70
     1
 71
     0
 91
        1
 92
        3
 72
     0
 73
     0
 93
        4
 10
193.03214518229166
 20
182.42728000217014
 10
193.5854275173611
 20
184.49571533203124
 10
192.47886284722222
 20
184.49571533203124
 10
193.03214518229166
 20
182.42728000217014
 97
        0
 75
     2
 76
     1
 98
        1
 10
0.0
 20
0.0
  0
HATCH
  5
198
100
AcDbEntity
  8
レイヤー_1
 62
     7
100
AcDbHatch
 10
0.0
 20
0.0
 30
0.0
210
0.0
220
0.0
230
1.0
  2
SOLID
 70
     1
 71
     0
 91
        1
 92
        3
 72
     0
 73
     0
 93
        4
 10
193.03214518229166
 20
236.19350721571178
 10
192.47886284722222
 20
234.12507188585067
 10
193.5854275173611
 20
234.12507188585067
 10
193.03214518229166
 20
236.19350721571178
 97
        0
 75
     2
 76
     1
 98
        1
 10
0.0
 20
0.0
  0
HATCH
  5
197
100
AcDbEntity
  8
レイヤー_1
 62
     7
100
AcDbHatch
 10
0.0
 20
0.0
 30
0.0
210
0.0
220
0.0
230
1.0
  2
SOLID
 70
     1
 71
     0
 91
        1
 92
        3
 72
     0
 73
     0
 93
        4
 10
265.2396240234375
 20
40.83230523003472
 10
263.17187771267356
 20
41.38558756510416
 10
263.17187771267356
 20
40.279022894965273
 10
265.2396240234375
 20
40.83230523003472
 97
        0
 75
     2
 76
     1
 98
        1
 10
0.0
 20
0.0
  0
HATCH
  5
196
100
AcDbEntity
  8
レイヤー_1
 62
     7
100
AcDbHatch
 10
0.0
 20
0.0
 30
0.0
210
0.0
220
0.0
230
1.0
  2
SOLID
 70
     1
 71
     0
 91
        1
 92
        3
 72
     0
 73
     0
 93
        4
 10
22.072726779513886
 20
163.19761827256943
 10
21.519444444444442
 20
161.12952745225692
 10
22.626009114583333
 20
161.12952745225692
 10
22.072726779513886
 20
163.19761827256943
 97
        0
 75
     2
 76
     1
 98
        1
 10
0.0
 20
0.0
  0
HATCH
  5
195
100
AcDbEntity
  8
レイヤー_1
 62
     7
100
AcDbHatch
 10
0.0
 20
0.0
 30
0.0
210
0.0
220
0.0
230
1.0
  2
SOLID
 70
     1
 71
     0
 91
        1
 92
        3
 72
     0
 73
     0
 93
        4
 10
22.072726779513886
 20
47.54507378472222
 10
21.519444444444442
 20
45.477327473958326
 10
22.626009114583333
 20
45.477327473958326
 10
22.072726779513886
 20
47.54507378472222
 97
        0
 75
     2
 76
     1
 98
        1
 10
0.0
 20
0.0
  0
INSERT
  5
186
100
AcDbEntity
  8
レイヤー_1
 62
     7
100
AcDbBlockReference
  2
AI9-BLK38
 10
84.200545
 20
49.724269
 30
0.0
  0
POLYLINE
  5
17F
100
AcDbEntity
  8
レイヤー_1
 62
     7
100
AcDb2dPolyline
 66
     1
 10
0.0
 20
0.0
 30
0.0
  0
VERTEX
  5
180
100
AcDbEntity
  8
レイヤー_1
 62
     7
100
AcDbVertex
100
AcDb2dVertex
 10
77.68363
 20
49.425407
 30
0.0
  0
VERTEX
  5
181
100
AcDbEntity
  8
レイヤー_1
 62
     7
100
AcDbVertex
100
AcDb2dVertex
 10
77.68363
 20
48.254074
 30
0.0
  0
VERTEX
  5
182
100
AcDbEntity
  8
レイヤー_1
 62
     7
100
AcDbVertex
100
AcDb2dVertex
 10
90.71746
 20
48.254074
 30
0.0
  0
VERTEX
  5
183
100
AcDbEntity
  8
レイヤー_1
 62
     7
100
AcDbVertex
100
AcDb2dVertex
 10
90.71746
 20
49.425407
 30
0.0
  0
SEQEND
  5
184
100
AcDbEntity
  8
レイヤー_1
 62
     7
  0
INSERT
  5
16F
100
AcDbEntity
  8
レイヤー_1
 62
     7
100
AcDbBlockReference
  2
AI9-BLK37
 10
208.757973
 20
215.094192
 30
0.0
  0
LINE
  5
16D
100
AcDbEntity
  8
レイヤー_1
 62
     7
100
AcDbLine
 10
198.62698
 20
247.761104
 30
0.0
 11
189.725543
 21
247.761104
 31
0.0
  0
LINE
  5
16C
100
AcDbEntity
  8
レイヤー_1
 62
     7
100
AcDbLine
 10
198.62698
 20
236.094288
 30
0.0
 11
189.725543
 21
236.094288
 31
0.0
  0
LINE
  5
16B
100
AcDbEntity
  8
レイヤー_1
 62
     7
100
AcDbLine
 10
55.301017
 20
47.558165
 30
0.0
 11
18.742525
 21
47.558165
 31
0.0
  0
LINE
  5
16A
100
AcDbEntity
  8
レイヤー_1
 62
     7
100
AcDbLine
 10
55.301017
 20
51.947906
 30
0.0
 11
18.742525
 21
51.947906
 31
0.0
  0
LINE
  5
169
100
AcDbEntity
  8
レイヤー_1
 62
     7
100
AcDbLine
 10
22.072727
 20
39.440831
 30
0.0
 11
22.072899
 21
163.001937
 31
0.0
  0
LINE
  5
168
100
AcDbEntity
  8
レイヤー_1
 62
     7
100
AcDbLine
 10
55.954896
 20
163.189006
 30
0.0
 11
18.742525
 21
163.189006
 31
0.0
  0
LINE
  5
167
100
AcDbEntity
  8
レイヤー_1
 62
     7
100
AcDbLine
 10
198.62698
 20
182.42728
 30
0.0
 11
189.725543
 21
182.42728
 31
0.0
  0
LINE
  5
166
100
AcDbEntity
  8
レイヤー_1
 62
     7
100
AcDbLine
 10
193.032145
 20
182.42728
 30
0.0
 11
193.032145
 21
236.094288
 31
0.0
  0
LINE
  5
165
100
AcDbEntity
  8
レイヤー_1
 62
     7
100
AcDbLine
 10
193.032145
 20
236.094288
 30
0.0
 11
193.032145
 21
247.761104
 31
0.0
  0
INSERT
  5
161
100
AcDbEntity
  8
レイヤー_1
 62
     7
100
AcDbBlockReference
  2
AI9-BLK36
 10
190.876204
 20
241.953879
 30
0.0
  0
INSERT
  5
15C
100
AcDbEntity
  8
レイヤー_1
 62
     7
100
AcDbBlockReference
  2
AI9-BLK35
 10
208.55988
 20
255.768023
 30
0.0
  0
INSERT
  5
157
100
AcDbEntity
  8
レイヤー_1
 62
     7
100
AcDbBlockReference
  2
AI9-BLK34
 10
19.088585
 20
104.287863
 30
0.0
  0
INSERT
  5
152
100
AcDbEntity
  8
レイヤー_1
 62
     7
100
AcDbBlockReference
  2
AI9-BLK33
 10
19.438607
 20
42.975499
 30
0.0
  0
INSERT
  5
14D
100
AcDbEntity
  8
レイヤー_1
 62
     7
100
AcDbBlockReference
  2
AI9-BLK32
 10
190.876204
 20
213.529774
 30
0.0
  0
INSERT
  5
13D
100
AcDbEntity
  8
レイヤー_1
 62
     7
100
AcDbBlockReference
  2
AI9-BLK31
 10
345.996452
 20
120.414183
 30
0.0
  0
POLYLINE
  5
136
100
AcDbEntity
  8
レイヤー_1
 62
     7
100
AcDb2dPolyline
 66
     1
 10
0.0
 20
0.0
 30
0.0
  0
VERTEX
  5
137
100
AcDbEntity
  8
レイヤー_1
 62
     7
100
AcDbVertex
100
AcDb2dVertex
 10
339.479709
 20
120.115321
 30
0.0
  0
VERTEX
  5
138
100
AcDbEntity
  8
レイヤー_1
 62
     7
100
AcDbVertex
100
AcDb2dVertex
 10
339.479709
 20
118.943989
 30
0.0
  0
VERTEX
  5
139
100
AcDbEntity
  8
レイヤー_1
 62
     7
100
AcDbVertex
100
AcDb2dVertex
 10
352.513539
 20
118.943989
 30
0.0
  0
VERTEX
  5
13A
100
AcDbEntity
  8
レイヤー_1
 62
     7
100
AcDbVertex
100
AcDb2dVertex
 10
352.513539
 20
120.115321
 30
0.0
  0
SEQEND
  5
13B
100
AcDbEntity
  8
レイヤー_1
 62
     7
  0
INSERT
  5
12A
100
AcDbEntity
  8
レイヤー_1
 62
     7
100
AcDbBlockReference
  2
AI9-BLK30
 10
345.998174
 20
92.113241
 30
0.0
  0
INSERT
  5
11C
100
AcDbEntity
  8
レイヤー_1
 62
     7
100
AcDbBlockReference
  2
AI9-BLK28
 10
307.543502
 20
149.801278
 30
0.0
  0
LINE
  5
11A
100
AcDbEntity
  8
レイヤー_1
 62
     7
100
AcDbLine
 10
217.091314
 20
255.607309
 30
0.0
 11
217.091314
 21
245.940716
 31
0.0
  0
LINE
  5
119
100
AcDbEntity
  8
レイヤー_1
 62
     7
100
AcDbLine
 10
200.424631
 20
245.940716
 30
0.0
 11
200.424631
 21
255.607309
 31
0.0
  0
LINE
  5
118
100
AcDbEntity
  8
レイヤー_1
 62
     7
100
AcDbLine
 10
217.091314
 20
253.869948
 30
0.0
 11
200.424631
 21
253.869948
 31
0.0
  0
LINE
  5
117
100
AcDbEntity
  8
レイヤー_1
 62
     7
100
AcDbLine
 10
25.473897
 20
72.688759
 30
0.0
 11
25.473897
 21
36.586914
 31
0.0
  0
LINE
  5
116
100
AcDbEntity
  8
レイヤー_1
 62
     7
100
AcDbLine
 10
142.409568
 20
72.688759
 30
0.0
 11
142.409568
 21
36.586914
 31
0.0
  0
LINE
  5
115
100
AcDbEntity
  8
レイヤー_1
 62
     7
100
AcDbLine
 10
25.473897
 20
39.450477
 30
0.0
 11
142.397854
 21
39.450477
 31
0.0
  0
INSERT
  5
110
100
AcDbEntity
  8
レイヤー_1
 62
     7
100
AcDbBlockReference
  2
AI9-BLK27
 10
84.164716
 20
41.806234
 30
0.0
  0
CIRCLE
  5
10E
100
AcDbEntity
  8
レイヤー_1
 62
     7
100
AcDbCircle
 10
206.844222
 20
104.919005
 30
0.0
 40
21.250038
  0
CIRCLE
  5
10D
100
AcDbEntity
  8
レイヤー_1
 62
     7
100
AcDbCircle
 10
206.844222
 20
104.919005
 30
0.0
 40
6.333464
  0
CIRCLE
  5
10C
100
AcDbEntity
  8
レイヤー_1
 62
     7
100
AcDbCircle
 10
206.844222
 20
104.919005
 30
0.0
 40
5.749864
  0
CIRCLE
  5
10B
100
AcDbEntity
  8
レイヤー_1
 62
     7
100
AcDbCircle
 10
206.829839
 20
113.413232
 30
0.0
 40
1.666823
  0
INSERT
  5
D8
100
AcDbEntity
  8
レイヤー_1
 62
     7
100
AcDbBlockReference
  2
AI9-BLK26
 10
211.609909
 20
111.863284
 30
0.0
  0
CIRCLE
  5
D6
100
AcDbEntity
  8
レイヤー_1
 62
     7
100
AcDbCircle
 10
206.844222
 20
104.919005
 30
0.0
 40
12.333442
  0
CIRCLE
  5
D5
100
AcDbEntity
  8
レイヤー_1
 62
     7
100
AcDbCircle
 10
206.84405
 20
104.919005
 30
0.0
 40
20.416497
  0
INSERT
  5
AE
100
AcDbEntity
  8
レイヤー_1
 62
     7
100
AcDbBlockReference
  2
AI9-BLK19
 10
206.844308
 20
104.918833
 30
0.0
  0
INSERT
  5
A4
100
AcDbEntity
  8
レイヤー_1
 62
     7
100
AcDbBlockReference
  2
AI9-BLK18
 10
206.844308
 20
104.919177
 30
0.0
  0
INSERT
  5
9A
100
AcDbEntity
  8
レイヤー_1
 62
     7
100
AcDbBlockReference
  2
AI9-BLK17
 10
206.844308
 20
104.91866
 30
0.0
  0
CIRCLE
  5
98
100
AcDbEntity
  8
レイヤー_1
 62
     7
100
AcDbCircle
 10
201.147068
 20
97.551324
 30
0.0
 40
2.440161
  0
SPLINE
  5
97
100
AcDbEntity
  8
レイヤー_1
 62
     7
100
AcDbSpline
210
0.0
220
0.0
230
1.0
 70
     8
 71
     3
 72
    47
 73
    43
 74
     0
 42
0.00000001
 43
0.00000001
 40
0.0
 40
0.0
 40
0.0
 40
0.0
 40
1.0
 40
1.0
 40
1.0
 40
2.0
 40
2.0
 40
2.0
 40
3.0
 40
3.0
 40
3.0
 40
4.0
 40
4.0
 40
4.0
 40
5.0
 40
5.0
 40
5.0
 40
6.0
 40
6.0
 40
6.0
 40
7.0
 40
7.0
 40
7.0
 40
8.0
 40
8.0
 40
8.0
 40
9.0
 40
9.0
 40
9.0
 40
10.0
 40
10.0
 40
10.0
 40
11.0
 40
11.0
 40
11.0
 40
12.0
 40
12.0
 40
12.0
 40
13.0
 40
13.0
 40
13.0
 40
14.0
 40
14.0
 40
14.0
 40
14.0
 10
207.86000840928818
 20
68.902943250868049
 30
0.0
 10
207.86000840928818
 20
68.902943250868049
 30
0.0
 10
207.86000840928818
 20
92.07293294270832
 30
0.0
 10
207.86000840928818
 20
92.07293294270832
 30
0.0
 10
207.86000840928818
 20
94.375634765624994
 30
0.0
 10
206.41668565538191
 20
96.038926866319429
 30
0.0
 10
203.99891764322913
 20
96.522618272569431
 30
0.0
 10
203.48215332031248
 20
96.625971137152774
 30
0.0
 10
202.55059950086803
 20
97.561659071180543
 30
0.0
 10
202.07689887152776
 20
98.196934678819431
 30
0.0
 10
202.07689887152776
 20
98.196934678819431
 30
0.0
 10
202.09136827256944
 20
98.176953124999997
 30
0.0
 10
202.09136827256944
 20
98.176953124999997
 30
0.0
 10
202.09136827256944
 20
98.176953124999997
 30
0.0
 10
202.08895670572915
 20
98.174886067708329
 30
0.0
 10
202.08895670572915
 20
98.174886067708329
 30
0.0
 10
201.90533311631944
 20
98.401573350694434
 30
0.0
 10
201.62559136284722
 20
98.546267361111106
 30
0.0
 10
201.31139865451388
 20
98.546267361111106
 30
0.0
 10
200.75914984809026
 20
98.546267361111106
 30
0.0
 10
200.31163194444443
 20
98.099093967013886
 30
0.0
 10
200.31163194444443
 20
97.546500651041654
 30
0.0
 10
200.31163194444443
 20
97.346685112847211
 30
0.0
 10
200.37088758680554
 20
97.160649956597211
 30
0.0
 10
200.47182888454859
 20
97.004931640624989
 30
0.0
 10
200.47182888454859
 20
97.004931640624989
 30
0.0
 10
200.47148437499999
 20
97.004242621527766
 30
0.0
 10
200.47148437499999
 20
97.004242621527766
 30
0.0
 10
200.47251790364581
 20
97.00286458333332
 30
0.0
 10
200.47389594184025
 20
97.000797526041652
 30
0.0
 10
200.4752739800347
 20
96.99941948784722
 30
0.0
 10
200.4997341579861
 20
96.961523437499991
 30
0.0
 10
200.52695041232636
 20
96.926383463541654
 30
0.0
 10
200.55623372395831
 20
96.892621527777763
 30
0.0
 10
200.95862087673609
 20
96.371723090277769
 30
0.0
 10
202.24570855034722
 20
94.833832465277766
 30
0.0
 10
203.6065212673611
 20
94.561669921874994
 30
0.0
 10
205.10203721788193
 20
94.262635633680546
 30
0.0
 10
205.86030273437498
 20
93.425477430555546
 30
0.0
 10
205.86030273437498
 20
92.07293294270832
 30
0.0
 10
205.86030273437498
 20
92.07293294270832
 30
0.0
 10
205.86030273437498
 20
67.970011393229157
 30
0.0
 10
205.86030273437498
 20
67.970011393229157
 30
0.0
  0
CIRCLE
  5
96
100
AcDbEntity
  8
レイヤー_1
 62
     7
100
AcDbCircle
 10
206.906578
 20
104.981361
 30
0.0
 40
58.33339
  0
LINE
  5
95
100
AcDbEntity
  8
レイヤー_1
 62
     7
100
AcDbLine
 10
148.415919
 20
94.144124
 30
0.0
 11
148.415919
 21
37.82956
 31
0.0
  0
LINE
  5
94
100
AcDbEntity
  8
レイヤー_1
 62
     7
100
AcDbLine
 10
265.201728
 20
94.074189
 30
0.0
 11
265.201728
 21
37.952894
 31
0.0
  0
LINE
  5
93
100
AcDbEntity
  8
レイヤー_1
 62
     7
100
AcDbLine
 10
148.43969
 20
40.693123
 30
0.0
 11
265.269941
 21
40.816458
 31
0.0
  0
INSERT
  5
8E
100
AcDbEntity
  8
レイヤー_1
 62
     7
100
AcDbBlockReference
  2
AI9-BLK16
 10
208.350073
 20
42.471137
 30
0.0
  0
INSERT
  5
88
100
AcDbEntity
  8
レイヤー_1
 62
     7
100
AcDbBlockReference
  2
AI9-BLK15
 10
208.25051
 20
58.440533
 30
0.0
  0
LINE
  5
86
100
AcDbEntity
  8
レイヤー_1
 62
     7
100
AcDbLine
 10
185.594184
 20
53.474772
 30
0.0
 11
185.594184
 21
92.097738
 31
0.0
  0
LINE
  5
85
100
AcDbEntity
  8
レイヤー_1
 62
     7
100
AcDbLine
 10
228.09426
 20
92.097738
 30
0.0
 11
228.09426
 21
53.474772
 31
0.0
  0
LINE
  5
84
100
AcDbEntity
  8
レイヤー_1
 62
     7
100
AcDbLine
 10
228.09426
 20
55.397135
 30
0.0
 11
185.594184
 21
55.397135
 31
0.0
  0
INSERT
  5
80
100
AcDbEntity
  8
レイヤー_1
 62
     7
100
AcDbBlockReference
  2
AI9-BLK14
 10
27.111523
 20
272.958705
 30
0.0
  0
INSERT
  5
7B
100
AcDbEntity
  8
レイヤー_1
 62
     7
100
AcDbBlockReference
  2
AI9-BLK13
 10
28.790146
 20
167.168435
 30
0.0
  0
INSERT
  5
76
100
AcDbEntity
  8
レイヤー_1
 62
     7
100
AcDbBlockReference
  2
AI9-BLK12
 10
158.971347
 20
166.184861
 30
0.0
  0
INSERT
  5
71
100
AcDbEntity
  8
レイヤー_1
 62
     7
100
AcDbBlockReference
  2
AI9-BLK11
 10
209.408148
 20
177.354894
 30
0.0
  0
INSERT
  5
68
100
AcDbEntity
  8
レイヤー_1
 62
     7
100
AcDbBlockReference
  2
AI9-BLK10
 10
352.182121
 20
52.126017
 30
0.0
  0
INSERT
  5
61
100
AcDbEntity
  8
レイヤー_1
 62
     7
100
AcDbBlockReference
  2
AI9-BLK9
 10
202.893042
 20
265.306803
 30
0.0
  0
INSERT
  5
56
100
AcDbEntity
  8
レイヤー_1
 62
     7
100
AcDbBlockReference
  2
AI9-BLK8
 10
206.841724
 20
90.499213
 30
0.0
  0
INSERT
  5
48
100
AcDbEntity
  8
レイヤー_1
 62
     7
100
AcDbBlockReference
  2
AI9-BLK6
 10
93.24728
 20
226.441389
 30
0.0
  0
INSERT
  5
43
100
AcDbEntity
  8
レイヤー_1
 62
     7
100
AcDbBlockReference
  2
AI9-BLK5
 10
84.242403
 20
107.572073
 30
0.0
  0
INSERT
  5
3E
100
AcDbEntity
  8
レイヤー_1
 62
     7
100
AcDbBlockReference
  2
AI9-BLK4
 10
346.132189
 20
178.20833
 30
0.0
  0
INSERT
  5
34
100
AcDbEntity
  8
レイヤー_1
 62
     7
100
AcDbBlockReference
  2
AI9-BLK2
 10
206.772822
 20
67.940556
 30
0.0
  0
INSERT
  5
2F
100
AcDbEntity
  8
レイヤー_1
 62
     7
100
AcDbBlockReference
  2
AI9-BLK1
 10
241.975066
 20
47.154917
 30
0.0
  0
POLYLINE
  5
29
100
AcDbEntity
  8
レイヤー_1
 62
     7
100
AcDb2dPolyline
 66
     1
 10
0.0
 20
0.0
 30
0.0
  0
VERTEX
  5
2A
100
AcDbEntity
  8
レイヤー_1
 62
     7
100
AcDbVertex
100
AcDb2dVertex
 10
206.610645
 20
72.727688
 30
0.0
  0
VERTEX
  5
2B
100
AcDbEntity
  8
レイヤー_1
 62
     7
100
AcDbVertex
100
AcDb2dVertex
 10
228.175909
 20
45.244784
 30
0.0
  0
VERTEX
  5
2C
100
AcDbEntity
  8
レイヤー_1
 62
     7
100
AcDbVertex
100
AcDb2dVertex
 10
256.052932
 20
45.244784
 30
0.0
  0
SEQEND
  5
2D
100
AcDbEntity
  8
レイヤー_1
 62
     7
  0
ENDSEC
  0
SECTION
  2
OBJECTS
  0
DICTIONARY
  5
19
100
AcDbDictionary
280
     0
281
     1
  3
ACAD_GROUP
350
1A
  3
ACAD_MLINESTYLE
350
1B
  3
ACAD_LAYOUT
350
1E
  3
ACAD_PLOTSETTINGS
350
22
  3
ACAD_PLOTSTYLENAME
350
1F
  3
ACAD_WIPEOUT_VARS
350
23
  0
DICTIONARY
  5
1A
102
{ACAD_REACTORS
330
19
102
}
100
AcDbDictionary
280
     0
281
     1
  0
DICTIONARY
  5
1B
102
{ACAD_REACTORS
330
19
102
}
100
AcDbDictionary
280
     0
281
     1
  3
Standard
350
1C
  0
MLINESTYLE
  5
1C
102
{ACAD_REACTORS
330
1B
102
}
100
AcDbMlineStyle
  2
Standard
 70
     0
  3

 62
     0
 51
90.0
 52
90.0
 71
     2
 49
0.5
 62
   256
  6
ByLayer
 49
-0.5
 62
   256
  6
ByLayer
  0
ACDBDICTIONARYWDFLT
  5
1F
102
{ACAD_REACTORS
330
19
102
}
100
AcDbDictionary
281
     1
  3
Normal
350
1D
100
AcDbDictionaryWithDefault
340
1D
  0
ACDBPLACEHOLDER
  5
1D
102
{ACAD_REACTORS
330
1F
102
}
  0
LAYOUT
  5
20
102
{ACAD_REACTORS
330
1E
102
}
100
AcDbPlotSettings
  1

  2

  4

  6

 40
0.0
 41
0.0
 42
0.0
 43
0.0
 44
0.0
 45
0.0
 46
0.0
 47
0.0
 48
0.0
 49
0.0
140
0.0
141
0.0
142
1.0
143
1.0
 70
  1024
 72
     0
 73
     0
 74
     0
  7

 75
     0
147
1.0
148
0.0
149
0.0
100
AcDbLayout
  1
Model
 70
     0
 71
     0
 10
0.0
 20
0.0
 11
0.0
 21
0.0
 12
0.0
 22
0.0
 32
0.0
 14
0.0
 24
0.0
 34
0.0
 15
0.0
 25
0.0
 35
0.0
146
0.0
 13
0.0
 23
0.0
 33
0.0
 16
0.0
 26
0.0
 36
0.0
 17
0.0
 27
0.0
 37
0.0
 76
     0
330
A
331
0
345
0
346
0
  0
LAYOUT
  5
21
102
{ACAD_REACTORS
330
1E
102
}
100
AcDbPlotSettings
  1

  2

  4

  6

 40
0.0
 41
0.0
 42
0.0
 43
0.0
 44
0.0
 45
0.0
 46
0.0
 47
0.0
 48
0.0
 49
0.0
140
0.0
141
0.0
142
1.0
143
1.0
 70
     0
 72
     0
 73
     0
 74
     0
  7

 75
     0
147
1.0
148
0.0
149
0.0
100
AcDbLayout
  1
Layout1
 70
     0
 71
     0
 10
0.0
 20
0.0
 11
0.0
 21
0.0
 12
0.0
 22
0.0
 32
0.0
 14
0.0
 24
0.0
 34
0.0
 15
0.0
 25
0.0
 35
0.0
146
0.0
 13
0.0
 23
0.0
 33
0.0
 16
0.0
 26
0.0
 36
0.0
 17
0.0
 27
0.0
 37
0.0
 76
     0
330
B
331
0
345
0
346
0
  0
DICTIONARY
  5
1E
102
{ACAD_REACTORS
330
19
102
}
100
AcDbDictionary
280
     0
281
     1
  3
Layout1
350
21
  3
Model
350
20
  0
DICTIONARY
  5
22
102
{ACAD_REACTORS
330
19
102
}
100
AcDbDictionary
280
     0
281
     1
  0
WIPEOUTVARIABLES
  5
23
100
AcDbWipeoutVariables
 70
     1
  0
ENDSEC
  0
EOF
