  0
SECTION
  2
HEADER
  9
$ACADVER
  1
AC1018
  9
$ACADMAINTVER
 70
     0
  9
$DWGCODEPAGE
  3
ANSI_932
  9
$INSBASE
 10
0.0
 20
0.0
 30
0.0
  9
$EXTMIN
 10
1.000000000000000E+20
 20
1.000000000000000E+20
 30
1.000000000000000E+20
  9
$EXTMAX
 10
-1.000000000000000E+20
 20
-1.000000000000000E+20
 30
-1.000000000000000E+20
  9
$LIMMIN
 10
0.0
 20
0.0
  9
$LIMMAX
 10
12.0
 20
9.0
  9
$ORTHOMODE
 70
     0
  9
$REGENMODE
 70
     1
  9
$FILLMODE
 70
     1
  9
$QTEXTMODE
 70
     0
  9
$MIRRTEXT
 70
     1
  9
$LTSCALE
 40
1.0
  9
$ATTMODE
 70
     1
  9
$TEXTSIZE
 40
0.2
  9
$TRACEWID
 40
0.05
  9
$TEXTSTYLE
  7
Standard
  9
$CLAYER
  8
0
  9
$CELTYPE
  6
ByLayer
  9
$CECOLOR
 62
   256
  9
$CELTSCALE
 40
1.0
  9
$DISPSILH
 70
     0
  9
$DIMSCALE
 40
1.0
  9
$DIMASZ
 40
0.18
  9
$DIMEXO
 40
0.0625
  9
$DIMDLI
 40
0.38
  9
$DIMRND
 40
0.0
  9
$DIMDLE
 40
0.0
  9
$DIMEXE
 40
0.18
  9
$DIMTP
 40
0.0
  9
$DIMTM
 40
0.0
  9
$DIMTXT
 40
0.18
  9
$DIMCEN
 40
0.09
  9
$DIMTSZ
 40
0.0
  9
$DIMTOL
 70
     0
  9
$DIMLIM
 70
     0
  9
$DIMTIH
 70
     1
  9
$DIMTOH
 70
     1
  9
$DIMSE1
 70
     0
  9
$DIMSE2
 70
     0
  9
$DIMTAD
 70
     0
  9
$DIMZIN
 70
     0
  9
$DIMBLK
  1

  9
$DIMASO
 70
     1
  9
$DIMSHO
 70
     1
  9
$DIMPOST
  1

  9
$DIMAPOST
  1

  9
$DIMALT
 70
     0
  9
$DIMALTD
 70
     2
  9
$DIMALTF
 40
25.4
  9
$DIMLFAC
 40
1.0
  9
$DIMTOFL
 70
     0
  9
$DIMTVP
 40
0.0
  9
$DIMTIX
 70
     0
  9
$DIMSOXD
 70
     0
  9
$DIMSAH
 70
     0
  9
$DIMBLK1
  1

  9
$DIMBLK2
  1

  9
$DIMSTYLE
  2
Standard
  9
$DIMCLRD
 70
     0
  9
$DIMCLRE
 70
     0
  9
$DIMCLRT
 70
     0
  9
$DIMTFAC
 40
1.0
  9
$DIMGAP
 40
0.09
  9
$DIMJUST
 70
     0
  9
$DIMSD1
 70
     0
  9
$DIMSD2
 70
     0
  9
$DIMTOLJ
 70
     1
  9
$DIMTZIN
 70
     0
  9
$DIMALTZ
 70
     0
  9
$DIMALTTZ
 70
     0
  9
$DIMUPT
 70
     0
  9
$DIMDEC
 70
     4
  9
$DIMTDEC
 70
     4
  9
$DIMALTU
 70
     2
  9
$DIMALTTD
 70
     2
  9
$DIMTXSTY
  7
Standard
  9
$DIMAUNIT
 70
     0
  9
$DIMADEC
 70
     0
  9
$DIMALTRND
 40
0.0
  9
$DIMAZIN
 70
     0
  9
$DIMDSEP
 70
    46
  9
$DIMATFIT
 70
     3
  9
$DIMFRAC
 70
     0
  9
$DIMLDRBLK
  1

  9
$DIMLUNIT
 70
     2
  9
$DIMLWD
 70
    -2
  9
$DIMLWE
 70
    -2
  9
$DIMTMOVE
 70
     0
  9
$LUNITS
 70
     2
  9
$LUPREC
 70
     4
  9
$SKETCHINC
 40
0.1
  9
$FILLETRAD
 40
0.5
  9
$AUNITS
 70
     0
  9
$AUPREC
 70
     0
  9
$MENU
  1
.
  9
$ELEVATION
 40
0.0
  9
$PELEVATION
 40
0.0
  9
$THICKNESS
 40
0.0
  9
$LIMCHECK
 70
     0
  9
$CHAMFERA
 40
0.5
  9
$CHAMFERB
 40
0.5
  9
$CHAMFERC
 40
1.0
  9
$CHAMFERD
 40
0.0
  9
$SKPOLY
 70
     0
  9
$TDCREATE
 40
2456305.821929537
  9
$TDUCREATE
 40
2456305.446929537
  9
$TDUPDATE
 40
2456305.821929548
  9
$TDUUPDATE
 40
2456305.446929548
  9
$TDINDWG
 40
0.0000000116
  9
$TDUSRTIMER
 40
0.0000000116
  9
$USRTIMER
 70
     1
  9
$ANGBASE
 50
0.0
  9
$ANGDIR
 70
     0
  9
$PDMODE
 70
     0
  9
$PDSIZE
 40
0.0
  9
$PLINEWID
 40
0.0
  9
$SPLFRAME
 70
     0
  9
$SPLINETYPE
 70
     6
  9
$SPLINESEGS
 70
     8
  9
$HANDSEED
  5
432
  9
$SURFTAB1
 70
     6
  9
$SURFTAB2
 70
     6
  9
$SURFTYPE
 70
     6
  9
$SURFU
 70
     6
  9
$SURFV
 70
     6
  9
$UCSBASE
  2

  9
$UCSNAME
  2

  9
$UCSORG
 10
0.0
 20
0.0
 30
0.0
  9
$UCSXDIR
 10
1.0
 20
0.0
 30
0.0
  9
$UCSYDIR
 10
0.0
 20
1.0
 30
0.0
  9
$UCSORTHOREF
  2

  9
$UCSORTHOVIEW
 70
     0
  9
$UCSORGTOP
 10
0.0
 20
0.0
 30
0.0
  9
$UCSORGBOTTOM
 10
0.0
 20
0.0
 30
0.0
  9
$UCSORGLEFT
 10
0.0
 20
0.0
 30
0.0
  9
$UCSORGRIGHT
 10
0.0
 20
0.0
 30
0.0
  9
$UCSORGFRONT
 10
0.0
 20
0.0
 30
0.0
  9
$UCSORGBACK
 10
0.0
 20
0.0
 30
0.0
  9
$PUCSBASE
  2

  9
$PUCSNAME
  2

  9
$PUCSORG
 10
0.0
 20
0.0
 30
0.0
  9
$PUCSXDIR
 10
1.0
 20
0.0
 30
0.0
  9
$PUCSYDIR
 10
0.0
 20
1.0
 30
0.0
  9
$PUCSORTHOREF
  2

  9
$PUCSORTHOVIEW
 70
     0
  9
$PUCSORGTOP
 10
0.0
 20
0.0
 30
0.0
  9
$PUCSORGBOTTOM
 10
0.0
 20
0.0
 30
0.0
  9
$PUCSORGLEFT
 10
0.0
 20
0.0
 30
0.0
  9
$PUCSORGRIGHT
 10
0.0
 20
0.0
 30
0.0
  9
$PUCSORGFRONT
 10
0.0
 20
0.0
 30
0.0
  9
$PUCSORGBACK
 10
0.0
 20
0.0
 30
0.0
  9
$USERI1
 70
     0
  9
$USERI2
 70
     0
  9
$USERI3
 70
     0
  9
$USERI4
 70
     0
  9
$USERI5
 70
     0
  9
$USERR1
 40
0.0
  9
$USERR2
 40
0.0
  9
$USERR3
 40
0.0
  9
$USERR4
 40
0.0
  9
$USERR5
 40
0.0
  9
$WORLDVIEW
 70
     1
  9
$SHADEDGE
 70
     3
  9
$SHADEDIF
 70
    70
  9
$TILEMODE
 70
     1
  9
$MAXACTVP
 70
    64
  9
$PINSBASE
 10
0.0
 20
0.0
 30
0.0
  9
$PLIMCHECK
 70
     0
  9
$PEXTMIN
 10
1.000000000000000E+20
 20
1.000000000000000E+20
 30
1.000000000000000E+20
  9
$PEXTMAX
 10
-1.000000000000000E+20
 20
-1.000000000000000E+20
 30
-1.000000000000000E+20
  9
$PLIMMIN
 10
0.0
 20
0.0
  9
$PLIMMAX
 10
12.0
 20
9.0
  9
$UNITMODE
 70
     0
  9
$VISRETAIN
 70
     1
  9
$PLINEGEN
 70
     0
  9
$PSLTSCALE
 70
     1
  9
$TREEDEPTH
 70
  3020
  9
$CMLSTYLE
  2
Standard
  9
$CMLJUST
 70
     0
  9
$CMLSCALE
 40
1.0
  9
$PROXYGRAPHICS
 70
     1
  9
$MEASUREMENT
 70
     0
  9
$CELWEIGHT
370
    -1
  9
$ENDCAPS
280
     0
  9
$JOINSTYLE
280
     0
  9
$LWDISPLAY
290
     1
  9
$INSUNITS
 70
     1
  9
$HYPERLINKBASE
  1

  9
$STYLESHEET
  1

  9
$XEDIT
290
     1
  9
$CEPSNTYPE
380
     0
  9
$PSTYLEMODE
290
     1
  9
$FINGERPRINTGUID
  2
{E4DC19EA-B561-4851-8FB7-6D93C8003C3B}
  9
$VERSIONGUID
  2
{FAEB1C32-E019-11D5-929B-00C0DF256EC4}
  9
$EXTNAMES
290
     1
  9
$PSVPSCALE
 40
0.0
  9
$OLESTARTUP
290
     0
  9
$SORTENTS
280
   127
  9
$INDEXCTL
280
     0
  9
$HIDETEXT
280
     1
  9
$XCLIPFRAME
290
     0
  9
$HALOGAP
280
     0
  9
$OBSCOLOR
 70
   257
  9
$OBSLTYPE
280
     0
  9
$INTERSECTIONDISPLAY
280
     0
  9
$INTERSECTIONCOLOR
 70
   257
  9
$DIMASSOC
280
     2
  9
$PROJECTNAME
  1

  0
ENDSEC
  0
SECTION
  2
CLASSES
  0
CLASS
  1
ACDBDICTIONARYWDFLT
  2
AcDbDictionaryWithDefault
  3
ObjectDBX Classes
 90
        0
 91
        3
280
     0
281
     0
  0
CLASS
  1
VISUALSTYLE
  2
AcDbVisualStyle
  3
ObjectDBX Classes
 90
     4095
 91
        3
280
     0
281
     0
  0
ENDSEC
  0
SECTION
  2
TABLES
  0
TABLE
  2
VPORT
  5
8
330
0
100
AcDbSymbolTable
 70
     1
  0
VPORT
  5
29
330
8
100
AcDbSymbolTableRecord
100
AcDbViewportTableRecord
  2
*Active
 70
     0
 10
0.0
 20
0.0
 11
1.0
 21
1.0
 12
0.0
 22
0.0
 13
0.0
 23
0.0
 14
0.5
 24
0.5
 15
0.5
 25
0.5
 16
0.0
 26
0.0
 36
1.0
 17
209.6471516402966
 27
148.4996351082744
 37
0.0
 40
296.9999592356459
 41
1.414141132937785
 42
50.0
 43
0.0
 44
0.0
 50
0.0
 51
0.0
 71
     0
 72
   100
 73
     1
 74
     3
 75
     0
 76
     0
 77
     0
 78
     0
281
     0
 65
     1
110
0.0
120
0.0
130
0.0
111
1.0
121
0.0
131
0.0
112
0.0
122
1.0
132
0.0
 79
     0
146
0.0
  0
ENDTAB
  0
TABLE
  2
LTYPE
  5
5
330
0
100
AcDbSymbolTable
 70
     1
  0
LTYPE
  5
14
330
5
100
AcDbSymbolTableRecord
100
AcDbLinetypeTableRecord
  2
ByBlock
 70
     0
  3

 72
    65
 73
     0
 40
0.0
  0
LTYPE
  5
15
330
5
100
AcDbSymbolTableRecord
100
AcDbLinetypeTableRecord
  2
ByLayer
 70
     0
  3

 72
    65
 73
     0
 40
0.0
  0
LTYPE
  5
16
330
5
100
AcDbSymbolTableRecord
100
AcDbLinetypeTableRecord
  2
Continuous
 70
     0
  3
Solid line
 72
    65
 73
     0
 40
0.0
  0
ENDTAB
  0
TABLE
  2
LAYER
  5
2
330
0
100
AcDbSymbolTable
 70
     2
  0
LAYER
  5
10
330
2
100
AcDbSymbolTableRecord
100
AcDbLayerTableRecord
  2
0
 70
     0
 62
     7
  6
Continuous
370
    -3
390
F
  0
LAYER
  5
3B
330
2
100
AcDbSymbolTableRecord
100
AcDbLayerTableRecord
  2
Dimension Layer
 70
     0
 62
     7
  6
Continuous
370
    -3
390
F
  0
ENDTAB
  0
TABLE
  2
STYLE
  5
3
330
0
100
AcDbSymbolTable
 70
     1
  0
STYLE
  5
11
330
3
100
AcDbSymbolTableRecord
100
AcDbTextStyleTableRecord
  2
Standard
 70
     0
 40
0.0
 41
1.0
 50
0.0
 71
     0
 42
0.2
  3
txt
  4

  0
ENDTAB
  0
TABLE
  2
VIEW
  5
6
330
0
100
AcDbSymbolTable
 70
     0
  0
ENDTAB
  0
TABLE
  2
UCS
  5
7
330
0
100
AcDbSymbolTable
 70
     0
  0
ENDTAB
  0
TABLE
  2
APPID
  5
9
330
0
100
AcDbSymbolTable
 70
     1
  0
APPID
  5
12
330
9
100
AcDbSymbolTableRecord
100
AcDbRegAppTableRecord
  2
ACAD
 70
     0
  0
ENDTAB
  0
TABLE
  2
DIMSTYLE
  5
A
330
0
100
AcDbSymbolTable
 70
     1
100
AcDbDimStyleTable
  0
DIMSTYLE
105
27
330
A
100
AcDbSymbolTableRecord
100
AcDbDimStyleTableRecord
  2
Standard
 70
     0
340
11
  0
ENDTAB
  0
TABLE
  2
BLOCK_RECORD
  5
1
330
0
100
AcDbSymbolTable
 70
    16
  0
BLOCK_RECORD
  5
1F
330
1
100
AcDbSymbolTableRecord
100
AcDbBlockTableRecord
  2
*Model_Space
340
22
  0
BLOCK_RECORD
  5
1B
330
1
100
AcDbSymbolTableRecord
100
AcDbBlockTableRecord
  2
*Paper_Space
340
1E
  0
BLOCK_RECORD
  5
23
330
1
100
AcDbSymbolTableRecord
100
AcDbBlockTableRecord
  2
*Paper_Space0
340
26
  0
BLOCK_RECORD
  5
3C
330
1
100
AcDbSymbolTableRecord
100
AcDbBlockTableRecord
  2
block 2
340
0
102
{BLKREFS
331
3D
102
}
  0
BLOCK_RECORD
  5
61
330
1
100
AcDbSymbolTableRecord
100
AcDbBlockTableRecord
  2
block 3
340
0
102
{BLKREFS
331
62
102
}
  0
BLOCK_RECORD
  5
A6
330
1
100
AcDbSymbolTableRecord
100
AcDbBlockTableRecord
  2
block 4
340
0
102
{BLKREFS
331
A7
102
}
  0
BLOCK_RECORD
  5
B3
330
1
100
AcDbSymbolTableRecord
100
AcDbBlockTableRecord
  2
block 5
340
0
102
{BLKREFS
331
B4
102
}
  0
BLOCK_RECORD
  5
BF
330
1
100
AcDbSymbolTableRecord
100
AcDbBlockTableRecord
  2
block 6
340
0
102
{BLKREFS
331
C0
102
}
  0
BLOCK_RECORD
  5
CB
330
1
100
AcDbSymbolTableRecord
100
AcDbBlockTableRecord
  2
block 7
340
0
102
{BLKREFS
331
CC
102
}
  0
BLOCK_RECORD
  5
15E
330
1
100
AcDbSymbolTableRecord
100
AcDbBlockTableRecord
  2
block 8
340
0
102
{BLKREFS
331
15F
102
}
  0
BLOCK_RECORD
  5
1B2
330
1
100
AcDbSymbolTableRecord
100
AcDbBlockTableRecord
  2
block 9
340
0
102
{BLKREFS
331
1B3
102
}
  0
BLOCK_RECORD
  5
248
330
1
100
AcDbSymbolTableRecord
100
AcDbBlockTableRecord
  2
block 10
340
0
102
{BLKREFS
331
249
102
}
  0
BLOCK_RECORD
  5
26A
330
1
100
AcDbSymbolTableRecord
100
AcDbBlockTableRecord
  2
block 11
340
0
102
{BLKREFS
331
26B
102
}
  0
BLOCK_RECORD
  5
2CB
330
1
100
AcDbSymbolTableRecord
100
AcDbBlockTableRecord
  2
block 12
340
0
102
{BLKREFS
331
2CC
102
}
  0
BLOCK_RECORD
  5
2CF
330
1
100
AcDbSymbolTableRecord
100
AcDbBlockTableRecord
  2
block 13
340
0
102
{BLKREFS
331
2D0
102
}
  0
BLOCK_RECORD
  5
2DA
330
1
100
AcDbSymbolTableRecord
100
AcDbBlockTableRecord
  2
block 14
340
0
102
{BLKREFS
331
2DB
102
}
  0
BLOCK_RECORD
  5
3E5
330
1
100
AcDbSymbolTableRecord
100
AcDbBlockTableRecord
  2
block 15
340
0
102
{BLKREFS
331
3E6
102
}
  0
BLOCK_RECORD
  5
404
330
1
100
AcDbSymbolTableRecord
100
AcDbBlockTableRecord
  2
block 16
340
0
102
{BLKREFS
331
405
102
}
  0
ENDTAB
  0
ENDSEC
  0
SECTION
  2
BLOCKS
  0
BLOCK
  5
20
330
1F
100
AcDbEntity
  8
0
100
AcDbBlockBegin
  2
*Model_Space
 70
     0
 71
     0
 10
0.0
 20
0.0
 30
0.0
  3
*Model_Space
  1

  0
ENDBLK
  5
21
330
1F
100
AcDbEntity
  8
0
100
AcDbBlockEnd
  0
BLOCK
  5
1C
330
1B
100
AcDbEntity
 67
     1
  8
0
100
AcDbBlockBegin
  2
*Paper_Space
 70
     0
 71
     0
 10
0.0
 20
0.0
 30
0.0
  3
*Paper_Space
  1

  0
ENDBLK
  5
1D
330
1B
100
AcDbEntity
 67
     1
  8
0
100
AcDbBlockEnd
  0
BLOCK
  5
24
330
23
100
AcDbEntity
  8
0
100
AcDbBlockBegin
  2
*Paper_Space0
 70
     0
 71
     0
 10
0.0
 20
0.0
 30
0.0
  3
*Paper_Space0
  1

  0
ENDBLK
  5
25
330
23
100
AcDbEntity
  8
0
100
AcDbBlockEnd
  0
BLOCK
  5
3E
330
3C
100
AcDbEntity
  8
0
100
AcDbBlockBegin
  2
block 2
 70
     0
 71
     0
 10
0.0
 20
0.0
 30
0.0
  3
block 2
  1

  0
MTEXT
  5
40
330
3C
100
AcDbEntity
  8
Dimension Layer
 62
   250
420
  2234388
100
AcDbMText
 10
196.8586126895006
 20
13.07241481878051
 30
0.0
 40
2.187786638666616
 41
0.0
 71
     7
 72
     1
  1
\fMS Gothic|b0|i0|c0|p34;\W1;1：1
 73
     1
 44
1.0
  0
MTEXT
  5
41
330
3C
100
AcDbEntity
  8
Dimension Layer
 62
   250
420
  2234388
100
AcDbMText
 10
240.1844780215511
 20
29.46727972353596
 30
0.0
 40
2.187786638666616
 41
0.0
 71
     7
 72
     1
  1
\fMS Gothic|b0|i0|c0|p34;\W1;HCC-W/O/B/G01T
 73
     1
 44
1.0
  0
MTEXT
  5
42
330
3C
100
AcDbEntity
  8
Dimension Layer
 62
   250
420
  2234388
100
AcDbMText
 10
169.8640502505027
 20
29.5961262946843
 30
0.0
 40
2.187786638666616
 41
0.0
 71
     7
 72
     1
  1
\fMS Gothic|b0|i0|c0|p34;\W1;20
 73
     1
 44
1.0
  0
MTEXT
  5
43
330
3C
100
AcDbEntity
  8
Dimension Layer
 62
   250
420
  2234388
100
AcDbMText
 10
173.0814249241776
 20
29.5961262946843
 30
0.0
 40
2.187786638666616
 41
0.0
 71
     7
 72
     1
  1
\fMS Gothic|b0|i0|c0|p34;\W1;13
 73
     1
 44
1.0
  0
MTEXT
  5
44
330
3C
100
AcDbEntity
  8
Dimension Layer
 62
   250
420
  2234388
100
AcDbMText
 10
176.2987995978524
 20
29.5961262946843
 30
0.0
 40
2.187786638666616
 41
0.0
 71
     7
 72
     1
  1
\fMS Gothic|b0|i0|c0|p34;\W1;　
 73
     1
 44
1.0
  0
MTEXT
  5
45
330
3C
100
AcDbEntity
  8
Dimension Layer
 62
   250
420
  2234388
100
AcDbMText
 10
179.5161742715272
 20
29.59957139016955
 30
0.0
 40
2.187786638666616
 41
0.0
 71
     7
 72
     1
  1
\fMS Gothic|b0|i0|c0|p34;\W1;年
 73
     1
 44
1.0
  0
MTEXT
  5
46
330
3C
100
AcDbEntity
  8
Dimension Layer
 62
   250
420
  2234388
100
AcDbMText
 10
182.7333766904278
 20
29.59957139016955
 30
0.0
 40
2.187786638666616
 41
0.0
 71
     7
 72
     1
  1
\fMS Gothic|b0|i0|c0|p34;\W1;　
 73
     1
 44
1.0
  0
MTEXT
  5
47
330
3C
100
AcDbEntity
  8
Dimension Layer
 62
   250
420
  2234388
100
AcDbMText
 10
185.9507513641026
 20
29.59957139016955
 30
0.0
 40
2.187786638666616
 41
0.0
 71
     7
 72
     1
  1
\fMS Gothic|b0|i0|c0|p34;\W1;　
 73
     1
 44
1.0
  0
MTEXT
  5
48
330
3C
100
AcDbEntity
  8
Dimension Layer
 62
   250
420
  2234388
100
AcDbMText
 10
189.1681260377774
 20
29.5961262946843
 30
0.0
 40
2.187786638666616
 41
0.0
 71
     7
 72
     1
  1
\fMS Gothic|b0|i0|c0|p34;\W1;2
 73
     1
 44
1.0
  0
MTEXT
  5
49
330
3C
100
AcDbEntity
  8
Dimension Layer
 62
   250
420
  2234388
100
AcDbMText
 10
198.8845010896018
 20
29.59957139016955
 30
0.0
 40
2.187786638666616
 41
0.0
 71
     7
 72
     1
  1
\fMS Gothic|b0|i0|c0|p34;\W1;　
 73
     1
 44
1.0
  0
MTEXT
  5
4A
330
3C
100
AcDbEntity
  8
Dimension Layer
 62
   250
420
  2234388
100
AcDbMText
 10
202.1018757632766
 20
29.5961262946843
 30
0.0
 40
2.187786638666616
 41
0.0
 71
     7
 72
     1
  1
\fMS Gothic|b0|i0|c0|p34;\W1;1
 73
     1
 44
1.0
  0
MTEXT
  5
4B
330
3C
100
AcDbEntity
  8
Dimension Layer
 62
   250
420
  2234388
100
AcDbMText
 10
192.3822278707412
 20
29.59957139016955
 30
0.0
 40
2.187786638666616
 41
0.0
 71
     7
 72
     1
  1
\fMS Gothic|b0|i0|c0|p34;\W1;月
 73
     1
 44
1.0
  0
MTEXT
  5
4C
330
3C
100
AcDbEntity
  8
Dimension Layer
 62
   250
420
  2234388
100
AcDbMText
 10
195.5996025444161
 20
29.59957139016955
 30
0.0
 40
2.187786638666616
 41
0.0
 71
     7
 72
     1
  1
\fMS Gothic|b0|i0|c0|p34;\W1;　
 73
     1
 44
1.0
  0
MTEXT
  5
4D
330
3C
100
AcDbEntity
  8
Dimension Layer
 62
   250
420
  2234388
100
AcDbMText
 10
205.2515543106663
 20
29.59957139016955
 30
0.0
 40
2.187786638666616
 41
0.0
 71
     7
 72
     1
  1
\fMS Gothic|b0|i0|c0|p34;\W1;日
 73
     1
 44
1.0
  0
POLYLINE
  5
4E
330
3C
100
AcDbEntity
  8
Dimension Layer
 62
   250
420
  2234388
370
    35
100
AcDb2dPolyline
 66
     1
 10
0.0
 20
0.0
 30
0.0
  0
VERTEX
  5
4F
330
4E
100
AcDbEntity
  8
Dimension Layer
 62
   250
420
  2234388
370
    35
100
AcDbVertex
100
AcDb2dVertex
 10
181.6647080709033
 20
18.53668076793528
 30
0.0
  0
VERTEX
  5
50
330
4E
100
AcDbEntity
  8
Dimension Layer
 62
   250
420
  2234388
370
    35
100
AcDbVertex
100
AcDb2dVertex
 10
216.6320827366406
 20
18.53668076793528
 30
0.0
  0
SEQEND
  5
51
330
4E
100
AcDbEntity
  8
Dimension Layer
370
    35
  0
POLYLINE
  5
52
330
3C
100
AcDbEntity
  8
Dimension Layer
 62
   250
420
  2234388
370
    35
100
AcDb2dPolyline
 66
     1
 10
0.0
 20
0.0
 30
0.0
  0
VERTEX
  5
53
330
52
100
AcDbEntity
  8
Dimension Layer
 62
   250
420
  2234388
370
    35
100
AcDbVertex
100
AcDb2dVertex
 10
148.6445013734292
 20
27.00334743248527
 30
0.0
  0
VERTEX
  5
54
330
52
100
AcDbEntity
  8
Dimension Layer
 62
   250
420
  2234388
370
    35
100
AcDbVertex
100
AcDb2dVertex
 10
281.6558484538916
 20
27.00334743248527
 30
0.0
  0
SEQEND
  5
55
330
52
100
AcDbEntity
  8
Dimension Layer
370
    35
  0
POLYLINE
  5
56
330
3C
100
AcDbEntity
  8
Dimension Layer
 62
   250
420
  2234388
370
    35
100
AcDb2dPolyline
 66
     1
 10
0.0
 20
0.0
 30
0.0
  0
VERTEX
  5
57
330
56
100
AcDbEntity
  8
Dimension Layer
 62
   250
420
  2234388
370
    35
100
AcDbVertex
100
AcDb2dVertex
 10
281.6558484538916
 20
35.04661186189807
 30
0.0
  0
VERTEX
  5
58
330
56
100
AcDbEntity
  8
Dimension Layer
 62
   250
420
  2234388
370
    35
100
AcDbVertex
100
AcDb2dVertex
 10
281.6558484538916
 20
10.07001410338527
 30
0.0
  0
SEQEND
  5
59
330
56
100
AcDbEntity
  8
Dimension Layer
370
    35
  0
POLYLINE
  5
5A
330
3C
100
AcDbEntity
  8
Dimension Layer
 62
   250
420
  2234388
370
    35
100
AcDb2dPolyline
 66
     1
 10
0.0
 20
0.0
 30
0.0
  0
VERTEX
  5
5B
330
5A
100
AcDbEntity
  8
Dimension Layer
 62
   250
420
  2234388
370
    35
100
AcDbVertex
100
AcDb2dVertex
 10
14.70194498330368
 20
286.9299451322606
 30
0.0
  0
VERTEX
  5
5C
330
5A
100
AcDbEntity
  8
Dimension Layer
 62
   250
420
  2234388
370
    35
100
AcDbVertex
100
AcDb2dVertex
 10
404.5920137877409
 20
286.9299451322606
 30
0.0
  0
VERTEX
  5
5D
330
5A
100
AcDbEntity
  8
Dimension Layer
 62
   250
420
  2234388
370
    35
100
AcDbVertex
100
AcDb2dVertex
 10
404.5920137877409
 20
10.07001410338527
 30
0.0
  0
SEQEND
  5
5E
330
5A
100
AcDbEntity
  8
Dimension Layer
370
    35
  0
MTEXT
  5
5F
330
3C
100
AcDbEntity
  8
Dimension Layer
 62
   250
420
  2234388
100
AcDbMText
 10
49.46950411089652
 20
284.7860622117896
 30
0.0
 40
2.187786638666616
 41
0.0
 71
     7
 72
     1
  1
\fMS Gothic|b0|i0|c0|p34;\W1;図
 11
-0.9999999999999886
 21
1.509957990978371E-7
 31
0.0
 73
     1
 44
1.0
  0
MTEXT
  5
60
330
3C
100
AcDbEntity
  8
Dimension Layer
 62
   250
420
  2234388
100
AcDbMText
 10
43.03458250877261
 20
284.7860622117896
 30
0.0
 40
2.187786638666616
 41
0.0
 71
     7
 72
     1
  1
\fMS Gothic|b0|i0|c0|p34;\W1;番
 11
-0.9999999999999886
 21
1.509957990978371E-7
 31
0.0
 73
     1
 44
1.0
  0
INSERT
  5
62
330
3C
100
AcDbEntity
  8
Dimension Layer
100
AcDbBlockReference
  2
block 3
 10
0.0
 20
0.0
 30
0.0
  0
MTEXT
  5
6E
330
3C
100
AcDbEntity
  8
Dimension Layer
 62
   250
420
  2234388
100
AcDbMText
 10
17.80304768435132
 20
30.52871364254143
 30
0.0
 40
2.187786638666616
 41
0.0
 71
     7
 72
     1
  1
\fMS Gothic|b0|i0|c0|p34;\W1;備
 73
     1
 44
1.0
  0
MTEXT
  5
6F
330
3C
100
AcDbEntity
  8
Dimension Layer
 62
   250
420
  2234388
100
AcDbMText
 10
21.02042235802615
 20
30.52871364254143
 30
0.0
 40
2.187786638666616
 41
0.0
 71
     7
 72
     1
  1
\fMS Gothic|b0|i0|c0|p34;\W1;　
 73
     1
 44
1.0
  0
MTEXT
  5
70
330
3C
100
AcDbEntity
  8
Dimension Layer
 62
   250
420
  2234388
100
AcDbMText
 10
17.88676350464289
 20
26.29469129116938
 30
0.0
 40
2.187786638666616
 41
0.0
 71
     7
 72
     1
  1
\fMS Gothic|b0|i0|c0|p34;\W1;　
 73
     1
 44
1.0
  0
MTEXT
  5
71
330
3C
100
AcDbEntity
  8
Dimension Layer
 62
   250
420
  2234388
100
AcDbMText
 10
17.80304768435132
 20
21.97695311950576
 30
0.0
 40
2.187786638666616
 41
0.0
 71
     7
 72
     1
  1
\fMS Gothic|b0|i0|c0|p34;\W1;考
 73
     1
 44
1.0
  0
MTEXT
  5
72
330
3C
100
AcDbEntity
  8
Dimension Layer
 62
   250
420
  2234388
100
AcDbMText
 10
21.02042235802615
 20
21.97695311950576
 30
0.0
 40
2.187786638666616
 41
0.0
 71
     7
 72
     1
  1
\fMS Gothic|b0|i0|c0|p34;\W1;　
 73
     1
 44
1.0
  0
MTEXT
  5
73
330
3C
100
AcDbEntity
  8
Dimension Layer
 62
   250
420
  2234388
100
AcDbMText
 10
17.88676350464289
 20
17.83009168391053
 30
0.0
 40
2.187786638666616
 41
0.0
 71
     7
 72
     1
  1
\fMS Gothic|b0|i0|c0|p34;\W1;　
 73
     1
 44
1.0
  0
MTEXT
  5
74
330
3C
100
AcDbEntity
  8
Dimension Layer
 62
   250
420
  2234388
100
AcDbMText
 10
17.80304768435132
 20
13.59606933253848
 30
0.0
 40
2.187786638666616
 41
0.0
 71
     7
 72
     1
  1
\fMS Gothic|b0|i0|c0|p34;\W1;欄
 73
     1
 44
1.0
  0
MTEXT
  5
75
330
3C
100
AcDbEntity
  8
Dimension Layer
 62
   250
420
  2234388
100
AcDbMText
 10
27.79296331770454
 20
23.24784884401443
 30
0.0
 40
2.187786638666616
 41
0.0
 71
     7
 72
     1
  1
\fMS Gothic|b0|i0|c0|p34;\W1;②
 73
     1
 44
1.0
  0
MTEXT
  5
76
330
3C
100
AcDbEntity
  8
Dimension Layer
 62
   250
420
  2234388
100
AcDbMText
 10
27.79296331770454
 20
16.388663732882
 30
0.0
 40
2.187786638666616
 41
0.0
 71
     7
 72
     1
  1
\fMS Gothic|b0|i0|c0|p34;\W1;①
 73
     1
 44
1.0
  0
POLYLINE
  5
77
330
3C
100
AcDbEntity
  8
Dimension Layer
 62
   250
420
  2234388
370
    35
100
AcDb2dPolyline
 66
     1
 10
0.0
 20
0.0
 30
0.0
  0
VERTEX
  5
78
330
77
100
AcDbEntity
  8
Dimension Layer
 62
   250
420
  2234388
370
    35
100
AcDbVertex
100
AcDb2dVertex
 10
37.64662542461613
 20
286.9299451322606
 30
0.0
  0
VERTEX
  5
79
330
77
100
AcDbEntity
  8
Dimension Layer
 62
   250
420
  2234388
370
    35
100
AcDbVertex
100
AcDb2dVertex
 10
37.64662542461613
 20
279.9873887103851
 30
0.0
  0
SEQEND
  5
7A
330
77
100
AcDbEntity
  8
Dimension Layer
370
    35
  0
POLYLINE
  5
7B
330
3C
100
AcDbEntity
  8
Dimension Layer
 62
   250
420
  2234388
370
    35
100
AcDb2dPolyline
 66
     1
 10
0.0
 20
0.0
 30
0.0
  0
VERTEX
  5
7C
330
7B
100
AcDbEntity
  8
Dimension Layer
 62
   250
420
  2234388
370
    35
100
AcDbVertex
100
AcDb2dVertex
 10
52.63279078545292
 20
279.9873887103851
 30
0.0
  0
VERTEX
  5
7D
330
7B
100
AcDbEntity
  8
Dimension Layer
 62
   250
420
  2234388
370
    35
100
AcDbVertex
100
AcDb2dVertex
 10
52.63279078545292
 20
286.9299451322606
 30
0.0
  0
SEQEND
  5
7E
330
7B
100
AcDbEntity
  8
Dimension Layer
370
    35
  0
POLYLINE
  5
7F
330
3C
100
AcDbEntity
  8
Dimension Layer
 62
   250
420
  2234388
370
    35
100
AcDb2dPolyline
 66
     1
 10
0.0
 20
0.0
 30
0.0
  0
VERTEX
  5
80
330
7F
100
AcDbEntity
  8
Dimension Layer
 62
   250
420
  2234388
370
    35
100
AcDbVertex
100
AcDb2dVertex
 10
37.64662542461613
 20
286.9299451322606
 30
0.0
  0
VERTEX
  5
81
330
7F
100
AcDbEntity
  8
Dimension Layer
 62
   250
420
  2234388
370
    35
100
AcDbVertex
100
AcDb2dVertex
 10
37.64662542461613
 20
279.9873887103851
 30
0.0
  0
SEQEND
  5
82
330
7F
100
AcDbEntity
  8
Dimension Layer
370
    35
  0
POLYLINE
  5
83
330
3C
100
AcDbEntity
  8
Dimension Layer
 62
   250
420
  2234388
370
    35
100
AcDb2dPolyline
 66
     1
 10
0.0
 20
0.0
 30
0.0
  0
VERTEX
  5
84
330
83
100
AcDbEntity
  8
Dimension Layer
 62
   250
420
  2234388
370
    35
100
AcDbVertex
100
AcDb2dVertex
 10
14.70228949285221
 20
279.9873887103851
 30
0.0
  0
VERTEX
  5
85
330
83
100
AcDbEntity
  8
Dimension Layer
 62
   250
420
  2234388
370
    35
100
AcDbVertex
100
AcDb2dVertex
 10
52.63279078545292
 20
279.9873887103851
 30
0.0
  0
SEQEND
  5
86
330
83
100
AcDbEntity
  8
Dimension Layer
370
    35
  0
POLYLINE
  5
87
330
3C
100
AcDbEntity
  8
Dimension Layer
 62
   250
420
  2234388
370
    35
100
AcDb2dPolyline
 66
     1
 10
0.0
 20
0.0
 30
0.0
  0
VERTEX
  5
88
330
87
100
AcDbEntity
  8
Dimension Layer
 62
   250
420
  2234388
370
    35
100
AcDbVertex
100
AcDb2dVertex
 10
14.70228949285221
 20
10.07001410338527
 30
0.0
  0
VERTEX
  5
89
330
87
100
AcDbEntity
  8
Dimension Layer
 62
   250
420
  2234388
370
    35
100
AcDbVertex
100
AcDb2dVertex
 10
14.70228949285221
 20
286.9299451322606
 30
0.0
  0
SEQEND
  5
8A
330
87
100
AcDbEntity
  8
Dimension Layer
370
    35
  0
POLYLINE
  5
8B
330
3C
100
AcDbEntity
  8
Dimension Layer
 62
   250
420
  2234388
370
    35
100
AcDb2dPolyline
 66
     1
 10
0.0
 20
0.0
 30
0.0
  0
VERTEX
  5
8C
330
8B
100
AcDbEntity
  8
Dimension Layer
 62
   250
420
  2234388
370
    35
100
AcDbVertex
100
AcDb2dVertex
 10
24.69272189052821
 20
35.04661186189807
 30
0.0
  0
VERTEX
  5
8D
330
8B
100
AcDbEntity
  8
Dimension Layer
 62
   250
420
  2234388
370
    35
100
AcDbVertex
100
AcDb2dVertex
 10
24.69272189052821
 20
10.07001410338527
 30
0.0
  0
SEQEND
  5
8E
330
8B
100
AcDbEntity
  8
Dimension Layer
370
    35
  0
MTEXT
  5
8F
330
3C
100
AcDbEntity
  8
Dimension Layer
 62
   250
420
  2234388
100
AcDbMText
 10
27.79382459157585
 20
30.19109428498695
 30
0.0
 40
2.187786638666616
 41
0.0
 71
     7
 72
     1
  1
\fMS Gothic|b0|i0|c0|p34;\W1;③
 73
     1
 44
1.0
  0
POLYLINE
  5
90
330
3C
100
AcDbEntity
  8
Dimension Layer
 62
   250
420
  2234388
370
    35
100
AcDb2dPolyline
 66
     1
 10
0.0
 20
0.0
 30
0.0
  0
VERTEX
  5
91
330
90
100
AcDbEntity
  8
Dimension Layer
 62
   250
420
  2234388
370
    35
100
AcDbVertex
100
AcDb2dVertex
 10
34.68315428820421
 20
35.04661186189807
 30
0.0
  0
VERTEX
  5
92
330
90
100
AcDbEntity
  8
Dimension Layer
 62
   250
420
  2234388
370
    35
100
AcDbVertex
100
AcDb2dVertex
 10
34.68315428820421
 20
10.07001410338527
 30
0.0
  0
SEQEND
  5
93
330
90
100
AcDbEntity
  8
Dimension Layer
370
    35
  0
POLYLINE
  5
94
330
3C
100
AcDbEntity
  8
Dimension Layer
 62
   250
420
  2234388
370
    35
100
AcDb2dPolyline
 66
     1
 10
0.0
 20
0.0
 30
0.0
  0
VERTEX
  5
95
330
94
100
AcDbEntity
  8
Dimension Layer
 62
   250
420
  2234388
370
    35
100
AcDbVertex
100
AcDb2dVertex
 10
14.70228949285221
 20
10.07001410338527
 30
0.0
  0
VERTEX
  5
96
330
94
100
AcDbEntity
  8
Dimension Layer
 62
   250
420
  2234388
370
    35
100
AcDbVertex
100
AcDb2dVertex
 10
14.70228949285221
 20
35.04661186189807
 30
0.0
  0
SEQEND
  5
97
330
94
100
AcDbEntity
  8
Dimension Layer
370
    35
  0
POLYLINE
  5
98
330
3C
100
AcDbEntity
  8
Dimension Layer
 62
   250
420
  2234388
370
    35
100
AcDb2dPolyline
 66
     1
 10
0.0
 20
0.0
 30
0.0
  0
VERTEX
  5
99
330
98
100
AcDbEntity
  8
Dimension Layer
 62
   250
420
  2234388
370
    35
100
AcDbVertex
100
AcDb2dVertex
 10
24.69272189052821
 20
35.04661186189807
 30
0.0
  0
VERTEX
  5
9A
330
98
100
AcDbEntity
  8
Dimension Layer
 62
   250
420
  2234388
370
    35
100
AcDbVertex
100
AcDb2dVertex
 10
24.69272189052821
 20
10.07001410338527
 30
0.0
  0
SEQEND
  5
9B
330
98
100
AcDbEntity
  8
Dimension Layer
370
    35
  0
POLYLINE
  5
9C
330
3C
100
AcDbEntity
  8
Dimension Layer
 62
   250
420
  2234388
370
    35
100
AcDb2dPolyline
 66
     1
 10
0.0
 20
0.0
 30
0.0
  0
VERTEX
  5
9D
330
9C
100
AcDbEntity
  8
Dimension Layer
 62
   250
420
  2234388
370
    35
100
AcDbVertex
100
AcDb2dVertex
 10
34.68315428820421
 20
35.04661186189807
 30
0.0
  0
VERTEX
  5
9E
330
9C
100
AcDbEntity
  8
Dimension Layer
 62
   250
420
  2234388
370
    35
100
AcDbVertex
100
AcDb2dVertex
 10
34.68315428820421
 20
10.07001410338527
 30
0.0
  0
SEQEND
  5
9F
330
9C
100
AcDbEntity
  8
Dimension Layer
370
    35
  0
POLYLINE
  5
A0
330
3C
100
AcDbEntity
  8
Dimension Layer
 62
   250
420
  2234388
370
    35
100
AcDb2dPolyline
 66
     1
 10
0.0
 20
0.0
 30
0.0
  0
VERTEX
  5
A1
330
A0
100
AcDbEntity
  8
Dimension Layer
 62
   250
420
  2234388
370
    35
100
AcDbVertex
100
AcDb2dVertex
 10
14.70194498330368
 20
10.07001410338527
 30
0.0
  0
VERTEX
  5
A2
330
A0
100
AcDbEntity
  8
Dimension Layer
 62
   250
420
  2234388
370
    35
100
AcDbVertex
100
AcDb2dVertex
 10
14.70194498330368
 20
35.04661186189807
 30
0.0
  0
VERTEX
  5
A3
330
A0
100
AcDbEntity
  8
Dimension Layer
 62
   250
420
  2234388
370
    35
100
AcDbVertex
100
AcDb2dVertex
 10
404.5920137877409
 20
35.04661186189807
 30
0.0
  0
SEQEND
  5
A4
330
A0
100
AcDbEntity
  8
Dimension Layer
370
    35
  0
MTEXT
  5
A5
330
3C
100
AcDbEntity
  8
Dimension Layer
 62
   250
420
  2234388
100
AcDbMText
 10
98.23638099757632
 20
10.71769205461224
 30
0.0
 40
2.187786638666616
 41
0.0
 71
     7
 72
     1
  1
\fMS Gothic|b0|i0|c0|p34;\W1;記
 73
     1
 44
1.0
  0
INSERT
  5
A7
330
3C
100
AcDbEntity
  8
Dimension Layer
100
AcDbBlockReference
  2
block 4
 10
0.0
 20
0.0
 30
0.0
  0
MTEXT
  5
B2
330
3C
100
AcDbEntity
  8
Dimension Layer
 62
   250
420
  2234388
100
AcDbMText
 10
104.671130344926
 20
10.71769205461224
 30
0.0
 40
2.187786638666616
 41
0.0
 71
     7
 72
     1
  1
\fMS Gothic|b0|i0|c0|p34;\W1;事
 73
     1
 44
1.0
  0
INSERT
  5
B4
330
3C
100
AcDbEntity
  8
Dimension Layer
100
AcDbBlockReference
  2
block 5
 10
0.0
 20
0.0
 30
0.0
  0
INSERT
  5
C0
330
3C
100
AcDbEntity
  8
Dimension Layer
100
AcDbBlockReference
  2
block 6
 10
0.0
 20
0.0
 30
0.0
  0
INSERT
  5
CC
330
3C
100
AcDbEntity
  8
Dimension Layer
100
AcDbBlockReference
  2
block 7
 10
0.0
 20
0.0
 30
0.0
  0
POLYLINE
  5
D7
330
3C
100
AcDbEntity
  8
Dimension Layer
 62
   250
420
  2234388
370
    35
100
AcDb2dPolyline
 66
     1
 10
0.0
 20
0.0
 30
0.0
  0
VERTEX
  5
D8
330
D7
100
AcDbEntity
  8
Dimension Layer
 62
   250
420
  2234388
370
    35
100
AcDbVertex
100
AcDb2dVertex
 10
24.69272189052821
 20
28.01930609108545
 30
0.0
  0
VERTEX
  5
D9
330
D7
100
AcDbEntity
  8
Dimension Layer
 62
   250
420
  2234388
370
    35
100
AcDbVertex
100
AcDb2dVertex
 10
148.6448458829777
 20
28.01930609108545
 30
0.0
  0
SEQEND
  5
DA
330
D7
100
AcDbEntity
  8
Dimension Layer
370
    35
  0
POLYLINE
  5
DB
330
3C
100
AcDbEntity
  8
Dimension Layer
 62
   250
420
  2234388
370
    35
100
AcDb2dPolyline
 66
     1
 10
0.0
 20
0.0
 30
0.0
  0
VERTEX
  5
DC
330
DB
100
AcDbEntity
  8
Dimension Layer
 62
   250
420
  2234388
370
    35
100
AcDbVertex
100
AcDb2dVertex
 10
24.69272189052821
 20
20.99200032027283
 30
0.0
  0
VERTEX
  5
DD
330
DB
100
AcDbEntity
  8
Dimension Layer
 62
   250
420
  2234388
370
    35
100
AcDbVertex
100
AcDb2dVertex
 10
148.6448458829777
 20
20.99200032027283
 30
0.0
  0
SEQEND
  5
DE
330
DB
100
AcDbEntity
  8
Dimension Layer
370
    35
  0
POLYLINE
  5
DF
330
3C
100
AcDbEntity
  8
Dimension Layer
 62
   250
420
  2234388
370
    35
100
AcDb2dPolyline
 66
     1
 10
0.0
 20
0.0
 30
0.0
  0
VERTEX
  5
E0
330
DF
100
AcDbEntity
  8
Dimension Layer
 62
   250
420
  2234388
370
    35
100
AcDbVertex
100
AcDb2dVertex
 10
24.69272189052821
 20
14.04944389839736
 30
0.0
  0
VERTEX
  5
E1
330
DF
100
AcDbEntity
  8
Dimension Layer
 62
   250
420
  2234388
370
    35
100
AcDbVertex
100
AcDb2dVertex
 10
148.6448458829777
 20
14.04944389839736
 30
0.0
  0
SEQEND
  5
E2
330
DF
100
AcDbEntity
  8
Dimension Layer
370
    35
  0
POLYLINE
  5
E3
330
3C
100
AcDbEntity
  8
Dimension Layer
 62
   250
420
  2234388
370
    35
100
AcDb2dPolyline
 66
     1
 10
0.0
 20
0.0
 30
0.0
  0
VERTEX
  5
E4
330
E3
100
AcDbEntity
  8
Dimension Layer
 62
   250
420
  2234388
370
    35
100
AcDbVertex
100
AcDb2dVertex
 10
404.5920137877409
 20
10.07001410338527
 30
0.0
  0
VERTEX
  5
E5
330
E3
100
AcDbEntity
  8
Dimension Layer
 62
   250
420
  2234388
370
    35
100
AcDbVertex
100
AcDb2dVertex
 10
14.70194498330368
 20
10.07001410338527
 30
0.0
  0
SEQEND
  5
E6
330
E3
100
AcDbEntity
  8
Dimension Layer
370
    35
  0
MTEXT
  5
E7
330
3C
100
AcDbEntity
  8
Dimension Layer
 62
   250
420
  2234388
100
AcDbMText
 10
149.9677625493136
 20
22.65494791100293
 30
0.0
 40
2.187786638666616
 41
0.0
 71
     7
 72
     1
  1
\fMS Gothic|b0|i0|c0|p34;\W1;製
 73
     1
 44
1.0
  0
MTEXT
  5
E8
330
3C
100
AcDbEntity
  8
Dimension Layer
 62
   250
420
  2234388
100
AcDbMText
 10
154.7938245598259
 20
22.65494791100293
 30
0.0
 40
2.187786638666616
 41
0.0
 71
     7
 72
     1
  1
\fMS Gothic|b0|i0|c0|p34;\W1;図
 73
     1
 44
1.0
  0
POLYLINE
  5
E9
330
3C
100
AcDbEntity
  8
Dimension Layer
 62
   250
420
  2234388
370
    35
100
AcDb2dPolyline
 66
     1
 10
0.0
 20
0.0
 30
0.0
  0
VERTEX
  5
EA
330
E9
100
AcDbEntity
  8
Dimension Layer
 62
   250
420
  2234388
370
    35
100
AcDbVertex
100
AcDb2dVertex
 10
24.69237738097969
 20
14.04944389839736
 30
0.0
  0
VERTEX
  5
EB
330
E9
100
AcDbEntity
  8
Dimension Layer
 62
   250
420
  2234388
370
    35
100
AcDbVertex
100
AcDb2dVertex
 10
148.6448458829777
 20
14.04944389839736
 30
0.0
  0
SEQEND
  5
EC
330
E9
100
AcDbEntity
  8
Dimension Layer
370
    35
  0
POLYLINE
  5
ED
330
3C
100
AcDbEntity
  8
Dimension Layer
 62
   250
420
  2234388
370
    35
100
AcDb2dPolyline
 66
     1
 10
0.0
 20
0.0
 30
0.0
  0
VERTEX
  5
EE
330
ED
100
AcDbEntity
  8
Dimension Layer
 62
   250
420
  2234388
370
    35
100
AcDbVertex
100
AcDb2dVertex
 10
58.64379338811683
 20
35.04661186189807
 30
0.0
  0
VERTEX
  5
EF
330
ED
100
AcDbEntity
  8
Dimension Layer
 62
   250
420
  2234388
370
    35
100
AcDbVertex
100
AcDb2dVertex
 10
58.64379338811683
 20
10.07001410338527
 30
0.0
  0
SEQEND
  5
F0
330
ED
100
AcDbEntity
  8
Dimension Layer
370
    35
  0
MTEXT
  5
F1
330
3C
100
AcDbEntity
  8
Dimension Layer
 62
   250
420
  2234388
100
AcDbMText
 10
149.7984361062136
 20
29.85244139878689
 30
0.0
 40
2.187786638666616
 41
0.0
 71
     7
 72
     1
  1
\fMS Gothic|b0|i0|c0|p34;\W1;日
 73
     1
 44
1.0
  0
MTEXT
  5
F2
330
3C
100
AcDbEntity
  8
Dimension Layer
 62
   250
420
  2234388
100
AcDbMText
 10
154.6244981167258
 20
29.85244139878689
 30
0.0
 40
2.187786638666616
 41
0.0
 71
     7
 72
     1
  1
\fMS Gothic|b0|i0|c0|p34;\W1;付
 73
     1
 44
1.0
  0
MTEXT
  5
F3
330
3C
100
AcDbEntity
  8
Dimension Layer
 62
   250
420
  2234388
100
AcDbMText
 10
149.9656954920225
 20
14.63786620727803
 30
0.0
 40
2.187786638666616
 41
0.0
 71
     7
 72
     1
  1
\fMS Gothic|b0|i0|c0|p34;\W1;真 鍋
 73
     1
 44
1.0
  0
MTEXT
  5
F4
330
3C
100
AcDbEntity
  8
Dimension Layer
 62
   250
420
  2234388
100
AcDbMText
 10
160.9722588030729
 20
22.65529242055145
 30
0.0
 40
2.187786638666616
 41
0.0
 71
     7
 72
     1
  1
\fMS Gothic|b0|i0|c0|p34;\W1;検
 73
     1
 44
1.0
  0
MTEXT
  5
F5
330
3C
100
AcDbEntity
  8
Dimension Layer
 62
   250
420
  2234388
100
AcDbMText
 10
165.7981485588109
 20
22.65529242055145
 30
0.0
 40
2.187786638666616
 41
0.0
 71
     7
 72
     1
  1
\fMS Gothic|b0|i0|c0|p34;\W1;図
 73
     1
 44
1.0
  0
MTEXT
  5
F6
330
3C
100
AcDbEntity
  8
Dimension Layer
 62
   250
420
  2234388
100
AcDbMText
 10
171.8951062938318
 20
22.74210882677975
 30
0.0
 40
2.187786638666616
 41
0.0
 71
     7
 72
     1
  1
\fMS Gothic|b0|i0|c0|p34;\W1;承
 73
     1
 44
1.0
  0
MTEXT
  5
F7
330
3C
100
AcDbEntity
  8
Dimension Layer
 62
   250
420
  2234388
100
AcDbMText
 10
176.7209960495697
 20
22.74210882677975
 30
0.0
 40
2.187786638666616
 41
0.0
 71
     7
 72
     1
  1
\fMS Gothic|b0|i0|c0|p34;\W1;認
 73
     1
 44
1.0
  0
MTEXT
  5
F8
330
3C
100
AcDbEntity
  8
Dimension Layer
 62
   250
420
  2234388
100
AcDbMText
 10
172.0656385203517
 20
14.64096679321476
 30
0.0
 40
2.187786638666616
 41
0.0
 71
     7
 72
     1
  1
\fMS Gothic|b0|i0|c0|p34;\W1;古
 73
     1
 44
1.0
  0
MTEXT
  5
F9
330
3C
100
AcDbEntity
  8
Dimension Layer
 62
   250
420
  2234388
100
AcDbMText
 10
176.8915282760896
 20
14.64096679321476
 30
0.0
 40
2.187786638666616
 41
0.0
 71
     7
 72
     1
  1
\fMS Gothic|b0|i0|c0|p34;\W1;澤
 73
     1
 44
1.0
  0
MTEXT
  5
FA
330
3C
100
AcDbEntity
  8
Dimension Layer
 62
   250
420
  2234388
100
AcDbMText
 10
182.4801621722619
 20
15.37442762202445
 30
0.0
 40
2.187786638666616
 41
0.0
 71
     7
 72
     1
  1
\fMS Gothic|b0|i0|c0|p34;\W1;尺
 73
     1
 44
1.0
  0
MTEXT
  5
FB
330
3C
100
AcDbEntity
  8
Dimension Layer
 62
   250
420
  2234388
100
AcDbMText
 10
182.4801621722619
 20
11.1404052706524
 30
0.0
 40
2.187786638666616
 41
0.0
 71
     7
 72
     1
  1
\fMS Gothic|b0|i0|c0|p34;\W1;度
 73
     1
 44
1.0
  0
MTEXT
  5
FC
330
3C
100
AcDbEntity
  8
Dimension Layer
 62
   250
420
  2234388
100
AcDbMText
 10
182.3964463519704
 20
23.58512369202039
 30
0.0
 40
2.187786638666616
 41
0.0
 71
     7
 72
     1
  1
\fMS Gothic|b0|i0|c0|p34;\W1;図
 73
     1
 44
1.0
  0
MTEXT
  5
FD
330
3C
100
AcDbEntity
  8
Dimension Layer
 62
   250
420
  2234388
100
AcDbMText
 10
185.6138210256452
 20
23.58512369202039
 30
0.0
 40
2.187786638666616
 41
0.0
 71
     7
 72
     1
  1
\fMS Gothic|b0|i0|c0|p34;\W1;　
 73
     1
 44
1.0
  0
MTEXT
  5
FE
330
3C
100
AcDbEntity
  8
Dimension Layer
 62
   250
420
  2234388
100
AcDbMText
 10
182.5669785784902
 20
19.35110134064834
 30
0.0
 40
2.187786638666616
 41
0.0
 71
     7
 72
     1
  1
\fMS Gothic|b0|i0|c0|p34;\W1;番
 73
     1
 44
1.0
  0
POLYLINE
  5
FF
330
3C
100
AcDbEntity
  8
Dimension Layer
 62
   250
420
  2234388
370
    35
100
AcDb2dPolyline
 66
     1
 10
0.0
 20
0.0
 30
0.0
  0
VERTEX
  5
100
330
FF
100
AcDbEntity
  8
Dimension Layer
 62
   250
420
  2234388
370
    35
100
AcDbVertex
100
AcDb2dVertex
 10
148.6448458829777
 20
35.04661186189807
 30
0.0
  0
VERTEX
  5
101
330
FF
100
AcDbEntity
  8
Dimension Layer
 62
   250
420
  2234388
370
    35
100
AcDbVertex
100
AcDb2dVertex
 10
148.6448458829777
 20
10.07001410338527
 30
0.0
  0
SEQEND
  5
102
330
FF
100
AcDbEntity
  8
Dimension Layer
370
    35
  0
POLYLINE
  5
103
330
3C
100
AcDbEntity
  8
Dimension Layer
 62
   250
420
  2234388
370
    35
100
AcDb2dPolyline
 66
     1
 10
0.0
 20
0.0
 30
0.0
  0
VERTEX
  5
104
330
103
100
AcDbEntity
  8
Dimension Layer
 62
   250
420
  2234388
370
    35
100
AcDbVertex
100
AcDb2dVertex
 10
148.6448458829777
 20
20.99200032027283
 30
0.0
  0
VERTEX
  5
105
330
103
100
AcDbEntity
  8
Dimension Layer
 62
   250
420
  2234388
370
    35
100
AcDbVertex
100
AcDb2dVertex
 10
181.6647080709033
 20
20.99200032027283
 30
0.0
  0
SEQEND
  5
106
330
103
100
AcDbEntity
  8
Dimension Layer
370
    35
  0
POLYLINE
  5
107
330
3C
100
AcDbEntity
  8
Dimension Layer
 62
   250
420
  2234388
370
    35
100
AcDb2dPolyline
 66
     1
 10
0.0
 20
0.0
 30
0.0
  0
VERTEX
  5
108
330
107
100
AcDbEntity
  8
Dimension Layer
 62
   250
420
  2234388
370
    35
100
AcDbVertex
100
AcDb2dVertex
 10
159.6512369392539
 20
35.04661186189807
 30
0.0
  0
VERTEX
  5
109
330
107
100
AcDbEntity
  8
Dimension Layer
 62
   250
420
  2234388
370
    35
100
AcDbVertex
100
AcDb2dVertex
 10
159.6512369392539
 20
10.07001410338527
 30
0.0
  0
SEQEND
  5
10A
330
107
100
AcDbEntity
  8
Dimension Layer
370
    35
  0
MTEXT
  5
10B
330
3C
100
AcDbEntity
  8
Dimension Layer
 62
   250
420
  2234388
100
AcDbMText
 10
217.4471923284507
 20
17.57584363709909
 30
0.0
 40
2.187786638666616
 41
0.0
 71
     7
 72
     1
  1
\fMS Gothic|b0|i0|c0|p34;\W1;　
 73
     1
 44
1.0
  0
MTEXT
  5
10C
330
3C
100
AcDbEntity
  8
Dimension Layer
 62
   250
420
  2234388
100
AcDbMText
 10
217.3603759222224
 20
21.63933376195128
 30
0.0
 40
2.187786638666616
 41
0.0
 71
     7
 72
     1
  1
\fMS Gothic|b0|i0|c0|p34;\W1;品
 73
     1
 44
1.0
  0
MTEXT
  5
10D
330
3C
100
AcDbEntity
  8
Dimension Layer
 62
   250
420
  2234388
100
AcDbMText
 10
220.5777505958972
 20
21.63933376195128
 30
0.0
 40
2.187786638666616
 41
0.0
 71
     7
 72
     1
  1
\fMS Gothic|b0|i0|c0|p34;\W1;　
 73
     1
 44
1.0
  0
MTEXT
  5
10E
330
3C
100
AcDbEntity
  8
Dimension Layer
 62
   250
420
  2234388
100
AcDbMText
 10
217.7851561955537
 20
17.49212781680752
 30
0.0
 40
2.187786638666616
 41
0.0
 71
     7
 72
     1
  1
\fMS Gothic|b0|i0|c0|p34;\W1;　
 73
     1
 44
1.0
  0
MTEXT
  5
10F
330
3C
100
AcDbEntity
  8
Dimension Layer
 62
   250
420
  2234388
100
AcDbMText
 10
221.00218635968
 20
17.49212781680752
 30
0.0
 40
2.187786638666616
 41
0.0
 71
     7
 72
     1
  1
\fMS Gothic|b0|i0|c0|p34;\W1;　
 73
     1
 44
1.0
  0
MTEXT
  5
110
330
3C
100
AcDbEntity
  8
Dimension Layer
 62
   250
420
  2234388
100
AcDbMText
 10
217.5309081487423
 20
13.25810546543547
 30
0.0
 40
2.187786638666616
 41
0.0
 71
     7
 72
     1
  1
\fMS Gothic|b0|i0|c0|p34;\W1;名
 73
     1
 44
1.0
  0
MTEXT
  5
111
330
3C
100
AcDbEntity
  8
Dimension Layer
 62
   250
420
  2234388
100
AcDbMText
 10
217.5309081487423
 20
31.88332518734167
 30
0.0
 40
2.187786638666616
 41
0.0
 71
     7
 72
     1
  1
\fMS Gothic|b0|i0|c0|p34;\W1;品
 73
     1
 44
1.0
  0
MTEXT
  5
112
330
3C
100
AcDbEntity
  8
Dimension Layer
 62
   250
420
  2234388
100
AcDbMText
 10
217.7014403752621
 20
27.64930283596962
 30
0.0
 40
2.187786638666616
 41
0.0
 71
     7
 72
     1
  1
\fMS Gothic|b0|i0|c0|p34;\W1;番
 73
     1
 44
1.0
  0
POLYLINE
  5
113
330
3C
100
AcDbEntity
  8
Dimension Layer
 62
   250
420
  2234388
370
    35
100
AcDb2dPolyline
 66
     1
 10
0.0
 20
0.0
 30
0.0
  0
VERTEX
  5
114
330
113
100
AcDbEntity
  8
Dimension Layer
 62
   250
420
  2234388
370
    35
100
AcDbVertex
100
AcDb2dVertex
 10
170.6583170146271
 20
27.00334743248527
 30
0.0
  0
VERTEX
  5
115
330
113
100
AcDbEntity
  8
Dimension Layer
 62
   250
420
  2234388
370
    35
100
AcDbVertex
100
AcDb2dVertex
 10
170.6583170146271
 20
10.07001410338527
 30
0.0
  0
SEQEND
  5
116
330
113
100
AcDbEntity
  8
Dimension Layer
370
    35
  0
POLYLINE
  5
117
330
3C
100
AcDbEntity
  8
Dimension Layer
 62
   250
420
  2234388
370
    35
100
AcDb2dPolyline
 66
     1
 10
0.0
 20
0.0
 30
0.0
  0
VERTEX
  5
118
330
117
100
AcDbEntity
  8
Dimension Layer
 62
   250
420
  2234388
370
    35
100
AcDbVertex
100
AcDb2dVertex
 10
181.6647080709033
 20
27.00334743248527
 30
0.0
  0
VERTEX
  5
119
330
117
100
AcDbEntity
  8
Dimension Layer
 62
   250
420
  2234388
370
    35
100
AcDbVertex
100
AcDb2dVertex
 10
181.6647080709033
 20
10.07001410338527
 30
0.0
  0
SEQEND
  5
11A
330
117
100
AcDbEntity
  8
Dimension Layer
370
    35
  0
POLYLINE
  5
11B
330
3C
100
AcDbEntity
  8
Dimension Layer
 62
   250
420
  2234388
370
    35
100
AcDb2dPolyline
 66
     1
 10
0.0
 20
0.0
 30
0.0
  0
VERTEX
  5
11C
330
11B
100
AcDbEntity
  8
Dimension Layer
 62
   250
420
  2234388
370
    35
100
AcDbVertex
100
AcDb2dVertex
 10
186.6600965245156
 20
27.00334743248527
 30
0.0
  0
VERTEX
  5
11D
330
11B
100
AcDbEntity
  8
Dimension Layer
 62
   250
420
  2234388
370
    35
100
AcDbVertex
100
AcDb2dVertex
 10
186.6600965245156
 20
10.07001410338527
 30
0.0
  0
SEQEND
  5
11E
330
11B
100
AcDbEntity
  8
Dimension Layer
370
    35
  0
POLYLINE
  5
11F
330
3C
100
AcDbEntity
  8
Dimension Layer
 62
   250
420
  2234388
370
    35
100
AcDb2dPolyline
 66
     1
 10
0.0
 20
0.0
 30
0.0
  0
VERTEX
  5
120
330
11F
100
AcDbEntity
  8
Dimension Layer
 62
   250
420
  2234388
370
    35
100
AcDbVertex
100
AcDb2dVertex
 10
148.6448458829777
 20
35.04661186189807
 30
0.0
  0
VERTEX
  5
121
330
11F
100
AcDbEntity
  8
Dimension Layer
 62
   250
420
  2234388
370
    35
100
AcDbVertex
100
AcDb2dVertex
 10
148.6448458829777
 20
10.07001410338527
 30
0.0
  0
SEQEND
  5
122
330
11F
100
AcDbEntity
  8
Dimension Layer
370
    35
  0
POLYLINE
  5
123
330
3C
100
AcDbEntity
  8
Dimension Layer
 62
   250
420
  2234388
370
    35
100
AcDb2dPolyline
 66
     1
 10
0.0
 20
0.0
 30
0.0
  0
VERTEX
  5
124
330
123
100
AcDbEntity
  8
Dimension Layer
 62
   250
420
  2234388
370
    35
100
AcDbVertex
100
AcDb2dVertex
 10
148.6448458829777
 20
20.99200032027283
 30
0.0
  0
VERTEX
  5
125
330
123
100
AcDbEntity
  8
Dimension Layer
 62
   250
420
  2234388
370
    35
100
AcDbVertex
100
AcDb2dVertex
 10
181.6647080709033
 20
20.99200032027283
 30
0.0
  0
SEQEND
  5
126
330
123
100
AcDbEntity
  8
Dimension Layer
370
    35
  0
POLYLINE
  5
127
330
3C
100
AcDbEntity
  8
Dimension Layer
 62
   250
420
  2234388
370
    35
100
AcDb2dPolyline
 66
     1
 10
0.0
 20
0.0
 30
0.0
  0
VERTEX
  5
128
330
127
100
AcDbEntity
  8
Dimension Layer
 62
   250
420
  2234388
370
    35
100
AcDbVertex
100
AcDb2dVertex
 10
159.6512369392539
 20
35.04661186189807
 30
0.0
  0
VERTEX
  5
129
330
127
100
AcDbEntity
  8
Dimension Layer
 62
   250
420
  2234388
370
    35
100
AcDbVertex
100
AcDb2dVertex
 10
159.6512369392539
 20
10.07001410338527
 30
0.0
  0
SEQEND
  5
12A
330
127
100
AcDbEntity
  8
Dimension Layer
370
    35
  0
POLYLINE
  5
12B
330
3C
100
AcDbEntity
  8
Dimension Layer
 62
   250
420
  2234388
370
    35
100
AcDb2dPolyline
 66
     1
 10
0.0
 20
0.0
 30
0.0
  0
VERTEX
  5
12C
330
12B
100
AcDbEntity
  8
Dimension Layer
 62
   250
420
  2234388
370
    35
100
AcDbVertex
100
AcDb2dVertex
 10
170.6583170146271
 20
27.00334743248527
 30
0.0
  0
VERTEX
  5
12D
330
12B
100
AcDbEntity
  8
Dimension Layer
 62
   250
420
  2234388
370
    35
100
AcDbVertex
100
AcDb2dVertex
 10
170.6583170146271
 20
10.07001410338527
 30
0.0
  0
SEQEND
  5
12E
330
12B
100
AcDbEntity
  8
Dimension Layer
370
    35
  0
POLYLINE
  5
12F
330
3C
100
AcDbEntity
  8
Dimension Layer
 62
   250
420
  2234388
370
    35
100
AcDb2dPolyline
 66
     1
 10
0.0
 20
0.0
 30
0.0
  0
VERTEX
  5
130
330
12F
100
AcDbEntity
  8
Dimension Layer
 62
   250
420
  2234388
370
    35
100
AcDbVertex
100
AcDb2dVertex
 10
181.6647080709033
 20
27.00334743248527
 30
0.0
  0
VERTEX
  5
131
330
12F
100
AcDbEntity
  8
Dimension Layer
 62
   250
420
  2234388
370
    35
100
AcDbVertex
100
AcDb2dVertex
 10
181.6647080709033
 20
10.07001410338527
 30
0.0
  0
SEQEND
  5
132
330
12F
100
AcDbEntity
  8
Dimension Layer
370
    35
  0
POLYLINE
  5
133
330
3C
100
AcDbEntity
  8
Dimension Layer
 62
   250
420
  2234388
370
    35
100
AcDb2dPolyline
 66
     1
 10
0.0
 20
0.0
 30
0.0
  0
VERTEX
  5
134
330
133
100
AcDbEntity
  8
Dimension Layer
 62
   250
420
  2234388
370
    35
100
AcDbVertex
100
AcDb2dVertex
 10
186.6600965245156
 20
27.00334743248527
 30
0.0
  0
VERTEX
  5
135
330
133
100
AcDbEntity
  8
Dimension Layer
 62
   250
420
  2234388
370
    35
100
AcDbVertex
100
AcDb2dVertex
 10
186.6600965245156
 20
10.07001410338527
 30
0.0
  0
SEQEND
  5
136
330
133
100
AcDbEntity
  8
Dimension Layer
370
    35
  0
POLYLINE
  5
137
330
3C
100
AcDbEntity
  8
Dimension Layer
 62
   250
420
  2234388
370
    35
100
AcDb2dPolyline
 66
     1
 10
0.0
 20
0.0
 30
0.0
  0
VERTEX
  5
138
330
137
100
AcDbEntity
  8
Dimension Layer
 62
   250
420
  2234388
370
    35
100
AcDbVertex
100
AcDb2dVertex
 10
181.6647080709033
 20
18.53668076793528
 30
0.0
  0
VERTEX
  5
139
330
137
100
AcDbEntity
  8
Dimension Layer
 62
   250
420
  2234388
370
    35
100
AcDbVertex
100
AcDb2dVertex
 10
216.6320827366406
 20
18.53668076793528
 30
0.0
  0
SEQEND
  5
13A
330
137
100
AcDbEntity
  8
Dimension Layer
370
    35
  0
POLYLINE
  5
13B
330
3C
100
AcDbEntity
  8
Dimension Layer
 62
   250
420
  2234388
370
    35
100
AcDb2dPolyline
 66
     1
 10
0.0
 20
0.0
 30
0.0
  0
VERTEX
  5
13C
330
13B
100
AcDbEntity
  8
Dimension Layer
 62
   250
420
  2234388
370
    35
100
AcDbVertex
100
AcDb2dVertex
 10
148.6448458829777
 20
27.00334743248527
 30
0.0
  0
VERTEX
  5
13D
330
13B
100
AcDbEntity
  8
Dimension Layer
 62
   250
420
  2234388
370
    35
100
AcDbVertex
100
AcDb2dVertex
 10
281.6558484538916
 20
27.00334743248527
 30
0.0
  0
SEQEND
  5
13E
330
13B
100
AcDbEntity
  8
Dimension Layer
370
    35
  0
POLYLINE
  5
13F
330
3C
100
AcDbEntity
  8
Dimension Layer
 62
   250
420
  2234388
370
    35
100
AcDb2dPolyline
 66
     1
 10
0.0
 20
0.0
 30
0.0
  0
VERTEX
  5
140
330
13F
100
AcDbEntity
  8
Dimension Layer
 62
   250
420
  2234388
370
    35
100
AcDbVertex
100
AcDb2dVertex
 10
216.6320827366406
 20
35.04661186189807
 30
0.0
  0
VERTEX
  5
141
330
13F
100
AcDbEntity
  8
Dimension Layer
 62
   250
420
  2234388
370
    35
100
AcDbVertex
100
AcDb2dVertex
 10
216.6320827366406
 20
10.07001410338527
 30
0.0
  0
SEQEND
  5
142
330
13F
100
AcDbEntity
  8
Dimension Layer
370
    35
  0
POLYLINE
  5
143
330
3C
100
AcDbEntity
  8
Dimension Layer
 62
   250
420
  2234388
370
    35
100
AcDb2dPolyline
 66
     1
 10
0.0
 20
0.0
 30
0.0
  0
VERTEX
  5
144
330
143
100
AcDbEntity
  8
Dimension Layer
 62
   250
420
  2234388
370
    35
100
AcDbVertex
100
AcDb2dVertex
 10
221.6274711902529
 20
35.04661186189807
 30
0.0
  0
VERTEX
  5
145
330
143
100
AcDbEntity
  8
Dimension Layer
 62
   250
420
  2234388
370
    35
100
AcDbVertex
100
AcDb2dVertex
 10
221.6274711902529
 20
10.07001410338527
 30
0.0
  0
SEQEND
  5
146
330
143
100
AcDbEntity
  8
Dimension Layer
370
    35
  0
MTEXT
  5
147
330
3C
100
AcDbEntity
  8
Dimension Layer
 62
   250
420
  2234388
100
AcDbMText
 10
217.4471923284507
 20
17.57584363709909
 30
0.0
 40
2.187786638666616
 41
0.0
 71
     7
 72
     1
  1
\fMS Gothic|b0|i0|c0|p34;\W1;　
 73
     1
 44
1.0
  0
POLYLINE
  5
148
330
3C
100
AcDbEntity
  8
Dimension Layer
 62
   250
420
  2234388
370
    35
100
AcDb2dPolyline
 66
     1
 10
0.0
 20
0.0
 30
0.0
  0
VERTEX
  5
149
330
148
100
AcDbEntity
  8
Dimension Layer
 62
   250
420
  2234388
370
    35
100
AcDbVertex
100
AcDb2dVertex
 10
216.6320827366406
 20
35.04661186189807
 30
0.0
  0
VERTEX
  5
14A
330
148
100
AcDbEntity
  8
Dimension Layer
 62
   250
420
  2234388
370
    35
100
AcDbVertex
100
AcDb2dVertex
 10
216.6320827366406
 20
10.07001410338527
 30
0.0
  0
SEQEND
  5
14B
330
148
100
AcDbEntity
  8
Dimension Layer
370
    35
  0
POLYLINE
  5
14C
330
3C
100
AcDbEntity
  8
Dimension Layer
 62
   250
420
  2234388
370
    35
100
AcDb2dPolyline
 66
     1
 10
0.0
 20
0.0
 30
0.0
  0
VERTEX
  5
14D
330
14C
100
AcDbEntity
  8
Dimension Layer
 62
   250
420
  2234388
370
    35
100
AcDbVertex
100
AcDb2dVertex
 10
221.6274711902529
 20
35.04661186189807
 30
0.0
  0
VERTEX
  5
14E
330
14C
100
AcDbEntity
  8
Dimension Layer
 62
   250
420
  2234388
370
    35
100
AcDbVertex
100
AcDb2dVertex
 10
221.6274711902529
 20
10.07001410338527
 30
0.0
  0
SEQEND
  5
14F
330
14C
100
AcDbEntity
  8
Dimension Layer
370
    35
  0
MTEXT
  5
150
330
3C
100
AcDbEntity
  8
Dimension Layer
 62
   250
420
  2234388
100
AcDbMText
 10
60.82316079208588
 20
23.3605034663821
 30
0.0
 40
2.187786638666616
 41
0.0
 71
     7
 72
     1
  1
\fMS Gothic|b0|i0|c0|p34;\W1;材
 73
     1
 44
1.0
  0
MTEXT
  5
151
330
3C
100
AcDbEntity
  8
Dimension Layer
 62
   250
420
  2234388
100
AcDbMText
 10
64.0405354657607
 20
23.3605034663821
 30
0.0
 40
2.187786638666616
 41
0.0
 71
     7
 72
     1
  1
\fMS Gothic|b0|i0|c0|p34;\W1;質
 73
     1
 44
1.0
  0
MTEXT
  5
152
330
3C
100
AcDbEntity
  8
Dimension Layer
 62
   250
420
  2234388
100
AcDbMText
 10
67.78552651300154
 20
23.3605034663821
 30
0.0
 40
2.187786638666616
 41
0.0
 71
     7
 72
     1
  1
\fMS Gothic|b0|i0|c0|p34;\W1;／
 73
     1
 44
1.0
  0
MTEXT
  5
153
330
3C
100
AcDbEntity
  8
Dimension Layer
 62
   250
420
  2234388
100
AcDbMText
 10
71.35671249301151
 20
23.3605034663821
 30
0.0
 40
2.187786638666616
 41
0.0
 71
     7
 72
     1
  1
\fMS Gothic|b0|i0|c0|p34;\W1;ｶﾞﾗｽ
 73
     1
 44
1.0
  0
POLYLINE
  5
154
330
3C
100
AcDbEntity
  8
Dimension Layer
 62
   250
420
  2234388
370
    35
100
AcDb2dPolyline
 66
     1
 10
0.0
 20
0.0
 30
0.0
  0
VERTEX
  5
155
330
154
100
AcDbEntity
  8
Dimension Layer
 62
   250
420
  2234388
370
    35
100
AcDbVertex
100
AcDb2dVertex
 10
281.6558484538916
 20
35.04661186189807
 30
0.0
  0
VERTEX
  5
156
330
154
100
AcDbEntity
  8
Dimension Layer
 62
   250
420
  2234388
370
    35
100
AcDbVertex
100
AcDb2dVertex
 10
281.6558484538916
 20
10.07001410338527
 30
0.0
  0
SEQEND
  5
157
330
154
100
AcDbEntity
  8
Dimension Layer
370
    35
  0
MTEXT
  5
158
330
3C
100
AcDbEntity
  8
Dimension Layer
 62
   250
420
  2234388
100
AcDbMText
 10
38.6832546561278
 20
16.12683647600301
 30
0.0
 40
2.187786638666616
 41
0.0
 71
     7
 72
     1
  1
\fMS Gothic|b0|i0|c0|p34;\W1;20
 73
     1
 44
1.0
  0
MTEXT
  5
159
330
3C
100
AcDbEntity
  8
Dimension Layer
 62
   250
420
  2234388
100
AcDbMText
 10
41.90062932980262
 20
16.12683647600301
 30
0.0
 40
2.187786638666616
 41
0.0
 71
     7
 72
     1
  1
\fMS Gothic|b0|i0|c0|p34;\W1;13.02.01
 73
     1
 44
1.0
  0
MTEXT
  5
15A
330
3C
100
AcDbEntity
  8
Dimension Layer
 62
   250
420
  2234388
100
AcDbMText
 10
38.6832546561278
 20
23.18239202979468
 30
0.0
 40
2.187786638666616
 41
0.0
 71
     7
 72
     1
  1
\fMS Gothic|b0|i0|c0|p34;\W1;20
 73
     1
 44
1.0
  0
MTEXT
  5
15B
330
3C
100
AcDbEntity
  8
Dimension Layer
 62
   250
420
  2234388
100
AcDbMText
 10
41.90062932980262
 20
23.18239202979468
 30
0.0
 40
2.187786638666616
 41
0.0
 71
     7
 72
     1
  1
\fMS Gothic|b0|i0|c0|p34;\W1;13.02.01
 73
     1
 44
1.0
  0
MTEXT
  5
15C
330
3C
100
AcDbEntity
  8
Dimension Layer
 62
   250
420
  2234388
100
AcDbMText
 10
38.6832546561278
 20
30.23794758358635
 30
0.0
 40
2.187786638666616
 41
0.0
 71
     7
 72
     1
  1
\fMS Gothic|b0|i0|c0|p34;\W1;20
 73
     1
 44
1.0
  0
MTEXT
  5
15D
330
3C
100
AcDbEntity
  8
Dimension Layer
 62
   250
420
  2234388
100
AcDbMText
 10
41.90062932980262
 20
30.23794758358635
 30
0.0
 40
2.187786638666616
 41
0.0
 71
     7
 72
     1
  1
\fMS Gothic|b0|i0|c0|p34;\W1;13.02.01
 73
     1
 44
1.0
  0
INSERT
  5
15F
330
3C
100
AcDbEntity
  8
Dimension Layer
100
AcDbBlockReference
  2
block 8
 10
0.0
 20
0.0
 30
0.0
  0
MTEXT
  5
17B
330
3C
100
AcDbEntity
  8
Dimension Layer
 62
   250
420
  2234388
100
AcDbMText
 10
345.5785616540568
 20
22.25152722968017
 30
0.0
 40
2.604209742848704
 41
0.0
 71
     7
 72
     1
  1
\fMS Gothic|b0|i0|c0|p34;\W1;和
 73
     1
 44
1.0
  0
MTEXT
  5
17C
330
3C
100
AcDbEntity
  8
Dimension Layer
 62
   250
420
  2234388
100
AcDbMText
 10
349.4081297954605
 20
22.25152722968017
 30
0.0
 40
2.604209742848704
 41
0.0
 71
     7
 72
     1
  1
\fMS Gothic|b0|i0|c0|p34;\W1;歌
 73
     1
 44
1.0
  0
MTEXT
  5
17D
330
3C
100
AcDbEntity
  8
Dimension Layer
 62
   250
420
  2234388
100
AcDbMText
 10
353.2380424464127
 20
22.25152722968017
 30
0.0
 40
2.604209742848704
 41
0.0
 71
     7
 72
     1
  1
\fMS Gothic|b0|i0|c0|p34;\W1;山
 73
     1
 44
1.0
  0
MTEXT
  5
17E
330
3C
100
AcDbEntity
  8
Dimension Layer
 62
   250
420
  2234388
100
AcDbMText
 10
357.0676105878164
 20
22.25152722968017
 30
0.0
 40
2.604209742848704
 41
0.0
 71
     7
 72
     1
  1
\fMS Gothic|b0|i0|c0|p34;\W1;県
 73
     1
 44
1.0
  0
MTEXT
  5
17F
330
3C
100
AcDbEntity
  8
Dimension Layer
 62
   250
420
  2234388
100
AcDbMText
 10
360.8975232387687
 20
22.25152722968017
 30
0.0
 40
2.604209742848704
 41
0.0
 71
     7
 72
     1
  1
\fMS Gothic|b0|i0|c0|p34;\W1;海
 73
     1
 44
1.0
  0
MTEXT
  5
180
330
3C
100
AcDbEntity
  8
Dimension Layer
 62
   250
420
  2234388
100
AcDbMText
 10
364.7270913801724
 20
22.25152722968017
 30
0.0
 40
2.604209742848704
 41
0.0
 71
     7
 72
     1
  1
\fMS Gothic|b0|i0|c0|p34;\W1;南
 73
     1
 44
1.0
  0
MTEXT
  5
181
330
3C
100
AcDbEntity
  8
Dimension Layer
 62
   250
420
  2234388
100
AcDbMText
 10
368.5570040311247
 20
22.25152722968017
 30
0.0
 40
2.604209742848704
 41
0.0
 71
     7
 72
     1
  1
\fMS Gothic|b0|i0|c0|p34;\W1;市
 73
     1
 44
1.0
  0
MTEXT
  5
182
330
3C
100
AcDbEntity
  8
Dimension Layer
 62
   250
420
  2234388
100
AcDbMText
 10
372.3865721725284
 20
22.25152722968017
 30
0.0
 40
2.604209742848704
 41
0.0
 71
     7
 72
     1
  1
\fMS Gothic|b0|i0|c0|p34;\W1;南
 73
     1
 44
1.0
  0
MTEXT
  5
183
330
3C
100
AcDbEntity
  8
Dimension Layer
 62
   250
420
  2234388
100
AcDbMText
 10
376.2164848234806
 20
22.25152722968017
 30
0.0
 40
2.604209742848704
 41
0.0
 71
     7
 72
     1
  1
\fMS Gothic|b0|i0|c0|p34;\W1;赤
 73
     1
 44
1.0
  0
MTEXT
  5
184
330
3C
100
AcDbEntity
  8
Dimension Layer
 62
   250
420
  2234388
100
AcDbMText
 10
380.0460529648843
 20
22.25152722968017
 30
0.0
 40
2.604209742848704
 41
0.0
 71
     7
 72
     1
  1
\fMS Gothic|b0|i0|c0|p34;\W1;坂
 73
     1
 44
1.0
  0
MTEXT
  5
185
330
3C
100
AcDbEntity
  8
Dimension Layer
 62
   250
420
  2234388
100
AcDbMText
 10
383.8759656158366
 20
22.25152722968017
 30
0.0
 40
2.604209742848704
 41
0.0
 71
     7
 72
     1
  1
\fMS Gothic|b0|i0|c0|p34;\W1;２
 73
     1
 44
1.0
  0
MTEXT
  5
186
330
3C
100
AcDbEntity
  8
Dimension Layer
 62
   250
420
  2234388
100
AcDbMText
 10
386.3460990787607
 20
22.25152722968017
 30
0.0
 40
2.604209742848704
 41
0.0
 71
     7
 72
     1
  1
\fMS Gothic|b0|i0|c0|p34;\W1;０
 73
     1
 44
1.0
  0
MTEXT
  5
187
330
3C
100
AcDbEntity
  8
Dimension Layer
 62
   250
420
  2234388
100
AcDbMText
 10
388.8120984271026
 20
22.25152722968017
 30
0.0
 40
2.604209742848704
 41
0.0
 71
     7
 72
     1
  1
\fMS Gothic|b0|i0|c0|p34;\W1;-
 73
     1
 44
1.0
  0
MTEXT
  5
188
330
3C
100
AcDbEntity
  8
Dimension Layer
 62
   250
420
  2234388
100
AcDbMText
 10
390.0836831707082
 20
22.25152722968017
 30
0.0
 40
2.604209742848704
 41
0.0
 71
     7
 72
     1
  1
\fMS Gothic|b0|i0|c0|p34;\W1;１
 73
     1
 44
1.0
  0
MTEXT
  5
189
330
3C
100
AcDbEntity
  8
Dimension Layer
 62
   250
420
  2234388
100
AcDbMText
 10
345.5785616540568
 20
17.71709255199434
 30
0.0
 40
2.604209742848704
 41
0.0
 71
     7
 72
     1
  1
\fMS Gothic|b0|i0|c0|p34;\W1;Ｔ
 73
     1
 44
1.0
  0
MTEXT
  5
18A
330
3C
100
AcDbEntity
  8
Dimension Layer
 62
   250
420
  2234388
100
AcDbMText
 10
348.3167235457333
 20
17.71709255199434
 30
0.0
 40
2.604209742848704
 41
0.0
 71
     7
 72
     1
  1
\fMS Gothic|b0|i0|c0|p34;\W1;Ｅ
 73
     1
 44
1.0
  0
MTEXT
  5
18B
330
3C
100
AcDbEntity
  8
Dimension Layer
 62
   250
420
  2234388
100
AcDbMText
 10
351.0855467872286
 20
17.71709255199434
 30
0.0
 40
2.604209742848704
 41
0.0
 71
     7
 72
     1
  1
\fMS Gothic|b0|i0|c0|p34;\W1;Ｌ
 73
     1
 44
1.0
  0
MTEXT
  5
18C
330
3C
100
AcDbEntity
  8
Dimension Layer
 62
   250
420
  2234388
100
AcDbMText
 10
353.6859048594952
 20
17.71709255199434
 30
0.0
 40
2.604209742848704
 41
0.0
 71
     7
 72
     1
  1
\fMS Gothic|b0|i0|c0|p34;\W1;.
 73
     1
 44
1.0
  0
MTEXT
  5
18D
330
3C
100
AcDbEntity
  8
Dimension Layer
 62
   250
420
  2234388
100
AcDbMText
 10
354.5402885398371
 20
17.71709255199434
 30
0.0
 40
2.604209742848704
 41
0.0
 71
     7
 72
     1
  1
\fMS Gothic|b0|i0|c0|p34;\W1; 
 73
     1
 44
1.0
  0
MTEXT
  5
18E
330
3C
100
AcDbEntity
  8
Dimension Layer
 62
   250
420
  2234388
100
AcDbMText
 10
355.8115287738943
 20
17.71709255199434
 30
0.0
 40
2.604209742848704
 41
0.0
 71
     7
 72
     1
  1
\fMS Gothic|b0|i0|c0|p34;\W1; 
 73
     1
 44
1.0
  0
MTEXT
  5
18F
330
3C
100
AcDbEntity
  8
Dimension Layer
 62
   250
420
  2234388
100
AcDbMText
 10
345.5785616540568
 20
13.1826578743085
 30
0.0
 40
2.604209742848704
 41
0.0
 71
     7
 72
     1
  1
\fMS Gothic|b0|i0|c0|p34;\W1;Ｆ
 73
     1
 44
1.0
  0
MTEXT
  5
190
330
3C
100
AcDbEntity
  8
Dimension Layer
 62
   250
420
  2234388
100
AcDbMText
 10
348.1368895614033
 20
13.1826578743085
 30
0.0
 40
2.604209742848704
 41
0.0
 71
     7
 72
     1
  1
\fMS Gothic|b0|i0|c0|p34;\W1;Ａ
 73
     1
 44
1.0
  0
MTEXT
  5
191
330
3C
100
AcDbEntity
  8
Dimension Layer
 62
   250
420
  2234388
100
AcDbMText
 10
351.4417696604035
 20
13.1826578743085
 30
0.0
 40
2.604209742848704
 41
0.0
 71
     7
 72
     1
  1
\fMS Gothic|b0|i0|c0|p34;\W1;Ｘ
 73
     1
 44
1.0
  0
MTEXT
  5
192
330
3C
100
AcDbEntity
  8
Dimension Layer
 62
   250
420
  2234388
100
AcDbMText
 10
354.5974771248923
 20
13.1826578743085
 30
0.0
 40
2.604209742848704
 41
0.0
 71
     7
 72
     1
  1
\fMS Gothic|b0|i0|c0|p34;\W1;.
 73
     1
 44
1.0
  0
MTEXT
  5
193
330
3C
100
AcDbEntity
  8
Dimension Layer
 62
   250
420
  2234388
100
AcDbMText
 10
355.4515162956857
 20
13.1826578743085
 30
0.0
 40
2.604209742848704
 41
0.0
 71
     7
 72
     1
  1
\fMS Gothic|b0|i0|c0|p34;\W1; 
 73
     1
 44
1.0
  0
MTEXT
  5
194
330
3C
100
AcDbEntity
  8
Dimension Layer
 62
   250
420
  2234388
100
AcDbMText
 10
359.1512043372956
 20
17.24235839412691
 30
0.0
 40
2.604209742848704
 41
0.0
 71
     7
 72
     1
  1
\fMS Gothic|b0|i0|c0|p34;\W1;０
 73
     1
 44
1.0
  0
MTEXT
  5
195
330
3C
100
AcDbEntity
  8
Dimension Layer
 62
   250
420
  2234388
100
AcDbMText
 10
361.7246906647772
 20
17.24235839412691
 30
0.0
 40
2.604209742848704
 41
0.0
 71
     7
 72
     1
  1
\fMS Gothic|b0|i0|c0|p34;\W1;７
 73
     1
 44
1.0
  0
MTEXT
  5
196
330
3C
100
AcDbEntity
  8
Dimension Layer
 62
   250
420
  2234388
100
AcDbMText
 10
364.2981769922588
 20
17.24235839412691
 30
0.0
 40
2.604209742848704
 41
0.0
 71
     7
 72
     1
  1
\fMS Gothic|b0|i0|c0|p34;\W1;３
 73
     1
 44
1.0
  0
MTEXT
  5
197
330
3C
100
AcDbEntity
  8
Dimension Layer
 62
   250
420
  2234388
100
AcDbMText
 10
366.8871662494241
 20
17.24235839412691
 30
0.0
 40
2.604209742848704
 41
0.0
 71
     7
 72
     1
  1
\fMS Gothic|b0|i0|c0|p34;\W1;-
 73
     1
 44
1.0
  0
MTEXT
  5
198
330
3C
100
AcDbEntity
  8
Dimension Layer
 62
   250
420
  2234388
100
AcDbMText
 10
368.2696830676548
 20
17.24235839412691
 30
0.0
 40
2.604209742848704
 41
0.0
 71
     7
 72
     1
  1
\fMS Gothic|b0|i0|c0|p34;\W1;４
 73
     1
 44
1.0
  0
MTEXT
  5
199
330
3C
100
AcDbEntity
  8
Dimension Layer
 62
   250
420
  2234388
100
AcDbMText
 10
370.8469590001702
 20
17.24235839412691
 30
0.0
 40
2.604209742848704
 41
0.0
 71
     7
 72
     1
  1
\fMS Gothic|b0|i0|c0|p34;\W1;８
 73
     1
 44
1.0
  0
MTEXT
  5
19A
330
3C
100
AcDbEntity
  8
Dimension Layer
 62
   250
420
  2234388
100
AcDbMText
 10
373.4245794422342
 20
17.24235839412691
 30
0.0
 40
2.604209742848704
 41
0.0
 71
     7
 72
     1
  1
\fMS Gothic|b0|i0|c0|p34;\W1;２
 73
     1
 44
1.0
  0
MTEXT
  5
19B
330
3C
100
AcDbEntity
  8
Dimension Layer
 62
   250
420
  2234388
100
AcDbMText
 10
376.0132241898509
 20
17.24235839412691
 30
0.0
 40
2.604209742848704
 41
0.0
 71
     7
 72
     1
  1
\fMS Gothic|b0|i0|c0|p34;\W1;-
 73
     1
 44
1.0
  0
MTEXT
  5
19C
330
3C
100
AcDbEntity
  8
Dimension Layer
 62
   250
420
  2234388
100
AcDbMText
 10
377.3957410080816
 20
17.24235839412691
 30
0.0
 40
2.604209742848704
 41
0.0
 71
     7
 72
     1
  1
\fMS Gothic|b0|i0|c0|p34;\W1;４
 73
     1
 44
1.0
  0
MTEXT
  5
19D
330
3C
100
AcDbEntity
  8
Dimension Layer
 62
   250
420
  2234388
100
AcDbMText
 10
379.965782240078
 20
17.24235839412691
 30
0.0
 40
2.604209742848704
 41
0.0
 71
     7
 72
     1
  1
\fMS Gothic|b0|i0|c0|p34;\W1;１
 73
     1
 44
1.0
  0
MTEXT
  5
19E
330
3C
100
AcDbEntity
  8
Dimension Layer
 62
   250
420
  2234388
100
AcDbMText
 10
382.5430581725934
 20
17.24235839412691
 30
0.0
 40
2.604209742848704
 41
0.0
 71
     7
 72
     1
  1
\fMS Gothic|b0|i0|c0|p34;\W1;２
 73
     1
 44
1.0
  0
MTEXT
  5
19F
330
3C
100
AcDbEntity
  8
Dimension Layer
 62
   250
420
  2234388
100
AcDbMText
 10
385.1203341051088
 20
17.24235839412691
 30
0.0
 40
2.604209742848704
 41
0.0
 71
     7
 72
     1
  1
\fMS Gothic|b0|i0|c0|p34;\W1;８
 73
     1
 44
1.0
  0
MTEXT
  5
1A0
330
3C
100
AcDbEntity
  8
Dimension Layer
 62
   250
420
  2234388
100
AcDbMText
 10
388.2529594298465
 20
17.24235839412691
 30
0.0
 40
2.604209742848704
 41
0.0
 71
     7
 72
     1
  1
\fMS Gothic|b0|i0|c0|p34;\W1;（
 73
     1
 44
1.0
  0
MTEXT
  5
1A1
330
3C
100
AcDbEntity
  8
Dimension Layer
 62
   250
420
  2234388
100
AcDbMText
 10
391.630875553134
 20
17.24235839412691
 30
0.0
 40
2.604209742848704
 41
0.0
 71
     7
 72
     1
  1
\fMS Gothic|b0|i0|c0|p34;\W1;代
 73
     1
 44
1.0
  0
MTEXT
  5
1A2
330
3C
100
AcDbEntity
  8
Dimension Layer
 62
   250
420
  2234388
100
AcDbMText
 10
395.5679306736775
 20
17.24235839412691
 30
0.0
 40
2.604209742848704
 41
0.0
 71
     7
 72
     1
  1
\fMS Gothic|b0|i0|c0|p34;\W1;）
 73
     1
 44
1.0
  0
MTEXT
  5
1A3
330
3C
100
AcDbEntity
  8
Dimension Layer
 62
   250
420
  2234388
100
AcDbMText
 10
359.1512043372956
 20
12.70792371644107
 30
0.0
 40
2.604209742848704
 41
0.0
 71
     7
 72
     1
  1
\fMS Gothic|b0|i0|c0|p34;\W1;０
 73
     1
 44
1.0
  0
MTEXT
  5
1A4
330
3C
100
AcDbEntity
  8
Dimension Layer
 62
   250
420
  2234388
100
AcDbMText
 10
361.7246906647772
 20
12.70792371644107
 30
0.0
 40
2.604209742848704
 41
0.0
 71
     7
 72
     1
  1
\fMS Gothic|b0|i0|c0|p34;\W1;７
 73
     1
 44
1.0
  0
MTEXT
  5
1A5
330
3C
100
AcDbEntity
  8
Dimension Layer
 62
   250
420
  2234388
100
AcDbMText
 10
364.2981769922588
 20
12.70792371644107
 30
0.0
 40
2.604209742848704
 41
0.0
 71
     7
 72
     1
  1
\fMS Gothic|b0|i0|c0|p34;\W1;３
 73
     1
 44
1.0
  0
MTEXT
  5
1A6
330
3C
100
AcDbEntity
  8
Dimension Layer
 62
   250
420
  2234388
100
AcDbMText
 10
366.8871662494241
 20
12.70792371644107
 30
0.0
 40
2.604209742848704
 41
0.0
 71
     7
 72
     1
  1
\fMS Gothic|b0|i0|c0|p34;\W1;-
 73
     1
 44
1.0
  0
MTEXT
  5
1A7
330
3C
100
AcDbEntity
  8
Dimension Layer
 62
   250
420
  2234388
100
AcDbMText
 10
368.2696830676548
 20
12.70792371644107
 30
0.0
 40
2.604209742848704
 41
0.0
 71
     7
 72
     1
  1
\fMS Gothic|b0|i0|c0|p34;\W1;４
 73
     1
 44
1.0
  0
MTEXT
  5
1A8
330
3C
100
AcDbEntity
  8
Dimension Layer
 62
   250
420
  2234388
100
AcDbMText
 10
370.8469590001702
 20
12.70792371644107
 30
0.0
 40
2.604209742848704
 41
0.0
 71
     7
 72
     1
  1
\fMS Gothic|b0|i0|c0|p34;\W1;８
 73
     1
 44
1.0
  0
MTEXT
  5
1A9
330
3C
100
AcDbEntity
  8
Dimension Layer
 62
   250
420
  2234388
100
AcDbMText
 10
373.4245794422342
 20
12.70792371644107
 30
0.0
 40
2.604209742848704
 41
0.0
 71
     7
 72
     1
  1
\fMS Gothic|b0|i0|c0|p34;\W1;６
 73
     1
 44
1.0
  0
MTEXT
  5
1AA
330
3C
100
AcDbEntity
  8
Dimension Layer
 62
   250
420
  2234388
100
AcDbMText
 10
376.0135686993994
 20
12.70792371644107
 30
0.0
 40
2.604209742848704
 41
0.0
 71
     7
 72
     1
  1
\fMS Gothic|b0|i0|c0|p34;\W1;-
 73
     1
 44
1.0
  0
MTEXT
  5
1AB
330
3C
100
AcDbEntity
  8
Dimension Layer
 62
   250
420
  2234388
100
AcDbMText
 10
377.3957410080816
 20
12.70792371644107
 30
0.0
 40
2.604209742848704
 41
0.0
 71
     7
 72
     1
  1
\fMS Gothic|b0|i0|c0|p34;\W1;２
 73
     1
 44
1.0
  0
MTEXT
  5
1AC
330
3C
100
AcDbEntity
  8
Dimension Layer
 62
   250
420
  2234388
100
AcDbMText
 10
379.965782240078
 20
12.70792371644107
 30
0.0
 40
2.604209742848704
 41
0.0
 71
     7
 72
     1
  1
\fMS Gothic|b0|i0|c0|p34;\W1;５
 73
     1
 44
1.0
  0
MTEXT
  5
1AD
330
3C
100
AcDbEntity
  8
Dimension Layer
 62
   250
420
  2234388
100
AcDbMText
 10
382.5430581725934
 20
12.70792371644107
 30
0.0
 40
2.604209742848704
 41
0.0
 71
     7
 72
     1
  1
\fMS Gothic|b0|i0|c0|p34;\W1;６
 73
     1
 44
1.0
  0
MTEXT
  5
1AE
330
3C
100
AcDbEntity
  8
Dimension Layer
 62
   250
420
  2234388
100
AcDbMText
 10
385.1203341051088
 20
12.70792371644107
 30
0.0
 40
2.604209742848704
 41
0.0
 71
     7
 72
     1
  1
\fMS Gothic|b0|i0|c0|p34;\W1;０
 73
     1
 44
1.0
  0
MTEXT
  5
1AF
330
3C
100
AcDbEntity
  8
Dimension Layer
 62
   250
420
  2234388
100
AcDbMText
 10
388.4224581277208
 20
12.70792371644107
 30
0.0
 40
2.604209742848704
 41
0.0
 71
     7
 72
     1
  1
\fMS Gothic|b0|i0|c0|p34;\W1;（
 73
     1
 44
1.0
  0
MTEXT
  5
1B0
330
3C
100
AcDbEntity
  8
Dimension Layer
 62
   250
420
  2234388
100
AcDbMText
 10
391.630875553134
 20
12.70792371644107
 30
0.0
 40
2.604209742848704
 41
0.0
 71
     7
 72
     1
  1
\fMS Gothic|b0|i0|c0|p34;\W1;代
 73
     1
 44
1.0
  0
MTEXT
  5
1B1
330
3C
100
AcDbEntity
  8
Dimension Layer
 62
   250
420
  2234388
100
AcDbMText
 10
395.5679306736775
 20
12.70792371644107
 30
0.0
 40
2.604209742848704
 41
0.0
 71
     7
 72
     1
  1
\fMS Gothic|b0|i0|c0|p34;\W1;）
 73
     1
 44
1.0
  0
INSERT
  5
1B3
330
3C
100
AcDbEntity
  8
Dimension Layer
100
AcDbBlockReference
  2
block 9
 10
0.0
 20
0.0
 30
0.0
  0
MTEXT
  5
1F3
330
3C
100
AcDbEntity
  8
Dimension Layer
 62
   250
420
  2234388
100
AcDbMText
 10
60.82316079208588
 20
15.95217013490085
 30
0.0
 40
2.187786638666616
 41
0.0
 71
     7
 72
     1
  1
\fMS Gothic|b0|i0|c0|p34;\W1.01218;重
 73
     1
 44
1.0
  0
MTEXT
  5
1F4
330
3C
100
AcDbEntity
  8
Dimension Layer
 62
   250
420
  2234388
100
AcDbMText
 10
64.07963729951828
 20
15.95217013490085
 30
0.0
 40
2.187786638666616
 41
0.0
 71
     7
 72
     1
  1
\fMS Gothic|b0|i0|c0|p34;\W1.01218;量
 73
     1
 44
1.0
  0
MTEXT
  5
1F5
330
3C
100
AcDbEntity
  8
Dimension Layer
 62
   250
420
  2234388
100
AcDbMText
 10
67.33611380695069
 20
15.95217013490085
 30
0.0
 40
2.187786638666616
 41
0.0
 71
     7
 72
     1
  1
\fMS Gothic|b0|i0|c0|p34;\W1.01218;／
 73
     1
 44
1.0
  0
MTEXT
  5
1F6
330
3C
100
AcDbEntity
  8
Dimension Layer
 62
   250
420
  2234388
100
AcDbMText
 10
70.59276256915737
 20
15.95217013490085
 30
0.0
 40
2.187786638666616
 41
0.0
 71
     7
 72
     1
  1
\fMS Gothic|b0|i0|c0|p34;\W1.01218;約
 73
     1
 44
1.0
  0
MTEXT
  5
1F7
330
3C
100
AcDbEntity
  8
Dimension Layer
 62
   250
420
  2234388
100
AcDbMText
 10
73.84923907658978
 20
15.95079209670675
 30
0.0
 40
2.187786638666616
 41
0.0
 71
     7
 72
     1
  1
\fMS Gothic|b0|i0|c0|p34;\W1.01218;1.3kg
 73
     1
 44
1.0
  0
MTEXT
  5
1F8
330
3C
100
AcDbEntity
  8
Dimension Layer
 62
   250
420
  2234388
100
AcDbMText
 10
374.27103940296
 20
42.01293944262176
 30
0.0
 40
2.15899999946025
 41
0.0
 71
     7
 72
     1
  1
\fMS Gothic|b0|i0|c0|p34;\W1;寸
 73
     1
 44
1.0
  0
MTEXT
  5
1F9
330
3C
100
AcDbEntity
  8
Dimension Layer
 62
   250
420
  2234388
100
AcDbMText
 10
377.4460394021663
 20
42.01293944262176
 30
0.0
 40
2.15899999946025
 41
0.0
 71
     7
 72
     1
  1
\fMS Gothic|b0|i0|c0|p34;\W1;法
 73
     1
 44
1.0
  0
MTEXT
  5
1FA
330
3C
100
AcDbEntity
  8
Dimension Layer
 62
   250
420
  2234388
100
AcDbMText
 10
380.6210394013725
 20
42.01293944262176
 30
0.0
 40
2.15899999946025
 41
0.0
 71
     7
 72
     1
  1
\fMS Gothic|b0|i0|c0|p34;\W1;数
 73
     1
 44
1.0
  0
MTEXT
  5
1FB
330
3C
100
AcDbEntity
  8
Dimension Layer
 62
   250
420
  2234388
100
AcDbMText
 10
383.7960394005788
 20
42.01293944262176
 30
0.0
 40
2.15899999946025
 41
0.0
 71
     7
 72
     1
  1
\fMS Gothic|b0|i0|c0|p34;\W1;値
 73
     1
 44
1.0
  0
MTEXT
  5
1FC
330
3C
100
AcDbEntity
  8
Dimension Layer
 62
   250
420
  2234388
100
AcDbMText
 10
386.971039399785
 20
42.01293944262176
 30
0.0
 40
2.15899999946025
 41
0.0
 71
     7
 72
     1
  1
\fMS Gothic|b0|i0|c0|p34;\W1;：
 73
     1
 44
1.0
  0
MTEXT
  5
1FD
330
3C
100
AcDbEntity
  8
Dimension Layer
 62
   250
420
  2234388
100
AcDbMText
 10
390.1460393989913
 20
42.01293944262176
 30
0.0
 40
2.15899999946025
 41
0.0
 71
     7
 72
     1
  1
\fMS Gothic|b0|i0|c0|p34;\W1;m
 73
     1
 44
1.0
  0
MTEXT
  5
1FE
330
3C
100
AcDbEntity
  8
Dimension Layer
 62
   250
420
  2234388
100
AcDbMText
 10
391.7335393985944
 20
42.01293944262176
 30
0.0
 40
2.15899999946025
 41
0.0
 71
     7
 72
     1
  1
\fMS Gothic|b0|i0|c0|p34;\W1;m
 73
     1
 44
1.0
  0
MTEXT
  5
1FF
330
3C
100
AcDbEntity
  8
Dimension Layer
 62
   250
420
  2234388
100
AcDbMText
 10
393.3210393981975
 20
42.01293944262176
 30
0.0
 40
2.15899999946025
 41
0.0
 71
     7
 72
     1
  1
\fMS Gothic|b0|i0|c0|p34;\W1;表
 73
     1
 44
1.0
  0
MTEXT
  5
200
330
3C
100
AcDbEntity
  8
Dimension Layer
 62
   250
420
  2234388
100
AcDbMText
 10
396.4960393974038
 20
42.01293944262176
 30
0.0
 40
2.15899999946025
 41
0.0
 71
     7
 72
     1
  1
\fMS Gothic|b0|i0|c0|p34;\W1;記
 73
     1
 44
1.0
  0
MTEXT
  5
201
330
3C
100
AcDbEntity
  8
Dimension Layer
 62
   250
420
  2234388
100
AcDbMText
 10
374.27103940296
 20
38.1330729071334
 30
0.0
 40
2.15899999946025
 41
0.0
 71
     7
 72
     1
  1
\fMS Gothic|b0|i0|c0|p34;\W1;寸
 73
     1
 44
1.0
  0
MTEXT
  5
202
330
3C
100
AcDbEntity
  8
Dimension Layer
 62
   250
420
  2234388
100
AcDbMText
 10
377.4460394021663
 20
38.1330729071334
 30
0.0
 40
2.15899999946025
 41
0.0
 71
     7
 72
     1
  1
\fMS Gothic|b0|i0|c0|p34;\W1;法
 73
     1
 44
1.0
  0
MTEXT
  5
203
330
3C
100
AcDbEntity
  8
Dimension Layer
 62
   250
420
  2234388
100
AcDbMText
 10
380.6210394013725
 20
38.1330729071334
 30
0.0
 40
2.15899999946025
 41
0.0
 71
     7
 72
     1
  1
\fMS Gothic|b0|i0|c0|p34;\W1;公
 73
     1
 44
1.0
  0
MTEXT
  5
204
330
3C
100
AcDbEntity
  8
Dimension Layer
 62
   250
420
  2234388
100
AcDbMText
 10
383.7960394005788
 20
38.1330729071334
 30
0.0
 40
2.15899999946025
 41
0.0
 71
     7
 72
     1
  1
\fMS Gothic|b0|i0|c0|p34;\W1;差
 73
     1
 44
1.0
  0
MTEXT
  5
205
330
3C
100
AcDbEntity
  8
Dimension Layer
 62
   250
420
  2234388
100
AcDbMText
 10
386.971039399785
 20
38.1330729071334
 30
0.0
 40
2.15899999946025
 41
0.0
 71
     7
 72
     1
  1
\fMS Gothic|b0|i0|c0|p34;\W1;：
 73
     1
 44
1.0
  0
MTEXT
  5
206
330
3C
100
AcDbEntity
  8
Dimension Layer
 62
   250
420
  2234388
100
AcDbMText
 10
390.1460393989913
 20
38.1330729071334
 30
0.0
 40
2.15899999946025
 41
0.0
 71
     7
 72
     1
  1
\fMS Gothic|b0|i0|c0|p34;\W1;±
 73
     1
 44
1.0
  0
MTEXT
  5
207
330
3C
100
AcDbEntity
  8
Dimension Layer
 62
   250
420
  2234388
100
AcDbMText
 10
393.3210393981975
 20
38.1330729071334
 30
0.0
 40
2.15899999946025
 41
0.0
 71
     7
 72
     1
  1
\fMS Gothic|b0|i0|c0|p34;\W1;0
 73
     1
 44
1.0
  0
MTEXT
  5
208
330
3C
100
AcDbEntity
  8
Dimension Layer
 62
   250
420
  2234388
100
AcDbMText
 10
394.9085393978007
 20
38.1330729071334
 30
0.0
 40
2.15899999946025
 41
0.0
 71
     7
 72
     1
  1
\fMS Gothic|b0|i0|c0|p34;\W1;.
 73
     1
 44
1.0
  0
MTEXT
  5
209
330
3C
100
AcDbEntity
  8
Dimension Layer
 62
   250
420
  2234388
100
AcDbMText
 10
396.4960393974038
 20
38.1330729071334
 30
0.0
 40
2.15899999946025
 41
0.0
 71
     7
 72
     1
  1
\fMS Gothic|b0|i0|c0|p34;\W1;5
 73
     1
 44
1.0
  0
MTEXT
  5
20A
330
3C
100
AcDbEntity
  8
Dimension Layer
 62
   250
420
  2234388
100
AcDbMText
 10
398.0835393970069
 20
38.1330729071334
 30
0.0
 40
2.15899999946025
 41
0.0
 71
     7
 72
     1
  1
\fMS Gothic|b0|i0|c0|p34;\W1;m
 73
     1
 44
1.0
  0
MTEXT
  5
20B
330
3C
100
AcDbEntity
  8
Dimension Layer
 62
   250
420
  2234388
100
AcDbMText
 10
399.67103939661
 20
38.1330729071334
 30
0.0
 40
2.15899999946025
 41
0.0
 71
     7
 72
     1
  1
\fMS Gothic|b0|i0|c0|p34;\W1;m
 73
     1
 44
1.0
  0
MTEXT
  5
20C
330
3C
100
AcDbEntity
  8
Dimension Layer
 62
   250
420
  2234388
100
AcDbMText
 10
223.7830674353737
 20
18.0819281638823
 30
0.0
 40
2.187786638666616
 41
0.0
 71
     7
 72
     1
  1
\fMS Gothic|b0|i0|c0|p34;\W1;ﾀｲﾙﾄﾞﾗｲﾄｿｰﾗｰ ﾗｳﾝﾄﾞ (白/ｵﾚﾝｼﾞ/青/緑)
 73
     1
 44
1.0
  0
MTEXT
  5
20D
330
3C
100
AcDbEntity
  8
Dimension Layer
 62
   250
420
  2234388
100
AcDbMText
 10
161.1438245582384
 20
14.63855522637508
 30
0.0
 40
2.187786638666616
 41
0.0
 71
     7
 72
     1
  1
\fMS Gothic|b0|i0|c0|p34;\W1;真 鍋
 73
     1
 44
1.0
  0
ENDBLK
  5
3F
330
3C
100
AcDbEntity
  8
0
100
AcDbBlockEnd
  0
BLOCK
  5
63
330
61
100
AcDbEntity
  8
0
100
AcDbBlockBegin
  2
block 3
 70
     0
 71
     0
 10
0.0
 20
0.0
 30
0.0
  3
block 3
  1

  0
MTEXT
  5
65
330
61
100
AcDbEntity
  8
Dimension Layer
 62
   250
420
  2234388
100
AcDbMText
 10
25.76173501960123
 20
10.97194010142368
 30
0.0
 40
2.187786638666616
 41
0.0
 71
     7
 72
     1
  1
\fMS Gothic|b0|i0|c0|p34;\W1;符
 73
     1
 44
1.0
  0
MTEXT
  5
66
330
61
100
AcDbEntity
  8
Dimension Layer
 62
   250
420
  2234388
100
AcDbMText
 10
30.58779703011347
 20
10.97194010142368
 30
0.0
 40
2.187786638666616
 41
0.0
 71
     7
 72
     1
  1
\fMS Gothic|b0|i0|c0|p34;\W1;号
 73
     1
 44
1.0
  0
POLYLINE
  5
67
330
61
100
AcDbEntity
  8
Dimension Layer
370
     0
100
AcDb2dPolyline
 66
     1
 10
0.0
 20
0.0
 30
0.0
  0
VERTEX
  5
68
330
67
100
AcDbEntity
  8
Dimension Layer
370
     0
100
AcDbVertex
100
AcDb2dVertex
 10
25.79342989806553
 20
10.74731987578539
 30
0.0
  0
VERTEX
  5
69
330
67
100
AcDbEntity
  8
Dimension Layer
370
     0
100
AcDbVertex
100
AcDb2dVertex
 10
33.83703883702685
 20
10.74731987578539
 30
0.0
  0
VERTEX
  5
6A
330
67
100
AcDbEntity
  8
Dimension Layer
370
     0
100
AcDbVertex
100
AcDb2dVertex
 10
33.83703883702685
 20
13.79519585158592
 30
0.0
  0
VERTEX
  5
6B
330
67
100
AcDbEntity
  8
Dimension Layer
370
     0
100
AcDbVertex
100
AcDb2dVertex
 10
25.79342989806553
 20
13.79519585158592
 30
0.0
  0
VERTEX
  5
6C
330
67
100
AcDbEntity
  8
Dimension Layer
370
     0
100
AcDbVertex
100
AcDb2dVertex
 10
25.79342989806553
 20
10.74731987578539
 30
0.0
  0
SEQEND
  5
6D
330
67
100
AcDbEntity
  8
Dimension Layer
370
     0
  0
ENDBLK
  5
64
330
61
100
AcDbEntity
  8
0
100
AcDbBlockEnd
  0
BLOCK
  5
A8
330
A6
100
AcDbEntity
  8
0
100
AcDbBlockBegin
  2
block 4
 70
     0
 71
     0
 10
0.0
 20
0.0
 30
0.0
  3
block 4
  1

  0
MTEXT
  5
AA
330
A6
100
AcDbEntity
  8
Dimension Layer
 62
   250
420
  2234388
100
AcDbMText
 10
101.4537556712511
 20
10.71769205461224
 30
0.0
 40
2.187786638666616
 41
0.0
 71
     7
 72
     1
  1
\fMS Gothic|b0|i0|c0|p34;\W1;　
 73
     1
 44
1.0
  0
POLYLINE
  5
AB
330
A6
100
AcDbEntity
  8
Dimension Layer
370
     0
100
AcDb2dPolyline
 66
     1
 10
0.0
 20
0.0
 30
0.0
  0
VERTEX
  5
AC
330
AB
100
AcDbEntity
  8
Dimension Layer
370
     0
100
AcDbVertex
100
AcDb2dVertex
 10
101.4856228044897
 20
10.74731987578539
 30
0.0
  0
VERTEX
  5
AD
330
AB
100
AcDbEntity
  8
Dimension Layer
370
     0
100
AcDbVertex
100
AcDb2dVertex
 10
104.702652968616
 20
10.74731987578539
 30
0.0
  0
VERTEX
  5
AE
330
AB
100
AcDbEntity
  8
Dimension Layer
370
     0
100
AcDbVertex
100
AcDb2dVertex
 10
104.702652968616
 20
13.54163682387154
 30
0.0
  0
VERTEX
  5
AF
330
AB
100
AcDbEntity
  8
Dimension Layer
370
     0
100
AcDbVertex
100
AcDb2dVertex
 10
101.4856228044897
 20
13.54163682387154
 30
0.0
  0
VERTEX
  5
B0
330
AB
100
AcDbEntity
  8
Dimension Layer
370
     0
100
AcDbVertex
100
AcDb2dVertex
 10
101.4856228044897
 20
10.74731987578539
 30
0.0
  0
SEQEND
  5
B1
330
AB
100
AcDbEntity
  8
Dimension Layer
370
     0
  0
ENDBLK
  5
A9
330
A6
100
AcDbEntity
  8
0
100
AcDbBlockEnd
  0
BLOCK
  5
B5
330
B3
100
AcDbEntity
  8
0
100
AcDbBlockBegin
  2
block 5
 70
     0
 71
     0
 10
0.0
 20
0.0
 30
0.0
  3
block 5
  1

  0
MTEXT
  5
B7
330
B3
100
AcDbEntity
  8
Dimension Layer
 62
   250
420
  2234388
100
AcDbMText
 10
40.74772812566376
 20
10.88719075248654
 30
0.0
 40
2.187786638666616
 41
0.0
 71
     7
 72
     1
  1
\fMS Gothic|b0|i0|c0|p34;\W1;日
 73
     1
 44
1.0
  0
POLYLINE
  5
B8
330
B3
100
AcDbEntity
  8
Dimension Layer
370
     0
100
AcDb2dPolyline
 66
     1
 10
0.0
 20
0.0
 30
0.0
  0
VERTEX
  5
B9
330
B8
100
AcDbEntity
  8
Dimension Layer
370
     0
100
AcDbVertex
100
AcDb2dVertex
 10
40.77959525890233
 20
10.74731987578539
 30
0.0
  0
VERTEX
  5
BA
330
B8
100
AcDbEntity
  8
Dimension Layer
370
     0
100
AcDbVertex
100
AcDb2dVertex
 10
43.99662542302863
 20
10.74731987578539
 30
0.0
  0
VERTEX
  5
BB
330
B8
100
AcDbEntity
  8
Dimension Layer
370
     0
100
AcDbVertex
100
AcDb2dVertex
 10
43.99662542302863
 20
13.71113552174583
 30
0.0
  0
VERTEX
  5
BC
330
B8
100
AcDbEntity
  8
Dimension Layer
370
     0
100
AcDbVertex
100
AcDb2dVertex
 10
40.77959525890233
 20
13.71113552174583
 30
0.0
  0
VERTEX
  5
BD
330
B8
100
AcDbEntity
  8
Dimension Layer
370
     0
100
AcDbVertex
100
AcDb2dVertex
 10
40.77959525890233
 20
10.74731987578539
 30
0.0
  0
SEQEND
  5
BE
330
B8
100
AcDbEntity
  8
Dimension Layer
370
     0
  0
ENDBLK
  5
B6
330
B3
100
AcDbEntity
  8
0
100
AcDbBlockEnd
  0
BLOCK
  5
C1
330
BF
100
AcDbEntity
  8
0
100
AcDbBlockBegin
  2
block 6
 70
     0
 71
     0
 10
0.0
 20
0.0
 30
0.0
  3
block 6
  1

  0
MTEXT
  5
C3
330
BF
100
AcDbEntity
  8
Dimension Layer
 62
   250
420
  2234388
100
AcDbMText
 10
43.96510279933859
 20
10.88719075248654
 30
0.0
 40
2.187786638666616
 41
0.0
 71
     7
 72
     1
  1
\fMS Gothic|b0|i0|c0|p34;\W1;　
 73
     1
 44
1.0
  0
POLYLINE
  5
C4
330
BF
100
AcDbEntity
  8
Dimension Layer
370
     0
100
AcDb2dPolyline
 66
     1
 10
0.0
 20
0.0
 30
0.0
  0
VERTEX
  5
C5
330
C4
100
AcDbEntity
  8
Dimension Layer
370
     0
100
AcDbVertex
100
AcDb2dVertex
 10
43.99662542302863
 20
10.74731987578539
 30
0.0
  0
VERTEX
  5
C6
330
C4
100
AcDbEntity
  8
Dimension Layer
370
     0
100
AcDbVertex
100
AcDb2dVertex
 10
47.21365558715492
 20
10.74731987578539
 30
0.0
  0
VERTEX
  5
C7
330
C4
100
AcDbEntity
  8
Dimension Layer
370
     0
100
AcDbVertex
100
AcDb2dVertex
 10
47.21365558715492
 20
13.71113552174583
 30
0.0
  0
VERTEX
  5
C8
330
C4
100
AcDbEntity
  8
Dimension Layer
370
     0
100
AcDbVertex
100
AcDb2dVertex
 10
43.99662542302863
 20
13.71113552174583
 30
0.0
  0
VERTEX
  5
C9
330
C4
100
AcDbEntity
  8
Dimension Layer
370
     0
100
AcDbVertex
100
AcDb2dVertex
 10
43.99662542302863
 20
10.74731987578539
 30
0.0
  0
SEQEND
  5
CA
330
C4
100
AcDbEntity
  8
Dimension Layer
370
     0
  0
ENDBLK
  5
C2
330
BF
100
AcDbEntity
  8
0
100
AcDbBlockEnd
  0
BLOCK
  5
CD
330
CB
100
AcDbEntity
  8
0
100
AcDbBlockBegin
  2
block 7
 70
     0
 71
     0
 10
0.0
 20
0.0
 30
0.0
  3
block 7
  1

  0
MTEXT
  5
CF
330
CB
100
AcDbEntity
  8
Dimension Layer
 62
   250
420
  2234388
100
AcDbMText
 10
47.18247747301341
 20
10.88719075248654
 30
0.0
 40
2.187786638666616
 41
0.0
 71
     7
 72
     1
  1
\fMS Gothic|b0|i0|c0|p34;\W1;付
 73
     1
 44
1.0
  0
POLYLINE
  5
D0
330
CB
100
AcDbEntity
  8
Dimension Layer
370
     0
100
AcDb2dPolyline
 66
     1
 10
0.0
 20
0.0
 30
0.0
  0
VERTEX
  5
D1
330
D0
100
AcDbEntity
  8
Dimension Layer
370
     0
100
AcDbVertex
100
AcDb2dVertex
 10
47.21365558715492
 20
10.74731987578539
 30
0.0
  0
VERTEX
  5
D2
330
D0
100
AcDbEntity
  8
Dimension Layer
370
     0
100
AcDbVertex
100
AcDb2dVertex
 10
50.43137477037827
 20
10.74731987578539
 30
0.0
  0
VERTEX
  5
D3
330
D0
100
AcDbEntity
  8
Dimension Layer
370
     0
100
AcDbVertex
100
AcDb2dVertex
 10
50.43137477037827
 20
13.71113552174583
 30
0.0
  0
VERTEX
  5
D4
330
D0
100
AcDbEntity
  8
Dimension Layer
370
     0
100
AcDbVertex
100
AcDb2dVertex
 10
47.21365558715492
 20
13.71113552174583
 30
0.0
  0
VERTEX
  5
D5
330
D0
100
AcDbEntity
  8
Dimension Layer
370
     0
100
AcDbVertex
100
AcDb2dVertex
 10
47.21365558715492
 20
10.74731987578539
 30
0.0
  0
SEQEND
  5
D6
330
D0
100
AcDbEntity
  8
Dimension Layer
370
     0
  0
ENDBLK
  5
CE
330
CB
100
AcDbEntity
  8
0
100
AcDbBlockEnd
  0
BLOCK
  5
160
330
15E
100
AcDbEntity
  8
0
100
AcDbBlockBegin
  2
block 8
 70
     0
 71
     0
 10
0.0
 20
0.0
 30
0.0
  3
block 8
  1

  0
SPLINE
  5
162
330
15E
100
AcDbEntity
  8
Dimension Layer
370
     0
100
AcDbSpline
210
0.0
220
0.0
230
1.0
 70
    11
 71
     3
 72
    68
 73
    64
 74
     0
 42
0.0000000001
 43
0.0000000001
 40
0.0
 40
0.0
 40
0.0
 40
0.0
 40
1.0
 40
1.0
 40
1.0
 40
2.0
 40
2.0
 40
2.0
 40
3.0
 40
3.0
 40
3.0
 40
4.0
 40
4.0
 40
4.0
 40
5.0
 40
5.0
 40
5.0
 40
6.0
 40
6.0
 40
6.0
 40
7.0
 40
7.0
 40
7.0
 40
8.0
 40
8.0
 40
8.0
 40
9.0
 40
9.0
 40
9.0
 40
10.0
 40
10.0
 40
10.0
 40
11.0
 40
11.0
 40
11.0
 40
12.0
 40
12.0
 40
12.0
 40
13.0
 40
13.0
 40
13.0
 40
14.0
 40
14.0
 40
14.0
 40
15.0
 40
15.0
 40
15.0
 40
16.0
 40
16.0
 40
16.0
 40
17.0
 40
17.0
 40
17.0
 40
18.0
 40
18.0
 40
18.0
 40
19.0
 40
19.0
 40
19.0
 40
20.0
 40
20.0
 40
20.0
 40
21.0
 40
21.0
 40
21.0
 40
21.0
 10
311.7525471225827
 20
20.39393174403346
 30
0.0
 10
311.7525471225827
 20
20.33192002529897
 30
0.0
 10
311.7036267666921
 20
20.28403319805399
 30
0.0
 10
311.6443711243459
 20
20.28403319805399
 30
0.0
 10
311.6443711243459
 20
20.28403319805399
 30
0.0
 10
308.6440374662418
 20
20.28403319805399
 30
0.0
 10
308.6440374662418
 20
20.28403319805399
 30
0.0
 10
307.7186848189037
 20
20.28403319805399
 30
0.0
 10
306.9676540031192
 20
21.03437499474141
 30
0.0
 10
306.9676540031192
 20
21.96041666117656
 30
0.0
 10
306.9676540031192
 20
22.88576930851467
 30
0.0
 10
307.7186848189037
 20
23.63645561475061
 30
0.0
 10
308.6440374662418
 20
23.63645561475061
 30
0.0
 10
308.6440374662418
 20
23.63645561475061
 30
0.0
 10
309.8136473834841
 20
23.63645561475061
 30
0.0
 10
309.8136473834841
 20
23.63645561475061
 30
0.0
 10
309.8749700831215
 20
23.63645561475061
 30
0.0
 10
309.9228569103665
 20
23.58753525886006
 30
0.0
 10
309.9228569103665
 20
23.52621255922261
 30
0.0
 10
309.9228569103665
 20
23.52621255922261
 30
0.0
 10
309.9228569103665
 20
22.46202256382894
 30
0.0
 10
309.9228569103665
 20
22.46202256382894
 30
0.0
 10
309.9228569103665
 20
22.40207790238559
 30
0.0
 10
309.8749700831215
 20
22.35315754649504
 30
0.0
 10
309.8136473834841
 20
22.35315754649504
 30
0.0
 10
309.8136473834841
 20
22.35315754649504
 30
0.0
 10
308.7291313247275
 20
22.35212401784947
 30
0.0
 10
308.7291313247275
 20
22.35212401784947
 30
0.0
 10
308.5148463855449
 20
22.35212401784947
 30
0.0
 10
308.3398355348942
 20
22.1774576767473
 30
0.0
 10
308.3398355348942
 20
21.96282822801624
 30
0.0
 10
308.3398355348942
 20
21.7471652506396
 30
0.0
 10
308.5148463855449
 20
21.57146538089186
 30
0.0
 10
308.7291313247275
 20
21.57146538089186
 30
0.0
 10
308.7291313247275
 20
21.57146538089186
 30
0.0
 10
310.2477294146256
 20
21.57353243818301
 30
0.0
 10
310.2477294146256
 20
21.57353243818301
 30
0.0
 10
310.2477294146256
 20
21.57353243818301
 30
0.0
 10
310.2477294146256
 20
23.82145724230853
 30
0.0
 10
310.2477294146256
 20
23.82145724230853
 30
0.0
 10
310.2477294146256
 20
24.15046386114988
 30
0.0
 10
309.9814235336158
 20
24.4167697421597
 30
0.0
 10
309.6510388765803
 20
24.4167697421597
 30
0.0
 10
309.6510388765803
 20
24.4167697421597
 30
0.0
 10
307.5178357521136
 20
24.4167697421597
 30
0.0
 10
307.5178357521136
 20
24.4167697421597
 30
0.0
 10
307.4558240333791
 20
24.4167697421597
 30
0.0
 10
307.4075926965856
 20
24.46534558850172
 30
0.0
 10
307.4075926965856
 20
24.52632377859064
 30
0.0
 10
307.4075926965856
 20
24.52632377859064
 30
0.0
 10
307.4075926965856
 20
25.59499239811514
 30
0.0
 10
307.4075926965856
 20
25.59499239811514
 30
0.0
 10
307.4075926965856
 20
25.65493705955849
 30
0.0
 10
307.4558240333791
 20
25.70489094409461
 30
0.0
 10
307.5178357521136
 20
25.70489094409461
 30
0.0
 10
307.5178357521136
 20
25.70489094409461
 30
0.0
 10
310.0720295448779
 20
25.70489094409461
 30
0.0
 10
310.0720295448779
 20
25.70489094409461
 30
0.0
 10
311.0035833640894
 20
25.70489094409461
 30
0.0
 10
311.7525471225827
 20
24.95144856147047
 30
0.0
 10
311.7525471225827
 20
24.02023925180744
 30
0.0
 10
311.7525471225827
 20
24.02023925180744
 30
0.0
 10
311.7525471225827
 20
20.39393174403346
 30
0.0
 10
311.7525471225827
 20
20.39393174403346
 30
0.0
  0
HATCH
  5
163
330
15E
100
AcDbEntity
  8
Dimension Layer
 62
   250
420
  2234388
100
AcDbHatch
 10
0.0
 20
0.0
 30
0.0
210
0.0
220
0.0
230
1.0
  2
SOLID
 70
     1
 71
     0
 91
        1
 92
        1
 93
        1
 72
     4
 94
        3
 73
     0
 74
     1
 95
       68
 96
       64
 40
0.0
 40
0.0
 40
0.0
 40
0.0
 40
1.0
 40
1.0
 40
1.0
 40
2.0
 40
2.0
 40
2.0
 40
3.0
 40
3.0
 40
3.0
 40
4.0
 40
4.0
 40
4.0
 40
5.0
 40
5.0
 40
5.0
 40
6.0
 40
6.0
 40
6.0
 40
7.0
 40
7.0
 40
7.0
 40
8.0
 40
8.0
 40
8.0
 40
9.0
 40
9.0
 40
9.0
 40
10.0
 40
10.0
 40
10.0
 40
11.0
 40
11.0
 40
11.0
 40
12.0
 40
12.0
 40
12.0
 40
13.0
 40
13.0
 40
13.0
 40
14.0
 40
14.0
 40
14.0
 40
15.0
 40
15.0
 40
15.0
 40
16.0
 40
16.0
 40
16.0
 40
17.0
 40
17.0
 40
17.0
 40
18.0
 40
18.0
 40
18.0
 40
19.0
 40
19.0
 40
19.0
 40
20.0
 40
20.0
 40
20.0
 40
21.0
 40
21.0
 40
21.0
 40
21.0
 10
311.7525471225827
 20
20.39393174403346
 10
311.7525471225827
 20
20.33192002529897
 10
311.7036267666921
 20
20.28403319805399
 10
311.6443711243459
 20
20.28403319805399
 10
311.6443711243459
 20
20.28403319805399
 10
308.6440374662418
 20
20.28403319805399
 10
308.6440374662418
 20
20.28403319805399
 10
307.7186848189037
 20
20.28403319805399
 10
306.9676540031192
 20
21.03437499474141
 10
306.9676540031192
 20
21.96041666117656
 10
306.9676540031192
 20
22.88576930851467
 10
307.7186848189037
 20
23.63645561475061
 10
308.6440374662418
 20
23.63645561475061
 10
308.6440374662418
 20
23.63645561475061
 10
309.8136473834841
 20
23.63645561475061
 10
309.8136473834841
 20
23.63645561475061
 10
309.8749700831215
 20
23.63645561475061
 10
309.9228569103665
 20
23.58753525886006
 10
309.9228569103665
 20
23.52621255922261
 10
309.9228569103665
 20
23.52621255922261
 10
309.9228569103665
 20
22.46202256382894
 10
309.9228569103665
 20
22.46202256382894
 10
309.9228569103665
 20
22.40207790238559
 10
309.8749700831215
 20
22.35315754649504
 10
309.8136473834841
 20
22.35315754649504
 10
309.8136473834841
 20
22.35315754649504
 10
308.7291313247275
 20
22.35212401784947
 10
308.7291313247275
 20
22.35212401784947
 10
308.5148463855449
 20
22.35212401784947
 10
308.3398355348942
 20
22.1774576767473
 10
308.3398355348942
 20
21.96282822801624
 10
308.3398355348942
 20
21.7471652506396
 10
308.5148463855449
 20
21.57146538089186
 10
308.7291313247275
 20
21.57146538089186
 10
308.7291313247275
 20
21.57146538089186
 10
310.2477294146256
 20
21.57353243818301
 10
310.2477294146256
 20
21.57353243818301
 10
310.2477294146256
 20
21.57353243818301
 10
310.2477294146256
 20
23.82145724230853
 10
310.2477294146256
 20
23.82145724230853
 10
310.2477294146256
 20
24.15046386114988
 10
309.9814235336158
 20
24.4167697421597
 10
309.6510388765803
 20
24.4167697421597
 10
309.6510388765803
 20
24.4167697421597
 10
307.5178357521136
 20
24.4167697421597
 10
307.5178357521136
 20
24.4167697421597
 10
307.4558240333791
 20
24.4167697421597
 10
307.4075926965856
 20
24.46534558850172
 10
307.4075926965856
 20
24.52632377859064
 10
307.4075926965856
 20
24.52632377859064
 10
307.4075926965856
 20
25.59499239811514
 10
307.4075926965856
 20
25.59499239811514
 10
307.4075926965856
 20
25.65493705955849
 10
307.4558240333791
 20
25.70489094409461
 10
307.5178357521136
 20
25.70489094409461
 10
307.5178357521136
 20
25.70489094409461
 10
310.0720295448779
 20
25.70489094409461
 10
310.0720295448779
 20
25.70489094409461
 10
311.0035833640894
 20
25.70489094409461
 10
311.7525471225827
 20
24.95144856147047
 10
311.7525471225827
 20
24.02023925180744
 10
311.7525471225827
 20
24.02023925180744
 10
311.7525471225827
 20
20.39393174403346
 10
311.7525471225827
 20
20.39393174403346
 97
        0
 75
     2
 76
     1
 98
        0
  0
SPLINE
  5
164
330
15E
100
AcDbEntity
  8
Dimension Layer
370
     0
100
AcDbSpline
210
0.0
220
0.0
230
1.0
 70
    11
 71
     3
 72
    68
 73
    64
 74
     0
 42
0.0000000001
 43
0.0000000001
 40
0.0
 40
0.0
 40
0.0
 40
0.0
 40
1.0
 40
1.0
 40
1.0
 40
2.0
 40
2.0
 40
2.0
 40
3.0
 40
3.0
 40
3.0
 40
4.0
 40
4.0
 40
4.0
 40
5.0
 40
5.0
 40
5.0
 40
6.0
 40
6.0
 40
6.0
 40
7.0
 40
7.0
 40
7.0
 40
8.0
 40
8.0
 40
8.0
 40
9.0
 40
9.0
 40
9.0
 40
10.0
 40
10.0
 40
10.0
 40
11.0
 40
11.0
 40
11.0
 40
12.0
 40
12.0
 40
12.0
 40
13.0
 40
13.0
 40
13.0
 40
14.0
 40
14.0
 40
14.0
 40
15.0
 40
15.0
 40
15.0
 40
16.0
 40
16.0
 40
16.0
 40
17.0
 40
17.0
 40
17.0
 40
18.0
 40
18.0
 40
18.0
 40
19.0
 40
19.0
 40
19.0
 40
20.0
 40
20.0
 40
20.0
 40
21.0
 40
21.0
 40
21.0
 40
21.0
 10
321.8466768943647
 20
20.39393174403346
 30
0.0
 10
321.8466768943647
 20
20.33192002529897
 30
0.0
 10
321.7977565384742
 20
20.28403319805399
 30
0.0
 10
321.7367783483853
 20
20.28403319805399
 30
0.0
 10
321.7367783483853
 20
20.28403319805399
 30
0.0
 10
318.7364446902812
 20
20.28403319805399
 30
0.0
 10
318.7364446902812
 20
20.28403319805399
 30
0.0
 10
317.8114365524916
 20
20.28403319805399
 30
0.0
 10
317.0607502462557
 20
21.03437499474141
 30
0.0
 10
317.0607502462557
 20
21.96041666117656
 30
0.0
 10
317.0607502462557
 20
22.88576930851467
 30
0.0
 10
317.8114365524916
 20
23.63645561475061
 30
0.0
 10
318.7364446902812
 20
23.63645561475061
 30
0.0
 10
318.7364446902812
 20
23.63645561475061
 30
0.0
 10
319.905710097975
 20
23.63645561475061
 30
0.0
 10
319.905710097975
 20
23.63645561475061
 30
0.0
 10
319.9663437785154
 20
23.63645561475061
 30
0.0
 10
320.0159531535029
 20
23.58753525886006
 30
0.0
 10
320.0159531535029
 20
23.52621255922261
 30
0.0
 10
320.0159531535029
 20
23.52621255922261
 30
0.0
 10
320.0159531535029
 20
22.46202256382894
 30
0.0
 10
320.0159531535029
 20
22.46202256382894
 30
0.0
 10
320.0159531535029
 20
22.40207790238559
 30
0.0
 10
319.9663437785154
 20
22.35315754649504
 30
0.0
 10
319.905710097975
 20
22.35315754649504
 30
0.0
 10
319.905710097975
 20
22.35315754649504
 30
0.0
 10
318.8218830583154
 20
22.35212401784947
 30
0.0
 10
318.8218830583154
 20
22.35212401784947
 30
0.0
 10
318.6069091000358
 20
22.35212401784947
 30
0.0
 10
318.4325872684822
 20
22.1774576767473
 30
0.0
 10
318.4325872684822
 20
21.96282822801624
 30
0.0
 10
318.4325872684822
 20
21.7471652506396
 30
0.0
 10
318.6069091000358
 20
21.57146538089186
 30
0.0
 10
318.8218830583154
 20
21.57146538089186
 30
0.0
 10
318.8218830583154
 20
21.57146538089186
 30
0.0
 10
320.340136638665
 20
21.57353243818301
 30
0.0
 10
320.340136638665
 20
21.57353243818301
 30
0.0
 10
320.340136638665
 20
21.57353243818301
 30
0.0
 10
320.340136638665
 20
23.82145724230853
 30
0.0
 10
320.340136638665
 20
23.82145724230853
 30
0.0
 10
320.340136638665
 20
24.15046386114988
 30
0.0
 10
320.0738307576552
 20
24.4167697421597
 30
0.0
 10
319.7444796292653
 20
24.4167697421597
 30
0.0
 10
319.7444796292653
 20
24.4167697421597
 30
0.0
 10
317.6085204284104
 20
24.4167697421597
 30
0.0
 10
317.6085204284104
 20
24.4167697421597
 30
0.0
 10
317.548575766967
 20
24.4167697421597
 30
0.0
 10
317.4996554110765
 20
24.46534558850172
 30
0.0
 10
317.4996554110765
 20
24.52632377859064
 30
0.0
 10
317.4996554110765
 20
24.52632377859064
 30
0.0
 10
317.4996554110765
 20
25.59499239811514
 30
0.0
 10
317.4996554110765
 20
25.59499239811514
 30
0.0
 10
317.4996554110765
 20
25.65493705955849
 30
0.0
 10
317.548575766967
 20
25.70489094409461
 30
0.0
 10
317.6085204284104
 20
25.70489094409461
 30
0.0
 10
317.6085204284104
 20
25.70489094409461
 30
0.0
 10
320.1637477498202
 20
25.70489094409461
 30
0.0
 10
320.1637477498202
 20
25.70489094409461
 30
0.0
 10
321.0949570594832
 20
25.70489094409461
 30
0.0
 10
321.8466768943647
 20
24.95144856147047
 30
0.0
 10
321.8466768943647
 20
24.02023925180744
 30
0.0
 10
321.8466768943647
 20
24.02023925180744
 30
0.0
 10
321.8466768943647
 20
20.39393174403346
 30
0.0
 10
321.8466768943647
 20
20.39393174403346
 30
0.0
  0
HATCH
  5
165
330
15E
100
AcDbEntity
  8
Dimension Layer
 62
   250
420
  2234388
100
AcDbHatch
 10
0.0
 20
0.0
 30
0.0
210
0.0
220
0.0
230
1.0
  2
SOLID
 70
     1
 71
     0
 91
        1
 92
        1
 93
        1
 72
     4
 94
        3
 73
     0
 74
     1
 95
       68
 96
       64
 40
0.0
 40
0.0
 40
0.0
 40
0.0
 40
1.0
 40
1.0
 40
1.0
 40
2.0
 40
2.0
 40
2.0
 40
3.0
 40
3.0
 40
3.0
 40
4.0
 40
4.0
 40
4.0
 40
5.0
 40
5.0
 40
5.0
 40
6.0
 40
6.0
 40
6.0
 40
7.0
 40
7.0
 40
7.0
 40
8.0
 40
8.0
 40
8.0
 40
9.0
 40
9.0
 40
9.0
 40
10.0
 40
10.0
 40
10.0
 40
11.0
 40
11.0
 40
11.0
 40
12.0
 40
12.0
 40
12.0
 40
13.0
 40
13.0
 40
13.0
 40
14.0
 40
14.0
 40
14.0
 40
15.0
 40
15.0
 40
15.0
 40
16.0
 40
16.0
 40
16.0
 40
17.0
 40
17.0
 40
17.0
 40
18.0
 40
18.0
 40
18.0
 40
19.0
 40
19.0
 40
19.0
 40
20.0
 40
20.0
 40
20.0
 40
21.0
 40
21.0
 40
21.0
 40
21.0
 10
321.8466768943647
 20
20.39393174403346
 10
321.8466768943647
 20
20.33192002529897
 10
321.7977565384742
 20
20.28403319805399
 10
321.7367783483853
 20
20.28403319805399
 10
321.7367783483853
 20
20.28403319805399
 10
318.7364446902812
 20
20.28403319805399
 10
318.7364446902812
 20
20.28403319805399
 10
317.8114365524916
 20
20.28403319805399
 10
317.0607502462557
 20
21.03437499474141
 10
317.0607502462557
 20
21.96041666117656
 10
317.0607502462557
 20
22.88576930851467
 10
317.8114365524916
 20
23.63645561475061
 10
318.7364446902812
 20
23.63645561475061
 10
318.7364446902812
 20
23.63645561475061
 10
319.905710097975
 20
23.63645561475061
 10
319.905710097975
 20
23.63645561475061
 10
319.9663437785154
 20
23.63645561475061
 10
320.0159531535029
 20
23.58753525886006
 10
320.0159531535029
 20
23.52621255922261
 10
320.0159531535029
 20
23.52621255922261
 10
320.0159531535029
 20
22.46202256382894
 10
320.0159531535029
 20
22.46202256382894
 10
320.0159531535029
 20
22.40207790238559
 10
319.9663437785154
 20
22.35315754649504
 10
319.905710097975
 20
22.35315754649504
 10
319.905710097975
 20
22.35315754649504
 10
318.8218830583154
 20
22.35212401784947
 10
318.8218830583154
 20
22.35212401784947
 10
318.6069091000358
 20
22.35212401784947
 10
318.4325872684822
 20
22.1774576767473
 10
318.4325872684822
 20
21.96282822801624
 10
318.4325872684822
 20
21.7471652506396
 10
318.6069091000358
 20
21.57146538089186
 10
318.8218830583154
 20
21.57146538089186
 10
318.8218830583154
 20
21.57146538089186
 10
320.340136638665
 20
21.57353243818301
 10
320.340136638665
 20
21.57353243818301
 10
320.340136638665
 20
21.57353243818301
 10
320.340136638665
 20
23.82145724230853
 10
320.340136638665
 20
23.82145724230853
 10
320.340136638665
 20
24.15046386114988
 10
320.0738307576552
 20
24.4167697421597
 10
319.7444796292653
 20
24.4167697421597
 10
319.7444796292653
 20
24.4167697421597
 10
317.6085204284104
 20
24.4167697421597
 10
317.6085204284104
 20
24.4167697421597
 10
317.548575766967
 20
24.4167697421597
 10
317.4996554110765
 20
24.46534558850172
 10
317.4996554110765
 20
24.52632377859064
 10
317.4996554110765
 20
24.52632377859064
 10
317.4996554110765
 20
25.59499239811514
 10
317.4996554110765
 20
25.59499239811514
 10
317.4996554110765
 20
25.65493705955849
 10
317.548575766967
 20
25.70489094409461
 10
317.6085204284104
 20
25.70489094409461
 10
317.6085204284104
 20
25.70489094409461
 10
320.1637477498202
 20
25.70489094409461
 10
320.1637477498202
 20
25.70489094409461
 10
321.0949570594832
 20
25.70489094409461
 10
321.8466768943647
 20
24.95144856147047
 10
321.8466768943647
 20
24.02023925180744
 10
321.8466768943647
 20
24.02023925180744
 10
321.8466768943647
 20
20.39393174403346
 10
321.8466768943647
 20
20.39393174403346
 97
        0
 75
     2
 76
     1
 98
        0
  0
SPLINE
  5
166
330
15E
100
AcDbEntity
  8
Dimension Layer
370
     0
100
AcDbSpline
210
0.0
220
0.0
230
1.0
 70
    11
 71
     3
 72
    65
 73
    61
 74
     0
 42
0.0000000001
 43
0.0000000001
 40
0.0
 40
0.0
 40
0.0
 40
0.0
 40
1.0
 40
1.0
 40
1.0
 40
2.0
 40
2.0
 40
2.0
 40
3.0
 40
3.0
 40
3.0
 40
4.0
 40
4.0
 40
4.0
 40
5.0
 40
5.0
 40
5.0
 40
6.0
 40
6.0
 40
6.0
 40
7.0
 40
7.0
 40
7.0
 40
8.0
 40
8.0
 40
8.0
 40
9.0
 40
9.0
 40
9.0
 40
10.0
 40
10.0
 40
10.0
 40
11.0
 40
11.0
 40
11.0
 40
12.0
 40
12.0
 40
12.0
 40
13.0
 40
13.0
 40
13.0
 40
14.0
 40
14.0
 40
14.0
 40
15.0
 40
15.0
 40
15.0
 40
16.0
 40
16.0
 40
16.0
 40
17.0
 40
17.0
 40
17.0
 40
18.0
 40
18.0
 40
18.0
 40
19.0
 40
19.0
 40
19.0
 40
20.0
 40
20.0
 40
20.0
 40
20.0
 10
322.4833305400389
 20
20.27852104527759
 30
0.0
 10
322.4233858785956
 20
20.27852104527759
 30
0.0
 10
322.375154541802
 20
20.32571885342552
 30
0.0
 10
322.375154541802
 20
20.38531900532034
 30
0.0
 10
322.375154541802
 20
20.38531900532034
 30
0.0
 10
322.375154541802
 20
21.45571017258746
 30
0.0
 10
322.375154541802
 20
21.45571017258746
 30
0.0
 10
322.375154541802
 20
21.51565483403081
 30
0.0
 10
322.4233858785956
 20
21.56698675676103
 30
0.0
 10
322.4833305400389
 20
21.56698675676103
 30
0.0
 10
322.4833305400389
 20
21.56698675676103
 30
0.0
 10
325.0327011991238
 20
21.56698675676103
 30
0.0
 10
325.0327011991238
 20
21.56698675676103
 30
0.0
 10
325.2476751574034
 20
21.56698675676103
 30
0.0
 10
325.421996988957
 20
21.7444091742514
 30
0.0
 10
325.421996988957
 20
21.96145018982214
 30
0.0
 10
325.421996988957
 20
22.17504610990763
 30
0.0
 10
325.2476751574034
 20
22.35212401784947
 30
0.0
 10
325.0327011991238
 20
22.35212401784947
 30
0.0
 10
325.0327011991238
 20
22.35212401784947
 30
0.0
 10
323.9016763513163
 20
22.38312987721672
 30
0.0
 10
323.9016763513163
 20
22.38312987721672
 30
0.0
 10
322.981491347206
 20
22.38312987721672
 30
0.0
 10
322.2345946460039
 20
23.12485893519101
 30
0.0
 10
322.2345946460039
 20
24.03987629607337
 30
0.0
 10
322.2345946460039
 20
24.9545491474072
 30
0.0
 10
322.981491347206
 20
25.69765624357559
 30
0.0
 10
323.9016763513163
 20
25.69765624357559
 30
0.0
 10
323.9016763513163
 20
25.69765624357559
 30
0.0
 10
326.469306016473
 20
25.69765624357559
 30
0.0
 10
326.469306016473
 20
25.69765624357559
 30
0.0
 10
326.5299396970134
 20
25.69765624357559
 30
0.0
 10
326.5781710338069
 20
25.64976941633061
 30
0.0
 10
326.5781710338069
 20
25.59051377398432
 30
0.0
 10
326.5781710338069
 20
25.59051377398432
 30
0.0
 10
326.5781710338069
 20
24.53218044091557
 30
0.0
 10
326.5781710338069
 20
24.53218044091557
 30
0.0
 10
326.5781710338069
 20
24.47085774127812
 30
0.0
 10
326.5299396970134
 20
24.4195258185479
 30
0.0
 10
326.469306016473
 20
24.4195258185479
 30
0.0
 10
326.469306016473
 20
24.4195258185479
 30
0.0
 10
324.0604952531863
 20
24.4195258185479
 30
0.0
 10
324.0604952531863
 20
24.4195258185479
 30
0.0
 10
323.8462103140037
 20
24.4195258185479
 30
0.0
 10
323.670510444256
 20
24.241758891509
 30
0.0
 10
323.670510444256
 20
24.02747395232647
 30
0.0
 10
323.670510444256
 20
23.8114664654013
 30
0.0
 10
323.8462103140037
 20
23.63714463384766
 30
0.0
 10
324.0604952531863
 20
23.63714463384766
 30
0.0
 10
324.0604952531863
 20
23.63714463384766
 30
0.0
 10
325.2049559733863
 20
23.60269367899516
 30
0.0
 10
325.2049559733863
 20
23.60269367899516
 30
0.0
 10
326.1261745061421
 20
23.60269367899516
 30
0.0
 10
326.8744492455384
 20
22.85993109237529
 30
0.0
 10
326.8744492455384
 20
21.94456922194441
 30
0.0
 10
326.8744492455384
 20
21.02748480377091
 30
0.0
 10
326.1261745061421
 20
20.27852104527759
 30
0.0
 10
325.2049559733863
 20
20.27852104527759
 30
0.0
 10
325.2049559733863
 20
20.27852104527759
 30
0.0
 10
322.4833305400389
 20
20.27852104527759
 30
0.0
 10
322.4833305400389
 20
20.27852104527759
 30
0.0
  0
HATCH
  5
167
330
15E
100
AcDbEntity
  8
Dimension Layer
 62
   250
420
  2234388
100
AcDbHatch
 10
0.0
 20
0.0
 30
0.0
210
0.0
220
0.0
230
1.0
  2
SOLID
 70
     1
 71
     0
 91
        1
 92
        1
 93
        1
 72
     4
 94
        3
 73
     0
 74
     1
 95
       65
 96
       61
 40
0.0
 40
0.0
 40
0.0
 40
0.0
 40
1.0
 40
1.0
 40
1.0
 40
2.0
 40
2.0
 40
2.0
 40
3.0
 40
3.0
 40
3.0
 40
4.0
 40
4.0
 40
4.0
 40
5.0
 40
5.0
 40
5.0
 40
6.0
 40
6.0
 40
6.0
 40
7.0
 40
7.0
 40
7.0
 40
8.0
 40
8.0
 40
8.0
 40
9.0
 40
9.0
 40
9.0
 40
10.0
 40
10.0
 40
10.0
 40
11.0
 40
11.0
 40
11.0
 40
12.0
 40
12.0
 40
12.0
 40
13.0
 40
13.0
 40
13.0
 40
14.0
 40
14.0
 40
14.0
 40
15.0
 40
15.0
 40
15.0
 40
16.0
 40
16.0
 40
16.0
 40
17.0
 40
17.0
 40
17.0
 40
18.0
 40
18.0
 40
18.0
 40
19.0
 40
19.0
 40
19.0
 40
20.0
 40
20.0
 40
20.0
 40
20.0
 10
322.4833305400389
 20
20.27852104527759
 10
322.4233858785956
 20
20.27852104527759
 10
322.375154541802
 20
20.32571885342552
 10
322.375154541802
 20
20.38531900532034
 10
322.375154541802
 20
20.38531900532034
 10
322.375154541802
 20
21.45571017258746
 10
322.375154541802
 20
21.45571017258746
 10
322.375154541802
 20
21.51565483403081
 10
322.4233858785956
 20
21.56698675676103
 10
322.4833305400389
 20
21.56698675676103
 10
322.4833305400389
 20
21.56698675676103
 10
325.0327011991238
 20
21.56698675676103
 10
325.0327011991238
 20
21.56698675676103
 10
325.2476751574034
 20
21.56698675676103
 10
325.421996988957
 20
21.7444091742514
 10
325.421996988957
 20
21.96145018982214
 10
325.421996988957
 20
22.17504610990763
 10
325.2476751574034
 20
22.35212401784947
 10
325.0327011991238
 20
22.35212401784947
 10
325.0327011991238
 20
22.35212401784947
 10
323.9016763513163
 20
22.38312987721672
 10
323.9016763513163
 20
22.38312987721672
 10
322.981491347206
 20
22.38312987721672
 10
322.2345946460039
 20
23.12485893519101
 10
322.2345946460039
 20
24.03987629607337
 10
322.2345946460039
 20
24.9545491474072
 10
322.981491347206
 20
25.69765624357559
 10
323.9016763513163
 20
25.69765624357559
 10
323.9016763513163
 20
25.69765624357559
 10
326.469306016473
 20
25.69765624357559
 10
326.469306016473
 20
25.69765624357559
 10
326.5299396970134
 20
25.69765624357559
 10
326.5781710338069
 20
25.64976941633061
 10
326.5781710338069
 20
25.59051377398432
 10
326.5781710338069
 20
25.59051377398432
 10
326.5781710338069
 20
24.53218044091557
 10
326.5781710338069
 20
24.53218044091557
 10
326.5781710338069
 20
24.47085774127812
 10
326.5299396970134
 20
24.4195258185479
 10
326.469306016473
 20
24.4195258185479
 10
326.469306016473
 20
24.4195258185479
 10
324.0604952531863
 20
24.4195258185479
 10
324.0604952531863
 20
24.4195258185479
 10
323.8462103140037
 20
24.4195258185479
 10
323.670510444256
 20
24.241758891509
 10
323.670510444256
 20
24.02747395232647
 10
323.670510444256
 20
23.8114664654013
 10
323.8462103140037
 20
23.63714463384766
 10
324.0604952531863
 20
23.63714463384766
 10
324.0604952531863
 20
23.63714463384766
 10
325.2049559733863
 20
23.60269367899516
 10
325.2049559733863
 20
23.60269367899516
 10
326.1261745061421
 20
23.60269367899516
 10
326.8744492455384
 20
22.85993109237529
 10
326.8744492455384
 20
21.94456922194441
 10
326.8744492455384
 20
21.02748480377091
 10
326.1261745061421
 20
20.27852104527759
 10
325.2049559733863
 20
20.27852104527759
 10
325.2049559733863
 20
20.27852104527759
 10
322.4833305400389
 20
20.27852104527759
 10
322.4833305400389
 20
20.27852104527759
 97
        0
 75
     2
 76
     1
 98
        0
  0
SPLINE
  5
168
330
15E
100
AcDbEntity
  8
Dimension Layer
370
     0
100
AcDbSpline
210
0.0
220
0.0
230
1.0
 70
    11
 71
     3
 72
    65
 73
    61
 74
     0
 42
0.0000000001
 43
0.0000000001
 40
0.0
 40
0.0
 40
0.0
 40
0.0
 40
1.0
 40
1.0
 40
1.0
 40
2.0
 40
2.0
 40
2.0
 40
3.0
 40
3.0
 40
3.0
 40
4.0
 40
4.0
 40
4.0
 40
5.0
 40
5.0
 40
5.0
 40
6.0
 40
6.0
 40
6.0
 40
7.0
 40
7.0
 40
7.0
 40
8.0
 40
8.0
 40
8.0
 40
9.0
 40
9.0
 40
9.0
 40
10.0
 40
10.0
 40
10.0
 40
11.0
 40
11.0
 40
11.0
 40
12.0
 40
12.0
 40
12.0
 40
13.0
 40
13.0
 40
13.0
 40
14.0
 40
14.0
 40
14.0
 40
15.0
 40
15.0
 40
15.0
 40
16.0
 40
16.0
 40
16.0
 40
17.0
 40
17.0
 40
17.0
 40
18.0
 40
18.0
 40
18.0
 40
19.0
 40
19.0
 40
19.0
 40
20.0
 40
20.0
 40
20.0
 40
20.0
 10
331.6217908242126
 20
25.70316839635199
 30
0.0
 10
331.6217908242126
 20
25.70316839635199
 30
0.0
 10
330.4173854425693
 20
25.70316839635199
 30
0.0
 10
330.4173854425693
 20
25.70316839635199
 30
0.0
 10
330.3567517620289
 20
25.70316839635199
 30
0.0
 10
330.2306612672687
 20
25.65390353091291
 30
0.0
 10
330.2306612672687
 20
25.59430337901809
 30
0.0
 10
330.2306612672687
 20
25.59430337901809
 30
0.0
 10
330.2306612672687
 20
23.64300129617259
 30
0.0
 10
330.2306612672687
 20
23.64300129617259
 30
0.0
 10
330.2306612672687
 20
23.64300129617259
 30
0.0
 10
328.7210204256323
 20
23.64300129617259
 30
0.0
 10
328.7210204256323
 20
23.64300129617259
 30
0.0
 10
328.7210204256323
 20
23.64300129617259
 30
0.0
 10
328.7210204256323
 20
25.59430337901809
 30
0.0
 10
328.7210204256323
 20
25.59430337901809
 30
0.0
 10
328.7210204256323
 20
25.65390353091291
 30
0.0
 10
328.6714110506447
 20
25.70316839635199
 30
0.0
 10
328.6121554082983
 20
25.70316839635199
 30
0.0
 10
328.6121554082983
 20
25.70316839635199
 30
0.0
 10
327.3292018495913
 20
25.70316839635199
 30
0.0
 10
327.3292018495913
 20
25.70316839635199
 30
0.0
 10
327.269257188148
 20
25.70316839635199
 30
0.0
 10
327.2203368322574
 20
25.65390353091291
 30
0.0
 10
327.2203368322574
 20
25.59430337901809
 30
0.0
 10
327.2203368322574
 20
25.59430337901809
 30
0.0
 10
327.2203368322574
 20
20.39393174403346
 30
0.0
 10
327.2203368322574
 20
20.39393174403346
 30
0.0
 10
327.2203368322574
 20
20.33192002529897
 30
0.0
 10
327.269257188148
 20
20.28403319805399
 30
0.0
 10
327.3292018495913
 20
20.28403319805399
 30
0.0
 10
327.3292018495913
 20
20.28403319805399
 30
0.0
 10
328.6121554082983
 20
20.28403319805399
 30
0.0
 10
328.6121554082983
 20
20.28403319805399
 30
0.0
 10
328.6714110506447
 20
20.28403319805399
 30
0.0
 10
328.7210204256323
 20
20.33192002529897
 30
0.0
 10
328.7210204256323
 20
20.39393174403346
 30
0.0
 10
328.7210204256323
 20
20.39393174403346
 30
0.0
 10
328.7210204256323
 20
22.35625813243177
 30
0.0
 10
328.7210204256323
 20
22.35625813243177
 30
0.0
 10
328.7210204256323
 20
22.35625813243177
 30
0.0
 10
330.2306612672687
 20
22.35625813243177
 30
0.0
 10
330.2306612672687
 20
22.35625813243177
 30
0.0
 10
330.2306612672687
 20
22.35625813243177
 30
0.0
 10
330.2306612672687
 20
20.39393174403346
 30
0.0
 10
330.2306612672687
 20
20.39393174403346
 30
0.0
 10
330.2306612672687
 20
20.33192002529897
 30
0.0
 10
330.2795816231593
 20
20.28403319805399
 30
0.0
 10
330.3395262846026
 20
20.28403319805399
 30
0.0
 10
330.3395262846026
 20
20.28403319805399
 30
0.0
 10
331.6217908242126
 20
20.28403319805399
 30
0.0
 10
331.6217908242126
 20
20.28403319805399
 30
0.0
 10
331.681735485656
 20
20.28403319805399
 30
0.0
 10
331.7306558415465
 20
20.33192002529897
 30
0.0
 10
331.7306558415465
 20
20.39393174403346
 30
0.0
 10
331.7306558415465
 20
20.39393174403346
 30
0.0
 10
331.7306558415465
 20
25.59430337901809
 30
0.0
 10
331.7306558415465
 20
25.59430337901809
 30
0.0
 10
331.7306558415465
 20
25.65390353091291
 30
0.0
 10
331.681735485656
 20
25.70316839635199
 30
0.0
 10
331.6217908242126
 20
25.70316839635199
 30
0.0
  0
HATCH
  5
169
330
15E
100
AcDbEntity
  8
Dimension Layer
 62
   250
420
  2234388
100
AcDbHatch
 10
0.0
 20
0.0
 30
0.0
210
0.0
220
0.0
230
1.0
  2
SOLID
 70
     1
 71
     0
 91
        1
 92
        1
 93
        2
 72
     4
 94
        3
 73
     0
 74
     0
 95
       65
 96
       61
 40
0.0
 40
0.0
 40
0.0
 40
0.0
 40
0.3527777776895833
 40
0.3527777776895833
 40
0.3527777776895833
 40
0.7055555553791667
 40
0.7055555553791667
 40
0.7055555553791667
 40
1.05833333306875
 40
1.05833333306875
 40
1.05833333306875
 40
1.411111110758333
 40
1.411111110758333
 40
1.411111110758333
 40
1.763888888447917
 40
1.763888888447917
 40
1.763888888447917
 40
2.1166666661375
 40
2.1166666661375
 40
2.1166666661375
 40
2.469444443827083
 40
2.469444443827083
 40
2.469444443827083
 40
2.822222221516667
 40
2.822222221516667
 40
2.822222221516667
 40
3.17499999920625
 40
3.17499999920625
 40
3.17499999920625
 40
3.527777776895833
 40
3.527777776895833
 40
3.527777776895833
 40
3.880555554585417
 40
3.880555554585417
 40
3.880555554585417
 40
4.233333332275
 40
4.233333332275
 40
4.233333332275
 40
4.586111109964584
 40
4.586111109964584
 40
4.586111109964584
 40
4.938888887654167
 40
4.938888887654167
 40
4.938888887654167
 40
5.29166666534375
 40
5.29166666534375
 40
5.29166666534375
 40
5.644444443033334
 40
5.644444443033334
 40
5.644444443033334
 40
5.997222220722917
 40
5.997222220722917
 40
5.997222220722917
 40
6.349999998412501
 40
6.349999998412501
 40
6.349999998412501
 40
6.702777776102083
 40
6.702777776102083
 40
6.702777776102083
 40
7.055555553791667
 40
7.055555553791667
 40
7.055555553791667
 40
7.055555553791667
 10
331.6217908242126
 20
25.70316839635199
 10
331.6217908242126
 20
25.70316839635199
 10
330.4173854425693
 20
25.70316839635199
 10
330.4173854425693
 20
25.70316839635199
 10
330.3567517620289
 20
25.70316839635199
 10
330.2306612672687
 20
25.65390353091291
 10
330.2306612672687
 20
25.59430337901809
 10
330.2306612672687
 20
25.59430337901809
 10
330.2306612672687
 20
23.64300129617259
 10
330.2306612672687
 20
23.64300129617259
 10
330.2306612672687
 20
23.64300129617259
 10
328.7210204256323
 20
23.64300129617259
 10
328.7210204256323
 20
23.64300129617259
 10
328.7210204256323
 20
23.64300129617259
 10
328.7210204256323
 20
25.59430337901809
 10
328.7210204256323
 20
25.59430337901809
 10
328.7210204256323
 20
25.65390353091291
 10
328.6714110506447
 20
25.70316839635199
 10
328.6121554082983
 20
25.70316839635199
 10
328.6121554082983
 20
25.70316839635199
 10
327.3292018495913
 20
25.70316839635199
 10
327.3292018495913
 20
25.70316839635199
 10
327.269257188148
 20
25.70316839635199
 10
327.2203368322574
 20
25.65390353091291
 10
327.2203368322574
 20
25.59430337901809
 10
327.2203368322574
 20
25.59430337901809
 10
327.2203368322574
 20
20.39393174403346
 10
327.2203368322574
 20
20.39393174403346
 10
327.2203368322574
 20
20.33192002529897
 10
327.269257188148
 20
20.28403319805399
 10
327.3292018495913
 20
20.28403319805399
 10
327.3292018495913
 20
20.28403319805399
 10
328.6121554082983
 20
20.28403319805399
 10
328.6121554082983
 20
20.28403319805399
 10
328.6714110506447
 20
20.28403319805399
 10
328.7210204256323
 20
20.33192002529897
 10
328.7210204256323
 20
20.39393174403346
 10
328.7210204256323
 20
20.39393174403346
 10
328.7210204256323
 20
22.35625813243177
 10
328.7210204256323
 20
22.35625813243177
 10
328.7210204256323
 20
22.35625813243177
 10
330.2306612672687
 20
22.35625813243177
 10
330.2306612672687
 20
22.35625813243177
 10
330.2306612672687
 20
22.35625813243177
 10
330.2306612672687
 20
20.39393174403346
 10
330.2306612672687
 20
20.39393174403346
 10
330.2306612672687
 20
20.33192002529897
 10
330.2795816231593
 20
20.28403319805399
 10
330.3395262846026
 20
20.28403319805399
 10
330.3395262846026
 20
20.28403319805399
 10
331.6217908242126
 20
20.28403319805399
 10
331.6217908242126
 20
20.28403319805399
 10
331.681735485656
 20
20.28403319805399
 10
331.7306558415465
 20
20.33192002529897
 10
331.7306558415465
 20
20.39393174403346
 10
331.7306558415465
 20
20.39393174403346
 10
331.7306558415465
 20
25.59430337901809
 10
331.7306558415465
 20
25.59430337901809
 10
331.7306558415465
 20
25.65390353091291
 10
331.681735485656
 20
25.70316839635199
 10
331.6217908242126
 20
25.70316839635199
 72
     1
 10
331.6217908242126
 20
25.70316839635199
 11
331.6217908242126
 21
25.70316839635199
 97
        0
 75
     2
 76
     1
 98
        0
  0
SPLINE
  5
16A
330
15E
100
AcDbEntity
  8
Dimension Layer
370
     0
100
AcDbSpline
210
0.0
220
0.0
230
1.0
 70
    11
 71
     3
 72
    29
 73
    25
 74
     0
 42
0.0000000001
 43
0.0000000001
 40
0.0
 40
0.0
 40
0.0
 40
0.0
 40
1.0
 40
1.0
 40
1.0
 40
2.0
 40
2.0
 40
2.0
 40
3.0
 40
3.0
 40
3.0
 40
4.0
 40
4.0
 40
4.0
 40
5.0
 40
5.0
 40
5.0
 40
6.0
 40
6.0
 40
6.0
 40
7.0
 40
7.0
 40
7.0
 40
8.0
 40
8.0
 40
8.0
 40
8.0
 10
335.7138752415924
 20
25.70385741544904
 30
0.0
 10
335.7138752415924
 20
25.70385741544904
 30
0.0
 10
333.7019394782065
 20
25.70385741544904
 30
0.0
 10
333.7019394782065
 20
25.70385741544904
 30
0.0
 10
332.8530679506409
 20
25.70385741544904
 30
0.0
 10
332.1626708153968
 20
25.01483831839907
 30
0.0
 10
332.1626708153968
 20
24.16493326218793
 30
0.0
 10
332.1626708153968
 20
24.16493326218793
 30
0.0
 10
332.1626708153968
 20
21.82778048499445
 30
0.0
 10
332.1626708153968
 20
21.82778048499445
 30
0.0
 10
332.1626708153968
 20
20.97821993833184
 30
0.0
 10
332.8530679506409
 20
20.28954535083039
 30
0.0
 10
333.7019394782065
 20
20.28954535083039
 30
0.0
 10
333.7019394782065
 20
20.28954535083039
 30
0.0
 10
335.7138752415924
 20
20.28954535083039
 30
0.0
 10
335.7138752415924
 20
20.28954535083039
 30
0.0
 10
336.563435788255
 20
20.28954535083039
 30
0.0
 10
337.2517658662079
 20
20.97821993833184
 30
0.0
 10
337.2517658662079
 20
21.82778048499445
 30
0.0
 10
337.2517658662079
 20
21.82778048499445
 30
0.0
 10
337.2517658662079
 20
24.16493326218793
 30
0.0
 10
337.2517658662079
 20
24.16493326218793
 30
0.0
 10
337.2517658662079
 20
25.01483831839907
 30
0.0
 10
336.563435788255
 20
25.70385741544904
 30
0.0
 10
335.7138752415924
 20
25.70385741544904
 30
0.0
  0
SPLINE
  5
16B
330
15E
100
AcDbEntity
  8
Dimension Layer
370
     0
100
AcDbSpline
210
0.0
220
0.0
230
1.0
 70
    11
 71
     3
 72
    29
 73
    25
 74
     0
 42
0.0000000001
 43
0.0000000001
 40
0.0
 40
0.0
 40
0.0
 40
0.0
 40
1.0
 40
1.0
 40
1.0
 40
2.0
 40
2.0
 40
2.0
 40
3.0
 40
3.0
 40
3.0
 40
4.0
 40
4.0
 40
4.0
 40
5.0
 40
5.0
 40
5.0
 40
6.0
 40
6.0
 40
6.0
 40
7.0
 40
7.0
 40
7.0
 40
8.0
 40
8.0
 40
8.0
 40
8.0
 10
335.7490152155419
 20
22.1306043781479
 30
0.0
 10
335.7490152155419
 20
21.82778048499445
 30
0.0
 10
335.5030353978951
 20
21.58214517689613
 30
0.0
 10
335.2005560142902
 20
21.58214517689613
 30
0.0
 10
335.2005560142902
 20
21.58214517689613
 30
0.0
 10
334.2152587055087
 20
21.58214517689613
 30
0.0
 10
334.2152587055087
 20
21.58214517689613
 30
0.0
 10
333.9114012837097
 20
21.58214517689613
 30
0.0
 10
333.6661104851599
 20
21.82778048499445
 30
0.0
 10
333.6661104851599
 20
22.1306043781479
 30
0.0
 10
333.6661104851599
 20
22.1306043781479
 30
0.0
 10
333.6661104851599
 20
23.862453878583
 30
0.0
 10
333.6661104851599
 20
23.862453878583
 30
0.0
 10
333.6661104851599
 20
24.16493326218793
 30
0.0
 10
333.9114012837097
 20
24.41022406073772
 30
0.0
 10
334.2152587055087
 20
24.41022406073772
 30
0.0
 10
334.2152587055087
 20
24.41022406073772
 30
0.0
 10
335.2005560142902
 20
24.41022406073772
 30
0.0
 10
335.2005560142902
 20
24.41022406073772
 30
0.0
 10
335.5030353978951
 20
24.41022406073772
 30
0.0
 10
335.7490152155419
 20
24.16493326218793
 30
0.0
 10
335.7490152155419
 20
23.862453878583
 30
0.0
 10
335.7490152155419
 20
23.862453878583
 30
0.0
 10
335.7490152155419
 20
22.1306043781479
 30
0.0
 10
335.7490152155419
 20
22.1306043781479
 30
0.0
  0
HATCH
  5
16C
330
15E
100
AcDbEntity
  8
Dimension Layer
 62
   250
420
  2234388
100
AcDbHatch
 10
0.0
 20
0.0
 30
0.0
210
0.0
220
0.0
230
1.0
  2
SOLID
 70
     1
 71
     0
 91
        2
 92
        1
 93
        1
 72
     4
 94
        3
 73
     0
 74
     1
 95
       29
 96
       25
 40
0.0
 40
0.0
 40
0.0
 40
0.0
 40
1.0
 40
1.0
 40
1.0
 40
2.0
 40
2.0
 40
2.0
 40
3.0
 40
3.0
 40
3.0
 40
4.0
 40
4.0
 40
4.0
 40
5.0
 40
5.0
 40
5.0
 40
6.0
 40
6.0
 40
6.0
 40
7.0
 40
7.0
 40
7.0
 40
8.0
 40
8.0
 40
8.0
 40
8.0
 10
335.7490152155419
 20
22.1306043781479
 10
335.7490152155419
 20
21.82778048499445
 10
335.5030353978951
 20
21.58214517689613
 10
335.2005560142902
 20
21.58214517689613
 10
335.2005560142902
 20
21.58214517689613
 10
334.2152587055087
 20
21.58214517689613
 10
334.2152587055087
 20
21.58214517689613
 10
333.9114012837097
 20
21.58214517689613
 10
333.6661104851599
 20
21.82778048499445
 10
333.6661104851599
 20
22.1306043781479
 10
333.6661104851599
 20
22.1306043781479
 10
333.6661104851599
 20
23.862453878583
 10
333.6661104851599
 20
23.862453878583
 10
333.6661104851599
 20
24.16493326218793
 10
333.9114012837097
 20
24.41022406073772
 10
334.2152587055087
 20
24.41022406073772
 10
334.2152587055087
 20
24.41022406073772
 10
335.2005560142902
 20
24.41022406073772
 10
335.2005560142902
 20
24.41022406073772
 10
335.5030353978951
 20
24.41022406073772
 10
335.7490152155419
 20
24.16493326218793
 10
335.7490152155419
 20
23.862453878583
 10
335.7490152155419
 20
23.862453878583
 10
335.7490152155419
 20
22.1306043781479
 10
335.7490152155419
 20
22.1306043781479
 97
        0
 92
        1
 93
        2
 72
     4
 94
        3
 73
     0
 74
     0
 95
       29
 96
       25
 40
0.0
 40
0.0
 40
0.0
 40
0.0
 40
0.3527777776895833
 40
0.3527777776895833
 40
0.3527777776895833
 40
0.7055555553791667
 40
0.7055555553791667
 40
0.7055555553791667
 40
1.05833333306875
 40
1.05833333306875
 40
1.05833333306875
 40
1.411111110758333
 40
1.411111110758333
 40
1.411111110758333
 40
1.763888888447917
 40
1.763888888447917
 40
1.763888888447917
 40
2.1166666661375
 40
2.1166666661375
 40
2.1166666661375
 40
2.469444443827083
 40
2.469444443827083
 40
2.469444443827083
 40
2.822222221516667
 40
2.822222221516667
 40
2.822222221516667
 40
2.822222221516667
 10
335.7138752415924
 20
25.70385741544904
 10
335.7138752415924
 20
25.70385741544904
 10
333.7019394782065
 20
25.70385741544904
 10
333.7019394782065
 20
25.70385741544904
 10
332.8530679506409
 20
25.70385741544904
 10
332.1626708153968
 20
25.01483831839907
 10
332.1626708153968
 20
24.16493326218793
 10
332.1626708153968
 20
24.16493326218793
 10
332.1626708153968
 20
21.82778048499445
 10
332.1626708153968
 20
21.82778048499445
 10
332.1626708153968
 20
20.97821993833184
 10
332.8530679506409
 20
20.28954535083039
 10
333.7019394782065
 20
20.28954535083039
 10
333.7019394782065
 20
20.28954535083039
 10
335.7138752415924
 20
20.28954535083039
 10
335.7138752415924
 20
20.28954535083039
 10
336.563435788255
 20
20.28954535083039
 10
337.2517658662079
 20
20.97821993833184
 10
337.2517658662079
 20
21.82778048499445
 10
337.2517658662079
 20
21.82778048499445
 10
337.2517658662079
 20
24.16493326218793
 10
337.2517658662079
 20
24.16493326218793
 10
337.2517658662079
 20
25.01483831839907
 10
336.563435788255
 20
25.70385741544904
 10
335.7138752415924
 20
25.70385741544904
 72
     1
 10
335.7138752415924
 20
25.70385741544904
 11
335.7138752415924
 21
25.70385741544904
 97
        0
 75
     2
 76
     1
 98
        0
  0
SPLINE
  5
16D
330
15E
100
AcDbEntity
  8
Dimension Layer
370
     0
100
AcDbSpline
210
0.0
220
0.0
230
1.0
 70
    11
 71
     3
 72
    47
 73
    43
 74
     0
 42
0.0000000001
 43
0.0000000001
 40
0.0
 40
0.0
 40
0.0
 40
0.0
 40
1.0
 40
1.0
 40
1.0
 40
2.0
 40
2.0
 40
2.0
 40
3.0
 40
3.0
 40
3.0
 40
4.0
 40
4.0
 40
4.0
 40
5.0
 40
5.0
 40
5.0
 40
6.0
 40
6.0
 40
6.0
 40
7.0
 40
7.0
 40
7.0
 40
8.0
 40
8.0
 40
8.0
 40
9.0
 40
9.0
 40
9.0
 40
10.0
 40
10.0
 40
10.0
 40
11.0
 40
11.0
 40
11.0
 40
12.0
 40
12.0
 40
12.0
 40
13.0
 40
13.0
 40
13.0
 40
14.0
 40
14.0
 40
14.0
 40
14.0
 10
308.4424993803547
 20
27.79055175086486
 30
0.0
 10
308.4424993803547
 20
27.79055175086486
 30
0.0
 10
302.5782578453624
 20
27.79055175086486
 30
0.0
 10
302.5782578453624
 20
27.79055175086486
 30
0.0
 10
302.5245143557925
 20
27.79055175086486
 30
0.0
 10
302.4804171335813
 20
27.74645452865366
 30
0.0
 10
302.4804171335813
 20
27.69202201998672
 30
0.0
 10
302.4804171335813
 20
27.69202201998672
 30
0.0
 10
302.4804171335813
 20
26.39666611753278
 30
0.0
 10
302.4804171335813
 20
26.39666611753278
 30
0.0
 10
302.4804171335813
 20
26.34188909931731
 30
0.0
 10
302.5245143557925
 20
26.29779187710611
 30
0.0
 10
302.5782578453624
 20
26.29779187710611
 30
0.0
 10
302.5782578453624
 20
26.29779187710611
 30
0.0
 10
304.6429035696726
 20
26.29779187710611
 30
0.0
 10
304.6429035696726
 20
26.29779187710611
 30
0.0
 10
304.6429035696726
 20
26.29779187710611
 30
0.0
 10
304.6429035696726
 20
20.39393174403346
 30
0.0
 10
304.6429035696726
 20
20.39393174403346
 30
0.0
 10
304.6429035696726
 20
20.33192002529897
 30
0.0
 10
304.6907903969176
 20
20.28403319805399
 30
0.0
 10
304.751424077458
 20
20.28403319805399
 30
0.0
 10
304.751424077458
 20
20.28403319805399
 30
0.0
 10
306.268644129162
 20
20.28403319805399
 30
0.0
 10
306.268644129162
 20
20.28403319805399
 30
0.0
 10
306.3299668287995
 20
20.28403319805399
 30
0.0
 10
306.3771646369474
 20
20.33192002529897
 30
0.0
 10
306.3771646369474
 20
20.39393174403346
 30
0.0
 10
306.3771646369474
 20
20.39393174403346
 30
0.0
 10
306.3771646369474
 20
26.29779187710611
 30
0.0
 10
306.3771646369474
 20
26.29779187710611
 30
0.0
 10
306.3771646369474
 20
26.29779187710611
 30
0.0
 10
308.4424993803547
 20
26.29779187710611
 30
0.0
 10
308.4424993803547
 20
26.29779187710611
 30
0.0
 10
308.4969318890216
 20
26.29779187710611
 30
0.0
 10
308.5396510730387
 20
26.34188909931731
 30
0.0
 10
308.5396510730387
 20
26.39666611753278
 30
0.0
 10
308.5396510730387
 20
26.39666611753278
 30
0.0
 10
308.5396510730387
 20
27.69202201998672
 30
0.0
 10
308.5396510730387
 20
27.69202201998672
 30
0.0
 10
308.5396510730387
 20
27.74645452865366
 30
0.0
 10
308.4969318890216
 20
27.79055175086486
 30
0.0
 10
308.4424993803547
 20
27.79055175086486
 30
0.0
  0
HATCH
  5
16E
330
15E
100
AcDbEntity
  8
Dimension Layer
 62
   250
420
  2234388
100
AcDbHatch
 10
0.0
 20
0.0
 30
0.0
210
0.0
220
0.0
230
1.0
  2
SOLID
 70
     1
 71
     0
 91
        1
 92
        1
 93
        2
 72
     4
 94
        3
 73
     0
 74
     0
 95
       47
 96
       43
 40
0.0
 40
0.0
 40
0.0
 40
0.0
 40
0.3527777776895833
 40
0.3527777776895833
 40
0.3527777776895833
 40
0.7055555553791667
 40
0.7055555553791667
 40
0.7055555553791667
 40
1.05833333306875
 40
1.05833333306875
 40
1.05833333306875
 40
1.411111110758333
 40
1.411111110758333
 40
1.411111110758333
 40
1.763888888447917
 40
1.763888888447917
 40
1.763888888447917
 40
2.1166666661375
 40
2.1166666661375
 40
2.1166666661375
 40
2.469444443827083
 40
2.469444443827083
 40
2.469444443827083
 40
2.822222221516667
 40
2.822222221516667
 40
2.822222221516667
 40
3.17499999920625
 40
3.17499999920625
 40
3.17499999920625
 40
3.527777776895833
 40
3.527777776895833
 40
3.527777776895833
 40
3.880555554585417
 40
3.880555554585417
 40
3.880555554585417
 40
4.233333332275
 40
4.233333332275
 40
4.233333332275
 40
4.586111109964584
 40
4.586111109964584
 40
4.586111109964584
 40
4.938888887654167
 40
4.938888887654167
 40
4.938888887654167
 40
4.938888887654167
 10
308.4424993803547
 20
27.79055175086486
 10
308.4424993803547
 20
27.79055175086486
 10
302.5782578453624
 20
27.79055175086486
 10
302.5782578453624
 20
27.79055175086486
 10
302.5245143557925
 20
27.79055175086486
 10
302.4804171335813
 20
27.74645452865366
 10
302.4804171335813
 20
27.69202201998672
 10
302.4804171335813
 20
27.69202201998672
 10
302.4804171335813
 20
26.39666611753278
 10
302.4804171335813
 20
26.39666611753278
 10
302.4804171335813
 20
26.34188909931731
 10
302.5245143557925
 20
26.29779187710611
 10
302.5782578453624
 20
26.29779187710611
 10
302.5782578453624
 20
26.29779187710611
 10
304.6429035696726
 20
26.29779187710611
 10
304.6429035696726
 20
26.29779187710611
 10
304.6429035696726
 20
26.29779187710611
 10
304.6429035696726
 20
20.39393174403346
 10
304.6429035696726
 20
20.39393174403346
 10
304.6429035696726
 20
20.33192002529897
 10
304.6907903969176
 20
20.28403319805399
 10
304.751424077458
 20
20.28403319805399
 10
304.751424077458
 20
20.28403319805399
 10
306.268644129162
 20
20.28403319805399
 10
306.268644129162
 20
20.28403319805399
 10
306.3299668287995
 20
20.28403319805399
 10
306.3771646369474
 20
20.33192002529897
 10
306.3771646369474
 20
20.39393174403346
 10
306.3771646369474
 20
20.39393174403346
 10
306.3771646369474
 20
26.29779187710611
 10
306.3771646369474
 20
26.29779187710611
 10
306.3771646369474
 20
26.29779187710611
 10
308.4424993803547
 20
26.29779187710611
 10
308.4424993803547
 20
26.29779187710611
 10
308.4969318890216
 20
26.29779187710611
 10
308.5396510730387
 20
26.34188909931731
 10
308.5396510730387
 20
26.39666611753278
 10
308.5396510730387
 20
26.39666611753278
 10
308.5396510730387
 20
27.69202201998672
 10
308.5396510730387
 20
27.69202201998672
 10
308.5396510730387
 20
27.74645452865366
 10
308.4969318890216
 20
27.79055175086486
 10
308.4424993803547
 20
27.79055175086486
 72
     1
 10
308.4424993803547
 20
27.79055175086486
 11
308.4424993803547
 21
27.79055175086486
 97
        0
 75
     2
 76
     1
 98
        0
  0
SPLINE
  5
16F
330
15E
100
AcDbEntity
  8
Dimension Layer
370
     0
100
AcDbSpline
210
0.0
220
0.0
230
1.0
 70
    11
 71
     3
 72
    29
 73
    25
 74
     0
 42
0.0000000001
 43
0.0000000001
 40
0.0
 40
0.0
 40
0.0
 40
0.0
 40
1.0
 40
1.0
 40
1.0
 40
2.0
 40
2.0
 40
2.0
 40
3.0
 40
3.0
 40
3.0
 40
4.0
 40
4.0
 40
4.0
 40
5.0
 40
5.0
 40
5.0
 40
6.0
 40
6.0
 40
6.0
 40
7.0
 40
7.0
 40
7.0
 40
8.0
 40
8.0
 40
8.0
 40
8.0
 10
313.5998073217737
 20
20.28403319805399
 30
0.0
 10
313.659751983217
 20
20.28403319805399
 30
0.0
 10
313.7100503773017
 20
20.33192002529897
 30
0.0
 10
313.7100503773017
 20
20.39496527267904
 30
0.0
 10
313.7100503773017
 20
20.39496527267904
 30
0.0
 10
313.7100503773017
 20
25.60222709863417
 30
0.0
 10
313.7100503773017
 20
25.60222709863417
 30
0.0
 10
313.7100503773017
 20
25.66251626962604
 30
0.0
 10
313.659751983217
 20
25.71109211596806
 30
0.0
 10
313.5998073217737
 20
25.71109211596806
 30
0.0
 10
313.5998073217737
 20
25.71109211596806
 30
0.0
 10
312.3130641580329
 20
25.71109211596806
 30
0.0
 10
312.3130641580329
 20
25.71109211596806
 30
0.0
 10
312.2513969488469
 20
25.71109211596806
 30
0.0
 10
312.2024765929563
 20
25.66251626962604
 30
0.0
 10
312.2024765929563
 20
25.60222709863417
 30
0.0
 10
312.2024765929563
 20
25.60222709863417
 30
0.0
 10
312.2024765929563
 20
20.39496527267904
 30
0.0
 10
312.2024765929563
 20
20.39496527267904
 30
0.0
 10
312.2024765929563
 20
20.33192002529897
 30
0.0
 10
312.2513969488469
 20
20.28403319805399
 30
0.0
 10
312.3130641580329
 20
20.28403319805399
 30
0.0
 10
312.3130641580329
 20
20.28403319805399
 30
0.0
 10
313.5998073217737
 20
20.28403319805399
 30
0.0
 10
313.5998073217737
 20
20.28403319805399
 30
0.0
  0
HATCH
  5
170
330
15E
100
AcDbEntity
  8
Dimension Layer
 62
   250
420
  2234388
100
AcDbHatch
 10
0.0
 20
0.0
 30
0.0
210
0.0
220
0.0
230
1.0
  2
SOLID
 70
     1
 71
     0
 91
        1
 92
        1
 93
        1
 72
     4
 94
        3
 73
     0
 74
     1
 95
       29
 96
       25
 40
0.0
 40
0.0
 40
0.0
 40
0.0
 40
1.0
 40
1.0
 40
1.0
 40
2.0
 40
2.0
 40
2.0
 40
3.0
 40
3.0
 40
3.0
 40
4.0
 40
4.0
 40
4.0
 40
5.0
 40
5.0
 40
5.0
 40
6.0
 40
6.0
 40
6.0
 40
7.0
 40
7.0
 40
7.0
 40
8.0
 40
8.0
 40
8.0
 40
8.0
 10
313.5998073217737
 20
20.28403319805399
 10
313.659751983217
 20
20.28403319805399
 10
313.7100503773017
 20
20.33192002529897
 10
313.7100503773017
 20
20.39496527267904
 10
313.7100503773017
 20
20.39496527267904
 10
313.7100503773017
 20
25.60222709863417
 10
313.7100503773017
 20
25.60222709863417
 10
313.7100503773017
 20
25.66251626962604
 10
313.659751983217
 20
25.71109211596806
 10
313.5998073217737
 20
25.71109211596806
 10
313.5998073217737
 20
25.71109211596806
 10
312.3130641580329
 20
25.71109211596806
 10
312.3130641580329
 20
25.71109211596806
 10
312.2513969488469
 20
25.71109211596806
 10
312.2024765929563
 20
25.66251626962604
 10
312.2024765929563
 20
25.60222709863417
 10
312.2024765929563
 20
25.60222709863417
 10
312.2024765929563
 20
20.39496527267904
 10
312.2024765929563
 20
20.39496527267904
 10
312.2024765929563
 20
20.33192002529897
 10
312.2513969488469
 20
20.28403319805399
 10
312.3130641580329
 20
20.28403319805399
 10
312.3130641580329
 20
20.28403319805399
 10
313.5998073217737
 20
20.28403319805399
 10
313.5998073217737
 20
20.28403319805399
 97
        0
 75
     2
 76
     1
 98
        0
  0
SPLINE
  5
171
330
15E
100
AcDbEntity
  8
Dimension Layer
370
     0
100
AcDbSpline
210
0.0
220
0.0
230
1.0
 70
    11
 71
     3
 72
    29
 73
    25
 74
     0
 42
0.0000000001
 43
0.0000000001
 40
0.0
 40
0.0
 40
0.0
 40
0.0
 40
1.0
 40
1.0
 40
1.0
 40
2.0
 40
2.0
 40
2.0
 40
3.0
 40
3.0
 40
3.0
 40
4.0
 40
4.0
 40
4.0
 40
5.0
 40
5.0
 40
5.0
 40
6.0
 40
6.0
 40
6.0
 40
7.0
 40
7.0
 40
7.0
 40
8.0
 40
8.0
 40
8.0
 40
8.0
 10
315.7240531979787
 20
25.70764702048281
 30
0.0
 10
315.6213893525183
 20
25.70764702048281
 30
0.0
 10
315.5297498126106
 20
25.65597058820406
 30
0.0
 10
315.4746282848466
 20
25.57811143023742
 30
0.0
 10
315.4746282848466
 20
25.57811143023742
 30
0.0
 10
313.7100503773017
 20
22.99394530675151
 30
0.0
 10
313.7100503773017
 20
22.99394530675151
 30
0.0
 10
313.7100503773017
 20
22.99394530675151
 30
0.0
 10
315.4629149601968
 20
20.28954535083039
 30
0.0
 10
315.4629149601968
 20
20.28954535083039
 30
0.0
 10
315.4629149601968
 20
20.28954535083039
 30
0.0
 10
317.3067300639025
 20
20.28954535083039
 30
0.0
 10
317.3067300639025
 20
20.28954535083039
 30
0.0
 10
317.3067300639025
 20
20.28954535083039
 30
0.0
 10
315.299617434196
 20
22.99394530675151
 30
0.0
 10
315.299617434196
 20
22.99394530675151
 30
0.0
 10
315.299617434196
 20
22.99394530675151
 30
0.0
 10
317.3053520257084
 20
25.70592447274019
 30
0.0
 10
317.3053520257084
 20
25.70592447274019
 30
0.0
 10
317.3053520257084
 20
25.70592447274019
 30
0.0
 10
315.7233641788817
 20
25.70592447274019
 30
0.0
 10
315.7233641788817
 20
25.70592447274019
 30
0.0
 10
315.7233641788817
 20
25.70592447274019
 30
0.0
 10
315.7240531979787
 20
25.70764702048281
 30
0.0
 10
315.7240531979787
 20
25.70764702048281
 30
0.0
  0
HATCH
  5
172
330
15E
100
AcDbEntity
  8
Dimension Layer
 62
   250
420
  2234388
100
AcDbHatch
 10
0.0
 20
0.0
 30
0.0
210
0.0
220
0.0
230
1.0
  2
SOLID
 70
     1
 71
     0
 91
        1
 92
        1
 93
        1
 72
     4
 94
        3
 73
     0
 74
     1
 95
       29
 96
       25
 40
0.0
 40
0.0
 40
0.0
 40
0.0
 40
1.0
 40
1.0
 40
1.0
 40
2.0
 40
2.0
 40
2.0
 40
3.0
 40
3.0
 40
3.0
 40
4.0
 40
4.0
 40
4.0
 40
5.0
 40
5.0
 40
5.0
 40
6.0
 40
6.0
 40
6.0
 40
7.0
 40
7.0
 40
7.0
 40
8.0
 40
8.0
 40
8.0
 40
8.0
 10
315.7240531979787
 20
25.70764702048281
 10
315.6213893525183
 20
25.70764702048281
 10
315.5297498126106
 20
25.65597058820406
 10
315.4746282848466
 20
25.57811143023742
 10
315.4746282848466
 20
25.57811143023742
 10
313.7100503773017
 20
22.99394530675151
 10
313.7100503773017
 20
22.99394530675151
 10
313.7100503773017
 20
22.99394530675151
 10
315.4629149601968
 20
20.28954535083039
 10
315.4629149601968
 20
20.28954535083039
 10
315.4629149601968
 20
20.28954535083039
 10
317.3067300639025
 20
20.28954535083039
 10
317.3067300639025
 20
20.28954535083039
 10
317.3067300639025
 20
20.28954535083039
 10
315.299617434196
 20
22.99394530675151
 10
315.299617434196
 20
22.99394530675151
 10
315.299617434196
 20
22.99394530675151
 10
317.3053520257084
 20
25.70592447274019
 10
317.3053520257084
 20
25.70592447274019
 10
317.3053520257084
 20
25.70592447274019
 10
315.7233641788817
 20
25.70592447274019
 10
315.7233641788817
 20
25.70592447274019
 10
315.7233641788817
 20
25.70592447274019
 10
315.7240531979787
 20
25.70764702048281
 10
315.7240531979787
 20
25.70764702048281
 97
        0
 75
     2
 76
     1
 98
        0
  0
SPLINE
  5
173
330
15E
100
AcDbEntity
  8
Dimension Layer
370
     0
100
AcDbSpline
210
0.0
220
0.0
230
1.0
 70
    11
 71
     3
 72
    29
 73
    25
 74
     0
 42
0.0000000001
 43
0.0000000001
 40
0.0
 40
0.0
 40
0.0
 40
0.0
 40
1.0
 40
1.0
 40
1.0
 40
2.0
 40
2.0
 40
2.0
 40
3.0
 40
3.0
 40
3.0
 40
4.0
 40
4.0
 40
4.0
 40
5.0
 40
5.0
 40
5.0
 40
6.0
 40
6.0
 40
6.0
 40
7.0
 40
7.0
 40
7.0
 40
8.0
 40
8.0
 40
8.0
 40
8.0
 10
292.7438882731682
 20
24.04022080562189
 30
0.0
 10
292.8816920925782
 20
24.04022080562189
 30
0.0
 10
292.9926241672032
 20
24.15253091844103
 30
0.0
 10
292.9926241672032
 20
24.28964571875398
 30
0.0
 10
292.9926241672032
 20
24.28964571875398
 30
0.0
 10
292.9926241672032
 20
27.53837076134457
 30
0.0
 10
292.9926241672032
 20
27.53837076134457
 30
0.0
 10
292.9926241672032
 20
27.67686359985162
 30
0.0
 10
292.8816920925782
 20
27.78779567447666
 30
0.0
 10
292.7438882731682
 20
27.78779567447666
 30
0.0
 10
292.7438882731682
 20
27.78779567447666
 30
0.0
 10
289.4951632305776
 20
27.78779567447666
 30
0.0
 10
289.4951632305776
 20
27.78779567447666
 30
0.0
 10
289.355636863425
 20
27.78779567447666
 30
0.0
 10
289.2450492983485
 20
27.67686359985162
 30
0.0
 10
289.2450492983485
 20
27.53837076134457
 30
0.0
 10
289.2450492983485
 20
27.53837076134457
 30
0.0
 10
289.2450492983485
 20
24.28964571875398
 30
0.0
 10
289.2450492983485
 20
24.28964571875398
 30
0.0
 10
289.2450492983485
 20
24.15253091844103
 30
0.0
 10
289.355636863425
 20
24.04022080562189
 30
0.0
 10
289.4951632305776
 20
24.04022080562189
 30
0.0
 10
289.4951632305776
 20
24.04022080562189
 30
0.0
 10
292.7438882731682
 20
24.04022080562189
 30
0.0
 10
292.7438882731682
 20
24.04022080562189
 30
0.0
  0
HATCH
  5
174
330
15E
100
AcDbEntity
  8
Dimension Layer
 62
   250
420
  2234388
100
AcDbHatch
 10
0.0
 20
0.0
 30
0.0
210
0.0
220
0.0
230
1.0
  2
SOLID
 70
     1
 71
     0
 91
        1
 92
        1
 93
        1
 72
     4
 94
        3
 73
     0
 74
     1
 95
       29
 96
       25
 40
0.0
 40
0.0
 40
0.0
 40
0.0
 40
1.0
 40
1.0
 40
1.0
 40
2.0
 40
2.0
 40
2.0
 40
3.0
 40
3.0
 40
3.0
 40
4.0
 40
4.0
 40
4.0
 40
5.0
 40
5.0
 40
5.0
 40
6.0
 40
6.0
 40
6.0
 40
7.0
 40
7.0
 40
7.0
 40
8.0
 40
8.0
 40
8.0
 40
8.0
 10
292.7438882731682
 20
24.04022080562189
 10
292.8816920925782
 20
24.04022080562189
 10
292.9926241672032
 20
24.15253091844103
 10
292.9926241672032
 20
24.28964571875398
 10
292.9926241672032
 20
24.28964571875398
 10
292.9926241672032
 20
27.53837076134457
 10
292.9926241672032
 20
27.53837076134457
 10
292.9926241672032
 20
27.67686359985162
 10
292.8816920925782
 20
27.78779567447666
 10
292.7438882731682
 20
27.78779567447666
 10
292.7438882731682
 20
27.78779567447666
 10
289.4951632305776
 20
27.78779567447666
 10
289.4951632305776
 20
27.78779567447666
 10
289.355636863425
 20
27.78779567447666
 10
289.2450492983485
 20
27.67686359985162
 10
289.2450492983485
 20
27.53837076134457
 10
289.2450492983485
 20
27.53837076134457
 10
289.2450492983485
 20
24.28964571875398
 10
289.2450492983485
 20
24.28964571875398
 10
289.2450492983485
 20
24.15253091844103
 10
289.355636863425
 20
24.04022080562189
 10
289.4951632305776
 20
24.04022080562189
 10
289.4951632305776
 20
24.04022080562189
 10
292.7438882731682
 20
24.04022080562189
 10
292.7438882731682
 20
24.04022080562189
 97
        0
 75
     2
 76
     1
 98
        0
  0
SPLINE
  5
175
330
15E
100
AcDbEntity
  8
Dimension Layer
370
     0
100
AcDbSpline
210
0.0
220
0.0
230
1.0
 70
    11
 71
     3
 72
    29
 73
    25
 74
     0
 42
0.0000000001
 43
0.0000000001
 40
0.0
 40
0.0
 40
0.0
 40
0.0
 40
1.0
 40
1.0
 40
1.0
 40
2.0
 40
2.0
 40
2.0
 40
3.0
 40
3.0
 40
3.0
 40
4.0
 40
4.0
 40
4.0
 40
5.0
 40
5.0
 40
5.0
 40
6.0
 40
6.0
 40
6.0
 40
7.0
 40
7.0
 40
7.0
 40
8.0
 40
8.0
 40
8.0
 40
8.0
 10
296.4935301993141
 20
20.29092338902449
 30
0.0
 10
296.6306449996271
 20
20.29092338902449
 30
0.0
 10
296.7415770742521
 20
20.40254448274659
 30
0.0
 10
296.7415770742521
 20
20.54138183080216
 30
0.0
 10
296.7415770742521
 20
20.54138183080216
 30
0.0
 10
296.7415770742521
 20
23.78907334474718
 30
0.0
 10
296.7415770742521
 20
23.78907334474718
 30
0.0
 10
296.7415770742521
 20
23.92653265460865
 30
0.0
 10
296.6306449996271
 20
24.03780923878222
 30
0.0
 10
296.4935301993141
 20
24.03780923878222
 30
0.0
 10
296.4935301993141
 20
24.03780923878222
 30
0.0
 10
293.2448051567235
 20
24.03780923878222
 30
0.0
 10
293.2448051567235
 20
24.03780923878222
 30
0.0
 10
293.1070013373135
 20
24.03780923878222
 30
0.0
 10
292.9933131863003
 20
23.92653265460865
 30
0.0
 10
292.9933131863003
 20
23.78907334474718
 30
0.0
 10
292.9933131863003
 20
23.78907334474718
 30
0.0
 10
292.9933131863003
 20
20.54138183080216
 30
0.0
 10
292.9933131863003
 20
20.54138183080216
 30
0.0
 10
292.9933131863003
 20
20.40254448274659
 30
0.0
 10
293.1070013373135
 20
20.29092338902449
 30
0.0
 10
293.2448051567235
 20
20.29092338902449
 30
0.0
 10
293.2448051567235
 20
20.29092338902449
 30
0.0
 10
296.4935301993141
 20
20.29092338902449
 30
0.0
 10
296.4935301993141
 20
20.29092338902449
 30
0.0
  0
HATCH
  5
176
330
15E
100
AcDbEntity
  8
Dimension Layer
 62
   250
420
  2234388
100
AcDbHatch
 10
0.0
 20
0.0
 30
0.0
210
0.0
220
0.0
230
1.0
  2
SOLID
 70
     1
 71
     0
 91
        1
 92
        1
 93
        1
 72
     4
 94
        3
 73
     0
 74
     1
 95
       29
 96
       25
 40
0.0
 40
0.0
 40
0.0
 40
0.0
 40
1.0
 40
1.0
 40
1.0
 40
2.0
 40
2.0
 40
2.0
 40
3.0
 40
3.0
 40
3.0
 40
4.0
 40
4.0
 40
4.0
 40
5.0
 40
5.0
 40
5.0
 40
6.0
 40
6.0
 40
6.0
 40
7.0
 40
7.0
 40
7.0
 40
8.0
 40
8.0
 40
8.0
 40
8.0
 10
296.4935301993141
 20
20.29092338902449
 10
296.6306449996271
 20
20.29092338902449
 10
296.7415770742521
 20
20.40254448274659
 10
296.7415770742521
 20
20.54138183080216
 10
296.7415770742521
 20
20.54138183080216
 10
296.7415770742521
 20
23.78907334474718
 10
296.7415770742521
 20
23.78907334474718
 10
296.7415770742521
 20
23.92653265460865
 10
296.6306449996271
 20
24.03780923878222
 10
296.4935301993141
 20
24.03780923878222
 10
296.4935301993141
 20
24.03780923878222
 10
293.2448051567235
 20
24.03780923878222
 10
293.2448051567235
 20
24.03780923878222
 10
293.1070013373135
 20
24.03780923878222
 10
292.9933131863003
 20
23.92653265460865
 10
292.9933131863003
 20
23.78907334474718
 10
292.9933131863003
 20
23.78907334474718
 10
292.9933131863003
 20
20.54138183080216
 10
292.9933131863003
 20
20.54138183080216
 10
292.9933131863003
 20
20.40254448274659
 10
293.1070013373135
 20
20.29092338902449
 10
293.2448051567235
 20
20.29092338902449
 10
293.2448051567235
 20
20.29092338902449
 10
296.4935301993141
 20
20.29092338902449
 10
296.4935301993141
 20
20.29092338902449
 97
        0
 75
     2
 76
     1
 98
        0
  0
SPLINE
  5
177
330
15E
100
AcDbEntity
  8
Dimension Layer
370
     0
100
AcDbSpline
210
0.0
220
0.0
230
1.0
 70
    11
 71
     3
 72
    29
 73
    25
 74
     0
 42
0.0000000001
 43
0.0000000001
 40
0.0
 40
0.0
 40
0.0
 40
0.0
 40
1.0
 40
1.0
 40
1.0
 40
2.0
 40
2.0
 40
2.0
 40
3.0
 40
3.0
 40
3.0
 40
4.0
 40
4.0
 40
4.0
 40
5.0
 40
5.0
 40
5.0
 40
6.0
 40
6.0
 40
6.0
 40
7.0
 40
7.0
 40
7.0
 40
8.0
 40
8.0
 40
8.0
 40
8.0
 10
300.24317212546
 20
24.04022080562189
 30
0.0
 10
300.380286925773
 20
24.04022080562189
 30
0.0
 10
300.4925970385921
 20
24.15253091844103
 30
0.0
 10
300.4925970385921
 20
24.28964571875398
 30
0.0
 10
300.4925970385921
 20
24.28964571875398
 30
0.0
 10
300.4925970385921
 20
27.53837076134457
 30
0.0
 10
300.4925970385921
 20
27.53837076134457
 30
0.0
 10
300.4925970385921
 20
27.67686359985162
 30
0.0
 10
300.380286925773
 20
27.78779567447666
 30
0.0
 10
300.24317212546
 20
27.78779567447666
 30
0.0
 10
300.24317212546
 20
27.78779567447666
 30
0.0
 10
296.9937580637724
 20
27.78779567447666
 30
0.0
 10
296.9937580637724
 20
27.78779567447666
 30
0.0
 10
296.8556097348139
 20
27.78779567447666
 30
0.0
 10
296.7450221697374
 20
27.67686359985162
 30
0.0
 10
296.7450221697374
 20
27.53837076134457
 30
0.0
 10
296.7450221697374
 20
27.53837076134457
 30
0.0
 10
296.7450221697374
 20
24.28964571875398
 30
0.0
 10
296.7450221697374
 20
24.28964571875398
 30
0.0
 10
296.7450221697374
 20
24.15253091844103
 30
0.0
 10
296.8556097348139
 20
24.04022080562189
 30
0.0
 10
296.9937580637724
 20
24.04022080562189
 30
0.0
 10
296.9937580637724
 20
24.04022080562189
 30
0.0
 10
300.24317212546
 20
24.04022080562189
 30
0.0
 10
300.24317212546
 20
24.04022080562189
 30
0.0
  0
HATCH
  5
178
330
15E
100
AcDbEntity
  8
Dimension Layer
 62
   250
420
  2234388
100
AcDbHatch
 10
0.0
 20
0.0
 30
0.0
210
0.0
220
0.0
230
1.0
  2
SOLID
 70
     1
 71
     0
 91
        1
 92
        1
 93
        1
 72
     4
 94
        3
 73
     0
 74
     1
 95
       29
 96
       25
 40
0.0
 40
0.0
 40
0.0
 40
0.0
 40
1.0
 40
1.0
 40
1.0
 40
2.0
 40
2.0
 40
2.0
 40
3.0
 40
3.0
 40
3.0
 40
4.0
 40
4.0
 40
4.0
 40
5.0
 40
5.0
 40
5.0
 40
6.0
 40
6.0
 40
6.0
 40
7.0
 40
7.0
 40
7.0
 40
8.0
 40
8.0
 40
8.0
 40
8.0
 10
300.24317212546
 20
24.04022080562189
 10
300.380286925773
 20
24.04022080562189
 10
300.4925970385921
 20
24.15253091844103
 10
300.4925970385921
 20
24.28964571875398
 10
300.4925970385921
 20
24.28964571875398
 10
300.4925970385921
 20
27.53837076134457
 10
300.4925970385921
 20
27.53837076134457
 10
300.4925970385921
 20
27.67686359985162
 10
300.380286925773
 20
27.78779567447666
 10
300.24317212546
 20
27.78779567447666
 10
300.24317212546
 20
27.78779567447666
 10
296.9937580637724
 20
27.78779567447666
 10
296.9937580637724
 20
27.78779567447666
 10
296.8556097348139
 20
27.78779567447666
 10
296.7450221697374
 20
27.67686359985162
 10
296.7450221697374
 20
27.53837076134457
 10
296.7450221697374
 20
27.53837076134457
 10
296.7450221697374
 20
24.28964571875398
 10
296.7450221697374
 20
24.28964571875398
 10
296.7450221697374
 20
24.15253091844103
 10
296.8556097348139
 20
24.04022080562189
 10
296.9937580637724
 20
24.04022080562189
 10
296.9937580637724
 20
24.04022080562189
 10
300.24317212546
 20
24.04022080562189
 10
300.24317212546
 20
24.04022080562189
 97
        0
 75
     2
 76
     1
 98
        0
  0
SPLINE
  5
179
330
15E
100
AcDbEntity
  8
Dimension Layer
370
     0
100
AcDbSpline
210
0.0
220
0.0
230
1.0
 70
    11
 71
     3
 72
    29
 73
    25
 74
     0
 42
0.0000000001
 43
0.0000000001
 40
0.0
 40
0.0
 40
0.0
 40
0.0
 40
1.0
 40
1.0
 40
1.0
 40
2.0
 40
2.0
 40
2.0
 40
3.0
 40
3.0
 40
3.0
 40
4.0
 40
4.0
 40
4.0
 40
5.0
 40
5.0
 40
5.0
 40
6.0
 40
6.0
 40
6.0
 40
7.0
 40
7.0
 40
7.0
 40
8.0
 40
8.0
 40
8.0
 40
8.0
 10
292.7438882731682
 20
16.54093695333004
 30
0.0
 10
292.8816920925782
 20
16.54093695333004
 30
0.0
 10
292.9926241672032
 20
16.65290255660067
 30
0.0
 10
292.9926241672032
 20
16.79105088555918
 30
0.0
 10
292.9926241672032
 20
16.79105088555918
 30
0.0
 10
292.9926241672032
 20
20.03943141860125
 30
0.0
 10
292.9926241672032
 20
20.03943141860125
 30
0.0
 10
292.9926241672032
 20
20.1765462189142
 30
0.0
 10
292.8816920925782
 20
20.28851182218482
 30
0.0
 10
292.7438882731682
 20
20.28851182218482
 30
0.0
 10
292.7438882731682
 20
20.28851182218482
 30
0.0
 10
289.4951632305776
 20
20.28851182218482
 30
0.0
 10
289.4951632305776
 20
20.28851182218482
 30
0.0
 10
289.355636863425
 20
20.28851182218482
 30
0.0
 10
289.2450492983485
 20
20.1765462189142
 30
0.0
 10
289.2450492983485
 20
20.03943141860125
 30
0.0
 10
289.2450492983485
 20
20.03943141860125
 30
0.0
 10
289.2450492983485
 20
16.79105088555918
 30
0.0
 10
289.2450492983485
 20
16.79105088555918
 30
0.0
 10
289.2450492983485
 20
16.65290255660067
 30
0.0
 10
289.355636863425
 20
16.54093695333004
 30
0.0
 10
289.4951632305776
 20
16.54093695333004
 30
0.0
 10
289.4951632305776
 20
16.54093695333004
 30
0.0
 10
292.7438882731682
 20
16.54093695333004
 30
0.0
 10
292.7438882731682
 20
16.54093695333004
 30
0.0
  0
HATCH
  5
17A
330
15E
100
AcDbEntity
  8
Dimension Layer
 62
   250
420
  2234388
100
AcDbHatch
 10
0.0
 20
0.0
 30
0.0
210
0.0
220
0.0
230
1.0
  2
SOLID
 70
     1
 71
     0
 91
        1
 92
        1
 93
        1
 72
     4
 94
        3
 73
     0
 74
     1
 95
       29
 96
       25
 40
0.0
 40
0.0
 40
0.0
 40
0.0
 40
1.0
 40
1.0
 40
1.0
 40
2.0
 40
2.0
 40
2.0
 40
3.0
 40
3.0
 40
3.0
 40
4.0
 40
4.0
 40
4.0
 40
5.0
 40
5.0
 40
5.0
 40
6.0
 40
6.0
 40
6.0
 40
7.0
 40
7.0
 40
7.0
 40
8.0
 40
8.0
 40
8.0
 40
8.0
 10
292.7438882731682
 20
16.54093695333004
 10
292.8816920925782
 20
16.54093695333004
 10
292.9926241672032
 20
16.65290255660067
 10
292.9926241672032
 20
16.79105088555918
 10
292.9926241672032
 20
16.79105088555918
 10
292.9926241672032
 20
20.03943141860125
 10
292.9926241672032
 20
20.03943141860125
 10
292.9926241672032
 20
20.1765462189142
 10
292.8816920925782
 20
20.28851182218482
 10
292.7438882731682
 20
20.28851182218482
 10
292.7438882731682
 20
20.28851182218482
 10
289.4951632305776
 20
20.28851182218482
 10
289.4951632305776
 20
20.28851182218482
 10
289.355636863425
 20
20.28851182218482
 10
289.2450492983485
 20
20.1765462189142
 10
289.2450492983485
 20
20.03943141860125
 10
289.2450492983485
 20
20.03943141860125
 10
289.2450492983485
 20
16.79105088555918
 10
289.2450492983485
 20
16.79105088555918
 10
289.2450492983485
 20
16.65290255660067
 10
289.355636863425
 20
16.54093695333004
 10
289.4951632305776
 20
16.54093695333004
 10
289.4951632305776
 20
16.54093695333004
 10
292.7438882731682
 20
16.54093695333004
 10
292.7438882731682
 20
16.54093695333004
 97
        0
 75
     2
 76
     1
 98
        0
  0
ENDBLK
  5
161
330
15E
100
AcDbEntity
  8
0
100
AcDbBlockEnd
  0
BLOCK
  5
1B4
330
1B2
100
AcDbEntity
  8
0
100
AcDbBlockBegin
  2
block 9
 70
     0
 71
     0
 10
0.0
 20
0.0
 30
0.0
  3
block 9
  1

  0
SPLINE
  5
1B6
330
1B2
100
AcDbEntity
  8
Dimension Layer
370
     0
100
AcDbSpline
210
0.0
220
0.0
230
1.0
 70
    11
 71
     3
 72
    23
 73
    19
 74
     0
 42
0.0000000001
 43
0.0000000001
 40
0.0
 40
0.0
 40
0.0
 40
0.0
 40
1.0
 40
1.0
 40
1.0
 40
2.0
 40
2.0
 40
2.0
 40
3.0
 40
3.0
 40
3.0
 40
4.0
 40
4.0
 40
4.0
 40
5.0
 40
5.0
 40
5.0
 40
6.0
 40
6.0
 40
6.0
 40
6.0
 10
347.7985811847518
 20
29.90411783106564
 30
0.0
 10
347.7985811847518
 20
29.90411783106564
 30
0.0
 10
347.7985811847518
 20
29.07867295279978
 30
0.0
 10
347.7985811847518
 20
29.07867295279978
 30
0.0
 10
347.698328906131
 20
29.20889756214222
 30
0.0
 10
347.388614822007
 20
29.61886392488695
 30
0.0
 10
347.2342745442679
 20
29.99851344736149
 30
0.0
 10
347.2342745442679
 20
29.99851344736149
 30
0.0
 10
347.2342745442679
 20
30.25965168514342
 30
0.0
 10
347.2342745442679
 20
30.25965168514342
 30
0.0
 10
347.2342745442679
 20
30.25965168514342
 30
0.0
 10
347.7799776691314
 20
30.25965168514342
 30
0.0
 10
347.7799776691314
 20
30.25965168514342
 30
0.0
 10
347.7799776691314
 20
30.25965168514342
 30
0.0
 10
348.2374863495726
 20
29.90411783106564
 30
0.0
 10
348.2374863495726
 20
29.90411783106564
 30
0.0
 10
348.2374863495726
 20
29.90411783106564
 30
0.0
 10
347.7985811847518
 20
29.90411783106564
 30
0.0
 10
347.7985811847518
 20
29.90411783106564
 30
0.0
  0
SPLINE
  5
1B7
330
1B2
100
AcDbEntity
  8
Dimension Layer
370
     0
100
AcDbSpline
210
0.0
220
0.0
230
1.0
 70
    11
 71
     3
 72
   128
 73
   124
 74
     0
 42
0.0000000001
 43
0.0000000001
 40
0.0
 40
0.0
 40
0.0
 40
0.0
 40
1.0
 40
1.0
 40
1.0
 40
2.0
 40
2.0
 40
2.0
 40
3.0
 40
3.0
 40
3.0
 40
4.0
 40
4.0
 40
4.0
 40
5.0
 40
5.0
 40
5.0
 40
6.0
 40
6.0
 40
6.0
 40
7.0
 40
7.0
 40
7.0
 40
8.0
 40
8.0
 40
8.0
 40
9.0
 40
9.0
 40
9.0
 40
10.0
 40
10.0
 40
10.0
 40
11.0
 40
11.0
 40
11.0
 40
12.0
 40
12.0
 40
12.0
 40
13.0
 40
13.0
 40
13.0
 40
14.0
 40
14.0
 40
14.0
 40
15.0
 40
15.0
 40
15.0
 40
16.0
 40
16.0
 40
16.0
 40
17.0
 40
17.0
 40
17.0
 40
18.0
 40
18.0
 40
18.0
 40
19.0
 40
19.0
 40
19.0
 40
20.0
 40
20.0
 40
20.0
 40
21.0
 40
21.0
 40
21.0
 40
22.0
 40
22.0
 40
22.0
 40
23.0
 40
23.0
 40
23.0
 40
24.0
 40
24.0
 40
24.0
 40
25.0
 40
25.0
 40
25.0
 40
26.0
 40
26.0
 40
26.0
 40
27.0
 40
27.0
 40
27.0
 40
28.0
 40
28.0
 40
28.0
 40
29.0
 40
29.0
 40
29.0
 40
30.0
 40
30.0
 40
30.0
 40
31.0
 40
31.0
 40
31.0
 40
32.0
 40
32.0
 40
32.0
 40
33.0
 40
33.0
 40
33.0
 40
34.0
 40
34.0
 40
34.0
 40
35.0
 40
35.0
 40
35.0
 40
36.0
 40
36.0
 40
36.0
 40
37.0
 40
37.0
 40
37.0
 40
38.0
 40
38.0
 40
38.0
 40
39.0
 40
39.0
 40
39.0
 40
40.0
 40
40.0
 40
40.0
 40
41.0
 40
41.0
 40
41.0
 40
41.0
 10
348.8603596133058
 20
31.31040580814462
 30
0.0
 10
348.9209932938462
 20
31.57774521780001
 30
0.0
 10
348.9499320959222
 20
31.7251953045687
 30
0.0
 10
348.9795599170954
 20
31.87471244862855
 30
0.0
 10
348.9795599170954
 20
31.87471244862855
 30
0.0
 10
348.1782307072263
 20
31.94568141562469
 30
0.0
 10
348.1782307072263
 20
31.94568141562469
 30
0.0
 10
348.0952039060318
 20
31.33383245744432
 30
0.0
 10
347.9108912975709
 20
30.92455511379664
 30
0.0
 10
347.7985811847518
 20
30.7102701746141
 30
0.0
 10
347.7985811847518
 20
30.7102701746141
 30
0.0
 10
347.7985811847518
 20
31.07889539153583
 30
0.0
 10
347.7985811847518
 20
31.07889539153583
 30
0.0
 10
347.7985811847518
 20
31.07889539153583
 30
0.0
 10
347.2342745442679
 20
31.07889539153583
 30
0.0
 10
347.2342745442679
 20
31.07889539153583
 30
0.0
 10
347.2342745442679
 20
31.07889539153583
 30
0.0
 10
347.2342745442679
 20
32.05799152844384
 30
0.0
 10
347.2342745442679
 20
32.05799152844384
 30
0.0
 10
347.2342745442679
 20
32.05799152844384
 30
0.0
 10
346.4157198569725
 20
32.05799152844384
 30
0.0
 10
346.4157198569725
 20
32.05799152844384
 30
0.0
 10
346.4157198569725
 20
32.05799152844384
 30
0.0
 10
346.4157198569725
 20
31.07889539153583
 30
0.0
 10
346.4157198569725
 20
31.07889539153583
 30
0.0
 10
346.4157198569725
 20
31.07889539153583
 30
0.0
 10
345.6908717668759
 20
31.07889539153583
 30
0.0
 10
345.6908717668759
 20
31.07889539153583
 30
0.0
 10
345.6908717668759
 20
31.07889539153583
 30
0.0
 10
345.6908717668759
 20
30.25965168514342
 30
0.0
 10
345.6908717668759
 20
30.25965168514342
 30
0.0
 10
345.6908717668759
 20
30.25965168514342
 30
0.0
 10
346.3502630427527
 20
30.25965168514342
 30
0.0
 10
346.3502630427527
 20
30.25965168514342
 30
0.0
 10
346.0829236330973
 20
29.32809786593187
 30
0.0
 10
345.8217853953154
 20
28.93673501880749
 30
0.0
 10
345.5785616540568
 20
28.6335666161055
 30
0.0
 10
345.5785616540568
 20
28.6335666161055
 30
0.0
 10
345.857614388362
 20
27.46499022750875
 30
0.0
 10
345.857614388362
 20
27.46499022750875
 30
0.0
 10
346.0002413414513
 20
27.67169595662374
 30
0.0
 10
346.2193494143132
 20
28.01000433327528
 30
0.0
 10
346.4157198569725
 20
28.68662108657835
 30
0.0
 10
346.4157198569725
 20
28.68662108657835
 30
0.0
 10
346.4157198569725
 20
26.4369737347102
 30
0.0
 10
346.4157198569725
 20
26.4369737347102
 30
0.0
 10
346.4157198569725
 20
26.4369737347102
 30
0.0
 10
347.2342745442679
 20
26.4369737347102
 30
0.0
 10
347.2342745442679
 20
26.4369737347102
 30
0.0
 10
347.2342745442679
 20
26.4369737347102
 30
0.0
 10
347.2342745442679
 20
28.91261935041074
 30
0.0
 10
347.2342745442679
 20
28.91261935041074
 30
0.0
 10
347.2935301866141
 20
28.67008462824915
 30
0.0
 10
347.3238470268843
 20
28.54468315258605
 30
0.0
 10
347.5725829209194
 20
28.08166231936848
 30
0.0
 10
347.5725829209194
 20
28.08166231936848
 30
0.0
 10
348.0838350909304
 20
28.75827907267154
 30
0.0
 10
348.0838350909304
 20
28.75827907267154
 30
0.0
 10
347.9942626083139
 20
28.84096136431754
 30
0.0
 10
347.9294948131912
 20
28.90710719763434
 30
0.0
 10
347.8102945094016
 20
29.05455728440303
 30
0.0
 10
347.8102945094016
 20
29.05455728440303
 30
0.0
 10
348.8603596133058
 20
29.05455728440303
 30
0.0
 10
348.8603596133058
 20
29.05455728440303
 30
0.0
 10
348.374256640337
 20
28.16985676379087
 30
0.0
 10
347.7689533635786
 20
27.76057942014319
 30
0.0
 10
347.5250406032229
 20
27.606239142404
 30
0.0
 10
347.5250406032229
 20
27.606239142404
 30
0.0
 10
348.0473170787868
 20
26.76976995858534
 30
0.0
 10
348.0473170787868
 20
26.76976995858534
 30
0.0
 10
348.5217067271057
 20
27.20316297062977
 30
0.0
 10
348.8968776254494
 20
27.70752494967034
 30
0.0
 10
349.1690401687841
 20
28.29525823945396
 30
0.0
 10
349.1690401687841
 20
28.29525823945396
 30
0.0
 10
349.1690401687841
 20
26.4369737347102
 30
0.0
 10
349.1690401687841
 20
26.4369737347102
 30
0.0
 10
349.1690401687841
 20
26.4369737347102
 30
0.0
 10
350.0179116963497
 20
26.4369737347102
 30
0.0
 10
350.0179116963497
 20
26.4369737347102
 30
0.0
 10
350.0179116963497
 20
26.4369737347102
 30
0.0
 10
350.0179116963497
 20
28.15952147733512
 30
0.0
 10
350.0179116963497
 20
28.15952147733512
 30
0.0
 10
350.2673366094818
 20
27.63104382989779
 30
0.0
 10
350.6063340052304
 20
27.14321830918642
 30
0.0
 10
351.069354838448
 20
26.78079426413814
 30
0.0
 10
351.069354838448
 20
26.78079426413814
 30
0.0
 10
351.4186875206523
 20
27.78469508853994
 30
0.0
 10
351.4186875206523
 20
27.78469508853994
 30
0.0
 10
351.1575492828704
 20
27.96246201557883
 30
0.0
 10
350.6945284496528
 20
28.29525823945396
 30
0.0
 10
350.2618244567054
 20
29.05455728440303
 30
0.0
 10
350.2618244567054
 20
29.05455728440303
 30
0.0
 10
351.3118895606095
 20
29.05455728440303
 30
0.0
 10
351.3118895606095
 20
29.05455728440303
 30
0.0
 10
351.3118895606095
 20
29.05455728440303
 30
0.0
 10
351.3118895606095
 20
29.90411783106564
 30
0.0
 10
351.3118895606095
 20
29.90411783106564
 30
0.0
 10
351.3118895606095
 20
29.90411783106564
 30
0.0
 10
350.0179116963497
 20
29.90411783106564
 30
0.0
 10
350.0179116963497
 20
29.90411783106564
 30
0.0
 10
350.0179116963497
 20
29.90411783106564
 30
0.0
 10
350.0179116963497
 20
30.46773545245251
 30
0.0
 10
350.0179116963497
 20
30.46773545245251
 30
0.0
 10
350.0179116963497
 20
30.46773545245251
 30
0.0
 10
351.2230060970901
 20
30.46773545245251
 30
0.0
 10
351.2230060970901
 20
30.46773545245251
 30
0.0
 10
351.2230060970901
 20
30.46773545245251
 30
0.0
 10
351.2230060970901
 20
31.31040580814462
 30
0.0
 10
351.2230060970901
 20
31.31040580814462
 30
0.0
 10
351.2230060970901
 20
31.31040580814462
 30
0.0
 10
350.0179116963497
 20
31.31040580814462
 30
0.0
 10
350.0179116963497
 20
31.31040580814462
 30
0.0
 10
350.0179116963497
 20
31.31040580814462
 30
0.0
 10
350.0179116963497
 20
32.05799152844384
 30
0.0
 10
350.0179116963497
 20
32.05799152844384
 30
0.0
 10
350.0179116963497
 20
32.05799152844384
 30
0.0
 10
349.1690401687841
 20
32.05799152844384
 30
0.0
 10
349.1690401687841
 20
32.05799152844384
 30
0.0
 10
349.1690401687841
 20
32.05799152844384
 30
0.0
 10
349.1690401687841
 20
31.31040580814462
 30
0.0
 10
349.1690401687841
 20
31.31040580814462
 30
0.0
 10
349.1690401687841
 20
31.31040580814462
 30
0.0
 10
348.8603596133058
 20
31.31040580814462
 30
0.0
 10
348.8603596133058
 20
31.31040580814462
 30
0.0
  0
SPLINE
  5
1B8
330
1B2
100
AcDbEntity
  8
Dimension Layer
370
     0
100
AcDbSpline
210
0.0
220
0.0
230
1.0
 70
    11
 71
     3
 72
    17
 73
    13
 74
     0
 42
0.0000000001
 43
0.0000000001
 40
0.0
 40
0.0
 40
0.0
 40
0.0
 40
1.0
 40
1.0
 40
1.0
 40
2.0
 40
2.0
 40
2.0
 40
3.0
 40
3.0
 40
3.0
 40
4.0
 40
4.0
 40
4.0
 40
4.0
 10
348.3084553165687
 20
29.90411783106564
 30
0.0
 10
348.3980277991852
 20
30.03434244040808
 30
0.0
 10
348.504825759228
 20
30.22451171119387
 30
0.0
 10
348.6061115664943
 20
30.46773545245251
 30
0.0
 10
348.6061115664943
 20
30.46773545245251
 30
0.0
 10
349.1690401687841
 20
30.46773545245251
 30
0.0
 10
349.1690401687841
 20
30.46773545245251
 30
0.0
 10
349.1690401687841
 20
30.46773545245251
 30
0.0
 10
349.1690401687841
 20
29.90411783106564
 30
0.0
 10
349.1690401687841
 20
29.90411783106564
 30
0.0
 10
349.1690401687841
 20
29.90411783106564
 30
0.0
 10
348.3084553165687
 20
29.90411783106564
 30
0.0
 10
348.3084553165687
 20
29.90411783106564
 30
0.0
  0
HATCH
  5
1B9
330
1B2
100
AcDbEntity
  8
Dimension Layer
 62
   250
420
  2234388
100
AcDbHatch
 10
0.0
 20
0.0
 30
0.0
210
0.0
220
0.0
230
1.0
  2
SOLID
 70
     1
 71
     0
 91
        3
 92
        1
 93
        1
 72
     4
 94
        3
 73
     0
 74
     1
 95
       17
 96
       13
 40
0.0
 40
0.0
 40
0.0
 40
0.0
 40
1.0
 40
1.0
 40
1.0
 40
2.0
 40
2.0
 40
2.0
 40
3.0
 40
3.0
 40
3.0
 40
4.0
 40
4.0
 40
4.0
 40
4.0
 10
348.3084553165687
 20
29.90411783106564
 10
348.3980277991852
 20
30.03434244040808
 10
348.504825759228
 20
30.22451171119387
 10
348.6061115664943
 20
30.46773545245251
 10
348.6061115664943
 20
30.46773545245251
 10
349.1690401687841
 20
30.46773545245251
 10
349.1690401687841
 20
30.46773545245251
 10
349.1690401687841
 20
30.46773545245251
 10
349.1690401687841
 20
29.90411783106564
 10
349.1690401687841
 20
29.90411783106564
 10
349.1690401687841
 20
29.90411783106564
 10
348.3084553165687
 20
29.90411783106564
 10
348.3084553165687
 20
29.90411783106564
 97
        0
 92
        1
 93
        2
 72
     4
 94
        3
 73
     0
 74
     0
 95
       23
 96
       19
 40
0.0
 40
0.0
 40
0.0
 40
0.0
 40
0.3527777776895833
 40
0.3527777776895833
 40
0.3527777776895833
 40
0.7055555553791667
 40
0.7055555553791667
 40
0.7055555553791667
 40
1.05833333306875
 40
1.05833333306875
 40
1.05833333306875
 40
1.411111110758333
 40
1.411111110758333
 40
1.411111110758333
 40
1.763888888447917
 40
1.763888888447917
 40
1.763888888447917
 40
2.1166666661375
 40
2.1166666661375
 40
2.1166666661375
 40
2.1166666661375
 10
347.7985811847518
 20
29.90411783106564
 10
347.7985811847518
 20
29.90411783106564
 10
347.7985811847518
 20
29.07867295279978
 10
347.7985811847518
 20
29.07867295279978
 10
347.698328906131
 20
29.20889756214222
 10
347.388614822007
 20
29.61886392488695
 10
347.2342745442679
 20
29.99851344736149
 10
347.2342745442679
 20
29.99851344736149
 10
347.2342745442679
 20
30.25965168514342
 10
347.2342745442679
 20
30.25965168514342
 10
347.2342745442679
 20
30.25965168514342
 10
347.7799776691314
 20
30.25965168514342
 10
347.7799776691314
 20
30.25965168514342
 10
347.7799776691314
 20
30.25965168514342
 10
348.2374863495726
 20
29.90411783106564
 10
348.2374863495726
 20
29.90411783106564
 10
348.2374863495726
 20
29.90411783106564
 10
347.7985811847518
 20
29.90411783106564
 10
347.7985811847518
 20
29.90411783106564
 72
     1
 10
347.7985811847518
 20
29.90411783106564
 11
347.7985811847518
 21
29.90411783106564
 97
        0
 92
        1
 93
        2
 72
     4
 94
        3
 73
     0
 74
     0
 95
      128
 96
      124
 40
0.0
 40
0.0
 40
0.0
 40
0.0
 40
0.3527777776895833
 40
0.3527777776895833
 40
0.3527777776895833
 40
0.7055555553791667
 40
0.7055555553791667
 40
0.7055555553791667
 40
1.05833333306875
 40
1.05833333306875
 40
1.05833333306875
 40
1.411111110758333
 40
1.411111110758333
 40
1.411111110758333
 40
1.763888888447917
 40
1.763888888447917
 40
1.763888888447917
 40
2.1166666661375
 40
2.1166666661375
 40
2.1166666661375
 40
2.469444443827083
 40
2.469444443827083
 40
2.469444443827083
 40
2.822222221516667
 40
2.822222221516667
 40
2.822222221516667
 40
3.17499999920625
 40
3.17499999920625
 40
3.17499999920625
 40
3.527777776895833
 40
3.527777776895833
 40
3.527777776895833
 40
3.880555554585417
 40
3.880555554585417
 40
3.880555554585417
 40
4.233333332275
 40
4.233333332275
 40
4.233333332275
 40
4.586111109964584
 40
4.586111109964584
 40
4.586111109964584
 40
4.938888887654167
 40
4.938888887654167
 40
4.938888887654167
 40
5.29166666534375
 40
5.29166666534375
 40
5.29166666534375
 40
5.644444443033334
 40
5.644444443033334
 40
5.644444443033334
 40
5.997222220722917
 40
5.997222220722917
 40
5.997222220722917
 40
6.349999998412501
 40
6.349999998412501
 40
6.349999998412501
 40
6.702777776102083
 40
6.702777776102083
 40
6.702777776102083
 40
7.055555553791667
 40
7.055555553791667
 40
7.055555553791667
 40
7.40833333148125
 40
7.40833333148125
 40
7.40833333148125
 40
7.761111109170834
 40
7.761111109170834
 40
7.761111109170834
 40
8.113888886860417
 40
8.113888886860417
 40
8.113888886860417
 40
8.46666666455
 40
8.46666666455
 40
8.46666666455
 40
8.819444442239584
 40
8.819444442239584
 40
8.819444442239584
 40
9.172222219929168
 40
9.172222219929168
 40
9.172222219929168
 40
9.52499999761875
 40
9.52499999761875
 40
9.52499999761875
 40
9.877777775308333
 40
9.877777775308333
 40
9.877777775308333
 40
10.23055555299792
 40
10.23055555299792
 40
10.23055555299792
 40
10.5833333306875
 40
10.5833333306875
 40
10.5833333306875
 40
10.93611110837708
 40
10.93611110837708
 40
10.93611110837708
 40
11.28888888606667
 40
11.28888888606667
 40
11.28888888606667
 40
11.64166666375625
 40
11.64166666375625
 40
11.64166666375625
 40
11.99444444144583
 40
11.99444444144583
 40
11.99444444144583
 40
12.34722221913542
 40
12.34722221913542
 40
12.34722221913542
 40
12.699999996825
 40
12.699999996825
 40
12.699999996825
 40
13.05277777451458
 40
13.05277777451458
 40
13.05277777451458
 40
13.40555555220417
 40
13.40555555220417
 40
13.40555555220417
 40
13.75833332989375
 40
13.75833332989375
 40
13.75833332989375
 40
14.11111110758333
 40
14.11111110758333
 40
14.11111110758333
 40
14.46388888527292
 40
14.46388888527292
 40
14.46388888527292
 40
14.46388888527292
 10
348.8603596133058
 20
31.31040580814462
 10
348.9209932938462
 20
31.57774521780001
 10
348.9499320959222
 20
31.7251953045687
 10
348.9795599170954
 20
31.87471244862855
 10
348.9795599170954
 20
31.87471244862855
 10
348.1782307072263
 20
31.94568141562469
 10
348.1782307072263
 20
31.94568141562469
 10
348.0952039060318
 20
31.33383245744432
 10
347.9108912975709
 20
30.92455511379664
 10
347.7985811847518
 20
30.7102701746141
 10
347.7985811847518
 20
30.7102701746141
 10
347.7985811847518
 20
31.07889539153583
 10
347.7985811847518
 20
31.07889539153583
 10
347.7985811847518
 20
31.07889539153583
 10
347.2342745442679
 20
31.07889539153583
 10
347.2342745442679
 20
31.07889539153583
 10
347.2342745442679
 20
31.07889539153583
 10
347.2342745442679
 20
32.05799152844384
 10
347.2342745442679
 20
32.05799152844384
 10
347.2342745442679
 20
32.05799152844384
 10
346.4157198569725
 20
32.05799152844384
 10
346.4157198569725
 20
32.05799152844384
 10
346.4157198569725
 20
32.05799152844384
 10
346.4157198569725
 20
31.07889539153583
 10
346.4157198569725
 20
31.07889539153583
 10
346.4157198569725
 20
31.07889539153583
 10
345.6908717668759
 20
31.07889539153583
 10
345.6908717668759
 20
31.07889539153583
 10
345.6908717668759
 20
31.07889539153583
 10
345.6908717668759
 20
30.25965168514342
 10
345.6908717668759
 20
30.25965168514342
 10
345.6908717668759
 20
30.25965168514342
 10
346.3502630427527
 20
30.25965168514342
 10
346.3502630427527
 20
30.25965168514342
 10
346.0829236330973
 20
29.32809786593187
 10
345.8217853953154
 20
28.93673501880749
 10
345.5785616540568
 20
28.6335666161055
 10
345.5785616540568
 20
28.6335666161055
 10
345.857614388362
 20
27.46499022750875
 10
345.857614388362
 20
27.46499022750875
 10
346.0002413414513
 20
27.67169595662374
 10
346.2193494143132
 20
28.01000433327528
 10
346.4157198569725
 20
28.68662108657835
 10
346.4157198569725
 20
28.68662108657835
 10
346.4157198569725
 20
26.4369737347102
 10
346.4157198569725
 20
26.4369737347102
 10
346.4157198569725
 20
26.4369737347102
 10
347.2342745442679
 20
26.4369737347102
 10
347.2342745442679
 20
26.4369737347102
 10
347.2342745442679
 20
26.4369737347102
 10
347.2342745442679
 20
28.91261935041074
 10
347.2342745442679
 20
28.91261935041074
 10
347.2935301866141
 20
28.67008462824915
 10
347.3238470268843
 20
28.54468315258605
 10
347.5725829209194
 20
28.08166231936848
 10
347.5725829209194
 20
28.08166231936848
 10
348.0838350909304
 20
28.75827907267154
 10
348.0838350909304
 20
28.75827907267154
 10
347.9942626083139
 20
28.84096136431754
 10
347.9294948131912
 20
28.90710719763434
 10
347.8102945094016
 20
29.05455728440303
 10
347.8102945094016
 20
29.05455728440303
 10
348.8603596133058
 20
29.05455728440303
 10
348.8603596133058
 20
29.05455728440303
 10
348.374256640337
 20
28.16985676379087
 10
347.7689533635786
 20
27.76057942014319
 10
347.5250406032229
 20
27.606239142404
 10
347.5250406032229
 20
27.606239142404
 10
348.0473170787868
 20
26.76976995858534
 10
348.0473170787868
 20
26.76976995858534
 10
348.5217067271057
 20
27.20316297062977
 10
348.8968776254494
 20
27.70752494967034
 10
349.1690401687841
 20
28.29525823945396
 10
349.1690401687841
 20
28.29525823945396
 10
349.1690401687841
 20
26.4369737347102
 10
349.1690401687841
 20
26.4369737347102
 10
349.1690401687841
 20
26.4369737347102
 10
350.0179116963497
 20
26.4369737347102
 10
350.0179116963497
 20
26.4369737347102
 10
350.0179116963497
 20
26.4369737347102
 10
350.0179116963497
 20
28.15952147733512
 10
350.0179116963497
 20
28.15952147733512
 10
350.2673366094818
 20
27.63104382989779
 10
350.6063340052304
 20
27.14321830918642
 10
351.069354838448
 20
26.78079426413814
 10
351.069354838448
 20
26.78079426413814
 10
351.4186875206523
 20
27.78469508853994
 10
351.4186875206523
 20
27.78469508853994
 10
351.1575492828704
 20
27.96246201557883
 10
350.6945284496528
 20
28.29525823945396
 10
350.2618244567054
 20
29.05455728440303
 10
350.2618244567054
 20
29.05455728440303
 10
351.3118895606095
 20
29.05455728440303
 10
351.3118895606095
 20
29.05455728440303
 10
351.3118895606095
 20
29.05455728440303
 10
351.3118895606095
 20
29.90411783106564
 10
351.3118895606095
 20
29.90411783106564
 10
351.3118895606095
 20
29.90411783106564
 10
350.0179116963497
 20
29.90411783106564
 10
350.0179116963497
 20
29.90411783106564
 10
350.0179116963497
 20
29.90411783106564
 10
350.0179116963497
 20
30.46773545245251
 10
350.0179116963497
 20
30.46773545245251
 10
350.0179116963497
 20
30.46773545245251
 10
351.2230060970901
 20
30.46773545245251
 10
351.2230060970901
 20
30.46773545245251
 10
351.2230060970901
 20
30.46773545245251
 10
351.2230060970901
 20
31.31040580814462
 10
351.2230060970901
 20
31.31040580814462
 10
351.2230060970901
 20
31.31040580814462
 10
350.0179116963497
 20
31.31040580814462
 10
350.0179116963497
 20
31.31040580814462
 10
350.0179116963497
 20
31.31040580814462
 10
350.0179116963497
 20
32.05799152844384
 10
350.0179116963497
 20
32.05799152844384
 10
350.0179116963497
 20
32.05799152844384
 10
349.1690401687841
 20
32.05799152844384
 10
349.1690401687841
 20
32.05799152844384
 10
349.1690401687841
 20
32.05799152844384
 10
349.1690401687841
 20
31.31040580814462
 10
349.1690401687841
 20
31.31040580814462
 10
349.1690401687841
 20
31.31040580814462
 10
348.8603596133058
 20
31.31040580814462
 10
348.8603596133058
 20
31.31040580814462
 72
     1
 10
348.8603596133058
 20
31.31040580814462
 11
348.8603596133058
 21
31.31040580814462
 97
        0
 75
     2
 76
     1
 98
        0
  0
SPLINE
  5
1BA
330
1B2
100
AcDbEntity
  8
Dimension Layer
370
     0
100
AcDbSpline
210
0.0
220
0.0
230
1.0
 70
    11
 71
     3
 72
    71
 73
    67
 74
     0
 42
0.0000000001
 43
0.0000000001
 40
0.0
 40
0.0
 40
0.0
 40
0.0
 40
1.0
 40
1.0
 40
1.0
 40
2.0
 40
2.0
 40
2.0
 40
3.0
 40
3.0
 40
3.0
 40
4.0
 40
4.0
 40
4.0
 40
5.0
 40
5.0
 40
5.0
 40
6.0
 40
6.0
 40
6.0
 40
7.0
 40
7.0
 40
7.0
 40
8.0
 40
8.0
 40
8.0
 40
9.0
 40
9.0
 40
9.0
 40
10.0
 40
10.0
 40
10.0
 40
11.0
 40
11.0
 40
11.0
 40
12.0
 40
12.0
 40
12.0
 40
13.0
 40
13.0
 40
13.0
 40
14.0
 40
14.0
 40
14.0
 40
15.0
 40
15.0
 40
15.0
 40
16.0
 40
16.0
 40
16.0
 40
17.0
 40
17.0
 40
17.0
 40
18.0
 40
18.0
 40
18.0
 40
19.0
 40
19.0
 40
19.0
 40
20.0
 40
20.0
 40
20.0
 40
21.0
 40
21.0
 40
21.0
 40
22.0
 40
22.0
 40
22.0
 40
22.0
 10
356.6841714603082
 20
31.24563801302192
 30
0.0
 10
356.6841714603082
 20
31.24563801302192
 30
0.0
 10
357.2415879098216
 20
31.24563801302192
 30
0.0
 10
357.2415879098216
 20
31.24563801302192
 30
0.0
 10
357.2415879098216
 20
31.24563801302192
 30
0.0
 10
357.2415879098216
 20
30.38436414170947
 30
0.0
 10
357.2415879098216
 20
30.38436414170947
 30
0.0
 10
357.2415879098216
 20
30.38436414170947
 30
0.0
 10
355.5913871723869
 20
30.38436414170947
 30
0.0
 10
355.5913871723869
 20
30.38436414170947
 30
0.0
 10
355.6279051845306
 20
29.6360894023132
 30
0.0
 10
355.7105874761766
 20
28.88884819156251
 30
0.0
 10
355.9476100455617
 20
28.17674695476137
 30
0.0
 10
356.0075547070051
 20
27.99898002772248
 30
0.0
 10
356.1667181184236
 20
27.5773003403279
 30
0.0
 10
356.3396619117831
 20
27.5773003403279
 30
0.0
 10
356.5057155141722
 20
27.5773003403279
 30
0.0
 10
356.8254203752034
 20
27.98657768397558
 30
0.0
 10
356.9632241946134
 20
28.38414170297341
 30
0.0
 10
356.9632241946134
 20
28.38414170297341
 30
0.0
 10
357.3428737170879
 20
27.43467338723855
 30
0.0
 10
357.3428737170879
 20
27.43467338723855
 30
0.0
 10
357.2181612605219
 20
27.09016383871357
 30
0.0
 10
356.9149928578199
 20
26.4259494291574
 30
0.0
 10
356.3637775801799
 20
26.4259494291574
 30
0.0
 10
356.0847248458747
 20
26.4259494291574
 30
0.0
 10
355.799470939696
 20
26.57960068779954
 30
0.0
 10
355.6389294900833
 20
26.75874565303254
 30
0.0
 10
354.7783446378679
 20
27.70752494967034
 30
0.0
 10
354.7190889955216
 20
29.42938367319821
 30
0.0
 10
354.6839490215721
 20
30.38436414170947
 30
0.0
 10
354.6839490215721
 20
30.38436414170947
 30
0.0
 10
351.6446857844847
 20
30.38436414170947
 30
0.0
 10
351.6446857844847
 20
30.38436414170947
 30
0.0
 10
351.6446857844847
 20
30.38436414170947
 30
0.0
 10
351.6446857844847
 20
31.24563801302192
 30
0.0
 10
351.6446857844847
 20
31.24563801302192
 30
0.0
 10
351.6446857844847
 20
31.24563801302192
 30
0.0
 10
354.654321200399
 20
31.24563801302192
 30
0.0
 10
354.654321200399
 20
31.24563801302192
 30
0.0
 10
354.6481200285255
 20
31.33383245744432
 30
0.0
 10
354.6364067038757
 20
31.7679144885858
 30
0.0
 10
354.6302055320022
 20
31.86231010488165
 30
0.0
 10
354.6302055320022
 20
31.91605359445154
 30
0.0
 10
354.6302055320022
 20
31.96290689305094
 30
0.0
 10
354.6240043601288
 20
32.06970485309369
 30
0.0
 10
354.6240043601288
 20
32.06970485309369
 30
0.0
 10
355.5741616949607
 20
32.06970485309369
 30
0.0
 10
355.5741616949607
 20
32.06970485309369
 30
0.0
 10
355.5676160135387
 20
31.60186088619676
 30
0.0
 10
355.5676160135387
 20
31.46474608588381
 30
0.0
 10
355.5741616949607
 20
31.24563801302192
 30
0.0
 10
355.5741616949607
 20
31.24563801302192
 30
0.0
 10
356.1560383224194
 20
31.24563801302192
 30
0.0
 10
356.1560383224194
 20
31.24563801302192
 30
0.0
 10
356.0013535351316
 20
31.47094725775726
 30
0.0
 10
355.8704399066921
 20
31.66111652854305
 30
0.0
 10
355.7223008008264
 20
31.7968532906619
 30
0.0
 10
355.7223008008264
 20
31.7968532906619
 30
0.0
 10
356.4884900367459
 20
32.10622286523733
 30
0.0
 10
356.4884900367459
 20
32.10622286523733
 30
0.0
 10
356.5766844811683
 20
32.04007703192054
 30
0.0
 10
356.6538546200379
 20
31.98633354235064
 30
0.0
 10
357.0645100018797
 20
31.41169161541097
 30
0.0
 10
357.0645100018797
 20
31.41169161541097
 30
0.0
 10
356.6841714603082
 20
31.24563801302192
 30
0.0
 10
356.6841714603082
 20
31.24563801302192
 30
0.0
  0
SPLINE
  5
1BB
330
1B2
100
AcDbEntity
  8
Dimension Layer
370
     0
100
AcDbSpline
210
0.0
220
0.0
230
1.0
 70
    11
 71
     3
 72
    44
 73
    40
 74
     0
 42
0.0000000001
 43
0.0000000001
 40
0.0
 40
0.0
 40
0.0
 40
0.0
 40
1.0
 40
1.0
 40
1.0
 40
2.0
 40
2.0
 40
2.0
 40
3.0
 40
3.0
 40
3.0
 40
4.0
 40
4.0
 40
4.0
 40
5.0
 40
5.0
 40
5.0
 40
6.0
 40
6.0
 40
6.0
 40
7.0
 40
7.0
 40
7.0
 40
8.0
 40
8.0
 40
8.0
 40
9.0
 40
9.0
 40
9.0
 40
10.0
 40
10.0
 40
10.0
 40
11.0
 40
11.0
 40
11.0
 40
12.0
 40
12.0
 40
12.0
 40
13.0
 40
13.0
 40
13.0
 40
13.0
 10
351.5916313140118
 20
27.49944118236125
 30
0.0
 10
351.703941426831
 20
27.5056423542347
 30
0.0
 10
351.7631970691773
 20
27.5056423542347
 30
0.0
 10
351.8403672080469
 20
27.51184352610815
 30
0.0
 10
351.9650796646129
 20
27.5180446979816
 30
0.0
 10
352.5645262790464
 20
27.57109916845445
 30
0.0
 10
352.7012965698108
 20
27.5773003403279
 30
0.0
 10
352.7012965698108
 20
27.5773003403279
 30
0.0
 10
352.7012965698108
 20
29.00701496670658
 30
0.0
 10
352.7012965698108
 20
29.00701496670658
 30
0.0
 10
352.7012965698108
 20
29.00701496670658
 30
0.0
 10
351.7569958973038
 20
29.00701496670658
 30
0.0
 10
351.7569958973038
 20
29.00701496670658
 30
0.0
 10
351.7569958973038
 20
29.00701496670658
 30
0.0
 10
351.7569958973038
 20
29.86759981892199
 30
0.0
 10
351.7569958973038
 20
29.86759981892199
 30
0.0
 10
351.7569958973038
 20
29.86759981892199
 30
0.0
 10
354.5351208966093
 20
29.86759981892199
 30
0.0
 10
354.5351208966093
 20
29.86759981892199
 30
0.0
 10
354.5351208966093
 20
29.86759981892199
 30
0.0
 10
354.5351208966093
 20
29.00701496670658
 30
0.0
 10
354.5351208966093
 20
29.00701496670658
 30
0.0
 10
354.5351208966093
 20
29.00701496670658
 30
0.0
 10
353.6090792301741
 20
29.00701496670658
 30
0.0
 10
353.6090792301741
 20
29.00701496670658
 30
0.0
 10
353.6090792301741
 20
29.00701496670658
 30
0.0
 10
353.6090792301741
 20
27.6544704791975
 30
0.0
 10
353.6090792301741
 20
27.6544704791975
 30
0.0
 10
354.2794948116037
 20
27.71923827432019
 30
0.0
 10
354.5234075719595
 20
27.76678059201664
 30
0.0
 10
354.7432046639184
 20
27.80812173783964
 30
0.0
 10
354.7432046639184
 20
27.80812173783964
 30
0.0
 10
354.7542289694712
 20
26.96545138214753
 30
0.0
 10
354.7542289694712
 20
26.96545138214753
 30
0.0
 10
354.0783012352651
 20
26.82282442905818
 30
0.0
 10
353.704163865567
 20
26.78079426413814
 30
0.0
 10
351.6922281021811
 20
26.5678873631497
 30
0.0
 10
351.6922281021811
 20
26.5678873631497
 30
0.0
 10
351.5916313140118
 20
27.49944118236125
 30
0.0
 10
351.5916313140118
 20
27.49944118236125
 30
0.0
  0
HATCH
  5
1BC
330
1B2
100
AcDbEntity
  8
Dimension Layer
 62
   250
420
  2234388
100
AcDbHatch
 10
0.0
 20
0.0
 30
0.0
210
0.0
220
0.0
230
1.0
  2
SOLID
 70
     1
 71
     0
 91
        2
 92
        1
 93
        1
 72
     4
 94
        3
 73
     0
 74
     1
 95
       44
 96
       40
 40
0.0
 40
0.0
 40
0.0
 40
0.0
 40
1.0
 40
1.0
 40
1.0
 40
2.0
 40
2.0
 40
2.0
 40
3.0
 40
3.0
 40
3.0
 40
4.0
 40
4.0
 40
4.0
 40
5.0
 40
5.0
 40
5.0
 40
6.0
 40
6.0
 40
6.0
 40
7.0
 40
7.0
 40
7.0
 40
8.0
 40
8.0
 40
8.0
 40
9.0
 40
9.0
 40
9.0
 40
10.0
 40
10.0
 40
10.0
 40
11.0
 40
11.0
 40
11.0
 40
12.0
 40
12.0
 40
12.0
 40
13.0
 40
13.0
 40
13.0
 40
13.0
 10
351.5916313140118
 20
27.49944118236125
 10
351.703941426831
 20
27.5056423542347
 10
351.7631970691773
 20
27.5056423542347
 10
351.8403672080469
 20
27.51184352610815
 10
351.9650796646129
 20
27.5180446979816
 10
352.5645262790464
 20
27.57109916845445
 10
352.7012965698108
 20
27.5773003403279
 10
352.7012965698108
 20
27.5773003403279
 10
352.7012965698108
 20
29.00701496670658
 10
352.7012965698108
 20
29.00701496670658
 10
352.7012965698108
 20
29.00701496670658
 10
351.7569958973038
 20
29.00701496670658
 10
351.7569958973038
 20
29.00701496670658
 10
351.7569958973038
 20
29.00701496670658
 10
351.7569958973038
 20
29.86759981892199
 10
351.7569958973038
 20
29.86759981892199
 10
351.7569958973038
 20
29.86759981892199
 10
354.5351208966093
 20
29.86759981892199
 10
354.5351208966093
 20
29.86759981892199
 10
354.5351208966093
 20
29.86759981892199
 10
354.5351208966093
 20
29.00701496670658
 10
354.5351208966093
 20
29.00701496670658
 10
354.5351208966093
 20
29.00701496670658
 10
353.6090792301741
 20
29.00701496670658
 10
353.6090792301741
 20
29.00701496670658
 10
353.6090792301741
 20
29.00701496670658
 10
353.6090792301741
 20
27.6544704791975
 10
353.6090792301741
 20
27.6544704791975
 10
354.2794948116037
 20
27.71923827432019
 10
354.5234075719595
 20
27.76678059201664
 10
354.7432046639184
 20
27.80812173783964
 10
354.7432046639184
 20
27.80812173783964
 10
354.7542289694712
 20
26.96545138214753
 10
354.7542289694712
 20
26.96545138214753
 10
354.0783012352651
 20
26.82282442905818
 10
353.704163865567
 20
26.78079426413814
 10
351.6922281021811
 20
26.5678873631497
 10
351.6922281021811
 20
26.5678873631497
 10
351.5916313140118
 20
27.49944118236125
 10
351.5916313140118
 20
27.49944118236125
 97
        0
 92
        1
 93
        2
 72
     4
 94
        3
 73
     0
 74
     0
 95
       71
 96
       67
 40
0.0
 40
0.0
 40
0.0
 40
0.0
 40
0.3527777776895833
 40
0.3527777776895833
 40
0.3527777776895833
 40
0.7055555553791667
 40
0.7055555553791667
 40
0.7055555553791667
 40
1.05833333306875
 40
1.05833333306875
 40
1.05833333306875
 40
1.411111110758333
 40
1.411111110758333
 40
1.411111110758333
 40
1.763888888447917
 40
1.763888888447917
 40
1.763888888447917
 40
2.1166666661375
 40
2.1166666661375
 40
2.1166666661375
 40
2.469444443827083
 40
2.469444443827083
 40
2.469444443827083
 40
2.822222221516667
 40
2.822222221516667
 40
2.822222221516667
 40
3.17499999920625
 40
3.17499999920625
 40
3.17499999920625
 40
3.527777776895833
 40
3.527777776895833
 40
3.527777776895833
 40
3.880555554585417
 40
3.880555554585417
 40
3.880555554585417
 40
4.233333332275
 40
4.233333332275
 40
4.233333332275
 40
4.586111109964584
 40
4.586111109964584
 40
4.586111109964584
 40
4.938888887654167
 40
4.938888887654167
 40
4.938888887654167
 40
5.29166666534375
 40
5.29166666534375
 40
5.29166666534375
 40
5.644444443033334
 40
5.644444443033334
 40
5.644444443033334
 40
5.997222220722917
 40
5.997222220722917
 40
5.997222220722917
 40
6.349999998412501
 40
6.349999998412501
 40
6.349999998412501
 40
6.702777776102083
 40
6.702777776102083
 40
6.702777776102083
 40
7.055555553791667
 40
7.055555553791667
 40
7.055555553791667
 40
7.40833333148125
 40
7.40833333148125
 40
7.40833333148125
 40
7.761111109170834
 40
7.761111109170834
 40
7.761111109170834
 40
7.761111109170834
 10
356.6841714603082
 20
31.24563801302192
 10
356.6841714603082
 20
31.24563801302192
 10
357.2415879098216
 20
31.24563801302192
 10
357.2415879098216
 20
31.24563801302192
 10
357.2415879098216
 20
31.24563801302192
 10
357.2415879098216
 20
30.38436414170947
 10
357.2415879098216
 20
30.38436414170947
 10
357.2415879098216
 20
30.38436414170947
 10
355.5913871723869
 20
30.38436414170947
 10
355.5913871723869
 20
30.38436414170947
 10
355.6279051845306
 20
29.6360894023132
 10
355.7105874761766
 20
28.88884819156251
 10
355.9476100455617
 20
28.17674695476137
 10
356.0075547070051
 20
27.99898002772248
 10
356.1667181184236
 20
27.5773003403279
 10
356.3396619117831
 20
27.5773003403279
 10
356.5057155141722
 20
27.5773003403279
 10
356.8254203752034
 20
27.98657768397558
 10
356.9632241946134
 20
28.38414170297341
 10
356.9632241946134
 20
28.38414170297341
 10
357.3428737170879
 20
27.43467338723855
 10
357.3428737170879
 20
27.43467338723855
 10
357.2181612605219
 20
27.09016383871357
 10
356.9149928578199
 20
26.4259494291574
 10
356.3637775801799
 20
26.4259494291574
 10
356.0847248458747
 20
26.4259494291574
 10
355.799470939696
 20
26.57960068779954
 10
355.6389294900833
 20
26.75874565303254
 10
354.7783446378679
 20
27.70752494967034
 10
354.7190889955216
 20
29.42938367319821
 10
354.6839490215721
 20
30.38436414170947
 10
354.6839490215721
 20
30.38436414170947
 10
351.6446857844847
 20
30.38436414170947
 10
351.6446857844847
 20
30.38436414170947
 10
351.6446857844847
 20
30.38436414170947
 10
351.6446857844847
 20
31.24563801302192
 10
351.6446857844847
 20
31.24563801302192
 10
351.6446857844847
 20
31.24563801302192
 10
354.654321200399
 20
31.24563801302192
 10
354.654321200399
 20
31.24563801302192
 10
354.6481200285255
 20
31.33383245744432
 10
354.6364067038757
 20
31.7679144885858
 10
354.6302055320022
 20
31.86231010488165
 10
354.6302055320022
 20
31.91605359445154
 10
354.6302055320022
 20
31.96290689305094
 10
354.6240043601288
 20
32.06970485309369
 10
354.6240043601288
 20
32.06970485309369
 10
355.5741616949607
 20
32.06970485309369
 10
355.5741616949607
 20
32.06970485309369
 10
355.5676160135387
 20
31.60186088619676
 10
355.5676160135387
 20
31.46474608588381
 10
355.5741616949607
 20
31.24563801302192
 10
355.5741616949607
 20
31.24563801302192
 10
356.1560383224194
 20
31.24563801302192
 10
356.1560383224194
 20
31.24563801302192
 10
356.0013535351316
 20
31.47094725775726
 10
355.8704399066921
 20
31.66111652854305
 10
355.7223008008264
 20
31.7968532906619
 10
355.7223008008264
 20
31.7968532906619
 10
356.4884900367459
 20
32.10622286523733
 10
356.4884900367459
 20
32.10622286523733
 10
356.5766844811683
 20
32.04007703192054
 10
356.6538546200379
 20
31.98633354235064
 10
357.0645100018797
 20
31.41169161541097
 10
357.0645100018797
 20
31.41169161541097
 10
356.6841714603082
 20
31.24563801302192
 10
356.6841714603082
 20
31.24563801302192
 72
     1
 10
356.6841714603082
 20
31.24563801302192
 11
356.6841714603082
 21
31.24563801302192
 97
        0
 75
     2
 76
     1
 98
        0
  0
SPLINE
  5
1BD
330
1B2
100
AcDbEntity
  8
Dimension Layer
370
     0
100
AcDbSpline
210
0.0
220
0.0
230
1.0
 70
    11
 71
     3
 72
    23
 73
    19
 74
     0
 42
0.0000000001
 43
0.0000000001
 40
0.0
 40
0.0
 40
0.0
 40
0.0
 40
1.0
 40
1.0
 40
1.0
 40
2.0
 40
2.0
 40
2.0
 40
3.0
 40
3.0
 40
3.0
 40
4.0
 40
4.0
 40
4.0
 40
5.0
 40
5.0
 40
5.0
 40
6.0
 40
6.0
 40
6.0
 40
6.0
 10
360.9805500399632
 20
28.15332030546167
 30
0.0
 10
361.1235215026011
 20
27.98037651210213
 30
0.0
 10
361.2310084817409
 20
27.85015190275968
 30
0.0
 10
361.468031051126
 20
27.53527017540785
 30
0.0
 10
361.2771727612432
 20
27.52941351308293
 30
0.0
 10
360.3407958083523
 20
27.4877278577114
 30
0.0
 10
360.1320230219462
 20
27.47601453306155
 30
0.0
 10
360.0259140810005
 20
27.47050238028515
 30
0.0
 10
359.978371763304
 20
27.47050238028515
 30
0.0
 10
359.550490904036
 20
27.47050238028515
 30
0.0
 10
359.7282578310749
 20
27.82603623436294
 30
0.0
 10
359.8474581348646
 20
28.09406466311538
 30
0.0
 10
360.0135117372536
 20
28.48473849114271
 30
0.0
 10
360.0135117372536
 20
28.48473849114271
 30
0.0
 10
361.6816269712115
 20
28.48473849114271
 30
0.0
 10
361.6816269712115
 20
28.48473849114271
 30
0.0
 10
361.6816269712115
 20
28.48473849114271
 30
0.0
 10
360.9805500399632
 20
28.15332030546167
 30
0.0
 10
360.9805500399632
 20
28.15332030546167
 30
0.0
  0
SPLINE
  5
1BE
330
1B2
100
AcDbEntity
  8
Dimension Layer
370
     0
100
AcDbSpline
210
0.0
220
0.0
230
1.0
 70
    11
 71
     3
 72
    44
 73
    40
 74
     0
 42
0.0000000001
 43
0.0000000001
 40
0.0
 40
0.0
 40
0.0
 40
0.0
 40
1.0
 40
1.0
 40
1.0
 40
2.0
 40
2.0
 40
2.0
 40
3.0
 40
3.0
 40
3.0
 40
4.0
 40
4.0
 40
4.0
 40
5.0
 40
5.0
 40
5.0
 40
6.0
 40
6.0
 40
6.0
 40
7.0
 40
7.0
 40
7.0
 40
8.0
 40
8.0
 40
8.0
 40
9.0
 40
9.0
 40
9.0
 40
10.0
 40
10.0
 40
10.0
 40
11.0
 40
11.0
 40
11.0
 40
12.0
 40
12.0
 40
12.0
 40
13.0
 40
13.0
 40
13.0
 40
13.0
 10
363.0706894708643
 20
26.83453775370803
 30
0.0
 10
362.714811107238
 20
27.39884439419196
 30
0.0
 10
362.3403292279913
 20
27.92732204162928
 30
0.0
 10
361.8235649052039
 20
28.48473849114271
 30
0.0
 10
361.8235649052039
 20
28.48473849114271
 30
0.0
 10
363.0524304647925
 20
28.48473849114271
 30
0.0
 10
363.0524304647925
 20
28.48473849114271
 30
0.0
 10
363.0524304647925
 20
28.48473849114271
 30
0.0
 10
363.0524304647925
 20
29.33981119058172
 30
0.0
 10
363.0524304647925
 20
29.33981119058172
 30
0.0
 10
363.0524304647925
 20
29.33981119058172
 30
0.0
 10
357.6990965902627
 20
29.33981119058172
 30
0.0
 10
357.6990965902627
 20
29.33981119058172
 30
0.0
 10
357.6990965902627
 20
29.33981119058172
 30
0.0
 10
357.6990965902627
 20
28.48473849114271
 30
0.0
 10
357.6990965902627
 20
28.48473849114271
 30
0.0
 10
357.6990965902627
 20
28.48473849114271
 30
0.0
 10
359.0220132565987
 20
28.48473849114271
 30
0.0
 10
359.0220132565987
 20
28.48473849114271
 30
0.0
 10
358.8979898191297
 20
28.09957681589177
 30
0.0
 10
358.7605305092682
 20
27.77918293576354
 30
0.0
 10
358.6130804224995
 20
27.46499022750875
 30
0.0
 10
358.5066269720053
 20
27.46499022750875
 30
0.0
 10
358.0429171196907
 20
27.45810003653826
 30
0.0
 10
357.9478324842978
 20
27.45810003653826
 30
0.0
 10
357.9009791856984
 20
27.45810003653826
 30
0.0
 10
357.8589490207783
 20
27.45810003653826
 30
0.0
 10
357.7397487169887
 20
27.46499022750875
 30
0.0
 10
357.7397487169887
 20
27.46499022750875
 30
0.0
 10
357.8830646891751
 20
26.54446071385
 30
0.0
 10
357.8830646891751
 20
26.54446071385
 30
0.0
 10
359.2300970239078
 20
26.58580185967299
 30
0.0
 10
359.4381807912168
 20
26.60337184664777
 30
0.0
 10
361.9723930301666
 20
26.80559895163194
 30
0.0
 10
362.0847031429858
 20
26.62094183362254
 30
0.0
 10
362.1384466325557
 20
26.5320583701031
 30
0.0
 10
362.2152722618767
 20
26.38391926423736
 30
0.0
 10
362.2152722618767
 20
26.38391926423736
 30
0.0
 10
363.0706894708643
 20
26.83453775370803
 30
0.0
 10
363.0706894708643
 20
26.83453775370803
 30
0.0
  0
SPLINE
  5
1BF
330
1B2
100
AcDbEntity
  8
Dimension Layer
370
     0
100
AcDbSpline
210
0.0
220
0.0
230
1.0
 70
    11
 71
     3
 72
    35
 73
    31
 74
     0
 42
0.0000000001
 43
0.0000000001
 40
0.0
 40
0.0
 40
0.0
 40
0.0
 40
1.0
 40
1.0
 40
1.0
 40
2.0
 40
2.0
 40
2.0
 40
3.0
 40
3.0
 40
3.0
 40
4.0
 40
4.0
 40
4.0
 40
5.0
 40
5.0
 40
5.0
 40
6.0
 40
6.0
 40
6.0
 40
7.0
 40
7.0
 40
7.0
 40
8.0
 40
8.0
 40
8.0
 40
9.0
 40
9.0
 40
9.0
 40
10.0
 40
10.0
 40
10.0
 40
10.0
 10
358.8029051837368
 20
29.7559787251999
 30
0.0
 10
358.8029051837368
 20
29.7559787251999
 30
0.0
 10
361.9606797055168
 20
29.7559787251999
 30
0.0
 10
361.9606797055168
 20
29.7559787251999
 30
0.0
 10
361.9606797055168
 20
29.7559787251999
 30
0.0
 10
361.9606797055168
 20
30.11771375115113
 30
0.0
 10
361.9606797055168
 20
30.11771375115113
 30
0.0
 10
362.3823593929114
 20
29.86277668524264
 30
0.0
 10
362.6372964588198
 20
29.74943304377792
 30
0.0
 10
362.8446912070319
 20
29.6595160516129
 30
0.0
 10
362.8446912070319
 20
29.6595160516129
 30
0.0
 10
363.3084010593465
 20
30.55661891597196
 30
0.0
 10
363.3084010593465
 20
30.55661891597196
 30
0.0
 10
362.4061305517596
 20
30.89561631172054
 30
0.0
 10
361.5514023618691
 20
31.37517360326732
 30
0.0
 10
360.9223279262625
 20
32.10622286523733
 30
0.0
 10
360.9223279262625
 20
32.10622286523733
 30
0.0
 10
359.8653726313879
 20
32.10622286523733
 30
0.0
 10
359.8653726313879
 20
32.10622286523733
 30
0.0
 10
359.4857231089133
 20
31.57085502682951
 30
0.0
 10
358.8270208521336
 20
31.08509656340928
 30
0.0
 10
357.4496716771307
 20
30.54421657222506
 30
0.0
 10
357.4496716771307
 20
30.54421657222506
 30
0.0
 10
357.9009791856984
 20
29.6429795932837
 30
0.0
 10
357.9009791856984
 20
29.6429795932837
 30
0.0
 10
358.0787461127373
 20
29.7132595411828
 30
0.0
 10
358.3391953314222
 20
29.81454534844914
 30
0.0
 10
358.8029051837368
 20
30.09359808275438
 30
0.0
 10
358.8029051837368
 20
30.09359808275438
 30
0.0
 10
358.8029051837368
 20
29.7559787251999
 30
0.0
 10
358.8029051837368
 20
29.7559787251999
 30
0.0
  0
SPLINE
  5
1C0
330
1B2
100
AcDbEntity
  8
Dimension Layer
370
     0
100
AcDbSpline
210
0.0
220
0.0
230
1.0
 70
    11
 71
     3
 72
    14
 73
    10
 74
     0
 42
0.0000000001
 43
0.0000000001
 40
0.0
 40
0.0
 40
0.0
 40
0.0
 40
1.0
 40
1.0
 40
1.0
 40
2.0
 40
2.0
 40
2.0
 40
3.0
 40
3.0
 40
3.0
 40
3.0
 10
359.4733207651664
 20
30.55041774409851
 30
0.0
 10
360.0369383865533
 20
30.97829860336654
 30
0.0
 10
360.239510001086
 20
31.20360784810188
 30
0.0
 10
360.3883381260488
 20
31.38688692791717
 30
0.0
 10
360.5654160339906
 20
31.19189452345203
 30
0.0
 10
360.7969264505994
 20
30.94246961031994
 30
0.0
 10
361.3136907733869
 20
30.55041774409851
 30
0.0
 10
361.3136907733869
 20
30.55041774409851
 30
0.0
 10
359.4733207651664
 20
30.55041774409851
 30
0.0
 10
359.4733207651664
 20
30.55041774409851
 30
0.0
  0
HATCH
  5
1C1
330
1B2
100
AcDbEntity
  8
Dimension Layer
 62
   250
420
  2234388
100
AcDbHatch
 10
0.0
 20
0.0
 30
0.0
210
0.0
220
0.0
230
1.0
  2
SOLID
 70
     1
 71
     0
 91
        4
 92
        1
 93
        1
 72
     4
 94
        3
 73
     0
 74
     1
 95
       14
 96
       10
 40
0.0
 40
0.0
 40
0.0
 40
0.0
 40
1.0
 40
1.0
 40
1.0
 40
2.0
 40
2.0
 40
2.0
 40
3.0
 40
3.0
 40
3.0
 40
3.0
 10
359.4733207651664
 20
30.55041774409851
 10
360.0369383865533
 20
30.97829860336654
 10
360.239510001086
 20
31.20360784810188
 10
360.3883381260488
 20
31.38688692791717
 10
360.5654160339906
 20
31.19189452345203
 10
360.7969264505994
 20
30.94246961031994
 10
361.3136907733869
 20
30.55041774409851
 10
361.3136907733869
 20
30.55041774409851
 10
359.4733207651664
 20
30.55041774409851
 10
359.4733207651664
 20
30.55041774409851
 97
        0
 92
        1
 93
        2
 72
     4
 94
        3
 73
     0
 74
     0
 95
       23
 96
       19
 40
0.0
 40
0.0
 40
0.0
 40
0.0
 40
0.3527777776895833
 40
0.3527777776895833
 40
0.3527777776895833
 40
0.7055555553791667
 40
0.7055555553791667
 40
0.7055555553791667
 40
1.05833333306875
 40
1.05833333306875
 40
1.05833333306875
 40
1.411111110758333
 40
1.411111110758333
 40
1.411111110758333
 40
1.763888888447917
 40
1.763888888447917
 40
1.763888888447917
 40
2.1166666661375
 40
2.1166666661375
 40
2.1166666661375
 40
2.1166666661375
 10
360.9805500399632
 20
28.15332030546167
 10
361.1235215026011
 20
27.98037651210213
 10
361.2310084817409
 20
27.85015190275968
 10
361.468031051126
 20
27.53527017540785
 10
361.2771727612432
 20
27.52941351308293
 10
360.3407958083523
 20
27.4877278577114
 10
360.1320230219462
 20
27.47601453306155
 10
360.0259140810005
 20
27.47050238028515
 10
359.978371763304
 20
27.47050238028515
 10
359.550490904036
 20
27.47050238028515
 10
359.7282578310749
 20
27.82603623436294
 10
359.8474581348646
 20
28.09406466311538
 10
360.0135117372536
 20
28.48473849114271
 10
360.0135117372536
 20
28.48473849114271
 10
361.6816269712115
 20
28.48473849114271
 10
361.6816269712115
 20
28.48473849114271
 10
361.6816269712115
 20
28.48473849114271
 10
360.9805500399632
 20
28.15332030546167
 10
360.9805500399632
 20
28.15332030546167
 72
     1
 10
360.9805500399632
 20
28.15332030546167
 11
360.9805500399632
 21
28.15332030546167
 97
        0
 92
        1
 93
        2
 72
     4
 94
        3
 73
     0
 74
     0
 95
       44
 96
       40
 40
0.0
 40
0.0
 40
0.0
 40
0.0
 40
0.3527777776895833
 40
0.3527777776895833
 40
0.3527777776895833
 40
0.7055555553791667
 40
0.7055555553791667
 40
0.7055555553791667
 40
1.05833333306875
 40
1.05833333306875
 40
1.05833333306875
 40
1.411111110758333
 40
1.411111110758333
 40
1.411111110758333
 40
1.763888888447917
 40
1.763888888447917
 40
1.763888888447917
 40
2.1166666661375
 40
2.1166666661375
 40
2.1166666661375
 40
2.469444443827083
 40
2.469444443827083
 40
2.469444443827083
 40
2.822222221516667
 40
2.822222221516667
 40
2.822222221516667
 40
3.17499999920625
 40
3.17499999920625
 40
3.17499999920625
 40
3.527777776895833
 40
3.527777776895833
 40
3.527777776895833
 40
3.880555554585417
 40
3.880555554585417
 40
3.880555554585417
 40
4.233333332275
 40
4.233333332275
 40
4.233333332275
 40
4.586111109964584
 40
4.586111109964584
 40
4.586111109964584
 40
4.586111109964584
 10
363.0706894708643
 20
26.83453775370803
 10
362.714811107238
 20
27.39884439419196
 10
362.3403292279913
 20
27.92732204162928
 10
361.8235649052039
 20
28.48473849114271
 10
361.8235649052039
 20
28.48473849114271
 10
363.0524304647925
 20
28.48473849114271
 10
363.0524304647925
 20
28.48473849114271
 10
363.0524304647925
 20
28.48473849114271
 10
363.0524304647925
 20
29.33981119058172
 10
363.0524304647925
 20
29.33981119058172
 10
363.0524304647925
 20
29.33981119058172
 10
357.6990965902627
 20
29.33981119058172
 10
357.6990965902627
 20
29.33981119058172
 10
357.6990965902627
 20
29.33981119058172
 10
357.6990965902627
 20
28.48473849114271
 10
357.6990965902627
 20
28.48473849114271
 10
357.6990965902627
 20
28.48473849114271
 10
359.0220132565987
 20
28.48473849114271
 10
359.0220132565987
 20
28.48473849114271
 10
358.8979898191297
 20
28.09957681589177
 10
358.7605305092682
 20
27.77918293576354
 10
358.6130804224995
 20
27.46499022750875
 10
358.5066269720053
 20
27.46499022750875
 10
358.0429171196907
 20
27.45810003653826
 10
357.9478324842978
 20
27.45810003653826
 10
357.9009791856984
 20
27.45810003653826
 10
357.8589490207783
 20
27.45810003653826
 10
357.7397487169887
 20
27.46499022750875
 10
357.7397487169887
 20
27.46499022750875
 10
357.8830646891751
 20
26.54446071385
 10
357.8830646891751
 20
26.54446071385
 10
359.2300970239078
 20
26.58580185967299
 10
359.4381807912168
 20
26.60337184664777
 10
361.9723930301666
 20
26.80559895163194
 10
362.0847031429858
 20
26.62094183362254
 10
362.1384466325557
 20
26.5320583701031
 10
362.2152722618767
 20
26.38391926423736
 10
362.2152722618767
 20
26.38391926423736
 10
363.0706894708643
 20
26.83453775370803
 10
363.0706894708643
 20
26.83453775370803
 72
     1
 10
363.0706894708643
 20
26.83453775370803
 11
363.0706894708643
 21
26.83453775370803
 97
        0
 92
        1
 93
        2
 72
     4
 94
        3
 73
     0
 74
     0
 95
       35
 96
       31
 40
0.0
 40
0.0
 40
0.0
 40
0.0
 40
0.3527777776895833
 40
0.3527777776895833
 40
0.3527777776895833
 40
0.7055555553791667
 40
0.7055555553791667
 40
0.7055555553791667
 40
1.05833333306875
 40
1.05833333306875
 40
1.05833333306875
 40
1.411111110758333
 40
1.411111110758333
 40
1.411111110758333
 40
1.763888888447917
 40
1.763888888447917
 40
1.763888888447917
 40
2.1166666661375
 40
2.1166666661375
 40
2.1166666661375
 40
2.469444443827083
 40
2.469444443827083
 40
2.469444443827083
 40
2.822222221516667
 40
2.822222221516667
 40
2.822222221516667
 40
3.17499999920625
 40
3.17499999920625
 40
3.17499999920625
 40
3.527777776895833
 40
3.527777776895833
 40
3.527777776895833
 40
3.527777776895833
 10
358.8029051837368
 20
29.7559787251999
 10
358.8029051837368
 20
29.7559787251999
 10
361.9606797055168
 20
29.7559787251999
 10
361.9606797055168
 20
29.7559787251999
 10
361.9606797055168
 20
29.7559787251999
 10
361.9606797055168
 20
30.11771375115113
 10
361.9606797055168
 20
30.11771375115113
 10
362.3823593929114
 20
29.86277668524264
 10
362.6372964588198
 20
29.74943304377792
 10
362.8446912070319
 20
29.6595160516129
 10
362.8446912070319
 20
29.6595160516129
 10
363.3084010593465
 20
30.55661891597196
 10
363.3084010593465
 20
30.55661891597196
 10
362.4061305517596
 20
30.89561631172054
 10
361.5514023618691
 20
31.37517360326732
 10
360.9223279262625
 20
32.10622286523733
 10
360.9223279262625
 20
32.10622286523733
 10
359.8653726313879
 20
32.10622286523733
 10
359.8653726313879
 20
32.10622286523733
 10
359.4857231089133
 20
31.57085502682951
 10
358.8270208521336
 20
31.08509656340928
 10
357.4496716771307
 20
30.54421657222506
 10
357.4496716771307
 20
30.54421657222506
 10
357.9009791856984
 20
29.6429795932837
 10
357.9009791856984
 20
29.6429795932837
 10
358.0787461127373
 20
29.7132595411828
 10
358.3391953314222
 20
29.81454534844914
 10
358.8029051837368
 20
30.09359808275438
 10
358.8029051837368
 20
30.09359808275438
 10
358.8029051837368
 20
29.7559787251999
 10
358.8029051837368
 20
29.7559787251999
 72
     1
 10
358.8029051837368
 20
29.7559787251999
 11
358.8029051837368
 21
29.7559787251999
 97
        0
 75
     2
 76
     1
 98
        0
  0
SPLINE
  5
1C2
330
1B2
100
AcDbEntity
  8
Dimension Layer
370
     0
100
AcDbSpline
210
0.0
220
0.0
230
1.0
 70
    11
 71
     3
 72
    59
 73
    55
 74
     0
 42
0.0000000001
 43
0.0000000001
 40
0.0
 40
0.0
 40
0.0
 40
0.0
 40
1.0
 40
1.0
 40
1.0
 40
2.0
 40
2.0
 40
2.0
 40
3.0
 40
3.0
 40
3.0
 40
4.0
 40
4.0
 40
4.0
 40
5.0
 40
5.0
 40
5.0
 40
6.0
 40
6.0
 40
6.0
 40
7.0
 40
7.0
 40
7.0
 40
8.0
 40
8.0
 40
8.0
 40
9.0
 40
9.0
 40
9.0
 40
10.0
 40
10.0
 40
10.0
 40
11.0
 40
11.0
 40
11.0
 40
12.0
 40
12.0
 40
12.0
 40
13.0
 40
13.0
 40
13.0
 40
14.0
 40
14.0
 40
14.0
 40
15.0
 40
15.0
 40
15.0
 40
16.0
 40
16.0
 40
16.0
 40
17.0
 40
17.0
 40
17.0
 40
18.0
 40
18.0
 40
18.0
 40
18.0
 10
365.1653075258962
 20
26.4314615819338
 30
0.0
 10
365.1653075258962
 20
26.4314615819338
 30
0.0
 10
364.2640705469548
 20
26.4314615819338
 30
0.0
 10
364.2640705469548
 20
26.4314615819338
 30
0.0
 10
364.2640705469548
 20
26.4314615819338
 30
0.0
 10
364.2640705469548
 20
28.41445854324361
 30
0.0
 10
364.2640705469548
 20
28.41445854324361
 30
0.0
 10
364.0201577865992
 20
28.20637477593452
 30
0.0
 10
363.8541041842101
 20
28.08717447214487
 30
0.0
 10
363.6336180731541
 20
27.93972438537618
 30
0.0
 10
363.6336180731541
 20
27.93972438537618
 30
0.0
 10
363.4086533379673
 20
28.98978948928033
 30
0.0
 10
363.4086533379673
 20
28.98978948928033
 30
0.0
 10
364.073212257072
 20
29.38735350827816
 30
0.0
 10
364.6196044010326
 20
30.02228460620971
 30
0.0
 10
364.8152858245948
 20
30.41399196288262
 30
0.0
 10
364.8152858245948
 20
30.41399196288262
 30
0.0
 10
363.5157958075586
 20
30.41399196288262
 30
0.0
 10
363.5157958075586
 20
30.41399196288262
 30
0.0
 10
363.5157958075586
 20
30.41399196288262
 30
0.0
 10
363.5157958075586
 20
31.24563801302192
 30
0.0
 10
363.5157958075586
 20
31.24563801302192
 30
0.0
 10
363.5157958075586
 20
31.24563801302192
 30
0.0
 10
364.2640705469548
 20
31.24563801302192
 30
0.0
 10
364.2640705469548
 20
31.24563801302192
 30
0.0
 10
364.2640705469548
 20
31.24563801302192
 30
0.0
 10
364.2640705469548
 20
32.06419270031729
 30
0.0
 10
364.2640705469548
 20
32.06419270031729
 30
0.0
 10
364.2640705469548
 20
32.06419270031729
 30
0.0
 10
365.1653075258962
 20
32.06419270031729
 30
0.0
 10
365.1653075258962
 20
32.06419270031729
 30
0.0
 10
365.1653075258962
 20
32.06419270031729
 30
0.0
 10
365.1653075258962
 20
31.24563801302192
 30
0.0
 10
365.1653075258962
 20
31.24563801302192
 30
0.0
 10
365.1653075258962
 20
31.24563801302192
 30
0.0
 10
365.7709553122031
 20
31.24563801302192
 30
0.0
 10
365.7709553122031
 20
31.24563801302192
 30
0.0
 10
365.7709553122031
 20
31.24563801302192
 30
0.0
 10
365.7709553122031
 20
30.40847981010621
 30
0.0
 10
365.7709553122031
 20
30.40847981010621
 30
0.0
 10
365.6827608677807
 20
30.19488389002073
 30
0.0
 10
365.568728207219
 20
29.93925780501519
 30
0.0
 10
365.3024223262091
 20
29.55340711066721
 30
0.0
 10
365.6290173782108
 20
29.19167208471597
 30
0.0
 10
365.9197834371659
 20
29.01941731045348
 30
0.0
 10
366.1092636888546
 20
28.91261935041074
 30
0.0
 10
366.1092636888546
 20
28.91261935041074
 30
0.0
 10
365.6641573521604
 20
28.06994899471863
 30
0.0
 10
365.6641573521604
 20
28.06994899471863
 30
0.0
 10
365.4919025778979
 20
28.22980142523422
 30
0.0
 10
365.355476796682
 20
28.37242837832356
 30
0.0
 10
365.1653075258962
 20
28.6390787688819
 30
0.0
 10
365.1653075258962
 20
28.6390787688819
 30
0.0
 10
365.1653075258962
 20
26.4314615819338
 30
0.0
 10
365.1653075258962
 20
26.4314615819338
 30
0.0
  0
POLYLINE
  5
1C3
330
1B2
100
AcDbEntity
  8
Dimension Layer
370
     0
100
AcDb2dPolyline
 66
     1
 10
0.0
 20
0.0
 30
0.0
  0
VERTEX
  5
1C4
330
1C3
100
AcDbEntity
  8
Dimension Layer
370
     0
100
AcDbVertex
100
AcDb2dVertex
 10
366.928507395247
 20
32.05799152844384
 30
0.0
  0
VERTEX
  5
1C5
330
1C3
100
AcDbEntity
  8
Dimension Layer
370
     0
100
AcDbVertex
100
AcDb2dVertex
 10
367.8552380807793
 20
32.05799152844384
 30
0.0
  0
VERTEX
  5
1C6
330
1C3
100
AcDbEntity
  8
Dimension Layer
370
     0
100
AcDbVertex
100
AcDb2dVertex
 10
367.8552380807793
 20
30.58693575624216
 30
0.0
  0
VERTEX
  5
1C7
330
1C3
100
AcDbEntity
  8
Dimension Layer
370
     0
100
AcDbVertex
100
AcDb2dVertex
 10
369.0058999728527
 20
30.58693575624216
 30
0.0
  0
VERTEX
  5
1C8
330
1C3
100
AcDbEntity
  8
Dimension Layer
370
     0
100
AcDbVertex
100
AcDb2dVertex
 10
369.0058999728527
 20
29.6719183953598
 30
0.0
  0
VERTEX
  5
1C9
330
1C3
100
AcDbEntity
  8
Dimension Layer
370
     0
100
AcDbVertex
100
AcDb2dVertex
 10
367.8552380807793
 20
29.6719183953598
 30
0.0
  0
VERTEX
  5
1CA
330
1C3
100
AcDbEntity
  8
Dimension Layer
370
     0
100
AcDbVertex
100
AcDb2dVertex
 10
367.8552380807793
 20
27.49944118236125
 30
0.0
  0
VERTEX
  5
1CB
330
1C3
100
AcDbEntity
  8
Dimension Layer
370
     0
100
AcDbVertex
100
AcDb2dVertex
 10
369.0947834363722
 20
27.49944118236125
 30
0.0
  0
VERTEX
  5
1CC
330
1C3
100
AcDbEntity
  8
Dimension Layer
370
     0
100
AcDbVertex
100
AcDb2dVertex
 10
369.0947834363722
 20
26.59751518432284
 30
0.0
  0
VERTEX
  5
1CD
330
1C3
100
AcDbEntity
  8
Dimension Layer
370
     0
100
AcDbVertex
100
AcDb2dVertex
 10
365.568728207219
 20
26.59751518432284
 30
0.0
  0
VERTEX
  5
1CE
330
1C3
100
AcDbEntity
  8
Dimension Layer
370
     0
100
AcDbVertex
100
AcDb2dVertex
 10
365.568728207219
 20
27.49944118236125
 30
0.0
  0
VERTEX
  5
1CF
330
1C3
100
AcDbEntity
  8
Dimension Layer
370
     0
100
AcDbVertex
100
AcDb2dVertex
 10
366.928507395247
 20
27.49944118236125
 30
0.0
  0
VERTEX
  5
1D0
330
1C3
100
AcDbEntity
  8
Dimension Layer
370
     0
100
AcDbVertex
100
AcDb2dVertex
 10
366.928507395247
 20
29.6719183953598
 30
0.0
  0
VERTEX
  5
1D1
330
1C3
100
AcDbEntity
  8
Dimension Layer
370
     0
100
AcDbVertex
100
AcDb2dVertex
 10
365.8591497566255
 20
29.6719183953598
 30
0.0
  0
VERTEX
  5
1D2
330
1C3
100
AcDbEntity
  8
Dimension Layer
370
     0
100
AcDbVertex
100
AcDb2dVertex
 10
365.8591497566255
 20
30.58693575624216
 30
0.0
  0
VERTEX
  5
1D3
330
1C3
100
AcDbEntity
  8
Dimension Layer
370
     0
100
AcDbVertex
100
AcDb2dVertex
 10
366.928507395247
 20
30.58693575624216
 30
0.0
  0
VERTEX
  5
1D4
330
1C3
100
AcDbEntity
  8
Dimension Layer
370
     0
100
AcDbVertex
100
AcDb2dVertex
 10
366.928507395247
 20
32.05799152844384
 30
0.0
  0
SEQEND
  5
1D5
330
1C3
100
AcDbEntity
  8
Dimension Layer
370
     0
  0
HATCH
  5
1D6
330
1B2
100
AcDbEntity
  8
Dimension Layer
 62
   250
420
  2234388
100
AcDbHatch
 10
0.0
 20
0.0
 30
0.0
210
0.0
220
0.0
230
1.0
  2
SOLID
 70
     1
 71
     0
 91
        2
 92
        1
 93
       16
 72
     1
 10
366.928507395247
 20
32.05799152844384
 11
367.8552380807793
 21
32.05799152844384
 72
     1
 10
367.8552380807793
 20
32.05799152844384
 11
367.8552380807793
 21
30.58693575624216
 72
     1
 10
367.8552380807793
 20
30.58693575624216
 11
369.0058999728527
 21
30.58693575624216
 72
     1
 10
369.0058999728527
 20
30.58693575624216
 11
369.0058999728527
 21
29.6719183953598
 72
     1
 10
369.0058999728527
 20
29.6719183953598
 11
367.8552380807793
 21
29.6719183953598
 72
     1
 10
367.8552380807793
 20
29.6719183953598
 11
367.8552380807793
 21
27.49944118236125
 72
     1
 10
367.8552380807793
 20
27.49944118236125
 11
369.0947834363722
 21
27.49944118236125
 72
     1
 10
369.0947834363722
 20
27.49944118236125
 11
369.0947834363722
 21
26.59751518432284
 72
     1
 10
369.0947834363722
 20
26.59751518432284
 11
365.568728207219
 21
26.59751518432284
 72
     1
 10
365.568728207219
 20
26.59751518432284
 11
365.568728207219
 21
27.49944118236125
 72
     1
 10
365.568728207219
 20
27.49944118236125
 11
366.928507395247
 21
27.49944118236125
 72
     1
 10
366.928507395247
 20
27.49944118236125
 11
366.928507395247
 21
29.6719183953598
 72
     1
 10
366.928507395247
 20
29.6719183953598
 11
365.8591497566255
 21
29.6719183953598
 72
     1
 10
365.8591497566255
 20
29.6719183953598
 11
365.8591497566255
 21
30.58693575624216
 72
     1
 10
365.8591497566255
 20
30.58693575624216
 11
366.928507395247
 21
30.58693575624216
 72
     1
 10
366.928507395247
 20
30.58693575624216
 11
366.928507395247
 21
32.05799152844384
 97
        0
 92
        1
 93
        2
 72
     4
 94
        3
 73
     0
 74
     0
 95
       59
 96
       55
 40
0.0
 40
0.0
 40
0.0
 40
0.0
 40
0.3527777776895833
 40
0.3527777776895833
 40
0.3527777776895833
 40
0.7055555553791667
 40
0.7055555553791667
 40
0.7055555553791667
 40
1.05833333306875
 40
1.05833333306875
 40
1.05833333306875
 40
1.411111110758333
 40
1.411111110758333
 40
1.411111110758333
 40
1.763888888447917
 40
1.763888888447917
 40
1.763888888447917
 40
2.1166666661375
 40
2.1166666661375
 40
2.1166666661375
 40
2.469444443827083
 40
2.469444443827083
 40
2.469444443827083
 40
2.822222221516667
 40
2.822222221516667
 40
2.822222221516667
 40
3.17499999920625
 40
3.17499999920625
 40
3.17499999920625
 40
3.527777776895833
 40
3.527777776895833
 40
3.527777776895833
 40
3.880555554585417
 40
3.880555554585417
 40
3.880555554585417
 40
4.233333332275
 40
4.233333332275
 40
4.233333332275
 40
4.586111109964584
 40
4.586111109964584
 40
4.586111109964584
 40
4.938888887654167
 40
4.938888887654167
 40
4.938888887654167
 40
5.29166666534375
 40
5.29166666534375
 40
5.29166666534375
 40
5.644444443033334
 40
5.644444443033334
 40
5.644444443033334
 40
5.997222220722917
 40
5.997222220722917
 40
5.997222220722917
 40
6.349999998412501
 40
6.349999998412501
 40
6.349999998412501
 40
6.349999998412501
 10
365.1653075258962
 20
26.4314615819338
 10
365.1653075258962
 20
26.4314615819338
 10
364.2640705469548
 20
26.4314615819338
 10
364.2640705469548
 20
26.4314615819338
 10
364.2640705469548
 20
26.4314615819338
 10
364.2640705469548
 20
28.41445854324361
 10
364.2640705469548
 20
28.41445854324361
 10
364.0201577865992
 20
28.20637477593452
 10
363.8541041842101
 20
28.08717447214487
 10
363.6336180731541
 20
27.93972438537618
 10
363.6336180731541
 20
27.93972438537618
 10
363.4086533379673
 20
28.98978948928033
 10
363.4086533379673
 20
28.98978948928033
 10
364.073212257072
 20
29.38735350827816
 10
364.6196044010326
 20
30.02228460620971
 10
364.8152858245948
 20
30.41399196288262
 10
364.8152858245948
 20
30.41399196288262
 10
363.5157958075586
 20
30.41399196288262
 10
363.5157958075586
 20
30.41399196288262
 10
363.5157958075586
 20
30.41399196288262
 10
363.5157958075586
 20
31.24563801302192
 10
363.5157958075586
 20
31.24563801302192
 10
363.5157958075586
 20
31.24563801302192
 10
364.2640705469548
 20
31.24563801302192
 10
364.2640705469548
 20
31.24563801302192
 10
364.2640705469548
 20
31.24563801302192
 10
364.2640705469548
 20
32.06419270031729
 10
364.2640705469548
 20
32.06419270031729
 10
364.2640705469548
 20
32.06419270031729
 10
365.1653075258962
 20
32.06419270031729
 10
365.1653075258962
 20
32.06419270031729
 10
365.1653075258962
 20
32.06419270031729
 10
365.1653075258962
 20
31.24563801302192
 10
365.1653075258962
 20
31.24563801302192
 10
365.1653075258962
 20
31.24563801302192
 10
365.7709553122031
 20
31.24563801302192
 10
365.7709553122031
 20
31.24563801302192
 10
365.7709553122031
 20
31.24563801302192
 10
365.7709553122031
 20
30.40847981010621
 10
365.7709553122031
 20
30.40847981010621
 10
365.6827608677807
 20
30.19488389002073
 10
365.568728207219
 20
29.93925780501519
 10
365.3024223262091
 20
29.55340711066721
 10
365.6290173782108
 20
29.19167208471597
 10
365.9197834371659
 20
29.01941731045348
 10
366.1092636888546
 20
28.91261935041074
 10
366.1092636888546
 20
28.91261935041074
 10
365.6641573521604
 20
28.06994899471863
 10
365.6641573521604
 20
28.06994899471863
 10
365.4919025778979
 20
28.22980142523422
 10
365.355476796682
 20
28.37242837832356
 10
365.1653075258962
 20
28.6390787688819
 10
365.1653075258962
 20
28.6390787688819
 10
365.1653075258962
 20
26.4314615819338
 10
365.1653075258962
 20
26.4314615819338
 72
     1
 10
365.1653075258962
 20
26.4314615819338
 11
365.1653075258962
 21
26.4314615819338
 97
        0
 75
     2
 76
     1
 98
        0
  0
SPLINE
  5
1D7
330
1B2
100
AcDbEntity
  8
Dimension Layer
370
     0
100
AcDbSpline
210
0.0
220
0.0
230
1.0
 70
    11
 71
     3
 72
    47
 73
    43
 74
     0
 42
0.0000000001
 43
0.0000000001
 40
0.0
 40
0.0
 40
0.0
 40
0.0
 40
1.0
 40
1.0
 40
1.0
 40
2.0
 40
2.0
 40
2.0
 40
3.0
 40
3.0
 40
3.0
 40
4.0
 40
4.0
 40
4.0
 40
5.0
 40
5.0
 40
5.0
 40
6.0
 40
6.0
 40
6.0
 40
7.0
 40
7.0
 40
7.0
 40
8.0
 40
8.0
 40
8.0
 40
9.0
 40
9.0
 40
9.0
 40
10.0
 40
10.0
 40
10.0
 40
11.0
 40
11.0
 40
11.0
 40
12.0
 40
12.0
 40
12.0
 40
13.0
 40
13.0
 40
13.0
 40
14.0
 40
14.0
 40
14.0
 40
14.0
 10
371.6055690260222
 20
29.84417316962229
 30
0.0
 10
372.0689343687883
 20
29.65469291793355
 30
0.0
 10
372.4130994077648
 20
29.48243814367106
 30
0.0
 10
372.8396022288387
 20
29.16135524444577
 30
0.0
 10
373.0897161610679
 20
29.51206596484421
 30
0.0
 10
373.2502576106805
 20
29.85037434149574
 30
0.0
 10
373.3977076974492
 20
30.37265081705961
 30
0.0
 10
373.3977076974492
 20
30.37265081705961
 30
0.0
 10
371.6827391648918
 20
30.37265081705961
 30
0.0
 10
371.6827391648918
 20
30.37265081705961
 30
0.0
 10
371.2086940261215
 20
29.77320420262614
 30
0.0
 10
370.6912406842369
 20
29.32189669405842
 30
0.0
 10
370.0807697642506
 20
28.97187499275703
 30
0.0
 10
370.0807697642506
 20
28.97187499275703
 30
0.0
 10
369.4751219779437
 20
29.6595160516129
 30
0.0
 10
369.4751219779437
 20
29.6595160516129
 30
0.0
 10
370.5734184186414
 20
30.24793836049357
 30
0.0
 10
371.1018960660787
 20
30.97140841239604
 30
0.0
 10
371.4870577413296
 20
31.96290689305094
 30
0.0
 10
371.4870577413296
 20
31.96290689305094
 30
0.0
 10
372.5019828712843
 20
31.83199326461145
 30
0.0
 10
372.5019828712843
 20
31.83199326461145
 30
0.0
 10
372.4303248851911
 20
31.61908636362301
 30
0.0
 10
372.3834715865917
 20
31.50608723170681
 30
0.0
 10
372.2525579581522
 20
31.23943684114847
 30
0.0
 10
372.2525579581522
 20
31.23943684114847
 30
0.0
 10
374.5673176146915
 20
31.23943684114847
 30
0.0
 10
374.5673176146915
 20
31.23943684114847
 30
0.0
 10
374.1638969333688
 20
28.6804199147049
 30
0.0
 10
372.8223767514125
 20
27.19696179875632
 30
0.0
 10
370.347420154809
 20
26.61474066174909
 30
0.0
 10
370.347420154809
 20
26.61474066174909
 30
0.0
 10
369.8430581757684
 20
27.46499022750875
 30
0.0
 10
369.8430581757684
 20
27.46499022750875
 30
0.0
 10
370.222707698243
 20
27.52975802263145
 30
0.0
 10
371.1549505365516
 20
27.68409830037064
 30
0.0
 10
372.1519611699829
 20
28.45511066996956
 30
0.0
 10
371.6351968471954
 20
28.87127820458774
 30
0.0
 10
371.2197183316742
 20
29.07867295279978
 30
0.0
 10
370.9764945904156
 20
29.20269639026877
 30
0.0
 10
370.9764945904156
 20
29.20269639026877
 30
0.0
 10
371.6055690260222
 20
29.84417316962229
 30
0.0
 10
371.6055690260222
 20
29.84417316962229
 30
0.0
  0
HATCH
  5
1D8
330
1B2
100
AcDbEntity
  8
Dimension Layer
 62
   250
420
  2234388
100
AcDbHatch
 10
0.0
 20
0.0
 30
0.0
210
0.0
220
0.0
230
1.0
  2
SOLID
 70
     1
 71
     0
 91
        1
 92
        1
 93
        1
 72
     4
 94
        3
 73
     0
 74
     1
 95
       47
 96
       43
 40
0.0
 40
0.0
 40
0.0
 40
0.0
 40
1.0
 40
1.0
 40
1.0
 40
2.0
 40
2.0
 40
2.0
 40
3.0
 40
3.0
 40
3.0
 40
4.0
 40
4.0
 40
4.0
 40
5.0
 40
5.0
 40
5.0
 40
6.0
 40
6.0
 40
6.0
 40
7.0
 40
7.0
 40
7.0
 40
8.0
 40
8.0
 40
8.0
 40
9.0
 40
9.0
 40
9.0
 40
10.0
 40
10.0
 40
10.0
 40
11.0
 40
11.0
 40
11.0
 40
12.0
 40
12.0
 40
12.0
 40
13.0
 40
13.0
 40
13.0
 40
14.0
 40
14.0
 40
14.0
 40
14.0
 10
371.6055690260222
 20
29.84417316962229
 10
372.0689343687883
 20
29.65469291793355
 10
372.4130994077648
 20
29.48243814367106
 10
372.8396022288387
 20
29.16135524444577
 10
373.0897161610679
 20
29.51206596484421
 10
373.2502576106805
 20
29.85037434149574
 10
373.3977076974492
 20
30.37265081705961
 10
373.3977076974492
 20
30.37265081705961
 10
371.6827391648918
 20
30.37265081705961
 10
371.6827391648918
 20
30.37265081705961
 10
371.2086940261215
 20
29.77320420262614
 10
370.6912406842369
 20
29.32189669405842
 10
370.0807697642506
 20
28.97187499275703
 10
370.0807697642506
 20
28.97187499275703
 10
369.4751219779437
 20
29.6595160516129
 10
369.4751219779437
 20
29.6595160516129
 10
370.5734184186414
 20
30.24793836049357
 10
371.1018960660787
 20
30.97140841239604
 10
371.4870577413296
 20
31.96290689305094
 10
371.4870577413296
 20
31.96290689305094
 10
372.5019828712843
 20
31.83199326461145
 10
372.5019828712843
 20
31.83199326461145
 10
372.4303248851911
 20
31.61908636362301
 10
372.3834715865917
 20
31.50608723170681
 10
372.2525579581522
 20
31.23943684114847
 10
372.2525579581522
 20
31.23943684114847
 10
374.5673176146915
 20
31.23943684114847
 10
374.5673176146915
 20
31.23943684114847
 10
374.1638969333688
 20
28.6804199147049
 10
372.8223767514125
 20
27.19696179875632
 10
370.347420154809
 20
26.61474066174909
 10
370.347420154809
 20
26.61474066174909
 10
369.8430581757684
 20
27.46499022750875
 10
369.8430581757684
 20
27.46499022750875
 10
370.222707698243
 20
27.52975802263145
 10
371.1549505365516
 20
27.68409830037064
 10
372.1519611699829
 20
28.45511066996956
 10
371.6351968471954
 20
28.87127820458774
 10
371.2197183316742
 20
29.07867295279978
 10
370.9764945904156
 20
29.20269639026877
 10
370.9764945904156
 20
29.20269639026877
 10
371.6055690260222
 20
29.84417316962229
 10
371.6055690260222
 20
29.84417316962229
 97
        0
 75
     2
 76
     1
 98
        0
  0
SPLINE
  5
1D9
330
1B2
100
AcDbEntity
  8
Dimension Layer
370
     0
100
AcDbSpline
210
0.0
220
0.0
230
1.0
 70
    11
 71
     3
 72
    68
 73
    64
 74
     0
 42
0.0000000001
 43
0.0000000001
 40
0.0
 40
0.0
 40
0.0
 40
0.0
 40
1.0
 40
1.0
 40
1.0
 40
2.0
 40
2.0
 40
2.0
 40
3.0
 40
3.0
 40
3.0
 40
4.0
 40
4.0
 40
4.0
 40
5.0
 40
5.0
 40
5.0
 40
6.0
 40
6.0
 40
6.0
 40
7.0
 40
7.0
 40
7.0
 40
8.0
 40
8.0
 40
8.0
 40
9.0
 40
9.0
 40
9.0
 40
10.0
 40
10.0
 40
10.0
 40
11.0
 40
11.0
 40
11.0
 40
12.0
 40
12.0
 40
12.0
 40
13.0
 40
13.0
 40
13.0
 40
14.0
 40
14.0
 40
14.0
 40
15.0
 40
15.0
 40
15.0
 40
16.0
 40
16.0
 40
16.0
 40
17.0
 40
17.0
 40
17.0
 40
18.0
 40
18.0
 40
18.0
 40
19.0
 40
19.0
 40
19.0
 40
20.0
 40
20.0
 40
20.0
 40
21.0
 40
21.0
 40
21.0
 40
21.0
 10
380.1059976263277
 20
30.84807399402409
 30
0.0
 10
380.1059976263277
 20
30.84807399402409
 30
0.0
 10
380.1059976263277
 20
29.93925780501519
 30
0.0
 10
380.1059976263277
 20
29.93925780501519
 30
0.0
 10
380.1059976263277
 20
29.31018336940857
 30
0.0
 10
380.0522541367578
 20
28.09957681589177
 30
0.0
 10
379.944767157618
 20
27.62484265802435
 30
0.0
 10
379.7497747531528
 20
26.76425780580894
 30
0.0
 10
379.2509249268887
 20
26.68708766693934
 30
0.0
 10
378.7224472794513
 20
26.68708766693934
 30
0.0
 10
378.1409151615412
 20
26.68708766693934
 30
0.0
 10
377.8498045930376
 20
26.75185546206204
 30
0.0
 10
377.6958088248469
 20
26.78768445510864
 30
0.0
 10
377.6958088248469
 20
26.78768445510864
 30
0.0
 10
377.6427543543741
 20
27.71923827432019
 30
0.0
 10
377.6427543543741
 20
27.71923827432019
 30
0.0
 10
377.861862427236
 20
27.67858614759424
 30
0.0
 10
378.1946586511111
 20
27.6186414861509
 30
0.0
 10
378.5501925051889
 20
27.6186414861509
 30
0.0
 10
378.8344128827219
 20
27.6186414861509
 30
0.0
 10
378.9477565241867
 20
27.68409830037064
 30
0.0
 10
379.00770118563
 20
27.84395073088623
 30
0.0
 10
379.1076089547023
 20
28.16434461101447
 30
0.0
 10
379.1551512723987
 20
29.50517577387371
 30
0.0
 10
379.1551512723987
 20
29.6484917460601
 30
0.0
 10
379.1551512723987
 20
29.6484917460601
 30
0.0
 10
379.1551512723987
 20
29.95786132063554
 30
0.0
 10
379.1551512723987
 20
29.95786132063554
 30
0.0
 10
379.1551512723987
 20
29.95786132063554
 30
0.0
 10
377.861862427236
 20
29.95786132063554
 30
0.0
 10
377.861862427236
 20
29.95786132063554
 30
0.0
 10
377.7371499706699
 20
29.23301323053897
 30
0.0
 10
377.5411240375592
 20
28.71073675497509
 30
0.0
 10
377.3154702832753
 20
28.29525823945396
 30
0.0
 10
376.7697671584118
 20
27.28584526227576
 30
0.0
 10
376.0456080874122
 20
26.83453775370803
 30
0.0
 10
375.7482963470352
 20
26.65056965479569
 30
0.0
 10
375.7482963470352
 20
26.65056965479569
 30
0.0
 10
375.0954507525803
 20
27.36921657301881
 30
0.0
 10
375.0954507525803
 20
27.36921657301881
 30
0.0
 10
376.2950330005443
 20
28.03343098257498
 30
0.0
 10
376.6622801792719
 20
28.78239474106829
 30
0.0
 10
376.8758760993574
 20
29.95786132063554
 30
0.0
 10
376.8758760993574
 20
29.95786132063554
 30
0.0
 10
375.3745034868855
 20
29.95786132063554
 30
0.0
 10
375.3745034868855
 20
29.95786132063554
 30
0.0
 10
375.3745034868855
 20
29.95786132063554
 30
0.0
 10
375.3745034868855
 20
30.84807399402409
 30
0.0
 10
375.3745034868855
 20
30.84807399402409
 30
0.0
 10
375.3745034868855
 20
30.84807399402409
 30
0.0
 10
376.9830185689487
 20
30.84807399402409
 30
0.0
 10
376.9830185689487
 20
30.84807399402409
 30
0.0
 10
377.0119573710248
 20
31.24563801302192
 30
0.0
 10
377.0191920715438
 20
31.49437390705696
 30
0.0
 10
377.0191920715438
 20
31.87471244862855
 30
0.0
 10
377.0191920715438
 20
31.87471244862855
 30
0.0
 10
378.0217148577515
 20
31.86231010488165
 30
0.0
 10
378.0217148577515
 20
31.86231010488165
 30
0.0
 10
378.0038003612282
 20
31.35174695396762
 30
0.0
 10
377.986574883802
 20
31.14435220575558
 30
0.0
 10
377.9631482345023
 20
30.84807399402409
 30
0.0
 10
377.9631482345023
 20
30.84807399402409
 30
0.0
 10
380.1059976263277
 20
30.84807399402409
 30
0.0
 10
380.1059976263277
 20
30.84807399402409
 30
0.0
  0
HATCH
  5
1DA
330
1B2
100
AcDbEntity
  8
Dimension Layer
 62
   250
420
  2234388
100
AcDbHatch
 10
0.0
 20
0.0
 30
0.0
210
0.0
220
0.0
230
1.0
  2
SOLID
 70
     1
 71
     0
 91
        1
 92
        1
 93
        1
 72
     4
 94
        3
 73
     0
 74
     1
 95
       68
 96
       64
 40
0.0
 40
0.0
 40
0.0
 40
0.0
 40
1.0
 40
1.0
 40
1.0
 40
2.0
 40
2.0
 40
2.0
 40
3.0
 40
3.0
 40
3.0
 40
4.0
 40
4.0
 40
4.0
 40
5.0
 40
5.0
 40
5.0
 40
6.0
 40
6.0
 40
6.0
 40
7.0
 40
7.0
 40
7.0
 40
8.0
 40
8.0
 40
8.0
 40
9.0
 40
9.0
 40
9.0
 40
10.0
 40
10.0
 40
10.0
 40
11.0
 40
11.0
 40
11.0
 40
12.0
 40
12.0
 40
12.0
 40
13.0
 40
13.0
 40
13.0
 40
14.0
 40
14.0
 40
14.0
 40
15.0
 40
15.0
 40
15.0
 40
16.0
 40
16.0
 40
16.0
 40
17.0
 40
17.0
 40
17.0
 40
18.0
 40
18.0
 40
18.0
 40
19.0
 40
19.0
 40
19.0
 40
20.0
 40
20.0
 40
20.0
 40
21.0
 40
21.0
 40
21.0
 40
21.0
 10
380.1059976263277
 20
30.84807399402409
 10
380.1059976263277
 20
30.84807399402409
 10
380.1059976263277
 20
29.93925780501519
 10
380.1059976263277
 20
29.93925780501519
 10
380.1059976263277
 20
29.31018336940857
 10
380.0522541367578
 20
28.09957681589177
 10
379.944767157618
 20
27.62484265802435
 10
379.7497747531528
 20
26.76425780580894
 10
379.2509249268887
 20
26.68708766693934
 10
378.7224472794513
 20
26.68708766693934
 10
378.1409151615412
 20
26.68708766693934
 10
377.8498045930376
 20
26.75185546206204
 10
377.6958088248469
 20
26.78768445510864
 10
377.6958088248469
 20
26.78768445510864
 10
377.6427543543741
 20
27.71923827432019
 10
377.6427543543741
 20
27.71923827432019
 10
377.861862427236
 20
27.67858614759424
 10
378.1946586511111
 20
27.6186414861509
 10
378.5501925051889
 20
27.6186414861509
 10
378.8344128827219
 20
27.6186414861509
 10
378.9477565241867
 20
27.68409830037064
 10
379.00770118563
 20
27.84395073088623
 10
379.1076089547023
 20
28.16434461101447
 10
379.1551512723987
 20
29.50517577387371
 10
379.1551512723987
 20
29.6484917460601
 10
379.1551512723987
 20
29.6484917460601
 10
379.1551512723987
 20
29.95786132063554
 10
379.1551512723987
 20
29.95786132063554
 10
379.1551512723987
 20
29.95786132063554
 10
377.861862427236
 20
29.95786132063554
 10
377.861862427236
 20
29.95786132063554
 10
377.7371499706699
 20
29.23301323053897
 10
377.5411240375592
 20
28.71073675497509
 10
377.3154702832753
 20
28.29525823945396
 10
376.7697671584118
 20
27.28584526227576
 10
376.0456080874122
 20
26.83453775370803
 10
375.7482963470352
 20
26.65056965479569
 10
375.7482963470352
 20
26.65056965479569
 10
375.0954507525803
 20
27.36921657301881
 10
375.0954507525803
 20
27.36921657301881
 10
376.2950330005443
 20
28.03343098257498
 10
376.6622801792719
 20
28.78239474106829
 10
376.8758760993574
 20
29.95786132063554
 10
376.8758760993574
 20
29.95786132063554
 10
375.3745034868855
 20
29.95786132063554
 10
375.3745034868855
 20
29.95786132063554
 10
375.3745034868855
 20
29.95786132063554
 10
375.3745034868855
 20
30.84807399402409
 10
375.3745034868855
 20
30.84807399402409
 10
375.3745034868855
 20
30.84807399402409
 10
376.9830185689487
 20
30.84807399402409
 10
376.9830185689487
 20
30.84807399402409
 10
377.0119573710248
 20
31.24563801302192
 10
377.0191920715438
 20
31.49437390705696
 10
377.0191920715438
 20
31.87471244862855
 10
377.0191920715438
 20
31.87471244862855
 10
378.0217148577515
 20
31.86231010488165
 10
378.0217148577515
 20
31.86231010488165
 10
378.0038003612282
 20
31.35174695396762
 10
377.986574883802
 20
31.14435220575558
 10
377.9631482345023
 20
30.84807399402409
 10
377.9631482345023
 20
30.84807399402409
 10
380.1059976263277
 20
30.84807399402409
 10
380.1059976263277
 20
30.84807399402409
 97
        0
 75
     2
 76
     1
 98
        0
  0
SPLINE
  5
1DB
330
1B2
100
AcDbEntity
  8
Dimension Layer
370
     0
100
AcDbSpline
210
0.0
220
0.0
230
1.0
 70
    11
 71
     3
 72
    17
 73
    13
 74
     0
 42
0.0000000001
 43
0.0000000001
 40
0.0
 40
0.0
 40
0.0
 40
0.0
 40
1.0
 40
1.0
 40
1.0
 40
2.0
 40
2.0
 40
2.0
 40
3.0
 40
3.0
 40
3.0
 40
4.0
 40
4.0
 40
4.0
 40
4.0
 10
383.185912990141
 20
30.28307833444312
 30
0.0
 10
382.6098930250072
 20
30.58073458436871
 30
0.0
 10
381.9932209331475
 20
30.7819281607073
 30
0.0
 10
381.3696586503173
 20
30.93661294799502
 30
0.0
 10
381.3696586503173
 20
30.93661294799502
 30
0.0
 10
381.7079670269688
 20
31.7251953045687
 30
0.0
 10
381.7079670269688
 20
31.7251953045687
 30
0.0
 10
382.2715846483557
 20
31.61908636362301
 30
0.0
 10
382.9836858851569
 20
31.40549044353752
 30
0.0
 10
383.5600503598392
 20
31.12643770923228
 30
0.0
 10
383.5600503598392
 20
31.12643770923228
 30
0.0
 10
383.185912990141
 20
30.28307833444312
 30
0.0
 10
383.185912990141
 20
30.28307833444312
 30
0.0
  0
SPLINE
  5
1DC
330
1B2
100
AcDbEntity
  8
Dimension Layer
370
     0
100
AcDbSpline
210
0.0
220
0.0
230
1.0
 70
    11
 71
     3
 72
    17
 73
    13
 74
     0
 42
0.0000000001
 43
0.0000000001
 40
0.0
 40
0.0
 40
0.0
 40
0.0
 40
1.0
 40
1.0
 40
1.0
 40
2.0
 40
2.0
 40
2.0
 40
3.0
 40
3.0
 40
3.0
 40
4.0
 40
4.0
 40
4.0
 40
4.0
 10
382.6636365145771
 20
28.85336370806444
 30
0.0
 10
382.1530733636631
 20
29.13792859514608
 30
0.0
 10
381.5412244054828
 20
29.37495116453126
 30
0.0
 10
380.9128389889732
 20
29.5478949578908
 30
0.0
 10
380.9128389889732
 20
29.5478949578908
 30
0.0
 10
381.2449461937513
 20
30.34233397678942
 30
0.0
 10
381.2449461937513
 20
30.34233397678942
 30
0.0
 10
381.7079670269688
 20
30.24793836049357
 30
0.0
 10
382.4617539191415
 20
30.01091579110838
 30
0.0
 10
383.0260605596254
 20
29.70223523563
 30
0.0
 10
383.0260605596254
 20
29.70223523563
 30
0.0
 10
382.6636365145771
 20
28.85336370806444
 30
0.0
 10
382.6636365145771
 20
28.85336370806444
 30
0.0
  0
SPLINE
  5
1DD
330
1B2
100
AcDbEntity
  8
Dimension Layer
370
     0
100
AcDbSpline
210
0.0
220
0.0
230
1.0
 70
    11
 71
     3
 72
    17
 73
    13
 74
     0
 42
0.0000000001
 43
0.0000000001
 40
0.0
 40
0.0
 40
0.0
 40
0.0
 40
1.0
 40
1.0
 40
1.0
 40
2.0
 40
2.0
 40
2.0
 40
3.0
 40
3.0
 40
3.0
 40
4.0
 40
4.0
 40
4.0
 40
4.0
 10
381.227031697228
 20
27.72475042709659
 30
0.0
 10
383.0963405075245
 20
27.89218206767973
 30
0.0
 10
384.4027207155313
 20
28.23531357801062
 30
0.0
 10
385.2102510972738
 20
30.94246961031994
 30
0.0
 10
385.2102510972738
 20
30.94246961031994
 30
0.0
 10
386.1059759234388
 20
30.51527777014896
 30
0.0
 10
386.1059759234388
 20
30.51527777014896
 30
0.0
 10
385.1444497735056
 20
27.65998263197389
 30
0.0
 10
383.6840737973081
 20
26.97165255402098
 30
0.0
 10
381.4874809159129
 20
26.70431314436559
 30
0.0
 10
381.4874809159129
 20
26.70431314436559
 30
0.0
 10
381.227031697228
 20
27.72475042709659
 30
0.0
 10
381.227031697228
 20
27.72475042709659
 30
0.0
  0
HATCH
  5
1DE
330
1B2
100
AcDbEntity
  8
Dimension Layer
 62
   250
420
  2234388
100
AcDbHatch
 10
0.0
 20
0.0
 30
0.0
210
0.0
220
0.0
230
1.0
  2
SOLID
 70
     1
 71
     0
 91
        3
 92
        1
 93
        1
 72
     4
 94
        3
 73
     0
 74
     1
 95
       17
 96
       13
 40
0.0
 40
0.0
 40
0.0
 40
0.0
 40
1.0
 40
1.0
 40
1.0
 40
2.0
 40
2.0
 40
2.0
 40
3.0
 40
3.0
 40
3.0
 40
4.0
 40
4.0
 40
4.0
 40
4.0
 10
381.227031697228
 20
27.72475042709659
 10
383.0963405075245
 20
27.89218206767973
 10
384.4027207155313
 20
28.23531357801062
 10
385.2102510972738
 20
30.94246961031994
 10
385.2102510972738
 20
30.94246961031994
 10
386.1059759234388
 20
30.51527777014896
 10
386.1059759234388
 20
30.51527777014896
 10
385.1444497735056
 20
27.65998263197389
 10
383.6840737973081
 20
26.97165255402098
 10
381.4874809159129
 20
26.70431314436559
 10
381.4874809159129
 20
26.70431314436559
 10
381.227031697228
 20
27.72475042709659
 10
381.227031697228
 20
27.72475042709659
 97
        0
 92
        1
 93
        2
 72
     4
 94
        3
 73
     0
 74
     0
 95
       17
 96
       13
 40
0.0
 40
0.0
 40
0.0
 40
0.0
 40
0.3527777776895833
 40
0.3527777776895833
 40
0.3527777776895833
 40
0.7055555553791667
 40
0.7055555553791667
 40
0.7055555553791667
 40
1.05833333306875
 40
1.05833333306875
 40
1.05833333306875
 40
1.411111110758333
 40
1.411111110758333
 40
1.411111110758333
 40
1.411111110758333
 10
383.185912990141
 20
30.28307833444312
 10
382.6098930250072
 20
30.58073458436871
 10
381.9932209331475
 20
30.7819281607073
 10
381.3696586503173
 20
30.93661294799502
 10
381.3696586503173
 20
30.93661294799502
 10
381.7079670269688
 20
31.7251953045687
 10
381.7079670269688
 20
31.7251953045687
 10
382.2715846483557
 20
31.61908636362301
 10
382.9836858851569
 20
31.40549044353752
 10
383.5600503598392
 20
31.12643770923228
 10
383.5600503598392
 20
31.12643770923228
 10
383.185912990141
 20
30.28307833444312
 10
383.185912990141
 20
30.28307833444312
 72
     1
 10
383.185912990141
 20
30.28307833444312
 11
383.185912990141
 21
30.28307833444312
 97
        0
 92
        1
 93
        2
 72
     4
 94
        3
 73
     0
 74
     0
 95
       17
 96
       13
 40
0.0
 40
0.0
 40
0.0
 40
0.0
 40
0.3527777776895833
 40
0.3527777776895833
 40
0.3527777776895833
 40
0.7055555553791667
 40
0.7055555553791667
 40
0.7055555553791667
 40
1.05833333306875
 40
1.05833333306875
 40
1.05833333306875
 40
1.411111110758333
 40
1.411111110758333
 40
1.411111110758333
 40
1.411111110758333
 10
382.6636365145771
 20
28.85336370806444
 10
382.1530733636631
 20
29.13792859514608
 10
381.5412244054828
 20
29.37495116453126
 10
380.9128389889732
 20
29.5478949578908
 10
380.9128389889732
 20
29.5478949578908
 10
381.2449461937513
 20
30.34233397678942
 10
381.2449461937513
 20
30.34233397678942
 10
381.7079670269688
 20
30.24793836049357
 10
382.4617539191415
 20
30.01091579110838
 10
383.0260605596254
 20
29.70223523563
 10
383.0260605596254
 20
29.70223523563
 10
382.6636365145771
 20
28.85336370806444
 10
382.6636365145771
 20
28.85336370806444
 72
     1
 10
382.6636365145771
 20
28.85336370806444
 11
382.6636365145771
 21
28.85336370806444
 97
        0
 75
     2
 76
     1
 98
        0
  0
POLYLINE
  5
1DF
330
1B2
100
AcDbEntity
  8
Dimension Layer
370
     0
100
AcDb2dPolyline
 66
     1
 10
0.0
 20
0.0
 30
0.0
  0
VERTEX
  5
1E0
330
1DF
100
AcDbEntity
  8
Dimension Layer
370
     0
100
AcDbVertex
100
AcDb2dVertex
 10
390.3448214084902
 20
30.6634168760147
 30
0.0
  0
VERTEX
  5
1E1
330
1DF
100
AcDbEntity
  8
Dimension Layer
370
     0
100
AcDbVertex
100
AcDb2dVertex
 10
390.3448214084902
 20
26.80525444208341
 30
0.0
  0
VERTEX
  5
1E2
330
1DF
100
AcDbEntity
  8
Dimension Layer
370
     0
100
AcDbVertex
100
AcDb2dVertex
 10
386.7116237097457
 20
26.80525444208341
 30
0.0
  0
VERTEX
  5
1E3
330
1DF
100
AcDbEntity
  8
Dimension Layer
370
     0
100
AcDbVertex
100
AcDb2dVertex
 10
386.7116237097457
 20
27.62484265802435
 30
0.0
  0
VERTEX
  5
1E4
330
1DF
100
AcDbEntity
  8
Dimension Layer
370
     0
100
AcDbVertex
100
AcDb2dVertex
 10
389.4411728627092
 20
27.62484265802435
 30
0.0
  0
VERTEX
  5
1E5
330
1DF
100
AcDbEntity
  8
Dimension Layer
370
     0
100
AcDbVertex
100
AcDb2dVertex
 10
389.4411728627092
 20
28.37242837832356
 30
0.0
  0
VERTEX
  5
1E6
330
1DF
100
AcDbEntity
  8
Dimension Layer
370
     0
100
AcDbVertex
100
AcDb2dVertex
 10
386.8659639874849
 20
28.37242837832356
 30
0.0
  0
VERTEX
  5
1E7
330
1DF
100
AcDbEntity
  8
Dimension Layer
370
     0
100
AcDbVertex
100
AcDb2dVertex
 10
386.8659639874849
 20
29.15584309166938
 30
0.0
  0
VERTEX
  5
1E8
330
1DF
100
AcDbEntity
  8
Dimension Layer
370
     0
100
AcDbVertex
100
AcDb2dVertex
 10
389.4411728627092
 20
29.15584309166938
 30
0.0
  0
VERTEX
  5
1E9
330
1DF
100
AcDbEntity
  8
Dimension Layer
370
     0
100
AcDbVertex
100
AcDb2dVertex
 10
389.4411728627092
 20
29.86243217569412
 30
0.0
  0
VERTEX
  5
1EA
330
1DF
100
AcDbEntity
  8
Dimension Layer
370
     0
100
AcDbVertex
100
AcDb2dVertex
 10
386.770879352092
 20
29.86243217569412
 30
0.0
  0
VERTEX
  5
1EB
330
1DF
100
AcDbEntity
  8
Dimension Layer
370
     0
100
AcDbVertex
100
AcDb2dVertex
 10
386.770879352092
 20
30.6634168760147
 30
0.0
  0
VERTEX
  5
1EC
330
1DF
100
AcDbEntity
  8
Dimension Layer
370
     0
100
AcDbVertex
100
AcDb2dVertex
 10
390.3448214084902
 20
30.6634168760147
 30
0.0
  0
SEQEND
  5
1ED
330
1DF
100
AcDbEntity
  8
Dimension Layer
370
     0
  0
HATCH
  5
1EE
330
1B2
100
AcDbEntity
  8
Dimension Layer
 62
   250
420
  2234388
100
AcDbHatch
 10
0.0
 20
0.0
 30
0.0
210
0.0
220
0.0
230
1.0
  2
SOLID
 70
     1
 71
     0
 91
        1
 92
        1
 93
       12
 72
     1
 10
390.3448214084902
 20
30.6634168760147
 11
390.3448214084902
 21
26.80525444208341
 72
     1
 10
390.3448214084902
 20
26.80525444208341
 11
386.7116237097457
 21
26.80525444208341
 72
     1
 10
386.7116237097457
 20
26.80525444208341
 11
386.7116237097457
 21
27.62484265802435
 72
     1
 10
386.7116237097457
 20
27.62484265802435
 11
389.4411728627092
 21
27.62484265802435
 72
     1
 10
389.4411728627092
 20
27.62484265802435
 11
389.4411728627092
 21
28.37242837832356
 72
     1
 10
389.4411728627092
 20
28.37242837832356
 11
386.8659639874849
 21
28.37242837832356
 72
     1
 10
386.8659639874849
 20
28.37242837832356
 11
386.8659639874849
 21
29.15584309166938
 72
     1
 10
386.8659639874849
 20
29.15584309166938
 11
389.4411728627092
 21
29.15584309166938
 72
     1
 10
389.4411728627092
 20
29.15584309166938
 11
389.4411728627092
 21
29.86243217569412
 72
     1
 10
389.4411728627092
 20
29.86243217569412
 11
386.770879352092
 21
29.86243217569412
 72
     1
 10
386.770879352092
 20
29.86243217569412
 11
386.770879352092
 21
30.6634168760147
 72
     1
 10
386.770879352092
 20
30.6634168760147
 11
390.3448214084902
 21
30.6634168760147
 97
        0
 75
     2
 76
     1
 98
        0
  0
POLYLINE
  5
1EF
330
1B2
100
AcDbEntity
  8
Dimension Layer
 62
   250
420
  2234388
370
    70
100
AcDb2dPolyline
 66
     1
 10
0.0
 20
0.0
 30
0.0
  0
VERTEX
  5
1F0
330
1EF
100
AcDbEntity
  8
Dimension Layer
 62
   250
420
  2234388
370
    70
100
AcDbVertex
100
AcDb2dVertex
 10
391.1926594074102
 20
29.25678438938719
 30
0.0
  0
VERTEX
  5
1F1
330
1EF
100
AcDbEntity
  8
Dimension Layer
 62
   250
420
  2234388
370
    70
100
AcDbVertex
100
AcDb2dVertex
 10
395.5968694757536
 20
29.25678438938719
 30
0.0
  0
SEQEND
  5
1F2
330
1EF
100
AcDbEntity
  8
Dimension Layer
370
    70
  0
ENDBLK
  5
1B5
330
1B2
100
AcDbEntity
  8
0
100
AcDbBlockEnd
  0
BLOCK
  5
24A
330
248
100
AcDbEntity
  8
0
100
AcDbBlockBegin
  2
block 10
 70
     0
 71
     0
 10
0.0
 20
0.0
 30
0.0
  3
block 10
  1

  0
MTEXT
  5
24C
330
248
100
AcDbEntity
  8
Dimension Layer
 62
    18
420
   196608
100
AcDbMText
 10
141.4604437580377
 20
272.7234048797358
 30
0.0
 40
1.919111110631334
 41
0.0
 71
     7
 72
     1
  1
\fMS Gothic|b0|i0|c0|p34;\W1;φ120
 73
     1
 44
1.0
  0
POLYLINE
  5
24D
330
248
100
AcDbEntity
  8
Dimension Layer
 62
    18
420
   196608
370
     9
100
AcDb2dPolyline
 66
     1
 10
0.0
 20
0.0
 30
0.0
  0
VERTEX
  5
24E
330
24D
100
AcDbEntity
  8
Dimension Layer
 62
    18
420
   196608
370
     9
100
AcDbVertex
100
AcDb2dVertex
 10
84.77897675831915
 20
201.331035648452
 30
0.0
  0
VERTEX
  5
24F
330
24D
100
AcDbEntity
  8
Dimension Layer
 62
    18
420
   196608
370
     9
100
AcDbVertex
100
AcDb2dVertex
 10
84.77897675831915
 20
272.5473605004395
 30
0.0
  0
SEQEND
  5
250
330
24D
100
AcDbEntity
  8
Dimension Layer
370
     9
  0
POLYLINE
  5
251
330
248
100
AcDbEntity
  8
Dimension Layer
 62
    18
420
   196608
370
     9
100
AcDb2dPolyline
 66
     1
 10
0.0
 20
0.0
 30
0.0
  0
VERTEX
  5
252
330
251
100
AcDbEntity
  8
Dimension Layer
 62
    18
420
   196608
370
     9
100
AcDbVertex
100
AcDb2dVertex
 10
204.7757866241533
 20
201.331035648452
 30
0.0
  0
VERTEX
  5
253
330
251
100
AcDbEntity
  8
Dimension Layer
 62
    18
420
   196608
370
     9
100
AcDbVertex
100
AcDb2dVertex
 10
204.7757866241533
 20
272.5473605004395
 30
0.0
  0
SEQEND
  5
254
330
251
100
AcDbEntity
  8
Dimension Layer
370
     9
  0
POLYLINE
  5
255
330
248
100
AcDbEntity
  8
Dimension Layer
 62
    18
420
   196608
370
     9
100
AcDb2dPolyline
 66
     1
 10
0.0
 20
0.0
 30
0.0
  0
VERTEX
  5
256
330
255
100
AcDbEntity
  8
Dimension Layer
 62
    18
420
   196608
370
     9
100
AcDbVertex
100
AcDb2dVertex
 10
84.77897675831915
 20
271.4890271673708
 30
0.0
  0
VERTEX
  5
257
330
255
100
AcDbEntity
  8
Dimension Layer
 62
    18
420
   196608
370
     9
100
AcDbVertex
100
AcDb2dVertex
 10
204.7757866241533
 20
271.4890271673708
 30
0.0
  0
SEQEND
  5
258
330
255
100
AcDbEntity
  8
Dimension Layer
370
     9
  0
POLYLINE
  5
259
330
248
100
AcDbEntity
  8
Dimension Layer
 62
    18
420
   196608
370
     9
100
AcDb2dPolyline
 66
     1
 10
0.0
 20
0.0
 30
0.0
  0
VERTEX
  5
25A
330
259
100
AcDbEntity
  8
Dimension Layer
 62
    18
420
   196608
370
     9
100
AcDbVertex
100
AcDb2dVertex
 10
86.12497556440626
 20
271.0645914035881
 30
0.0
  0
VERTEX
  5
25B
330
259
100
AcDbEntity
  8
Dimension Layer
 62
    18
420
   196608
370
     9
100
AcDbVertex
100
AcDb2dVertex
 10
84.77897675831915
 20
271.4890271673708
 30
0.0
  0
VERTEX
  5
25C
330
259
100
AcDbEntity
  8
Dimension Layer
 62
    18
420
   196608
370
     9
100
AcDbVertex
100
AcDb2dVertex
 10
86.12497556440626
 20
271.9134629311536
 30
0.0
  0
VERTEX
  5
25D
330
259
100
AcDbEntity
  8
Dimension Layer
 62
    18
420
   196608
370
     9
100
AcDbVertex
100
AcDb2dVertex
 10
86.12497556440626
 20
271.0645914035881
 30
0.0
  0
SEQEND
  5
25E
330
259
100
AcDbEntity
  8
Dimension Layer
370
     9
  0
HATCH
  5
25F
330
248
100
AcDbEntity
  8
Dimension Layer
 62
    18
420
   196608
100
AcDbHatch
 10
0.0
 20
0.0
 30
0.0
210
0.0
220
0.0
230
1.0
  2
SOLID
 70
     1
 71
     0
 91
        1
 92
        1
 93
        3
 72
     1
 10
86.12497556440626
 20
271.0645914035881
 11
84.77897675831915
 21
271.4890271673708
 72
     1
 10
84.77897675831915
 20
271.4890271673708
 11
86.12497556440626
 21
271.9134629311536
 72
     1
 10
86.12497556440626
 20
271.9134629311536
 11
86.12497556440626
 21
271.0645914035881
 97
        0
 75
     2
 76
     1
 98
        0
  0
POLYLINE
  5
260
330
248
100
AcDbEntity
  8
Dimension Layer
 62
    18
420
   196608
370
     9
100
AcDb2dPolyline
 66
     1
 10
0.0
 20
0.0
 30
0.0
  0
VERTEX
  5
261
330
260
100
AcDbEntity
  8
Dimension Layer
 62
    18
420
   196608
370
     9
100
AcDbVertex
100
AcDb2dVertex
 10
203.4297878180662
 20
271.9134629311536
 30
0.0
  0
VERTEX
  5
262
330
260
100
AcDbEntity
  8
Dimension Layer
 62
    18
420
   196608
370
     9
100
AcDbVertex
100
AcDb2dVertex
 10
204.7757866241533
 20
271.4890271673708
 30
0.0
  0
VERTEX
  5
263
330
260
100
AcDbEntity
  8
Dimension Layer
 62
    18
420
   196608
370
     9
100
AcDbVertex
100
AcDb2dVertex
 10
203.4297878180662
 20
271.0645914035881
 30
0.0
  0
VERTEX
  5
264
330
260
100
AcDbEntity
  8
Dimension Layer
 62
    18
420
   196608
370
     9
100
AcDbVertex
100
AcDb2dVertex
 10
203.4297878180662
 20
271.9134629311536
 30
0.0
  0
SEQEND
  5
265
330
260
100
AcDbEntity
  8
Dimension Layer
370
     9
  0
HATCH
  5
266
330
248
100
AcDbEntity
  8
Dimension Layer
 62
    18
420
   196608
100
AcDbHatch
 10
0.0
 20
0.0
 30
0.0
210
0.0
220
0.0
230
1.0
  2
SOLID
 70
     1
 71
     0
 91
        1
 92
        1
 93
        3
 72
     1
 10
203.4297878180662
 20
271.9134629311536
 11
204.7757866241533
 21
271.4890271673708
 72
     1
 10
204.7757866241533
 20
271.4890271673708
 11
203.4297878180662
 21
271.0645914035881
 72
     1
 10
203.4297878180662
 20
271.0645914035881
 11
203.4297878180662
 21
271.9134629311536
 97
        0
 75
     2
 76
     1
 98
        0
  0
ENDBLK
  5
24B
330
248
100
AcDbEntity
  8
0
100
AcDbBlockEnd
  0
BLOCK
  5
26C
330
26A
100
AcDbEntity
  8
0
100
AcDbBlockBegin
  2
block 11
 70
     0
 71
     0
 10
0.0
 20
0.0
 30
0.0
  3
block 11
  1

  0
MTEXT
  5
26E
330
26A
100
AcDbEntity
  8
Dimension Layer
 62
    18
420
   196608
100
AcDbMText
 10
299.6861001854951
 20
272.7234048797358
 30
0.0
 40
1.919111110631334
 41
0.0
 71
     7
 72
     1
  1
\fMS Gothic|b0|i0|c0|p34;\W1;φ120
 73
     1
 44
1.0
  0
POLYLINE
  5
26F
330
26A
100
AcDbEntity
  8
Dimension Layer
 62
    18
420
   196608
370
     9
100
AcDb2dPolyline
 66
     1
 10
0.0
 20
0.0
 30
0.0
  0
VERTEX
  5
270
330
26F
100
AcDbEntity
  8
Dimension Layer
 62
    18
420
   196608
370
     9
100
AcDbVertex
100
AcDb2dVertex
 10
243.0046331857766
 20
201.331035648452
 30
0.0
  0
VERTEX
  5
271
330
26F
100
AcDbEntity
  8
Dimension Layer
 62
    18
420
   196608
370
     9
100
AcDbVertex
100
AcDb2dVertex
 10
243.0046331857766
 20
272.5473605004395
 30
0.0
  0
SEQEND
  5
272
330
26F
100
AcDbEntity
  8
Dimension Layer
370
     9
  0
POLYLINE
  5
273
330
26A
100
AcDbEntity
  8
Dimension Layer
 62
    18
420
   196608
370
     9
100
AcDb2dPolyline
 66
     1
 10
0.0
 20
0.0
 30
0.0
  0
VERTEX
  5
274
330
273
100
AcDbEntity
  8
Dimension Layer
 62
    18
420
   196608
370
     9
100
AcDbVertex
100
AcDb2dVertex
 10
363.0014430516107
 20
201.331035648452
 30
0.0
  0
VERTEX
  5
275
330
273
100
AcDbEntity
  8
Dimension Layer
 62
    18
420
   196608
370
     9
100
AcDbVertex
100
AcDb2dVertex
 10
363.0014430516107
 20
272.5473605004395
 30
0.0
  0
SEQEND
  5
276
330
273
100
AcDbEntity
  8
Dimension Layer
370
     9
  0
POLYLINE
  5
277
330
26A
100
AcDbEntity
  8
Dimension Layer
 62
    18
420
   196608
370
     9
100
AcDb2dPolyline
 66
     1
 10
0.0
 20
0.0
 30
0.0
  0
VERTEX
  5
278
330
277
100
AcDbEntity
  8
Dimension Layer
 62
    18
420
   196608
370
     9
100
AcDbVertex
100
AcDb2dVertex
 10
243.0046331857766
 20
271.4890271673708
 30
0.0
  0
VERTEX
  5
279
330
277
100
AcDbEntity
  8
Dimension Layer
 62
    18
420
   196608
370
     9
100
AcDbVertex
100
AcDb2dVertex
 10
363.0014430516107
 20
271.4890271673708
 30
0.0
  0
SEQEND
  5
27A
330
277
100
AcDbEntity
  8
Dimension Layer
370
     9
  0
POLYLINE
  5
27B
330
26A
100
AcDbEntity
  8
Dimension Layer
 62
    18
420
   196608
370
     9
100
AcDb2dPolyline
 66
     1
 10
0.0
 20
0.0
 30
0.0
  0
VERTEX
  5
27C
330
27B
100
AcDbEntity
  8
Dimension Layer
 62
    18
420
   196608
370
     9
100
AcDbVertex
100
AcDb2dVertex
 10
244.3506319918637
 20
271.0645914035881
 30
0.0
  0
VERTEX
  5
27D
330
27B
100
AcDbEntity
  8
Dimension Layer
 62
    18
420
   196608
370
     9
100
AcDbVertex
100
AcDb2dVertex
 10
243.0046331857766
 20
271.4890271673708
 30
0.0
  0
VERTEX
  5
27E
330
27B
100
AcDbEntity
  8
Dimension Layer
 62
    18
420
   196608
370
     9
100
AcDbVertex
100
AcDb2dVertex
 10
244.3506319918637
 20
271.9134629311536
 30
0.0
  0
VERTEX
  5
27F
330
27B
100
AcDbEntity
  8
Dimension Layer
 62
    18
420
   196608
370
     9
100
AcDbVertex
100
AcDb2dVertex
 10
244.3506319918637
 20
271.0645914035881
 30
0.0
  0
SEQEND
  5
280
330
27B
100
AcDbEntity
  8
Dimension Layer
370
     9
  0
HATCH
  5
281
330
26A
100
AcDbEntity
  8
Dimension Layer
 62
    18
420
   196608
100
AcDbHatch
 10
0.0
 20
0.0
 30
0.0
210
0.0
220
0.0
230
1.0
  2
SOLID
 70
     1
 71
     0
 91
        1
 92
        1
 93
        3
 72
     1
 10
244.3506319918637
 20
271.0645914035881
 11
243.0046331857766
 21
271.4890271673708
 72
     1
 10
243.0046331857766
 20
271.4890271673708
 11
244.3506319918637
 21
271.9134629311536
 72
     1
 10
244.3506319918637
 20
271.9134629311536
 11
244.3506319918637
 21
271.0645914035881
 97
        0
 75
     2
 76
     1
 98
        0
  0
POLYLINE
  5
282
330
26A
100
AcDbEntity
  8
Dimension Layer
 62
    18
420
   196608
370
     9
100
AcDb2dPolyline
 66
     1
 10
0.0
 20
0.0
 30
0.0
  0
VERTEX
  5
283
330
282
100
AcDbEntity
  8
Dimension Layer
 62
    18
420
   196608
370
     9
100
AcDbVertex
100
AcDb2dVertex
 10
361.6554442455237
 20
271.9134629311536
 30
0.0
  0
VERTEX
  5
284
330
282
100
AcDbEntity
  8
Dimension Layer
 62
    18
420
   196608
370
     9
100
AcDbVertex
100
AcDb2dVertex
 10
363.0014430516107
 20
271.4890271673708
 30
0.0
  0
VERTEX
  5
285
330
282
100
AcDbEntity
  8
Dimension Layer
 62
    18
420
   196608
370
     9
100
AcDbVertex
100
AcDb2dVertex
 10
361.6554442455237
 20
271.0645914035881
 30
0.0
  0
VERTEX
  5
286
330
282
100
AcDbEntity
  8
Dimension Layer
 62
    18
420
   196608
370
     9
100
AcDbVertex
100
AcDb2dVertex
 10
361.6554442455237
 20
271.9134629311536
 30
0.0
  0
SEQEND
  5
287
330
282
100
AcDbEntity
  8
Dimension Layer
370
     9
  0
HATCH
  5
288
330
26A
100
AcDbEntity
  8
Dimension Layer
 62
    18
420
   196608
100
AcDbHatch
 10
0.0
 20
0.0
 30
0.0
210
0.0
220
0.0
230
1.0
  2
SOLID
 70
     1
 71
     0
 91
        1
 92
        1
 93
        3
 72
     1
 10
361.6554442455237
 20
271.9134629311536
 11
363.0014430516107
 21
271.4890271673708
 72
     1
 10
363.0014430516107
 20
271.4890271673708
 11
361.6554442455237
 21
271.0645914035881
 72
     1
 10
361.6554442455237
 20
271.0645914035881
 11
361.6554442455237
 21
271.9134629311536
 97
        0
 75
     2
 76
     1
 98
        0
  0
ENDBLK
  5
26D
330
26A
100
AcDbEntity
  8
0
100
AcDbBlockEnd
  0
BLOCK
  5
2CD
330
2CB
100
AcDbEntity
  8
0
100
AcDbBlockBegin
  2
block 12
 70
     0
 71
     0
 10
0.0
 20
0.0
 30
0.0
  3
block 12
  1

  0
INSERT
  5
2D0
330
2CB
100
AcDbEntity
  8
Dimension Layer
100
AcDbBlockReference
  2
block 13
 10
0.0
 20
0.0
 30
0.0
  0
POLYLINE
  5
3DE
330
2CB
100
AcDbEntity
  8
Dimension Layer
 62
     7
420
 16777215
370
    18
100
AcDb2dPolyline
 66
     1
 10
0.0
 20
0.0
 30
0.0
  0
VERTEX
  5
3DF
330
3DE
100
AcDbEntity
  8
Dimension Layer
 62
     7
420
 16777215
370
    18
100
AcDbVertex
100
AcDb2dVertex
 10
164.7789170594997
 20
177.0803195086813
 30
0.0
  0
VERTEX
  5
3E0
330
3DE
100
AcDbEntity
  8
Dimension Layer
 62
     7
420
 16777215
370
    18
100
AcDbVertex
100
AcDb2dVertex
 10
124.779291418458
 20
177.0803195086813
 30
0.0
  0
VERTEX
  5
3E1
330
3DE
100
AcDbEntity
  8
Dimension Layer
 62
     7
420
 16777215
370
    18
100
AcDbVertex
100
AcDb2dVertex
 10
124.779291418458
 20
217.0802896592716
 30
0.0
  0
VERTEX
  5
3E2
330
3DE
100
AcDbEntity
  8
Dimension Layer
 62
     7
420
 16777215
370
    18
100
AcDbVertex
100
AcDb2dVertex
 10
164.7789170594997
 20
217.0802896592716
 30
0.0
  0
VERTEX
  5
3E3
330
3DE
100
AcDbEntity
  8
Dimension Layer
 62
     7
420
 16777215
370
    18
100
AcDbVertex
100
AcDb2dVertex
 10
164.7789170594997
 20
177.0803195086813
 30
0.0
  0
SEQEND
  5
3E4
330
3DE
100
AcDbEntity
  8
Dimension Layer
370
    18
  0
ENDBLK
  5
2CE
330
2CB
100
AcDbEntity
  8
0
100
AcDbBlockEnd
  0
BLOCK
  5
2D1
330
2CF
100
AcDbEntity
  8
0
100
AcDbBlockBegin
  2
block 13
 70
     0
 71
     0
 10
0.0
 20
0.0
 30
0.0
  3
block 13
  1

  0
POLYLINE
  5
2D3
330
2CF
100
AcDbEntity
  8
Dimension Layer
 62
   250
420
  2234388
370
    18
100
AcDb2dPolyline
 66
     1
 10
0.0
 20
0.0
 30
0.0
  0
VERTEX
  5
2D4
330
2D3
100
AcDbEntity
  8
Dimension Layer
 62
   250
420
  2234388
370
    18
100
AcDbVertex
100
AcDb2dVertex
 10
175.7791069439025
 20
164.9449706618888
 30
0.0
  0
VERTEX
  5
2D5
330
2D3
100
AcDbEntity
  8
Dimension Layer
 62
   250
420
  2234388
370
    18
100
AcDbVertex
100
AcDb2dVertex
 10
113.7791015340552
 20
164.9449706618888
 30
0.0
  0
VERTEX
  5
2D6
330
2D3
100
AcDbEntity
  8
Dimension Layer
 62
   250
420
  2234388
370
    18
100
AcDbVertex
100
AcDb2dVertex
 10
113.7791015340552
 20
226.9448038169617
 30
0.0
  0
VERTEX
  5
2D7
330
2D3
100
AcDbEntity
  8
Dimension Layer
 62
   250
420
  2234388
370
    18
100
AcDbVertex
100
AcDb2dVertex
 10
175.7791069439025
 20
226.9448038169617
 30
0.0
  0
VERTEX
  5
2D8
330
2D3
100
AcDbEntity
  8
Dimension Layer
 62
   250
420
  2234388
370
    18
100
AcDbVertex
100
AcDb2dVertex
 10
175.7791069439025
 20
164.9449706618888
 30
0.0
  0
SEQEND
  5
2D9
330
2D3
100
AcDbEntity
  8
Dimension Layer
370
    18
  0
INSERT
  5
2DB
330
2CF
100
AcDbEntity
  8
Dimension Layer
100
AcDbBlockReference
  2
block 14
 10
0.0
 20
0.0
 30
0.0
  0
POLYLINE
  5
316
330
2CF
100
AcDbEntity
  8
Dimension Layer
 62
   250
420
  2234388
370
    18
100
AcDb2dPolyline
 66
     1
 10
0.0
 20
0.0
 30
0.0
  0
VERTEX
  5
317
330
316
100
AcDbEntity
  8
Dimension Layer
 62
   250
420
  2234388
370
    18
100
AcDbVertex
100
AcDb2dVertex
 10
175.779451453451
 20
196.9449123314061
 30
0.0
  0
VERTEX
  5
318
330
316
100
AcDbEntity
  8
Dimension Layer
 62
   250
420
  2234388
370
    18
100
AcDbVertex
100
AcDb2dVertex
 10
175.779451453451
 20
194.9445176378958
 30
0.0
  0
VERTEX
  5
319
330
316
100
AcDbEntity
  8
Dimension Layer
 62
   250
420
  2234388
370
    18
100
AcDbVertex
100
AcDb2dVertex
 10
113.7791015340552
 20
194.9445176378958
 30
0.0
  0
VERTEX
  5
31A
330
316
100
AcDbEntity
  8
Dimension Layer
 62
   250
420
  2234388
370
    18
100
AcDbVertex
100
AcDb2dVertex
 10
113.7791015340552
 20
196.9449123314061
 30
0.0
  0
VERTEX
  5
31B
330
316
100
AcDbEntity
  8
Dimension Layer
 62
   250
420
  2234388
370
    18
100
AcDbVertex
100
AcDb2dVertex
 10
175.779451453451
 20
196.9449123314061
 30
0.0
  0
SEQEND
  5
31C
330
316
100
AcDbEntity
  8
Dimension Layer
370
    18
  0
HATCH
  5
31D
330
2CF
100
AcDbEntity
  8
Dimension Layer
 62
     7
420
 16711422
100
AcDbHatch
 10
0.0
 20
0.0
 30
0.0
210
0.0
220
0.0
230
1.0
  2
SOLID
 70
     1
 71
     0
 91
        1
 92
        1
 93
        4
 72
     1
 10
175.779451453451
 20
196.9449123314061
 11
175.779451453451
 21
194.9445176378958
 72
     1
 10
175.779451453451
 20
194.9445176378958
 11
113.7791015340552
 21
194.9445176378958
 72
     1
 10
113.7791015340552
 20
194.9445176378958
 11
113.7791015340552
 21
196.9449123314061
 72
     1
 10
113.7791015340552
 20
196.9449123314061
 11
175.779451453451
 21
196.9449123314061
 97
        0
 75
     2
 76
     1
 98
        0
  0
POLYLINE
  5
31E
330
2CF
100
AcDbEntity
  8
Dimension Layer
 62
   250
420
  2234388
370
     9
100
AcDb2dPolyline
 66
     1
 10
0.0
 20
0.0
 30
0.0
  0
VERTEX
  5
31F
330
31E
100
AcDbEntity
  8
Dimension Layer
 62
   250
420
  2234388
370
     9
100
AcDbVertex
100
AcDb2dVertex
 10
118.5646836726158
 20
225.944864852368
 30
0.0
  0
VERTEX
  5
320
330
31E
100
AcDbEntity
  8
Dimension Layer
 62
   250
420
  2234388
370
     9
100
AcDbVertex
100
AcDb2dVertex
 10
118.5646836726158
 20
196.9449123314061
 30
0.0
  0
SEQEND
  5
321
330
31E
100
AcDbEntity
  8
Dimension Layer
370
     9
  0
POLYLINE
  5
322
330
2CF
100
AcDbEntity
  8
Dimension Layer
 62
   250
420
  2234388
370
     9
100
AcDb2dPolyline
 66
     1
 10
0.0
 20
0.0
 30
0.0
  0
VERTEX
  5
323
330
322
100
AcDbEntity
  8
Dimension Layer
 62
   250
420
  2234388
370
     9
100
AcDbVertex
100
AcDb2dVertex
 10
120.2982557207935
 20
225.944864852368
 30
0.0
  0
VERTEX
  5
324
330
322
100
AcDbEntity
  8
Dimension Layer
 62
   250
420
  2234388
370
     9
100
AcDbVertex
100
AcDb2dVertex
 10
120.2982557207935
 20
196.9449123314061
 30
0.0
  0
SEQEND
  5
325
330
322
100
AcDbEntity
  8
Dimension Layer
370
     9
  0
POLYLINE
  5
326
330
2CF
100
AcDbEntity
  8
Dimension Layer
 62
   250
420
  2234388
370
     9
100
AcDb2dPolyline
 66
     1
 10
0.0
 20
0.0
 30
0.0
  0
VERTEX
  5
327
330
326
100
AcDbEntity
  8
Dimension Layer
 62
   250
420
  2234388
370
     9
100
AcDbVertex
100
AcDb2dVertex
 10
122.0862602776382
 20
225.944864852368
 30
0.0
  0
VERTEX
  5
328
330
326
100
AcDbEntity
  8
Dimension Layer
 62
   250
420
  2234388
370
     9
100
AcDbVertex
100
AcDb2dVertex
 10
122.0862602776382
 20
196.9449123314061
 30
0.0
  0
SEQEND
  5
329
330
326
100
AcDbEntity
  8
Dimension Layer
370
     9
  0
POLYLINE
  5
32A
330
2CF
100
AcDbEntity
  8
Dimension Layer
 62
   250
420
  2234388
370
     9
100
AcDb2dPolyline
 66
     1
 10
0.0
 20
0.0
 30
0.0
  0
VERTEX
  5
32B
330
32A
100
AcDbEntity
  8
Dimension Layer
 62
   250
420
  2234388
370
     9
100
AcDbVertex
100
AcDb2dVertex
 10
125.5647731890949
 20
225.944864852368
 30
0.0
  0
VERTEX
  5
32C
330
32A
100
AcDbEntity
  8
Dimension Layer
 62
   250
420
  2234388
370
     9
100
AcDbVertex
100
AcDb2dVertex
 10
125.5647731890949
 20
196.9449123314061
 30
0.0
  0
SEQEND
  5
32D
330
32A
100
AcDbEntity
  8
Dimension Layer
370
     9
  0
POLYLINE
  5
32E
330
2CF
100
AcDbEntity
  8
Dimension Layer
 62
   250
420
  2234388
370
     9
100
AcDb2dPolyline
 66
     1
 10
0.0
 20
0.0
 30
0.0
  0
VERTEX
  5
32F
330
32E
100
AcDbEntity
  8
Dimension Layer
 62
   250
420
  2234388
370
     9
100
AcDbVertex
100
AcDb2dVertex
 10
127.2986897468212
 20
225.944864852368
 30
0.0
  0
VERTEX
  5
330
330
32E
100
AcDbEntity
  8
Dimension Layer
 62
   250
420
  2234388
370
     9
100
AcDbVertex
100
AcDb2dVertex
 10
127.2986897468212
 20
196.9449123314061
 30
0.0
  0
SEQEND
  5
331
330
32E
100
AcDbEntity
  8
Dimension Layer
370
     9
  0
POLYLINE
  5
332
330
2CF
100
AcDbEntity
  8
Dimension Layer
 62
   250
420
  2234388
370
     9
100
AcDb2dPolyline
 66
     1
 10
0.0
 20
0.0
 30
0.0
  0
VERTEX
  5
333
330
332
100
AcDbEntity
  8
Dimension Layer
 62
   250
420
  2234388
370
     9
100
AcDbVertex
100
AcDb2dVertex
 10
129.0863497941173
 20
225.944864852368
 30
0.0
  0
VERTEX
  5
334
330
332
100
AcDbEntity
  8
Dimension Layer
 62
   250
420
  2234388
370
     9
100
AcDbVertex
100
AcDb2dVertex
 10
129.0863497941173
 20
196.9449123314061
 30
0.0
  0
SEQEND
  5
335
330
332
100
AcDbEntity
  8
Dimension Layer
370
     9
  0
POLYLINE
  5
336
330
2CF
100
AcDbEntity
  8
Dimension Layer
 62
   250
420
  2234388
370
     9
100
AcDb2dPolyline
 66
     1
 10
0.0
 20
0.0
 30
0.0
  0
VERTEX
  5
337
330
336
100
AcDbEntity
  8
Dimension Layer
 62
   250
420
  2234388
370
     9
100
AcDbVertex
100
AcDb2dVertex
 10
132.5648627055741
 20
225.944864852368
 30
0.0
  0
VERTEX
  5
338
330
336
100
AcDbEntity
  8
Dimension Layer
 62
   250
420
  2234388
370
     9
100
AcDbVertex
100
AcDb2dVertex
 10
132.5648627055741
 20
196.9449123314061
 30
0.0
  0
SEQEND
  5
339
330
336
100
AcDbEntity
  8
Dimension Layer
370
     9
  0
POLYLINE
  5
33A
330
2CF
100
AcDbEntity
  8
Dimension Layer
 62
   250
420
  2234388
370
     9
100
AcDb2dPolyline
 66
     1
 10
0.0
 20
0.0
 30
0.0
  0
VERTEX
  5
33B
330
33A
100
AcDbEntity
  8
Dimension Layer
 62
   250
420
  2234388
370
     9
100
AcDbVertex
100
AcDb2dVertex
 10
134.2984347537518
 20
225.944864852368
 30
0.0
  0
VERTEX
  5
33C
330
33A
100
AcDbEntity
  8
Dimension Layer
 62
   250
420
  2234388
370
     9
100
AcDbVertex
100
AcDb2dVertex
 10
134.2984347537518
 20
196.9449123314061
 30
0.0
  0
SEQEND
  5
33D
330
33A
100
AcDbEntity
  8
Dimension Layer
370
     9
  0
POLYLINE
  5
33E
330
2CF
100
AcDbEntity
  8
Dimension Layer
 62
   250
420
  2234388
370
     9
100
AcDb2dPolyline
 66
     1
 10
0.0
 20
0.0
 30
0.0
  0
VERTEX
  5
33F
330
33E
100
AcDbEntity
  8
Dimension Layer
 62
   250
420
  2234388
370
     9
100
AcDbVertex
100
AcDb2dVertex
 10
136.0864393105965
 20
225.944864852368
 30
0.0
  0
VERTEX
  5
340
330
33E
100
AcDbEntity
  8
Dimension Layer
 62
   250
420
  2234388
370
     9
100
AcDbVertex
100
AcDb2dVertex
 10
136.0864393105965
 20
196.9449123314061
 30
0.0
  0
SEQEND
  5
341
330
33E
100
AcDbEntity
  8
Dimension Layer
370
     9
  0
POLYLINE
  5
342
330
2CF
100
AcDbEntity
  8
Dimension Layer
 62
   250
420
  2234388
370
     9
100
AcDb2dPolyline
 66
     1
 10
0.0
 20
0.0
 30
0.0
  0
VERTEX
  5
343
330
342
100
AcDbEntity
  8
Dimension Layer
 62
   250
420
  2234388
370
     9
100
AcDbVertex
100
AcDb2dVertex
 10
139.5649522220532
 20
225.944864852368
 30
0.0
  0
VERTEX
  5
344
330
342
100
AcDbEntity
  8
Dimension Layer
 62
   250
420
  2234388
370
     9
100
AcDbVertex
100
AcDb2dVertex
 10
139.5649522220532
 20
196.9449123314061
 30
0.0
  0
SEQEND
  5
345
330
342
100
AcDbEntity
  8
Dimension Layer
370
     9
  0
POLYLINE
  5
346
330
2CF
100
AcDbEntity
  8
Dimension Layer
 62
   250
420
  2234388
370
     9
100
AcDb2dPolyline
 66
     1
 10
0.0
 20
0.0
 30
0.0
  0
VERTEX
  5
347
330
346
100
AcDbEntity
  8
Dimension Layer
 62
   250
420
  2234388
370
     9
100
AcDbVertex
100
AcDb2dVertex
 10
141.2988687797795
 20
225.944864852368
 30
0.0
  0
VERTEX
  5
348
330
346
100
AcDbEntity
  8
Dimension Layer
 62
   250
420
  2234388
370
     9
100
AcDbVertex
100
AcDb2dVertex
 10
141.2988687797795
 20
196.9449123314061
 30
0.0
  0
SEQEND
  5
349
330
346
100
AcDbEntity
  8
Dimension Layer
370
     9
  0
POLYLINE
  5
34A
330
2CF
100
AcDbEntity
  8
Dimension Layer
 62
   250
420
  2234388
370
     9
100
AcDb2dPolyline
 66
     1
 10
0.0
 20
0.0
 30
0.0
  0
VERTEX
  5
34B
330
34A
100
AcDbEntity
  8
Dimension Layer
 62
   250
420
  2234388
370
     9
100
AcDbVertex
100
AcDb2dVertex
 10
143.0865288270756
 20
225.944864852368
 30
0.0
  0
VERTEX
  5
34C
330
34A
100
AcDbEntity
  8
Dimension Layer
 62
   250
420
  2234388
370
     9
100
AcDbVertex
100
AcDb2dVertex
 10
143.0865288270756
 20
196.9449123314061
 30
0.0
  0
SEQEND
  5
34D
330
34A
100
AcDbEntity
  8
Dimension Layer
370
     9
  0
POLYLINE
  5
34E
330
2CF
100
AcDbEntity
  8
Dimension Layer
 62
   250
420
  2234388
370
     9
100
AcDb2dPolyline
 66
     1
 10
0.0
 20
0.0
 30
0.0
  0
VERTEX
  5
34F
330
34E
100
AcDbEntity
  8
Dimension Layer
 62
   250
420
  2234388
370
     9
100
AcDbVertex
100
AcDb2dVertex
 10
146.5650417385324
 20
225.944864852368
 30
0.0
  0
VERTEX
  5
350
330
34E
100
AcDbEntity
  8
Dimension Layer
 62
   250
420
  2234388
370
     9
100
AcDbVertex
100
AcDb2dVertex
 10
146.5650417385324
 20
196.9449123314061
 30
0.0
  0
SEQEND
  5
351
330
34E
100
AcDbEntity
  8
Dimension Layer
370
     9
  0
POLYLINE
  5
352
330
2CF
100
AcDbEntity
  8
Dimension Layer
 62
   250
420
  2234388
370
     9
100
AcDb2dPolyline
 66
     1
 10
0.0
 20
0.0
 30
0.0
  0
VERTEX
  5
353
330
352
100
AcDbEntity
  8
Dimension Layer
 62
   250
420
  2234388
370
     9
100
AcDbVertex
100
AcDb2dVertex
 10
148.2986137867101
 20
225.944864852368
 30
0.0
  0
VERTEX
  5
354
330
352
100
AcDbEntity
  8
Dimension Layer
 62
   250
420
  2234388
370
     9
100
AcDbVertex
100
AcDb2dVertex
 10
148.2986137867101
 20
196.9449123314061
 30
0.0
  0
SEQEND
  5
355
330
352
100
AcDbEntity
  8
Dimension Layer
370
     9
  0
POLYLINE
  5
356
330
2CF
100
AcDbEntity
  8
Dimension Layer
 62
   250
420
  2234388
370
     9
100
AcDb2dPolyline
 66
     1
 10
0.0
 20
0.0
 30
0.0
  0
VERTEX
  5
357
330
356
100
AcDbEntity
  8
Dimension Layer
 62
   250
420
  2234388
370
     9
100
AcDbVertex
100
AcDb2dVertex
 10
150.0866183435547
 20
225.944864852368
 30
0.0
  0
VERTEX
  5
358
330
356
100
AcDbEntity
  8
Dimension Layer
 62
   250
420
  2234388
370
     9
100
AcDbVertex
100
AcDb2dVertex
 10
150.0866183435547
 20
196.9449123314061
 30
0.0
  0
SEQEND
  5
359
330
356
100
AcDbEntity
  8
Dimension Layer
370
     9
  0
POLYLINE
  5
35A
330
2CF
100
AcDbEntity
  8
Dimension Layer
 62
   250
420
  2234388
370
     9
100
AcDb2dPolyline
 66
     1
 10
0.0
 20
0.0
 30
0.0
  0
VERTEX
  5
35B
330
35A
100
AcDbEntity
  8
Dimension Layer
 62
   250
420
  2234388
370
     9
100
AcDbVertex
100
AcDb2dVertex
 10
153.5651312550115
 20
225.944864852368
 30
0.0
  0
VERTEX
  5
35C
330
35A
100
AcDbEntity
  8
Dimension Layer
 62
   250
420
  2234388
370
     9
100
AcDbVertex
100
AcDb2dVertex
 10
153.5651312550115
 20
196.9449123314061
 30
0.0
  0
SEQEND
  5
35D
330
35A
100
AcDbEntity
  8
Dimension Layer
370
     9
  0
POLYLINE
  5
35E
330
2CF
100
AcDbEntity
  8
Dimension Layer
 62
   250
420
  2234388
370
     9
100
AcDb2dPolyline
 66
     1
 10
0.0
 20
0.0
 30
0.0
  0
VERTEX
  5
35F
330
35E
100
AcDbEntity
  8
Dimension Layer
 62
   250
420
  2234388
370
     9
100
AcDbVertex
100
AcDb2dVertex
 10
155.2990478127377
 20
225.944864852368
 30
0.0
  0
VERTEX
  5
360
330
35E
100
AcDbEntity
  8
Dimension Layer
 62
   250
420
  2234388
370
     9
100
AcDbVertex
100
AcDb2dVertex
 10
155.2990478127377
 20
196.9449123314061
 30
0.0
  0
SEQEND
  5
361
330
35E
100
AcDbEntity
  8
Dimension Layer
370
     9
  0
POLYLINE
  5
362
330
2CF
100
AcDbEntity
  8
Dimension Layer
 62
   250
420
  2234388
370
     9
100
AcDb2dPolyline
 66
     1
 10
0.0
 20
0.0
 30
0.0
  0
VERTEX
  5
363
330
362
100
AcDbEntity
  8
Dimension Layer
 62
   250
420
  2234388
370
     9
100
AcDbVertex
100
AcDb2dVertex
 10
157.0867078600339
 20
225.944864852368
 30
0.0
  0
VERTEX
  5
364
330
362
100
AcDbEntity
  8
Dimension Layer
 62
   250
420
  2234388
370
     9
100
AcDbVertex
100
AcDb2dVertex
 10
157.0867078600339
 20
196.9449123314061
 30
0.0
  0
SEQEND
  5
365
330
362
100
AcDbEntity
  8
Dimension Layer
370
     9
  0
POLYLINE
  5
366
330
2CF
100
AcDbEntity
  8
Dimension Layer
 62
   250
420
  2234388
370
     9
100
AcDb2dPolyline
 66
     1
 10
0.0
 20
0.0
 30
0.0
  0
VERTEX
  5
367
330
366
100
AcDbEntity
  8
Dimension Layer
 62
   250
420
  2234388
370
     9
100
AcDbVertex
100
AcDb2dVertex
 10
160.5652207714907
 20
225.944864852368
 30
0.0
  0
VERTEX
  5
368
330
366
100
AcDbEntity
  8
Dimension Layer
 62
   250
420
  2234388
370
     9
100
AcDbVertex
100
AcDb2dVertex
 10
160.5652207714907
 20
196.9449123314061
 30
0.0
  0
SEQEND
  5
369
330
366
100
AcDbEntity
  8
Dimension Layer
370
     9
  0
POLYLINE
  5
36A
330
2CF
100
AcDbEntity
  8
Dimension Layer
 62
   250
420
  2234388
370
     9
100
AcDb2dPolyline
 66
     1
 10
0.0
 20
0.0
 30
0.0
  0
VERTEX
  5
36B
330
36A
100
AcDbEntity
  8
Dimension Layer
 62
   250
420
  2234388
370
     9
100
AcDbVertex
100
AcDb2dVertex
 10
162.2987928196684
 20
225.944864852368
 30
0.0
  0
VERTEX
  5
36C
330
36A
100
AcDbEntity
  8
Dimension Layer
 62
   250
420
  2234388
370
     9
100
AcDbVertex
100
AcDb2dVertex
 10
162.2987928196684
 20
196.9449123314061
 30
0.0
  0
SEQEND
  5
36D
330
36A
100
AcDbEntity
  8
Dimension Layer
370
     9
  0
POLYLINE
  5
36E
330
2CF
100
AcDbEntity
  8
Dimension Layer
 62
   250
420
  2234388
370
     9
100
AcDb2dPolyline
 66
     1
 10
0.0
 20
0.0
 30
0.0
  0
VERTEX
  5
36F
330
36E
100
AcDbEntity
  8
Dimension Layer
 62
   250
420
  2234388
370
     9
100
AcDbVertex
100
AcDb2dVertex
 10
164.086797376513
 20
225.944864852368
 30
0.0
  0
VERTEX
  5
370
330
36E
100
AcDbEntity
  8
Dimension Layer
 62
   250
420
  2234388
370
     9
100
AcDbVertex
100
AcDb2dVertex
 10
164.086797376513
 20
196.9449123314061
 30
0.0
  0
SEQEND
  5
371
330
36E
100
AcDbEntity
  8
Dimension Layer
370
     9
  0
POLYLINE
  5
372
330
2CF
100
AcDbEntity
  8
Dimension Layer
 62
   250
420
  2234388
370
     9
100
AcDb2dPolyline
 66
     1
 10
0.0
 20
0.0
 30
0.0
  0
VERTEX
  5
373
330
372
100
AcDbEntity
  8
Dimension Layer
 62
   250
420
  2234388
370
     9
100
AcDbVertex
100
AcDb2dVertex
 10
167.5653102879698
 20
225.944864852368
 30
0.0
  0
VERTEX
  5
374
330
372
100
AcDbEntity
  8
Dimension Layer
 62
   250
420
  2234388
370
     9
100
AcDbVertex
100
AcDb2dVertex
 10
167.5653102879698
 20
196.9449123314061
 30
0.0
  0
SEQEND
  5
375
330
372
100
AcDbEntity
  8
Dimension Layer
370
     9
  0
POLYLINE
  5
376
330
2CF
100
AcDbEntity
  8
Dimension Layer
 62
   250
420
  2234388
370
     9
100
AcDb2dPolyline
 66
     1
 10
0.0
 20
0.0
 30
0.0
  0
VERTEX
  5
377
330
376
100
AcDbEntity
  8
Dimension Layer
 62
   250
420
  2234388
370
     9
100
AcDbVertex
100
AcDb2dVertex
 10
169.299226845696
 20
225.944864852368
 30
0.0
  0
VERTEX
  5
378
330
376
100
AcDbEntity
  8
Dimension Layer
 62
   250
420
  2234388
370
     9
100
AcDbVertex
100
AcDb2dVertex
 10
169.299226845696
 20
196.9449123314061
 30
0.0
  0
SEQEND
  5
379
330
376
100
AcDbEntity
  8
Dimension Layer
370
     9
  0
POLYLINE
  5
37A
330
2CF
100
AcDbEntity
  8
Dimension Layer
 62
   250
420
  2234388
370
     9
100
AcDb2dPolyline
 66
     1
 10
0.0
 20
0.0
 30
0.0
  0
VERTEX
  5
37B
330
37A
100
AcDbEntity
  8
Dimension Layer
 62
   250
420
  2234388
370
     9
100
AcDbVertex
100
AcDb2dVertex
 10
171.0868868929922
 20
225.944864852368
 30
0.0
  0
VERTEX
  5
37C
330
37A
100
AcDbEntity
  8
Dimension Layer
 62
   250
420
  2234388
370
     9
100
AcDbVertex
100
AcDb2dVertex
 10
171.0868868929922
 20
196.9449123314061
 30
0.0
  0
SEQEND
  5
37D
330
37A
100
AcDbEntity
  8
Dimension Layer
370
     9
  0
POLYLINE
  5
37E
330
2CF
100
AcDbEntity
  8
Dimension Layer
 62
   250
420
  2234388
370
     9
100
AcDb2dPolyline
 66
     1
 10
0.0
 20
0.0
 30
0.0
  0
VERTEX
  5
37F
330
37E
100
AcDbEntity
  8
Dimension Layer
 62
   250
420
  2234388
370
     9
100
AcDbVertex
100
AcDb2dVertex
 10
118.5646836726158
 20
194.9445176378958
 30
0.0
  0
VERTEX
  5
380
330
37E
100
AcDbEntity
  8
Dimension Layer
 62
   250
420
  2234388
370
     9
100
AcDbVertex
100
AcDb2dVertex
 10
118.5646836726158
 20
165.9447373717083
 30
0.0
  0
SEQEND
  5
381
330
37E
100
AcDbEntity
  8
Dimension Layer
370
     9
  0
POLYLINE
  5
382
330
2CF
100
AcDbEntity
  8
Dimension Layer
 62
   250
420
  2234388
370
     9
100
AcDb2dPolyline
 66
     1
 10
0.0
 20
0.0
 30
0.0
  0
VERTEX
  5
383
330
382
100
AcDbEntity
  8
Dimension Layer
 62
   250
420
  2234388
370
     9
100
AcDbVertex
100
AcDb2dVertex
 10
120.2982557207935
 20
194.9445176378958
 30
0.0
  0
VERTEX
  5
384
330
382
100
AcDbEntity
  8
Dimension Layer
 62
   250
420
  2234388
370
     9
100
AcDbVertex
100
AcDb2dVertex
 10
120.2982557207935
 20
165.9447373717083
 30
0.0
  0
SEQEND
  5
385
330
382
100
AcDbEntity
  8
Dimension Layer
370
     9
  0
POLYLINE
  5
386
330
2CF
100
AcDbEntity
  8
Dimension Layer
 62
   250
420
  2234388
370
     9
100
AcDb2dPolyline
 66
     1
 10
0.0
 20
0.0
 30
0.0
  0
VERTEX
  5
387
330
386
100
AcDbEntity
  8
Dimension Layer
 62
   250
420
  2234388
370
     9
100
AcDbVertex
100
AcDb2dVertex
 10
122.0862602776382
 20
194.9445176378958
 30
0.0
  0
VERTEX
  5
388
330
386
100
AcDbEntity
  8
Dimension Layer
 62
   250
420
  2234388
370
     9
100
AcDbVertex
100
AcDb2dVertex
 10
122.0862602776382
 20
165.9447373717083
 30
0.0
  0
SEQEND
  5
389
330
386
100
AcDbEntity
  8
Dimension Layer
370
     9
  0
POLYLINE
  5
38A
330
2CF
100
AcDbEntity
  8
Dimension Layer
 62
   250
420
  2234388
370
     9
100
AcDb2dPolyline
 66
     1
 10
0.0
 20
0.0
 30
0.0
  0
VERTEX
  5
38B
330
38A
100
AcDbEntity
  8
Dimension Layer
 62
   250
420
  2234388
370
     9
100
AcDbVertex
100
AcDb2dVertex
 10
125.5647731890949
 20
194.9445176378958
 30
0.0
  0
VERTEX
  5
38C
330
38A
100
AcDbEntity
  8
Dimension Layer
 62
   250
420
  2234388
370
     9
100
AcDbVertex
100
AcDb2dVertex
 10
125.5647731890949
 20
165.9447373717083
 30
0.0
  0
SEQEND
  5
38D
330
38A
100
AcDbEntity
  8
Dimension Layer
370
     9
  0
POLYLINE
  5
38E
330
2CF
100
AcDbEntity
  8
Dimension Layer
 62
   250
420
  2234388
370
     9
100
AcDb2dPolyline
 66
     1
 10
0.0
 20
0.0
 30
0.0
  0
VERTEX
  5
38F
330
38E
100
AcDbEntity
  8
Dimension Layer
 62
   250
420
  2234388
370
     9
100
AcDbVertex
100
AcDb2dVertex
 10
127.2986897468212
 20
194.9445176378958
 30
0.0
  0
VERTEX
  5
390
330
38E
100
AcDbEntity
  8
Dimension Layer
 62
   250
420
  2234388
370
     9
100
AcDbVertex
100
AcDb2dVertex
 10
127.2986897468212
 20
165.9447373717083
 30
0.0
  0
SEQEND
  5
391
330
38E
100
AcDbEntity
  8
Dimension Layer
370
     9
  0
POLYLINE
  5
392
330
2CF
100
AcDbEntity
  8
Dimension Layer
 62
   250
420
  2234388
370
     9
100
AcDb2dPolyline
 66
     1
 10
0.0
 20
0.0
 30
0.0
  0
VERTEX
  5
393
330
392
100
AcDbEntity
  8
Dimension Layer
 62
   250
420
  2234388
370
     9
100
AcDbVertex
100
AcDb2dVertex
 10
129.0863497941173
 20
194.9445176378958
 30
0.0
  0
VERTEX
  5
394
330
392
100
AcDbEntity
  8
Dimension Layer
 62
   250
420
  2234388
370
     9
100
AcDbVertex
100
AcDb2dVertex
 10
129.0863497941173
 20
165.9447373717083
 30
0.0
  0
SEQEND
  5
395
330
392
100
AcDbEntity
  8
Dimension Layer
370
     9
  0
POLYLINE
  5
396
330
2CF
100
AcDbEntity
  8
Dimension Layer
 62
   250
420
  2234388
370
     9
100
AcDb2dPolyline
 66
     1
 10
0.0
 20
0.0
 30
0.0
  0
VERTEX
  5
397
330
396
100
AcDbEntity
  8
Dimension Layer
 62
   250
420
  2234388
370
     9
100
AcDbVertex
100
AcDb2dVertex
 10
132.5648627055741
 20
194.9445176378958
 30
0.0
  0
VERTEX
  5
398
330
396
100
AcDbEntity
  8
Dimension Layer
 62
   250
420
  2234388
370
     9
100
AcDbVertex
100
AcDb2dVertex
 10
132.5648627055741
 20
165.9447373717083
 30
0.0
  0
SEQEND
  5
399
330
396
100
AcDbEntity
  8
Dimension Layer
370
     9
  0
POLYLINE
  5
39A
330
2CF
100
AcDbEntity
  8
Dimension Layer
 62
   250
420
  2234388
370
     9
100
AcDb2dPolyline
 66
     1
 10
0.0
 20
0.0
 30
0.0
  0
VERTEX
  5
39B
330
39A
100
AcDbEntity
  8
Dimension Layer
 62
   250
420
  2234388
370
     9
100
AcDbVertex
100
AcDb2dVertex
 10
134.2984347537518
 20
194.9445176378958
 30
0.0
  0
VERTEX
  5
39C
330
39A
100
AcDbEntity
  8
Dimension Layer
 62
   250
420
  2234388
370
     9
100
AcDbVertex
100
AcDb2dVertex
 10
134.2984347537518
 20
165.9447373717083
 30
0.0
  0
SEQEND
  5
39D
330
39A
100
AcDbEntity
  8
Dimension Layer
370
     9
  0
POLYLINE
  5
39E
330
2CF
100
AcDbEntity
  8
Dimension Layer
 62
   250
420
  2234388
370
     9
100
AcDb2dPolyline
 66
     1
 10
0.0
 20
0.0
 30
0.0
  0
VERTEX
  5
39F
330
39E
100
AcDbEntity
  8
Dimension Layer
 62
   250
420
  2234388
370
     9
100
AcDbVertex
100
AcDb2dVertex
 10
136.0864393105965
 20
194.9445176378958
 30
0.0
  0
VERTEX
  5
3A0
330
39E
100
AcDbEntity
  8
Dimension Layer
 62
   250
420
  2234388
370
     9
100
AcDbVertex
100
AcDb2dVertex
 10
136.0864393105965
 20
165.9447373717083
 30
0.0
  0
SEQEND
  5
3A1
330
39E
100
AcDbEntity
  8
Dimension Layer
370
     9
  0
POLYLINE
  5
3A2
330
2CF
100
AcDbEntity
  8
Dimension Layer
 62
   250
420
  2234388
370
     9
100
AcDb2dPolyline
 66
     1
 10
0.0
 20
0.0
 30
0.0
  0
VERTEX
  5
3A3
330
3A2
100
AcDbEntity
  8
Dimension Layer
 62
   250
420
  2234388
370
     9
100
AcDbVertex
100
AcDb2dVertex
 10
139.5649522220532
 20
194.9445176378958
 30
0.0
  0
VERTEX
  5
3A4
330
3A2
100
AcDbEntity
  8
Dimension Layer
 62
   250
420
  2234388
370
     9
100
AcDbVertex
100
AcDb2dVertex
 10
139.5649522220532
 20
165.9447373717083
 30
0.0
  0
SEQEND
  5
3A5
330
3A2
100
AcDbEntity
  8
Dimension Layer
370
     9
  0
POLYLINE
  5
3A6
330
2CF
100
AcDbEntity
  8
Dimension Layer
 62
   250
420
  2234388
370
     9
100
AcDb2dPolyline
 66
     1
 10
0.0
 20
0.0
 30
0.0
  0
VERTEX
  5
3A7
330
3A6
100
AcDbEntity
  8
Dimension Layer
 62
   250
420
  2234388
370
     9
100
AcDbVertex
100
AcDb2dVertex
 10
141.2988687797795
 20
194.9445176378958
 30
0.0
  0
VERTEX
  5
3A8
330
3A6
100
AcDbEntity
  8
Dimension Layer
 62
   250
420
  2234388
370
     9
100
AcDbVertex
100
AcDb2dVertex
 10
141.2988687797795
 20
165.9447373717083
 30
0.0
  0
SEQEND
  5
3A9
330
3A6
100
AcDbEntity
  8
Dimension Layer
370
     9
  0
POLYLINE
  5
3AA
330
2CF
100
AcDbEntity
  8
Dimension Layer
 62
   250
420
  2234388
370
     9
100
AcDb2dPolyline
 66
     1
 10
0.0
 20
0.0
 30
0.0
  0
VERTEX
  5
3AB
330
3AA
100
AcDbEntity
  8
Dimension Layer
 62
   250
420
  2234388
370
     9
100
AcDbVertex
100
AcDb2dVertex
 10
143.0865288270756
 20
194.9445176378958
 30
0.0
  0
VERTEX
  5
3AC
330
3AA
100
AcDbEntity
  8
Dimension Layer
 62
   250
420
  2234388
370
     9
100
AcDbVertex
100
AcDb2dVertex
 10
143.0865288270756
 20
165.9447373717083
 30
0.0
  0
SEQEND
  5
3AD
330
3AA
100
AcDbEntity
  8
Dimension Layer
370
     9
  0
POLYLINE
  5
3AE
330
2CF
100
AcDbEntity
  8
Dimension Layer
 62
   250
420
  2234388
370
     9
100
AcDb2dPolyline
 66
     1
 10
0.0
 20
0.0
 30
0.0
  0
VERTEX
  5
3AF
330
3AE
100
AcDbEntity
  8
Dimension Layer
 62
   250
420
  2234388
370
     9
100
AcDbVertex
100
AcDb2dVertex
 10
146.5650417385324
 20
194.9445176378958
 30
0.0
  0
VERTEX
  5
3B0
330
3AE
100
AcDbEntity
  8
Dimension Layer
 62
   250
420
  2234388
370
     9
100
AcDbVertex
100
AcDb2dVertex
 10
146.5650417385324
 20
165.9447373717083
 30
0.0
  0
SEQEND
  5
3B1
330
3AE
100
AcDbEntity
  8
Dimension Layer
370
     9
  0
POLYLINE
  5
3B2
330
2CF
100
AcDbEntity
  8
Dimension Layer
 62
   250
420
  2234388
370
     9
100
AcDb2dPolyline
 66
     1
 10
0.0
 20
0.0
 30
0.0
  0
VERTEX
  5
3B3
330
3B2
100
AcDbEntity
  8
Dimension Layer
 62
   250
420
  2234388
370
     9
100
AcDbVertex
100
AcDb2dVertex
 10
148.2986137867101
 20
194.9445176378958
 30
0.0
  0
VERTEX
  5
3B4
330
3B2
100
AcDbEntity
  8
Dimension Layer
 62
   250
420
  2234388
370
     9
100
AcDbVertex
100
AcDb2dVertex
 10
148.2986137867101
 20
165.9447373717083
 30
0.0
  0
SEQEND
  5
3B5
330
3B2
100
AcDbEntity
  8
Dimension Layer
370
     9
  0
POLYLINE
  5
3B6
330
2CF
100
AcDbEntity
  8
Dimension Layer
 62
   250
420
  2234388
370
     9
100
AcDb2dPolyline
 66
     1
 10
0.0
 20
0.0
 30
0.0
  0
VERTEX
  5
3B7
330
3B6
100
AcDbEntity
  8
Dimension Layer
 62
   250
420
  2234388
370
     9
100
AcDbVertex
100
AcDb2dVertex
 10
150.0866183435547
 20
194.9445176378958
 30
0.0
  0
VERTEX
  5
3B8
330
3B6
100
AcDbEntity
  8
Dimension Layer
 62
   250
420
  2234388
370
     9
100
AcDbVertex
100
AcDb2dVertex
 10
150.0866183435547
 20
165.9447373717083
 30
0.0
  0
SEQEND
  5
3B9
330
3B6
100
AcDbEntity
  8
Dimension Layer
370
     9
  0
POLYLINE
  5
3BA
330
2CF
100
AcDbEntity
  8
Dimension Layer
 62
   250
420
  2234388
370
     9
100
AcDb2dPolyline
 66
     1
 10
0.0
 20
0.0
 30
0.0
  0
VERTEX
  5
3BB
330
3BA
100
AcDbEntity
  8
Dimension Layer
 62
   250
420
  2234388
370
     9
100
AcDbVertex
100
AcDb2dVertex
 10
153.5651312550115
 20
194.9445176378958
 30
0.0
  0
VERTEX
  5
3BC
330
3BA
100
AcDbEntity
  8
Dimension Layer
 62
   250
420
  2234388
370
     9
100
AcDbVertex
100
AcDb2dVertex
 10
153.5651312550115
 20
165.9447373717083
 30
0.0
  0
SEQEND
  5
3BD
330
3BA
100
AcDbEntity
  8
Dimension Layer
370
     9
  0
POLYLINE
  5
3BE
330
2CF
100
AcDbEntity
  8
Dimension Layer
 62
   250
420
  2234388
370
     9
100
AcDb2dPolyline
 66
     1
 10
0.0
 20
0.0
 30
0.0
  0
VERTEX
  5
3BF
330
3BE
100
AcDbEntity
  8
Dimension Layer
 62
   250
420
  2234388
370
     9
100
AcDbVertex
100
AcDb2dVertex
 10
155.2990478127377
 20
194.9445176378958
 30
0.0
  0
VERTEX
  5
3C0
330
3BE
100
AcDbEntity
  8
Dimension Layer
 62
   250
420
  2234388
370
     9
100
AcDbVertex
100
AcDb2dVertex
 10
155.2990478127377
 20
165.9447373717083
 30
0.0
  0
SEQEND
  5
3C1
330
3BE
100
AcDbEntity
  8
Dimension Layer
370
     9
  0
POLYLINE
  5
3C2
330
2CF
100
AcDbEntity
  8
Dimension Layer
 62
   250
420
  2234388
370
     9
100
AcDb2dPolyline
 66
     1
 10
0.0
 20
0.0
 30
0.0
  0
VERTEX
  5
3C3
330
3C2
100
AcDbEntity
  8
Dimension Layer
 62
   250
420
  2234388
370
     9
100
AcDbVertex
100
AcDb2dVertex
 10
157.0867078600339
 20
194.9445176378958
 30
0.0
  0
VERTEX
  5
3C4
330
3C2
100
AcDbEntity
  8
Dimension Layer
 62
   250
420
  2234388
370
     9
100
AcDbVertex
100
AcDb2dVertex
 10
157.0867078600339
 20
165.9447373717083
 30
0.0
  0
SEQEND
  5
3C5
330
3C2
100
AcDbEntity
  8
Dimension Layer
370
     9
  0
POLYLINE
  5
3C6
330
2CF
100
AcDbEntity
  8
Dimension Layer
 62
   250
420
  2234388
370
     9
100
AcDb2dPolyline
 66
     1
 10
0.0
 20
0.0
 30
0.0
  0
VERTEX
  5
3C7
330
3C6
100
AcDbEntity
  8
Dimension Layer
 62
   250
420
  2234388
370
     9
100
AcDbVertex
100
AcDb2dVertex
 10
160.5652207714907
 20
194.9445176378958
 30
0.0
  0
VERTEX
  5
3C8
330
3C6
100
AcDbEntity
  8
Dimension Layer
 62
   250
420
  2234388
370
     9
100
AcDbVertex
100
AcDb2dVertex
 10
160.5652207714907
 20
165.9447373717083
 30
0.0
  0
SEQEND
  5
3C9
330
3C6
100
AcDbEntity
  8
Dimension Layer
370
     9
  0
POLYLINE
  5
3CA
330
2CF
100
AcDbEntity
  8
Dimension Layer
 62
   250
420
  2234388
370
     9
100
AcDb2dPolyline
 66
     1
 10
0.0
 20
0.0
 30
0.0
  0
VERTEX
  5
3CB
330
3CA
100
AcDbEntity
  8
Dimension Layer
 62
   250
420
  2234388
370
     9
100
AcDbVertex
100
AcDb2dVertex
 10
162.2987928196684
 20
194.9445176378958
 30
0.0
  0
VERTEX
  5
3CC
330
3CA
100
AcDbEntity
  8
Dimension Layer
 62
   250
420
  2234388
370
     9
100
AcDbVertex
100
AcDb2dVertex
 10
162.2987928196684
 20
165.9447373717083
 30
0.0
  0
SEQEND
  5
3CD
330
3CA
100
AcDbEntity
  8
Dimension Layer
370
     9
  0
POLYLINE
  5
3CE
330
2CF
100
AcDbEntity
  8
Dimension Layer
 62
   250
420
  2234388
370
     9
100
AcDb2dPolyline
 66
     1
 10
0.0
 20
0.0
 30
0.0
  0
VERTEX
  5
3CF
330
3CE
100
AcDbEntity
  8
Dimension Layer
 62
   250
420
  2234388
370
     9
100
AcDbVertex
100
AcDb2dVertex
 10
164.086797376513
 20
194.9445176378958
 30
0.0
  0
VERTEX
  5
3D0
330
3CE
100
AcDbEntity
  8
Dimension Layer
 62
   250
420
  2234388
370
     9
100
AcDbVertex
100
AcDb2dVertex
 10
164.086797376513
 20
165.9447373717083
 30
0.0
  0
SEQEND
  5
3D1
330
3CE
100
AcDbEntity
  8
Dimension Layer
370
     9
  0
POLYLINE
  5
3D2
330
2CF
100
AcDbEntity
  8
Dimension Layer
 62
   250
420
  2234388
370
     9
100
AcDb2dPolyline
 66
     1
 10
0.0
 20
0.0
 30
0.0
  0
VERTEX
  5
3D3
330
3D2
100
AcDbEntity
  8
Dimension Layer
 62
   250
420
  2234388
370
     9
100
AcDbVertex
100
AcDb2dVertex
 10
167.5653102879698
 20
194.9445176378958
 30
0.0
  0
VERTEX
  5
3D4
330
3D2
100
AcDbEntity
  8
Dimension Layer
 62
   250
420
  2234388
370
     9
100
AcDbVertex
100
AcDb2dVertex
 10
167.5653102879698
 20
165.9447373717083
 30
0.0
  0
SEQEND
  5
3D5
330
3D2
100
AcDbEntity
  8
Dimension Layer
370
     9
  0
POLYLINE
  5
3D6
330
2CF
100
AcDbEntity
  8
Dimension Layer
 62
   250
420
  2234388
370
     9
100
AcDb2dPolyline
 66
     1
 10
0.0
 20
0.0
 30
0.0
  0
VERTEX
  5
3D7
330
3D6
100
AcDbEntity
  8
Dimension Layer
 62
   250
420
  2234388
370
     9
100
AcDbVertex
100
AcDb2dVertex
 10
169.299226845696
 20
194.9445176378958
 30
0.0
  0
VERTEX
  5
3D8
330
3D6
100
AcDbEntity
  8
Dimension Layer
 62
   250
420
  2234388
370
     9
100
AcDbVertex
100
AcDb2dVertex
 10
169.299226845696
 20
165.9447373717083
 30
0.0
  0
SEQEND
  5
3D9
330
3D6
100
AcDbEntity
  8
Dimension Layer
370
     9
  0
POLYLINE
  5
3DA
330
2CF
100
AcDbEntity
  8
Dimension Layer
 62
   250
420
  2234388
370
     9
100
AcDb2dPolyline
 66
     1
 10
0.0
 20
0.0
 30
0.0
  0
VERTEX
  5
3DB
330
3DA
100
AcDbEntity
  8
Dimension Layer
 62
   250
420
  2234388
370
     9
100
AcDbVertex
100
AcDb2dVertex
 10
171.0868868929922
 20
194.9445176378958
 30
0.0
  0
VERTEX
  5
3DC
330
3DA
100
AcDbEntity
  8
Dimension Layer
 62
   250
420
  2234388
370
     9
100
AcDbVertex
100
AcDb2dVertex
 10
171.0868868929922
 20
165.9447373717083
 30
0.0
  0
SEQEND
  5
3DD
330
3DA
100
AcDbEntity
  8
Dimension Layer
370
     9
  0
ENDBLK
  5
2D2
330
2CF
100
AcDbEntity
  8
0
100
AcDbBlockEnd
  0
BLOCK
  5
2DC
330
2DA
100
AcDbEntity
  8
0
100
AcDbBlockBegin
  2
block 14
 70
     0
 71
     0
 10
0.0
 20
0.0
 30
0.0
  3
block 14
  1

  0
POLYLINE
  5
2DE
330
2DA
100
AcDbEntity
  8
Dimension Layer
 62
   250
420
  2234388
370
    18
100
AcDb2dPolyline
 66
     1
 10
0.0
 20
0.0
 30
0.0
  0
VERTEX
  5
2DF
330
2DE
100
AcDbEntity
  8
Dimension Layer
 62
   250
420
  2234388
370
    18
100
AcDbVertex
100
AcDb2dVertex
 10
123.7788356895414
 20
164.9449706618888
 30
0.0
  0
VERTEX
  5
2E0
330
2DE
100
AcDbEntity
  8
Dimension Layer
 62
   250
420
  2234388
370
    18
100
AcDbVertex
100
AcDb2dVertex
 10
116.7787461730623
 20
164.9449706618888
 30
0.0
  0
VERTEX
  5
2E1
330
2DE
100
AcDbEntity
  8
Dimension Layer
 62
   250
420
  2234388
370
    18
100
AcDbVertex
100
AcDb2dVertex
 10
116.7787461730623
 20
226.9448038169617
 30
0.0
  0
VERTEX
  5
2E2
330
2DE
100
AcDbEntity
  8
Dimension Layer
 62
   250
420
  2234388
370
    18
100
AcDbVertex
100
AcDb2dVertex
 10
123.7788356895414
 20
226.9448038169617
 30
0.0
  0
VERTEX
  5
2E3
330
2DE
100
AcDbEntity
  8
Dimension Layer
 62
   250
420
  2234388
370
    18
100
AcDbVertex
100
AcDb2dVertex
 10
123.7788356895414
 20
164.9449706618888
 30
0.0
  0
SEQEND
  5
2E4
330
2DE
100
AcDbEntity
  8
Dimension Layer
370
    18
  0
POLYLINE
  5
2E5
330
2DA
100
AcDbEntity
  8
Dimension Layer
 62
   250
420
  2234388
370
    18
100
AcDb2dPolyline
 66
     1
 10
0.0
 20
0.0
 30
0.0
  0
VERTEX
  5
2E6
330
2E5
100
AcDbEntity
  8
Dimension Layer
 62
   250
420
  2234388
370
    18
100
AcDbVertex
100
AcDb2dVertex
 10
130.7789252060205
 20
164.9449706618888
 30
0.0
  0
VERTEX
  5
2E7
330
2E5
100
AcDbEntity
  8
Dimension Layer
 62
   250
420
  2234388
370
    18
100
AcDbVertex
100
AcDb2dVertex
 10
123.7788356895414
 20
164.9449706618888
 30
0.0
  0
VERTEX
  5
2E8
330
2E5
100
AcDbEntity
  8
Dimension Layer
 62
   250
420
  2234388
370
    18
100
AcDbVertex
100
AcDb2dVertex
 10
123.7788356895414
 20
226.9448038169617
 30
0.0
  0
VERTEX
  5
2E9
330
2E5
100
AcDbEntity
  8
Dimension Layer
 62
   250
420
  2234388
370
    18
100
AcDbVertex
100
AcDb2dVertex
 10
130.7789252060205
 20
226.9448038169617
 30
0.0
  0
VERTEX
  5
2EA
330
2E5
100
AcDbEntity
  8
Dimension Layer
 62
   250
420
  2234388
370
    18
100
AcDbVertex
100
AcDb2dVertex
 10
130.7789252060205
 20
164.9449706618888
 30
0.0
  0
SEQEND
  5
2EB
330
2E5
100
AcDbEntity
  8
Dimension Layer
370
    18
  0
POLYLINE
  5
2EC
330
2DA
100
AcDbEntity
  8
Dimension Layer
 62
   250
420
  2234388
370
    18
100
AcDb2dPolyline
 66
     1
 10
0.0
 20
0.0
 30
0.0
  0
VERTEX
  5
2ED
330
2EC
100
AcDbEntity
  8
Dimension Layer
 62
   250
420
  2234388
370
    18
100
AcDbVertex
100
AcDb2dVertex
 10
137.7790147224997
 20
164.9449706618888
 30
0.0
  0
VERTEX
  5
2EE
330
2EC
100
AcDbEntity
  8
Dimension Layer
 62
   250
420
  2234388
370
    18
100
AcDbVertex
100
AcDb2dVertex
 10
130.7789252060205
 20
164.9449706618888
 30
0.0
  0
VERTEX
  5
2EF
330
2EC
100
AcDbEntity
  8
Dimension Layer
 62
   250
420
  2234388
370
    18
100
AcDbVertex
100
AcDb2dVertex
 10
130.7789252060205
 20
226.9448038169617
 30
0.0
  0
VERTEX
  5
2F0
330
2EC
100
AcDbEntity
  8
Dimension Layer
 62
   250
420
  2234388
370
    18
100
AcDbVertex
100
AcDb2dVertex
 10
137.7790147224997
 20
226.9448038169617
 30
0.0
  0
VERTEX
  5
2F1
330
2EC
100
AcDbEntity
  8
Dimension Layer
 62
   250
420
  2234388
370
    18
100
AcDbVertex
100
AcDb2dVertex
 10
137.7790147224997
 20
164.9449706618888
 30
0.0
  0
SEQEND
  5
2F2
330
2EC
100
AcDbEntity
  8
Dimension Layer
370
    18
  0
POLYLINE
  5
2F3
330
2DA
100
AcDbEntity
  8
Dimension Layer
 62
   250
420
  2234388
370
    18
100
AcDb2dPolyline
 66
     1
 10
0.0
 20
0.0
 30
0.0
  0
VERTEX
  5
2F4
330
2F3
100
AcDbEntity
  8
Dimension Layer
 62
   250
420
  2234388
370
    18
100
AcDbVertex
100
AcDb2dVertex
 10
144.7791042389788
 20
164.9449706618888
 30
0.0
  0
VERTEX
  5
2F5
330
2F3
100
AcDbEntity
  8
Dimension Layer
 62
   250
420
  2234388
370
    18
100
AcDbVertex
100
AcDb2dVertex
 10
137.7790147224997
 20
164.9449706618888
 30
0.0
  0
VERTEX
  5
2F6
330
2F3
100
AcDbEntity
  8
Dimension Layer
 62
   250
420
  2234388
370
    18
100
AcDbVertex
100
AcDb2dVertex
 10
137.7790147224997
 20
226.9448038169617
 30
0.0
  0
VERTEX
  5
2F7
330
2F3
100
AcDbEntity
  8
Dimension Layer
 62
   250
420
  2234388
370
    18
100
AcDbVertex
100
AcDb2dVertex
 10
144.7791042389788
 20
226.9448038169617
 30
0.0
  0
VERTEX
  5
2F8
330
2F3
100
AcDbEntity
  8
Dimension Layer
 62
   250
420
  2234388
370
    18
100
AcDbVertex
100
AcDb2dVertex
 10
144.7791042389788
 20
164.9449706618888
 30
0.0
  0
SEQEND
  5
2F9
330
2F3
100
AcDbEntity
  8
Dimension Layer
370
    18
  0
POLYLINE
  5
2FA
330
2DA
100
AcDbEntity
  8
Dimension Layer
 62
   250
420
  2234388
370
    18
100
AcDb2dPolyline
 66
     1
 10
0.0
 20
0.0
 30
0.0
  0
VERTEX
  5
2FB
330
2FA
100
AcDbEntity
  8
Dimension Layer
 62
   250
420
  2234388
370
    18
100
AcDbVertex
100
AcDb2dVertex
 10
151.779193755458
 20
164.9449706618888
 30
0.0
  0
VERTEX
  5
2FC
330
2FA
100
AcDbEntity
  8
Dimension Layer
 62
   250
420
  2234388
370
    18
100
AcDbVertex
100
AcDb2dVertex
 10
144.7791042389788
 20
164.9449706618888
 30
0.0
  0
VERTEX
  5
2FD
330
2FA
100
AcDbEntity
  8
Dimension Layer
 62
   250
420
  2234388
370
    18
100
AcDbVertex
100
AcDb2dVertex
 10
144.7791042389788
 20
226.9448038169617
 30
0.0
  0
VERTEX
  5
2FE
330
2FA
100
AcDbEntity
  8
Dimension Layer
 62
   250
420
  2234388
370
    18
100
AcDbVertex
100
AcDb2dVertex
 10
151.779193755458
 20
226.9448038169617
 30
0.0
  0
VERTEX
  5
2FF
330
2FA
100
AcDbEntity
  8
Dimension Layer
 62
   250
420
  2234388
370
    18
100
AcDbVertex
100
AcDb2dVertex
 10
151.779193755458
 20
164.9449706618888
 30
0.0
  0
SEQEND
  5
300
330
2FA
100
AcDbEntity
  8
Dimension Layer
370
    18
  0
POLYLINE
  5
301
330
2DA
100
AcDbEntity
  8
Dimension Layer
 62
   250
420
  2234388
370
    18
100
AcDb2dPolyline
 66
     1
 10
0.0
 20
0.0
 30
0.0
  0
VERTEX
  5
302
330
301
100
AcDbEntity
  8
Dimension Layer
 62
   250
420
  2234388
370
    18
100
AcDbVertex
100
AcDb2dVertex
 10
158.7792832719371
 20
164.9449706618888
 30
0.0
  0
VERTEX
  5
303
330
301
100
AcDbEntity
  8
Dimension Layer
 62
   250
420
  2234388
370
    18
100
AcDbVertex
100
AcDb2dVertex
 10
151.779193755458
 20
164.9449706618888
 30
0.0
  0
VERTEX
  5
304
330
301
100
AcDbEntity
  8
Dimension Layer
 62
   250
420
  2234388
370
    18
100
AcDbVertex
100
AcDb2dVertex
 10
151.779193755458
 20
226.9448038169617
 30
0.0
  0
VERTEX
  5
305
330
301
100
AcDbEntity
  8
Dimension Layer
 62
   250
420
  2234388
370
    18
100
AcDbVertex
100
AcDb2dVertex
 10
158.7792832719371
 20
226.9448038169617
 30
0.0
  0
VERTEX
  5
306
330
301
100
AcDbEntity
  8
Dimension Layer
 62
   250
420
  2234388
370
    18
100
AcDbVertex
100
AcDb2dVertex
 10
158.7792832719371
 20
164.9449706618888
 30
0.0
  0
SEQEND
  5
307
330
301
100
AcDbEntity
  8
Dimension Layer
370
    18
  0
POLYLINE
  5
308
330
2DA
100
AcDbEntity
  8
Dimension Layer
 62
   250
420
  2234388
370
    18
100
AcDb2dPolyline
 66
     1
 10
0.0
 20
0.0
 30
0.0
  0
VERTEX
  5
309
330
308
100
AcDbEntity
  8
Dimension Layer
 62
   250
420
  2234388
370
    18
100
AcDbVertex
100
AcDb2dVertex
 10
165.7793727884163
 20
164.9449706618888
 30
0.0
  0
VERTEX
  5
30A
330
308
100
AcDbEntity
  8
Dimension Layer
 62
   250
420
  2234388
370
    18
100
AcDbVertex
100
AcDb2dVertex
 10
158.7792832719371
 20
164.9449706618888
 30
0.0
  0
VERTEX
  5
30B
330
308
100
AcDbEntity
  8
Dimension Layer
 62
   250
420
  2234388
370
    18
100
AcDbVertex
100
AcDb2dVertex
 10
158.7792832719371
 20
226.9448038169617
 30
0.0
  0
VERTEX
  5
30C
330
308
100
AcDbEntity
  8
Dimension Layer
 62
   250
420
  2234388
370
    18
100
AcDbVertex
100
AcDb2dVertex
 10
165.7793727884163
 20
226.9448038169617
 30
0.0
  0
VERTEX
  5
30D
330
308
100
AcDbEntity
  8
Dimension Layer
 62
   250
420
  2234388
370
    18
100
AcDbVertex
100
AcDb2dVertex
 10
165.7793727884163
 20
164.9449706618888
 30
0.0
  0
SEQEND
  5
30E
330
308
100
AcDbEntity
  8
Dimension Layer
370
    18
  0
POLYLINE
  5
30F
330
2DA
100
AcDbEntity
  8
Dimension Layer
 62
   250
420
  2234388
370
    18
100
AcDb2dPolyline
 66
     1
 10
0.0
 20
0.0
 30
0.0
  0
VERTEX
  5
310
330
30F
100
AcDbEntity
  8
Dimension Layer
 62
   250
420
  2234388
370
    18
100
AcDbVertex
100
AcDb2dVertex
 10
172.7794623048954
 20
164.9449706618888
 30
0.0
  0
VERTEX
  5
311
330
30F
100
AcDbEntity
  8
Dimension Layer
 62
   250
420
  2234388
370
    18
100
AcDbVertex
100
AcDb2dVertex
 10
165.7793727884163
 20
164.9449706618888
 30
0.0
  0
VERTEX
  5
312
330
30F
100
AcDbEntity
  8
Dimension Layer
 62
   250
420
  2234388
370
    18
100
AcDbVertex
100
AcDb2dVertex
 10
165.7793727884163
 20
226.9448038169617
 30
0.0
  0
VERTEX
  5
313
330
30F
100
AcDbEntity
  8
Dimension Layer
 62
   250
420
  2234388
370
    18
100
AcDbVertex
100
AcDb2dVertex
 10
172.7794623048954
 20
226.9448038169617
 30
0.0
  0
VERTEX
  5
314
330
30F
100
AcDbEntity
  8
Dimension Layer
 62
   250
420
  2234388
370
    18
100
AcDbVertex
100
AcDb2dVertex
 10
172.7794623048954
 20
164.9449706618888
 30
0.0
  0
SEQEND
  5
315
330
30F
100
AcDbEntity
  8
Dimension Layer
370
    18
  0
ENDBLK
  5
2DD
330
2DA
100
AcDbEntity
  8
0
100
AcDbBlockEnd
  0
BLOCK
  5
3E7
330
3E5
100
AcDbEntity
  8
0
100
AcDbBlockBegin
  2
block 15
 70
     0
 71
     0
 10
0.0
 20
0.0
 30
0.0
  3
block 15
  1

  0
MTEXT
  5
3E9
330
3E5
100
AcDbEntity
  8
Dimension Layer
 62
    18
420
   196608
100
AcDbMText
 10
137.0837944535763
 20
262.7209146478614
 30
0.0
 40
1.919111110631334
 41
0.0
 71
     7
 72
     1
  1
\fMS Gothic|b0|i0|c0|p34;\W1;ｾﾙ部分 □40
 73
     1
 44
1.0
  0
POLYLINE
  5
3EA
330
3E5
100
AcDbEntity
  8
Dimension Layer
 62
    18
420
   196608
370
     9
100
AcDb2dPolyline
 66
     1
 10
0.0
 20
0.0
 30
0.0
  0
VERTEX
  5
3EB
330
3EA
100
AcDbEntity
  8
Dimension Layer
 62
    18
420
   196608
370
     9
100
AcDbVertex
100
AcDb2dVertex
 10
124.779291418458
 20
217.7858452146508
 30
0.0
  0
VERTEX
  5
3EC
330
3EA
100
AcDbEntity
  8
Dimension Layer
 62
    18
420
   196608
370
     9
100
AcDbVertex
100
AcDb2dVertex
 10
124.779291418458
 20
262.5446980137909
 30
0.0
  0
SEQEND
  5
3ED
330
3EA
100
AcDbEntity
  8
Dimension Layer
370
     9
  0
POLYLINE
  5
3EE
330
3E5
100
AcDbEntity
  8
Dimension Layer
 62
    18
420
   196608
370
     9
100
AcDb2dPolyline
 66
     1
 10
0.0
 20
0.0
 30
0.0
  0
VERTEX
  5
3EF
330
3EE
100
AcDbEntity
  8
Dimension Layer
 62
    18
420
   196608
370
     9
100
AcDbVertex
100
AcDb2dVertex
 10
164.7789170594997
 20
217.7858452146508
 30
0.0
  0
VERTEX
  5
3F0
330
3EE
100
AcDbEntity
  8
Dimension Layer
 62
    18
420
   196608
370
     9
100
AcDbVertex
100
AcDb2dVertex
 10
164.7789170594997
 20
262.5446980137909
 30
0.0
  0
SEQEND
  5
3F1
330
3EE
100
AcDbEntity
  8
Dimension Layer
370
     9
  0
POLYLINE
  5
3F2
330
3E5
100
AcDbEntity
  8
Dimension Layer
 62
    18
420
   196608
370
     9
100
AcDb2dPolyline
 66
     1
 10
0.0
 20
0.0
 30
0.0
  0
VERTEX
  5
3F3
330
3F2
100
AcDbEntity
  8
Dimension Layer
 62
    18
420
   196608
370
     9
100
AcDbVertex
100
AcDb2dVertex
 10
124.779291418458
 20
261.4863646807221
 30
0.0
  0
VERTEX
  5
3F4
330
3F2
100
AcDbEntity
  8
Dimension Layer
 62
    18
420
   196608
370
     9
100
AcDbVertex
100
AcDb2dVertex
 10
164.7789170594997
 20
261.4863646807221
 30
0.0
  0
SEQEND
  5
3F5
330
3F2
100
AcDbEntity
  8
Dimension Layer
370
     9
  0
POLYLINE
  5
3F6
330
3E5
100
AcDbEntity
  8
Dimension Layer
 62
    18
420
   196608
370
     9
100
AcDb2dPolyline
 66
     1
 10
0.0
 20
0.0
 30
0.0
  0
VERTEX
  5
3F7
330
3F6
100
AcDbEntity
  8
Dimension Layer
 62
    18
420
   196608
370
     9
100
AcDbVertex
100
AcDb2dVertex
 10
126.1251179697708
 20
261.0621011717137
 30
0.0
  0
VERTEX
  5
3F8
330
3F6
100
AcDbEntity
  8
Dimension Layer
 62
    18
420
   196608
370
     9
100
AcDbVertex
100
AcDb2dVertex
 10
124.779291418458
 20
261.4863646807221
 30
0.0
  0
VERTEX
  5
3F9
330
3F6
100
AcDbEntity
  8
Dimension Layer
 62
    18
420
   196608
370
     9
100
AcDbVertex
100
AcDb2dVertex
 10
126.1251179697708
 20
261.9106281897307
 30
0.0
  0
VERTEX
  5
3FA
330
3F6
100
AcDbEntity
  8
Dimension Layer
 62
    18
420
   196608
370
     9
100
AcDbVertex
100
AcDb2dVertex
 10
126.1251179697708
 20
261.0621011717137
 30
0.0
  0
SEQEND
  5
3FB
330
3F6
100
AcDbEntity
  8
Dimension Layer
370
     9
  0
HATCH
  5
3FC
330
3E5
100
AcDbEntity
  8
Dimension Layer
 62
    18
420
   196608
100
AcDbHatch
 10
0.0
 20
0.0
 30
0.0
210
0.0
220
0.0
230
1.0
  2
SOLID
 70
     1
 71
     0
 91
        1
 92
        1
 93
        3
 72
     1
 10
126.1251179697708
 20
261.0621011717137
 11
124.779291418458
 21
261.4863646807221
 72
     1
 10
124.779291418458
 20
261.4863646807221
 11
126.1251179697708
 21
261.9106281897307
 72
     1
 10
126.1251179697708
 20
261.9106281897307
 11
126.1251179697708
 21
261.0621011717137
 97
        0
 75
     2
 76
     1
 98
        0
  0
POLYLINE
  5
3FD
330
3E5
100
AcDbEntity
  8
Dimension Layer
 62
    18
420
   196608
370
     9
100
AcDb2dPolyline
 66
     1
 10
0.0
 20
0.0
 30
0.0
  0
VERTEX
  5
3FE
330
3FD
100
AcDbEntity
  8
Dimension Layer
 62
    18
420
   196608
370
     9
100
AcDbVertex
100
AcDb2dVertex
 10
163.4330905081869
 20
261.9106281897307
 30
0.0
  0
VERTEX
  5
3FF
330
3FD
100
AcDbEntity
  8
Dimension Layer
 62
    18
420
   196608
370
     9
100
AcDbVertex
100
AcDb2dVertex
 10
164.7789170594997
 20
261.4863646807221
 30
0.0
  0
VERTEX
  5
400
330
3FD
100
AcDbEntity
  8
Dimension Layer
 62
    18
420
   196608
370
     9
100
AcDbVertex
100
AcDb2dVertex
 10
163.4330905081869
 20
261.0621011717137
 30
0.0
  0
VERTEX
  5
401
330
3FD
100
AcDbEntity
  8
Dimension Layer
 62
    18
420
   196608
370
     9
100
AcDbVertex
100
AcDb2dVertex
 10
163.4330905081869
 20
261.9106281897307
 30
0.0
  0
SEQEND
  5
402
330
3FD
100
AcDbEntity
  8
Dimension Layer
370
     9
  0
HATCH
  5
403
330
3E5
100
AcDbEntity
  8
Dimension Layer
 62
    18
420
   196608
100
AcDbHatch
 10
0.0
 20
0.0
 30
0.0
210
0.0
220
0.0
230
1.0
  2
SOLID
 70
     1
 71
     0
 91
        1
 92
        1
 93
        3
 72
     1
 10
163.4330905081869
 20
261.9106281897307
 11
164.7789170594997
 21
261.4863646807221
 72
     1
 10
164.7789170594997
 20
261.4863646807221
 11
163.4330905081869
 21
261.0621011717137
 72
     1
 10
163.4330905081869
 20
261.0621011717137
 11
163.4330905081869
 21
261.9106281897307
 97
        0
 75
     2
 76
     1
 98
        0
  0
ENDBLK
  5
3E8
330
3E5
100
AcDbEntity
  8
0
100
AcDbBlockEnd
  0
BLOCK
  5
406
330
404
100
AcDbEntity
  8
0
100
AcDbBlockBegin
  2
block 16
 70
     0
 71
     0
 10
0.0
 20
0.0
 30
0.0
  3
block 16
  1

  0
MTEXT
  5
408
330
404
100
AcDbEntity
  8
Dimension Layer
 62
    18
420
   196608
100
AcDbMText
 10
300.4236951288871
 20
263.245602690265
 30
0.0
 40
1.919111110631334
 41
0.0
 71
     7
 72
     1
  1
\fMS Gothic|b0|i0|c0|p34;\W1;φ111
 73
     1
 44
1.0
  0
POLYLINE
  5
409
330
404
100
AcDbEntity
  8
Dimension Layer
 62
    18
420
   196608
370
     9
100
AcDb2dPolyline
 66
     1
 10
0.0
 20
0.0
 30
0.0
  0
VERTEX
  5
40A
330
409
100
AcDbEntity
  8
Dimension Layer
 62
    18
420
   196608
370
     9
100
AcDbVertex
100
AcDb2dVertex
 10
247.50461690861
 20
197.7851711202586
 30
0.0
  0
VERTEX
  5
40B
330
409
100
AcDbEntity
  8
Dimension Layer
 62
    18
420
   196608
370
     9
100
AcDbVertex
100
AcDb2dVertex
 10
247.50461690861
 20
263.0695583109687
 30
0.0
  0
SEQEND
  5
40C
330
409
100
AcDbEntity
  8
Dimension Layer
370
     9
  0
POLYLINE
  5
40D
330
404
100
AcDbEntity
  8
Dimension Layer
 62
    18
420
   196608
370
     9
100
AcDb2dPolyline
 66
     1
 10
0.0
 20
0.0
 30
0.0
  0
VERTEX
  5
40E
330
40D
100
AcDbEntity
  8
Dimension Layer
 62
    18
420
   196608
370
     9
100
AcDbVertex
100
AcDb2dVertex
 10
358.5045599147142
 20
197.7851711202586
 30
0.0
  0
VERTEX
  5
40F
330
40D
100
AcDbEntity
  8
Dimension Layer
 62
    18
420
   196608
370
     9
100
AcDbVertex
100
AcDb2dVertex
 10
358.5045599147142
 20
263.0695583109687
 30
0.0
  0
SEQEND
  5
410
330
40D
100
AcDbEntity
  8
Dimension Layer
370
     9
  0
POLYLINE
  5
411
330
404
100
AcDbEntity
  8
Dimension Layer
 62
    18
420
   196608
370
     9
100
AcDb2dPolyline
 66
     1
 10
0.0
 20
0.0
 30
0.0
  0
VERTEX
  5
412
330
411
100
AcDbEntity
  8
Dimension Layer
 62
    18
420
   196608
370
     9
100
AcDbVertex
100
AcDb2dVertex
 10
247.50461690861
 20
262.0112249779
 30
0.0
  0
VERTEX
  5
413
330
411
100
AcDbEntity
  8
Dimension Layer
 62
    18
420
   196608
370
     9
100
AcDbVertex
100
AcDb2dVertex
 10
358.5045599147142
 20
262.0112249779
 30
0.0
  0
SEQEND
  5
414
330
411
100
AcDbEntity
  8
Dimension Layer
370
     9
  0
POLYLINE
  5
415
330
404
100
AcDbEntity
  8
Dimension Layer
 62
    18
420
   196608
370
     9
100
AcDb2dPolyline
 66
     1
 10
0.0
 20
0.0
 30
0.0
  0
VERTEX
  5
416
330
415
100
AcDbEntity
  8
Dimension Layer
 62
    18
420
   196608
370
     9
100
AcDbVertex
100
AcDb2dVertex
 10
248.8502712051485
 20
261.5869614688914
 30
0.0
  0
VERTEX
  5
417
330
415
100
AcDbEntity
  8
Dimension Layer
 62
    18
420
   196608
370
     9
100
AcDbVertex
100
AcDb2dVertex
 10
247.50461690861
 20
262.0112249779
 30
0.0
  0
VERTEX
  5
418
330
415
100
AcDbEntity
  8
Dimension Layer
 62
    18
420
   196608
370
     9
100
AcDbVertex
100
AcDb2dVertex
 10
248.8502712051485
 20
262.4354884869085
 30
0.0
  0
VERTEX
  5
419
330
415
100
AcDbEntity
  8
Dimension Layer
 62
    18
420
   196608
370
     9
100
AcDbVertex
100
AcDb2dVertex
 10
248.8502712051485
 20
261.5869614688914
 30
0.0
  0
SEQEND
  5
41A
330
415
100
AcDbEntity
  8
Dimension Layer
370
     9
  0
HATCH
  5
41B
330
404
100
AcDbEntity
  8
Dimension Layer
 62
    18
420
   196608
100
AcDbHatch
 10
0.0
 20
0.0
 30
0.0
210
0.0
220
0.0
230
1.0
  2
SOLID
 70
     1
 71
     0
 91
        1
 92
        1
 93
        3
 72
     1
 10
248.8502712051485
 20
261.5869614688914
 11
247.50461690861
 21
262.0112249779
 72
     1
 10
247.50461690861
 20
262.0112249779
 11
248.8502712051485
 21
262.4354884869085
 72
     1
 10
248.8502712051485
 20
262.4354884869085
 11
248.8502712051485
 21
261.5869614688914
 97
        0
 75
     2
 76
     1
 98
        0
  0
POLYLINE
  5
41C
330
404
100
AcDbEntity
  8
Dimension Layer
 62
    18
420
   196608
370
     9
100
AcDb2dPolyline
 66
     1
 10
0.0
 20
0.0
 30
0.0
  0
VERTEX
  5
41D
330
41C
100
AcDbEntity
  8
Dimension Layer
 62
    18
420
   196608
370
     9
100
AcDbVertex
100
AcDb2dVertex
 10
357.1589056181756
 20
262.4354884869085
 30
0.0
  0
VERTEX
  5
41E
330
41C
100
AcDbEntity
  8
Dimension Layer
 62
    18
420
   196608
370
     9
100
AcDbVertex
100
AcDb2dVertex
 10
358.5045599147142
 20
262.0112249779
 30
0.0
  0
VERTEX
  5
41F
330
41C
100
AcDbEntity
  8
Dimension Layer
 62
    18
420
   196608
370
     9
100
AcDbVertex
100
AcDb2dVertex
 10
357.1589056181756
 20
261.5869614688914
 30
0.0
  0
VERTEX
  5
420
330
41C
100
AcDbEntity
  8
Dimension Layer
 62
    18
420
   196608
370
     9
100
AcDbVertex
100
AcDb2dVertex
 10
357.1589056181756
 20
262.4354884869085
 30
0.0
  0
SEQEND
  5
421
330
41C
100
AcDbEntity
  8
Dimension Layer
370
     9
  0
HATCH
  5
422
330
404
100
AcDbEntity
  8
Dimension Layer
 62
    18
420
   196608
100
AcDbHatch
 10
0.0
 20
0.0
 30
0.0
210
0.0
220
0.0
230
1.0
  2
SOLID
 70
     1
 71
     0
 91
        1
 92
        1
 93
        3
 72
     1
 10
357.1589056181756
 20
262.4354884869085
 11
358.5045599147142
 21
262.0112249779
 72
     1
 10
358.5045599147142
 20
262.0112249779
 11
357.1589056181756
 21
261.5869614688914
 72
     1
 10
357.1589056181756
 20
261.5869614688914
 11
357.1589056181756
 21
262.4354884869085
 97
        0
 75
     2
 76
     1
 98
        0
  0
ENDBLK
  5
407
330
404
100
AcDbEntity
  8
0
100
AcDbBlockEnd
  0
ENDSEC
  0
SECTION
  2
ENTITIES
  0
INSERT
  5
3D
330
1F
100
AcDbEntity
  8
Dimension Layer
100
AcDbBlockReference
  2
block 2
 10
0.0
 20
0.0
 30
0.0
  0
MTEXT
  5
20E
330
1F
100
AcDbEntity
  8
Dimension Layer
 62
   250
420
  2234388
100
AcDbMText
 10
134.1211845910357
 20
49.7147949094463
 30
0.0
 40
2.878666665947001
 41
0.0
 71
     7
 72
     1
  1
\fMS Gothic|b0|i0|c0|p34;\W1;【正面図】
 73
     1
 44
1.0
  0
MTEXT
  5
20F
330
1F
100
AcDbEntity
  8
Dimension Layer
 62
   250
420
  2234388
100
AcDbMText
 10
134.1211845910357
 20
129.3275064780848
 30
0.0
 40
2.878666665947001
 41
0.0
 71
     7
 72
     1
  1
\fMS Gothic|b0|i0|c0|p34;\W1;【上面図】
 73
     1
 44
1.0
  0
MTEXT
  5
210
330
1F
100
AcDbEntity
  8
Dimension Layer
 62
   250
420
  2234388
100
AcDbMText
 10
292.617108759311
 20
129.3275064780848
 30
0.0
 40
2.878666665947001
 41
0.0
 71
     7
 72
     1
  1
\fMS Gothic|b0|i0|c0|p34;\W1;【底面図】
 73
     1
 44
1.0
  0
SPLINE
  5
211
330
1F
100
AcDbEntity
  8
Dimension Layer
 62
     7
420
 16777215
370
    25
100
AcDbSpline
210
0.0
220
0.0
230
1.0
 70
    11
 71
     3
 72
    17
 73
    13
 74
     0
 42
0.0000000001
 43
0.0000000001
 40
0.0
 40
0.0
 40
0.0
 40
0.0
 40
1.0
 40
1.0
 40
1.0
 40
2.0
 40
2.0
 40
2.0
 40
3.0
 40
3.0
 40
3.0
 40
4.0
 40
4.0
 40
4.0
 40
4.0
 10
204.77888721009
 20
197.0796155648794
 30
0.0
 10
204.77888721009
 20
163.9426201304553
 30
0.0
 10
177.9164441829515
 20
137.080349358091
 30
0.0
 10
144.7794487485274
 20
137.080349358091
 30
0.0
 10
111.6424533141033
 20
137.080349358091
 30
0.0
 10
84.77897675831915
 20
163.9426201304553
 30
0.0
 10
84.77897675831915
 20
197.0796155648794
 30
0.0
 10
84.77897675831915
 20
230.2166109993035
 30
0.0
 10
111.6424533141033
 20
257.0802598098619
 30
0.0
 10
144.7794487485274
 20
257.0802598098619
 30
0.0
 10
177.9164441829515
 20
257.0802598098619
 30
0.0
 10
204.77888721009
 20
230.2166109993035
 30
0.0
 10
204.77888721009
 20
197.0796155648794
 30
0.0
  0
SPLINE
  5
212
330
1F
100
AcDbEntity
  8
Dimension Layer
 62
     7
420
 16777215
370
    18
100
AcDbSpline
210
0.0
220
0.0
230
1.0
 70
    11
 71
     3
 72
    17
 73
    13
 74
     0
 42
0.0000000001
 43
0.0000000001
 40
0.0
 40
0.0
 40
0.0
 40
0.0
 40
1.0
 40
1.0
 40
1.0
 40
2.0
 40
2.0
 40
2.0
 40
3.0
 40
3.0
 40
3.0
 40
4.0
 40
4.0
 40
4.0
 40
4.0
 10
174.7789957245344
 20
197.0801323292022
 30
0.0
 10
174.7789957245344
 20
180.5114623572159
 30
0.0
 10
161.3476019561909
 20
167.0804130984209
 30
0.0
 10
144.7791042389788
 20
167.0804130984209
 30
0.0
 10
128.2106065217668
 20
167.0804130984209
 30
0.0
 10
114.7788682438747
 20
180.5114623572159
 30
0.0
 10
114.7788682438747
 20
197.0801323292022
 30
0.0
 10
114.7788682438747
 20
213.6486300464142
 30
0.0
 10
128.2106065217668
 20
227.0805405790806
 30
0.0
 10
144.7791042389788
 20
227.0805405790806
 30
0.0
 10
161.3476019561909
 20
227.0805405790806
 30
0.0
 10
174.7789957245344
 20
213.6486300464142
 30
0.0
 10
174.7789957245344
 20
197.0801323292022
 30
0.0
  0
SPLINE
  5
213
330
1F
100
AcDbEntity
  8
Dimension Layer
 62
     7
420
 16777215
370
     9
100
AcDbSpline
210
0.0
220
0.0
230
1.0
 70
    11
 71
     3
 72
    17
 73
    13
 74
     0
 42
0.0000000001
 43
0.0000000001
 40
0.0
 40
0.0
 40
0.0
 40
0.0
 40
1.0
 40
1.0
 40
1.0
 40
2.0
 40
2.0
 40
2.0
 40
3.0
 40
3.0
 40
3.0
 40
4.0
 40
4.0
 40
4.0
 40
4.0
 10
184.7790743895691
 20
197.0799600744279
 30
0.0
 10
184.7790743895691
 20
174.9884575300376
 30
0.0
 10
166.8704345285949
 20
157.0805066881604
 30
0.0
 10
144.7791042389788
 20
157.0805066881604
 30
0.0
 10
122.687946204137
 20
157.0805066881604
 30
0.0
 10
104.7789618336143
 20
174.9884575300376
 30
0.0
 10
104.7789618336143
 20
197.0799600744279
 30
0.0
 10
104.7789618336143
 20
219.171290364044
 30
0.0
 10
122.687946204137
 20
237.080446989341
 30
0.0
 10
144.7791042389788
 20
237.080446989341
 30
0.0
 10
166.8704345285949
 20
237.080446989341
 30
0.0
 10
184.7790743895691
 20
219.171290364044
 30
0.0
 10
184.7790743895691
 20
197.0799600744279
 30
0.0
  0
POLYLINE
  5
214
330
1F
100
AcDbEntity
  8
Dimension Layer
 62
    18
420
   262144
370
    25
100
AcDb2dPolyline
 66
     1
 10
0.0
 20
0.0
 30
0.0
  0
VERTEX
  5
215
330
214
100
AcDbEntity
  8
Dimension Layer
 62
    18
420
   262144
370
    25
100
AcDbVertex
100
AcDb2dVertex
 10
85.28781736149055
 20
104.110096545153
 30
0.0
  0
VERTEX
  5
423
330
214
100
AcDbEntity
  8
0
100
AcDbVertex
100
AcDb2dVertex
 10
85.28781736149055
 20
104.110096545153
 30
0.0
  0
SEQEND
  5
216
330
214
100
AcDbEntity
  8
Dimension Layer
370
    25
  0
POLYLINE
  5
217
330
1F
100
AcDbEntity
  8
Dimension Layer
 62
    18
420
   262144
370
    25
100
AcDb2dPolyline
 66
     1
 10
0.0
 20
0.0
 30
0.0
  0
VERTEX
  5
218
330
217
100
AcDbEntity
  8
Dimension Layer
 62
    18
420
   262144
370
    25
100
AcDbVertex
100
AcDb2dVertex
 10
84.77897675831915
 20
104.6182481292274
 30
0.0
  0
VERTEX
  5
424
330
217
100
AcDbEntity
  8
0
100
AcDbVertex
100
AcDb2dVertex
 10
84.77897675831915
 20
104.6182481292274
 30
0.0
  0
SEQEND
  5
219
330
217
100
AcDbEntity
  8
Dimension Layer
370
    25
  0
POLYLINE
  5
21A
330
1F
100
AcDbEntity
  8
Dimension Layer
 62
    18
420
   262144
370
    25
100
AcDb2dPolyline
 66
     1
 10
0.0
 20
0.0
 30
0.0
  0
VERTEX
  5
21B
330
21A
100
AcDbEntity
  8
Dimension Layer
 62
    18
420
   262144
370
    25
100
AcDbVertex
100
AcDb2dVertex
 10
89.86359318499939
 20
60.04284666467679
 30
0.0
  0
VERTEX
  5
425
330
21A
100
AcDbEntity
  8
0
100
AcDbVertex
100
AcDb2dVertex
 10
89.86359318499939
 20
60.04284666467679
 30
0.0
  0
SEQEND
  5
21C
330
21A
100
AcDbEntity
  8
Dimension Layer
370
    25
  0
POLYLINE
  5
21D
330
1F
100
AcDbEntity
  8
Dimension Layer
 62
    18
420
   262144
370
    25
100
AcDb2dPolyline
 66
     1
 10
0.0
 20
0.0
 30
0.0
  0
VERTEX
  5
21E
330
21D
100
AcDbEntity
  8
Dimension Layer
 62
    18
420
   262144
370
    25
100
AcDbVertex
100
AcDb2dVertex
 10
88.84694550730215
 20
61.06018336147107
 30
0.0
  0
VERTEX
  5
426
330
21D
100
AcDbEntity
  8
0
100
AcDbVertex
100
AcDb2dVertex
 10
88.84694550730215
 20
61.06018336147107
 30
0.0
  0
SEQEND
  5
21F
330
21D
100
AcDbEntity
  8
Dimension Layer
370
    25
  0
POLYLINE
  5
220
330
1F
100
AcDbEntity
  8
Dimension Layer
 62
    18
420
   262144
370
     9
100
AcDb2dPolyline
 66
     1
 10
0.0
 20
0.0
 30
0.0
  0
VERTEX
  5
221
330
220
100
AcDbEntity
  8
Dimension Layer
 62
    18
420
   262144
370
     9
100
AcDbVertex
100
AcDb2dVertex
 10
144.7777262007847
 20
104.110096545153
 30
0.0
  0
VERTEX
  5
427
330
220
100
AcDbEntity
  8
0
100
AcDbVertex
100
AcDb2dVertex
 10
144.7777262007847
 20
104.110096545153
 30
0.0
  0
SEQEND
  5
222
330
220
100
AcDbEntity
  8
Dimension Layer
370
     9
  0
POLYLINE
  5
223
330
1F
100
AcDbEntity
  8
Dimension Layer
 62
    18
420
   262144
370
     9
100
AcDb2dPolyline
 66
     1
 10
0.0
 20
0.0
 30
0.0
  0
VERTEX
  5
224
330
223
100
AcDbEntity
  8
Dimension Layer
 62
    18
420
   262144
370
     9
100
AcDbVertex
100
AcDb2dVertex
 10
86.13531085086201
 20
104.110096545153
 30
0.0
  0
VERTEX
  5
225
330
223
100
AcDbEntity
  8
Dimension Layer
 62
    18
420
   262144
370
     9
100
AcDbVertex
100
AcDb2dVertex
 10
144.7777262007847
 20
104.110096545153
 30
0.0
  0
SEQEND
  5
226
330
223
100
AcDbEntity
  8
Dimension Layer
370
     9
  0
POLYLINE
  5
227
330
1F
100
AcDbEntity
  8
Dimension Layer
 62
    18
420
   262144
370
    25
100
AcDb2dPolyline
 66
     1
 10
0.0
 20
0.0
 30
0.0
  0
VERTEX
  5
228
330
227
100
AcDbEntity
  8
Dimension Layer
 62
    18
420
   262144
370
    25
100
AcDbVertex
100
AcDb2dVertex
 10
144.7773816912362
 20
119.0252929389937
 30
0.0
  0
VERTEX
  5
428
330
227
100
AcDbEntity
  8
0
100
AcDbVertex
100
AcDb2dVertex
 10
144.7773816912362
 20
119.0252929389937
 30
0.0
  0
SEQEND
  5
229
330
227
100
AcDbEntity
  8
Dimension Layer
370
    25
  0
SPLINE
  5
22A
330
1F
100
AcDbEntity
  8
Dimension Layer
 62
    18
420
   262144
370
    25
100
AcDbSpline
210
0.0
220
0.0
230
1.0
 70
     8
 71
     3
 72
    32
 73
    28
 74
     0
 42
0.0000000001
 43
0.0000000001
 40
0.0
 40
0.0
 40
0.0
 40
0.0
 40
1.0
 40
1.0
 40
1.0
 40
2.0
 40
2.0
 40
2.0
 40
3.0
 40
3.0
 40
3.0
 40
4.0
 40
4.0
 40
4.0
 40
5.0
 40
5.0
 40
5.0
 40
6.0
 40
6.0
 40
6.0
 40
7.0
 40
7.0
 40
7.0
 40
8.0
 40
8.0
 40
8.0
 40
9.0
 40
9.0
 40
9.0
 40
9.0
 10
144.7777262007847
 20
60.04284666467679
 30
0.0
 10
144.7777262007847
 20
60.04284666467679
 30
0.0
 10
89.86359318499939
 20
60.04284666467679
 30
0.0
 10
89.86359318499939
 20
60.04284666467679
 30
0.0
 10
89.86359318499939
 20
60.04284666467679
 30
0.0
 10
88.8848415576399
 20
60.09486760650406
 30
0.0
 10
88.84694550730215
 20
61.06018336147107
 30
0.0
 10
88.80732690922179
 20
62.0658067336155
 30
0.0
 10
86.81330564235918
 20
102.4660969795918
 30
0.0
 10
86.81330564235918
 20
103.0927598483588
 30
0.0
 10
86.81330564235918
 20
103.7197672266742
 30
0.0
 10
86.13531085086201
 20
104.110096545153
 30
0.0
 10
86.13531085086201
 20
104.110096545153
 30
0.0
 10
86.13531085086201
 20
104.110096545153
 30
0.0
 10
85.75566132838748
 20
104.110096545153
 30
0.0
 10
85.2347628910177
 20
104.110096545153
 30
0.0
 10
84.71386445364793
 20
104.110096545153
 30
0.0
 10
84.77897675831915
 20
104.6182481292274
 30
0.0
 10
84.77897675831915
 20
104.6182481292274
 30
0.0
 10
84.77897675831915
 20
104.6182481292274
 30
0.0
 10
86.13531085086201
 20
118.1777994496222
 30
0.0
 10
86.13531085086201
 20
118.1777994496222
 30
0.0
 10
86.13531085086201
 20
118.1777994496222
 30
0.0
 10
86.32341306435666
 20
119.0252929389937
 30
0.0
 10
87.15195852855923
 20
119.0252929389937
 30
0.0
 10
87.56468096769217
 20
119.0252929389937
 30
0.0
 10
144.7773816912362
 20
119.0252929389937
 30
0.0
 10
144.7773816912362
 20
119.0252929389937
 30
0.0
  0
POLYLINE
  5
22B
330
1F
100
AcDbEntity
  8
Dimension Layer
 62
    18
420
   262144
370
    25
100
AcDb2dPolyline
 66
     1
 10
0.0
 20
0.0
 30
0.0
  0
VERTEX
  5
22C
330
22B
100
AcDbEntity
  8
Dimension Layer
 62
    18
420
   262144
370
    25
100
AcDbVertex
100
AcDb2dVertex
 10
144.7777262007847
 20
60.04284666467679
 30
0.0
  0
VERTEX
  5
429
330
22B
100
AcDbEntity
  8
0
100
AcDbVertex
100
AcDb2dVertex
 10
144.7777262007847
 20
60.04284666467679
 30
0.0
  0
SEQEND
  5
22D
330
22B
100
AcDbEntity
  8
Dimension Layer
370
    25
  0
POLYLINE
  5
22E
330
1F
100
AcDbEntity
  8
Dimension Layer
 62
    18
420
   262144
370
    25
100
AcDb2dPolyline
 66
     1
 10
0.0
 20
0.0
 30
0.0
  0
VERTEX
  5
22F
330
22E
100
AcDbEntity
  8
Dimension Layer
 62
    18
420
   262144
370
    25
100
AcDbVertex
100
AcDb2dVertex
 10
204.2669460209819
 20
104.110096545153
 30
0.0
  0
VERTEX
  5
42A
330
22E
100
AcDbEntity
  8
0
100
AcDbVertex
100
AcDb2dVertex
 10
204.2669460209819
 20
104.110096545153
 30
0.0
  0
SEQEND
  5
230
330
22E
100
AcDbEntity
  8
Dimension Layer
370
    25
  0
POLYLINE
  5
231
330
1F
100
AcDbEntity
  8
Dimension Layer
 62
    18
420
   262144
370
    25
100
AcDb2dPolyline
 66
     1
 10
0.0
 20
0.0
 30
0.0
  0
VERTEX
  5
232
330
231
100
AcDbEntity
  8
Dimension Layer
 62
    18
420
   262144
370
    25
100
AcDbVertex
100
AcDb2dVertex
 10
204.7757866241533
 20
104.6182481292274
 30
0.0
  0
VERTEX
  5
42B
330
231
100
AcDbEntity
  8
0
100
AcDbVertex
100
AcDb2dVertex
 10
204.7757866241533
 20
104.6182481292274
 30
0.0
  0
SEQEND
  5
233
330
231
100
AcDbEntity
  8
Dimension Layer
370
    25
  0
POLYLINE
  5
234
330
1F
100
AcDbEntity
  8
Dimension Layer
 62
    18
420
   262144
370
    25
100
AcDb2dPolyline
 66
     1
 10
0.0
 20
0.0
 30
0.0
  0
VERTEX
  5
235
330
234
100
AcDbEntity
  8
Dimension Layer
 62
    18
420
   262144
370
    25
100
AcDbVertex
100
AcDb2dVertex
 10
199.691170197473
 20
60.04284666467679
 30
0.0
  0
VERTEX
  5
42C
330
234
100
AcDbEntity
  8
0
100
AcDbVertex
100
AcDb2dVertex
 10
199.691170197473
 20
60.04284666467679
 30
0.0
  0
SEQEND
  5
236
330
234
100
AcDbEntity
  8
Dimension Layer
370
    25
  0
POLYLINE
  5
237
330
1F
100
AcDbEntity
  8
Dimension Layer
 62
    18
420
   262144
370
    25
100
AcDb2dPolyline
 66
     1
 10
0.0
 20
0.0
 30
0.0
  0
VERTEX
  5
238
330
237
100
AcDbEntity
  8
Dimension Layer
 62
    18
420
   262144
370
    25
100
AcDbVertex
100
AcDb2dVertex
 10
200.7078178751703
 20
61.06018336147107
 30
0.0
  0
VERTEX
  5
42D
330
237
100
AcDbEntity
  8
0
100
AcDbVertex
100
AcDb2dVertex
 10
200.7078178751703
 20
61.06018336147107
 30
0.0
  0
SEQEND
  5
239
330
237
100
AcDbEntity
  8
Dimension Layer
370
    25
  0
POLYLINE
  5
23A
330
1F
100
AcDbEntity
  8
Dimension Layer
 62
    18
420
   262144
370
     9
100
AcDb2dPolyline
 66
     1
 10
0.0
 20
0.0
 30
0.0
  0
VERTEX
  5
23B
330
23A
100
AcDbEntity
  8
Dimension Layer
 62
    18
420
   262144
370
     9
100
AcDbVertex
100
AcDb2dVertex
 10
144.7770371816877
 20
104.110096545153
 30
0.0
  0
VERTEX
  5
42E
330
23A
100
AcDbEntity
  8
0
100
AcDbVertex
100
AcDb2dVertex
 10
144.7770371816877
 20
104.110096545153
 30
0.0
  0
SEQEND
  5
23C
330
23A
100
AcDbEntity
  8
Dimension Layer
370
     9
  0
POLYLINE
  5
23D
330
1F
100
AcDbEntity
  8
Dimension Layer
 62
    18
420
   262144
370
     9
100
AcDb2dPolyline
 66
     1
 10
0.0
 20
0.0
 30
0.0
  0
VERTEX
  5
23E
330
23D
100
AcDbEntity
  8
Dimension Layer
 62
    18
420
   262144
370
     9
100
AcDbVertex
100
AcDb2dVertex
 10
203.4194525316104
 20
104.110096545153
 30
0.0
  0
VERTEX
  5
23F
330
23D
100
AcDbEntity
  8
Dimension Layer
 62
    18
420
   262144
370
     9
100
AcDbVertex
100
AcDb2dVertex
 10
144.7770371816877
 20
104.110096545153
 30
0.0
  0
SEQEND
  5
240
330
23D
100
AcDbEntity
  8
Dimension Layer
370
     9
  0
POLYLINE
  5
241
330
1F
100
AcDbEntity
  8
Dimension Layer
 62
    18
420
   262144
370
    25
100
AcDb2dPolyline
 66
     1
 10
0.0
 20
0.0
 30
0.0
  0
VERTEX
  5
242
330
241
100
AcDbEntity
  8
Dimension Layer
 62
    18
420
   262144
370
    25
100
AcDbVertex
100
AcDb2dVertex
 10
144.7773816912362
 20
119.0252929389937
 30
0.0
  0
VERTEX
  5
42F
330
241
100
AcDbEntity
  8
0
100
AcDbVertex
100
AcDb2dVertex
 10
144.7773816912362
 20
119.0252929389937
 30
0.0
  0
SEQEND
  5
243
330
241
100
AcDbEntity
  8
Dimension Layer
370
    25
  0
SPLINE
  5
244
330
1F
100
AcDbEntity
  8
Dimension Layer
 62
    18
420
   262144
370
    25
100
AcDbSpline
210
0.0
220
0.0
230
1.0
 70
     8
 71
     3
 72
    32
 73
    28
 74
     0
 42
0.0000000001
 43
0.0000000001
 40
0.0
 40
0.0
 40
0.0
 40
0.0
 40
1.0
 40
1.0
 40
1.0
 40
2.0
 40
2.0
 40
2.0
 40
3.0
 40
3.0
 40
3.0
 40
4.0
 40
4.0
 40
4.0
 40
5.0
 40
5.0
 40
5.0
 40
6.0
 40
6.0
 40
6.0
 40
7.0
 40
7.0
 40
7.0
 40
8.0
 40
8.0
 40
8.0
 40
9.0
 40
9.0
 40
9.0
 40
9.0
 10
144.7770371816877
 20
60.04284666467679
 30
0.0
 10
144.7770371816877
 20
60.04284666467679
 30
0.0
 10
199.691170197473
 20
60.04284666467679
 30
0.0
 10
199.691170197473
 20
60.04284666467679
 30
0.0
 10
199.691170197473
 20
60.04284666467679
 30
0.0
 10
200.6699218248325
 20
60.09486760650406
 30
0.0
 10
200.7078178751703
 20
61.06018336147107
 30
0.0
 10
200.7474364732506
 20
62.0658067336155
 30
0.0
 10
202.7414577401132
 20
102.4660969795918
 30
0.0
 10
202.7414577401132
 20
103.0927598483588
 30
0.0
 10
202.7414577401132
 20
103.7197672266742
 30
0.0
 10
203.4194525316104
 20
104.110096545153
 30
0.0
 10
203.4194525316104
 20
104.110096545153
 30
0.0
 10
203.4194525316104
 20
104.110096545153
 30
0.0
 10
203.799102054085
 20
104.110096545153
 30
0.0
 10
204.3200004914547
 20
104.110096545153
 30
0.0
 10
204.8408989288245
 20
104.110096545153
 30
0.0
 10
204.7757866241533
 20
104.6182481292274
 30
0.0
 10
204.7757866241533
 20
104.6182481292274
 30
0.0
 10
204.7757866241533
 20
104.6182481292274
 30
0.0
 10
203.4194525316104
 20
118.1777994496222
 30
0.0
 10
203.4194525316104
 20
118.1777994496222
 30
0.0
 10
203.4194525316104
 20
118.1777994496222
 30
0.0
 10
203.2313503181158
 20
119.0252929389937
 30
0.0
 10
202.4028048539132
 20
119.0252929389937
 30
0.0
 10
201.9900824147803
 20
119.0252929389937
 30
0.0
 10
144.7773816912362
 20
119.0252929389937
 30
0.0
 10
144.7773816912362
 20
119.0252929389937
 30
0.0
  0
POLYLINE
  5
245
330
1F
100
AcDbEntity
  8
Dimension Layer
 62
    18
420
   262144
370
    25
100
AcDb2dPolyline
 66
     1
 10
0.0
 20
0.0
 30
0.0
  0
VERTEX
  5
246
330
245
100
AcDbEntity
  8
Dimension Layer
 62
    18
420
   262144
370
    25
100
AcDbVertex
100
AcDb2dVertex
 10
144.7770371816877
 20
60.04284666467679
 30
0.0
  0
VERTEX
  5
430
330
245
100
AcDbEntity
  8
0
100
AcDbVertex
100
AcDb2dVertex
 10
144.7770371816877
 20
60.04284666467679
 30
0.0
  0
SEQEND
  5
247
330
245
100
AcDbEntity
  8
Dimension Layer
370
    25
  0
INSERT
  5
249
330
1F
100
AcDbEntity
  8
Dimension Layer
100
AcDbBlockReference
  2
block 10
 10
0.0
 20
0.0
 30
0.0
  0
SPLINE
  5
267
330
1F
100
AcDbEntity
  8
Dimension Layer
 62
     7
420
 16777215
370
     9
100
AcDbSpline
210
0.0
220
0.0
230
1.0
 70
    11
 71
     3
 72
    17
 73
    13
 74
     0
 42
0.0000000001
 43
0.0000000001
 40
0.0
 40
0.0
 40
0.0
 40
0.0
 40
1.0
 40
1.0
 40
1.0
 40
2.0
 40
2.0
 40
2.0
 40
3.0
 40
3.0
 40
3.0
 40
4.0
 40
4.0
 40
4.0
 40
4.0
 10
363.0045436375475
 20
197.0796155648794
 30
0.0
 10
363.0045436375475
 20
163.9426201304553
 30
0.0
 10
336.1421006104089
 20
137.080349358091
 30
0.0
 10
303.0051051759849
 20
137.080349358091
 30
0.0
 10
269.8681097415608
 20
137.080349358091
 30
0.0
 10
243.0046331857766
 20
163.9426201304553
 30
0.0
 10
243.0046331857766
 20
197.0796155648794
 30
0.0
 10
243.0046331857766
 20
230.2166109993035
 30
0.0
 10
269.8681097415608
 20
257.0802598098619
 30
0.0
 10
303.0051051759849
 20
257.0802598098619
 30
0.0
 10
336.1421006104089
 20
257.0802598098619
 30
0.0
 10
363.0045436375475
 20
230.2166109993035
 30
0.0
 10
363.0045436375475
 20
197.0796155648794
 30
0.0
  0
SPLINE
  5
268
330
1F
100
AcDbEntity
  8
Dimension Layer
 62
     7
420
 16777215
370
    25
100
AcDbSpline
210
0.0
220
0.0
230
1.0
 70
    11
 71
     3
 72
    17
 73
    13
 74
     0
 42
0.0000000001
 43
0.0000000001
 40
0.0
 40
0.0
 40
0.0
 40
0.0
 40
1.0
 40
1.0
 40
1.0
 40
2.0
 40
2.0
 40
2.0
 40
3.0
 40
3.0
 40
3.0
 40
4.0
 40
4.0
 40
4.0
 40
4.0
 10
358.5045599147142
 20
197.0796155648794
 30
0.0
 10
358.5045599147142
 20
166.4279120135145
 30
0.0
 10
333.6568087273497
 20
141.5799885713758
 30
0.0
 10
303.0051051759849
 20
141.5799885713758
 30
0.0
 10
272.35340162462
 20
141.5799885713758
 30
0.0
 10
247.50461690861
 20
166.4279120135145
 30
0.0
 10
247.50461690861
 20
197.0796155648794
 30
0.0
 10
247.50461690861
 20
227.7314913710185
 30
0.0
 10
272.35340162462
 20
252.5804483418028
 30
0.0
 10
303.0051051759849
 20
252.5804483418028
 30
0.0
 10
333.6568087273497
 20
252.5804483418028
 30
0.0
 10
358.5045599147142
 20
227.7314913710185
 30
0.0
 10
358.5045599147142
 20
197.0796155648794
 30
0.0
  0
SPLINE
  5
269
330
1F
100
AcDbEntity
  8
Dimension Layer
 62
     7
420
 16777215
370
    18
100
AcDbSpline
210
0.0
220
0.0
230
1.0
 70
    11
 71
     3
 72
    17
 73
    13
 74
     0
 42
0.0000000001
 43
0.0000000001
 40
0.0
 40
0.0
 40
0.0
 40
0.0
 40
1.0
 40
1.0
 40
1.0
 40
2.0
 40
2.0
 40
2.0
 40
3.0
 40
3.0
 40
3.0
 40
4.0
 40
4.0
 40
4.0
 40
4.0
 10
351.0045870433253
 20
197.0797878196537
 30
0.0
 10
351.0045870433253
 20
170.5701225702047
 30
0.0
 10
329.5147704254338
 20
149.080133697539
 30
0.0
 10
303.0051051759849
 20
149.080133697539
 30
0.0
 10
276.4954399265359
 20
149.080133697539
 30
0.0
 10
255.0045897799989
 20
170.5701225702047
 30
0.0
 10
255.0045897799989
 20
197.0797878196537
 30
0.0
 10
255.0045897799989
 20
223.5894530691027
 30
0.0
 10
276.4954399265359
 20
245.0804754704139
 30
0.0
 10
303.0051051759849
 20
245.0804754704139
 30
0.0
 10
329.5147704254338
 20
245.0804754704139
 30
0.0
 10
351.0045870433253
 20
223.5894530691027
 30
0.0
 10
351.0045870433253
 20
197.0797878196537
 30
0.0
  0
INSERT
  5
26B
330
1F
100
AcDbEntity
  8
Dimension Layer
100
AcDbBlockReference
  2
block 11
 10
0.0
 20
0.0
 30
0.0
  0
POLYLINE
  5
289
330
1F
100
AcDbEntity
  8
Dimension Layer
 62
    18
420
   196608
370
     9
100
AcDb2dPolyline
 66
     1
 10
0.0
 20
0.0
 30
0.0
  0
VERTEX
  5
28A
330
289
100
AcDbEntity
  8
Dimension Layer
 62
    18
420
   196608
370
     9
100
AcDbVertex
100
AcDb2dVertex
 10
201.2735025538483
 20
119.1255452176145
 30
0.0
  0
VERTEX
  5
28B
330
289
100
AcDbEntity
  8
Dimension Layer
 62
    18
420
   196608
370
     9
100
AcDbVertex
100
AcDb2dVertex
 10
222.3619655477081
 20
119.1255452176145
 30
0.0
  0
SEQEND
  5
28C
330
289
100
AcDbEntity
  8
Dimension Layer
370
     9
  0
POLYLINE
  5
28D
330
1F
100
AcDbEntity
  8
Dimension Layer
 62
    18
420
   196608
370
     9
100
AcDb2dPolyline
 66
     1
 10
0.0
 20
0.0
 30
0.0
  0
VERTEX
  5
28E
330
28D
100
AcDbEntity
  8
Dimension Layer
 62
    18
420
   196608
370
     9
100
AcDbVertex
100
AcDb2dVertex
 10
198.3496500155168
 20
60.04284666467679
 30
0.0
  0
VERTEX
  5
28F
330
28D
100
AcDbEntity
  8
Dimension Layer
 62
    18
420
   196608
370
     9
100
AcDbVertex
100
AcDb2dVertex
 10
222.3619655477081
 20
60.04284666467679
 30
0.0
  0
SEQEND
  5
290
330
28D
100
AcDbEntity
  8
Dimension Layer
370
     9
  0
POLYLINE
  5
291
330
1F
100
AcDbEntity
  8
Dimension Layer
 62
    18
420
   196608
370
     9
100
AcDb2dPolyline
 66
     1
 10
0.0
 20
0.0
 30
0.0
  0
VERTEX
  5
292
330
291
100
AcDbEntity
  8
Dimension Layer
 62
    18
420
   196608
370
     9
100
AcDbVertex
100
AcDb2dVertex
 10
219.9393744024804
 20
118.8578612984105
 30
0.0
  0
VERTEX
  5
293
330
291
100
AcDbEntity
  8
Dimension Layer
 62
    18
420
   196608
370
     9
100
AcDbVertex
100
AcDb2dVertex
 10
219.9393744024804
 20
60.19580890422188
 30
0.0
  0
SEQEND
  5
294
330
291
100
AcDbEntity
  8
Dimension Layer
370
     9
  0
POLYLINE
  5
295
330
1F
100
AcDbEntity
  8
Dimension Layer
 62
    18
420
   196608
370
     9
100
AcDb2dPolyline
 66
     1
 10
0.0
 20
0.0
 30
0.0
  0
VERTEX
  5
296
330
295
100
AcDbEntity
  8
Dimension Layer
 62
    18
420
   196608
370
     9
100
AcDbVertex
100
AcDb2dVertex
 10
219.5149386386977
 20
117.7798909210759
 30
0.0
  0
VERTEX
  5
297
330
295
100
AcDbEntity
  8
Dimension Layer
 62
    18
420
   196608
370
     9
100
AcDbVertex
100
AcDb2dVertex
 10
219.9393744024804
 20
119.1255452176145
 30
0.0
  0
VERTEX
  5
298
330
295
100
AcDbEntity
  8
Dimension Layer
 62
    18
420
   196608
370
     9
100
AcDbVertex
100
AcDb2dVertex
 10
220.3638101662632
 20
117.7798909210759
 30
0.0
  0
VERTEX
  5
299
330
295
100
AcDbEntity
  8
Dimension Layer
 62
    18
420
   196608
370
     9
100
AcDbVertex
100
AcDb2dVertex
 10
219.5149386386977
 20
117.7798909210759
 30
0.0
  0
SEQEND
  5
29A
330
295
100
AcDbEntity
  8
Dimension Layer
370
     9
  0
HATCH
  5
29B
330
1F
100
AcDbEntity
  8
Dimension Layer
 62
    18
420
   196608
100
AcDbHatch
 10
0.0
 20
0.0
 30
0.0
210
0.0
220
0.0
230
1.0
  2
SOLID
 70
     1
 71
     0
 91
        1
 92
        1
 93
        3
 72
     1
 10
219.5149386386977
 20
117.7798909210759
 11
219.9393744024804
 21
119.1255452176145
 72
     1
 10
219.9393744024804
 20
119.1255452176145
 11
220.3638101662632
 21
117.7798909210759
 72
     1
 10
220.3638101662632
 20
117.7798909210759
 11
219.5149386386977
 21
117.7798909210759
 97
        0
 75
     2
 76
     1
 98
        0
  0
POLYLINE
  5
29C
330
1F
100
AcDbEntity
  8
Dimension Layer
 62
    18
420
   196608
370
     9
100
AcDb2dPolyline
 66
     1
 10
0.0
 20
0.0
 30
0.0
  0
VERTEX
  5
29D
330
29C
100
AcDbEntity
  8
Dimension Layer
 62
    18
420
   196608
370
     9
100
AcDbVertex
100
AcDb2dVertex
 10
220.3638101662632
 20
61.38850096121538
 30
0.0
  0
VERTEX
  5
29E
330
29C
100
AcDbEntity
  8
Dimension Layer
 62
    18
420
   196608
370
     9
100
AcDbVertex
100
AcDb2dVertex
 10
219.9393744024804
 20
60.04284666467679
 30
0.0
  0
VERTEX
  5
29F
330
29C
100
AcDbEntity
  8
Dimension Layer
 62
    18
420
   196608
370
     9
100
AcDbVertex
100
AcDb2dVertex
 10
219.5149386386977
 20
61.38850096121538
 30
0.0
  0
VERTEX
  5
2A0
330
29C
100
AcDbEntity
  8
Dimension Layer
 62
    18
420
   196608
370
     9
100
AcDbVertex
100
AcDb2dVertex
 10
220.3638101662632
 20
61.38850096121538
 30
0.0
  0
SEQEND
  5
2A1
330
29C
100
AcDbEntity
  8
Dimension Layer
370
     9
  0
HATCH
  5
2A2
330
1F
100
AcDbEntity
  8
Dimension Layer
 62
    18
420
   196608
100
AcDbHatch
 10
0.0
 20
0.0
 30
0.0
210
0.0
220
0.0
230
1.0
  2
SOLID
 70
     1
 71
     0
 91
        1
 92
        1
 93
        3
 72
     1
 10
220.3638101662632
 20
61.38850096121538
 11
219.9393744024804
 21
60.04284666467679
 72
     1
 10
219.9393744024804
 20
60.04284666467679
 11
219.5149386386977
 21
61.38850096121538
 72
     1
 10
219.5149386386977
 20
61.38850096121538
 11
220.3638101662632
 21
61.38850096121538
 97
        0
 75
     2
 76
     1
 98
        0
  0
MTEXT
  5
2A3
330
1F
100
AcDbEntity
  8
Dimension Layer
 62
    18
420
   196608
100
AcDbMText
 10
73.14247773779077
 20
89.99932994711823
 30
0.0
 40
1.919111110631334
 41
0.0
 71
     7
 72
     1
  1
\fMS Gothic|b0|i0|c0|p34;\W1;59
 11
-4.371139000186241E-8
 21
0.999999999999999
 31
0.0
 73
     1
 44
1.0
  0
MTEXT
  5
2A4
330
1F
100
AcDbEntity
  8
Dimension Layer
 62
    18
420
   196608
100
AcDbMText
 10
218.7222221675417
 20
110.4890353456416
 30
0.0
 40
1.919111110631334
 41
0.0
 71
     7
 72
     1
  1
\fMS Gothic|b0|i0|c0|p34;\W1;15
 11
-4.371139000186241E-8
 21
0.999999999999999
 31
0.0
 73
     1
 44
1.0
  0
MTEXT
  5
2A5
330
1F
100
AcDbEntity
  8
Dimension Layer
 62
    18
420
   196608
100
AcDbMText
 10
218.7222221675417
 20
81.115806728853
 30
0.0
 40
1.919111110631334
 41
0.0
 71
     7
 72
     1
  1
\fMS Gothic|b0|i0|c0|p34;\W1;44
 11
-4.371139000186241E-8
 21
0.999999999999999
 31
0.0
 73
     1
 44
1.0
  0
POLYLINE
  5
2A6
330
1F
100
AcDbEntity
  8
Dimension Layer
 62
    18
420
   196608
370
     9
100
AcDb2dPolyline
 66
     1
 10
0.0
 20
0.0
 30
0.0
  0
VERTEX
  5
2A7
330
2A6
100
AcDbEntity
  8
Dimension Layer
 62
    18
420
   196608
370
     9
100
AcDbVertex
100
AcDb2dVertex
 10
70.44910208742245
 20
119.1255452176145
 30
0.0
  0
VERTEX
  5
2A8
330
2A6
100
AcDbEntity
  8
Dimension Layer
 62
    18
420
   196608
370
     9
100
AcDbVertex
100
AcDb2dVertex
 10
86.33305933171535
 20
119.1255452176145
 30
0.0
  0
SEQEND
  5
2A9
330
2A6
100
AcDbEntity
  8
Dimension Layer
370
     9
  0
POLYLINE
  5
2AA
330
1F
100
AcDbEntity
  8
Dimension Layer
 62
    18
420
   196608
370
     9
100
AcDb2dPolyline
 66
     1
 10
0.0
 20
0.0
 30
0.0
  0
VERTEX
  5
2AB
330
2AA
100
AcDbEntity
  8
Dimension Layer
 62
    18
420
   196608
370
     9
100
AcDbVertex
100
AcDb2dVertex
 10
70.44910208742245
 20
60.04284666467679
 30
0.0
  0
VERTEX
  5
2AC
330
2AA
100
AcDbEntity
  8
Dimension Layer
 62
    18
420
   196608
370
     9
100
AcDbVertex
100
AcDb2dVertex
 10
88.90241154461468
 20
60.04284666467679
 30
0.0
  0
SEQEND
  5
2AD
330
2AA
100
AcDbEntity
  8
Dimension Layer
370
     9
  0
POLYLINE
  5
2AE
330
1F
100
AcDbEntity
  8
Dimension Layer
 62
    18
420
   196608
370
     9
100
AcDb2dPolyline
 66
     1
 10
0.0
 20
0.0
 30
0.0
  0
VERTEX
  5
2AF
330
2AE
100
AcDbEntity
  8
Dimension Layer
 62
    18
420
   196608
370
     9
100
AcDbVertex
100
AcDb2dVertex
 10
74.51190319317759
 20
118.8578612984105
 30
0.0
  0
VERTEX
  5
2B0
330
2AE
100
AcDbEntity
  8
Dimension Layer
 62
    18
420
   196608
370
     9
100
AcDbVertex
100
AcDb2dVertex
 10
74.51190319317759
 20
60.19580890422188
 30
0.0
  0
SEQEND
  5
2B1
330
2AE
100
AcDbEntity
  8
Dimension Layer
370
     9
  0
POLYLINE
  5
2B2
330
1F
100
AcDbEntity
  8
Dimension Layer
 62
    18
420
   196608
370
     9
100
AcDb2dPolyline
 66
     1
 10
0.0
 20
0.0
 30
0.0
  0
VERTEX
  5
2B3
330
2B2
100
AcDbEntity
  8
Dimension Layer
 62
    18
420
   196608
370
     9
100
AcDbVertex
100
AcDb2dVertex
 10
74.0874674293948
 20
117.7798909210759
 30
0.0
  0
VERTEX
  5
2B4
330
2B2
100
AcDbEntity
  8
Dimension Layer
 62
    18
420
   196608
370
     9
100
AcDbVertex
100
AcDb2dVertex
 10
74.51190319317759
 20
119.1255452176145
 30
0.0
  0
VERTEX
  5
2B5
330
2B2
100
AcDbEntity
  8
Dimension Layer
 62
    18
420
   196608
370
     9
100
AcDbVertex
100
AcDb2dVertex
 10
74.93633895696037
 20
117.7798909210759
 30
0.0
  0
VERTEX
  5
2B6
330
2B2
100
AcDbEntity
  8
Dimension Layer
 62
    18
420
   196608
370
     9
100
AcDbVertex
100
AcDb2dVertex
 10
74.0874674293948
 20
117.7798909210759
 30
0.0
  0
SEQEND
  5
2B7
330
2B2
100
AcDbEntity
  8
Dimension Layer
370
     9
  0
HATCH
  5
2B8
330
1F
100
AcDbEntity
  8
Dimension Layer
 62
    18
420
   196608
100
AcDbHatch
 10
0.0
 20
0.0
 30
0.0
210
0.0
220
0.0
230
1.0
  2
SOLID
 70
     1
 71
     0
 91
        1
 92
        1
 93
        3
 72
     1
 10
74.0874674293948
 20
117.7798909210759
 11
74.51190319317759
 21
119.1255452176145
 72
     1
 10
74.51190319317759
 20
119.1255452176145
 11
74.93633895696037
 21
117.7798909210759
 72
     1
 10
74.93633895696037
 20
117.7798909210759
 11
74.0874674293948
 21
117.7798909210759
 97
        0
 75
     2
 76
     1
 98
        0
  0
POLYLINE
  5
2B9
330
1F
100
AcDbEntity
  8
Dimension Layer
 62
    18
420
   196608
370
     9
100
AcDb2dPolyline
 66
     1
 10
0.0
 20
0.0
 30
0.0
  0
VERTEX
  5
2BA
330
2B9
100
AcDbEntity
  8
Dimension Layer
 62
    18
420
   196608
370
     9
100
AcDbVertex
100
AcDb2dVertex
 10
74.93633895696037
 20
61.38850096121538
 30
0.0
  0
VERTEX
  5
2BB
330
2B9
100
AcDbEntity
  8
Dimension Layer
 62
    18
420
   196608
370
     9
100
AcDbVertex
100
AcDb2dVertex
 10
74.51190319317759
 20
60.04284666467679
 30
0.0
  0
VERTEX
  5
2BC
330
2B9
100
AcDbEntity
  8
Dimension Layer
 62
    18
420
   196608
370
     9
100
AcDbVertex
100
AcDb2dVertex
 10
74.0874674293948
 20
61.38850096121538
 30
0.0
  0
VERTEX
  5
2BD
330
2B9
100
AcDbEntity
  8
Dimension Layer
 62
    18
420
   196608
370
     9
100
AcDbVertex
100
AcDb2dVertex
 10
74.93633895696037
 20
61.38850096121538
 30
0.0
  0
SEQEND
  5
2BE
330
2B9
100
AcDbEntity
  8
Dimension Layer
370
     9
  0
HATCH
  5
2BF
330
1F
100
AcDbEntity
  8
Dimension Layer
 62
    18
420
   196608
100
AcDbHatch
 10
0.0
 20
0.0
 30
0.0
210
0.0
220
0.0
230
1.0
  2
SOLID
 70
     1
 71
     0
 91
        1
 92
        1
 93
        3
 72
     1
 10
74.93633895696037
 20
61.38850096121538
 11
74.51190319317759
 21
60.04284666467679
 72
     1
 10
74.51190319317759
 20
60.04284666467679
 11
74.0874674293948
 21
61.38850096121538
 72
     1
 10
74.0874674293948
 20
61.38850096121538
 11
74.93633895696037
 21
61.38850096121538
 97
        0
 75
     2
 76
     1
 98
        0
  0
POLYLINE
  5
2C0
330
1F
100
AcDbEntity
  8
Dimension Layer
 62
    18
420
   196608
370
     9
100
AcDb2dPolyline
 66
     1
 10
0.0
 20
0.0
 30
0.0
  0
VERTEX
  5
2C1
330
2C0
100
AcDbEntity
  8
Dimension Layer
 62
    18
420
   196608
370
     9
100
AcDbVertex
100
AcDb2dVertex
 10
219.5149386386977
 20
102.7644422486144
 30
0.0
  0
VERTEX
  5
2C2
330
2C0
100
AcDbEntity
  8
Dimension Layer
 62
    18
420
   196608
370
     9
100
AcDbVertex
100
AcDb2dVertex
 10
219.9393744024804
 20
104.110096545153
 30
0.0
  0
VERTEX
  5
2C3
330
2C0
100
AcDbEntity
  8
Dimension Layer
 62
    18
420
   196608
370
     9
100
AcDbVertex
100
AcDb2dVertex
 10
220.3638101662632
 20
102.7644422486144
 30
0.0
  0
VERTEX
  5
2C4
330
2C0
100
AcDbEntity
  8
Dimension Layer
 62
    18
420
   196608
370
     9
100
AcDbVertex
100
AcDb2dVertex
 10
219.5149386386977
 20
102.7644422486144
 30
0.0
  0
SEQEND
  5
2C5
330
2C0
100
AcDbEntity
  8
Dimension Layer
370
     9
  0
HATCH
  5
2C6
330
1F
100
AcDbEntity
  8
Dimension Layer
 62
    18
420
   196608
100
AcDbHatch
 10
0.0
 20
0.0
 30
0.0
210
0.0
220
0.0
230
1.0
  2
SOLID
 70
     1
 71
     0
 91
        1
 92
        1
 93
        3
 72
     1
 10
219.5149386386977
 20
102.7644422486144
 11
219.9393744024804
 21
104.110096545153
 72
     1
 10
219.9393744024804
 20
104.110096545153
 11
220.3638101662632
 21
102.7644422486144
 72
     1
 10
220.3638101662632
 20
102.7644422486144
 11
219.5149386386977
 21
102.7644422486144
 97
        0
 75
     2
 76
     1
 98
        0
  0
POLYLINE
  5
2C7
330
1F
100
AcDbEntity
  8
Dimension Layer
 62
    18
420
   196608
370
     9
100
AcDb2dPolyline
 66
     1
 10
0.0
 20
0.0
 30
0.0
  0
VERTEX
  5
2C8
330
2C7
100
AcDbEntity
  8
Dimension Layer
 62
    18
420
   196608
370
     9
100
AcDbVertex
100
AcDb2dVertex
 10
201.2735025538483
 20
104.110096545153
 30
0.0
  0
VERTEX
  5
2C9
330
2C7
100
AcDbEntity
  8
Dimension Layer
 62
    18
420
   196608
370
     9
100
AcDbVertex
100
AcDb2dVertex
 10
220.9977077355492
 20
104.110096545153
 30
0.0
  0
SEQEND
  5
2CA
330
2C7
100
AcDbEntity
  8
Dimension Layer
370
     9
  0
INSERT
  5
2CC
330
1F
100
AcDbEntity
  8
Dimension Layer
100
AcDbBlockReference
  2
block 12
 10
0.0
 20
0.0
 30
0.0
  0
INSERT
  5
3E6
330
1F
100
AcDbEntity
  8
Dimension Layer
100
AcDbBlockReference
  2
block 15
 10
0.0
 20
0.0
 30
0.0
  0
INSERT
  5
405
330
1F
100
AcDbEntity
  8
Dimension Layer
100
AcDbBlockReference
  2
block 16
 10
0.0
 20
0.0
 30
0.0
  0
ENDSEC
  0
SECTION
  2
OBJECTS
  0
DICTIONARY
  5
C
330
0
100
AcDbDictionary
281
     1
  3
ACAD_GROUP
350
D
  3
ACAD_LAYOUT
350
1A
  3
ACAD_MLINESTYLE
350
17
  3
ACAD_PLOTSETTINGS
350
19
  3
ACAD_PLOTSTYLENAME
350
E
  3
ACAD_TABLESTYLE
350
431
  3
ACAD_VISUALSTYLE
350
2A
  0
DICTIONARY
  5
D
102
{ACAD_REACTORS
330
C
102
}
330
C
100
AcDbDictionary
281
     1
  0
DICTIONARY
  5
1A
102
{ACAD_REACTORS
330
C
102
}
330
C
100
AcDbDictionary
281
     1
  3
Layout1
350
1E
  3
Layout2
350
26
  3
Model
350
22
  0
DICTIONARY
  5
17
102
{ACAD_REACTORS
330
C
102
}
330
C
100
AcDbDictionary
281
     1
  3
Standard
350
18
  0
DICTIONARY
  5
19
102
{ACAD_REACTORS
330
C
102
}
330
C
100
AcDbDictionary
281
     1
  0
ACDBDICTIONARYWDFLT
  5
E
102
{ACAD_REACTORS
330
C
102
}
330
C
100
AcDbDictionary
281
     1
  3
Normal
350
F
100
AcDbDictionaryWithDefault
340
F
  0
DICTIONARY
  5
431
102
{ACAD_REACTORS
330
C
102
}
330
C
100
AcDbDictionary
281
     1
  0
DICTIONARY
  5
2A
102
{ACAD_REACTORS
330
C
102
}
330
C
100
AcDbDictionary
281
     1
  3
2dWireframe
350
2F
  3
3D Hidden
350
31
  3
3dWireframe
350
30
  3
Basic
350
32
  3
Brighten
350
36
  3
ColorChange
350
3A
  3
Conceptual
350
34
  3
Dim
350
35
  3
Facepattern
350
39
  3
Flat
350
2B
  3
FlatWithEdges
350
2C
  3
Gouraud
350
2D
  3
GouraudWithEdges
350
2E
  3
Linepattern
350
38
  3
Realistic
350
33
  3
Thicken
350
37
  0
LAYOUT
  5
1E
102
{ACAD_REACTORS
330
1A
102
}
330
1A
100
AcDbPlotSettings
  1

  2
none_device
  4

  6

 40
0.0
 41
0.0
 42
0.0
 43
0.0
 44
0.0
 45
0.0
 46
0.0
 47
0.0
 48
0.0
 49
0.0
140
0.0
141
0.0
142
1.0
143
1.0
 70
   688
 72
     0
 73
     0
 74
     5
  7

 75
    16
 76
     0
 77
     2
 78
   300
147
1.0
148
0.0
149
0.0
100
AcDbLayout
  1
Layout1
 70
     1
 71
     1
 10
0.0
 20
0.0
 11
12.0
 21
9.0
 12
0.0
 22
0.0
 32
0.0
 14
1.000000000000000E+20
 24
1.000000000000000E+20
 34
1.000000000000000E+20
 15
-1.000000000000000E+20
 25
-1.000000000000000E+20
 35
-1.000000000000000E+20
146
0.0
 13
0.0
 23
0.0
 33
0.0
 16
1.0
 26
0.0
 36
0.0
 17
0.0
 27
1.0
 37
0.0
 76
     0
330
1B
  0
LAYOUT
  5
26
102
{ACAD_REACTORS
330
1A
102
}
330
1A
100
AcDbPlotSettings
  1

  2
none_device
  4

  6

 40
0.0
 41
0.0
 42
0.0
 43
0.0
 44
0.0
 45
0.0
 46
0.0
 47
0.0
 48
0.0
 49
0.0
140
0.0
141
0.0
142
1.0
143
1.0
 70
   688
 72
     0
 73
     0
 74
     5
  7

 75
    16
 76
     0
 77
     2
 78
   300
147
1.0
148
0.0
149
0.0
100
AcDbLayout
  1
Layout2
 70
     1
 71
     2
 10
0.0
 20
0.0
 11
0.0
 21
0.0
 12
0.0
 22
0.0
 32
0.0
 14
0.0
 24
0.0
 34
0.0
 15
0.0
 25
0.0
 35
0.0
146
0.0
 13
0.0
 23
0.0
 33
0.0
 16
1.0
 26
0.0
 36
0.0
 17
0.0
 27
1.0
 37
0.0
 76
     0
330
23
  0
LAYOUT
  5
22
102
{ACAD_REACTORS
330
1A
102
}
330
1A
100
AcDbPlotSettings
  1

  2
none_device
  4

  6

 40
0.0
 41
0.0
 42
0.0
 43
0.0
 44
0.0
 45
0.0
 46
0.0
 47
0.0
 48
0.0
 49
0.0
140
0.0
141
0.0
142
1.0
143
1.0
 70
  1712
 72
     0
 73
     0
 74
     0
  7

 75
     0
 76
     0
 77
     2
 78
   300
147
1.0
148
0.0
149
0.0
100
AcDbLayout
  1
Model
 70
     1
 71
     0
 10
0.0
 20
0.0
 11
12.0
 21
9.0
 12
0.0
 22
0.0
 32
0.0
 14
1.000000000000000E+20
 24
1.000000000000000E+20
 34
1.000000000000000E+20
 15
-1.000000000000000E+20
 25
-1.000000000000000E+20
 35
-1.000000000000000E+20
146
0.0
 13
0.0
 23
0.0
 33
0.0
 16
1.0
 26
0.0
 36
0.0
 17
0.0
 27
1.0
 37
0.0
 76
     0
330
1F
331
29
  0
MLINESTYLE
  5
18
102
{ACAD_REACTORS
330
17
102
}
330
17
100
AcDbMlineStyle
  2
Standard
 70
     0
  3

 62
   256
 51
90.0
 52
90.0
 71
     2
 49
0.5
 62
   256
  6
BYLAYER
 49
-0.5
 62
   256
  6
BYLAYER
  0
ACDBPLACEHOLDER
  5
F
102
{ACAD_REACTORS
330
E
102
}
330
E
  0
VISUALSTYLE
  5
2F
102
{ACAD_REACTORS
330
2A
102
}
330
2A
100
AcDbVisualStyle
  2
2dWireframe
 70
     4
 71
     0
 72
     2
 73
     0
 90
        0
 40
-0.6
 41
-30.0
 62
     5
 63
     7
421
 16777215
 74
     1
 91
        4
 64
     7
 65
   257
 75
     1
175
     1
 42
1.0
 92
        0
 66
   257
 43
1.0
 76
     1
 77
     6
 78
     2
 67
     7
 79
     5
170
     0
171
     0
290
     0
174
     0
 93
        1
 44
0.0
173
     0
291
     0
 45
0.0
1001
ACAD
1000
AcDbSavedByObjectVersion
1070
     0
  0
VISUALSTYLE
  5
31
102
{ACAD_REACTORS
330
2A
102
}
330
2A
100
AcDbVisualStyle
  2
3D Hidden
 70
     6
 71
     1
 72
     2
 73
     2
 90
        0
 40
-0.6
 41
-30.0
 62
     5
 63
     7
421
 16777215
 74
     2
 91
        2
 64
     7
 65
   257
 75
     2
175
     1
 42
40.0
 92
        0
 66
   257
 43
1.0
 76
     1
 77
     6
 78
     2
 67
     7
 79
     3
170
     0
171
     0
290
     0
174
     0
 93
        1
 44
0.0
173
     0
291
     0
 45
0.0
1001
ACAD
1000
AcDbSavedByObjectVersion
1070
     0
  0
VISUALSTYLE
  5
30
102
{ACAD_REACTORS
330
2A
102
}
330
2A
100
AcDbVisualStyle
  2
3dWireframe
 70
     5
 71
     0
 72
     2
 73
     0
 90
        0
 40
-0.6
 41
-30.0
 62
     5
 63
     7
421
 16777215
 74
     1
 91
        4
 64
     7
 65
   257
 75
     1
175
     1
 42
1.0
 92
        0
 66
   257
 43
1.0
 76
     1
 77
     6
 78
     2
 67
     7
 79
     5
170
     0
171
     0
290
     0
174
     0
 93
        1
 44
0.0
173
     0
291
     0
 45
0.0
1001
ACAD
1000
AcDbSavedByObjectVersion
1070
     0
  0
VISUALSTYLE
  5
32
102
{ACAD_REACTORS
330
2A
102
}
330
2A
100
AcDbVisualStyle
  2
Basic
 70
     7
 71
     1
 72
     0
 73
     1
 90
        0
 40
-0.6
 41
-30.0
 62
     5
 63
     7
421
 16777215
 74
     0
 91
        4
 64
     7
 65
   257
 75
     1
175
     1
 42
1.0
 92
        8
 66
     7
 43
1.0
 76
     1
 77
     6
 78
     2
 67
     7
 79
     5
170
     0
171
     0
290
     0
174
     0
 93
        1
 44
0.0
173
     0
291
     1
 45
0.0
1001
ACAD
1000
AcDbSavedByObjectVersion
1070
     0
  0
VISUALSTYLE
  5
36
102
{ACAD_REACTORS
330
2A
102
}
330
2A
100
AcDbVisualStyle
  2
Brighten
 70
    12
 71
     2
 72
     2
 73
     0
 90
        0
 40
-0.6
 41
-30.0
 62
     5
 63
     7
421
 16777215
 74
     1
 91
        4
 64
     7
 65
   257
 75
     1
175
     1
 42
1.0
 92
        8
 66
     7
 43
1.0
 76
     1
 77
     6
 78
     2
 67
     7
 79
     5
170
     0
171
     0
290
     0
174
     0
 93
        1
 44
50.0
173
     0
291
     1
 45
0.0
1001
ACAD
1000
AcDbSavedByObjectVersion
1070
     0
  0
VISUALSTYLE
  5
3A
102
{ACAD_REACTORS
330
2A
102
}
330
2A
100
AcDbVisualStyle
  2
ColorChange
 70
    16
 71
     2
 72
     2
 73
     3
 90
        0
 40
-0.6
 41
-30.0
 62
     5
 63
     8
421
  8421504
 74
     1
 91
        4
 64
     7
 65
   257
 75
     1
175
     1
 42
1.0
 92
        8
 66
     8
424
  8421504
 43
1.0
 76
     1
 77
     6
 78
     2
 67
     7
 79
     5
170
     0
171
     0
290
     0
174
     0
 93
        1
 44
0.0
173
     0
291
     1
 45
0.0
1001
ACAD
1000
AcDbSavedByObjectVersion
1070
     0
  0
VISUALSTYLE
  5
34
102
{ACAD_REACTORS
330
2A
102
}
330
2A
100
AcDbVisualStyle
  2
Conceptual
 70
     9
 71
     3
 72
     2
 73
     0
 90
        0
 40
-0.6
 41
-30.0
 62
     5
 63
     7
421
 16777215
 74
     2
 91
        2
 64
     7
 65
   257
 75
     1
175
     1
 42
40.0
 92
        8
 66
     7
 43
1.0
 76
     1
 77
     6
 78
     2
 67
     7
 79
     3
170
     0
171
     0
290
     0
174
     0
 93
        1
 44
0.0
173
     0
291
     0
 45
0.0
1001
ACAD
1000
AcDbSavedByObjectVersion
1070
     0
  0
VISUALSTYLE
  5
35
102
{ACAD_REACTORS
330
2A
102
}
330
2A
100
AcDbVisualStyle
  2
Dim
 70
    11
 71
     2
 72
     2
 73
     0
 90
        0
 40
-0.6
 41
-30.0
 62
     5
 63
     7
421
 16777215
 74
     1
 91
        4
 64
     7
 65
   257
 75
     1
175
     1
 42
1.0
 92
        8
 66
     7
 43
1.0
 76
     1
 77
     6
 78
     2
 67
     7
 79
     5
170
     0
171
     0
290
     0
174
     0
 93
        1
 44
-50.0
173
     0
291
     1
 45
0.0
1001
ACAD
1000
AcDbSavedByObjectVersion
1070
     0
  0
VISUALSTYLE
  5
39
102
{ACAD_REACTORS
330
2A
102
}
330
2A
100
AcDbVisualStyle
  2
Facepattern
 70
    15
 71
     2
 72
     2
 73
     0
 90
        0
 40
-0.6
 41
-30.0
 62
     5
 63
     7
421
 16777215
 74
     1
 91
        4
 64
     7
 65
   257
 75
     1
175
     1
 42
1.0
 92
        8
 66
     7
 43
1.0
 76
     1
 77
     6
 78
     2
 67
     7
 79
     5
170
     0
171
     0
290
     0
174
     0
 93
        1
 44
0.0
173
     0
291
     1
 45
0.0
1001
ACAD
1000
AcDbSavedByObjectVersion
1070
     0
  0
VISUALSTYLE
  5
2B
102
{ACAD_REACTORS
330
2A
102
}
330
2A
100
AcDbVisualStyle
  2
Flat
 70
     0
 71
     2
 72
     1
 73
     1
 90
        2
 40
-0.6
 41
30.0
 62
     5
 63
     7
421
 16777215
 74
     0
 91
        4
 64
     7
 65
   257
 75
     1
175
     1
 42
1.0
 92
        8
 66
     7
 43
1.0
 76
     1
 77
     6
 78
     2
 67
     7
 79
     5
170
     0
171
     0
290
     0
174
     0
 93
       13
 44
0.0
173
     0
291
     1
 45
0.0
1001
ACAD
1000
AcDbSavedByObjectVersion
1070
     0
  0
VISUALSTYLE
  5
2C
102
{ACAD_REACTORS
330
2A
102
}
330
2A
100
AcDbVisualStyle
  2
FlatWithEdges
 70
     1
 71
     2
 72
     1
 73
     1
 90
        2
 40
-0.6
 41
30.0
 62
     5
 63
     7
421
 16777215
 74
     1
 91
        4
 64
     7
 65
   257
 75
     1
175
     1
 42
1.0
 92
        0
 66
   257
 43
1.0
 76
     1
 77
     6
 78
     2
 67
     7
 79
     5
170
     0
171
     0
290
     0
174
     0
 93
       13
 44
0.0
173
     0
291
     1
 45
0.0
1001
ACAD
1000
AcDbSavedByObjectVersion
1070
     0
  0
VISUALSTYLE
  5
2D
102
{ACAD_REACTORS
330
2A
102
}
330
2A
100
AcDbVisualStyle
  2
Gouraud
 70
     2
 71
     2
 72
     2
 73
     1
 90
        2
 40
-0.6
 41
30.0
 62
     5
 63
     7
421
 16777215
 74
     0
 91
        4
 64
     7
 65
   257
 75
     1
175
     1
 42
1.0
 92
        0
 66
     7
 43
1.0
 76
     1
 77
     6
 78
     2
 67
     7
 79
     5
170
     0
171
     0
290
     0
174
     0
 93
       13
 44
0.0
173
     0
291
     1
 45
0.0
1001
ACAD
1000
AcDbSavedByObjectVersion
1070
     0
  0
VISUALSTYLE
  5
2E
102
{ACAD_REACTORS
330
2A
102
}
330
2A
100
AcDbVisualStyle
  2
GouraudWithEdges
 70
     3
 71
     2
 72
     2
 73
     1
 90
        2
 40
-0.6
 41
30.0
 62
     5
 63
     7
421
 16777215
 74
     1
 91
        4
 64
     7
 65
   257
 75
     1
175
     1
 42
1.0
 92
        0
 66
   257
 43
1.0
 76
     1
 77
     6
 78
     2
 67
     7
 79
     5
170
     0
171
     0
290
     0
174
     0
 93
       13
 44
0.0
173
     0
291
     1
 45
0.0
1001
ACAD
1000
AcDbSavedByObjectVersion
1070
     0
  0
VISUALSTYLE
  5
38
102
{ACAD_REACTORS
330
2A
102
}
330
2A
100
AcDbVisualStyle
  2
Linepattern
 70
    14
 71
     2
 72
     2
 73
     0
 90
        0
 40
-0.6
 41
-30.0
 62
     5
 63
     7
421
 16777215
 74
     1
 91
        4
 64
     7
 65
   257
 75
     7
175
     7
 42
1.0
 92
        8
 66
     7
 43
1.0
 76
     1
 77
     6
 78
     2
 67
     7
 79
     5
170
     0
171
     0
290
     0
174
     0
 93
        1
 44
0.0
173
     0
291
     1
 45
0.0
1001
ACAD
1000
AcDbSavedByObjectVersion
1070
     0
  0
VISUALSTYLE
  5
33
102
{ACAD_REACTORS
330
2A
102
}
330
2A
100
AcDbVisualStyle
  2
Realistic
 70
     8
 71
     2
 72
     2
 73
     0
 90
        0
 40
-0.6
 41
-30.0
 62
     5
 63
     7
421
 16777215
 74
     1
 91
        0
 64
     7
 65
   257
 75
     1
175
     1
 42
1.0
 92
        8
 66
     8
424
  7895160
 43
1.0
 76
     1
 77
     6
 78
     2
 67
     7
 79
     5
170
     0
171
     0
290
     0
174
     0
 93
       13
 44
0.0
173
     0
291
     0
 45
0.0
1001
ACAD
1000
AcDbSavedByObjectVersion
1070
     0
  0
VISUALSTYLE
  5
37
102
{ACAD_REACTORS
330
2A
102
}
330
2A
100
AcDbVisualStyle
  2
Thicken
 70
    13
 71
     2
 72
     2
 73
     0
 90
        0
 40
-0.6
 41
-30.0
 62
     5
 63
     7
421
 16777215
 74
     1
 91
        4
 64
     7
 65
   257
 75
     1
175
     1
 42
1.0
 92
       12
 66
     7
 43
1.0
 76
     1
 77
     6
 78
     2
 67
     7
 79
     5
170
     0
171
     0
290
     0
174
     0
 93
        1
 44
0.0
173
     0
291
     1
 45
0.0
1001
ACAD
1000
AcDbSavedByObjectVersion
1070
     0
  0
ENDSEC
  0
EOF
