  0
SECTION
  2
HEADER
  9
$ACADVER
  1
AC1015
  9
$ACADMAINTVER
 70
     6
  9
$DWGCODEPAGE
  3
ANSI_932
  9
$INSBASE
 10
0.0
 20
0.0
 30
0.0
  9
$EXTMIN
 10
14.684375
 20
10.715625
 30
1.000000E+20
  9
$EXTMAX
 10
404.680208
 20
287.734375
 30
-1.000000E+20
  9
$LIMMIN
 10
14.684375
 20
10.715625
  9
$LIMMAX
 10
404.680208
 20
287.734375
  9
$ORTHOMODE
 70
     0
  9
$REGENMODE
 70
     1
  9
$FILLMODE
 70
     1
  9
$QTEXTMODE
 70
     0
  9
$MIRRTEXT
 70
     1
  9
$LTSCALE
 40
1.0
  9
$ATTMODE
 70
     1
  9
$TEXTSIZE
 40
0.2
  9
$TRACEWID
 40
0.05
  9
$TEXTSTYLE
  7
Standard
  9
$CLAYER
  8
0
  9
$CELTYPE
  6
Continuous
  9
$CECOLOR
 62
   256
  9
$CELTSCALE
 40
1.0
  9
$DISPSILH
 70
     0
  9
$DIMSCALE
 40
1.0
  9
$DIMASZ
 40
0.18
  9
$DIMEXO
 40
0.0625
  9
$DIMDLI
 40
0.38
  9
$DIMRND
 40
0.0
  9
$DIMDLE
 40
0.0
  9
$DIMEXE
 40
0.18
  9
$DIMTP
 40
0.0
  9
$DIMTM
 40
0.0
  9
$DIMTXT
 40
0.18
  9
$DIMCEN
 40
0.09
  9
$DIMTSZ
 40
0.0
  9
$DIMTOL
 70
     0
  9
$DIMLIM
 70
     0
  9
$DIMTIH
 70
     1
  9
$DIMTOH
 70
     1
  9
$DIMSE1
 70
     0
  9
$DIMSE2
 70
     0
  9
$DIMTAD
 70
     0
  9
$DIMZIN
 70
     0
  9
$DIMBLK
  1

  9
$DIMASO
 70
     1
  9
$DIMSHO
 70
     1
  9
$DIMPOST
  1

  9
$DIMAPOST
  1

  9
$DIMALT
 70
     0
  9
$DIMALTD
 70
     2
  9
$DIMALTF
 40
25.4
  9
$DIMLFAC
 40
1.0
  9
$DIMTOFL
 70
     0
  9
$DIMTVP
 40
0.0
  9
$DIMTIX
 70
     0
  9
$DIMSOXD
 70
     0
  9
$DIMSAH
 70
     0
  9
$DIMBLK1
  1

  9
$DIMBLK2
  1

  9
$DIMSTYLE
  2
Standard
  9
$DIMCLRD
 70
     0
  9
$DIMCLRE
 70
     0
  9
$DIMCLRT
 70
     0
  9
$DIMTFAC
 40
1.0
  9
$DIMGAP
 40
0.09
  9
$DIMJUST
 70
     0
  9
$DIMSD1
 70
     0
  9
$DIMSD2
 70
     0
  9
$DIMTOLJ
 70
     1
  9
$DIMTZIN
 70
     0
  9
$DIMALTZ
 70
     0
  9
$DIMALTTZ
 70
     0
  9
$DIMUPT
 70
     0
  9
$DIMDEC
 70
     4
  9
$DIMTDEC
 70
     4
  9
$DIMALTU
 70
     2
  9
$DIMALTTD
 70
     2
  9
$DIMTXSTY
  7
Standard
  9
$DIMAUNIT
 70
     0
  9
$DIMADEC
 70
     0
  9
$DIMALTRND
 40
0.0
  9
$DIMAZIN
 70
     0
  9
$DIMDSEP
 70
     0
  9
$DIMATFIT
 70
     3
  9
$DIMFRAC
 70
     0
  9
$DIMLDRBLK
  1

  9
$DIMLUNIT
 70
     2
  9
$DIMLWD
 70
     0
  9
$DIMLWE
 70
     0
  9
$DIMTMOVE
 70
     0
  9
$LUNITS
 70
     2
  9
$LUPREC
 70
     4
  9
$SKETCHINC
 40
0.1
  9
$FILLETRAD
 40
0.0
  9
$AUNITS
 70
     0
  9
$AUPREC
 70
     0
  9
$MENU
  1
acad
  9
$ELEVATION
 40
0.0
  9
$PELEVATION
 40
0.0
  9
$THICKNESS
 40
0.0
  9
$LIMCHECK
 70
     0
  9
$CHAMFERA
 40
0.0
  9
$CHAMFERB
 40
0.0
  9
$CHAMFERC
 40
0.0
  9
$CHAMFERD
 40
0.0
  9
$SKPOLY
 70
     0
  9
$TDCREATE
 40
0.000000000
  9
$TDUCREATE
 40
0.000000000
  9
$TDUPDATE
 40
0.000000000
  9
$TDUUPDATE
 40
0.000000000
  9
$TDINDWG
 40
0.0000000000
  9
$TDUSRTIMER
 40
0.0000000000
  9
$USRTIMER
 70
     1
  9
$ANGBASE
 50
0.0
  9
$ANGDIR
 70
     0
  9
$PDMODE
 70
     0
  9
$PDSIZE
 40
0.0
  9
$PLINEWID
 40
0.0
  9
$SPLFRAME
 70
     0
  9
$SPLINETYPE
 70
     6
  9
$SPLINESEGS
 70
     8
  9
$HANDSEED
  5
256
  9
$SURFTAB1
 70
     6
  9
$SURFTAB2
 70
     6
  9
$SURFTYPE
 70
     6
  9
$SURFU
 70
     6
  9
$SURFV
 70
     6
  9
$UCSBASE
  2

  9
$UCSNAME
  2

  9
$UCSORG
 10
0.0
 20
0.0
 30
0.0
  9
$UCSXDIR
 10
1.0
 20
0.0
 30
0.0
  9
$UCSYDIR
 10
0.0
 20
1.0
 30
0.0
  9
$UCSORTHOREF
  2

  9
$UCSORTHOVIEW
 70
     0
  9
$UCSORGTOP
 10
0.0
 20
0.0
 30
0.0
  9
$UCSORGBOTTOM
 10
0.0
 20
0.0
 30
0.0
  9
$UCSORGLEFT
 10
0.0
 20
0.0
 30
0.0
  9
$UCSORGRIGHT
 10
0.0
 20
0.0
 30
0.0
  9
$UCSORGFRONT
 10
0.0
 20
0.0
 30
0.0
  9
$UCSORGBACK
 10
0.0
 20
0.0
 30
0.0
  9
$PUCSBASE
  2

  9
$PUCSNAME
  2

  9
$PUCSORG
 10
0.0
 20
0.0
 30
0.0
  9
$PUCSXDIR
 10
1.0
 20
0.0
 30
0.0
  9
$PUCSYDIR
 10
0.0
 20
1.0
 30
0.0
  9
$PUCSORTHOREF
  2

  9
$PUCSORTHOVIEW
 70
     0
  9
$PUCSORGTOP
 10
0.0
 20
0.0
 30
0.0
  9
$PUCSORGBOTTOM
 10
0.0
 20
0.0
 30
0.0
  9
$PUCSORGLEFT
 10
0.0
 20
0.0
 30
0.0
  9
$PUCSORGRIGHT
 10
0.0
 20
0.0
 30
0.0
  9
$PUCSORGFRONT
 10
0.0
 20
0.0
 30
0.0
  9
$PUCSORGBACK
 10
0.0
 20
0.0
 30
0.0
  9
$USERI1
 70
     0
  9
$USERI2
 70
     0
  9
$USERI3
 70
     0
  9
$USERI4
 70
     0
  9
$USERI5
 70
     0
  9
$USERR1
 40
0.0
  9
$USERR2
 40
0.0
  9
$USERR3
 40
0.0
  9
$USERR4
 40
0.0
  9
$USERR5
 40
0.0
  9
$WORLDVIEW
 70
     1
  9
$SHADEDGE
 70
     3
  9
$SHADEDIF
 70
    70
  9
$TILEMODE
 70
     1
  9
$MAXACTVP
 70
    16
  9
$PINSBASE
 10
0.0
 20
0.0
 30
0.0
  9
$PLIMCHECK
 70
     0
  9
$PEXTMIN
 10
1.000000E+20
 20
1.000000E+20
 30
1.000000E+20
  9
$PEXTMAX
 10
-1.000000E+20
 20
-1.000000E+20
 30
-1.000000E+20
  9
$PLIMMIN
 10
0.0
 20
0.0
  9
$PLIMMAX
 10
12.0
 20
9.0
  9
$UNITMODE
 70
     0
  9
$VISRETAIN
 70
     0
  9
$PLINEGEN
 70
     1
  9
$PSLTSCALE
 70
     0
  9
$TREEDEPTH
 70
  3020
  9
$CMLSTYLE
  2
Standard
  9
$CMLJUST
 70
     0
  9
$CMLSCALE
 40
1.0
  9
$PROXYGRAPHICS
 70
     0
  9
$MEASUREMENT
 70
     1
  9
$CELWEIGHT
370
     0
  9
$ENDCAPS
280
     0
  9
$JOINSTYLE
280
     0
  9
$LWDISPLAY
290
     0
  9
$INSUNITS
 70
     0
  9
$HYPERLINKBASE
  1

  9
$STYLESHEET
  1

  9
$XEDIT
290
     1
  9
$CEPSNTYPE
380
     0
  9
$PSTYLEMODE
290
     1
  9
$FINGERPRINTGUID
  2

  9
$VERSIONGUID
  2

  9
$EXTNAMES
290
     1
  9
$PSVPSCALE
 40
0.0
  0
ENDSEC
  0
SECTION
  2
CLASSES
  0
CLASS
  1
LWPOLYLINE
  2
AcDbPolyline
  3
AutoCAD 2000
 90
    32768
280
     0
281
     1
  0
CLASS
  1
IMAGE
  2
AcDbRasterImage
  3
ISM
 90
    32895
280
     0
281
     1
  0
CLASS
  1
OLE2FRAME
  2
AcDbOle2Frame
  3
AutoCAD 2000
 90
    32768
280
     0
281
     1
  0
CLASS
  1
HATCH
  2
AcDbHatch
  3
AutoCAD 2000
 90
        0
280
     0
281
     1
  0
CLASS
  1
DICTIONARYVAR
  2
AcDbDictionaryVar
  3
AutoCAD 2000
 90
    32768
280
     0
281
     0
  0
CLASS
  1
RASTERVARIABLES
  2
AcDbRasterVariables
  3
ISM
 90
    32768
280
     0
281
     0
  0
CLASS
  1
IMAGEDEF
  2
AcDbRasterImageDef
  3
ISM
 90
    32768
280
     0
281
     0
  0
CLASS
  1
IMAGEDEF_REACTOR
  2
AcDbRasterImageDefReactor
  3
ISM
 90
    32769
280
     0
281
     0
  0
CLASS
  1
IDBUFFER
  2
AcDbIdBuffer
  3
AutoCAD 2000
 90
    32768
280
     0
281
     0
  0
CLASS
  1
SPATIAL_FILTER
  2
AcDbSpatialFilter
  3
AutoCAD 2000
 90
    32768
280
     0
281
     0
  0
CLASS
  1
XRECORD
  2
AcDbXrecord
  3
AutoCAD 2000
 90
    32768
280
     0
281
     0
  0
CLASS
  1
SORTENTSTABLE
  2
AcDbSortentsTable
  3
AutoCAD 2000
 90
    32768
280
     0
281
     0
  0
CLASS
  1
LAYER_INDEX
  2
AcDbLayerIndex
  3
AutoCAD 2000
 90
    32768
280
     0
281
     0
  0
CLASS
  1
SPATIAL_INDEX
  2
AcDbSpatialIndex
  3
AutoCAD 2000
 90
    32768
280
     0
281
     0
  0
CLASS
  1
OBJECT_PTR
  2
CAseDLPNTableRecord
  3
"ASE-LPNTableRecord"
 90
    32769
280
     0
281
     0
  0
CLASS
  1
LAYOUT
  2
AcDbLayout
  3
AutoCAD 2000
 90
        0
280
     0
281
     0
  0
CLASS
  1
PLOTSETTINGS
  2
AcDbPlotSettings
  3
AutoCAD 2000
 90
    32768
280
     0
281
     0
  0
CLASS
  1
ACDBDICTIONARYWDFLT
  2
AcDbDictionaryWithDefault
  3
AutoCAD 2000
 90
        0
280
     0
281
     0
  0
CLASS
  1
ACDBPLACEHOLDER
  2
AcDbPlaceHolder
  3
AutoCAD 2000
 90
        0
280
     0
281
     0
  0
CLASS
  1
VBA_PROJECT
  2
AcDbVbaProject
  3
acadvba
 90
    32768
280
     0
281
     0
  0
CLASS
  1
WIPEOUT
  2
AcDbWipeout
  3
WipeOut|AutoCAD Express Tool|expresstools@autodesk.com
 90
    32895
280
     0
281
     1
  0
CLASS
  1
WIPEOUTVARIABLES
  2
AcDbWipeoutVariables
  3
WipeOut|AutoCAD Express Tool|expresstools@autodesk.com
 90
        0
280
     0
281
     0
  0
CLASS
  1
RTEXT
  2
RText
  3
RText|AutoCAD Express Tool|expresstools@autodesk.com
 90
    32768
280
     0
281
     1
  0
CLASS
  1
ARCALIGNEDTEXT
  2
AcDbArcAlignedText
  3
ATEXT|AutoCAD Express Tool|expresstools@autodesk.com
 90
    32768
280
     0
281
     1
  0
ENDSEC
  0
SECTION
  2
TABLES
  0
TABLE
  2
VPORT
  5
7
100
AcDbSymbolTable
 70
     1
  0
VPORT
  5
15
100
AcDbSymbolTableRecord
100
AcDbViewportTableRecord
  2
*ACTIVE
 70
     0
 10
0.0
 20
0.0
 11
1.0
 21
1.0
 12
6.591288
 22
4.579184
 13
0.0
 23
0.0
 14
1.0
 24
1.0
 15
0.0
 25
0.0
 16
0.0
 26
0.0
 36
1.0
 17
0.0
 27
0.0
 37
0.0
 40
9.158369
 41
0.688564
 42
50.0
 43
0.0
 44
0.0
 50
0.0
 51
0.0
 71
     0
 72
   100
 73
     1
 74
     1
 75
     0
 76
     0
 77
     0
 78
     0
281
     0
 65
     0
110
0.0
120
0.0
130
0.0
111
1.0
121
0.0
131
0.0
112
0.0
122
1.0
132
0.0
345
0
346
0
 79
     0
146
0.0
  0
ENDTAB
  0
TABLE
  2
LTYPE
  5
4
100
AcDbSymbolTable
 70
     3
  0
LTYPE
  5
11
100
AcDbSymbolTableRecord
100
AcDbLinetypeTableRecord
  2
ByBlock
 70
    64
  3

 72
    65
 73
     0
 40
0.0
  0
LTYPE
  5
12
100
AcDbSymbolTableRecord
100
AcDbLinetypeTableRecord
  2
ByLayer
 70
    64
  3

 72
    65
 73
     0
 40
0.0
  0
LTYPE
  5
13
100
AcDbSymbolTableRecord
100
AcDbLinetypeTableRecord
  2
Continuous
 70
    64
  3
Solid line
 72
    65
 73
     0
 40
0.0
  0
ENDTAB
  0
TABLE
  2
LAYER
  5
2
100
AcDbSymbolTable
 70
     2
  0
LAYER
  5
14
100
AcDbSymbolTableRecord
100
AcDbLayerTableRecord
  2
0
 70
     0
 62
     7
  6
Continuous
290
     1
370
    -3
390
1D
  0
LAYER
  5
28
100
AcDbSymbolTableRecord
100
AcDbLayerTableRecord
  2
レイヤー_1
 70
     0
 62
   160
  6
Continuous
290
     1
370
    -3
390
1D
  0
ENDTAB
  0
TABLE
  2
STYLE
  5
3
100
AcDbSymbolTable
 70
     5
  0
STYLE
  5
17
100
AcDbSymbolTableRecord
100
AcDbTextStyleTableRecord
  2
Standard
 70
     0
 40
0.0
 41
1.0
 50
0.0
 71
     0
 42
0.0
  3
txt
  4

  0
STYLE
  5
24
100
AcDbSymbolTableRecord
100
AcDbTextStyleTableRecord
  2
STD
 70
     0
 40
0.0
 41
1.0
 50
0.0
 71
     0
 42
0.0
  3
txt
  4

  0
STYLE
  5
25
100
AcDbSymbolTableRecord
100
AcDbTextStyleTableRecord
  2
TATESTD
 70
     4
 40
0.0
 41
1.0
 50
0.0
 71
     0
 42
0.0
  3
txt
  4

  0
STYLE
  5
26
100
AcDbSymbolTableRecord
100
AcDbTextStyleTableRecord
  2
KANJISTD
 70
     0
 40
0.0
 41
1.0
 50
0.0
 71
     0
 42
0.0
  3
txt
  4
extfont
  0
STYLE
  5
27
100
AcDbSymbolTableRecord
100
AcDbTextStyleTableRecord
  2
KANJITATE
 70
     4
 40
0.0
 41
1.0
 50
0.0
 71
     0
 42
0.0
  3
txt
  4
extfont
  0
ENDTAB
  0
TABLE
  2
VIEW
  5
5
100
AcDbSymbolTable
 70
     0
  0
ENDTAB
  0
TABLE
  2
UCS
  5
6
100
AcDbSymbolTable
 70
     0
  0
ENDTAB
  0
TABLE
  2
APPID
  5
8
100
AcDbSymbolTable
 70
     1
  0
APPID
  5
16
100
AcDbSymbolTableRecord
100
AcDbRegAppTableRecord
  2
ACAD
 70
     0
  0
ENDTAB
  0
TABLE
  2
DIMSTYLE
  5
9
100
AcDbSymbolTable
 70
     1
100
AcDbDimStyleTable
 71
     0
  0
DIMSTYLE
105
18
100
AcDbSymbolTableRecord
100
AcDbDimStyleTableRecord
  2
Standard
 70
     0
  3

  4

 40
1.0
 41
0.18
 42
0.0625
 43
0.38
 44
0.18
 45
0.0
 46
0.0
 47
0.0
 48
0.0
 71
     0
 72
     0
 73
     1
 74
     1
 75
     0
 76
     0
 77
     0
 78
     0
 79
     0
140
0.18
141
0.09
142
0.0
143
25.4
144
1.0
145
0.0
146
1.0
147
0.09
148
0.0
170
     0
171
     2
172
     0
173
     0
174
     0
175
     0
176
     0
177
     0
178
     0
179
     0
271
     4
272
     4
273
     2
274
     2
275
     0
276
     0
277
     2
278
    46
279
     0
280
     0
281
     0
282
     0
283
     1
284
     0
285
     0
286
     0
288
     0
340
17
341
0
342
0
343
0
344
0
371
    -2
372
    -2
  0
ENDTAB
  0
TABLE
  2
BLOCK_RECORD
  5
1
100
AcDbSymbolTable
 70
     1
  0
BLOCK_RECORD
  5
A
100
AcDbSymbolTableRecord
100
AcDbBlockTableRecord
  2
*MODEL_SPACE
340
20
  0
BLOCK_RECORD
  5
B
100
AcDbSymbolTableRecord
100
AcDbBlockTableRecord
  2
*PAPER_SPACE
340
21
  0
BLOCK_RECORD
  5
1F4
100
AcDbSymbolTableRecord
100
AcDbBlockTableRecord
  2
AI9-BLK1
340
0
102
{BLKREFS
331
1F5
102
}
  0
ENDTAB
  0
ENDSEC
  0
SECTION
  2
BLOCKS
  0
BLOCK
  5
D
100
AcDbEntity
  8
0
100
AcDbBlockBegin
  2
*MODEL_SPACE
 70
     0
 10
0.0
 20
0.0
 30
0.0
  3
*MODEL_SPACE
  1

  0
ENDBLK
  5
E
100
AcDbEntity
  8
0
100
AcDbBlockEnd
  0
BLOCK
  5
F
100
AcDbEntity
 67
     1
  8
0
100
AcDbBlockBegin
  2
*PAPER_SPACE
 70
     0
 10
0.0
 20
0.0
 30
0.0
  3
*PAPER_SPACE
  1

  0
ENDBLK
  5
10
100
AcDbEntity
 67
     1
  8
0
100
AcDbBlockEnd
  0
BLOCK
  5
1F6
100
AcDbEntity
  8
レイヤー_1
 62
     7
100
AcDbBlockBegin
  2
AI9-BLK1
 70
     0
 10
0.0
 20
0.0
 30
0.0
  3
AI9-BLK1
  1

  0
MTEXT
  5
1F9
100
AcDbEntity
  8
レイヤー_1
 62
     7
100
AcDbMText
 10
-4.7625
 20
1.215134
 30
0.0
 40
2.362351
 41
0.0
 71
     1
 72
     2
  1
\fMSGothic|b0|i0|c128;\H2.3624;\C7;\U+8A18
  7
STD
210
0.0
220
0.0
230
1.0
 11
1.0
 21
0.0
 31
0.0
 73
     1
 44
1.0
  0
MTEXT
  5
1F8
100
AcDbEntity
  8
レイヤー_1
 62
     7
100
AcDbMText
 10
-1.5875
 20
1.215134
 30
0.0
 40
2.362351
 41
0.0
 71
     1
 72
     2
  1
\fMSGothic|b0|i0|c128;\H2.3624;\C7;
  7
STD
210
0.0
220
0.0
230
1.0
 11
1.0
 21
0.0
 31
0.0
 73
     1
 44
1.0
  0
MTEXT
  5
1F7
100
AcDbEntity
  8
レイヤー_1
 62
     7
100
AcDbMText
 10
1.5875
 20
1.215134
 30
0.0
 40
2.362351
 41
0.0
 71
     1
 72
     2
  1
\fMSGothic|b0|i0|c128;\H2.3624;\C7;\U+4E8B
  7
STD
210
0.0
220
0.0
230
1.0
 11
1.0
 21
0.0
 31
0.0
 73
     1
 44
1.0
  0
ENDBLK
  5
1FA
100
AcDbEntity
  8
レイヤー_1
100
AcDbBlockEnd
  0
ENDSEC
  0
SECTION
  2
ENTITIES
  0
MTEXT
  5
255
100
AcDbEntity
  8
レイヤー_1
 62
     7
100
AcDbMText
 10
195.791667
 20
16.385268
 30
0.0
 40
2.362351
 41
0.0
 71
     1
 72
     2
  1
\fMSGothic|b0|i0|c128;\H2.3624;\C7;\U+FF12
  7
STD
210
0.0
220
0.0
230
1.0
 11
1.0
 21
0.0
 31
0.0
 73
     1
 44
1.0
  0
MTEXT
  5
254
100
AcDbEntity
  8
レイヤー_1
 62
     7
100
AcDbMText
 10
198.966667
 20
16.385268
 30
0.0
 40
2.362351
 41
0.0
 71
     1
 72
     2
  1
\fMSGothic|b0|i0|c128;\H2.3624;\C7;\U+FF1A
  7
STD
210
0.0
220
0.0
230
1.0
 11
1.0
 21
0.0
 31
0.0
 73
     1
 44
1.0
  0
MTEXT
  5
253
100
AcDbEntity
  8
レイヤー_1
 62
     7
100
AcDbMText
 10
202.141667
 20
16.385268
 30
0.0
 40
2.362351
 41
0.0
 71
     1
 72
     2
  1
\fMSGothic|b0|i0|c128;\H2.3624;\C7;\U+FF11
  7
STD
210
0.0
220
0.0
230
1.0
 11
1.0
 21
0.0
 31
0.0
 73
     1
 44
1.0
  0
MTEXT
  5
252
100
AcDbEntity
  8
レイヤー_1
 62
     7
100
AcDbMText
 10
236.567817
 20
20.815316
 30
0.0
 40
2.362351
 41
0.0
 71
     1
 72
     2
  1
\fMSGothic|b0|i0|c128;\H2.3624;\C7;\U+30C9
  7
STD
210
0.0
220
0.0
230
1.0
 11
1.0
 21
0.0
 31
0.0
 73
     1
 44
1.0
  0
MTEXT
  5
251
100
AcDbEntity
  8
レイヤー_1
 62
     7
100
AcDbMText
 10
239.742817
 20
20.815316
 30
0.0
 40
2.362351
 41
0.0
 71
     1
 72
     2
  1
\fMSGothic|b0|i0|c128;\H2.3624;\C7;\U+30E9
  7
STD
210
0.0
220
0.0
230
1.0
 11
1.0
 21
0.0
 31
0.0
 73
     1
 44
1.0
  0
MTEXT
  5
250
100
AcDbEntity
  8
レイヤー_1
 62
     7
100
AcDbMText
 10
242.917817
 20
20.815316
 30
0.0
 40
2.362351
 41
0.0
 71
     1
 72
     2
  1
\fMSGothic|b0|i0|c128;\H2.3624;\C7;\U+30A4
  7
STD
210
0.0
220
0.0
230
1.0
 11
1.0
 21
0.0
 31
0.0
 73
     1
 44
1.0
  0
MTEXT
  5
24F
100
AcDbEntity
  8
レイヤー_1
 62
     7
100
AcDbMText
 10
246.092817
 20
20.815316
 30
0.0
 40
2.362351
 41
0.0
 71
     1
 72
     2
  1
\fMSGothic|b0|i0|c128;\H2.3624;\C7;\U+30B3
  7
STD
210
0.0
220
0.0
230
1.0
 11
1.0
 21
0.0
 31
0.0
 73
     1
 44
1.0
  0
MTEXT
  5
24E
100
AcDbEntity
  8
レイヤー_1
 62
     7
100
AcDbMText
 10
249.267817
 20
20.815316
 30
0.0
 40
2.362351
 41
0.0
 71
     1
 72
     2
  1
\fMSGothic|b0|i0|c128;\H2.3624;\C7;\U+30FC
  7
STD
210
0.0
220
0.0
230
1.0
 11
1.0
 21
0.0
 31
0.0
 73
     1
 44
1.0
  0
MTEXT
  5
24D
100
AcDbEntity
  8
レイヤー_1
 62
     7
100
AcDbMText
 10
252.442817
 20
20.815316
 30
0.0
 40
2.362351
 41
0.0
 71
     1
 72
     2
  1
\fMSGothic|b0|i0|c128;\H2.3624;\C7;\U+30F3
  7
STD
210
0.0
220
0.0
230
1.0
 11
1.0
 21
0.0
 31
0.0
 73
     1
 44
1.0
  0
MTEXT
  5
24C
100
AcDbEntity
  8
レイヤー_1
 62
     7
100
AcDbMText
 10
255.617817
 20
20.815316
 30
0.0
 40
2.362351
 41
0.0
 71
     1
 72
     2
  1
\fMSGothic|b0|i0|c128;\H2.3624;\C7;\U+FF08
  7
STD
210
0.0
220
0.0
230
1.0
 11
1.0
 21
0.0
 31
0.0
 73
     1
 44
1.0
  0
MTEXT
  5
24B
100
AcDbEntity
  8
レイヤー_1
 62
     7
100
AcDbMText
 10
258.792817
 20
20.815316
 30
0.0
 40
2.362351
 41
0.0
 71
     1
 72
     2
  1
\fMSGothic|b0|i0|c128;\H2.3624;\C7;\U+FF14
  7
STD
210
0.0
220
0.0
230
1.0
 11
1.0
 21
0.0
 31
0.0
 73
     1
 44
1.0
  0
MTEXT
  5
24A
100
AcDbEntity
  8
レイヤー_1
 62
     7
100
AcDbMText
 10
261.967817
 20
20.815316
 30
0.0
 40
2.362351
 41
0.0
 71
     1
 72
     2
  1
\fMSGothic|b0|i0|c128;\H2.3624;\C7;\U+500B
  7
STD
210
0.0
220
0.0
230
1.0
 11
1.0
 21
0.0
 31
0.0
 73
     1
 44
1.0
  0
MTEXT
  5
249
100
AcDbEntity
  8
レイヤー_1
 62
     7
100
AcDbMText
 10
265.142817
 20
20.815316
 30
0.0
 40
2.362351
 41
0.0
 71
     1
 72
     2
  1
\fMSGothic|b0|i0|c128;\H2.3624;\C7;\U+5165
  7
STD
210
0.0
220
0.0
230
1.0
 11
1.0
 21
0.0
 31
0.0
 73
     1
 44
1.0
  0
MTEXT
  5
248
100
AcDbEntity
  8
レイヤー_1
 62
     7
100
AcDbMText
 10
268.317817
 20
20.815316
 30
0.0
 40
2.362351
 41
0.0
 71
     1
 72
     2
  1
\fMSGothic|b0|i0|c128;\H2.3624;\C7;\U+FF09
  7
STD
210
0.0
220
0.0
230
1.0
 11
1.0
 21
0.0
 31
0.0
 73
     1
 44
1.0
  0
MTEXT
  5
247
100
AcDbEntity
  8
レイヤー_1
 62
     7
100
AcDbMText
 10
240.693663
 20
32.621314
 30
0.0
 40
2.362351
 41
0.0
 71
     1
 72
     2
  1
\fMSGothic|b0|i0|c128;\H2.3624;\C7;\U+FF28
  7
STD
210
0.0
220
0.0
230
1.0
 11
1.0
 21
0.0
 31
0.0
 73
     1
 44
1.0
  0
MTEXT
  5
246
100
AcDbEntity
  8
レイヤー_1
 62
     7
100
AcDbMText
 10
243.868663
 20
32.621314
 30
0.0
 40
2.362351
 41
0.0
 71
     1
 72
     2
  1
\fMSGothic|b0|i0|c128;\H2.3624;\C7;\U+FF23
  7
STD
210
0.0
220
0.0
230
1.0
 11
1.0
 21
0.0
 31
0.0
 73
     1
 44
1.0
  0
MTEXT
  5
245
100
AcDbEntity
  8
レイヤー_1
 62
     7
100
AcDbMText
 10
247.043663
 20
32.621314
 30
0.0
 40
2.362351
 41
0.0
 71
     1
 72
     2
  1
\fMSGothic|b0|i0|c128;\H2.3624;\C7;\U+FF25
  7
STD
210
0.0
220
0.0
230
1.0
 11
1.0
 21
0.0
 31
0.0
 73
     1
 44
1.0
  0
MTEXT
  5
244
100
AcDbEntity
  8
レイヤー_1
 62
     7
100
AcDbMText
 10
250.218663
 20
32.621314
 30
0.0
 40
2.362351
 41
0.0
 71
     1
 72
     2
  1
\fMSGothic|b0|i0|c128;\H2.3624;\C7;\U+002D
  7
STD
210
0.0
220
0.0
230
1.0
 11
1.0
 21
0.0
 31
0.0
 73
     1
 44
1.0
  0
MTEXT
  5
243
100
AcDbEntity
  8
レイヤー_1
 62
     7
100
AcDbMText
 10
251.806163
 20
32.621314
 30
0.0
 40
2.362351
 41
0.0
 71
     1
 72
     2
  1
\fMSGothic|b0|i0|c128;\H2.3624;\C7;\U+FF10
  7
STD
210
0.0
220
0.0
230
1.0
 11
1.0
 21
0.0
 31
0.0
 73
     1
 44
1.0
  0
MTEXT
  5
242
100
AcDbEntity
  8
レイヤー_1
 62
     7
100
AcDbMText
 10
254.981163
 20
32.621314
 30
0.0
 40
2.362351
 41
0.0
 71
     1
 72
     2
  1
\fMSGothic|b0|i0|c128;\H2.3624;\C7;\U+FF10
  7
STD
210
0.0
220
0.0
230
1.0
 11
1.0
 21
0.0
 31
0.0
 73
     1
 44
1.0
  0
MTEXT
  5
241
100
AcDbEntity
  8
レイヤー_1
 62
     7
100
AcDbMText
 10
258.156163
 20
32.621314
 30
0.0
 40
2.362351
 41
0.0
 71
     1
 72
     2
  1
\fMSGothic|b0|i0|c128;\H2.3624;\C7;\U+FF10
  7
STD
210
0.0
220
0.0
230
1.0
 11
1.0
 21
0.0
 31
0.0
 73
     1
 44
1.0
  0
MTEXT
  5
240
100
AcDbEntity
  8
レイヤー_1
 62
     7
100
AcDbMText
 10
261.331163
 20
32.621314
 30
0.0
 40
2.362351
 41
0.0
 71
     1
 72
     2
  1
\fMSGothic|b0|i0|c128;\H2.3624;\C7;\U+FF11
  7
STD
210
0.0
220
0.0
230
1.0
 11
1.0
 21
0.0
 31
0.0
 73
     1
 44
1.0
  0
MTEXT
  5
23F
100
AcDbEntity
  8
レイヤー_1
 62
     7
100
AcDbMText
 10
195.766345
 20
24.147068
 30
0.0
 40
2.362351
 41
0.0
 71
     1
 72
     2
  1
\fMSGothic|b0|i0|c128;\H2.3624;\C7;\U+0034
  7
STD
210
0.0
220
0.0
230
1.0
 11
1.0
 21
0.0
 31
0.0
 73
     1
 44
1.0
  0
MTEXT
  5
23E
100
AcDbEntity
  8
レイヤー_1
 62
     7
100
AcDbMText
 10
197.353845
 20
24.147068
 30
0.0
 40
2.362351
 41
0.0
 71
     1
 72
     2
  1
\fMSGothic|b0|i0|c128;\H2.3624;\C7;\U+0039
  7
STD
210
0.0
220
0.0
230
1.0
 11
1.0
 21
0.0
 31
0.0
 73
     1
 44
1.0
  0
MTEXT
  5
23D
100
AcDbEntity
  8
レイヤー_1
 62
     7
100
AcDbMText
 10
198.941345
 20
24.147068
 30
0.0
 40
2.362351
 41
0.0
 71
     1
 72
     2
  1
\fMSGothic|b0|i0|c128;\H2.3624;\C7;\U+0038
  7
STD
210
0.0
220
0.0
230
1.0
 11
1.0
 21
0.0
 31
0.0
 73
     1
 44
1.0
  0
MTEXT
  5
23C
100
AcDbEntity
  8
レイヤー_1
 62
     7
100
AcDbMText
 10
200.528845
 20
24.147068
 30
0.0
 40
2.362351
 41
0.0
 71
     1
 72
     2
  1
\fMSGothic|b0|i0|c128;\H2.3624;\C7;\U+0031
  7
STD
210
0.0
220
0.0
230
1.0
 11
1.0
 21
0.0
 31
0.0
 73
     1
 44
1.0
  0
MTEXT
  5
23B
100
AcDbEntity
  8
レイヤー_1
 62
     7
100
AcDbMText
 10
202.116345
 20
24.147068
 30
0.0
 40
2.362351
 41
0.0
 71
     1
 72
     2
  1
\fMSGothic|b0|i0|c128;\H2.3624;\C7;\U+0037
  7
STD
210
0.0
220
0.0
230
1.0
 11
1.0
 21
0.0
 31
0.0
 73
     1
 44
1.0
  0
MTEXT
  5
23A
100
AcDbEntity
  8
レイヤー_1
 62
     7
100
AcDbMText
 10
203.703845
 20
24.147068
 30
0.0
 40
2.362351
 41
0.0
 71
     1
 72
     2
  1
\fMSGothic|b0|i0|c128;\H2.3624;\C7;\U+0030\U+0030
  7
STD
210
0.0
220
0.0
230
1.0
 11
1.0
 21
0.0
 31
0.0
 73
     1
 44
1.0
  0
MTEXT
  5
239
100
AcDbEntity
  8
レイヤー_1
 62
     7
100
AcDbMText
 10
32.843473
 20
283.112041
 30
0.0
 40
2.362351
 41
0.0
 71
     1
 72
     2
  1
\fMSGothic|b0|i0|c128;\H2.3624;\C7;\U+0034
  7
STD
210
0.0
220
0.0
230
1.0
 11
-1.0
 21
0.0
 31
0.0
 73
     1
 44
1.0
  0
MTEXT
  5
238
100
AcDbEntity
  8
レイヤー_1
 62
     7
100
AcDbMText
 10
31.255973
 20
283.112041
 30
0.0
 40
2.362351
 41
0.0
 71
     1
 72
     2
  1
\fMSGothic|b0|i0|c128;\H2.3624;\C7;\U+0039
  7
STD
210
0.0
220
0.0
230
1.0
 11
-1.0
 21
0.0
 31
0.0
 73
     1
 44
1.0
  0
MTEXT
  5
237
100
AcDbEntity
  8
レイヤー_1
 62
     7
100
AcDbMText
 10
29.668473
 20
283.112041
 30
0.0
 40
2.362351
 41
0.0
 71
     1
 72
     2
  1
\fMSGothic|b0|i0|c128;\H2.3624;\C7;\U+0038
  7
STD
210
0.0
220
0.0
230
1.0
 11
-1.0
 21
0.0
 31
0.0
 73
     1
 44
1.0
  0
MTEXT
  5
236
100
AcDbEntity
  8
レイヤー_1
 62
     7
100
AcDbMText
 10
28.080973
 20
283.112041
 30
0.0
 40
2.362351
 41
0.0
 71
     1
 72
     2
  1
\fMSGothic|b0|i0|c128;\H2.3624;\C7;\U+0031
  7
STD
210
0.0
220
0.0
230
1.0
 11
-1.0
 21
0.0
 31
0.0
 73
     1
 44
1.0
  0
MTEXT
  5
235
100
AcDbEntity
  8
レイヤー_1
 62
     7
100
AcDbMText
 10
26.493473
 20
283.112041
 30
0.0
 40
2.362351
 41
0.0
 71
     1
 72
     2
  1
\fMSGothic|b0|i0|c128;\H2.3624;\C7;\U+0037
  7
STD
210
0.0
220
0.0
230
1.0
 11
-1.0
 21
0.0
 31
0.0
 73
     1
 44
1.0
  0
MTEXT
  5
234
100
AcDbEntity
  8
レイヤー_1
 62
     7
100
AcDbMText
 10
24.905973
 20
283.112041
 30
0.0
 40
2.362351
 41
0.0
 71
     1
 72
     2
  1
\fMSGothic|b0|i0|c128;\H2.3624;\C7;\U+0038\U+0030\U+0030
  7
STD
210
0.0
220
0.0
230
1.0
 11
-1.0
 21
0.0
 31
0.0
 73
     1
 44
1.0
  0
MTEXT
  5
233
100
AcDbEntity
  8
レイヤー_1
 62
     7
100
AcDbMText
 10
169.8625
 20
32.789434
 30
0.0
 40
2.362351
 41
0.0
 71
     1
 72
     2
  1
\fMSGothic|b0|i0|c128;\H2.3624;\C7;\U+0032
  7
STD
210
0.0
220
0.0
230
1.0
 11
1.0
 21
0.0
 31
0.0
 73
     1
 44
1.0
  0
MTEXT
  5
232
100
AcDbEntity
  8
レイヤー_1
 62
     7
100
AcDbMText
 10
171.45
 20
32.789434
 30
0.0
 40
2.362351
 41
0.0
 71
     1
 72
     2
  1
\fMSGothic|b0|i0|c128;\H2.3624;\C7;\U+0030
  7
STD
210
0.0
220
0.0
230
1.0
 11
1.0
 21
0.0
 31
0.0
 73
     1
 44
1.0
  0
MTEXT
  5
231
100
AcDbEntity
  8
レイヤー_1
 62
     7
100
AcDbMText
 10
173.0375
 20
32.789434
 30
0.0
 40
2.362351
 41
0.0
 71
     1
 72
     2
  1
\fMSGothic|b0|i0|c128;\H2.3624;\C7;\U+0031
  7
STD
210
0.0
220
0.0
230
1.0
 11
1.0
 21
0.0
 31
0.0
 73
     1
 44
1.0
  0
MTEXT
  5
230
100
AcDbEntity
  8
レイヤー_1
 62
     7
100
AcDbMText
 10
174.625
 20
32.789434
 30
0.0
 40
2.362351
 41
0.0
 71
     1
 72
     2
  1
\fMSGothic|b0|i0|c128;\H2.3624;\C7;\U+0030
  7
STD
210
0.0
220
0.0
230
1.0
 11
1.0
 21
0.0
 31
0.0
 73
     1
 44
1.0
  0
MTEXT
  5
22F
100
AcDbEntity
  8
レイヤー_1
 62
     7
100
AcDbMText
 10
176.2125
 20
32.789434
 30
0.0
 40
2.362351
 41
0.0
 71
     1
 72
     2
  1
\fMSGothic|b0|i0|c128;\H2.3624;\C7;
  7
STD
210
0.0
220
0.0
230
1.0
 11
1.0
 21
0.0
 31
0.0
 73
     1
 44
1.0
  0
MTEXT
  5
22E
100
AcDbEntity
  8
レイヤー_1
 62
     7
100
AcDbMText
 10
179.3875
 20
32.789434
 30
0.0
 40
2.362351
 41
0.0
 71
     1
 72
     2
  1
\fMSGothic|b0|i0|c128;\H2.3624;\C7;\U+5E74
  7
STD
210
0.0
220
0.0
230
1.0
 11
1.0
 21
0.0
 31
0.0
 73
     1
 44
1.0
  0
MTEXT
  5
22D
100
AcDbEntity
  8
レイヤー_1
 62
     7
100
AcDbMText
 10
182.5625
 20
32.789434
 30
0.0
 40
2.362351
 41
0.0
 71
     1
 72
     2
  1
\fMSGothic|b0|i0|c128;\H2.3624;\C7;
  7
STD
210
0.0
220
0.0
230
1.0
 11
1.0
 21
0.0
 31
0.0
 73
     1
 44
1.0
  0
MTEXT
  5
22C
100
AcDbEntity
  8
レイヤー_1
 62
     7
100
AcDbMText
 10
185.7375
 20
32.789434
 30
0.0
 40
2.362351
 41
0.0
 71
     1
 72
     2
  1
\fMSGothic|b0|i0|c128;\H2.3624;\C7;\U+0031
  7
STD
210
0.0
220
0.0
230
1.0
 11
1.0
 21
0.0
 31
0.0
 73
     1
 44
1.0
  0
MTEXT
  5
22B
100
AcDbEntity
  8
レイヤー_1
 62
     7
100
AcDbMText
 10
187.325
 20
32.789434
 30
0.0
 40
2.362351
 41
0.0
 71
     1
 72
     2
  1
\fMSGothic|b0|i0|c128;\H2.3624;\C7;\U+0032
  7
STD
210
0.0
220
0.0
230
1.0
 11
1.0
 21
0.0
 31
0.0
 73
     1
 44
1.0
  0
MTEXT
  5
22A
100
AcDbEntity
  8
レイヤー_1
 62
     7
100
AcDbMText
 10
188.9125
 20
32.789434
 30
0.0
 40
2.362351
 41
0.0
 71
     1
 72
     2
  1
\fMSGothic|b0|i0|c128;\H2.3624;\C7;
  7
STD
210
0.0
220
0.0
230
1.0
 11
1.0
 21
0.0
 31
0.0
 73
     1
 44
1.0
  0
MTEXT
  5
229
100
AcDbEntity
  8
レイヤー_1
 62
     7
100
AcDbMText
 10
192.0875
 20
32.789434
 30
0.0
 40
2.362351
 41
0.0
 71
     1
 72
     2
  1
\fMSGothic|b0|i0|c128;\H2.3624;\C7;\U+6708
  7
STD
210
0.0
220
0.0
230
1.0
 11
1.0
 21
0.0
 31
0.0
 73
     1
 44
1.0
  0
MTEXT
  5
228
100
AcDbEntity
  8
レイヤー_1
 62
     7
100
AcDbMText
 10
195.2625
 20
32.789434
 30
0.0
 40
2.362351
 41
0.0
 71
     1
 72
     2
  1
\fMSGothic|b0|i0|c128;\H2.3624;\C7;
  7
STD
210
0.0
220
0.0
230
1.0
 11
1.0
 21
0.0
 31
0.0
 73
     1
 44
1.0
  0
MTEXT
  5
227
100
AcDbEntity
  8
レイヤー_1
 62
     7
100
AcDbMText
 10
198.4375
 20
32.789434
 30
0.0
 40
2.362351
 41
0.0
 71
     1
 72
     2
  1
\fMSGothic|b0|i0|c128;\H2.3624;\C7;\U+0020
  7
STD
210
0.0
220
0.0
230
1.0
 11
1.0
 21
0.0
 31
0.0
 73
     1
 44
1.0
  0
MTEXT
  5
226
100
AcDbEntity
  8
レイヤー_1
 62
     7
100
AcDbMText
 10
200.025
 20
32.789434
 30
0.0
 40
2.362351
 41
0.0
 71
     1
 72
     2
  1
\fMSGothic|b0|i0|c128;\H2.3624;\C7;\U+0031
  7
STD
210
0.0
220
0.0
230
1.0
 11
1.0
 21
0.0
 31
0.0
 73
     1
 44
1.0
  0
MTEXT
  5
225
100
AcDbEntity
  8
レイヤー_1
 62
     7
100
AcDbMText
 10
201.6125
 20
32.789434
 30
0.0
 40
2.362351
 41
0.0
 71
     1
 72
     2
  1
\fMSGothic|b0|i0|c128;\H2.3624;\C7;\U+0036
  7
STD
210
0.0
220
0.0
230
1.0
 11
1.0
 21
0.0
 31
0.0
 73
     1
 44
1.0
  0
MTEXT
  5
224
100
AcDbEntity
  8
レイヤー_1
 62
     7
100
AcDbMText
 10
203.2
 20
32.789434
 30
0.0
 40
2.362351
 41
0.0
 71
     1
 72
     2
  1
\fMSGothic|b0|i0|c128;\H2.3624;\C7;
  7
STD
210
0.0
220
0.0
230
1.0
 11
1.0
 21
0.0
 31
0.0
 73
     1
 44
1.0
  0
MTEXT
  5
223
100
AcDbEntity
  8
レイヤー_1
 62
     7
100
AcDbMText
 10
206.375
 20
32.789434
 30
0.0
 40
2.362351
 41
0.0
 71
     1
 72
     2
  1
\fMSGothic|b0|i0|c128;\H2.3624;\C7;\U+65E5
  7
STD
210
0.0
220
0.0
230
1.0
 11
1.0
 21
0.0
 31
0.0
 73
     1
 44
1.0
  0
LINE
  5
222
100
AcDbEntity
  8
レイヤー_1
 62
     7
100
AcDbLine
 10
281.78125
 20
35.71875
 30
0.0
 11
281.78125
 21
10.847917
 31
0.0
  0
LINE
  5
221
100
AcDbEntity
  8
レイヤー_1
 62
     7
100
AcDbLine
 10
148.695833
 20
27.78125
 30
0.0
 11
281.78125
 21
27.78125
 31
0.0
  0
LINE
  5
220
100
AcDbEntity
  8
レイヤー_1
 62
     7
100
AcDbLine
 10
181.76875
 20
19.314583
 30
0.0
 11
216.69375
 21
19.314583
 31
0.0
  0
POLYLINE
  5
21B
100
AcDbEntity
  8
レイヤー_1
 62
     7
100
AcDb2dPolyline
 66
     1
 10
0.0
 20
0.0
 30
0.0
  0
VERTEX
  5
21C
100
AcDbEntity
  8
レイヤー_1
 62
     7
100
AcDbVertex
100
AcDb2dVertex
 10
14.816667
 20
287.602083
 30
0.0
  0
VERTEX
  5
21D
100
AcDbEntity
  8
レイヤー_1
 62
     7
100
AcDbVertex
100
AcDb2dVertex
 10
404.547917
 20
287.602083
 30
0.0
  0
VERTEX
  5
21E
100
AcDbEntity
  8
レイヤー_1
 62
     7
100
AcDbVertex
100
AcDb2dVertex
 10
404.547917
 20
10.847917
 30
0.0
  0
SEQEND
  5
21F
100
AcDbEntity
  8
レイヤー_1
 62
     7
  0
MTEXT
  5
21A
100
AcDbEntity
  8
レイヤー_1
 62
     7
100
AcDbMText
 10
49.477083
 20
283.123066
 30
0.0
 40
2.362351
 41
0.0
 71
     1
 72
     2
  1
\fMSGothic|b0|i0|c128;\H2.3624;\C7;\U+56F3
  7
STD
210
0.0
220
0.0
230
1.0
 11
-1.0
 21
0.0
 31
0.0
 73
     1
 44
1.0
  0
MTEXT
  5
219
100
AcDbEntity
  8
レイヤー_1
 62
     7
100
AcDbMText
 10
46.302083
 20
283.123066
 30
0.0
 40
2.362351
 41
0.0
 71
     1
 72
     2
  1
\fMSGothic|b0|i0|c128;\H2.3624;\C7;
  7
STD
210
0.0
220
0.0
230
1.0
 11
-1.0
 21
0.0
 31
0.0
 73
     1
 44
1.0
  0
MTEXT
  5
218
100
AcDbEntity
  8
レイヤー_1
 62
     7
100
AcDbMText
 10
43.127083
 20
283.123066
 30
0.0
 40
2.362351
 41
0.0
 71
     1
 72
     2
  1
\fMSGothic|b0|i0|c128;\H2.3624;\C7;\U+756A
  7
STD
210
0.0
220
0.0
230
1.0
 11
-1.0
 21
0.0
 31
0.0
 73
     1
 44
1.0
  0
LINE
  5
217
100
AcDbEntity
  8
レイヤー_1
 62
     7
100
AcDbLine
 10
52.652083
 20
280.722917
 30
0.0
 11
52.652083
 21
287.602083
 31
0.0
  0
MTEXT
  5
216
100
AcDbEntity
  8
レイヤー_1
 62
     7
100
AcDbMText
 10
25.929167
 20
14.004018
 30
0.0
 40
2.362351
 41
0.0
 71
     1
 72
     2
  1
\fMSGothic|b0|i0|c128;\H2.3624;\C7;\U+7B26
  7
STD
210
0.0
220
0.0
230
1.0
 11
1.0
 21
0.0
 31
0.0
 73
     1
 44
1.0
  0
MTEXT
  5
215
100
AcDbEntity
  8
レイヤー_1
 62
     7
100
AcDbMText
 10
29.104167
 20
14.004018
 30
0.0
 40
2.362351
 41
0.0
 71
     1
 72
     2
  1
\fMSGothic|b0|i0|c128;\H2.3624;\C7;\U+0020
  7
STD
210
0.0
220
0.0
230
1.0
 11
1.0
 21
0.0
 31
0.0
 73
     1
 44
1.0
  0
MTEXT
  5
214
100
AcDbEntity
  8
レイヤー_1
 62
     7
100
AcDbMText
 10
30.691667
 20
14.004018
 30
0.0
 40
2.362351
 41
0.0
 71
     1
 72
     2
  1
\fMSGothic|b0|i0|c128;\H2.3624;\C7;\U+53F7
  7
STD
210
0.0
220
0.0
230
1.0
 11
1.0
 21
0.0
 31
0.0
 73
     1
 44
1.0
  0
MTEXT
  5
213
100
AcDbEntity
  8
レイヤー_1
 62
     7
100
AcDbMText
 10
17.727083
 20
33.583184
 30
0.0
 40
2.362351
 41
0.0
 71
     1
 72
     2
  1
\fMSGothic|b0|i0|c128;\H2.3624;\C7;\U+5099
  7
STD
210
0.0
220
0.0
230
1.0
 11
1.0
 21
0.0
 31
0.0
 73
     1
 44
1.0
  0
MTEXT
  5
212
100
AcDbEntity
  8
レイヤー_1
 62
     7
100
AcDbMText
 10
20.902083
 20
33.583184
 30
0.0
 40
2.362351
 41
0.0
 71
     1
 72
     2
  1
\fMSGothic|b0|i0|c128;\H2.3624;\C7;
  7
STD
210
0.0
220
0.0
230
1.0
 11
1.0
 21
0.0
 31
0.0
 73
     1
 44
1.0
  0
MTEXT
  5
211
100
AcDbEntity
  8
レイヤー_1
 62
     7
100
AcDbMText
 10
17.991667
 20
29.349851
 30
0.0
 40
2.362351
 41
0.0
 71
     1
 72
     2
  1
\fMSGothic|b0|i0|c128;\H2.3624;\C7;
  7
STD
210
0.0
220
0.0
230
1.0
 11
1.0
 21
0.0
 31
0.0
 73
     1
 44
1.0
  0
MTEXT
  5
210
100
AcDbEntity
  8
レイヤー_1
 62
     7
100
AcDbMText
 10
17.727083
 20
25.116518
 30
0.0
 40
2.362351
 41
0.0
 71
     1
 72
     2
  1
\fMSGothic|b0|i0|c128;\H2.3624;\C7;
  7
STD
210
0.0
220
0.0
230
1.0
 11
1.0
 21
0.0
 31
0.0
 73
     1
 44
1.0
  0
MTEXT
  5
20F
100
AcDbEntity
  8
レイヤー_1
 62
     7
100
AcDbMText
 10
20.902083
 20
25.116518
 30
0.0
 40
2.362351
 41
0.0
 71
     1
 72
     2
  1
\fMSGothic|b0|i0|c128;\H2.3624;\C7;
  7
STD
210
0.0
220
0.0
230
1.0
 11
1.0
 21
0.0
 31
0.0
 73
     1
 44
1.0
  0
MTEXT
  5
20E
100
AcDbEntity
  8
レイヤー_1
 62
     7
100
AcDbMText
 10
17.991667
 20
20.883184
 30
0.0
 40
2.362351
 41
0.0
 71
     1
 72
     2
  1
\fMSGothic|b0|i0|c128;\H2.3624;\C7;
  7
STD
210
0.0
220
0.0
230
1.0
 11
1.0
 21
0.0
 31
0.0
 73
     1
 44
1.0
  0
MTEXT
  5
20D
100
AcDbEntity
  8
レイヤー_1
 62
     7
100
AcDbMText
 10
17.991667
 20
16.649851
 30
0.0
 40
2.362351
 41
0.0
 71
     1
 72
     2
  1
\fMSGothic|b0|i0|c128;\H2.3624;\C7;\U+6B04
  7
STD
210
0.0
220
0.0
230
1.0
 11
1.0
 21
0.0
 31
0.0
 73
     1
 44
1.0
  0
MTEXT
  5
20C
100
AcDbEntity
  8
レイヤー_1
 62
     7
100
AcDbMText
 10
27.78125
 20
26.439434
 30
0.0
 40
2.362351
 41
0.0
 71
     1
 72
     2
  1
\fMSGothic|b0|i0|c128;\H2.3624;\C7;\U+2461
  7
STD
210
0.0
220
0.0
230
1.0
 11
1.0
 21
0.0
 31
0.0
 73
     1
 44
1.0
  0
MTEXT
  5
20B
100
AcDbEntity
  8
レイヤー_1
 62
     7
100
AcDbMText
 10
27.78125
 20
19.560268
 30
0.0
 40
2.362351
 41
0.0
 71
     1
 72
     2
  1
\fMSGothic|b0|i0|c128;\H2.3624;\C7;\U+2460
  7
STD
210
0.0
220
0.0
230
1.0
 11
1.0
 21
0.0
 31
0.0
 73
     1
 44
1.0
  0
LINE
  5
20A
100
AcDbEntity
  8
レイヤー_1
 62
     7
100
AcDbLine
 10
24.60625
 20
35.71875
 30
0.0
 11
24.60625
 21
10.847917
 31
0.0
  0
LINE
  5
209
100
AcDbEntity
  8
レイヤー_1
 62
     7
100
AcDbLine
 10
14.816667
 20
10.847917
 30
0.0
 11
14.816667
 21
287.602083
 31
0.0
  0
LINE
  5
208
100
AcDbEntity
  8
レイヤー_1
 62
     7
100
AcDbLine
 10
14.816667
 20
280.722917
 30
0.0
 11
52.652083
 21
280.722917
 31
0.0
  0
LINE
  5
207
100
AcDbEntity
  8
レイヤー_1
 62
     7
100
AcDbLine
 10
37.570833
 20
287.602083
 30
0.0
 11
37.570833
 21
280.722917
 31
0.0
  0
LINE
  5
206
100
AcDbEntity
  8
レイヤー_1
 62
     7
100
AcDbLine
 10
52.652083
 20
280.722917
 30
0.0
 11
52.652083
 21
287.602083
 31
0.0
  0
LINE
  5
205
100
AcDbEntity
  8
レイヤー_1
 62
     7
100
AcDbLine
 10
37.570833
 20
287.602083
 30
0.0
 11
37.570833
 21
280.722917
 31
0.0
  0
MTEXT
  5
204
100
AcDbEntity
  8
レイヤー_1
 62
     7
100
AcDbMText
 10
27.78125
 20
33.318601
 30
0.0
 40
2.362351
 41
0.0
 71
     1
 72
     2
  1
\fMSGothic|b0|i0|c128;\H2.3624;\C7;\U+2462
  7
STD
210
0.0
220
0.0
230
1.0
 11
1.0
 21
0.0
 31
0.0
 73
     1
 44
1.0
  0
LINE
  5
203
100
AcDbEntity
  8
レイヤー_1
 62
     7
100
AcDbLine
 10
24.60625
 20
35.71875
 30
0.0
 11
24.60625
 21
10.847917
 31
0.0
  0
LINE
  5
202
100
AcDbEntity
  8
レイヤー_1
 62
     7
100
AcDbLine
 10
14.816667
 20
10.847917
 30
0.0
 11
14.816667
 21
35.71875
 31
0.0
  0
LINE
  5
201
100
AcDbEntity
  8
レイヤー_1
 62
     7
100
AcDbLine
 10
34.660417
 20
35.71875
 30
0.0
 11
34.660417
 21
10.847917
 31
0.0
  0
LINE
  5
200
100
AcDbEntity
  8
レイヤー_1
 62
     7
100
AcDbLine
 10
34.660417
 20
35.71875
 30
0.0
 11
34.660417
 21
10.847917
 31
0.0
  0
POLYLINE
  5
1FB
100
AcDbEntity
  8
レイヤー_1
 62
     7
100
AcDb2dPolyline
 66
     1
 10
0.0
 20
0.0
 30
0.0
  0
VERTEX
  5
1FC
100
AcDbEntity
  8
レイヤー_1
 62
     7
100
AcDbVertex
100
AcDb2dVertex
 10
14.816667
 20
10.847917
 30
0.0
  0
VERTEX
  5
1FD
100
AcDbEntity
  8
レイヤー_1
 62
     7
100
AcDbVertex
100
AcDb2dVertex
 10
14.816667
 20
35.71875
 30
0.0
  0
VERTEX
  5
1FE
100
AcDbEntity
  8
レイヤー_1
 62
     7
100
AcDbVertex
100
AcDb2dVertex
 10
404.547917
 20
35.71875
 30
0.0
  0
SEQEND
  5
1FF
100
AcDbEntity
  8
レイヤー_1
 62
     7
  0
INSERT
  5
1F5
100
AcDbEntity
  8
レイヤー_1
 62
     7
100
AcDbBlockReference
  2
AI9-BLK1
 10
103.1875
 20
12.5243
 30
0.0
  0
MTEXT
  5
1F3
100
AcDbEntity
  8
レイヤー_1
 62
     7
100
AcDbMText
 10
40.745833
 20
14.004018
 30
0.0
 40
2.362351
 41
0.0
 71
     1
 72
     2
  1
\fMSGothic|b0|i0|c128;\H2.3624;\C7;\U+65E5
  7
STD
210
0.0
220
0.0
230
1.0
 11
1.0
 21
0.0
 31
0.0
 73
     1
 44
1.0
  0
MTEXT
  5
1F2
100
AcDbEntity
  8
レイヤー_1
 62
     7
100
AcDbMText
 10
43.920833
 20
14.004018
 30
0.0
 40
2.362351
 41
0.0
 71
     1
 72
     2
  1
\fMSGothic|b0|i0|c128;\H2.3624;\C7;
  7
STD
210
0.0
220
0.0
230
1.0
 11
1.0
 21
0.0
 31
0.0
 73
     1
 44
1.0
  0
MTEXT
  5
1F1
100
AcDbEntity
  8
レイヤー_1
 62
     7
100
AcDbMText
 10
47.095833
 20
14.004018
 30
0.0
 40
2.362351
 41
0.0
 71
     1
 72
     2
  1
\fMSGothic|b0|i0|c128;\H2.3624;\C7;\U+4ED8
  7
STD
210
0.0
220
0.0
230
1.0
 11
1.0
 21
0.0
 31
0.0
 73
     1
 44
1.0
  0
LINE
  5
1F0
100
AcDbEntity
  8
レイヤー_1
 62
     7
100
AcDbLine
 10
404.547917
 20
10.847917
 30
0.0
 11
14.816667
 21
10.847917
 31
0.0
  0
LINE
  5
1EF
100
AcDbEntity
  8
レイヤー_1
 62
     7
100
AcDbLine
 10
24.60625
 20
14.816667
 30
0.0
 11
148.695833
 21
14.816667
 31
0.0
  0
LINE
  5
1EE
100
AcDbEntity
  8
レイヤー_1
 62
     7
100
AcDbLine
 10
24.60625
 20
21.695833
 30
0.0
 11
148.695833
 21
21.695833
 31
0.0
  0
LINE
  5
1ED
100
AcDbEntity
  8
レイヤー_1
 62
     7
100
AcDbLine
 10
24.60625
 20
28.839583
 30
0.0
 11
148.695833
 21
28.839583
 31
0.0
  0
MTEXT
  5
1EC
100
AcDbEntity
  8
レイヤー_1
 62
     7
100
AcDbMText
 10
150.01875
 20
25.645684
 30
0.0
 40
2.362351
 41
0.0
 71
     1
 72
     2
  1
\fMSGothic|b0|i0|c128;\H2.3624;\C7;\U+88FD
  7
STD
210
0.0
220
0.0
230
1.0
 11
1.0
 21
0.0
 31
0.0
 73
     1
 44
1.0
  0
MTEXT
  5
1EB
100
AcDbEntity
  8
レイヤー_1
 62
     7
100
AcDbMText
 10
153.19375
 20
25.645684
 30
0.0
 40
2.362351
 41
0.0
 71
     1
 72
     2
  1
\fMSGothic|b0|i0|c128;\H2.3624;\C7;\U+0020
  7
STD
210
0.0
220
0.0
230
1.0
 11
1.0
 21
0.0
 31
0.0
 73
     1
 44
1.0
  0
MTEXT
  5
1EA
100
AcDbEntity
  8
レイヤー_1
 62
     7
100
AcDbMText
 10
154.78125
 20
25.645684
 30
0.0
 40
2.362351
 41
0.0
 71
     1
 72
     2
  1
\fMSGothic|b0|i0|c128;\H2.3624;\C7;\U+56F3
  7
STD
210
0.0
220
0.0
230
1.0
 11
1.0
 21
0.0
 31
0.0
 73
     1
 44
1.0
  0
LINE
  5
1E9
100
AcDbEntity
  8
レイヤー_1
 62
     7
100
AcDbLine
 10
58.7375
 20
35.71875
 30
0.0
 11
58.7375
 21
10.847917
 31
0.0
  0
LINE
  5
1E8
100
AcDbEntity
  8
レイヤー_1
 62
     7
100
AcDbLine
 10
24.60625
 20
14.816667
 30
0.0
 11
148.695833
 21
14.816667
 31
0.0
  0
MTEXT
  5
1E7
100
AcDbEntity
  8
レイヤー_1
 62
     7
100
AcDbMText
 10
150.01875
 20
33.054018
 30
0.0
 40
2.362351
 41
0.0
 71
     1
 72
     2
  1
\fMSGothic|b0|i0|c128;\H2.3624;\C7;\U+65E5
  7
STD
210
0.0
220
0.0
230
1.0
 11
1.0
 21
0.0
 31
0.0
 73
     1
 44
1.0
  0
MTEXT
  5
1E6
100
AcDbEntity
  8
レイヤー_1
 62
     7
100
AcDbMText
 10
153.19375
 20
33.054018
 30
0.0
 40
2.362351
 41
0.0
 71
     1
 72
     2
  1
\fMSGothic|b0|i0|c128;\H2.3624;\C7;\U+0020
  7
STD
210
0.0
220
0.0
230
1.0
 11
1.0
 21
0.0
 31
0.0
 73
     1
 44
1.0
  0
MTEXT
  5
1E5
100
AcDbEntity
  8
レイヤー_1
 62
     7
100
AcDbMText
 10
154.78125
 20
33.054018
 30
0.0
 40
2.362351
 41
0.0
 71
     1
 72
     2
  1
\fMSGothic|b0|i0|c128;\H2.3624;\C7;\U+4ED8
  7
STD
210
0.0
220
0.0
230
1.0
 11
1.0
 21
0.0
 31
0.0
 73
     1
 44
1.0
  0
MTEXT
  5
1E4
100
AcDbEntity
  8
レイヤー_1
 62
     7
100
AcDbMText
 10
161.13125
 20
17.708184
 30
0.0
 40
2.362351
 41
0.0
 71
     1
 72
     2
  1
\fMSGothic|b0|i0|c128;\H2.3624;\C7;\U+82B1
  7
STD
210
0.0
220
0.0
230
1.0
 11
1.0
 21
0.0
 31
0.0
 73
     1
 44
1.0
  0
MTEXT
  5
1E3
100
AcDbEntity
  8
レイヤー_1
 62
     7
100
AcDbMText
 10
164.30625
 20
17.708184
 30
0.0
 40
2.362351
 41
0.0
 71
     1
 72
     2
  1
\fMSGothic|b0|i0|c128;\H2.3624;\C7;\U+0020
  7
STD
210
0.0
220
0.0
230
1.0
 11
1.0
 21
0.0
 31
0.0
 73
     1
 44
1.0
  0
MTEXT
  5
1E2
100
AcDbEntity
  8
レイヤー_1
 62
     7
100
AcDbMText
 10
165.89375
 20
17.708184
 30
0.0
 40
2.362351
 41
0.0
 71
     1
 72
     2
  1
\fMSGothic|b0|i0|c128;\H2.3624;\C7;\U+7530
  7
STD
210
0.0
220
0.0
230
1.0
 11
1.0
 21
0.0
 31
0.0
 73
     1
 44
1.0
  0
MTEXT
  5
1E1
100
AcDbEntity
  8
レイヤー_1
 62
     7
100
AcDbMText
 10
161.13125
 20
25.645684
 30
0.0
 40
2.362351
 41
0.0
 71
     1
 72
     2
  1
\fMSGothic|b0|i0|c128;\H2.3624;\C7;\U+691C
  7
STD
210
0.0
220
0.0
230
1.0
 11
1.0
 21
0.0
 31
0.0
 73
     1
 44
1.0
  0
MTEXT
  5
1E0
100
AcDbEntity
  8
レイヤー_1
 62
     7
100
AcDbMText
 10
164.30625
 20
25.645684
 30
0.0
 40
2.362351
 41
0.0
 71
     1
 72
     2
  1
\fMSGothic|b0|i0|c128;\H2.3624;\C7;\U+0020
  7
STD
210
0.0
220
0.0
230
1.0
 11
1.0
 21
0.0
 31
0.0
 73
     1
 44
1.0
  0
MTEXT
  5
1DF
100
AcDbEntity
  8
レイヤー_1
 62
     7
100
AcDbMText
 10
165.89375
 20
25.645684
 30
0.0
 40
2.362351
 41
0.0
 71
     1
 72
     2
  1
\fMSGothic|b0|i0|c128;\H2.3624;\C7;\U+56F3
  7
STD
210
0.0
220
0.0
230
1.0
 11
1.0
 21
0.0
 31
0.0
 73
     1
 44
1.0
  0
MTEXT
  5
1DE
100
AcDbEntity
  8
レイヤー_1
 62
     7
100
AcDbMText
 10
171.979167
 20
25.910268
 30
0.0
 40
2.362351
 41
0.0
 71
     1
 72
     2
  1
\fMSGothic|b0|i0|c128;\H2.3624;\C7;\U+627F
  7
STD
210
0.0
220
0.0
230
1.0
 11
1.0
 21
0.0
 31
0.0
 73
     1
 44
1.0
  0
MTEXT
  5
1DD
100
AcDbEntity
  8
レイヤー_1
 62
     7
100
AcDbMText
 10
175.154167
 20
25.910268
 30
0.0
 40
2.362351
 41
0.0
 71
     1
 72
     2
  1
\fMSGothic|b0|i0|c128;\H2.3624;\C7;\U+0020
  7
STD
210
0.0
220
0.0
230
1.0
 11
1.0
 21
0.0
 31
0.0
 73
     1
 44
1.0
  0
MTEXT
  5
1DC
100
AcDbEntity
  8
レイヤー_1
 62
     7
100
AcDbMText
 10
176.741667
 20
25.910268
 30
0.0
 40
2.362351
 41
0.0
 71
     1
 72
     2
  1
\fMSGothic|b0|i0|c128;\H2.3624;\C7;\U+8A8D
  7
STD
210
0.0
220
0.0
230
1.0
 11
1.0
 21
0.0
 31
0.0
 73
     1
 44
1.0
  0
MTEXT
  5
1DB
100
AcDbEntity
  8
レイヤー_1
 62
     7
100
AcDbMText
 10
172.24375
 20
17.708184
 30
0.0
 40
2.362351
 41
0.0
 71
     1
 72
     2
  1
\fMSGothic|b0|i0|c128;\H2.3624;\C7;\U+53E4
  7
STD
210
0.0
220
0.0
230
1.0
 11
1.0
 21
0.0
 31
0.0
 73
     1
 44
1.0
  0
MTEXT
  5
1DA
100
AcDbEntity
  8
レイヤー_1
 62
     7
100
AcDbMText
 10
175.41875
 20
17.708184
 30
0.0
 40
2.362351
 41
0.0
 71
     1
 72
     2
  1
\fMSGothic|b0|i0|c128;\H2.3624;\C7;\U+0020
  7
STD
210
0.0
220
0.0
230
1.0
 11
1.0
 21
0.0
 31
0.0
 73
     1
 44
1.0
  0
MTEXT
  5
1D9
100
AcDbEntity
  8
レイヤー_1
 62
     7
100
AcDbMText
 10
177.00625
 20
17.708184
 30
0.0
 40
2.362351
 41
0.0
 71
     1
 72
     2
  1
\fMSGothic|b0|i0|c128;\H2.3624;\C7;\U+6FA4
  7
STD
210
0.0
220
0.0
230
1.0
 11
1.0
 21
0.0
 31
0.0
 73
     1
 44
1.0
  0
MTEXT
  5
1D8
100
AcDbEntity
  8
レイヤー_1
 62
     7
100
AcDbMText
 10
182.5625
 20
18.501934
 30
0.0
 40
2.362351
 41
0.0
 71
     1
 72
     2
  1
\fMSGothic|b0|i0|c128;\H2.3624;\C7;\U+5C3A
  7
STD
210
0.0
220
0.0
230
1.0
 11
1.0
 21
0.0
 31
0.0
 73
     1
 44
1.0
  0
MTEXT
  5
1D7
100
AcDbEntity
  8
レイヤー_1
 62
     7
100
AcDbMText
 10
182.5625
 20
14.268601
 30
0.0
 40
2.362351
 41
0.0
 71
     1
 72
     2
  1
\fMSGothic|b0|i0|c128;\H2.3624;\C7;\U+5EA6
  7
STD
210
0.0
220
0.0
230
1.0
 11
1.0
 21
0.0
 31
0.0
 73
     1
 44
1.0
  0
MTEXT
  5
1D6
100
AcDbEntity
  8
レイヤー_1
 62
     7
100
AcDbMText
 10
182.5625
 20
26.704018
 30
0.0
 40
2.362351
 41
0.0
 71
     1
 72
     2
  1
\fMSGothic|b0|i0|c128;\H2.3624;\C7;\U+56F3
  7
STD
210
0.0
220
0.0
230
1.0
 11
1.0
 21
0.0
 31
0.0
 73
     1
 44
1.0
  0
MTEXT
  5
1D5
100
AcDbEntity
  8
レイヤー_1
 62
     7
100
AcDbMText
 10
185.7375
 20
26.704018
 30
0.0
 40
2.362351
 41
0.0
 71
     1
 72
     2
  1
\fMSGothic|b0|i0|c128;\H2.3624;\C7;
  7
STD
210
0.0
220
0.0
230
1.0
 11
1.0
 21
0.0
 31
0.0
 73
     1
 44
1.0
  0
MTEXT
  5
1D4
100
AcDbEntity
  8
レイヤー_1
 62
     7
100
AcDbMText
 10
182.5625
 20
22.470684
 30
0.0
 40
2.362351
 41
0.0
 71
     1
 72
     2
  1
\fMSGothic|b0|i0|c128;\H2.3624;\C7;\U+756A
  7
STD
210
0.0
220
0.0
230
1.0
 11
1.0
 21
0.0
 31
0.0
 73
     1
 44
1.0
  0
MTEXT
  5
1D3
100
AcDbEntity
  8
レイヤー_1
 62
     7
100
AcDbMText
 10
150.01875
 20
17.708184
 30
0.0
 40
2.362351
 41
0.0
 71
     1
 72
     2
  1
\fMSGothic|b0|i0|c128;\H2.3624;\C7;\U+82B1
  7
STD
210
0.0
220
0.0
230
1.0
 11
1.0
 21
0.0
 31
0.0
 73
     1
 44
1.0
  0
MTEXT
  5
1D2
100
AcDbEntity
  8
レイヤー_1
 62
     7
100
AcDbMText
 10
153.19375
 20
17.708184
 30
0.0
 40
2.362351
 41
0.0
 71
     1
 72
     2
  1
\fMSGothic|b0|i0|c128;\H2.3624;\C7;\U+0020
  7
STD
210
0.0
220
0.0
230
1.0
 11
1.0
 21
0.0
 31
0.0
 73
     1
 44
1.0
  0
MTEXT
  5
1D1
100
AcDbEntity
  8
レイヤー_1
 62
     7
100
AcDbMText
 10
154.78125
 20
17.708184
 30
0.0
 40
2.362351
 41
0.0
 71
     1
 72
     2
  1
\fMSGothic|b0|i0|c128;\H2.3624;\C7;\U+7530
  7
STD
210
0.0
220
0.0
230
1.0
 11
1.0
 21
0.0
 31
0.0
 73
     1
 44
1.0
  0
LINE
  5
1D0
100
AcDbEntity
  8
レイヤー_1
 62
     7
100
AcDbLine
 10
159.808333
 20
35.71875
 30
0.0
 11
159.808333
 21
10.847917
 31
0.0
  0
LINE
  5
1CF
100
AcDbEntity
  8
レイヤー_1
 62
     7
100
AcDbLine
 10
148.695833
 20
21.695833
 30
0.0
 11
181.76875
 21
21.695833
 31
0.0
  0
LINE
  5
1CE
100
AcDbEntity
  8
レイヤー_1
 62
     7
100
AcDbLine
 10
148.695833
 20
35.71875
 30
0.0
 11
148.695833
 21
10.847917
 31
0.0
  0
MTEXT
  5
1CD
100
AcDbEntity
  8
レイヤー_1
 62
     7
100
AcDbMText
 10
217.4875
 20
20.618601
 30
0.0
 40
2.362351
 41
0.0
 71
     1
 72
     2
  1
\fMSGothic|b0|i0|c128;\H2.3624;\C7;
  7
STD
210
0.0
220
0.0
230
1.0
 11
1.0
 21
0.0
 31
0.0
 73
     1
 44
1.0
  0
MTEXT
  5
1CC
100
AcDbEntity
  8
レイヤー_1
 62
     7
100
AcDbMText
 10
217.4875
 20
24.851934
 30
0.0
 40
2.362351
 41
0.0
 71
     1
 72
     2
  1
\fMSGothic|b0|i0|c128;\H2.3624;\C7;\U+54C1
  7
STD
210
0.0
220
0.0
230
1.0
 11
1.0
 21
0.0
 31
0.0
 73
     1
 44
1.0
  0
MTEXT
  5
1CB
100
AcDbEntity
  8
レイヤー_1
 62
     7
100
AcDbMText
 10
220.6625
 20
24.851934
 30
0.0
 40
2.362351
 41
0.0
 71
     1
 72
     2
  1
\fMSGothic|b0|i0|c128;\H2.3624;\C7;
  7
STD
210
0.0
220
0.0
230
1.0
 11
1.0
 21
0.0
 31
0.0
 73
     1
 44
1.0
  0
MTEXT
  5
1CA
100
AcDbEntity
  8
レイヤー_1
 62
     7
100
AcDbMText
 10
217.4875
 20
16.385268
 30
0.0
 40
2.362351
 41
0.0
 71
     1
 72
     2
  1
\fMSGothic|b0|i0|c128;\H2.3624;\C7;
  7
STD
210
0.0
220
0.0
230
1.0
 11
1.0
 21
0.0
 31
0.0
 73
     1
 44
1.0
  0
MTEXT
  5
1C9
100
AcDbEntity
  8
レイヤー_1
 62
     7
100
AcDbMText
 10
217.4875
 20
34.906101
 30
0.0
 40
2.362351
 41
0.0
 71
     1
 72
     2
  1
\fMSGothic|b0|i0|c128;\H2.3624;\C7;\U+54C1
  7
STD
210
0.0
220
0.0
230
1.0
 11
1.0
 21
0.0
 31
0.0
 73
     1
 44
1.0
  0
MTEXT
  5
1C8
100
AcDbEntity
  8
レイヤー_1
 62
     7
100
AcDbMText
 10
217.4875
 20
30.672768
 30
0.0
 40
2.362351
 41
0.0
 71
     1
 72
     2
  1
\fMSGothic|b0|i0|c128;\H2.3624;\C7;\U+756A
  7
STD
210
0.0
220
0.0
230
1.0
 11
1.0
 21
0.0
 31
0.0
 73
     1
 44
1.0
  0
LINE
  5
1C7
100
AcDbEntity
  8
レイヤー_1
 62
     7
100
AcDbLine
 10
221.720833
 20
35.71875
 30
0.0
 11
221.720833
 21
10.847917
 31
0.0
  0
LINE
  5
1C6
100
AcDbEntity
  8
レイヤー_1
 62
     7
100
AcDbLine
 10
216.69375
 20
35.71875
 30
0.0
 11
216.69375
 21
10.847917
 31
0.0
  0
LINE
  5
1C5
100
AcDbEntity
  8
レイヤー_1
 62
     7
100
AcDbLine
 10
148.695833
 20
27.78125
 30
0.0
 11
281.78125
 21
27.78125
 31
0.0
  0
LINE
  5
1C4
100
AcDbEntity
  8
レイヤー_1
 62
     7
100
AcDbLine
 10
181.76875
 20
19.314583
 30
0.0
 11
216.69375
 21
19.314583
 31
0.0
  0
LINE
  5
1C3
100
AcDbEntity
  8
レイヤー_1
 62
     7
100
AcDbLine
 10
186.795833
 20
27.78125
 30
0.0
 11
186.795833
 21
10.847917
 31
0.0
  0
LINE
  5
1C2
100
AcDbEntity
  8
レイヤー_1
 62
     7
100
AcDbLine
 10
181.76875
 20
27.78125
 30
0.0
 11
181.76875
 21
10.847917
 31
0.0
  0
LINE
  5
1C1
100
AcDbEntity
  8
レイヤー_1
 62
     7
100
AcDbLine
 10
170.65625
 20
27.78125
 30
0.0
 11
170.65625
 21
10.847917
 31
0.0
  0
LINE
  5
1C0
100
AcDbEntity
  8
レイヤー_1
 62
     7
100
AcDbLine
 10
159.808333
 20
35.71875
 30
0.0
 11
159.808333
 21
10.847917
 31
0.0
  0
LINE
  5
1BF
100
AcDbEntity
  8
レイヤー_1
 62
     7
100
AcDbLine
 10
148.695833
 20
21.695833
 30
0.0
 11
181.76875
 21
21.695833
 31
0.0
  0
LINE
  5
1BE
100
AcDbEntity
  8
レイヤー_1
 62
     7
100
AcDbLine
 10
148.695833
 20
35.71875
 30
0.0
 11
148.695833
 21
10.847917
 31
0.0
  0
LINE
  5
1BD
100
AcDbEntity
  8
レイヤー_1
 62
     7
100
AcDbLine
 10
186.795833
 20
27.78125
 30
0.0
 11
186.795833
 21
10.847917
 31
0.0
  0
LINE
  5
1BC
100
AcDbEntity
  8
レイヤー_1
 62
     7
100
AcDbLine
 10
181.76875
 20
27.78125
 30
0.0
 11
181.76875
 21
10.847917
 31
0.0
  0
LINE
  5
1BB
100
AcDbEntity
  8
レイヤー_1
 62
     7
100
AcDbLine
 10
170.65625
 20
27.78125
 30
0.0
 11
170.65625
 21
10.847917
 31
0.0
  0
MTEXT
  5
1BA
100
AcDbEntity
  8
レイヤー_1
 62
     7
100
AcDbMText
 10
217.4875
 20
20.618601
 30
0.0
 40
2.362351
 41
0.0
 71
     1
 72
     2
  1
\fMSGothic|b0|i0|c128;\H2.3624;\C7;
  7
STD
210
0.0
220
0.0
230
1.0
 11
1.0
 21
0.0
 31
0.0
 73
     1
 44
1.0
  0
LINE
  5
1B9
100
AcDbEntity
  8
レイヤー_1
 62
     7
100
AcDbLine
 10
221.720833
 20
35.71875
 30
0.0
 11
221.720833
 21
10.847917
 31
0.0
  0
LINE
  5
1B8
100
AcDbEntity
  8
レイヤー_1
 62
     7
100
AcDbLine
 10
216.69375
 20
35.71875
 30
0.0
 11
216.69375
 21
10.847917
 31
0.0
  0
MTEXT
  5
1B7
100
AcDbEntity
  8
レイヤー_1
 62
     7
100
AcDbMText
 10
38.629167
 20
19.295684
 30
0.0
 40
2.362351
 41
0.0
 71
     1
 72
     2
  1
\fMSGothic|b0|i0|c128;\H2.3624;\C7;\U+0032
  7
STD
210
0.0
220
0.0
230
1.0
 11
1.0
 21
0.0
 31
0.0
 73
     1
 44
1.0
  0
MTEXT
  5
1B6
100
AcDbEntity
  8
レイヤー_1
 62
     7
100
AcDbMText
 10
40.216667
 20
19.295684
 30
0.0
 40
2.362351
 41
0.0
 71
     1
 72
     2
  1
\fMSGothic|b0|i0|c128;\H2.3624;\C7;\U+0030
  7
STD
210
0.0
220
0.0
230
1.0
 11
1.0
 21
0.0
 31
0.0
 73
     1
 44
1.0
  0
MTEXT
  5
1B5
100
AcDbEntity
  8
レイヤー_1
 62
     7
100
AcDbMText
 10
41.804167
 20
19.295684
 30
0.0
 40
2.362351
 41
0.0
 71
     1
 72
     2
  1
\fMSGothic|b0|i0|c128;\H2.3624;\C7;\U+0031
  7
STD
210
0.0
220
0.0
230
1.0
 11
1.0
 21
0.0
 31
0.0
 73
     1
 44
1.0
  0
MTEXT
  5
1B4
100
AcDbEntity
  8
レイヤー_1
 62
     7
100
AcDbMText
 10
43.391667
 20
19.295684
 30
0.0
 40
2.362351
 41
0.0
 71
     1
 72
     2
  1
\fMSGothic|b0|i0|c128;\H2.3624;\C7;\U+0030
  7
STD
210
0.0
220
0.0
230
1.0
 11
1.0
 21
0.0
 31
0.0
 73
     1
 44
1.0
  0
MTEXT
  5
1B3
100
AcDbEntity
  8
レイヤー_1
 62
     7
100
AcDbMText
 10
44.979167
 20
19.295684
 30
0.0
 40
2.362351
 41
0.0
 71
     1
 72
     2
  1
\fMSGothic|b0|i0|c128;\H2.3624;\C7;\U+002E
  7
STD
210
0.0
220
0.0
230
1.0
 11
1.0
 21
0.0
 31
0.0
 73
     1
 44
1.0
  0
MTEXT
  5
1B2
100
AcDbEntity
  8
レイヤー_1
 62
     7
100
AcDbMText
 10
46.566667
 20
19.295684
 30
0.0
 40
2.362351
 41
0.0
 71
     1
 72
     2
  1
\fMSGothic|b0|i0|c128;\H2.3624;\C7;\U+0031
  7
STD
210
0.0
220
0.0
230
1.0
 11
1.0
 21
0.0
 31
0.0
 73
     1
 44
1.0
  0
MTEXT
  5
1B1
100
AcDbEntity
  8
レイヤー_1
 62
     7
100
AcDbMText
 10
48.154167
 20
19.295684
 30
0.0
 40
2.362351
 41
0.0
 71
     1
 72
     2
  1
\fMSGothic|b0|i0|c128;\H2.3624;\C7;\U+0032
  7
STD
210
0.0
220
0.0
230
1.0
 11
1.0
 21
0.0
 31
0.0
 73
     1
 44
1.0
  0
MTEXT
  5
1B0
100
AcDbEntity
  8
レイヤー_1
 62
     7
100
AcDbMText
 10
49.741667
 20
19.295684
 30
0.0
 40
2.362351
 41
0.0
 71
     1
 72
     2
  1
\fMSGothic|b0|i0|c128;\H2.3624;\C7;\U+002E
  7
STD
210
0.0
220
0.0
230
1.0
 11
1.0
 21
0.0
 31
0.0
 73
     1
 44
1.0
  0
MTEXT
  5
1AF
100
AcDbEntity
  8
レイヤー_1
 62
     7
100
AcDbMText
 10
51.329167
 20
19.295684
 30
0.0
 40
2.362351
 41
0.0
 71
     1
 72
     2
  1
\fMSGothic|b0|i0|c128;\H2.3624;\C7;\U+0031
  7
STD
210
0.0
220
0.0
230
1.0
 11
1.0
 21
0.0
 31
0.0
 73
     1
 44
1.0
  0
MTEXT
  5
1AE
100
AcDbEntity
  8
レイヤー_1
 62
     7
100
AcDbMText
 10
52.916667
 20
19.295684
 30
0.0
 40
2.362351
 41
0.0
 71
     1
 72
     2
  1
\fMSGothic|b0|i0|c128;\H2.3624;\C7;\U+0036
  7
STD
210
0.0
220
0.0
230
1.0
 11
1.0
 21
0.0
 31
0.0
 73
     1
 44
1.0
  0
MTEXT
  5
1AD
100
AcDbEntity
  8
レイヤー_1
 62
     7
100
AcDbMText
 10
62.177083
 20
19.295684
 30
0.0
 40
2.362351
 41
0.0
 71
     1
 72
     2
  1
\fMSGothic|b0|i0|c128;\H2.3624;\C7;\U+6750
  7
STD
210
0.0
220
0.0
230
1.0
 11
1.0
 21
0.0
 31
0.0
 73
     1
 44
1.0
  0
MTEXT
  5
1AC
100
AcDbEntity
  8
レイヤー_1
 62
     7
100
AcDbMText
 10
65.352083
 20
19.295684
 30
0.0
 40
2.362351
 41
0.0
 71
     1
 72
     2
  1
\fMSGothic|b0|i0|c128;\H2.3624;\C7;\U+8CEA
  7
STD
210
0.0
220
0.0
230
1.0
 11
1.0
 21
0.0
 31
0.0
 73
     1
 44
1.0
  0
MTEXT
  5
1AB
100
AcDbEntity
  8
レイヤー_1
 62
     7
100
AcDbMText
 10
68.527083
 20
19.295684
 30
0.0
 40
2.362351
 41
0.0
 71
     1
 72
     2
  1
\fMSGothic|b0|i0|c128;\H2.3624;\C7;\U+FF0F
  7
STD
210
0.0
220
0.0
230
1.0
 11
1.0
 21
0.0
 31
0.0
 73
     1
 44
1.0
  0
MTEXT
  5
1AA
100
AcDbEntity
  8
レイヤー_1
 62
     7
100
AcDbMText
 10
71.702083
 20
19.295684
 30
0.0
 40
2.362351
 41
0.0
 71
     1
 72
     2
  1
\fMSGothic|b0|i0|c128;\H2.3624;\C7;\U+30A8
  7
STD
210
0.0
220
0.0
230
1.0
 11
1.0
 21
0.0
 31
0.0
 73
     1
 44
1.0
  0
MTEXT
  5
1A9
100
AcDbEntity
  8
レイヤー_1
 62
     7
100
AcDbMText
 10
74.877083
 20
19.295684
 30
0.0
 40
2.362351
 41
0.0
 71
     1
 72
     2
  1
\fMSGothic|b0|i0|c128;\H2.3624;\C7;\U+30C1
  7
STD
210
0.0
220
0.0
230
1.0
 11
1.0
 21
0.0
 31
0.0
 73
     1
 44
1.0
  0
MTEXT
  5
1A8
100
AcDbEntity
  8
レイヤー_1
 62
     7
100
AcDbMText
 10
78.052083
 20
19.295684
 30
0.0
 40
2.362351
 41
0.0
 71
     1
 72
     2
  1
\fMSGothic|b0|i0|c128;\H2.3624;\C7;\U+30EC
  7
STD
210
0.0
220
0.0
230
1.0
 11
1.0
 21
0.0
 31
0.0
 73
     1
 44
1.0
  0
MTEXT
  5
1A7
100
AcDbEntity
  8
レイヤー_1
 62
     7
100
AcDbMText
 10
81.227083
 20
19.295684
 30
0.0
 40
2.362351
 41
0.0
 71
     1
 72
     2
  1
\fMSGothic|b0|i0|c128;\H2.3624;\C7;\U+30F3
  7
STD
210
0.0
220
0.0
230
1.0
 11
1.0
 21
0.0
 31
0.0
 73
     1
 44
1.0
  0
MTEXT
  5
1A6
100
AcDbEntity
  8
レイヤー_1
 62
     7
100
AcDbMText
 10
84.402083
 20
19.295684
 30
0.0
 40
2.362351
 41
0.0
 71
     1
 72
     2
  1
\fMSGothic|b0|i0|c128;\H2.3624;\C7;\U+30D7
  7
STD
210
0.0
220
0.0
230
1.0
 11
1.0
 21
0.0
 31
0.0
 73
     1
 44
1.0
  0
MTEXT
  5
1A5
100
AcDbEntity
  8
レイヤー_1
 62
     7
100
AcDbMText
 10
87.577083
 20
19.295684
 30
0.0
 40
2.362351
 41
0.0
 71
     1
 72
     2
  1
\fMSGothic|b0|i0|c128;\H2.3624;\C7;\U+30ED
  7
STD
210
0.0
220
0.0
230
1.0
 11
1.0
 21
0.0
 31
0.0
 73
     1
 44
1.0
  0
MTEXT
  5
1A4
100
AcDbEntity
  8
レイヤー_1
 62
     7
100
AcDbMText
 10
90.752083
 20
19.295684
 30
0.0
 40
2.362351
 41
0.0
 71
     1
 72
     2
  1
\fMSGothic|b0|i0|c128;\H2.3624;\C7;\U+30D4
  7
STD
210
0.0
220
0.0
230
1.0
 11
1.0
 21
0.0
 31
0.0
 73
     1
 44
1.0
  0
MTEXT
  5
1A3
100
AcDbEntity
  8
レイヤー_1
 62
     7
100
AcDbMText
 10
93.927083
 20
19.295684
 30
0.0
 40
2.362351
 41
0.0
 71
     1
 72
     2
  1
\fMSGothic|b0|i0|c128;\H2.3624;\C7;\U+30EC
  7
STD
210
0.0
220
0.0
230
1.0
 11
1.0
 21
0.0
 31
0.0
 73
     1
 44
1.0
  0
MTEXT
  5
1A2
100
AcDbEntity
  8
レイヤー_1
 62
     7
100
AcDbMText
 10
97.102083
 20
19.295684
 30
0.0
 40
2.362351
 41
0.0
 71
     1
 72
     2
  1
\fMSGothic|b0|i0|c128;\H2.3624;\C7;\U+30F3
  7
STD
210
0.0
220
0.0
230
1.0
 11
1.0
 21
0.0
 31
0.0
 73
     1
 44
1.0
  0
MTEXT
  5
1A1
100
AcDbEntity
  8
レイヤー_1
 62
     7
100
AcDbMText
 10
100.277083
 20
19.295684
 30
0.0
 40
2.362351
 41
0.0
 71
     1
 72
     2
  1
\fMSGothic|b0|i0|c128;\H2.3624;\C7;\U+3001
  7
STD
210
0.0
220
0.0
230
1.0
 11
1.0
 21
0.0
 31
0.0
 73
     1
 44
1.0
  0
MTEXT
  5
1A0
100
AcDbEntity
  8
レイヤー_1
 62
     7
100
AcDbMText
 10
103.452083
 20
19.295684
 30
0.0
 40
2.362351
 41
0.0
 71
     1
 72
     2
  1
\fMSGothic|b0|i0|c128;\H2.3624;\C7;
  7
STD
210
0.0
220
0.0
230
1.0
 11
1.0
 21
0.0
 31
0.0
 73
     1
 44
1.0
  0
MTEXT
  5
19F
100
AcDbEntity
  8
レイヤー_1
 62
     7
100
AcDbMText
 10
106.627083
 20
19.295684
 30
0.0
 40
2.362351
 41
0.0
 71
     1
 72
     2
  1
\fMSGothic|b0|i0|c128;\H2.3624;\C7;\U+4E7E
  7
STD
210
0.0
220
0.0
230
1.0
 11
1.0
 21
0.0
 31
0.0
 73
     1
 44
1.0
  0
MTEXT
  5
19E
100
AcDbEntity
  8
レイヤー_1
 62
     7
100
AcDbMText
 10
109.802083
 20
19.295684
 30
0.0
 40
2.362351
 41
0.0
 71
     1
 72
     2
  1
\fMSGothic|b0|i0|c128;\H2.3624;\C7;\U+6027
  7
STD
210
0.0
220
0.0
230
1.0
 11
1.0
 21
0.0
 31
0.0
 73
     1
 44
1.0
  0
MTEXT
  5
19D
100
AcDbEntity
  8
レイヤー_1
 62
     7
100
AcDbMText
 10
112.977083
 20
19.295684
 30
0.0
 40
2.362351
 41
0.0
 71
     1
 72
     2
  1
\fMSGothic|b0|i0|c128;\H2.3624;\C7;\U+30B0
  7
STD
210
0.0
220
0.0
230
1.0
 11
1.0
 21
0.0
 31
0.0
 73
     1
 44
1.0
  0
MTEXT
  5
19C
100
AcDbEntity
  8
レイヤー_1
 62
     7
100
AcDbMText
 10
116.152083
 20
19.295684
 30
0.0
 40
2.362351
 41
0.0
 71
     1
 72
     2
  1
\fMSGothic|b0|i0|c128;\H2.3624;\C7;\U+30EA
  7
STD
210
0.0
220
0.0
230
1.0
 11
1.0
 21
0.0
 31
0.0
 73
     1
 44
1.0
  0
MTEXT
  5
19B
100
AcDbEntity
  8
レイヤー_1
 62
     7
100
AcDbMText
 10
119.327083
 20
19.295684
 30
0.0
 40
2.362351
 41
0.0
 71
     1
 72
     2
  1
\fMSGothic|b0|i0|c128;\H2.3624;\C7;\U+30B9
  7
STD
210
0.0
220
0.0
230
1.0
 11
1.0
 21
0.0
 31
0.0
 73
     1
 44
1.0
  0
LINE
  5
19A
100
AcDbEntity
  8
レイヤー_1
 62
     7
100
AcDbLine
 10
281.78125
 20
35.71875
 30
0.0
 11
281.78125
 21
10.847917
 31
0.0
  0
MTEXT
  5
199
100
AcDbEntity
  8
レイヤー_1
 62
     7
100
AcDbMText
 10
105.309162
 20
85.365561
 30
0.0
 40
3.674768
 41
0.0
 71
     1
 72
     2
  1
\fMSGothic|b0|i0|c128;\H3.6748;\C7;\U+3010
  7
STD
210
0.0
220
0.0
230
1.0
 11
1.0
 21
0.0
 31
0.0
 73
     1
 44
1.0
  0
MTEXT
  5
198
100
AcDbEntity
  8
レイヤー_1
 62
     7
100
AcDbMText
 10
110.248051
 20
85.365561
 30
0.0
 40
3.674768
 41
0.0
 71
     1
 72
     2
  1
\fMSGothic|b0|i0|c128;\H3.6748;\C7;\U+5E95
  7
STD
210
0.0
220
0.0
230
1.0
 11
1.0
 21
0.0
 31
0.0
 73
     1
 44
1.0
  0
MTEXT
  5
197
100
AcDbEntity
  8
レイヤー_1
 62
     7
100
AcDbMText
 10
115.18694
 20
85.365561
 30
0.0
 40
3.674768
 41
0.0
 71
     1
 72
     2
  1
\fMSGothic|b0|i0|c128;\H3.6748;\C7;\U+9762
  7
STD
210
0.0
220
0.0
230
1.0
 11
1.0
 21
0.0
 31
0.0
 73
     1
 44
1.0
  0
MTEXT
  5
196
100
AcDbEntity
  8
レイヤー_1
 62
     7
100
AcDbMText
 10
120.125829
 20
85.365561
 30
0.0
 40
3.674768
 41
0.0
 71
     1
 72
     2
  1
\fMSGothic|b0|i0|c128;\H3.6748;\C7;\U+56F3
  7
STD
210
0.0
220
0.0
230
1.0
 11
1.0
 21
0.0
 31
0.0
 73
     1
 44
1.0
  0
MTEXT
  5
195
100
AcDbEntity
  8
レイヤー_1
 62
     7
100
AcDbMText
 10
125.064718
 20
85.365561
 30
0.0
 40
3.674768
 41
0.0
 71
     1
 72
     2
  1
\fMSGothic|b0|i0|c128;\H3.6748;\C7;\U+3011
  7
STD
210
0.0
220
0.0
230
1.0
 11
1.0
 21
0.0
 31
0.0
 73
     1
 44
1.0
  0
MTEXT
  5
194
100
AcDbEntity
  8
レイヤー_1
 62
     7
100
AcDbMText
 10
106.705115
 20
156.971871
 30
0.0
 40
3.674768
 41
0.0
 71
     1
 72
     2
  1
\fMSGothic|b0|i0|c128;\H3.6748;\C7;\U+3010
  7
STD
210
0.0
220
0.0
230
1.0
 11
1.0
 21
0.0
 31
0.0
 73
     1
 44
1.0
  0
MTEXT
  5
193
100
AcDbEntity
  8
レイヤー_1
 62
     7
100
AcDbMText
 10
111.644004
 20
156.971871
 30
0.0
 40
3.674768
 41
0.0
 71
     1
 72
     2
  1
\fMSGothic|b0|i0|c128;\H3.6748;\C7;\U+6B63
  7
STD
210
0.0
220
0.0
230
1.0
 11
1.0
 21
0.0
 31
0.0
 73
     1
 44
1.0
  0
MTEXT
  5
192
100
AcDbEntity
  8
レイヤー_1
 62
     7
100
AcDbMText
 10
116.582893
 20
156.971871
 30
0.0
 40
3.674768
 41
0.0
 71
     1
 72
     2
  1
\fMSGothic|b0|i0|c128;\H3.6748;\C7;\U+9762
  7
STD
210
0.0
220
0.0
230
1.0
 11
1.0
 21
0.0
 31
0.0
 73
     1
 44
1.0
  0
MTEXT
  5
191
100
AcDbEntity
  8
レイヤー_1
 62
     7
100
AcDbMText
 10
121.521781
 20
156.971871
 30
0.0
 40
3.674768
 41
0.0
 71
     1
 72
     2
  1
\fMSGothic|b0|i0|c128;\H3.6748;\C7;\U+56F3
  7
STD
210
0.0
220
0.0
230
1.0
 11
1.0
 21
0.0
 31
0.0
 73
     1
 44
1.0
  0
MTEXT
  5
190
100
AcDbEntity
  8
レイヤー_1
 62
     7
100
AcDbMText
 10
126.46067
 20
156.971871
 30
0.0
 40
3.674768
 41
0.0
 71
     1
 72
     2
  1
\fMSGothic|b0|i0|c128;\H3.6748;\C7;\U+3011
  7
STD
210
0.0
220
0.0
230
1.0
 11
1.0
 21
0.0
 31
0.0
 73
     1
 44
1.0
  0
MTEXT
  5
18F
100
AcDbEntity
  8
レイヤー_1
 62
     7
100
AcDbMText
 10
195.943079
 20
156.971871
 30
0.0
 40
3.674768
 41
0.0
 71
     1
 72
     2
  1
\fMSGothic|b0|i0|c128;\H3.6748;\C7;\U+3010
  7
STD
210
0.0
220
0.0
230
1.0
 11
1.0
 21
0.0
 31
0.0
 73
     1
 44
1.0
  0
MTEXT
  5
18E
100
AcDbEntity
  8
レイヤー_1
 62
     7
100
AcDbMText
 10
200.881968
 20
156.971871
 30
0.0
 40
3.674768
 41
0.0
 71
     1
 72
     2
  1
\fMSGothic|b0|i0|c128;\H3.6748;\C7;\U+5074
  7
STD
210
0.0
220
0.0
230
1.0
 11
1.0
 21
0.0
 31
0.0
 73
     1
 44
1.0
  0
MTEXT
  5
18D
100
AcDbEntity
  8
レイヤー_1
 62
     7
100
AcDbMText
 10
205.820856
 20
156.971871
 30
0.0
 40
3.674768
 41
0.0
 71
     1
 72
     2
  1
\fMSGothic|b0|i0|c128;\H3.6748;\C7;\U+9762
  7
STD
210
0.0
220
0.0
230
1.0
 11
1.0
 21
0.0
 31
0.0
 73
     1
 44
1.0
  0
MTEXT
  5
18C
100
AcDbEntity
  8
レイヤー_1
 62
     7
100
AcDbMText
 10
210.759918
 20
156.971871
 30
0.0
 40
3.674768
 41
0.0
 71
     1
 72
     2
  1
\fMSGothic|b0|i0|c128;\H3.6748;\C7;\U+56F3
  7
STD
210
0.0
220
0.0
230
1.0
 11
1.0
 21
0.0
 31
0.0
 73
     1
 44
1.0
  0
MTEXT
  5
18B
100
AcDbEntity
  8
レイヤー_1
 62
     7
100
AcDbMText
 10
215.698806
 20
156.971871
 30
0.0
 40
3.674768
 41
0.0
 71
     1
 72
     2
  1
\fMSGothic|b0|i0|c128;\H3.6748;\C7;\U+3011
  7
STD
210
0.0
220
0.0
230
1.0
 11
1.0
 21
0.0
 31
0.0
 73
     1
 44
1.0
  0
HATCH
  5
18A
100
AcDbEntity
  8
レイヤー_1
 62
     7
100
AcDbHatch
 10
0.0
 20
0.0
 30
0.0
210
0.0
220
0.0
230
1.0
  2
SOLID
 70
     1
 71
     0
 91
        1
 92
        1
 93
        1
 72
     4
 94
        3
 73
     0
 74
     0
 95
       68
 96
       64
 40
0.0
 40
0.0
 40
0.0
 40
0.0
 40
1.0
 40
1.0
 40
1.0
 40
2.0
 40
2.0
 40
2.0
 40
3.0
 40
3.0
 40
3.0
 40
4.0
 40
4.0
 40
4.0
 40
5.0
 40
5.0
 40
5.0
 40
6.0
 40
6.0
 40
6.0
 40
7.0
 40
7.0
 40
7.0
 40
8.0
 40
8.0
 40
8.0
 40
9.0
 40
9.0
 40
9.0
 40
10.0
 40
10.0
 40
10.0
 40
11.0
 40
11.0
 40
11.0
 40
12.0
 40
12.0
 40
12.0
 40
13.0
 40
13.0
 40
13.0
 40
14.0
 40
14.0
 40
14.0
 40
15.0
 40
15.0
 40
15.0
 40
16.0
 40
16.0
 40
16.0
 40
17.0
 40
17.0
 40
17.0
 40
18.0
 40
18.0
 40
18.0
 40
19.0
 40
19.0
 40
19.0
 40
20.0
 40
20.0
 40
20.0
 40
21.0
 40
21.0
 40
21.0
 40
21.0
 10
313.69661458333331
 20
21.173901367187497
 10
313.69661458333331
 20
21.111889648437497
 10
313.64769422743052
 20
21.064002821180555
 10
313.58843858506941
 20
21.064002821180555
 10
313.58843858506941
 20
21.064002821180555
 10
310.58844943576383
 20
21.064002821180555
 10
310.58844943576383
 20
21.064002821180555
 10
309.66309678819442
 20
21.064002821180555
 10
308.91206597222219
 20
21.814344618055554
 10
308.91206597222219
 20
22.74038628472222
 10
308.91206597222219
 20
23.665738932291664
 10
309.66309678819442
 20
24.416425238715277
 10
310.58844943576383
 20
24.416425238715277
 10
310.58844943576383
 20
24.416425238715277
 10
311.75771484374997
 20
24.416425238715277
 10
311.75771484374997
 20
24.416425238715277
 10
311.81903754340277
 20
24.416425238715277
 10
311.86726888020831
 20
24.367504882812497
 10
311.86726888020831
 20
24.30618218315972
 10
311.86726888020831
 20
24.30618218315972
 10
311.86726888020831
 20
23.241992187499999
 10
311.86726888020831
 20
23.241992187499999
 10
311.86726888020831
 20
23.182047526041664
 10
311.81903754340277
 20
23.133127170138888
 10
311.75771484374997
 20
23.133127170138888
 10
311.75771484374997
 20
23.133127170138888
 10
310.67319878472222
 20
23.132093641493054
 10
310.67319878472222
 20
23.132093641493054
 10
310.45891384548611
 20
23.132093641493054
 10
310.28390299479162
 20
22.95742730034722
 10
310.28390299479162
 20
22.742797851562496
 10
310.28390299479162
 20
22.527134874131942
 10
310.45891384548611
 20
22.351435004340274
 10
310.67319878472222
 20
22.351435004340274
 10
310.67319878472222
 20
22.351435004340274
 10
312.19179687499997
 20
22.353502061631943
 10
312.19179687499997
 20
22.353502061631943
 10
312.19179687499997
 20
22.353502061631943
 10
312.19179687499997
 20
24.601426866319443
 10
312.19179687499997
 20
24.601426866319443
 10
312.19179687499997
 20
24.930433485243054
 10
311.92583550347217
 20
25.196739366319441
 10
311.59510633680554
 20
25.196739366319441
 10
311.59510633680554
 20
25.196739366319441
 10
309.46190321180552
 20
25.196739366319441
 10
309.46190321180552
 20
25.196739366319441
 10
309.39989149305552
 20
25.196739366319441
 10
309.35166015624998
 20
25.24531521267361
 10
309.35166015624998
 20
25.306293402777776
 10
309.35166015624998
 20
25.306293402777776
 10
309.35166015624998
 20
26.374962022569441
 10
309.35166015624998
 20
26.374962022569441
 10
309.35166015624998
 20
26.434906684027776
 10
309.39989149305552
 20
26.484860568576387
 10
309.46190321180552
 20
26.484860568576387
 10
309.46190321180552
 20
26.484860568576387
 10
312.01609700520828
 20
26.484860568576387
 10
312.01609700520828
 20
26.484860568576387
 10
312.94765082465273
 20
26.484860568576387
 10
313.69661458333331
 20
25.731418185763886
 10
313.69661458333331
 20
24.800208875868055
 10
313.69661458333331
 20
24.800208875868055
 10
313.69661458333331
 20
21.173901367187497
 10
313.69661458333331
 20
21.173901367187497
 97
        0
 75
     2
 76
     1
 98
        1
 10
0.0
 20
0.0
  0
HATCH
  5
189
100
AcDbEntity
  8
レイヤー_1
 62
     7
100
AcDbHatch
 10
0.0
 20
0.0
 30
0.0
210
0.0
220
0.0
230
1.0
  2
SOLID
 70
     1
 71
     0
 91
        1
 92
        1
 93
        1
 72
     4
 94
        3
 73
     0
 74
     0
 95
       68
 96
       64
 40
0.0
 40
0.0
 40
0.0
 40
0.0
 40
1.0
 40
1.0
 40
1.0
 40
2.0
 40
2.0
 40
2.0
 40
3.0
 40
3.0
 40
3.0
 40
4.0
 40
4.0
 40
4.0
 40
5.0
 40
5.0
 40
5.0
 40
6.0
 40
6.0
 40
6.0
 40
7.0
 40
7.0
 40
7.0
 40
8.0
 40
8.0
 40
8.0
 40
9.0
 40
9.0
 40
9.0
 40
10.0
 40
10.0
 40
10.0
 40
11.0
 40
11.0
 40
11.0
 40
12.0
 40
12.0
 40
12.0
 40
13.0
 40
13.0
 40
13.0
 40
14.0
 40
14.0
 40
14.0
 40
15.0
 40
15.0
 40
15.0
 40
16.0
 40
16.0
 40
16.0
 40
17.0
 40
17.0
 40
17.0
 40
18.0
 40
18.0
 40
18.0
 40
19.0
 40
19.0
 40
19.0
 40
20.0
 40
20.0
 40
20.0
 40
21.0
 40
21.0
 40
21.0
 40
21.0
 10
323.79074435763886
 20
21.173901367187497
 10
323.79074435763886
 20
21.111889648437497
 10
323.74182400173606
 20
21.064002821180555
 10
323.68050130208331
 20
21.064002821180555
 10
323.68050130208331
 20
21.064002821180555
 10
320.68051215277774
 20
21.064002821180555
 10
320.68051215277774
 20
21.064002821180555
 10
319.75584852430552
 20
21.064002821180555
 10
319.00481770833329
 20
21.814344618055554
 10
319.00481770833329
 20
22.74038628472222
 10
319.00481770833329
 20
23.665738932291664
 10
319.75584852430552
 20
24.416425238715277
 10
320.68051215277774
 20
24.416425238715277
 10
320.68051215277774
 20
24.416425238715277
 10
321.84977756076387
 20
24.416425238715277
 10
321.84977756076387
 20
24.416425238715277
 10
321.91041124131942
 20
24.416425238715277
 10
321.96002061631941
 20
24.367504882812497
 10
321.96002061631941
 20
24.30618218315972
 10
321.96002061631941
 20
24.30618218315972
 10
321.96002061631941
 20
23.241992187499999
 10
321.96002061631941
 20
23.241992187499999
 10
321.96002061631941
 20
23.182047526041664
 10
321.91041124131942
 20
23.133127170138888
 10
321.84977756076387
 20
23.133127170138888
 10
321.84977756076387
 20
23.133127170138888
 10
320.76595052083331
 20
23.132093641493054
 10
320.76595052083331
 20
23.132093641493054
 10
320.55097656249995
 20
23.132093641493054
 10
320.37665473090277
 20
22.95742730034722
 10
320.37665473090277
 20
22.742797851562496
 10
320.37665473090277
 20
22.527134874131942
 10
320.55097656249995
 20
22.351435004340274
 10
320.76595052083331
 20
22.351435004340274
 10
320.76595052083331
 20
22.351435004340274
 10
322.28454861111106
 20
22.353502061631943
 10
322.28454861111106
 20
22.353502061631943
 10
322.28454861111106
 20
22.353502061631943
 10
322.28454861111106
 20
24.601426866319443
 10
322.28454861111106
 20
24.601426866319443
 10
322.28454861111106
 20
24.930433485243054
 10
322.01789822048607
 20
25.196739366319441
 10
321.68854709201383
 20
25.196739366319441
 10
321.68854709201383
 20
25.196739366319441
 10
319.55258789062498
 20
25.196739366319441
 10
319.55258789062498
 20
25.196739366319441
 10
319.49264322916662
 20
25.196739366319441
 10
319.44372287326388
 20
25.24531521267361
 10
319.44372287326388
 20
25.306293402777776
 10
319.44372287326388
 20
25.306293402777776
 10
319.44372287326388
 20
26.374962022569441
 10
319.44372287326388
 20
26.374962022569441
 10
319.44372287326388
 20
26.434906684027776
 10
319.49264322916662
 20
26.484860568576387
 10
319.55258789062498
 20
26.484860568576387
 10
319.55258789062498
 20
26.484860568576387
 10
322.10815972222218
 20
26.484860568576387
 10
322.10815972222218
 20
26.484860568576387
 10
323.03902452256943
 20
26.484860568576387
 10
323.79074435763886
 20
25.731418185763886
 10
323.79074435763886
 20
24.800208875868055
 10
323.79074435763886
 20
24.800208875868055
 10
323.79074435763886
 20
21.173901367187497
 10
323.79074435763886
 20
21.173901367187497
 97
        0
 75
     2
 76
     1
 98
        1
 10
0.0
 20
0.0
  0
HATCH
  5
188
100
AcDbEntity
  8
レイヤー_1
 62
     7
100
AcDbHatch
 10
0.0
 20
0.0
 30
0.0
210
0.0
220
0.0
230
1.0
  2
SOLID
 70
     1
 71
     0
 91
        1
 92
        1
 93
        1
 72
     4
 94
        3
 73
     0
 74
     0
 95
       65
 96
       61
 40
0.0
 40
0.0
 40
0.0
 40
0.0
 40
1.0
 40
1.0
 40
1.0
 40
2.0
 40
2.0
 40
2.0
 40
3.0
 40
3.0
 40
3.0
 40
4.0
 40
4.0
 40
4.0
 40
5.0
 40
5.0
 40
5.0
 40
6.0
 40
6.0
 40
6.0
 40
7.0
 40
7.0
 40
7.0
 40
8.0
 40
8.0
 40
8.0
 40
9.0
 40
9.0
 40
9.0
 40
10.0
 40
10.0
 40
10.0
 40
11.0
 40
11.0
 40
11.0
 40
12.0
 40
12.0
 40
12.0
 40
13.0
 40
13.0
 40
13.0
 40
14.0
 40
14.0
 40
14.0
 40
15.0
 40
15.0
 40
15.0
 40
16.0
 40
16.0
 40
16.0
 40
17.0
 40
17.0
 40
17.0
 40
18.0
 40
18.0
 40
18.0
 40
19.0
 40
19.0
 40
19.0
 40
20.0
 40
20.0
 40
20.0
 40
20.0
 10
324.42739800347221
 20
21.058490668402776
 10
324.36745334201385
 20
21.058490668402776
 10
324.3192220052083
 20
21.105688476562499
 10
324.3192220052083
 20
21.165288628472219
 10
324.3192220052083
 20
21.165288628472219
 10
324.3192220052083
 20
22.235679796006941
 10
324.3192220052083
 20
22.235679796006941
 10
324.3192220052083
 20
22.295624457465276
 10
324.36745334201385
 20
22.346956380208333
 10
324.42739800347221
 20
22.346956380208333
 10
324.42739800347221
 20
22.346956380208333
 10
326.97676866319443
 20
22.346956380208333
 10
326.97676866319443
 20
22.346956380208333
 10
327.19174262152774
 20
22.346956380208333
 10
327.36606445312498
 20
22.524378797743054
 10
327.36606445312498
 20
22.741419813368054
 10
327.36606445312498
 20
22.955015733506944
 10
327.19174262152774
 20
23.132093641493054
 10
326.97676866319443
 20
23.132093641493054
 10
326.97676866319443
 20
23.132093641493054
 10
325.84608832465273
 20
23.163099500868054
 10
325.84608832465273
 20
23.163099500868054
 10
324.92555881076385
 20
23.163099500868054
 10
324.17866210937495
 20
23.904828559027777
 10
324.17866210937495
 20
24.819845920138885
 10
324.17866210937495
 20
25.734518771701385
 10
324.92555881076385
 20
26.477625868055554
 10
325.84608832465273
 20
26.477625868055554
 10
325.84608832465273
 20
26.477625868055554
 10
328.41337348090275
 20
26.477625868055554
 10
328.41337348090275
 20
26.477625868055554
 10
328.4740071614583
 20
26.477625868055554
 10
328.52223849826385
 20
26.429739040798609
 10
328.52223849826385
 20
26.370483398437496
 10
328.52223849826385
 20
26.370483398437496
 10
328.52223849826385
 20
25.312150065104163
 10
328.52223849826385
 20
25.312150065104163
 10
328.52223849826385
 20
25.250827365451386
 10
328.4740071614583
 20
25.199495442708329
 10
328.41337348090275
 20
25.199495442708329
 10
328.41337348090275
 20
25.199495442708329
 10
326.00456271701387
 20
25.199495442708329
 10
326.00456271701387
 20
25.199495442708329
 10
325.79027777777776
 20
25.199495442708329
 10
325.61457790798607
 20
25.021728515624996
 10
325.61457790798607
 20
24.807443576388888
 10
325.61457790798607
 20
24.591436089409719
 10
325.79027777777776
 20
24.417458767361108
 10
326.00456271701387
 20
24.417458767361108
 10
326.00456271701387
 20
24.417458767361108
 10
327.14902343749998
 20
24.382663302951386
 10
327.14902343749998
 20
24.382663302951386
 10
328.07024197048611
 20
24.382663302951386
 10
328.81851671006939
 20
23.639900716145831
 10
328.81851671006939
 20
22.724538845486109
 10
328.81851671006939
 20
21.807454427083332
 10
328.07024197048611
 20
21.058490668402776
 10
327.14902343749998
 20
21.058490668402776
 10
327.14902343749998
 20
21.058490668402776
 10
324.42739800347221
 20
21.058490668402776
 10
324.42739800347221
 20
21.058490668402776
 97
        0
 75
     2
 76
     1
 98
        1
 10
0.0
 20
0.0
  0
HATCH
  5
187
100
AcDbEntity
  8
レイヤー_1
 62
     7
100
AcDbHatch
 10
0.0
 20
0.0
 30
0.0
210
0.0
220
0.0
230
1.0
  2
SOLID
 70
     1
 71
     0
 91
        1
 92
        1
 93
        1
 72
     4
 94
        3
 73
     0
 74
     0
 95
       65
 96
       61
 40
0.0
 40
0.0
 40
0.0
 40
0.0
 40
1.0
 40
1.0
 40
1.0
 40
2.0
 40
2.0
 40
2.0
 40
3.0
 40
3.0
 40
3.0
 40
4.0
 40
4.0
 40
4.0
 40
5.0
 40
5.0
 40
5.0
 40
6.0
 40
6.0
 40
6.0
 40
7.0
 40
7.0
 40
7.0
 40
8.0
 40
8.0
 40
8.0
 40
9.0
 40
9.0
 40
9.0
 40
10.0
 40
10.0
 40
10.0
 40
11.0
 40
11.0
 40
11.0
 40
12.0
 40
12.0
 40
12.0
 40
13.0
 40
13.0
 40
13.0
 40
14.0
 40
14.0
 40
14.0
 40
15.0
 40
15.0
 40
15.0
 40
16.0
 40
16.0
 40
16.0
 40
17.0
 40
17.0
 40
17.0
 40
18.0
 40
18.0
 40
18.0
 40
19.0
 40
19.0
 40
19.0
 40
20.0
 40
20.0
 40
20.0
 40
20.0
 10
333.56585828993053
 20
26.48313802083333
 10
333.56585828993053
 20
26.48313802083333
 10
332.36145290798606
 20
26.48313802083333
 10
332.36145290798606
 20
26.48313802083333
 10
332.30081922743051
 20
26.48313802083333
 10
332.17472873263887
 20
26.433873155381942
 10
332.17472873263887
 20
26.374273003472219
 10
332.17472873263887
 20
26.374273003472219
 10
332.17472873263887
 20
24.422970920138887
 10
332.17472873263887
 20
24.422970920138887
 10
332.17472873263887
 20
24.422970920138887
 10
330.66508789062499
 20
24.422970920138887
 10
330.66508789062499
 20
24.422970920138887
 10
330.66508789062499
 20
24.422970920138887
 10
330.66508789062499
 20
26.374273003472219
 10
330.66508789062499
 20
26.374273003472219
 10
330.66508789062499
 20
26.433873155381942
 10
330.61547851562494
 20
26.48313802083333
 10
330.55622287326383
 20
26.48313802083333
 10
330.55622287326383
 20
26.48313802083333
 10
329.27326931423607
 20
26.48313802083333
 10
329.27326931423607
 20
26.48313802083333
 10
329.21332465277777
 20
26.48313802083333
 10
329.16440429687498
 20
26.433873155381942
 10
329.16440429687498
 20
26.374273003472219
 10
329.16440429687498
 20
26.374273003472219
 10
329.16440429687498
 20
21.173901367187497
 10
329.16440429687498
 20
21.173901367187497
 10
329.16440429687498
 20
21.111889648437497
 10
329.21332465277777
 20
21.064002821180555
 10
329.27326931423607
 20
21.064002821180555
 10
329.27326931423607
 20
21.064002821180555
 10
330.55622287326383
 20
21.064002821180555
 10
330.55622287326383
 20
21.064002821180555
 10
330.61547851562494
 20
21.064002821180555
 10
330.66508789062499
 20
21.111889648437497
 10
330.66508789062499
 20
21.173901367187497
 10
330.66508789062499
 20
21.173901367187497
 10
330.66508789062499
 20
23.136227756076387
 10
330.66508789062499
 20
23.136227756076387
 10
330.66508789062499
 20
23.136227756076387
 10
332.17472873263887
 20
23.136227756076387
 10
332.17472873263887
 20
23.136227756076387
 10
332.17472873263887
 20
23.136227756076387
 10
332.17472873263887
 20
21.173901367187497
 10
332.17472873263887
 20
21.173901367187497
 10
332.17472873263887
 20
21.111889648437497
 10
332.22364908854166
 20
21.064002821180555
 10
332.28359374999997
 20
21.064002821180555
 10
332.28359374999997
 20
21.064002821180555
 10
333.56585828993053
 20
21.064002821180555
 10
333.56585828993053
 20
21.064002821180555
 10
333.62580295138883
 20
21.064002821180555
 10
333.67472330729163
 20
21.111889648437497
 10
333.67472330729163
 20
21.173901367187497
 10
333.67472330729163
 20
21.173901367187497
 10
333.67472330729163
 20
26.374273003472219
 10
333.67472330729163
 20
26.374273003472219
 10
333.67472330729163
 20
26.433873155381942
 10
333.62580295138883
 20
26.48313802083333
 10
333.56585828993053
 20
26.48313802083333
 97
        0
 75
     2
 76
     1
 98
        1
 10
0.0
 20
0.0
  0
HATCH
  5
186
100
AcDbEntity
  8
レイヤー_1
 62
     7
100
AcDbHatch
 10
0.0
 20
0.0
 30
0.0
210
0.0
220
0.0
230
1.0
  2
SOLID
 70
     1
 71
     0
 91
        2
 92
       16
 93
        1
 72
     4
 94
        3
 73
     0
 74
     0
 95
       29
 96
       25
 40
0.0
 40
0.0
 40
0.0
 40
0.0
 40
1.0
 40
1.0
 40
1.0
 40
2.0
 40
2.0
 40
2.0
 40
3.0
 40
3.0
 40
3.0
 40
4.0
 40
4.0
 40
4.0
 40
5.0
 40
5.0
 40
5.0
 40
6.0
 40
6.0
 40
6.0
 40
7.0
 40
7.0
 40
7.0
 40
8.0
 40
8.0
 40
8.0
 40
8.0
 10
337.65794270833328
 20
26.483827039930553
 10
337.65794270833328
 20
26.483827039930553
 10
335.64600694444442
 20
26.483827039930553
 10
335.64600694444442
 20
26.483827039930553
 10
334.79713541666666
 20
26.483827039930553
 10
334.10673828124999
 20
25.794807942708331
 10
334.10673828124999
 20
24.944902886284719
 10
334.10673828124999
 20
24.944902886284719
 10
334.10673828124999
 20
22.607750108506941
 10
334.10673828124999
 20
22.607750108506941
 10
334.10673828124999
 20
21.758189561631941
 10
334.79713541666666
 20
21.069514973958331
 10
335.64600694444442
 20
21.069514973958331
 10
335.64600694444442
 20
21.069514973958331
 10
337.65794270833328
 20
21.069514973958331
 10
337.65794270833328
 20
21.069514973958331
 10
338.50750325520829
 20
21.069514973958331
 10
339.19583333333333
 20
21.758189561631941
 10
339.19583333333333
 20
22.607750108506941
 10
339.19583333333333
 20
22.607750108506941
 10
339.19583333333333
 20
24.944902886284719
 10
339.19583333333333
 20
24.944902886284719
 10
339.19583333333333
 20
25.794807942708331
 10
338.50750325520829
 20
26.483827039930553
 10
337.65794270833328
 20
26.483827039930553
 97
        0
 92
        1
 93
        1
 72
     4
 94
        3
 73
     0
 74
     0
 95
       29
 96
       25
 40
0.0
 40
0.0
 40
0.0
 40
0.0
 40
1.0
 40
1.0
 40
1.0
 40
2.0
 40
2.0
 40
2.0
 40
3.0
 40
3.0
 40
3.0
 40
4.0
 40
4.0
 40
4.0
 40
5.0
 40
5.0
 40
5.0
 40
6.0
 40
6.0
 40
6.0
 40
7.0
 40
7.0
 40
7.0
 40
8.0
 40
8.0
 40
8.0
 40
8.0
 10
337.69308268229162
 20
22.910574001736109
 10
337.69308268229162
 20
22.607750108506941
 10
337.44710286458331
 20
22.362114800347221
 10
337.14462348090274
 20
22.362114800347221
 10
337.14462348090274
 20
22.362114800347221
 10
336.15932617187497
 20
22.362114800347221
 10
336.15932617187497
 20
22.362114800347221
 10
335.85546874999994
 20
22.362114800347221
 10
335.61017795138883
 20
22.607750108506941
 10
335.61017795138883
 20
22.910574001736109
 10
335.61017795138883
 20
22.910574001736109
 10
335.61017795138883
 20
24.642423502604164
 10
335.61017795138883
 20
24.642423502604164
 10
335.61017795138883
 20
24.944902886284719
 10
335.85546874999994
 20
25.190193684895831
 10
336.15932617187497
 20
25.190193684895831
 10
336.15932617187497
 20
25.190193684895831
 10
337.14462348090274
 20
25.190193684895831
 10
337.14462348090274
 20
25.190193684895831
 10
337.44710286458331
 20
25.190193684895831
 10
337.69308268229162
 20
24.944902886284719
 10
337.69308268229162
 20
24.642423502604164
 10
337.69308268229162
 20
24.642423502604164
 10
337.69308268229162
 20
22.910574001736109
 10
337.69308268229162
 20
22.910574001736109
 97
        0
 75
     2
 76
     1
 98
        1
 10
0.0
 20
0.0
  0
HATCH
  5
185
100
AcDbEntity
  8
レイヤー_1
 62
     7
100
AcDbHatch
 10
0.0
 20
0.0
 30
0.0
210
0.0
220
0.0
230
1.0
  2
SOLID
 70
     1
 71
     0
 91
        1
 92
        1
 93
        1
 72
     4
 94
        3
 73
     0
 74
     0
 95
       47
 96
       43
 40
0.0
 40
0.0
 40
0.0
 40
0.0
 40
1.0
 40
1.0
 40
1.0
 40
2.0
 40
2.0
 40
2.0
 40
3.0
 40
3.0
 40
3.0
 40
4.0
 40
4.0
 40
4.0
 40
5.0
 40
5.0
 40
5.0
 40
6.0
 40
6.0
 40
6.0
 40
7.0
 40
7.0
 40
7.0
 40
8.0
 40
8.0
 40
8.0
 40
9.0
 40
9.0
 40
9.0
 40
10.0
 40
10.0
 40
10.0
 40
11.0
 40
11.0
 40
11.0
 40
12.0
 40
12.0
 40
12.0
 40
13.0
 40
13.0
 40
13.0
 40
14.0
 40
14.0
 40
14.0
 40
14.0
 10
310.38656684027774
 20
28.570521375868054
 10
310.38656684027774
 20
28.570521375868054
 10
304.5223253038194
 20
28.570521375868054
 10
304.5223253038194
 20
28.570521375868054
 10
304.46858181423607
 20
28.570521375868054
 10
304.42448459201387
 20
28.526424153645831
 10
304.42448459201387
 20
28.471991644965275
 10
304.42448459201387
 20
28.471991644965275
 10
304.42448459201387
 20
27.176635742187496
 10
304.42448459201387
 20
27.176635742187496
 10
304.42448459201387
 20
27.121858723958329
 10
304.46858181423607
 20
27.077761501736109
 10
304.5223253038194
 20
27.077761501736109
 10
304.5223253038194
 20
27.077761501736109
 10
306.58662651909719
 20
27.077761501736109
 10
306.58662651909719
 20
27.077761501736109
 10
306.58662651909719
 20
27.077761501736109
 10
306.58662651909719
 20
21.173901367187497
 10
306.58662651909719
 20
21.173901367187497
 10
306.58662651909719
 20
21.111889648437497
 10
306.63485785590274
 20
21.064002821180555
 10
306.69549153645829
 20
21.064002821180555
 10
306.69549153645829
 20
21.064002821180555
 10
308.21271158854165
 20
21.064002821180555
 10
308.21271158854165
 20
21.064002821180555
 10
308.2740342881944
 20
21.064002821180555
 10
308.32088758680555
 20
21.111889648437497
 10
308.32088758680555
 20
21.173901367187497
 10
308.32088758680555
 20
21.173901367187497
 10
308.32088758680555
 20
27.077761501736109
 10
308.32088758680555
 20
27.077761501736109
 10
308.32088758680555
 20
27.077761501736109
 10
310.38656684027774
 20
27.077761501736109
 10
310.38656684027774
 20
27.077761501736109
 10
310.44099934895831
 20
27.077761501736109
 10
310.48371853298607
 20
27.121858723958329
 10
310.48371853298607
 20
27.176635742187496
 10
310.48371853298607
 20
27.176635742187496
 10
310.48371853298607
 20
28.471991644965275
 10
310.48371853298607
 20
28.471991644965275
 10
310.48371853298607
 20
28.526424153645831
 10
310.44099934895831
 20
28.570521375868054
 10
310.38656684027774
 20
28.570521375868054
 97
        0
 75
     2
 76
     1
 98
        1
 10
0.0
 20
0.0
  0
HATCH
  5
184
100
AcDbEntity
  8
レイヤー_1
 62
     7
100
AcDbHatch
 10
0.0
 20
0.0
 30
0.0
210
0.0
220
0.0
230
1.0
  2
SOLID
 70
     1
 71
     0
 91
        1
 92
        1
 93
        1
 72
     4
 94
        3
 73
     0
 74
     0
 95
       29
 96
       25
 40
0.0
 40
0.0
 40
0.0
 40
0.0
 40
1.0
 40
1.0
 40
1.0
 40
2.0
 40
2.0
 40
2.0
 40
3.0
 40
3.0
 40
3.0
 40
4.0
 40
4.0
 40
4.0
 40
5.0
 40
5.0
 40
5.0
 40
6.0
 40
6.0
 40
6.0
 40
7.0
 40
7.0
 40
7.0
 40
8.0
 40
8.0
 40
8.0
 40
8.0
 10
315.54387478298611
 20
21.064002821180555
 10
315.60381944444441
 20
21.064002821180555
 10
315.65411783854165
 20
21.111889648437497
 10
315.65411783854165
 20
21.174934895833331
 10
315.65411783854165
 20
21.174934895833331
 10
315.65411783854165
 20
26.382196723090274
 10
315.65411783854165
 20
26.382196723090274
 10
315.65411783854165
 20
26.442485894097221
 10
315.60381944444441
 20
26.491061740451386
 10
315.54387478298611
 20
26.491061740451386
 10
315.54387478298611
 20
26.491061740451386
 10
314.25678710937495
 20
26.491061740451386
 10
314.25678710937495
 20
26.491061740451386
 10
314.19546440972221
 20
26.491061740451386
 10
314.14654405381941
 20
26.442485894097221
 10
314.14654405381941
 20
26.382196723090274
 10
314.14654405381941
 20
26.382196723090274
 10
314.14654405381941
 20
21.174934895833331
 10
314.14654405381941
 20
21.174934895833331
 10
314.14654405381941
 20
21.111889648437497
 10
314.19546440972221
 20
21.064002821180555
 10
314.25678710937495
 20
21.064002821180555
 10
314.25678710937495
 20
21.064002821180555
 10
315.54387478298611
 20
21.064002821180555
 10
315.54387478298611
 20
21.064002821180555
 97
        0
 75
     2
 76
     1
 98
        1
 10
0.0
 20
0.0
  0
HATCH
  5
183
100
AcDbEntity
  8
レイヤー_1
 62
     7
100
AcDbHatch
 10
0.0
 20
0.0
 30
0.0
210
0.0
220
0.0
230
1.0
  2
SOLID
 70
     1
 71
     0
 91
        1
 92
        1
 93
        1
 72
     4
 94
        3
 73
     0
 74
     0
 95
       29
 96
       25
 40
0.0
 40
0.0
 40
0.0
 40
0.0
 40
1.0
 40
1.0
 40
1.0
 40
2.0
 40
2.0
 40
2.0
 40
3.0
 40
3.0
 40
3.0
 40
4.0
 40
4.0
 40
4.0
 40
5.0
 40
5.0
 40
5.0
 40
6.0
 40
6.0
 40
6.0
 40
7.0
 40
7.0
 40
7.0
 40
8.0
 40
8.0
 40
8.0
 40
8.0
 10
317.66812065972221
 20
26.487616644965275
 10
317.56545681423609
 20
26.487616644965275
 10
317.47381727430553
 20
26.436284722222219
 10
317.41869574652776
 20
26.358081054687499
 10
317.41869574652776
 20
26.358081054687499
 10
315.65411783854165
 20
23.773914930555552
 10
315.65411783854165
 20
23.773914930555552
 10
315.65411783854165
 20
23.773914930555552
 10
317.40698242187494
 20
21.069514973958331
 10
317.40698242187494
 20
21.069514973958331
 10
317.40698242187494
 20
21.069514973958331
 10
319.25079752604165
 20
21.069514973958331
 10
319.25079752604165
 20
21.069514973958331
 10
319.25079752604165
 20
21.069514973958331
 10
317.24368489583333
 20
23.773914930555552
 10
317.24368489583333
 20
23.773914930555552
 10
317.24368489583333
 20
23.773914930555552
 10
319.24941948784721
 20
26.485894097222221
 10
319.24941948784721
 20
26.485894097222221
 10
319.24941948784721
 20
26.485894097222221
 10
317.66743164062495
 20
26.485894097222221
 10
317.66743164062495
 20
26.485894097222221
 10
317.66743164062495
 20
26.485894097222221
 10
317.66812065972221
 20
26.487616644965275
 10
317.66812065972221
 20
26.487616644965275
 97
        0
 75
     2
 76
     1
 98
        1
 10
0.0
 20
0.0
  0
HATCH
  5
182
100
AcDbEntity
  8
レイヤー_1
 62
     7
100
AcDbHatch
 10
0.0
 20
0.0
 30
0.0
210
0.0
220
0.0
230
1.0
  2
SOLID
 70
     1
 71
     0
 91
        1
 92
        1
 93
        1
 72
     4
 94
        3
 73
     0
 74
     0
 95
       29
 96
       25
 40
0.0
 40
0.0
 40
0.0
 40
0.0
 40
1.0
 40
1.0
 40
1.0
 40
2.0
 40
2.0
 40
2.0
 40
3.0
 40
3.0
 40
3.0
 40
4.0
 40
4.0
 40
4.0
 40
5.0
 40
5.0
 40
5.0
 40
6.0
 40
6.0
 40
6.0
 40
7.0
 40
7.0
 40
7.0
 40
8.0
 40
8.0
 40
8.0
 40
8.0
 10
294.68795572916662
 20
24.820190429687496
 10
294.82575954861107
 20
24.820190429687496
 10
294.93669162326387
 20
24.932500542534719
 10
294.93669162326387
 20
25.069615342881942
 10
294.93669162326387
 20
25.069615342881942
 10
294.93669162326387
 20
28.318340386284721
 10
294.93669162326387
 20
28.318340386284721
 10
294.93669162326387
 20
28.456833224826386
 10
294.82575954861107
 20
28.567765299479163
 10
294.68795572916662
 20
28.567765299479163
 10
294.68795572916662
 20
28.567765299479163
 10
291.43923068576385
 20
28.567765299479163
 10
291.43923068576385
 20
28.567765299479163
 10
291.300048828125
 20
28.567765299479163
 10
291.18911675347221
 20
28.456833224826386
 10
291.18911675347221
 20
28.318340386284721
 10
291.18911675347221
 20
28.318340386284721
 10
291.18911675347221
 20
25.069615342881942
 10
291.18911675347221
 20
25.069615342881942
 10
291.18911675347221
 20
24.932500542534719
 10
291.300048828125
 20
24.820190429687496
 10
291.43923068576385
 20
24.820190429687496
 10
291.43923068576385
 20
24.820190429687496
 10
294.68795572916662
 20
24.820190429687496
 10
294.68795572916662
 20
24.820190429687496
 97
        0
 75
     2
 76
     1
 98
        1
 10
0.0
 20
0.0
  0
HATCH
  5
181
100
AcDbEntity
  8
レイヤー_1
 62
     7
100
AcDbHatch
 10
0.0
 20
0.0
 30
0.0
210
0.0
220
0.0
230
1.0
  2
SOLID
 70
     1
 71
     0
 91
        1
 92
        1
 93
        1
 72
     4
 94
        3
 73
     0
 74
     0
 95
       29
 96
       25
 40
0.0
 40
0.0
 40
0.0
 40
0.0
 40
1.0
 40
1.0
 40
1.0
 40
2.0
 40
2.0
 40
2.0
 40
3.0
 40
3.0
 40
3.0
 40
4.0
 40
4.0
 40
4.0
 40
5.0
 40
5.0
 40
5.0
 40
6.0
 40
6.0
 40
6.0
 40
7.0
 40
7.0
 40
7.0
 40
8.0
 40
8.0
 40
8.0
 40
8.0
 10
298.43759765624998
 20
21.070893012152776
 10
298.57471245659718
 20
21.070893012152776
 10
298.68564453124998
 20
21.182514105902776
 10
298.68564453124998
 20
21.321351453993053
 10
298.68564453124998
 20
21.321351453993053
 10
298.68564453124998
 20
24.569042968749997
 10
298.68564453124998
 20
24.569042968749997
 10
298.68564453124998
 20
24.706502278645832
 10
298.57471245659718
 20
24.81777886284722
 10
298.43759765624998
 20
24.81777886284722
 10
298.43759765624998
 20
24.81777886284722
 10
295.18887261284721
 20
24.81777886284722
 10
295.18887261284721
 20
24.81777886284722
 10
295.05106879340275
 20
24.81777886284722
 10
294.93738064236106
 20
24.706502278645832
 10
294.93738064236106
 20
24.569042968749997
 10
294.93738064236106
 20
24.569042968749997
 10
294.93738064236106
 20
21.321351453993053
 10
294.93738064236106
 20
21.321351453993053
 10
294.93738064236106
 20
21.182514105902776
 10
295.05106879340275
 20
21.070893012152776
 10
295.18887261284721
 20
21.070893012152776
 10
295.18887261284721
 20
21.070893012152776
 10
298.43759765624998
 20
21.070893012152776
 10
298.43759765624998
 20
21.070893012152776
 97
        0
 75
     2
 76
     1
 98
        1
 10
0.0
 20
0.0
  0
HATCH
  5
180
100
AcDbEntity
  8
レイヤー_1
 62
     7
100
AcDbHatch
 10
0.0
 20
0.0
 30
0.0
210
0.0
220
0.0
230
1.0
  2
SOLID
 70
     1
 71
     0
 91
        1
 92
        1
 93
        1
 72
     4
 94
        3
 73
     0
 74
     0
 95
       29
 96
       25
 40
0.0
 40
0.0
 40
0.0
 40
0.0
 40
1.0
 40
1.0
 40
1.0
 40
2.0
 40
2.0
 40
2.0
 40
3.0
 40
3.0
 40
3.0
 40
4.0
 40
4.0
 40
4.0
 40
5.0
 40
5.0
 40
5.0
 40
6.0
 40
6.0
 40
6.0
 40
7.0
 40
7.0
 40
7.0
 40
8.0
 40
8.0
 40
8.0
 40
8.0
 10
302.18723958333328
 20
24.820190429687496
 10
302.32435438368054
 20
24.820190429687496
 10
302.43666449652773
 20
24.932500542534719
 10
302.43666449652773
 20
25.069615342881942
 10
302.43666449652773
 20
25.069615342881942
 10
302.43666449652773
 20
28.318340386284721
 10
302.43666449652773
 20
28.318340386284721
 10
302.43666449652773
 20
28.456833224826386
 10
302.32435438368054
 20
28.567765299479163
 10
302.18723958333328
 20
28.567765299479163
 10
302.18723958333328
 20
28.567765299479163
 10
298.93782552083331
 20
28.567765299479163
 10
298.93782552083331
 20
28.567765299479163
 10
298.80002170138886
 20
28.567765299479163
 10
298.68908962673606
 20
28.456833224826386
 10
298.68908962673606
 20
28.318340386284721
 10
298.68908962673606
 20
28.318340386284721
 10
298.68908962673606
 20
25.069615342881942
 10
298.68908962673606
 20
25.069615342881942
 10
298.68908962673606
 20
24.932500542534719
 10
298.80002170138886
 20
24.820190429687496
 10
298.93782552083331
 20
24.820190429687496
 10
298.93782552083331
 20
24.820190429687496
 10
302.18723958333328
 20
24.820190429687496
 10
302.18723958333328
 20
24.820190429687496
 97
        0
 75
     2
 76
     1
 98
        1
 10
0.0
 20
0.0
  0
HATCH
  5
17F
100
AcDbEntity
  8
レイヤー_1
 62
     7
100
AcDbHatch
 10
0.0
 20
0.0
 30
0.0
210
0.0
220
0.0
230
1.0
  2
SOLID
 70
     1
 71
     0
 91
        1
 92
        1
 93
        1
 72
     4
 94
        3
 73
     0
 74
     0
 95
       29
 96
       25
 40
0.0
 40
0.0
 40
0.0
 40
0.0
 40
1.0
 40
1.0
 40
1.0
 40
2.0
 40
2.0
 40
2.0
 40
3.0
 40
3.0
 40
3.0
 40
4.0
 40
4.0
 40
4.0
 40
5.0
 40
5.0
 40
5.0
 40
6.0
 40
6.0
 40
6.0
 40
7.0
 40
7.0
 40
7.0
 40
8.0
 40
8.0
 40
8.0
 40
8.0
 10
294.68795572916662
 20
17.32090657552083
 10
294.82575954861107
 20
17.32090657552083
 10
294.93669162326387
 20
17.432872178819444
 10
294.93669162326387
 20
17.571020507812499
 10
294.93669162326387
 20
17.571020507812499
 10
294.93669162326387
 20
20.819401041666666
 10
294.93669162326387
 20
20.819401041666666
 10
294.93669162326387
 20
20.956515842013886
 10
294.82575954861107
 20
21.068481445312496
 10
294.68795572916662
 20
21.068481445312496
 10
294.68795572916662
 20
21.068481445312496
 10
291.43923068576385
 20
21.068481445312496
 10
291.43923068576385
 20
21.068481445312496
 10
291.300048828125
 20
21.068481445312496
 10
291.18911675347221
 20
20.956515842013886
 10
291.18911675347221
 20
20.819401041666666
 10
291.18911675347221
 20
20.819401041666666
 10
291.18911675347221
 20
17.571020507812499
 10
291.18911675347221
 20
17.571020507812499
 10
291.18911675347221
 20
17.432872178819444
 10
291.300048828125
 20
17.32090657552083
 10
291.43923068576385
 20
17.32090657552083
 10
291.43923068576385
 20
17.32090657552083
 10
294.68795572916662
 20
17.32090657552083
 10
294.68795572916662
 20
17.32090657552083
 97
        0
 75
     2
 76
     1
 98
        1
 10
0.0
 20
0.0
  0
MTEXT
  5
17E
100
AcDbEntity
  8
レイヤー_1
 62
     7
100
AcDbMText
 10
347.522629
 20
25.878924
 30
0.0
 40
2.849494
 41
0.0
 71
     1
 72
     2
  1
\fHGPGothicE|b0|i0|c128;\H2.8495;\C7;\U+548C
  7
STD
210
0.0
220
0.0
230
1.0
 11
1.0
 21
0.0
 31
0.0
 73
     1
 44
1.0
  0
MTEXT
  5
17D
100
AcDbEntity
  8
レイヤー_1
 62
     7
100
AcDbMText
 10
351.352197
 20
25.878924
 30
0.0
 40
2.849494
 41
0.0
 71
     1
 72
     2
  1
\fHGPGothicE|b0|i0|c128;\H2.8495;\C7;\U+6B4C
  7
STD
210
0.0
220
0.0
230
1.0
 11
1.0
 21
0.0
 31
0.0
 73
     1
 44
1.0
  0
MTEXT
  5
17C
100
AcDbEntity
  8
レイヤー_1
 62
     7
100
AcDbMText
 10
355.18211
 20
25.878924
 30
0.0
 40
2.849494
 41
0.0
 71
     1
 72
     2
  1
\fHGPGothicE|b0|i0|c128;\H2.8495;\C7;\U+5C71
  7
STD
210
0.0
220
0.0
230
1.0
 11
1.0
 21
0.0
 31
0.0
 73
     1
 44
1.0
  0
MTEXT
  5
17B
100
AcDbEntity
  8
レイヤー_1
 62
     7
100
AcDbMText
 10
359.011678
 20
25.878924
 30
0.0
 40
2.849494
 41
0.0
 71
     1
 72
     2
  1
\fHGPGothicE|b0|i0|c128;\H2.8495;\C7;\U+770C
  7
STD
210
0.0
220
0.0
230
1.0
 11
1.0
 21
0.0
 31
0.0
 73
     1
 44
1.0
  0
MTEXT
  5
17A
100
AcDbEntity
  8
レイヤー_1
 62
     7
100
AcDbMText
 10
362.841591
 20
25.878924
 30
0.0
 40
2.849494
 41
0.0
 71
     1
 72
     2
  1
\fHGPGothicE|b0|i0|c128;\H2.8495;\C7;\U+6D77
  7
STD
210
0.0
220
0.0
230
1.0
 11
1.0
 21
0.0
 31
0.0
 73
     1
 44
1.0
  0
MTEXT
  5
179
100
AcDbEntity
  8
レイヤー_1
 62
     7
100
AcDbMText
 10
366.671159
 20
25.878924
 30
0.0
 40
2.849494
 41
0.0
 71
     1
 72
     2
  1
\fHGPGothicE|b0|i0|c128;\H2.8495;\C7;\U+5357
  7
STD
210
0.0
220
0.0
230
1.0
 11
1.0
 21
0.0
 31
0.0
 73
     1
 44
1.0
  0
MTEXT
  5
178
100
AcDbEntity
  8
レイヤー_1
 62
     7
100
AcDbMText
 10
370.501072
 20
25.878924
 30
0.0
 40
2.849494
 41
0.0
 71
     1
 72
     2
  1
\fHGPGothicE|b0|i0|c128;\H2.8495;\C7;\U+5E02
  7
STD
210
0.0
220
0.0
230
1.0
 11
1.0
 21
0.0
 31
0.0
 73
     1
 44
1.0
  0
MTEXT
  5
177
100
AcDbEntity
  8
レイヤー_1
 62
     7
100
AcDbMText
 10
374.33064
 20
25.878924
 30
0.0
 40
2.849494
 41
0.0
 71
     1
 72
     2
  1
\fHGPGothicE|b0|i0|c128;\H2.8495;\C7;\U+5357
  7
STD
210
0.0
220
0.0
230
1.0
 11
1.0
 21
0.0
 31
0.0
 73
     1
 44
1.0
  0
MTEXT
  5
176
100
AcDbEntity
  8
レイヤー_1
 62
     7
100
AcDbMText
 10
378.160552
 20
25.878924
 30
0.0
 40
2.849494
 41
0.0
 71
     1
 72
     2
  1
\fHGPGothicE|b0|i0|c128;\H2.8495;\C7;\U+8D64
  7
STD
210
0.0
220
0.0
230
1.0
 11
1.0
 21
0.0
 31
0.0
 73
     1
 44
1.0
  0
MTEXT
  5
175
100
AcDbEntity
  8
レイヤー_1
 62
     7
100
AcDbMText
 10
381.99012
 20
25.878924
 30
0.0
 40
2.849494
 41
0.0
 71
     1
 72
     2
  1
\fHGPGothicE|b0|i0|c128;\H2.8495;\C7;\U+5742
  7
STD
210
0.0
220
0.0
230
1.0
 11
1.0
 21
0.0
 31
0.0
 73
     1
 44
1.0
  0
MTEXT
  5
174
100
AcDbEntity
  8
レイヤー_1
 62
     7
100
AcDbMText
 10
385.820033
 20
25.878924
 30
0.0
 40
2.849494
 41
0.0
 71
     1
 72
     2
  1
\fHGPGothicE|b0|i0|c128;\H2.8495;\C7;\U+FF12
  7
STD
210
0.0
220
0.0
230
1.0
 11
1.0
 21
0.0
 31
0.0
 73
     1
 44
1.0
  0
MTEXT
  5
173
100
AcDbEntity
  8
レイヤー_1
 62
     7
100
AcDbMText
 10
388.2881
 20
25.878924
 30
0.0
 40
2.849494
 41
0.0
 71
     1
 72
     2
  1
\fHGPGothicE|b0|i0|c128;\H2.8495;\C7;\U+FF10
  7
STD
210
0.0
220
0.0
230
1.0
 11
1.0
 21
0.0
 31
0.0
 73
     1
 44
1.0
  0
MTEXT
  5
172
100
AcDbEntity
  8
レイヤー_1
 62
     7
100
AcDbMText
 10
390.75651
 20
25.878924
 30
0.0
 40
2.849494
 41
0.0
 71
     1
 72
     2
  1
\fHGPGothicE|b0|i0|c128;\H2.8495;\C7;\U+002D
  7
STD
210
0.0
220
0.0
230
1.0
 11
1.0
 21
0.0
 31
0.0
 73
     1
 44
1.0
  0
MTEXT
  5
171
100
AcDbEntity
  8
レイヤー_1
 62
     7
100
AcDbMText
 10
392.028095
 20
25.878924
 30
0.0
 40
2.849494
 41
0.0
 71
     1
 72
     2
  1
\fHGPGothicE|b0|i0|c128;\H2.8495;\C7;\U+FF11
  7
STD
210
0.0
220
0.0
230
1.0
 11
1.0
 21
0.0
 31
0.0
 73
     1
 44
1.0
  0
MTEXT
  5
170
100
AcDbEntity
  8
レイヤー_1
 62
     7
100
AcDbMText
 10
347.522629
 20
21.343456
 30
0.0
 40
2.849494
 41
0.0
 71
     1
 72
     2
  1
\fHGPGothicE|b0|i0|c128;\H2.8495;\C7;\U+FF34
  7
STD
210
0.0
220
0.0
230
1.0
 11
1.0
 21
0.0
 31
0.0
 73
     1
 44
1.0
  0
MTEXT
  5
16F
100
AcDbEntity
  8
レイヤー_1
 62
     7
100
AcDbMText
 10
350.260791
 20
21.343456
 30
0.0
 40
2.849494
 41
0.0
 71
     1
 72
     2
  1
\fHGPGothicE|b0|i0|c128;\H2.8495;\C7;\U+FF25
  7
STD
210
0.0
220
0.0
230
1.0
 11
1.0
 21
0.0
 31
0.0
 73
     1
 44
1.0
  0
MTEXT
  5
16E
100
AcDbEntity
  8
レイヤー_1
 62
     7
100
AcDbMText
 10
353.029614
 20
21.343456
 30
0.0
 40
2.849494
 41
0.0
 71
     1
 72
     2
  1
\fHGPGothicE|b0|i0|c128;\H2.8495;\C7;\U+FF2C
  7
STD
210
0.0
220
0.0
230
1.0
 11
1.0
 21
0.0
 31
0.0
 73
     1
 44
1.0
  0
MTEXT
  5
16D
100
AcDbEntity
  8
レイヤー_1
 62
     7
100
AcDbMText
 10
355.634106
 20
21.343456
 30
0.0
 40
2.849494
 41
0.0
 71
     1
 72
     2
  1
\fHGPGothicE|b0|i0|c128;\H2.8495;\C7;\U+002E
  7
STD
210
0.0
220
0.0
230
1.0
 11
1.0
 21
0.0
 31
0.0
 73
     1
 44
1.0
  0
MTEXT
  5
16C
100
AcDbEntity
  8
レイヤー_1
 62
     7
100
AcDbMText
 10
356.488146
 20
21.343456
 30
0.0
 40
2.849494
 41
0.0
 71
     1
 72
     2
  1
\fHGPGothicE|b0|i0|c128;\H2.8495;\C7;\U+0020
  7
STD
210
0.0
220
0.0
230
1.0
 11
1.0
 21
0.0
 31
0.0
 73
     1
 44
1.0
  0
MTEXT
  5
16B
100
AcDbEntity
  8
レイヤー_1
 62
     7
100
AcDbMText
 10
357.759386
 20
21.343456
 30
0.0
 40
2.849494
 41
0.0
 71
     1
 72
     2
  1
\fHGPGothicE|b0|i0|c128;\H2.8495;\C7;\U+0020
  7
STD
210
0.0
220
0.0
230
1.0
 11
1.0
 21
0.0
 31
0.0
 73
     1
 44
1.0
  0
MTEXT
  5
16A
100
AcDbEntity
  8
レイヤー_1
 62
     7
100
AcDbMText
 10
347.522629
 20
16.808332
 30
0.0
 40
2.849494
 41
0.0
 71
     1
 72
     2
  1
\fHGPGothicE|b0|i0|c128;\H2.8495;\C7;\U+FF26
  7
STD
210
0.0
220
0.0
230
1.0
 11
1.0
 21
0.0
 31
0.0
 73
     1
 44
1.0
  0
MTEXT
  5
169
100
AcDbEntity
  8
レイヤー_1
 62
     7
100
AcDbMText
 10
350.080957
 20
16.808332
 30
0.0
 40
2.849494
 41
0.0
 71
     1
 72
     2
  1
\fHGPGothicE|b0|i0|c128;\H2.8495;\C7;\U+FF21
  7
STD
210
0.0
220
0.0
230
1.0
 11
1.0
 21
0.0
 31
0.0
 73
     1
 44
1.0
  0
MTEXT
  5
168
100
AcDbEntity
  8
レイヤー_1
 62
     7
100
AcDbMText
 10
353.385837
 20
16.808332
 30
0.0
 40
2.849494
 41
0.0
 71
     1
 72
     2
  1
\fHGPGothicE|b0|i0|c128;\H2.8495;\C7;\U+FF38
  7
STD
210
0.0
220
0.0
230
1.0
 11
1.0
 21
0.0
 31
0.0
 73
     1
 44
1.0
  0
MTEXT
  5
167
100
AcDbEntity
  8
レイヤー_1
 62
     7
100
AcDbMText
 10
356.541545
 20
16.808332
 30
0.0
 40
2.849494
 41
0.0
 71
     1
 72
     2
  1
\fHGPGothicE|b0|i0|c128;\H2.8495;\C7;\U+002E
  7
STD
210
0.0
220
0.0
230
1.0
 11
1.0
 21
0.0
 31
0.0
 73
     1
 44
1.0
  0
MTEXT
  5
166
100
AcDbEntity
  8
レイヤー_1
 62
     7
100
AcDbMText
 10
357.395584
 20
16.808332
 30
0.0
 40
2.849494
 41
0.0
 71
     1
 72
     2
  1
\fHGPGothicE|b0|i0|c128;\H2.8495;\C7;\U+0020
  7
STD
210
0.0
220
0.0
230
1.0
 11
1.0
 21
0.0
 31
0.0
 73
     1
 44
1.0
  0
MTEXT
  5
165
100
AcDbEntity
  8
レイヤー_1
 62
     7
100
AcDbMText
 10
361.094238
 20
20.869755
 30
0.0
 40
2.849494
 41
0.0
 71
     1
 72
     2
  1
\fHGPGothicE|b0|i0|c128;\H2.8495;\C7;\U+FF10
  7
STD
210
0.0
220
0.0
230
1.0
 11
1.0
 21
0.0
 31
0.0
 73
     1
 44
1.0
  0
MTEXT
  5
164
100
AcDbEntity
  8
レイヤー_1
 62
     7
100
AcDbMText
 10
363.673581
 20
20.869755
 30
0.0
 40
2.849494
 41
0.0
 71
     1
 72
     2
  1
\fHGPGothicE|b0|i0|c128;\H2.8495;\C7;\U+FF17
  7
STD
210
0.0
220
0.0
230
1.0
 11
1.0
 21
0.0
 31
0.0
 73
     1
 44
1.0
  0
MTEXT
  5
163
100
AcDbEntity
  8
レイヤー_1
 62
     7
100
AcDbMText
 10
366.254647
 20
20.869755
 30
0.0
 40
2.849494
 41
0.0
 71
     1
 72
     2
  1
\fHGPGothicE|b0|i0|c128;\H2.8495;\C7;\U+FF13
  7
STD
210
0.0
220
0.0
230
1.0
 11
1.0
 21
0.0
 31
0.0
 73
     1
 44
1.0
  0
MTEXT
  5
162
100
AcDbEntity
  8
レイヤー_1
 62
     7
100
AcDbMText
 10
368.832612
 20
20.869755
 30
0.0
 40
2.849494
 41
0.0
 71
     1
 72
     2
  1
\fHGPGothicE|b0|i0|c128;\H2.8495;\C7;\U+002D
  7
STD
210
0.0
220
0.0
230
1.0
 11
1.0
 21
0.0
 31
0.0
 73
     1
 44
1.0
  0
MTEXT
  5
161
100
AcDbEntity
  8
レイヤー_1
 62
     7
100
AcDbMText
 10
370.215129
 20
20.869755
 30
0.0
 40
2.849494
 41
0.0
 71
     1
 72
     2
  1
\fHGPGothicE|b0|i0|c128;\H2.8495;\C7;\U+FF14
  7
STD
210
0.0
220
0.0
230
1.0
 11
1.0
 21
0.0
 31
0.0
 73
     1
 44
1.0
  0
MTEXT
  5
160
100
AcDbEntity
  8
レイヤー_1
 62
     7
100
AcDbMText
 10
372.794472
 20
20.869755
 30
0.0
 40
2.849494
 41
0.0
 71
     1
 72
     2
  1
\fHGPGothicE|b0|i0|c128;\H2.8495;\C7;\U+FF18
  7
STD
210
0.0
220
0.0
230
1.0
 11
1.0
 21
0.0
 31
0.0
 73
     1
 44
1.0
  0
MTEXT
  5
15F
100
AcDbEntity
  8
レイヤー_1
 62
     7
100
AcDbMText
 10
375.375882
 20
20.869755
 30
0.0
 40
2.849494
 41
0.0
 71
     1
 72
     2
  1
\fHGPGothicE|b0|i0|c128;\H2.8495;\C7;\U+FF12
  7
STD
210
0.0
220
0.0
230
1.0
 11
1.0
 21
0.0
 31
0.0
 73
     1
 44
1.0
  0
MTEXT
  5
15E
100
AcDbEntity
  8
レイヤー_1
 62
     7
100
AcDbMText
 10
377.953502
 20
20.869755
 30
0.0
 40
2.849494
 41
0.0
 71
     1
 72
     2
  1
\fHGPGothicE|b0|i0|c128;\H2.8495;\C7;\U+002D
  7
STD
210
0.0
220
0.0
230
1.0
 11
1.0
 21
0.0
 31
0.0
 73
     1
 44
1.0
  0
MTEXT
  5
15D
100
AcDbEntity
  8
レイヤー_1
 62
     7
100
AcDbMText
 10
379.336019
 20
20.869755
 30
0.0
 40
2.849494
 41
0.0
 71
     1
 72
     2
  1
\fHGPGothicE|b0|i0|c128;\H2.8495;\C7;\U+FF14
  7
STD
210
0.0
220
0.0
230
1.0
 11
1.0
 21
0.0
 31
0.0
 73
     1
 44
1.0
  0
MTEXT
  5
15C
100
AcDbEntity
  8
レイヤー_1
 62
     7
100
AcDbMText
 10
381.917429
 20
20.869755
 30
0.0
 40
2.849494
 41
0.0
 71
     1
 72
     2
  1
\fHGPGothicE|b0|i0|c128;\H2.8495;\C7;\U+FF11
  7
STD
210
0.0
220
0.0
230
1.0
 11
1.0
 21
0.0
 31
0.0
 73
     1
 44
1.0
  0
MTEXT
  5
15B
100
AcDbEntity
  8
レイヤー_1
 62
     7
100
AcDbMText
 10
384.495049
 20
20.869755
 30
0.0
 40
2.849494
 41
0.0
 71
     1
 72
     2
  1
\fHGPGothicE|b0|i0|c128;\H2.8495;\C7;\U+FF12
  7
STD
210
0.0
220
0.0
230
1.0
 11
1.0
 21
0.0
 31
0.0
 73
     1
 44
1.0
  0
MTEXT
  5
15A
100
AcDbEntity
  8
レイヤー_1
 62
     7
100
AcDbMText
 10
387.074392
 20
20.869755
 30
0.0
 40
2.849494
 41
0.0
 71
     1
 72
     2
  1
\fHGPGothicE|b0|i0|c128;\H2.8495;\C7;\U+FF18
  7
STD
210
0.0
220
0.0
230
1.0
 11
1.0
 21
0.0
 31
0.0
 73
     1
 44
1.0
  0
MTEXT
  5
159
100
AcDbEntity
  8
レイヤー_1
 62
     7
100
AcDbMText
 10
389.653735
 20
20.869755
 30
0.0
 40
2.849494
 41
0.0
 71
     1
 72
     2
  1
\fHGPGothicE|b0|i0|c128;\H2.8495;\C7;\U+FF08
  7
STD
210
0.0
220
0.0
230
1.0
 11
1.0
 21
0.0
 31
0.0
 73
     1
 44
1.0
  0
MTEXT
  5
158
100
AcDbEntity
  8
レイヤー_1
 62
     7
100
AcDbMText
 10
391.679796
 20
20.869755
 30
0.0
 40
2.849494
 41
0.0
 71
     1
 72
     2
  1
\fHGPGothicE|b0|i0|c128;\H2.8495;\C7;\U+4EE3
  7
STD
210
0.0
220
0.0
230
1.0
 11
1.0
 21
0.0
 31
0.0
 73
     1
 44
1.0
  0
MTEXT
  5
157
100
AcDbEntity
  8
レイヤー_1
 62
     7
100
AcDbMText
 10
395.620641
 20
20.869755
 30
0.0
 40
2.849494
 41
0.0
 71
     1
 72
     2
  1
\fHGPGothicE|b0|i0|c128;\H2.8495;\C7;\U+FF09
  7
STD
210
0.0
220
0.0
230
1.0
 11
1.0
 21
0.0
 31
0.0
 73
     1
 44
1.0
  0
MTEXT
  5
156
100
AcDbEntity
  8
レイヤー_1
 62
     7
100
AcDbMText
 10
361.094238
 20
16.334631
 30
0.0
 40
2.849494
 41
0.0
 71
     1
 72
     2
  1
\fHGPGothicE|b0|i0|c128;\H2.8495;\C7;\U+FF10
  7
STD
210
0.0
220
0.0
230
1.0
 11
1.0
 21
0.0
 31
0.0
 73
     1
 44
1.0
  0
MTEXT
  5
155
100
AcDbEntity
  8
レイヤー_1
 62
     7
100
AcDbMText
 10
363.673581
 20
16.334631
 30
0.0
 40
2.849494
 41
0.0
 71
     1
 72
     2
  1
\fHGPGothicE|b0|i0|c128;\H2.8495;\C7;\U+FF17
  7
STD
210
0.0
220
0.0
230
1.0
 11
1.0
 21
0.0
 31
0.0
 73
     1
 44
1.0
  0
MTEXT
  5
154
100
AcDbEntity
  8
レイヤー_1
 62
     7
100
AcDbMText
 10
366.254647
 20
16.334631
 30
0.0
 40
2.849494
 41
0.0
 71
     1
 72
     2
  1
\fHGPGothicE|b0|i0|c128;\H2.8495;\C7;\U+FF13
  7
STD
210
0.0
220
0.0
230
1.0
 11
1.0
 21
0.0
 31
0.0
 73
     1
 44
1.0
  0
MTEXT
  5
153
100
AcDbEntity
  8
レイヤー_1
 62
     7
100
AcDbMText
 10
368.832612
 20
16.334631
 30
0.0
 40
2.849494
 41
0.0
 71
     1
 72
     2
  1
\fHGPGothicE|b0|i0|c128;\H2.8495;\C7;\U+002D
  7
STD
210
0.0
220
0.0
230
1.0
 11
1.0
 21
0.0
 31
0.0
 73
     1
 44
1.0
  0
MTEXT
  5
152
100
AcDbEntity
  8
レイヤー_1
 62
     7
100
AcDbMText
 10
370.215129
 20
16.334631
 30
0.0
 40
2.849494
 41
0.0
 71
     1
 72
     2
  1
\fHGPGothicE|b0|i0|c128;\H2.8495;\C7;\U+FF14
  7
STD
210
0.0
220
0.0
230
1.0
 11
1.0
 21
0.0
 31
0.0
 73
     1
 44
1.0
  0
MTEXT
  5
151
100
AcDbEntity
  8
レイヤー_1
 62
     7
100
AcDbMText
 10
372.794472
 20
16.334631
 30
0.0
 40
2.849494
 41
0.0
 71
     1
 72
     2
  1
\fHGPGothicE|b0|i0|c128;\H2.8495;\C7;\U+FF18
  7
STD
210
0.0
220
0.0
230
1.0
 11
1.0
 21
0.0
 31
0.0
 73
     1
 44
1.0
  0
MTEXT
  5
150
100
AcDbEntity
  8
レイヤー_1
 62
     7
100
AcDbMText
 10
375.375882
 20
16.334631
 30
0.0
 40
2.849494
 41
0.0
 71
     1
 72
     2
  1
\fHGPGothicE|b0|i0|c128;\H2.8495;\C7;\U+FF16
  7
STD
210
0.0
220
0.0
230
1.0
 11
1.0
 21
0.0
 31
0.0
 73
     1
 44
1.0
  0
MTEXT
  5
14F
100
AcDbEntity
  8
レイヤー_1
 62
     7
100
AcDbMText
 10
377.953502
 20
16.334631
 30
0.0
 40
2.849494
 41
0.0
 71
     1
 72
     2
  1
\fHGPGothicE|b0|i0|c128;\H2.8495;\C7;\U+002D
  7
STD
210
0.0
220
0.0
230
1.0
 11
1.0
 21
0.0
 31
0.0
 73
     1
 44
1.0
  0
MTEXT
  5
14E
100
AcDbEntity
  8
レイヤー_1
 62
     7
100
AcDbMText
 10
379.336019
 20
16.334631
 30
0.0
 40
2.849494
 41
0.0
 71
     1
 72
     2
  1
\fHGPGothicE|b0|i0|c128;\H2.8495;\C7;\U+FF12
  7
STD
210
0.0
220
0.0
230
1.0
 11
1.0
 21
0.0
 31
0.0
 73
     1
 44
1.0
  0
MTEXT
  5
14D
100
AcDbEntity
  8
レイヤー_1
 62
     7
100
AcDbMText
 10
381.917429
 20
16.334631
 30
0.0
 40
2.849494
 41
0.0
 71
     1
 72
     2
  1
\fHGPGothicE|b0|i0|c128;\H2.8495;\C7;\U+FF15
  7
STD
210
0.0
220
0.0
230
1.0
 11
1.0
 21
0.0
 31
0.0
 73
     1
 44
1.0
  0
MTEXT
  5
14C
100
AcDbEntity
  8
レイヤー_1
 62
     7
100
AcDbMText
 10
384.495049
 20
16.334631
 30
0.0
 40
2.849494
 41
0.0
 71
     1
 72
     2
  1
\fHGPGothicE|b0|i0|c128;\H2.8495;\C7;\U+FF16
  7
STD
210
0.0
220
0.0
230
1.0
 11
1.0
 21
0.0
 31
0.0
 73
     1
 44
1.0
  0
MTEXT
  5
14B
100
AcDbEntity
  8
レイヤー_1
 62
     7
100
AcDbMText
 10
387.074392
 20
16.334631
 30
0.0
 40
2.849494
 41
0.0
 71
     1
 72
     2
  1
\fHGPGothicE|b0|i0|c128;\H2.8495;\C7;\U+FF10
  7
STD
210
0.0
220
0.0
230
1.0
 11
1.0
 21
0.0
 31
0.0
 73
     1
 44
1.0
  0
MTEXT
  5
14A
100
AcDbEntity
  8
レイヤー_1
 62
     7
100
AcDbMText
 10
389.653735
 20
16.334631
 30
0.0
 40
2.849494
 41
0.0
 71
     1
 72
     2
  1
\fHGPGothicE|b0|i0|c128;\H2.8495;\C7;\U+FF08
  7
STD
210
0.0
220
0.0
230
1.0
 11
1.0
 21
0.0
 31
0.0
 73
     1
 44
1.0
  0
MTEXT
  5
149
100
AcDbEntity
  8
レイヤー_1
 62
     7
100
AcDbMText
 10
391.679796
 20
16.334631
 30
0.0
 40
2.849494
 41
0.0
 71
     1
 72
     2
  1
\fHGPGothicE|b0|i0|c128;\H2.8495;\C7;\U+4EE3
  7
STD
210
0.0
220
0.0
230
1.0
 11
1.0
 21
0.0
 31
0.0
 73
     1
 44
1.0
  0
MTEXT
  5
148
100
AcDbEntity
  8
レイヤー_1
 62
     7
100
AcDbMText
 10
395.620641
 20
16.334631
 30
0.0
 40
2.849494
 41
0.0
 71
     1
 72
     2
  1
\fHGPGothicE|b0|i0|c128;\H2.8495;\C7;\U+FF09
  7
STD
210
0.0
220
0.0
230
1.0
 11
1.0
 21
0.0
 31
0.0
 73
     1
 44
1.0
  0
HATCH
  5
147
100
AcDbEntity
  8
レイヤー_1
 62
     7
100
AcDbHatch
 10
0.0
 20
0.0
 30
0.0
210
0.0
220
0.0
230
1.0
  2
SOLID
 70
     1
 71
     0
 91
        3
 92
        1
 93
        1
 72
     4
 94
        3
 73
     0
 74
     0
 95
       23
 96
       19
 40
0.0
 40
0.0
 40
0.0
 40
0.0
 40
1.0
 40
1.0
 40
1.0
 40
2.0
 40
2.0
 40
2.0
 40
3.0
 40
3.0
 40
3.0
 40
4.0
 40
4.0
 40
4.0
 40
5.0
 40
5.0
 40
5.0
 40
6.0
 40
6.0
 40
6.0
 40
6.0
 10
349.74264865451386
 20
30.684087456597219
 10
349.74264865451386
 20
30.684087456597219
 10
349.74264865451386
 20
29.858642578124996
 10
349.74264865451386
 20
29.858642578124996
 10
349.64205186631943
 20
29.988867187499999
 10
349.33268229166663
 20
30.39883355034722
 10
349.17834201388888
 20
30.778483072916664
 10
349.17834201388888
 20
30.778483072916664
 10
349.17834201388888
 20
31.039621310763884
 10
349.17834201388888
 20
31.039621310763884
 10
349.17834201388888
 20
31.039621310763884
 10
349.72404513888887
 20
31.039621310763884
 10
349.72404513888887
 20
31.039621310763884
 10
349.72404513888887
 20
31.039621310763884
 10
350.18155381944439
 20
30.684087456597219
 10
350.18155381944439
 20
30.684087456597219
 10
350.18155381944439
 20
30.684087456597219
 10
349.74264865451386
 20
30.684087456597219
 10
349.74264865451386
 20
30.684087456597219
 97
        0
 92
       16
 93
        1
 72
     4
 94
        3
 73
     0
 74
     0
 95
      128
 96
      124
 40
0.0
 40
0.0
 40
0.0
 40
0.0
 40
1.0
 40
1.0
 40
1.0
 40
2.0
 40
2.0
 40
2.0
 40
3.0
 40
3.0
 40
3.0
 40
4.0
 40
4.0
 40
4.0
 40
5.0
 40
5.0
 40
5.0
 40
6.0
 40
6.0
 40
6.0
 40
7.0
 40
7.0
 40
7.0
 40
8.0
 40
8.0
 40
8.0
 40
9.0
 40
9.0
 40
9.0
 40
10.0
 40
10.0
 40
10.0
 40
11.0
 40
11.0
 40
11.0
 40
12.0
 40
12.0
 40
12.0
 40
13.0
 40
13.0
 40
13.0
 40
14.0
 40
14.0
 40
14.0
 40
15.0
 40
15.0
 40
15.0
 40
16.0
 40
16.0
 40
16.0
 40
17.0
 40
17.0
 40
17.0
 40
18.0
 40
18.0
 40
18.0
 40
19.0
 40
19.0
 40
19.0
 40
20.0
 40
20.0
 40
20.0
 40
21.0
 40
21.0
 40
21.0
 40
22.0
 40
22.0
 40
22.0
 40
23.0
 40
23.0
 40
23.0
 40
24.0
 40
24.0
 40
24.0
 40
25.0
 40
25.0
 40
25.0
 40
26.0
 40
26.0
 40
26.0
 40
27.0
 40
27.0
 40
27.0
 40
28.0
 40
28.0
 40
28.0
 40
29.0
 40
29.0
 40
29.0
 40
30.0
 40
30.0
 40
30.0
 40
31.0
 40
31.0
 40
31.0
 40
32.0
 40
32.0
 40
32.0
 40
33.0
 40
33.0
 40
33.0
 40
34.0
 40
34.0
 40
34.0
 40
35.0
 40
35.0
 40
35.0
 40
36.0
 40
36.0
 40
36.0
 40
37.0
 40
37.0
 40
37.0
 40
38.0
 40
38.0
 40
38.0
 40
39.0
 40
39.0
 40
39.0
 40
40.0
 40
40.0
 40
40.0
 40
41.0
 40
41.0
 40
41.0
 40
41.0
 10
350.80442708333328
 20
32.090375434027777
 10
350.86506076388883
 20
32.357714843749996
 10
350.89399956597219
 20
32.505164930555551
 10
350.92362738715275
 20
32.654682074652776
 10
350.92362738715275
 20
32.654682074652776
 10
350.12229817708328
 20
32.725651041666666
 10
350.12229817708328
 20
32.725651041666666
 10
350.03961588541665
 20
32.113802083333333
 10
349.8549587673611
 20
31.704524739583331
 10
349.74264865451386
 20
31.490239800347219
 10
349.74264865451386
 20
31.490239800347219
 10
349.74264865451386
 20
31.858865017361108
 10
349.74264865451386
 20
31.858865017361108
 10
349.74264865451386
 20
31.858865017361108
 10
349.17834201388888
 20
31.858865017361108
 10
349.17834201388888
 20
31.858865017361108
 10
349.17834201388888
 20
31.858865017361108
 10
349.17834201388888
 20
32.837961154513884
 10
349.17834201388888
 20
32.837961154513884
 10
349.17834201388888
 20
32.837961154513884
 10
348.35978732638887
 20
32.837961154513884
 10
348.35978732638887
 20
32.837961154513884
 10
348.35978732638887
 20
32.837961154513884
 10
348.35978732638887
 20
31.858865017361108
 10
348.35978732638887
 20
31.858865017361108
 10
348.35978732638887
 20
31.858865017361108
 10
347.63493923611105
 20
31.858865017361108
 10
347.63493923611105
 20
31.858865017361108
 10
347.63493923611105
 20
31.858865017361108
 10
347.63493923611105
 20
31.039621310763884
 10
347.63493923611105
 20
31.039621310763884
 10
347.63493923611105
 20
31.039621310763884
 10
348.29433051215273
 20
31.039621310763884
 10
348.29433051215273
 20
31.039621310763884
 10
348.02699110243054
 20
30.108067491319442
 10
347.76585286458328
 20
29.71670464409722
 10
347.52262912326387
 20
29.413536241319441
 10
347.52262912326387
 20
29.413536241319441
 10
347.80168185763887
 20
28.244959852430554
 10
347.80168185763887
 20
28.244959852430554
 10
347.94430881076386
 20
28.451665581597219
 10
348.1634168836805
 20
28.789973958333331
 10
348.35978732638887
 20
29.466590711805551
 10
348.35978732638887
 20
29.466590711805551
 10
348.35978732638887
 20
27.216943359374998
 10
348.35978732638887
 20
27.216943359374998
 10
348.35978732638887
 20
27.216943359374998
 10
349.17834201388888
 20
27.216943359374998
 10
349.17834201388888
 20
27.216943359374998
 10
349.17834201388888
 20
27.216943359374998
 10
349.17834201388888
 20
29.692588975694441
 10
349.17834201388888
 20
29.692588975694441
 10
349.23759765624999
 20
29.450054253472221
 10
349.26791449652774
 20
29.324652777777775
 10
349.51665039062499
 20
28.861631944444444
 10
349.51665039062499
 20
28.861631944444444
 10
350.02790256076383
 20
29.538248697916664
 10
350.02790256076383
 20
29.538248697916664
 10
349.93833007812498
 20
29.620930989583332
 10
349.87356228298609
 20
29.687076822916666
 10
349.75436197916662
 20
29.834526909722218
 10
349.75436197916662
 20
29.834526909722218
 10
350.80442708333328
 20
29.834526909722218
 10
350.80442708333328
 20
29.834526909722218
 10
350.31866861979165
 20
28.949826388888887
 10
349.7130208333333
 20
28.540549045138885
 10
349.46910807291664
 20
28.386208767361108
 10
349.46910807291664
 20
28.386208767361108
 10
349.99138454861105
 20
27.549739583333331
 10
349.99138454861105
 20
27.549739583333331
 10
350.46611870659717
 20
27.983132595486108
 10
350.84094509548606
 20
28.487494574652775
 10
351.11310763888883
 20
29.075227864583329
 10
351.11310763888883
 20
29.075227864583329
 10
351.11310763888883
 20
27.216943359374998
 10
351.11310763888883
 20
27.216943359374998
 10
351.11310763888883
 20
27.216943359374998
 10
351.96197916666665
 20
27.216943359374998
 10
351.96197916666665
 20
27.216943359374998
 10
351.96197916666665
 20
27.216943359374998
 10
351.96197916666665
 20
28.939491102430551
 10
351.96197916666665
 20
28.939491102430551
 10
352.2114040798611
 20
28.411013454861109
 10
352.5504014756944
 20
27.923187934027776
 10
353.01342230902776
 20
27.560763888888886
 10
353.01342230902776
 20
27.560763888888886
 10
353.36275499131943
 20
28.564664713541664
 10
353.36275499131943
 20
28.564664713541664
 10
353.10161675347217
 20
28.742431640624996
 10
352.63859592013887
 20
29.075227864583329
 10
352.20589192708331
 20
29.834526909722218
 10
352.20589192708331
 20
29.834526909722218
 10
353.25595703124998
 20
29.834526909722218
 10
353.25595703124998
 20
29.834526909722218
 10
353.25595703124998
 20
29.834526909722218
 10
353.25595703124998
 20
30.684087456597219
 10
353.25595703124998
 20
30.684087456597219
 10
353.25595703124998
 20
30.684087456597219
 10
351.96197916666665
 20
30.684087456597219
 10
351.96197916666665
 20
30.684087456597219
 10
351.96197916666665
 20
30.684087456597219
 10
351.96197916666665
 20
31.247705078124998
 10
351.96197916666665
 20
31.247705078124998
 10
351.96197916666665
 20
31.247705078124998
 10
353.16707356770831
 20
31.247705078124998
 10
353.16707356770831
 20
31.247705078124998
 10
353.16707356770831
 20
31.247705078124998
 10
353.16707356770831
 20
32.090375434027777
 10
353.16707356770831
 20
32.090375434027777
 10
353.16707356770831
 20
32.090375434027777
 10
351.96197916666665
 20
32.090375434027777
 10
351.96197916666665
 20
32.090375434027777
 10
351.96197916666665
 20
32.090375434027777
 10
351.96197916666665
 20
32.837961154513884
 10
351.96197916666665
 20
32.837961154513884
 10
351.96197916666665
 20
32.837961154513884
 10
351.11310763888883
 20
32.837961154513884
 10
351.11310763888883
 20
32.837961154513884
 10
351.11310763888883
 20
32.837961154513884
 10
351.11310763888883
 20
32.090375434027777
 10
351.11310763888883
 20
32.090375434027777
 10
351.11310763888883
 20
32.090375434027777
 10
350.80442708333328
 20
32.090375434027777
 10
350.80442708333328
 20
32.090375434027777
 97
        0
 92
        1
 93
        1
 72
     4
 94
        3
 73
     0
 74
     0
 95
       17
 96
       13
 40
0.0
 40
0.0
 40
0.0
 40
0.0
 40
1.0
 40
1.0
 40
1.0
 40
2.0
 40
2.0
 40
2.0
 40
3.0
 40
3.0
 40
3.0
 40
4.0
 40
4.0
 40
4.0
 40
4.0
 10
350.25252278645831
 20
30.684087456597219
 10
350.34209526909717
 20
30.814312065972221
 10
350.44889322916663
 20
31.004481336805554
 10
350.5501790364583
 20
31.247705078124998
 10
350.5501790364583
 20
31.247705078124998
 10
351.11310763888883
 20
31.247705078124998
 10
351.11310763888883
 20
31.247705078124998
 10
351.11310763888883
 20
31.247705078124998
 10
351.11310763888883
 20
30.684087456597219
 10
351.11310763888883
 20
30.684087456597219
 10
351.11310763888883
 20
30.684087456597219
 10
350.25252278645831
 20
30.684087456597219
 10
350.25252278645831
 20
30.684087456597219
 97
        0
 75
     2
 76
     1
 98
        1
 10
0.0
 20
0.0
  0
HATCH
  5
146
100
AcDbEntity
  8
レイヤー_1
 62
     7
100
AcDbHatch
 10
0.0
 20
0.0
 30
0.0
210
0.0
220
0.0
230
1.0
  2
SOLID
 70
     1
 71
     0
 91
        2
 92
        1
 93
        1
 72
     4
 94
        3
 73
     0
 74
     0
 95
       71
 96
       67
 40
0.0
 40
0.0
 40
0.0
 40
0.0
 40
1.0
 40
1.0
 40
1.0
 40
2.0
 40
2.0
 40
2.0
 40
3.0
 40
3.0
 40
3.0
 40
4.0
 40
4.0
 40
4.0
 40
5.0
 40
5.0
 40
5.0
 40
6.0
 40
6.0
 40
6.0
 40
7.0
 40
7.0
 40
7.0
 40
8.0
 40
8.0
 40
8.0
 40
9.0
 40
9.0
 40
9.0
 40
10.0
 40
10.0
 40
10.0
 40
11.0
 40
11.0
 40
11.0
 40
12.0
 40
12.0
 40
12.0
 40
13.0
 40
13.0
 40
13.0
 40
14.0
 40
14.0
 40
14.0
 40
15.0
 40
15.0
 40
15.0
 40
16.0
 40
16.0
 40
16.0
 40
17.0
 40
17.0
 40
17.0
 40
18.0
 40
18.0
 40
18.0
 40
19.0
 40
19.0
 40
19.0
 40
20.0
 40
20.0
 40
20.0
 40
21.0
 40
21.0
 40
21.0
 40
22.0
 40
22.0
 40
22.0
 40
22.0
 10
358.62823893229165
 20
32.025607638888886
 10
358.62823893229165
 20
32.025607638888886
 10
359.1856553819444
 20
32.025607638888886
 10
359.1856553819444
 20
32.025607638888886
 10
359.1856553819444
 20
32.025607638888886
 10
359.1856553819444
 20
31.164333767361107
 10
359.1856553819444
 20
31.164333767361107
 10
359.1856553819444
 20
31.164333767361107
 10
357.53545464409717
 20
31.164333767361107
 10
357.53545464409717
 20
31.164333767361107
 10
357.57197265624995
 20
30.416059027777774
 10
357.65465494791664
 20
29.668473307291663
 10
357.89167751736107
 20
28.956716579861109
 10
357.95162217881943
 20
28.778949652777776
 10
358.11078559027777
 20
28.357269965277776
 10
358.28372938368051
 20
28.357269965277776
 10
358.44978298611107
 20
28.357269965277776
 10
358.76948784722219
 20
28.766547309027775
 10
358.90729166666665
 20
29.164111328124996
 10
358.90729166666665
 20
29.164111328124996
 10
359.28694118923607
 20
28.214643012152774
 10
359.28694118923607
 20
28.214643012152774
 10
359.16222873263888
 20
27.870133463541663
 10
358.85906032986105
 20
27.205919053819443
 10
358.30784505208328
 20
27.205919053819443
 10
358.02879231770828
 20
27.205919053819443
 10
357.7435384114583
 20
27.359570312499997
 10
357.58299696180552
 20
27.538715277777776
 10
356.72241210937494
 20
28.487494574652775
 10
356.66315646701383
 20
30.209353298611109
 10
356.6280164930555
 20
31.164333767361107
 10
356.6280164930555
 20
31.164333767361107
 10
353.5887532552083
 20
31.164333767361107
 10
353.5887532552083
 20
31.164333767361107
 10
353.5887532552083
 20
31.164333767361107
 10
353.5887532552083
 20
32.025607638888886
 10
353.5887532552083
 20
32.025607638888886
 10
353.5887532552083
 20
32.025607638888886
 10
356.59838867187494
 20
32.025607638888886
 10
356.59838867187494
 20
32.025607638888886
 10
356.59218749999997
 20
32.113802083333333
 10
356.58047417534721
 20
32.547884114583333
 10
356.57427300347217
 20
32.642279730902771
 10
356.57427300347217
 20
32.696023220486111
 10
356.57427300347217
 20
32.742876519097216
 10
356.56807183159719
 20
32.849674479166666
 10
356.56807183159719
 20
32.849674479166666
 10
357.51822916666663
 20
32.849674479166666
 10
357.51822916666663
 20
32.849674479166666
 10
357.51202799479165
 20
32.381830512152774
 10
357.51202799479165
 20
32.244715711805554
 10
357.51822916666663
 20
32.025607638888886
 10
357.51822916666663
 20
32.025607638888886
 10
358.09976128472221
 20
32.025607638888886
 10
358.09976128472221
 20
32.025607638888886
 10
357.9454210069444
 20
32.250916883680553
 10
357.81450737847217
 20
32.441086154513883
 10
357.6663682725694
 20
32.576822916666664
 10
357.6663682725694
 20
32.576822916666664
 10
358.43255750868053
 20
32.886192491319441
 10
358.43255750868053
 20
32.886192491319441
 10
358.52075195312494
 20
32.820046657986111
 10
358.59792209201385
 20
32.766303168402771
 10
359.00857747395833
 20
32.191661241319444
 10
359.00857747395833
 20
32.191661241319444
 10
358.62823893229165
 20
32.025607638888886
 10
358.62823893229165
 20
32.025607638888886
 97
        0
 92
        1
 93
        1
 72
     4
 94
        3
 73
     0
 74
     0
 95
       44
 96
       40
 40
0.0
 40
0.0
 40
0.0
 40
0.0
 40
1.0
 40
1.0
 40
1.0
 40
2.0
 40
2.0
 40
2.0
 40
3.0
 40
3.0
 40
3.0
 40
4.0
 40
4.0
 40
4.0
 40
5.0
 40
5.0
 40
5.0
 40
6.0
 40
6.0
 40
6.0
 40
7.0
 40
7.0
 40
7.0
 40
8.0
 40
8.0
 40
8.0
 40
9.0
 40
9.0
 40
9.0
 40
10.0
 40
10.0
 40
10.0
 40
11.0
 40
11.0
 40
11.0
 40
12.0
 40
12.0
 40
12.0
 40
13.0
 40
13.0
 40
13.0
 40
13.0
 10
353.53569878472217
 20
28.279410807291665
 10
353.64800889756941
 20
28.285611979166664
 10
353.70726453993052
 20
28.285611979166664
 10
353.78443467881942
 20
28.291813151041666
 10
353.90914713541662
 20
28.298014322916664
 10
354.50859374999999
 20
28.351068793402774
 10
354.64570855034719
 20
28.357269965277776
 10
354.64570855034719
 20
28.357269965277776
 10
354.64570855034719
 20
29.786984592013887
 10
354.64570855034719
 20
29.786984592013887
 10
354.64570855034719
 20
29.786984592013887
 10
353.70106336805554
 20
29.786984592013887
 10
353.70106336805554
 20
29.786984592013887
 10
353.70106336805554
 20
29.786984592013887
 10
353.70106336805554
 20
30.647569444444443
 10
353.70106336805554
 20
30.647569444444443
 10
353.70106336805554
 20
30.647569444444443
 10
356.47918836805553
 20
30.647569444444443
 10
356.47918836805553
 20
30.647569444444443
 10
356.47918836805553
 20
30.647569444444443
 10
356.47918836805553
 20
29.786984592013887
 10
356.47918836805553
 20
29.786984592013887
 10
356.47918836805553
 20
29.786984592013887
 10
355.55314670138887
 20
29.786984592013887
 10
355.55314670138887
 20
29.786984592013887
 10
355.55314670138887
 20
29.786984592013887
 10
355.55314670138887
 20
28.434440104166665
 10
355.55314670138887
 20
28.434440104166665
 10
356.22356228298605
 20
28.499207899305553
 10
356.46747504340277
 20
28.546750217013887
 10
356.68727213541661
 20
28.588091362847219
 10
356.68727213541661
 20
28.588091362847219
 10
356.69829644097217
 20
27.745421006944444
 10
356.69829644097217
 20
27.745421006944444
 10
356.02236870659721
 20
27.602794053819441
 10
355.64823133680551
 20
27.560763888888886
 10
353.63629557291665
 20
27.347856987847219
 10
353.63629557291665
 20
27.347856987847219
 10
353.53569878472217
 20
28.279410807291665
 10
353.53569878472217
 20
28.279410807291665
 97
        0
 75
     2
 76
     1
 98
        1
 10
0.0
 20
0.0
  0
HATCH
  5
145
100
AcDbEntity
  8
レイヤー_1
 62
     7
100
AcDbHatch
 10
0.0
 20
0.0
 30
0.0
210
0.0
220
0.0
230
1.0
  2
SOLID
 70
     1
 71
     0
 91
        4
 92
        1
 93
        1
 72
     4
 94
        3
 73
     0
 74
     0
 95
       23
 96
       19
 40
0.0
 40
0.0
 40
0.0
 40
0.0
 40
1.0
 40
1.0
 40
1.0
 40
2.0
 40
2.0
 40
2.0
 40
3.0
 40
3.0
 40
3.0
 40
4.0
 40
4.0
 40
4.0
 40
5.0
 40
5.0
 40
5.0
 40
6.0
 40
6.0
 40
6.0
 40
6.0
 10
362.92496202256939
 20
28.933289930555553
 10
363.06758897569443
 20
28.760346137152776
 10
363.17507595486109
 20
28.630121527777774
 10
363.41209852430552
 20
28.315239800347218
 10
363.22124023437499
 20
28.309727647569442
 10
362.28486328124995
 20
28.267697482638887
 10
362.07609049479163
 20
28.255984157986109
 10
361.96998155381942
 20
28.25047200520833
 10
361.92243923611107
 20
28.25047200520833
 10
361.49455837673605
 20
28.25047200520833
 10
361.67232530381943
 20
28.606005859374996
 10
361.79152560763885
 20
28.874034288194441
 10
361.95757921006941
 20
29.26470811631944
 10
361.95757921006941
 20
29.26470811631944
 10
363.62569444444443
 20
29.26470811631944
 10
363.62569444444443
 20
29.26470811631944
 10
363.62569444444443
 20
29.26470811631944
 10
362.92496202256939
 20
28.933289930555553
 10
362.92496202256939
 20
28.933289930555553
 97
        0
 92
       16
 93
        1
 72
     4
 94
        3
 73
     0
 74
     0
 95
       44
 96
       40
 40
0.0
 40
0.0
 40
0.0
 40
0.0
 40
1.0
 40
1.0
 40
1.0
 40
2.0
 40
2.0
 40
2.0
 40
3.0
 40
3.0
 40
3.0
 40
4.0
 40
4.0
 40
4.0
 40
5.0
 40
5.0
 40
5.0
 40
6.0
 40
6.0
 40
6.0
 40
7.0
 40
7.0
 40
7.0
 40
8.0
 40
8.0
 40
8.0
 40
9.0
 40
9.0
 40
9.0
 40
10.0
 40
10.0
 40
10.0
 40
11.0
 40
11.0
 40
11.0
 40
12.0
 40
12.0
 40
12.0
 40
13.0
 40
13.0
 40
13.0
 40
13.0
 10
365.0147569444444
 20
27.614507378472219
 10
364.6585340711805
 20
28.178814019097221
 10
364.28439670138886
 20
28.707291666666663
 10
363.76763237847217
 20
29.26470811631944
 10
363.76763237847217
 20
29.26470811631944
 10
364.99615342881941
 20
29.26470811631944
 10
364.99615342881941
 20
29.26470811631944
 10
364.99615342881941
 20
29.26470811631944
 10
364.99615342881941
 20
30.11978081597222
 10
364.99615342881941
 20
30.11978081597222
 10
364.99615342881941
 20
30.11978081597222
 10
359.64316406249998
 20
30.11978081597222
 10
359.64316406249998
 20
30.11978081597222
 10
359.64316406249998
 20
30.11978081597222
 10
359.64316406249998
 20
29.26470811631944
 10
359.64316406249998
 20
29.26470811631944
 10
359.64316406249998
 20
29.26470811631944
 10
360.96608072916661
 20
29.26470811631944
 10
360.96608072916661
 20
29.26470811631944
 10
360.84205729166661
 20
28.87954644097222
 10
360.7049424913194
 20
28.559152560763888
 10
360.55749240451388
 20
28.244959852430554
 10
360.45069444444442
 20
28.244959852430554
 10
359.98698459201387
 20
28.238069661458329
 10
359.89189995659717
 20
28.238069661458329
 10
359.84504665798607
 20
28.238069661458329
 10
359.80301649305551
 20
28.238069661458329
 10
359.6838161892361
 20
28.244959852430554
 10
359.6838161892361
 20
28.244959852430554
 10
359.82713216145828
 20
27.324430338541664
 10
359.82713216145828
 20
27.324430338541664
 10
361.17416449652774
 20
27.365771484374996
 10
361.38224826388887
 20
27.383685980902776
 10
363.91646050347219
 20
27.585568576388887
 10
364.02877061631943
 20
27.400911458333329
 10
364.08251410590276
 20
27.312027994791663
 10
364.15968424479161
 20
27.163888888888888
 10
364.15968424479161
 20
27.163888888888888
 10
365.0147569444444
 20
27.614507378472219
 10
365.0147569444444
 20
27.614507378472219
 97
        0
 92
       16
 93
        1
 72
     4
 94
        3
 73
     0
 74
     0
 95
       35
 96
       31
 40
0.0
 40
0.0
 40
0.0
 40
0.0
 40
1.0
 40
1.0
 40
1.0
 40
2.0
 40
2.0
 40
2.0
 40
3.0
 40
3.0
 40
3.0
 40
4.0
 40
4.0
 40
4.0
 40
5.0
 40
5.0
 40
5.0
 40
6.0
 40
6.0
 40
6.0
 40
7.0
 40
7.0
 40
7.0
 40
8.0
 40
8.0
 40
8.0
 40
9.0
 40
9.0
 40
9.0
 40
10.0
 40
10.0
 40
10.0
 40
10.0
 10
360.74697265624997
 20
30.53594835069444
 10
360.74697265624997
 20
30.53594835069444
 10
363.90474717881943
 20
30.53594835069444
 10
363.90474717881943
 20
30.53594835069444
 10
363.90474717881943
 20
30.53594835069444
 10
363.90474717881943
 20
30.897683376736108
 10
363.90474717881943
 20
30.897683376736108
 10
364.32642686631942
 20
30.642746310763886
 10
364.58136393229165
 20
30.529747178819441
 10
364.78875868055553
 20
30.439485677083329
 10
364.78875868055553
 20
30.439485677083329
 10
365.25246853298609
 20
31.336588541666664
 10
365.25246853298609
 20
31.336588541666664
 10
364.35054253472219
 20
31.675585937499996
 10
363.4954698350694
 20
32.155143229166661
 10
362.86639539930553
 20
32.886192491319441
 10
362.86639539930553
 20
32.886192491319441
 10
361.80944010416664
 20
32.886192491319441
 10
361.80944010416664
 20
32.886192491319441
 10
361.42979058159722
 20
32.350824652777774
 10
360.77108832465274
 20
31.865066189236106
 10
359.39373914930553
 20
31.324186197916664
 10
359.39373914930553
 20
31.324186197916664
 10
359.84504665798607
 20
30.422949218749999
 10
359.84504665798607
 20
30.422949218749999
 10
360.0228135850694
 20
30.493229166666662
 10
360.28326280381941
 20
30.594514973958329
 10
360.74697265624997
 20
30.873567708333329
 10
360.74697265624997
 20
30.873567708333329
 10
360.74697265624997
 20
30.53594835069444
 10
360.74697265624997
 20
30.53594835069444
 97
        0
 92
        1
 93
        1
 72
     4
 94
        3
 73
     0
 74
     0
 95
       14
 96
       10
 40
0.0
 40
0.0
 40
0.0
 40
0.0
 40
1.0
 40
1.0
 40
1.0
 40
2.0
 40
2.0
 40
2.0
 40
3.0
 40
3.0
 40
3.0
 40
3.0
 10
361.41738823784721
 20
31.330387369791662
 10
361.98100585937499
 20
31.758268229166664
 10
362.18357747395828
 20
31.983577473958331
 10
362.3324055989583
 20
32.166856553819443
 10
362.50948350694443
 20
31.971864149305553
 10
362.74099392361109
 20
31.722439236111107
 10
363.25775824652777
 20
31.330387369791662
 10
363.25775824652777
 20
31.330387369791662
 10
361.41738823784721
 20
31.330387369791662
 10
361.41738823784721
 20
31.330387369791662
 97
        0
 75
     2
 76
     1
 98
        1
 10
0.0
 20
0.0
  0
HATCH
  5
144
100
AcDbEntity
  8
レイヤー_1
 62
     7
100
AcDbHatch
 10
0.0
 20
0.0
 30
0.0
210
0.0
220
0.0
230
1.0
  2
SOLID
 70
     1
 71
     0
 91
        2
 92
        1
 93
        1
 72
     4
 94
        3
 73
     0
 74
     0
 95
       59
 96
       55
 40
0.0
 40
0.0
 40
0.0
 40
0.0
 40
1.0
 40
1.0
 40
1.0
 40
2.0
 40
2.0
 40
2.0
 40
3.0
 40
3.0
 40
3.0
 40
4.0
 40
4.0
 40
4.0
 40
5.0
 40
5.0
 40
5.0
 40
6.0
 40
6.0
 40
6.0
 40
7.0
 40
7.0
 40
7.0
 40
8.0
 40
8.0
 40
8.0
 40
9.0
 40
9.0
 40
9.0
 40
10.0
 40
10.0
 40
10.0
 40
11.0
 40
11.0
 40
11.0
 40
12.0
 40
12.0
 40
12.0
 40
13.0
 40
13.0
 40
13.0
 40
14.0
 40
14.0
 40
14.0
 40
15.0
 40
15.0
 40
15.0
 40
16.0
 40
16.0
 40
16.0
 40
17.0
 40
17.0
 40
17.0
 40
18.0
 40
18.0
 40
18.0
 40
18.0
 10
367.10937499999994
 20
27.211431206597219
 10
367.10937499999994
 20
27.211431206597219
 10
366.2081380208333
 20
27.211431206597219
 10
366.2081380208333
 20
27.211431206597219
 10
366.2081380208333
 20
27.211431206597219
 10
366.2081380208333
 20
29.194428168402776
 10
366.2081380208333
 20
29.194428168402776
 10
365.96422526041664
 20
28.986344401041663
 10
365.79817165798607
 20
28.867144097222219
 10
365.57768554687499
 20
28.719694010416664
 10
365.57768554687499
 20
28.719694010416664
 10
365.35306532118051
 20
29.76975911458333
 10
365.35306532118051
 20
29.76975911458333
 10
366.01727973090277
 20
30.167323133680554
 10
366.56367187499995
 20
30.80190972222222
 10
366.75935329861107
 20
31.193961588541665
 10
366.75935329861107
 20
31.193961588541665
 10
365.45986328124997
 20
31.193961588541665
 10
365.45986328124997
 20
31.193961588541665
 10
365.45986328124997
 20
31.193961588541665
 10
365.45986328124997
 20
32.025607638888886
 10
365.45986328124997
 20
32.025607638888886
 10
365.45986328124997
 20
32.025607638888886
 10
366.2081380208333
 20
32.025607638888886
 10
366.2081380208333
 20
32.025607638888886
 10
366.2081380208333
 20
32.025607638888886
 10
366.2081380208333
 20
32.844162326388883
 10
366.2081380208333
 20
32.844162326388883
 10
366.2081380208333
 20
32.844162326388883
 10
367.10937499999994
 20
32.844162326388883
 10
367.10937499999994
 20
32.844162326388883
 10
367.10937499999994
 20
32.844162326388883
 10
367.10937499999994
 20
32.025607638888886
 10
367.10937499999994
 20
32.025607638888886
 10
367.10937499999994
 20
32.025607638888886
 10
367.71502278645829
 20
32.025607638888886
 10
367.71502278645829
 20
32.025607638888886
 10
367.71502278645829
 20
32.025607638888886
 10
367.71502278645829
 20
31.188449435763886
 10
367.71502278645829
 20
31.188449435763886
 10
367.62682834201388
 20
30.974853515624996
 10
367.51314019097219
 20
30.719227430555552
 10
367.24648980034721
 20
30.333376736111109
 10
367.5730848524305
 20
29.971641710069441
 10
367.86385091145831
 20
29.799386935763888
 10
368.0533311631944
 20
29.692588975694441
 10
368.0533311631944
 20
29.692588975694441
 10
367.60822482638883
 20
28.849918619791666
 10
367.60822482638883
 20
28.849918619791666
 10
367.43597005208329
 20
29.009771050347219
 10
367.29954427083328
 20
29.152398003472218
 10
367.10937499999994
 20
29.419048394097221
 10
367.10937499999994
 20
29.419048394097221
 10
367.10937499999994
 20
27.211431206597219
 10
367.10937499999994
 20
27.211431206597219
 97
        0
 92
        1
 93
        1
 72
     4
 94
        3
 73
     0
 74
     0
 95
       53
 96
       49
 40
0.0
 40
0.0
 40
0.0
 40
0.0
 40
1.0
 40
1.0
 40
1.0
 40
2.0
 40
2.0
 40
2.0
 40
3.0
 40
3.0
 40
3.0
 40
4.0
 40
4.0
 40
4.0
 40
5.0
 40
5.0
 40
5.0
 40
6.0
 40
6.0
 40
6.0
 40
7.0
 40
7.0
 40
7.0
 40
8.0
 40
8.0
 40
8.0
 40
9.0
 40
9.0
 40
9.0
 40
10.0
 40
10.0
 40
10.0
 40
11.0
 40
11.0
 40
11.0
 40
12.0
 40
12.0
 40
12.0
 40
13.0
 40
13.0
 40
13.0
 40
14.0
 40
14.0
 40
14.0
 40
15.0
 40
15.0
 40
15.0
 40
16.0
 40
16.0
 40
16.0
 40
16.0
 10
368.87257486979161
 20
32.837961154513884
 10
368.87257486979161
 20
32.837961154513884
 10
369.79930555555552
 20
32.837961154513884
 10
369.79930555555552
 20
32.837961154513884
 10
369.79930555555552
 20
32.837961154513884
 10
369.79930555555552
 20
31.366905381944441
 10
369.79930555555552
 20
31.366905381944441
 10
369.79930555555552
 20
31.366905381944441
 10
370.94996744791661
 20
31.366905381944441
 10
370.94996744791661
 20
31.366905381944441
 10
370.94996744791661
 20
31.366905381944441
 10
370.94996744791661
 20
30.45188802083333
 10
370.94996744791661
 20
30.45188802083333
 10
370.94996744791661
 20
30.45188802083333
 10
369.79930555555552
 20
30.45188802083333
 10
369.79930555555552
 20
30.45188802083333
 10
369.79930555555552
 20
30.45188802083333
 10
369.79930555555552
 20
28.279410807291665
 10
369.79930555555552
 20
28.279410807291665
 10
369.79930555555552
 20
28.279410807291665
 10
371.03885091145833
 20
28.279410807291665
 10
371.03885091145833
 20
28.279410807291665
 10
371.03885091145833
 20
28.279410807291665
 10
371.03885091145833
 20
27.377484809027774
 10
371.03885091145833
 20
27.377484809027774
 10
371.03885091145833
 20
27.377484809027774
 10
367.51314019097219
 20
27.377484809027774
 10
367.51314019097219
 20
27.377484809027774
 10
367.51314019097219
 20
27.377484809027774
 10
367.51314019097219
 20
28.279410807291665
 10
367.51314019097219
 20
28.279410807291665
 10
367.51314019097219
 20
28.279410807291665
 10
368.87257486979161
 20
28.279410807291665
 10
368.87257486979161
 20
28.279410807291665
 10
368.87257486979161
 20
28.279410807291665
 10
368.87257486979161
 20
30.45188802083333
 10
368.87257486979161
 20
30.45188802083333
 10
368.87257486979161
 20
30.45188802083333
 10
367.80321723090276
 20
30.45188802083333
 10
367.80321723090276
 20
30.45188802083333
 10
367.80321723090276
 20
30.45188802083333
 10
367.80321723090276
 20
31.366905381944441
 10
367.80321723090276
 20
31.366905381944441
 10
367.80321723090276
 20
31.366905381944441
 10
368.87257486979161
 20
31.366905381944441
 10
368.87257486979161
 20
31.366905381944441
 10
368.87257486979161
 20
31.366905381944441
 10
368.87257486979161
 20
32.837961154513884
 10
368.87257486979161
 20
32.837961154513884
 97
        0
 75
     2
 76
     1
 98
        1
 10
0.0
 20
0.0
  0
HATCH
  5
143
100
AcDbEntity
  8
レイヤー_1
 62
     7
100
AcDbHatch
 10
0.0
 20
0.0
 30
0.0
210
0.0
220
0.0
230
1.0
  2
SOLID
 70
     1
 71
     0
 91
        1
 92
        1
 93
        1
 72
     4
 94
        3
 73
     0
 74
     0
 95
       47
 96
       43
 40
0.0
 40
0.0
 40
0.0
 40
0.0
 40
1.0
 40
1.0
 40
1.0
 40
2.0
 40
2.0
 40
2.0
 40
3.0
 40
3.0
 40
3.0
 40
4.0
 40
4.0
 40
4.0
 40
5.0
 40
5.0
 40
5.0
 40
6.0
 40
6.0
 40
6.0
 40
7.0
 40
7.0
 40
7.0
 40
8.0
 40
8.0
 40
8.0
 40
9.0
 40
9.0
 40
9.0
 40
10.0
 40
10.0
 40
10.0
 40
11.0
 40
11.0
 40
11.0
 40
12.0
 40
12.0
 40
12.0
 40
13.0
 40
13.0
 40
13.0
 40
14.0
 40
14.0
 40
14.0
 40
14.0
 10
373.54963650173607
 20
30.624142795138887
 10
374.01334635416663
 20
30.434662543402776
 10
374.35716688368052
 20
30.262407769097219
 10
374.7836697048611
 20
29.941324869791664
 10
375.03378363715274
 20
30.292035590277774
 10
375.19432508680552
 20
30.630343967013886
 10
375.3417751736111
 20
31.152620442708329
 10
375.3417751736111
 20
31.152620442708329
 10
373.62680664062498
 20
31.152620442708329
 10
373.62680664062498
 20
31.152620442708329
 10
373.15276150173605
 20
30.553173828124997
 10
372.63530815972217
 20
30.10186631944444
 10
372.02483723958329
 20
29.751844618055554
 10
372.02483723958329
 20
29.751844618055554
 10
371.41918945312494
 20
30.439485677083329
 10
371.41918945312494
 20
30.439485677083329
 10
372.51748589409721
 20
31.02790798611111
 10
373.04596354166665
 20
31.751378038194442
 10
373.43112521701386
 20
32.742876519097216
 10
373.43112521701386
 20
32.742876519097216
 10
374.44605034722218
 20
32.611962890624994
 10
374.44605034722218
 20
32.611962890624994
 10
374.37439236111106
 20
32.399055989583331
 10
374.32753906249997
 20
32.286056857638883
 10
374.19662543402774
 20
32.019406467013887
 10
374.19662543402774
 20
32.019406467013887
 10
376.51172960069442
 20
32.019406467013887
 10
376.51172960069442
 20
32.019406467013887
 10
376.10796440972217
 20
29.460389539930553
 10
374.7664442274305
 20
27.976931423611109
 10
372.29148763020828
 20
27.394710286458331
 10
372.29148763020828
 20
27.394710286458331
 10
371.78712565104161
 20
28.244959852430554
 10
371.78712565104161
 20
28.244959852430554
 10
372.16677517361109
 20
28.309727647569442
 10
373.09901801215273
 20
28.464067925347219
 10
374.09602864583331
 20
29.235080295138886
 10
373.57926432291663
 20
29.651247829861109
 10
373.16378580729162
 20
29.858642578124996
 10
372.92056206597221
 20
29.982666015624996
 10
372.92056206597221
 20
29.982666015624996
 10
373.54963650173607
 20
30.624142795138887
 10
373.54963650173607
 20
30.624142795138887
 97
        0
 75
     2
 76
     1
 98
        1
 10
0.0
 20
0.0
  0
HATCH
  5
142
100
AcDbEntity
  8
レイヤー_1
 62
     7
100
AcDbHatch
 10
0.0
 20
0.0
 30
0.0
210
0.0
220
0.0
230
1.0
  2
SOLID
 70
     1
 71
     0
 91
        1
 92
        1
 93
        1
 72
     4
 94
        3
 73
     0
 74
     0
 95
       68
 96
       64
 40
0.0
 40
0.0
 40
0.0
 40
0.0
 40
1.0
 40
1.0
 40
1.0
 40
2.0
 40
2.0
 40
2.0
 40
3.0
 40
3.0
 40
3.0
 40
4.0
 40
4.0
 40
4.0
 40
5.0
 40
5.0
 40
5.0
 40
6.0
 40
6.0
 40
6.0
 40
7.0
 40
7.0
 40
7.0
 40
8.0
 40
8.0
 40
8.0
 40
9.0
 40
9.0
 40
9.0
 40
10.0
 40
10.0
 40
10.0
 40
11.0
 40
11.0
 40
11.0
 40
12.0
 40
12.0
 40
12.0
 40
13.0
 40
13.0
 40
13.0
 40
14.0
 40
14.0
 40
14.0
 40
15.0
 40
15.0
 40
15.0
 40
16.0
 40
16.0
 40
16.0
 40
17.0
 40
17.0
 40
17.0
 40
18.0
 40
18.0
 40
18.0
 40
19.0
 40
19.0
 40
19.0
 40
20.0
 40
20.0
 40
20.0
 40
21.0
 40
21.0
 40
21.0
 40
21.0
 10
382.05006510416661
 20
31.628043619791665
 10
382.05006510416661
 20
31.628043619791665
 10
382.05006510416661
 20
30.719227430555552
 10
382.05006510416661
 20
30.719227430555552
 10
382.05006510416661
 20
30.090152994791662
 10
381.99632161458328
 20
28.87954644097222
 10
381.88883463541663
 20
28.404812282986107
 10
381.69384223090276
 20
27.544227430555551
 10
381.19499240451387
 20
27.467057291666663
 10
380.66651475694442
 20
27.467057291666663
 10
380.08498263888885
 20
27.467057291666663
 10
379.79352756076383
 20
27.531825086805554
 10
379.63987630208328
 20
27.567654079861107
 10
379.63987630208328
 20
27.567654079861107
 10
379.58682183159721
 20
28.499207899305553
 10
379.58682183159721
 20
28.499207899305553
 10
379.80592990451385
 20
28.458555772569444
 10
380.13872612847217
 20
28.398611111111109
 10
380.49425998263888
 20
28.398611111111109
 10
380.77882486979161
 20
28.398611111111109
 10
380.8918240017361
 20
28.464067925347219
 10
380.9517686631944
 20
28.623920355902776
 10
381.05167643229163
 20
28.944314236111108
 10
381.09921874999998
 20
30.285145399305552
 10
381.09921874999998
 20
30.428461371527774
 10
381.09921874999998
 20
30.428461371527774
 10
381.09921874999998
 20
30.737830946180551
 10
381.09921874999998
 20
30.737830946180551
 10
381.09921874999998
 20
30.737830946180551
 10
379.80592990451385
 20
30.737830946180551
 10
379.80592990451385
 20
30.737830946180551
 10
379.68121744791665
 20
30.012982855902774
 10
379.48553602430553
 20
29.49070638020833
 10
379.25953776041661
 20
29.075227864583329
 10
378.71383463541662
 20
28.065814887152776
 10
377.98967556423605
 20
27.614507378472219
 10
377.69270833333331
 20
27.430539279513887
 10
377.69270833333331
 20
27.430539279513887
 10
377.03951822916662
 20
28.149186197916663
 10
377.03951822916662
 20
28.149186197916663
 10
378.2391004774305
 20
28.813400607638886
 10
378.60634765624997
 20
29.562364366319443
 10
378.81994357638888
 20
30.737830946180551
 10
378.81994357638888
 20
30.737830946180551
 10
377.31857096354162
 20
30.737830946180551
 10
377.31857096354162
 20
30.737830946180551
 10
377.31857096354162
 20
30.737830946180551
 10
377.31857096354162
 20
31.628043619791665
 10
377.31857096354162
 20
31.628043619791665
 10
377.31857096354162
 20
31.628043619791665
 10
378.92743055555553
 20
31.628043619791665
 10
378.92743055555553
 20
31.628043619791665
 10
378.95636935763883
 20
32.025607638888886
 10
378.96325954861106
 20
32.274343532986109
 10
378.96325954861106
 20
32.654682074652776
 10
378.96325954861106
 20
32.654682074652776
 10
379.96578233506943
 20
32.642279730902771
 10
379.96578233506943
 20
32.642279730902771
 10
379.94786783854164
 20
32.131716579861106
 10
379.9306423611111
 20
31.924321831597219
 10
379.90721571180552
 20
31.628043619791665
 10
379.90721571180552
 20
31.628043619791665
 10
382.05006510416661
 20
31.628043619791665
 10
382.05006510416661
 20
31.628043619791665
 97
        0
 75
     2
 76
     1
 98
        1
 10
0.0
 20
0.0
  0
HATCH
  5
141
100
AcDbEntity
  8
レイヤー_1
 62
     7
100
AcDbHatch
 10
0.0
 20
0.0
 30
0.0
210
0.0
220
0.0
230
1.0
  2
SOLID
 70
     1
 71
     0
 91
        3
 92
        1
 93
        1
 72
     4
 94
        3
 73
     0
 74
     0
 95
       17
 96
       13
 40
0.0
 40
0.0
 40
0.0
 40
0.0
 40
1.0
 40
1.0
 40
1.0
 40
2.0
 40
2.0
 40
2.0
 40
3.0
 40
3.0
 40
3.0
 40
4.0
 40
4.0
 40
4.0
 40
4.0
 10
385.12998046874998
 20
31.06304796006944
 10
384.55396050347218
 20
31.360704210069443
 10
383.93728841145833
 20
31.561897786458331
 10
383.31372612847218
 20
31.716238064236109
 10
383.31372612847218
 20
31.716238064236109
 10
383.65203450520829
 20
32.505164930555551
 10
383.65203450520829
 20
32.505164930555551
 10
384.21565212673607
 20
32.399055989583331
 10
384.92809787326388
 20
32.185460069444439
 10
385.50411783854162
 20
31.906407335069442
 10
385.50411783854162
 20
31.906407335069442
 10
385.12998046874998
 20
31.06304796006944
 10
385.12998046874998
 20
31.06304796006944
 97
        0
 92
        1
 93
        1
 72
     4
 94
        3
 73
     0
 74
     0
 95
       17
 96
       13
 40
0.0
 40
0.0
 40
0.0
 40
0.0
 40
1.0
 40
1.0
 40
1.0
 40
2.0
 40
2.0
 40
2.0
 40
3.0
 40
3.0
 40
3.0
 40
4.0
 40
4.0
 40
4.0
 40
4.0
 10
384.60770399305551
 20
29.633333333333329
 10
384.09714084201386
 20
29.917898220486109
 10
383.48529188368053
 20
30.154920789930554
 10
382.85690646701386
 20
30.32786458333333
 10
382.85690646701386
 20
30.32786458333333
 10
383.18901367187499
 20
31.122303602430552
 10
383.18901367187499
 20
31.122303602430552
 10
383.65203450520829
 20
31.02790798611111
 10
384.40582139756941
 20
30.790885416666665
 10
384.97012803819439
 20
30.482204861111107
 10
384.97012803819439
 20
30.482204861111107
 10
384.60770399305551
 20
29.633333333333329
 10
384.60770399305551
 20
29.633333333333329
 97
        0
 92
        1
 93
        1
 72
     4
 94
        3
 73
     0
 74
     0
 95
       17
 96
       13
 40
0.0
 40
0.0
 40
0.0
 40
0.0
 40
1.0
 40
1.0
 40
1.0
 40
2.0
 40
2.0
 40
2.0
 40
3.0
 40
3.0
 40
3.0
 40
4.0
 40
4.0
 40
4.0
 40
4.0
 10
383.17109917534719
 20
28.504720052083332
 10
385.04040798611106
 20
28.672151692708329
 10
386.3467881944444
 20
29.015283203124998
 10
387.15431857638885
 20
31.722439236111107
 10
387.15431857638885
 20
31.722439236111107
 10
388.05004340277776
 20
31.295247395833332
 10
388.05004340277776
 20
31.295247395833332
 10
387.08886176215276
 20
28.439952256944441
 10
385.62814127604162
 20
27.751622178819442
 10
383.43154839409721
 20
27.48428276909722
 10
383.43154839409721
 20
27.48428276909722
 10
383.17109917534719
 20
28.504720052083332
 10
383.17109917534719
 20
28.504720052083332
 97
        0
 75
     2
 76
     1
 98
        1
 10
0.0
 20
0.0
  0
HATCH
  5
140
100
AcDbEntity
  8
レイヤー_1
 62
     7
100
AcDbHatch
 10
0.0
 20
0.0
 30
0.0
210
0.0
220
0.0
230
1.0
  2
SOLID
 70
     1
 71
     0
 91
        1
 92
        3
 72
     0
 73
     1
 93
       12
 10
392.28888888888883
 20
31.443386501736107
 10
392.28888888888883
 20
27.585568576388887
 10
388.65569118923605
 20
27.585568576388887
 10
388.65569118923605
 20
28.404812282986107
 10
391.3855848524305
 20
28.404812282986107
 10
391.3855848524305
 20
29.152398003472218
 10
388.81003146701386
 20
29.152398003472218
 10
388.81003146701386
 20
29.935812717013885
 10
391.3855848524305
 20
29.935812717013885
 10
391.3855848524305
 20
30.642746310763886
 10
388.71494683159716
 20
30.642746310763886
 10
388.71494683159716
 20
31.443386501736107
 97
        0
 75
     2
 76
     1
 98
        1
 10
0.0
 20
0.0
  0
LINE
  5
13F
100
AcDbEntity
  8
レイヤー_1
 62
     7
100
AcDbLine
 10
393.136382
 20
30.036754
 30
0.0
 11
397.540592
 21
30.036754
 31
0.0
  0
MTEXT
  5
13E
100
AcDbEntity
  8
レイヤー_1
 62
     7
100
AcDbMText
 10
374.65
 20
41.138968
 30
0.0
 40
2.362351
 41
0.0
 71
     1
 72
     2
  1
\fMSGothic|b0|i0|c128;\H2.3624;\C7;\U+5BF8
  7
STD
210
0.0
220
0.0
230
1.0
 11
1.0
 21
0.0
 31
0.0
 73
     1
 44
1.0
  0
MTEXT
  5
13D
100
AcDbEntity
  8
レイヤー_1
 62
     7
100
AcDbMText
 10
377.825
 20
41.138968
 30
0.0
 40
2.362351
 41
0.0
 71
     1
 72
     2
  1
\fMSGothic|b0|i0|c128;\H2.3624;\C7;\U+6CD5
  7
STD
210
0.0
220
0.0
230
1.0
 11
1.0
 21
0.0
 31
0.0
 73
     1
 44
1.0
  0
MTEXT
  5
13C
100
AcDbEntity
  8
レイヤー_1
 62
     7
100
AcDbMText
 10
381.0
 20
41.138968
 30
0.0
 40
2.362351
 41
0.0
 71
     1
 72
     2
  1
\fMSGothic|b0|i0|c128;\H2.3624;\C7;\U+516C
  7
STD
210
0.0
220
0.0
230
1.0
 11
1.0
 21
0.0
 31
0.0
 73
     1
 44
1.0
  0
MTEXT
  5
13B
100
AcDbEntity
  8
レイヤー_1
 62
     7
100
AcDbMText
 10
384.175
 20
41.138968
 30
0.0
 40
2.362351
 41
0.0
 71
     1
 72
     2
  1
\fMSGothic|b0|i0|c128;\H2.3624;\C7;\U+5DEE
  7
STD
210
0.0
220
0.0
230
1.0
 11
1.0
 21
0.0
 31
0.0
 73
     1
 44
1.0
  0
MTEXT
  5
13A
100
AcDbEntity
  8
レイヤー_1
 62
     7
100
AcDbMText
 10
387.35
 20
41.138968
 30
0.0
 40
2.362351
 41
0.0
 71
     1
 72
     2
  1
\fMSGothic|b0|i0|c128;\H2.3624;\C7;\U+FF1A
  7
STD
210
0.0
220
0.0
230
1.0
 11
1.0
 21
0.0
 31
0.0
 73
     1
 44
1.0
  0
MTEXT
  5
139
100
AcDbEntity
  8
レイヤー_1
 62
     7
100
AcDbMText
 10
390.525
 20
41.138968
 30
0.0
 40
2.362351
 41
0.0
 71
     1
 72
     2
  1
\fMSGothic|b0|i0|c128;\H2.3624;\C7;\U+00B1
  7
STD
210
0.0
220
0.0
230
1.0
 11
1.0
 21
0.0
 31
0.0
 73
     1
 44
1.0
  0
MTEXT
  5
138
100
AcDbEntity
  8
レイヤー_1
 62
     7
100
AcDbMText
 10
393.7
 20
41.138968
 30
0.0
 40
2.362351
 41
0.0
 71
     1
 72
     2
  1
\fMSGothic|b0|i0|c128;\H2.3624;\C7;\U+0030
  7
STD
210
0.0
220
0.0
230
1.0
 11
1.0
 21
0.0
 31
0.0
 73
     1
 44
1.0
  0
MTEXT
  5
137
100
AcDbEntity
  8
レイヤー_1
 62
     7
100
AcDbMText
 10
395.2875
 20
41.138968
 30
0.0
 40
2.362351
 41
0.0
 71
     1
 72
     2
  1
\fMSGothic|b0|i0|c128;\H2.3624;\C7;\U+002E
  7
STD
210
0.0
220
0.0
230
1.0
 11
1.0
 21
0.0
 31
0.0
 73
     1
 44
1.0
  0
MTEXT
  5
136
100
AcDbEntity
  8
レイヤー_1
 62
     7
100
AcDbMText
 10
396.875
 20
41.138968
 30
0.0
 40
2.362351
 41
0.0
 71
     1
 72
     2
  1
\fMSGothic|b0|i0|c128;\H2.3624;\C7;\U+0035
  7
STD
210
0.0
220
0.0
230
1.0
 11
1.0
 21
0.0
 31
0.0
 73
     1
 44
1.0
  0
MTEXT
  5
135
100
AcDbEntity
  8
レイヤー_1
 62
     7
100
AcDbMText
 10
398.4625
 20
41.138968
 30
0.0
 40
2.362351
 41
0.0
 71
     1
 72
     2
  1
\fMSGothic|b0|i0|c128;\H2.3624;\C7;\U+006D
  7
STD
210
0.0
220
0.0
230
1.0
 11
1.0
 21
0.0
 31
0.0
 73
     1
 44
1.0
  0
MTEXT
  5
134
100
AcDbEntity
  8
レイヤー_1
 62
     7
100
AcDbMText
 10
400.05
 20
41.138968
 30
0.0
 40
2.362351
 41
0.0
 71
     1
 72
     2
  1
\fMSGothic|b0|i0|c128;\H2.3624;\C7;\U+006D
  7
STD
210
0.0
220
0.0
230
1.0
 11
1.0
 21
0.0
 31
0.0
 73
     1
 44
1.0
  0
MTEXT
  5
133
100
AcDbEntity
  8
レイヤー_1
 62
     7
100
AcDbMText
 10
374.65
 20
44.648831
 30
0.0
 40
2.362351
 41
0.0
 71
     1
 72
     2
  1
\fMSGothic|b0|i0|c128;\H2.3624;\C7;\U+5BF8
  7
STD
210
0.0
220
0.0
230
1.0
 11
1.0
 21
0.0
 31
0.0
 73
     1
 44
1.0
  0
MTEXT
  5
132
100
AcDbEntity
  8
レイヤー_1
 62
     7
100
AcDbMText
 10
377.825
 20
44.648831
 30
0.0
 40
2.362351
 41
0.0
 71
     1
 72
     2
  1
\fMSGothic|b0|i0|c128;\H2.3624;\C7;\U+6CD5
  7
STD
210
0.0
220
0.0
230
1.0
 11
1.0
 21
0.0
 31
0.0
 73
     1
 44
1.0
  0
MTEXT
  5
131
100
AcDbEntity
  8
レイヤー_1
 62
     7
100
AcDbMText
 10
381.0
 20
44.648831
 30
0.0
 40
2.362351
 41
0.0
 71
     1
 72
     2
  1
\fMSGothic|b0|i0|c128;\H2.3624;\C7;\U+6570
  7
STD
210
0.0
220
0.0
230
1.0
 11
1.0
 21
0.0
 31
0.0
 73
     1
 44
1.0
  0
MTEXT
  5
130
100
AcDbEntity
  8
レイヤー_1
 62
     7
100
AcDbMText
 10
384.175
 20
44.648831
 30
0.0
 40
2.362351
 41
0.0
 71
     1
 72
     2
  1
\fMSGothic|b0|i0|c128;\H2.3624;\C7;\U+5024
  7
STD
210
0.0
220
0.0
230
1.0
 11
1.0
 21
0.0
 31
0.0
 73
     1
 44
1.0
  0
MTEXT
  5
12F
100
AcDbEntity
  8
レイヤー_1
 62
     7
100
AcDbMText
 10
387.35
 20
44.648831
 30
0.0
 40
2.362351
 41
0.0
 71
     1
 72
     2
  1
\fMSGothic|b0|i0|c128;\H2.3624;\C7;\U+FF1A
  7
STD
210
0.0
220
0.0
230
1.0
 11
1.0
 21
0.0
 31
0.0
 73
     1
 44
1.0
  0
MTEXT
  5
12E
100
AcDbEntity
  8
レイヤー_1
 62
     7
100
AcDbMText
 10
390.525
 20
44.648831
 30
0.0
 40
2.362351
 41
0.0
 71
     1
 72
     2
  1
\fMSGothic|b0|i0|c128;\H2.3624;\C7;\U+006D
  7
STD
210
0.0
220
0.0
230
1.0
 11
1.0
 21
0.0
 31
0.0
 73
     1
 44
1.0
  0
MTEXT
  5
12D
100
AcDbEntity
  8
レイヤー_1
 62
     7
100
AcDbMText
 10
392.1125
 20
44.648831
 30
0.0
 40
2.362351
 41
0.0
 71
     1
 72
     2
  1
\fMSGothic|b0|i0|c128;\H2.3624;\C7;\U+006D
  7
STD
210
0.0
220
0.0
230
1.0
 11
1.0
 21
0.0
 31
0.0
 73
     1
 44
1.0
  0
MTEXT
  5
12C
100
AcDbEntity
  8
レイヤー_1
 62
     7
100
AcDbMText
 10
393.7
 20
44.648831
 30
0.0
 40
2.362351
 41
0.0
 71
     1
 72
     2
  1
\fMSGothic|b0|i0|c128;\H2.3624;\C7;\U+8868
  7
STD
210
0.0
220
0.0
230
1.0
 11
1.0
 21
0.0
 31
0.0
 73
     1
 44
1.0
  0
MTEXT
  5
12B
100
AcDbEntity
  8
レイヤー_1
 62
     7
100
AcDbMText
 10
396.875
 20
44.648831
 30
0.0
 40
2.362351
 41
0.0
 71
     1
 72
     2
  1
\fMSGothic|b0|i0|c128;\H2.3624;\C7;\U+8A18
  7
STD
210
0.0
220
0.0
230
1.0
 11
1.0
 21
0.0
 31
0.0
 73
     1
 44
1.0
  0
CIRCLE
  5
12A
100
AcDbEntity
  8
レイヤー_1
 62
     7
100
AcDbCircle
 10
117.959725
 20
106.416243
 30
0.0
 40
11.000018
  0
CIRCLE
  5
129
100
AcDbEntity
  8
レイヤー_1
 62
     7
100
AcDbCircle
 10
117.959553
 20
106.416243
 30
0.0
 40
7.800041
  0
POLYLINE
  5
11D
100
AcDbEntity
  8
レイヤー_1
 62
     7
100
AcDb2dPolyline
 66
     1
 10
0.0
 20
0.0
 30
0.0
 70
     1
  0
VERTEX
  5
11E
100
AcDbEntity
  8
レイヤー_1
 62
     7
100
AcDbVertex
100
AcDb2dVertex
 10
119.45438
 20
116.534489
 30
0.0
  0
VERTEX
  5
11F
100
AcDbEntity
  8
レイヤー_1
 62
     7
100
AcDbVertex
100
AcDb2dVertex
 10
119.69657
 20
116.482812
 30
0.0
  0
VERTEX
  5
120
100
AcDbEntity
  8
レイヤー_1
 62
     7
100
AcDbVertex
100
AcDb2dVertex
 10
120.194386
 20
115.008312
 30
0.0
  0
VERTEX
  5
121
100
AcDbEntity
  8
レイヤー_1
 62
     7
100
AcDbVertex
100
AcDb2dVertex
 10
120.47275
 20
116.318137
 30
0.0
  0
VERTEX
  5
122
100
AcDbEntity
  8
レイヤー_1
 62
     7
100
AcDbVertex
100
AcDb2dVertex
 10
120.695648
 20
116.270595
 30
0.0
  0
VERTEX
  5
123
100
AcDbEntity
  8
レイヤー_1
 62
     7
100
AcDbVertex
100
AcDb2dVertex
 10
120.343214
 20
114.611437
 30
0.0
  0
VERTEX
  5
124
100
AcDbEntity
  8
レイヤー_1
 62
     7
100
AcDbVertex
100
AcDb2dVertex
 10
120.100335
 20
114.663113
 30
0.0
  0
VERTEX
  5
125
100
AcDbEntity
  8
レイヤー_1
 62
     7
100
AcDbVertex
100
AcDb2dVertex
 10
119.602863
 20
116.137614
 30
0.0
  0
VERTEX
  5
126
100
AcDbEntity
  8
レイヤー_1
 62
     7
100
AcDbVertex
100
AcDb2dVertex
 10
119.3245
 20
114.827789
 30
0.0
  0
VERTEX
  5
127
100
AcDbEntity
  8
レイヤー_1
 62
     7
100
AcDbVertex
100
AcDb2dVertex
 10
119.101602
 20
114.875331
 30
0.0
  0
SEQEND
  5
128
100
AcDbEntity
  8
レイヤー_1
 62
     7
  0
SPLINE
  5
11C
100
AcDbEntity
  8
レイヤー_1
 62
     7
100
AcDbSpline
210
0.0
220
0.0
230
1.0
 70
     8
 71
     3
 72
    29
 73
    25
 74
     0
 42
0.00000001
 43
0.00000001
 40
0.0
 40
0.0
 40
0.0
 40
0.0
 40
1.0
 40
1.0
 40
1.0
 40
2.0
 40
2.0
 40
2.0
 40
3.0
 40
3.0
 40
3.0
 40
4.0
 40
4.0
 40
4.0
 40
5.0
 40
5.0
 40
5.0
 40
6.0
 40
6.0
 40
6.0
 40
7.0
 40
7.0
 40
7.0
 40
8.0
 40
8.0
 40
8.0
 40
8.0
 10
121.77740749782986
 20
115.55470377604166
 30
0.0
 10
121.62926839192707
 20
115.49751519097221
 30
0.0
 10
121.50662299262152
 20
115.36040039062499
 30
0.0
 10
121.40947129991318
 20
115.14335937499999
 30
0.0
 10
121.31266411675347
 20
114.92562934027777
 30
0.0
 10
121.29302707248263
 20
114.74303927951388
 30
0.0
 10
121.34987114800346
 20
114.59421115451387
 30
0.0
 10
121.40016954210068
 20
114.46329752604166
 30
0.0
 10
121.48285183376736
 20
114.37234700520833
 30
0.0
 10
121.59757351345485
 20
114.32135959201388
 30
0.0
 10
121.71263970269096
 20
114.27037217881943
 30
0.0
 10
121.83528510199652
 20
114.27037217881943
 30
0.0
 10
121.96619873046873
 20
114.31998155381943
 30
0.0
 10
122.11468234592013
 20
114.37717013888887
 30
0.0
 10
122.23698323567707
 20
114.51428493923611
 30
0.0
 10
122.33413492838541
 20
114.73201497395833
 30
0.0
 10
122.43094211154512
 20
114.94905598958333
 30
0.0
 10
122.45057915581596
 20
115.13164605034721
 30
0.0
 10
122.39373508029513
 20
115.28047417534721
 30
0.0
 10
122.3434366861979
 20
115.41138780381944
 30
0.0
 10
122.26109890407984
 20
115.50233832465277
 30
0.0
 10
122.14603271484374
 20
115.55332573784722
 30
0.0
 10
122.03131103515624
 20
115.60431315104165
 30
0.0
 10
121.90832112630207
 20
115.60500217013887
 30
0.0
 10
121.77740749782986
 20
115.55470377604166
 30
0.0
  0
SPLINE
  5
11B
100
AcDbEntity
  8
レイヤー_1
 62
     7
100
AcDbSpline
210
0.0
220
0.0
230
1.0
 70
     8
 71
     3
 72
    29
 73
    25
 74
     0
 42
0.00000001
 43
0.00000001
 40
0.0
 40
0.0
 40
0.0
 40
0.0
 40
1.0
 40
1.0
 40
1.0
 40
2.0
 40
2.0
 40
2.0
 40
3.0
 40
3.0
 40
3.0
 40
4.0
 40
4.0
 40
4.0
 40
5.0
 40
5.0
 40
5.0
 40
6.0
 40
6.0
 40
6.0
 40
7.0
 40
7.0
 40
7.0
 40
8.0
 40
8.0
 40
8.0
 40
8.0
 10
121.67577718098957
 20
115.74142795138887
 30
0.0
 10
121.85940077039929
 20
115.81170789930555
 30
0.0
 10
122.04130181206597
 20
115.80619574652776
 30
0.0
 10
122.22285834418402
 20
115.72558051215277
 30
0.0
 10
122.40372585720485
 20
115.64496527777777
 30
0.0
 10
122.52981635199652
 20
115.5126736111111
 30
0.0
 10
122.60009629991319
 20
115.32939453124999
 30
0.0
 10
122.68071153428818
 20
115.11993272569444
 30
0.0
 10
122.66417507595484
 20
114.88842230902777
 30
0.0
 10
122.55152045355902
 20
114.63486328124999
 30
0.0
 10
122.43852132161457
 20
114.38130425347221
 30
0.0
 10
122.27694634331596
 20
114.21387261284721
 30
0.0
 10
122.06782904730902
 20
114.13394639756943
 30
0.0
 10
121.88454996744791
 20
114.06366644965277
 30
0.0
 10
121.70195990668401
 20
114.06848958333332
 30
0.0
 10
121.52109239366318
 20
114.14979383680554
 30
0.0
 10
121.33988037109374
 20
114.22972005208332
 30
0.0
 10
121.21378987630207
 20
114.36201171874998
 30
0.0
 10
121.1435099283854
 20
114.54529079861111
 30
0.0
 10
121.06323920355902
 20
114.75406358506943
 30
0.0
 10
121.07943115234374
 20
114.98626302083332
 30
0.0
 10
121.19243028428818
 20
115.2398220486111
 30
0.0
 10
121.30542941623263
 20
115.49338107638887
 30
0.0
 10
121.46665988498263
 20
115.66081271701388
 30
0.0
 10
121.67577718098957
 20
115.74142795138887
 30
0.0
  0
POLYLINE
  5
111
100
AcDbEntity
  8
レイヤー_1
 62
     7
100
AcDb2dPolyline
 66
     1
 10
0.0
 20
0.0
 30
0.0
 70
     1
  0
VERTEX
  5
112
100
AcDbEntity
  8
レイヤー_1
 62
     7
100
AcDbVertex
100
AcDb2dVertex
 10
123.463093
 20
115.066878
 30
0.0
  0
VERTEX
  5
113
100
AcDbEntity
  8
レイヤー_1
 62
     7
100
AcDbVertex
100
AcDb2dVertex
 10
124.562423
 20
114.268305
 30
0.0
  0
VERTEX
  5
114
100
AcDbEntity
  8
レイヤー_1
 62
     7
100
AcDbVertex
100
AcDb2dVertex
 10
124.451491
 20
114.115343
 30
0.0
  0
VERTEX
  5
115
100
AcDbEntity
  8
レイヤー_1
 62
     7
100
AcDbVertex
100
AcDb2dVertex
 10
123.993982
 20
114.44745
 30
0.0
  0
VERTEX
  5
116
100
AcDbEntity
  8
レイヤー_1
 62
     7
100
AcDbVertex
100
AcDb2dVertex
 10
123.108248
 20
113.228575
 30
0.0
  0
VERTEX
  5
117
100
AcDbEntity
  8
レイヤー_1
 62
     7
100
AcDbVertex
100
AcDb2dVertex
 10
122.923591
 20
113.362934
 30
0.0
  0
VERTEX
  5
118
100
AcDbEntity
  8
レイヤー_1
 62
     7
100
AcDbVertex
100
AcDb2dVertex
 10
123.809669
 20
114.581809
 30
0.0
  0
VERTEX
  5
119
100
AcDbEntity
  8
レイヤー_1
 62
     7
100
AcDbVertex
100
AcDb2dVertex
 10
123.352161
 20
114.913916
 30
0.0
  0
SEQEND
  5
11A
100
AcDbEntity
  8
レイヤー_1
 62
     7
  0
POLYLINE
  5
105
100
AcDbEntity
  8
レイヤー_1
 62
     7
100
AcDb2dPolyline
 66
     1
 10
0.0
 20
0.0
 30
0.0
 70
     1
  0
VERTEX
  5
106
100
AcDbEntity
  8
レイヤー_1
 62
     7
100
AcDbVertex
100
AcDb2dVertex
 10
126.528539
 20
112.095828
 30
0.0
  0
VERTEX
  5
107
100
AcDbEntity
  8
レイヤー_1
 62
     7
100
AcDbVertex
100
AcDb2dVertex
 10
127.098702
 20
111.107775
 30
0.0
  0
VERTEX
  5
108
100
AcDbEntity
  8
レイヤー_1
 62
     7
100
AcDbVertex
100
AcDb2dVertex
 10
126.935404
 20
111.014068
 30
0.0
  0
VERTEX
  5
109
100
AcDbEntity
  8
レイヤー_1
 62
     7
100
AcDbVertex
100
AcDb2dVertex
 10
126.478929
 20
111.803684
 30
0.0
  0
VERTEX
  5
10A
100
AcDbEntity
  8
レイヤー_1
 62
     7
100
AcDbVertex
100
AcDb2dVertex
 10
125.998338
 20
111.526009
 30
0.0
  0
VERTEX
  5
10B
100
AcDbEntity
  8
レイヤー_1
 62
     7
100
AcDbVertex
100
AcDb2dVertex
 10
126.355595
 20
110.90727
 30
0.0
  0
VERTEX
  5
10C
100
AcDbEntity
  8
レイヤー_1
 62
     7
100
AcDbVertex
100
AcDb2dVertex
 10
126.192642
 20
110.813563
 30
0.0
  0
VERTEX
  5
10D
100
AcDbEntity
  8
レイヤー_1
 62
     7
100
AcDbVertex
100
AcDb2dVertex
 10
125.835385
 20
111.431613
 30
0.0
  0
VERTEX
  5
10E
100
AcDbEntity
  8
レイヤー_1
 62
     7
100
AcDbVertex
100
AcDb2dVertex
 10
125.174616
 20
111.049897
 30
0.0
  0
VERTEX
  5
10F
100
AcDbEntity
  8
レイヤー_1
 62
     7
100
AcDbVertex
100
AcDb2dVertex
 10
125.05955
 20
111.247645
 30
0.0
  0
SEQEND
  5
110
100
AcDbEntity
  8
レイヤー_1
 62
     7
  0
SPLINE
  5
104
100
AcDbEntity
  8
レイヤー_1
 62
     7
100
AcDbSpline
210
0.0
220
0.0
230
1.0
 70
     8
 71
     3
 72
    29
 73
    25
 74
     0
 42
0.00000001
 43
0.00000001
 40
0.0
 40
0.0
 40
0.0
 40
0.0
 40
1.0
 40
1.0
 40
1.0
 40
2.0
 40
2.0
 40
2.0
 40
3.0
 40
3.0
 40
3.0
 40
4.0
 40
4.0
 40
4.0
 40
5.0
 40
5.0
 40
5.0
 40
6.0
 40
6.0
 40
6.0
 40
7.0
 40
7.0
 40
7.0
 40
8.0
 40
8.0
 40
8.0
 40
8.0
 10
127.35536159939235
 20
109.71388888888887
 30
0.0
 10
127.2141126844618
 20
109.78554687499999
 30
0.0
 10
127.02980007595485
 20
109.78485785590277
 30
0.0
 10
126.80345730251734
 20
109.71182183159721
 30
0.0
 10
126.57677001953124
 20
109.63809678819443
 30
0.0
 10
126.42794189453124
 20
109.52992078993054
 30
0.0
 10
126.35525037977429
 20
109.38867187499999
 30
0.0
 10
126.29220513237846
 20
109.26395941840276
 30
0.0
 10
126.27911376953124
 20
109.14131401909721
 30
0.0
 10
126.3180433485243
 20
109.02142469618055
 30
0.0
 10
126.35697292751735
 20
108.90222439236111
 30
0.0
 10
126.43931070963541
 20
108.81127387152777
 30
0.0
 10
126.56367865668402
 20
108.74719509548611
 30
0.0
 10
126.70596110026041
 20
108.67553710937499
 30
0.0
 10
126.88889567057291
 20
108.67553710937499
 30
0.0
 10
127.11558295355901
 20
108.74926215277777
 30
0.0
 10
127.34227023654513
 20
108.82298719618055
 30
0.0
 10
127.49109836154513
 20
108.92978515624999
 30
0.0
 10
127.56344536675346
 20
109.07172309027777
 30
0.0
 10
127.6268351236979
 20
109.19712456597222
 30
0.0
 10
127.63958197699651
 20
109.31908094618055
 30
0.0
 10
127.60065239800346
 20
109.43897026909721
 30
0.0
 10
127.56206732855901
 20
109.55817057291665
 30
0.0
 10
127.48007405598958
 20
109.64981011284721
 30
0.0
 10
127.35536159939235
 20
109.71388888888887
 30
0.0
  0
SPLINE
  5
103
100
AcDbEntity
  8
レイヤー_1
 62
     7
100
AcDbSpline
210
0.0
220
0.0
230
1.0
 70
     8
 71
     3
 72
    29
 73
    25
 74
     0
 42
0.00000001
 43
0.00000001
 40
0.0
 40
0.0
 40
0.0
 40
0.0
 40
1.0
 40
1.0
 40
1.0
 40
2.0
 40
2.0
 40
2.0
 40
3.0
 40
3.0
 40
3.0
 40
4.0
 40
4.0
 40
4.0
 40
5.0
 40
5.0
 40
5.0
 40
6.0
 40
6.0
 40
6.0
 40
7.0
 40
7.0
 40
7.0
 40
8.0
 40
8.0
 40
8.0
 40
8.0
 10
127.42598605685762
 20
109.91370442708332
 30
0.0
 10
127.60099690755207
 20
109.82482096354165
 30
0.0
 10
127.71847466362846
 20
109.68563910590277
 30
0.0
 10
127.78014187282984
 20
109.49684787326387
 30
0.0
 10
127.84146457248262
 20
109.308056640625
 30
0.0
 10
127.82733968098957
 20
109.12615559895832
 30
0.0
 10
127.73811170789929
 20
108.95183376736109
 30
0.0
 10
127.63648139105902
 20
108.75201822916665
 30
0.0
 10
127.4532023111979
 20
108.60870225694444
 30
0.0
 10
127.18930799696179
 20
108.52257486979165
 30
0.0
 10
126.92506917317708
 20
108.43713650173611
 30
0.0
 10
126.69286973741319
 20
108.44540473090277
 30
0.0
 10
126.49339870876734
 20
108.54669053819444
 30
0.0
 10
126.31873236762152
 20
108.63626302083333
 30
0.0
 10
126.2005655924479
 20
108.77544487847221
 30
0.0
 10
126.13889838324651
 20
108.96354709201388
 30
0.0
 10
126.07826470269096
 20
109.15164930555555
 30
0.0
 10
126.09101155598957
 20
109.33423936631944
 30
0.0
 10
126.18092854817708
 20
109.50925021701389
 30
0.0
 10
126.28255886501735
 20
109.70906575520833
 30
0.0
 10
126.46549343532985
 20
109.85169270833332
 30
0.0
 10
126.73007676866318
 20
109.9378200954861
 30
0.0
 10
126.99397108289929
 20
110.02325846354165
 30
0.0
 10
127.22617051866318
 20
110.01567925347221
 30
0.0
 10
127.42598605685762
 20
109.91370442708332
 30
0.0
  0
SPLINE
  5
102
100
AcDbEntity
  8
レイヤー_1
 62
     7
100
AcDbSpline
210
0.0
220
0.0
230
1.0
 70
     8
 71
     3
 72
    26
 73
    22
 74
     0
 42
0.00000001
 43
0.00000001
 40
0.0
 40
0.0
 40
0.0
 40
0.0
 40
1.0
 40
1.0
 40
1.0
 40
2.0
 40
2.0
 40
2.0
 40
3.0
 40
3.0
 40
3.0
 40
4.0
 40
4.0
 40
4.0
 40
5.0
 40
5.0
 40
5.0
 40
6.0
 40
6.0
 40
6.0
 40
7.0
 40
7.0
 40
7.0
 40
7.0
 10
127.96617702907984
 20
107.88867730034721
 30
0.0
 10
127.96617702907984
 20
107.88867730034721
 30
0.0
 10
127.38395589192707
 20
107.82804361979166
 30
0.0
 10
127.38395589192707
 20
107.82804361979166
 30
0.0
 10
127.38395589192707
 20
107.82804361979166
 30
0.0
 10
127.44527859157985
 20
107.24582248263889
 30
0.0
 10
127.44527859157985
 20
107.24582248263889
 30
0.0
 10
127.45285780164929
 20
107.18036566840277
 30
0.0
 10
127.48110758463541
 20
107.12593315972221
 30
0.0
 10
127.53209499782984
 20
107.08597005208333
 30
0.0
 10
127.58308241102429
 20
107.04393988715277
 30
0.0
 10
127.65749647352429
 20
107.02947048611109
 30
0.0
 10
127.75602620442707
 20
107.03980577256944
 30
0.0
 10
127.84801025390624
 20
107.04945203993054
 30
0.0
 10
127.91794569227429
 20
107.08252495659721
 30
0.0
 10
127.9647989908854
 20
107.1410915798611
 30
0.0
 10
128.01165228949651
 20
107.19896918402777
 30
0.0
 10
128.03128933376735
 20
107.26442599826387
 30
0.0
 10
128.0237101236979
 20
107.33677300347222
 30
0.0
 10
128.0237101236979
 20
107.33677300347222
 30
0.0
 10
127.96617702907984
 20
107.88867730034721
 30
0.0
 10
127.96617702907984
 20
107.88867730034721
 30
0.0
  0
SPLINE
  5
101
100
AcDbEntity
  8
レイヤー_1
 62
     7
100
AcDbSpline
210
0.0
220
0.0
230
1.0
 70
     8
 71
     3
 72
    41
 73
    37
 74
     0
 42
0.00000001
 43
0.00000001
 40
0.0
 40
0.0
 40
0.0
 40
0.0
 40
1.0
 40
1.0
 40
1.0
 40
2.0
 40
2.0
 40
2.0
 40
3.0
 40
3.0
 40
3.0
 40
4.0
 40
4.0
 40
4.0
 40
5.0
 40
5.0
 40
5.0
 40
6.0
 40
6.0
 40
6.0
 40
7.0
 40
7.0
 40
7.0
 40
8.0
 40
8.0
 40
8.0
 40
9.0
 40
9.0
 40
9.0
 40
10.0
 40
10.0
 40
10.0
 40
11.0
 40
11.0
 40
11.0
 40
12.0
 40
12.0
 40
12.0
 40
12.0
 10
128.1294745551215
 20
108.13603515624999
 30
0.0
 10
128.1294745551215
 20
108.13603515624999
 30
0.0
 10
128.21629096137153
 20
107.30714518229166
 30
0.0
 10
128.21629096137153
 20
107.30714518229166
 30
0.0
 10
128.23007134331596
 20
107.17623155381943
 30
0.0
 10
128.19940999348958
 20
107.06323242187499
 30
0.0
 10
128.1229288736979
 20
106.96814778645832
 30
0.0
 10
128.04575873480903
 20
106.87375217013889
 30
0.0
 10
127.93241509331597
 20
106.8186306423611
 30
0.0
 10
127.78117540147568
 20
106.80278320312499
 30
0.0
 10
127.6299357096354
 20
106.78693576388888
 30
0.0
 10
127.50660129123263
 20
106.81725260416665
 30
0.0
 10
127.41255018446179
 20
106.89373372395832
 30
0.0
 10
127.36190728081596
 20
106.93507486979166
 30
0.0
 10
127.32470024956596
 20
106.99708658854166
 30
0.0
 10
127.30334065755207
 20
107.08114691840277
 30
0.0
 10
127.30334065755207
 20
107.08114691840277
 30
0.0
 10
126.58434922960069
 20
106.61674804687499
 30
0.0
 10
126.58434922960069
 20
106.61674804687499
 30
0.0
 10
126.58434922960069
 20
106.61674804687499
 30
0.0
 10
126.55816650390624
 20
106.86341688368054
 30
0.0
 10
126.55816650390624
 20
106.86341688368054
 30
0.0
 10
126.55816650390624
 20
106.86341688368054
 30
0.0
 10
127.25063069661458
 20
107.29543185763887
 30
0.0
 10
127.25063069661458
 20
107.29543185763887
 30
0.0
 10
127.25063069661458
 20
107.29543185763887
 30
0.0
 10
127.19688720703124
 20
107.80875108506943
 30
0.0
 10
127.19688720703124
 20
107.80875108506943
 30
0.0
 10
127.19688720703124
 20
107.80875108506943
 30
0.0
 10
126.46687147352429
 20
107.73158094618054
 30
0.0
 10
126.46687147352429
 20
107.73158094618054
 30
0.0
 10
126.46687147352429
 20
107.73158094618054
 30
0.0
 10
126.44275580512152
 20
107.95826822916666
 30
0.0
 10
126.44275580512152
 20
107.95826822916666
 30
0.0
 10
126.44275580512152
 20
107.95826822916666
 30
0.0
 10
128.1294745551215
 20
108.13603515624999
 30
0.0
 10
128.1294745551215
 20
108.13603515624999
 30
0.0
  0
SPLINE
  5
100
100
AcDbEntity
  8
レイヤー_1
 62
     7
100
AcDbSpline
210
0.0
220
0.0
230
1.0
 70
     8
 71
     3
 72
    26
 73
    22
 74
     0
 42
0.00000001
 43
0.00000001
 40
0.0
 40
0.0
 40
0.0
 40
0.0
 40
1.0
 40
1.0
 40
1.0
 40
2.0
 40
2.0
 40
2.0
 40
3.0
 40
3.0
 40
3.0
 40
4.0
 40
4.0
 40
4.0
 40
5.0
 40
5.0
 40
5.0
 40
6.0
 40
6.0
 40
6.0
 40
7.0
 40
7.0
 40
7.0
 40
7.0
 10
127.7229532877604
 20
103.70633138020833
 30
0.0
 10
127.7229532877604
 20
103.70633138020833
 30
0.0
 10
127.16622585720485
 20
103.88754340277777
 30
0.0
 10
127.16622585720485
 20
103.88754340277777
 30
0.0
 10
127.16622585720485
 20
103.88754340277777
 30
0.0
 10
126.98535834418402
 20
103.33219401041666
 30
0.0
 10
126.98535834418402
 20
103.33219401041666
 30
0.0
 10
126.96572129991318
 20
103.26811523437499
 30
0.0
 10
126.96951090494791
 20
103.20817057291666
 30
0.0
 10
126.99982774522569
 20
103.14960394965277
 30
0.0
 10
127.02876654730902
 20
103.09103732638889
 30
0.0
 10
127.09112277560763
 20
103.04694010416665
 30
0.0
 10
127.18517388237846
 20
103.01662326388887
 30
0.0
 10
127.27371283637152
 20
102.98837348090277
 30
0.0
 10
127.35122748480902
 20
102.99044053819443
 30
0.0
 10
127.41771782769096
 20
103.02420247395833
 30
0.0
 10
127.48386366102429
 20
103.05934244791666
 30
0.0
 10
127.52864990234374
 20
103.10964084201387
 30
0.0
 10
127.55069851345485
 20
103.1785427517361
 30
0.0
 10
127.55069851345485
 20
103.1785427517361
 30
0.0
 10
127.7229532877604
 20
103.70633138020833
 30
0.0
 10
127.7229532877604
 20
103.70633138020833
 30
0.0
  0
SPLINE
  5
FF
100
AcDbEntity
  8
レイヤー_1
 62
     7
100
AcDbSpline
210
0.0
220
0.0
230
1.0
 70
     8
 71
     3
 72
    41
 73
    37
 74
     0
 42
0.00000001
 43
0.00000001
 40
0.0
 40
0.0
 40
0.0
 40
0.0
 40
1.0
 40
1.0
 40
1.0
 40
2.0
 40
2.0
 40
2.0
 40
3.0
 40
3.0
 40
3.0
 40
4.0
 40
4.0
 40
4.0
 40
5.0
 40
5.0
 40
5.0
 40
6.0
 40
6.0
 40
6.0
 40
7.0
 40
7.0
 40
7.0
 40
8.0
 40
8.0
 40
8.0
 40
9.0
 40
9.0
 40
9.0
 40
10.0
 40
10.0
 40
10.0
 40
11.0
 40
11.0
 40
11.0
 40
12.0
 40
12.0
 40
12.0
 40
12.0
 10
127.97237820095485
 20
103.86618381076389
 30
0.0
 10
127.97237820095485
 20
103.86618381076389
 30
0.0
 10
127.71468505859374
 20
103.07381184895833
 30
0.0
 10
127.71468505859374
 20
103.07381184895833
 30
0.0
 10
127.67403293185762
 20
102.94841037326388
 30
0.0
 10
127.59961886935763
 20
102.85745985243055
 30
0.0
 10
127.49178738064235
 20
102.80233832465277
 30
0.0
 10
127.38257785373263
 20
102.74721679687499
 30
0.0
 10
127.25648735894096
 20
102.74308268229166
 30
0.0
 10
127.1121378580729
 20
102.79062499999999
 30
0.0
 10
126.96709933810763
 20
102.8374782986111
 30
0.0
 10
126.86684705946179
 20
102.91533745659721
 30
0.0
 10
126.81241455078124
 20
103.02282443576388
 30
0.0
 10
126.78244222005208
 20
103.08070203993054
 30
0.0
 10
126.77451850043401
 20
103.15304904513889
 30
0.0
 10
126.78864339192707
 20
103.23917643229166
 30
0.0
 10
126.78864339192707
 20
103.23917643229166
 30
0.0
 10
125.9428724500868
 20
103.106884765625
 30
0.0
 10
125.9428724500868
 20
103.106884765625
 30
0.0
 10
125.9428724500868
 20
103.106884765625
 30
0.0
 10
126.01935356987846
 20
103.34252929687499
 30
0.0
 10
126.01935356987846
 20
103.34252929687499
 30
0.0
 10
126.01935356987846
 20
103.34252929687499
 30
0.0
 10
126.82757297092013
 20
103.45552842881943
 30
0.0
 10
126.82757297092013
 20
103.45552842881943
 30
0.0
 10
126.82757297092013
 20
103.45552842881943
 30
0.0
 10
126.98742540147568
 20
103.94611002604165
 30
0.0
 10
126.98742540147568
 20
103.94611002604165
 30
0.0
 10
126.98742540147568
 20
103.94611002604165
 30
0.0
 10
126.28910454644097
 20
104.17279730902777
 30
0.0
 10
126.28910454644097
 20
104.17279730902777
 30
0.0
 10
126.28910454644097
 20
104.17279730902777
 30
0.0
 10
126.35903998480902
 20
104.38983832465277
 30
0.0
 10
126.35903998480902
 20
104.38983832465277
 30
0.0
 10
126.35903998480902
 20
104.38983832465277
 30
0.0
 10
127.97237820095485
 20
103.86618381076389
 30
0.0
 10
127.97237820095485
 20
103.86618381076389
 30
0.0
  0
POLYLINE
  5
F1
100
AcDbEntity
  8
レイヤー_1
 62
     7
100
AcDb2dPolyline
 66
     1
 10
0.0
 20
0.0
 30
0.0
 70
     1
  0
VERTEX
  5
F2
100
AcDbEntity
  8
レイヤー_1
 62
     7
100
AcDbVertex
100
AcDb2dVertex
 10
127.225481
 20
101.85287
 30
0.0
  0
VERTEX
  5
F3
100
AcDbEntity
  8
レイヤー_1
 62
     7
100
AcDbVertex
100
AcDb2dVertex
 10
126.680467
 20
100.907536
 30
0.0
  0
VERTEX
  5
F4
100
AcDbEntity
  8
レイヤー_1
 62
     7
100
AcDbVertex
100
AcDb2dVertex
 10
126.51717
 20
101.001931
 30
0.0
  0
VERTEX
  5
F5
100
AcDbEntity
  8
レイヤー_1
 62
     7
100
AcDbVertex
100
AcDb2dVertex
 10
126.948151
 20
101.750206
 30
0.0
  0
VERTEX
  5
F6
100
AcDbEntity
  8
レイヤー_1
 62
     7
100
AcDbVertex
100
AcDb2dVertex
 10
126.493743
 20
102.012722
 30
0.0
  0
VERTEX
  5
F7
100
AcDbEntity
  8
レイヤー_1
 62
     7
100
AcDbVertex
100
AcDb2dVertex
 10
126.091701
 20
101.316813
 30
0.0
  0
VERTEX
  5
F8
100
AcDbEntity
  8
レイヤー_1
 62
     7
100
AcDbVertex
100
AcDb2dVertex
 10
125.928748
 20
101.411209
 30
0.0
  0
VERTEX
  5
F9
100
AcDbEntity
  8
レイヤー_1
 62
     7
100
AcDbVertex
100
AcDb2dVertex
 10
126.330446
 20
102.106429
 30
0.0
  0
VERTEX
  5
FA
100
AcDbEntity
  8
レイヤー_1
 62
     7
100
AcDbVertex
100
AcDb2dVertex
 10
125.806447
 20
102.409597
 30
0.0
  0
VERTEX
  5
FB
100
AcDbEntity
  8
レイヤー_1
 62
     7
100
AcDbVertex
100
AcDb2dVertex
 10
125.350316
 20
101.619293
 30
0.0
  0
VERTEX
  5
FC
100
AcDbEntity
  8
レイヤー_1
 62
     7
100
AcDbVertex
100
AcDb2dVertex
 10
125.187363
 20
101.712999
 30
0.0
  0
VERTEX
  5
FD
100
AcDbEntity
  8
レイヤー_1
 62
     7
100
AcDbVertex
100
AcDb2dVertex
 10
125.756837
 20
102.701053
 30
0.0
  0
SEQEND
  5
FE
100
AcDbEntity
  8
レイヤー_1
 62
     7
  0
SPLINE
  5
F0
100
AcDbEntity
  8
レイヤー_1
 62
     7
100
AcDbSpline
210
0.0
220
0.0
230
1.0
 70
     8
 71
     3
 72
    47
 73
    43
 74
     0
 42
0.00000001
 43
0.00000001
 40
0.0
 40
0.0
 40
0.0
 40
0.0
 40
1.0
 40
1.0
 40
1.0
 40
2.0
 40
2.0
 40
2.0
 40
3.0
 40
3.0
 40
3.0
 40
4.0
 40
4.0
 40
4.0
 40
5.0
 40
5.0
 40
5.0
 40
6.0
 40
6.0
 40
6.0
 40
7.0
 40
7.0
 40
7.0
 40
8.0
 40
8.0
 40
8.0
 40
9.0
 40
9.0
 40
9.0
 40
10.0
 40
10.0
 40
10.0
 40
11.0
 40
11.0
 40
11.0
 40
12.0
 40
12.0
 40
12.0
 40
13.0
 40
13.0
 40
13.0
 40
14.0
 40
14.0
 40
14.0
 40
14.0
 10
126.08481038411458
 20
100.03454861111111
 30
0.0
 10
126.08481038411458
 20
100.03454861111111
 30
0.0
 10
125.93288167317708
 20
99.865738932291663
 30
0.0
 10
125.93288167317708
 20
99.865738932291663
 30
0.0
 10
125.93288167317708
 20
99.865738932291663
 30
0.0
 10
125.04852566189236
 20
100.66155598958332
 30
0.0
 10
125.04852566189236
 20
100.66155598958332
 30
0.0
 10
124.97927924262152
 20
100.72425672743054
 30
0.0
 10
124.90348714192707
 20
100.75250651041665
 30
0.0
 10
124.81942681206596
 20
100.74768337673611
 30
0.0
 10
124.71641845703124
 20
100.74354926215277
 30
0.0
 10
124.61823323567707
 20
100.688427734375
 30
0.0
 10
124.52590467664929
 20
100.58507486979165
 30
0.0
 10
124.43288709852429
 20
100.48172200520833
 30
0.0
 10
124.38878987630207
 20
100.37974717881943
 30
0.0
 10
124.39499104817708
 20
100.2763943142361
 30
0.0
 10
124.39878065321179
 20
100.192333984375
 30
0.0
 10
124.43564317491318
 20
100.11998697916665
 30
0.0
 10
124.5042005750868
 20
100.05728624131943
 30
0.0
 10
124.5042005750868
 20
100.05728624131943
 30
0.0
 10
125.38890109592013
 20
99.260780164930551
 30
0.0
 10
125.38890109592013
 20
99.260780164930551
 30
0.0
 10
125.38890109592013
 20
99.260780164930551
 30
0.0
 10
125.23593885633679
 20
99.091970486111109
 30
0.0
 10
125.23593885633679
 20
99.091970486111109
 30
0.0
 10
125.23593885633679
 20
99.091970486111109
 30
0.0
 10
124.34400363498263
 20
99.893988715277771
 30
0.0
 10
124.34400363498263
 20
99.893988715277771
 30
0.0
 10
124.23651665581596
 20
99.99251844618054
 30
0.0
 10
124.1786390516493
 20
100.10620659722221
 30
0.0
 10
124.17209337022568
 20
100.23643120659722
 30
0.0
 10
124.16416965060763
 20
100.38663736979166
 30
0.0
 10
124.23582763671874
 20
100.54442274305555
 30
0.0
 10
124.38568929036457
 20
100.7104763454861
 30
0.0
 10
124.53692898220486
 20
100.87859700520832
 30
0.0
 10
124.68610161675346
 20
100.96541341145833
 30
0.0
 10
124.83561876085068
 20
100.97368164062499
 30
0.0
 10
124.9661878797743
 20
100.98057183159722
 30
0.0
 10
125.08607720269096
 20
100.93509657118055
 30
0.0
 10
125.19321967230901
 20
100.83725585937499
 30
0.0
 10
125.19321967230901
 20
100.83725585937499
 30
0.0
 10
126.08481038411458
 20
100.03454861111111
 30
0.0
 10
126.08481038411458
 20
100.03454861111111
 30
0.0
  0
SPLINE
  5
EF
100
AcDbEntity
  8
レイヤー_1
 62
     7
100
AcDbSpline
210
0.0
220
0.0
230
1.0
 70
     8
 71
     3
 72
    92
 73
    88
 74
     0
 42
0.00000001
 43
0.00000001
 40
0.0
 40
0.0
 40
0.0
 40
0.0
 40
1.0
 40
1.0
 40
1.0
 40
2.0
 40
2.0
 40
2.0
 40
3.0
 40
3.0
 40
3.0
 40
4.0
 40
4.0
 40
4.0
 40
5.0
 40
5.0
 40
5.0
 40
6.0
 40
6.0
 40
6.0
 40
7.0
 40
7.0
 40
7.0
 40
8.0
 40
8.0
 40
8.0
 40
9.0
 40
9.0
 40
9.0
 40
10.0
 40
10.0
 40
10.0
 40
11.0
 40
11.0
 40
11.0
 40
12.0
 40
12.0
 40
12.0
 40
13.0
 40
13.0
 40
13.0
 40
14.0
 40
14.0
 40
14.0
 40
15.0
 40
15.0
 40
15.0
 40
16.0
 40
16.0
 40
16.0
 40
17.0
 40
17.0
 40
17.0
 40
18.0
 40
18.0
 40
18.0
 40
19.0
 40
19.0
 40
19.0
 40
20.0
 40
20.0
 40
20.0
 40
21.0
 40
21.0
 40
21.0
 40
22.0
 40
22.0
 40
22.0
 40
23.0
 40
23.0
 40
23.0
 40
24.0
 40
24.0
 40
24.0
 40
25.0
 40
25.0
 40
25.0
 40
26.0
 40
26.0
 40
26.0
 40
27.0
 40
27.0
 40
27.0
 40
28.0
 40
28.0
 40
28.0
 40
29.0
 40
29.0
 40
29.0
 40
29.0
 10
124.37604302300346
 20
98.486322699652774
 30
0.0
 10
124.35606146918401
 20
98.356787109374991
 30
0.0
 10
124.26821153428818
 20
98.235519748263883
 30
0.0
 10
124.11318223741318
 20
98.12389865451388
 30
0.0
 10
123.94712863498263
 20
98.003320312499994
 30
0.0
 10
123.79072129991319
 20
97.954399956597214
 30
0.0
 10
123.6425821940104
 20
97.977826605902763
 30
0.0
 10
123.51373562282986
 20
97.998497178819434
 30
0.0
 10
123.41141628689235
 20
98.059130859374989
 30
0.0
 10
123.33803575303818
 20
98.160416666666663
 30
0.0
 10
123.33803575303818
 20
98.160416666666663
 30
0.0
 10
123.52303738064235
 20
98.294775390624991
 30
0.0
 10
123.52303738064235
 20
98.294775390624991
 30
0.0
 10
123.56920166015624
 20
98.230696614583323
 30
0.0
 10
123.62949083116318
 20
98.192800564236109
 30
0.0
 10
123.70356038411457
 20
98.18108723958332
 30
0.0
 10
123.78624267578124
 20
98.1679958767361
 30
0.0
 10
123.87891574435763
 20
98.198312717013877
 30
0.0
 10
123.9805460611979
 20
98.272037760416652
 30
0.0
 10
124.09285617404512
 20
98.3540310329861
 30
0.0
 10
124.15452338324651
 20
98.431201171874989
 30
0.0
 10
124.16623670789929
 20
98.505615234374986
 30
0.0
 10
124.17691650390624
 20
98.570383029513877
 30
0.0
 10
124.16416965060763
 20
98.626193576388886
 30
0.0
 10
124.12937418619791
 20
98.674424913194429
 30
0.0
 10
124.09457872178818
 20
98.722656249999986
 30
0.0
 10
124.05874972873262
 20
98.749527994791663
 30
0.0
 10
124.02119818793402
 20
98.755040147569431
 30
0.0
 10
123.97434488932291
 20
98.76193033854166
 30
0.0
 10
123.90785454644096
 20
98.754351128472209
 30
0.0
 10
123.81862657335068
 20
98.73092447916666
 30
0.0
 10
123.65670708550346
 20
98.6950954861111
 30
0.0
 10
123.47308349609374
 20
98.656510416666663
 30
0.0
 10
123.26775580512151
 20
98.612413194444429
 30
0.0
 10
123.21297878689235
 20
98.597943793402763
 30
0.0
 10
123.15337863498263
 20
98.595187717013886
 30
0.0
 10
123.08895534939235
 20
98.604833984374991
 30
0.0
 10
122.9883585611979
 20
98.621370442708326
 30
0.0
 10
122.9073988172743
 20
98.66891276041666
 30
0.0
 10
122.8488321940104
 20
98.749527994791663
 30
0.0
 10
122.77200656467012
 20
98.857014973958329
 30
0.0
 10
122.74237874348957
 20
98.974837239583323
 30
0.0
 10
122.76373833550346
 20
99.104372829861106
 30
0.0
 10
122.78475341796874
 20
99.242176649305549
 30
0.0
 10
122.88707275390624
 20
99.3772243923611
 30
0.0
 10
123.06862928602429
 20
99.509516059027774
 30
0.0
 10
123.24570719401041
 20
99.637673611111097
 30
0.0
 10
123.41692843967013
 20
99.689350043402769
 30
0.0
 10
123.58298204210068
 20
99.662478298611106
 30
0.0
 10
123.70356038411457
 20
99.643874782986103
 30
0.0
 10
123.81173638237846
 20
99.567393663194437
 30
0.0
 10
123.90819905598957
 20
99.433723958333317
 30
0.0
 10
123.90819905598957
 20
99.433723958333317
 30
0.0
 10
123.72388644748263
 20
99.299365234374989
 30
0.0
 10
123.72388644748263
 20
99.299365234374989
 30
0.0
 10
123.65464002821179
 20
99.396516927083326
 30
0.0
 10
123.58263753255207
 20
99.449571397569429
 30
0.0
 10
123.5089124891493
 20
99.46197374131944
 30
0.0
 10
123.40624864366319
 20
99.477821180555551
 30
0.0
 10
123.29462754991319
 20
99.441303168402769
 30
0.0
 10
123.17129313151041
 20
99.35104166666666
 30
0.0
 10
123.05967203776041
 20
99.269737413194434
 30
0.0
 10
122.99490424262152
 20
99.18292100694444
 30
0.0
 10
122.98112386067707
 20
99.090592447916663
 30
0.0
 10
122.97009955512152
 20
99.017556423611097
 30
0.0
 10
122.97871229383679
 20
98.958989800347211
 30
0.0
 10
123.01109619140624
 20
98.916270616319437
 30
0.0
 10
123.04485812717013
 20
98.86803927951388
 30
0.0
 10
123.09102240668402
 20
98.838411458333326
 30
0.0
 10
123.14545491536457
 20
98.830143229166652
 30
0.0
 10
123.19230821397568
 20
98.822564019097214
 30
0.0
 10
123.25397542317707
 20
98.827387152777774
 30
0.0
 10
123.33217909071179
 20
98.843234592013886
 30
0.0
 10
123.40487060546874
 20
98.855636935763883
 30
0.0
 10
123.49823269314236
 20
98.874240451388886
 30
0.0
 10
123.61123182508679
 20
98.89904513888888
 30
0.0
 10
123.73766682942707
 20
98.92522786458332
 30
0.0
 10
123.8410196940104
 20
98.946587456597214
 30
0.0
 10
123.91887885199651
 20
98.963123914930549
 30
0.0
 10
123.97434488932291
 20
98.97897135416666
 30
0.0
 10
124.02877739800346
 20
98.981727430555551
 30
0.0
 10
124.08458794487846
 20
98.973459201388877
 30
0.0
 10
124.16727023654512
 20
98.959678819444434
 30
0.0
 10
124.23823920355902
 20
98.912825520833323
 30
0.0
 10
124.29611680772568
 20
98.832899305555543
 30
0.0
 10
124.36984185112846
 20
98.73092447916666
 30
0.0
 10
124.39636908637152
 20
98.615858289930543
 30
0.0
 10
124.37604302300346
 20
98.486322699652774
 30
0.0
  0
POLYLINE
  5
E1
100
AcDbEntity
  8
レイヤー_1
 62
     7
100
AcDb2dPolyline
 66
     1
 10
0.0
 20
0.0
 30
0.0
 70
     1
  0
VERTEX
  5
E2
100
AcDbEntity
  8
レイヤー_1
 62
     7
100
AcDbVertex
100
AcDb2dVertex
 10
122.809558
 20
97.297076
 30
0.0
  0
VERTEX
  5
E3
100
AcDbEntity
  8
レイヤー_1
 62
     7
100
AcDbVertex
100
AcDb2dVertex
 10
121.813236
 20
96.853347
 30
0.0
  0
VERTEX
  5
E4
100
AcDbEntity
  8
レイヤー_1
 62
     7
100
AcDbVertex
100
AcDb2dVertex
 10
121.736755
 20
97.024913
 30
0.0
  0
VERTEX
  5
E5
100
AcDbEntity
  8
レイヤー_1
 62
     7
100
AcDbVertex
100
AcDb2dVertex
 10
122.524993
 20
97.377002
 30
0.0
  0
VERTEX
  5
E6
100
AcDbEntity
  8
レイヤー_1
 62
     7
100
AcDbVertex
100
AcDb2dVertex
 10
122.311742
 20
97.856559
 30
0.0
  0
VERTEX
  5
E7
100
AcDbEntity
  8
レイヤー_1
 62
     7
100
AcDbVertex
100
AcDb2dVertex
 10
121.576903
 20
97.530653
 30
0.0
  0
VERTEX
  5
E8
100
AcDbEntity
  8
レイヤー_1
 62
     7
100
AcDbVertex
100
AcDb2dVertex
 10
121.500077
 20
97.702219
 30
0.0
  0
VERTEX
  5
E9
100
AcDbEntity
  8
レイヤー_1
 62
     7
100
AcDbVertex
100
AcDb2dVertex
 10
122.234572
 20
98.028125
 30
0.0
  0
VERTEX
  5
EA
100
AcDbEntity
  8
レイヤー_1
 62
     7
100
AcDbVertex
100
AcDb2dVertex
 10
121.988592
 20
98.581407
 30
0.0
  0
VERTEX
  5
EB
100
AcDbEntity
  8
レイヤー_1
 62
     7
100
AcDbVertex
100
AcDb2dVertex
 10
121.155223
 20
98.210026
 30
0.0
  0
VERTEX
  5
EC
100
AcDbEntity
  8
レイヤー_1
 62
     7
100
AcDbVertex
100
AcDb2dVertex
 10
121.078742
 20
98.381592
 30
0.0
  0
VERTEX
  5
ED
100
AcDbEntity
  8
レイヤー_1
 62
     7
100
AcDbVertex
100
AcDb2dVertex
 10
122.11985
 20
98.84668
 30
0.0
  0
SEQEND
  5
EE
100
AcDbEntity
  8
レイヤー_1
 62
     7
  0
SPLINE
  5
E0
100
AcDbEntity
  8
レイヤー_1
 62
     7
100
AcDbSpline
210
0.0
220
0.0
230
1.0
 70
     8
 71
     3
 72
    26
 73
    22
 74
     0
 42
0.00000001
 43
0.00000001
 40
0.0
 40
0.0
 40
0.0
 40
0.0
 40
1.0
 40
1.0
 40
1.0
 40
2.0
 40
2.0
 40
2.0
 40
3.0
 40
3.0
 40
3.0
 40
4.0
 40
4.0
 40
4.0
 40
5.0
 40
5.0
 40
5.0
 40
6.0
 40
6.0
 40
6.0
 40
7.0
 40
7.0
 40
7.0
 40
7.0
 10
116.37515326605902
 20
96.439246961805551
 30
0.0
 10
116.37515326605902
 20
96.439246961805551
 30
0.0
 10
116.5112345377604
 20
97.078656684027763
 30
0.0
 10
116.5112345377604
 20
97.078656684027763
 30
0.0
 10
116.5112345377604
 20
97.078656684027763
 30
0.0
 10
116.00652804904513
 20
97.186143663194429
 30
0.0
 10
116.00652804904513
 20
97.186143663194429
 30
0.0
 10
115.91626654730902
 20
97.205436197916654
 30
0.0
 10
115.83944091796874
 20
97.194411892361103
 30
0.0
 10
115.77674018012152
 20
97.153759765624997
 30
0.0
 10
115.70611572265624
 20
97.108284505208331
 30
0.0
 10
115.66064046223957
 20
97.036626519097211
 30
0.0
 10
115.63996988932291
 20
96.939474826388874
 30
0.0
 10
115.61688774956596
 20
96.82992078993054
 30
0.0
 10
115.62515597873262
 20
96.743793402777769
 30
0.0
 10
115.66615261501735
 20
96.681092664930546
 30
0.0
 10
115.71162787543402
 20
96.610123697916663
 30
0.0
 10
115.78018527560762
 20
96.56533745659722
 30
0.0
 10
115.87079128689236
 20
96.546044921874994
 30
0.0
 10
115.87079128689236
 20
96.546044921874994
 30
0.0
 10
116.37515326605902
 20
96.439246961805551
 30
0.0
 10
116.37515326605902
 20
96.439246961805551
 30
0.0
  0
SPLINE
  5
DF
100
AcDbEntity
  8
レイヤー_1
 62
     7
100
AcDbSpline
210
0.0
220
0.0
230
1.0
 70
     8
 71
     3
 72
    32
 73
    28
 74
     0
 42
0.00000001
 43
0.00000001
 40
0.0
 40
0.0
 40
0.0
 40
0.0
 40
1.0
 40
1.0
 40
1.0
 40
2.0
 40
2.0
 40
2.0
 40
3.0
 40
3.0
 40
3.0
 40
4.0
 40
4.0
 40
4.0
 40
5.0
 40
5.0
 40
5.0
 40
6.0
 40
6.0
 40
6.0
 40
7.0
 40
7.0
 40
7.0
 40
8.0
 40
8.0
 40
8.0
 40
9.0
 40
9.0
 40
9.0
 40
9.0
 10
116.55912136501735
 20
96.207047526041663
 30
0.0
 10
116.55912136501735
 20
96.207047526041663
 30
0.0
 10
115.78294135199651
 20
96.372412109374991
 30
0.0
 10
115.78294135199651
 20
96.372412109374991
 30
0.0
 10
115.64100341796873
 20
96.402039930555546
 30
0.0
 10
115.53420545789929
 20
96.47231987847222
 30
0.0
 10
115.4628919813368
 20
96.58187391493054
 30
0.0
 10
115.39123399522569
 20
96.692116970486097
 30
0.0
 10
115.3729749891493
 20
96.827853732638886
 30
0.0
 10
115.40742594401041
 20
96.989084201388877
 30
0.0
 10
115.44187689887151
 20
97.151003689236106
 30
0.0
 10
115.5094007703993
 20
97.264691840277763
 30
0.0
 10
115.6120646158854
 20
97.331526692708323
 30
0.0
 10
115.71369493272569
 20
97.39767252604166
 30
0.0
 10
115.84254150390623
 20
97.414208984374994
 30
0.0
 10
115.99757080078123
 20
97.381136067708326
 30
0.0
 10
115.99757080078123
 20
97.381136067708326
 30
0.0
 10
116.55050862630208
 20
97.263313802083331
 30
0.0
 10
116.55050862630208
 20
97.263313802083331
 30
0.0
 10
116.55050862630208
 20
97.263313802083331
 30
0.0
 10
116.68865695529513
 20
97.913747829861109
 30
0.0
 10
116.68865695529513
 20
97.913747829861109
 30
0.0
 10
116.68865695529513
 20
97.913747829861109
 30
0.0
 10
116.91155463324651
 20
97.866205512152774
 30
0.0
 10
116.91155463324651
 20
97.866205512152774
 30
0.0
 10
116.91155463324651
 20
97.866205512152774
 30
0.0
 10
116.55912136501735
 20
96.207047526041663
 30
0.0
 10
116.55912136501735
 20
96.207047526041663
 30
0.0
  0
POLYLINE
  5
DA
100
AcDbEntity
  8
レイヤー_1
 62
     7
100
AcDb2dPolyline
 66
     1
 10
0.0
 20
0.0
 30
0.0
 70
     1
  0
VERTEX
  5
DB
100
AcDbEntity
  8
レイヤー_1
 62
     7
100
AcDbVertex
100
AcDb2dVertex
 10
113.896752
 20
97.327393
 30
0.0
  0
VERTEX
  5
DC
100
AcDbEntity
  8
レイヤー_1
 62
     7
100
AcDbVertex
100
AcDb2dVertex
 10
114.41076
 20
97.846913
 30
0.0
  0
VERTEX
  5
DD
100
AcDbEntity
  8
レイヤー_1
 62
     7
100
AcDbVertex
100
AcDb2dVertex
 10
113.939126
 20
98.057064
 30
0.0
  0
SEQEND
  5
DE
100
AcDbEntity
  8
レイヤー_1
 62
     7
  0
POLYLINE
  5
CF
100
AcDbEntity
  8
レイヤー_1
 62
     7
100
AcDb2dPolyline
 66
     1
 10
0.0
 20
0.0
 30
0.0
  0
VERTEX
  5
D0
100
AcDbEntity
  8
レイヤー_1
 62
     7
100
AcDbVertex
100
AcDb2dVertex
 10
115.167992
 20
98.280306
 30
0.0
  0
VERTEX
  5
D1
100
AcDbEntity
  8
レイヤー_1
 62
     7
100
AcDbVertex
100
AcDb2dVertex
 10
113.854032
 20
96.987706
 30
0.0
  0
VERTEX
  5
D2
100
AcDbEntity
  8
レイヤー_1
 62
     7
100
AcDbVertex
100
AcDb2dVertex
 10
113.67282
 20
97.068321
 30
0.0
  0
VERTEX
  5
D3
100
AcDbEntity
  8
レイヤー_1
 62
     7
100
AcDbVertex
100
AcDb2dVertex
 10
113.754814
 20
98.910069
 30
0.0
  0
VERTEX
  5
D4
100
AcDbEntity
  8
レイヤー_1
 62
     7
100
AcDbVertex
100
AcDb2dVertex
 10
113.972199
 20
98.812918
 30
0.0
  0
VERTEX
  5
D5
100
AcDbEntity
  8
レイヤー_1
 62
     7
100
AcDbVertex
100
AcDb2dVertex
 10
113.952907
 20
98.257568
 30
0.0
  0
VERTEX
  5
D6
100
AcDbEntity
  8
レイヤー_1
 62
     7
100
AcDbVertex
100
AcDb2dVertex
 10
114.550631
 20
97.990918
 30
0.0
  0
VERTEX
  5
D7
100
AcDbEntity
  8
レイヤー_1
 62
     7
100
AcDbVertex
100
AcDb2dVertex
 10
114.950262
 20
98.377458
 30
0.0
  0
VERTEX
  5
D8
100
AcDbEntity
  8
レイヤー_1
 62
     7
100
AcDbVertex
100
AcDb2dVertex
 10
115.167992
 20
98.280306
 30
0.0
  0
SEQEND
  5
D9
100
AcDbEntity
  8
レイヤー_1
 62
     7
  0
POLYLINE
  5
C5
100
AcDbEntity
  8
レイヤー_1
 62
     7
100
AcDb2dPolyline
 66
     1
 10
0.0
 20
0.0
 30
0.0
 70
     1
  0
VERTEX
  5
C6
100
AcDbEntity
  8
レイヤー_1
 62
     7
100
AcDbVertex
100
AcDb2dVertex
 10
112.550408
 20
97.674658
 30
0.0
  0
VERTEX
  5
C7
100
AcDbEntity
  8
レイヤー_1
 62
     7
100
AcDbVertex
100
AcDb2dVertex
 10
111.451078
 20
98.473231
 30
0.0
  0
VERTEX
  5
C8
100
AcDbEntity
  8
レイヤー_1
 62
     7
100
AcDbVertex
100
AcDb2dVertex
 10
111.56201
 20
98.625505
 30
0.0
  0
VERTEX
  5
C9
100
AcDbEntity
  8
レイヤー_1
 62
     7
100
AcDbVertex
100
AcDb2dVertex
 10
112.019519
 20
98.293397
 30
0.0
  0
VERTEX
  5
CA
100
AcDbEntity
  8
レイヤー_1
 62
     7
100
AcDbVertex
100
AcDb2dVertex
 10
112.905598
 20
99.512961
 30
0.0
  0
VERTEX
  5
CB
100
AcDbEntity
  8
レイヤー_1
 62
     7
100
AcDbVertex
100
AcDb2dVertex
 10
113.08991
 20
99.379291
 30
0.0
  0
VERTEX
  5
CC
100
AcDbEntity
  8
レイヤー_1
 62
     7
100
AcDbVertex
100
AcDb2dVertex
 10
112.203832
 20
98.159039
 30
0.0
  0
VERTEX
  5
CD
100
AcDbEntity
  8
レイヤー_1
 62
     7
100
AcDbVertex
100
AcDb2dVertex
 10
112.660996
 20
97.826931
 30
0.0
  0
SEQEND
  5
CE
100
AcDbEntity
  8
レイヤー_1
 62
     7
  0
POLYLINE
  5
BF
100
AcDbEntity
  8
レイヤー_1
 62
     7
100
AcDb2dPolyline
 66
     1
 10
0.0
 20
0.0
 30
0.0
 70
     1
  0
VERTEX
  5
C0
100
AcDbEntity
  8
レイヤー_1
 62
     7
100
AcDbVertex
100
AcDb2dVertex
 10
109.800533
 20
101.331972
 30
0.0
  0
VERTEX
  5
C1
100
AcDbEntity
  8
レイヤー_1
 62
     7
100
AcDbVertex
100
AcDb2dVertex
 10
110.191207
 20
101.488379
 30
0.0
  0
VERTEX
  5
C2
100
AcDbEntity
  8
レイヤー_1
 62
     7
100
AcDbVertex
100
AcDb2dVertex
 10
110.027909
 20
101.772255
 30
0.0
  0
VERTEX
  5
C3
100
AcDbEntity
  8
レイヤー_1
 62
     7
100
AcDbVertex
100
AcDb2dVertex
 10
109.637236
 20
101.615847
 30
0.0
  0
SEQEND
  5
C4
100
AcDbEntity
  8
レイヤー_1
 62
     7
  0
POLYLINE
  5
A0
100
AcDbEntity
  8
レイヤー_1
 62
     7
100
AcDb2dPolyline
 66
     1
 10
0.0
 20
0.0
 30
0.0
  0
VERTEX
  5
A1
100
AcDbEntity
  8
レイヤー_1
 62
     7
100
AcDbVertex
100
AcDb2dVertex
 10
109.459124
 20
101.546946
 30
0.0
  0
VERTEX
  5
A2
100
AcDbEntity
  8
レイヤー_1
 62
     7
100
AcDbVertex
100
AcDb2dVertex
 10
109.042957
 20
101.37538
 30
0.0
  0
VERTEX
  5
A3
100
AcDbEntity
  8
レイヤー_1
 62
     7
100
AcDbVertex
100
AcDb2dVertex
 10
108.964408
 20
101.512495
 30
0.0
  0
VERTEX
  5
A4
100
AcDbEntity
  8
レイヤー_1
 62
     7
100
AcDbVertex
100
AcDb2dVertex
 10
109.379887
 20
101.68406
 30
0.0
  0
VERTEX
  5
A5
100
AcDbEntity
  8
レイヤー_1
 62
     7
100
AcDbVertex
100
AcDb2dVertex
 10
109.285491
 20
101.846669
 30
0.0
  0
VERTEX
  5
A6
100
AcDbEntity
  8
レイヤー_1
 62
     7
100
AcDbVertex
100
AcDb2dVertex
 10
109.448789
 20
101.941753
 30
0.0
  0
VERTEX
  5
A7
100
AcDbEntity
  8
レイヤー_1
 62
     7
100
AcDbVertex
100
AcDb2dVertex
 10
109.557998
 20
101.752962
 30
0.0
  0
VERTEX
  5
A8
100
AcDbEntity
  8
レイヤー_1
 62
     7
100
AcDbVertex
100
AcDb2dVertex
 10
109.948672
 20
101.90937
 30
0.0
  0
VERTEX
  5
A9
100
AcDbEntity
  8
レイヤー_1
 62
     7
100
AcDbVertex
100
AcDb2dVertex
 10
109.80949
 20
102.149837
 30
0.0
  0
VERTEX
  5
AA
100
AcDbEntity
  8
レイヤー_1
 62
     7
100
AcDbVertex
100
AcDb2dVertex
 10
109.972788
 20
102.244233
 30
0.0
  0
VERTEX
  5
AB
100
AcDbEntity
  8
レイヤー_1
 62
     7
100
AcDbVertex
100
AcDb2dVertex
 10
110.120927
 20
101.98654
 30
0.0
  0
VERTEX
  5
AC
100
AcDbEntity
  8
レイヤー_1
 62
     7
100
AcDbVertex
100
AcDb2dVertex
 10
110.551219
 20
102.15466
 30
0.0
  0
VERTEX
  5
AD
100
AcDbEntity
  8
レイヤー_1
 62
     7
100
AcDbVertex
100
AcDb2dVertex
 10
110.630457
 20
102.017546
 30
0.0
  0
VERTEX
  5
AE
100
AcDbEntity
  8
レイヤー_1
 62
     7
100
AcDbVertex
100
AcDb2dVertex
 10
110.200509
 20
101.848736
 30
0.0
  0
VERTEX
  5
AF
100
AcDbEntity
  8
レイヤー_1
 62
     7
100
AcDbVertex
100
AcDb2dVertex
 10
110.364151
 20
101.56486
 30
0.0
  0
VERTEX
  5
B0
100
AcDbEntity
  8
レイヤー_1
 62
     7
100
AcDbVertex
100
AcDb2dVertex
 10
110.794099
 20
101.73367
 30
0.0
  0
VERTEX
  5
B1
100
AcDbEntity
  8
レイヤー_1
 62
     7
100
AcDbVertex
100
AcDb2dVertex
 10
110.873336
 20
101.596555
 30
0.0
  0
VERTEX
  5
B2
100
AcDbEntity
  8
レイヤー_1
 62
     7
100
AcDbVertex
100
AcDb2dVertex
 10
110.443043
 20
101.427745
 30
0.0
  0
VERTEX
  5
B3
100
AcDbEntity
  8
レイヤー_1
 62
     7
100
AcDbVertex
100
AcDb2dVertex
 10
110.542951
 20
101.256179
 30
0.0
  0
VERTEX
  5
B4
100
AcDbEntity
  8
レイヤー_1
 62
     7
100
AcDbVertex
100
AcDb2dVertex
 10
110.379998
 20
101.162473
 30
0.0
  0
VERTEX
  5
B5
100
AcDbEntity
  8
レイヤー_1
 62
     7
100
AcDbVertex
100
AcDb2dVertex
 10
110.270444
 20
101.351264
 30
0.0
  0
VERTEX
  5
B6
100
AcDbEntity
  8
レイヤー_1
 62
     7
100
AcDbVertex
100
AcDb2dVertex
 10
109.880115
 20
101.194857
 30
0.0
  0
VERTEX
  5
B7
100
AcDbEntity
  8
レイヤー_1
 62
     7
100
AcDbVertex
100
AcDb2dVertex
 10
110.018952
 20
100.9537
 30
0.0
  0
VERTEX
  5
B8
100
AcDbEntity
  8
レイヤー_1
 62
     7
100
AcDbVertex
100
AcDb2dVertex
 10
109.855655
 20
100.859993
 30
0.0
  0
VERTEX
  5
B9
100
AcDbEntity
  8
レイヤー_1
 62
     7
100
AcDbVertex
100
AcDb2dVertex
 10
109.702003
 20
101.125266
 30
0.0
  0
VERTEX
  5
BA
100
AcDbEntity
  8
レイヤー_1
 62
     7
100
AcDbVertex
100
AcDb2dVertex
 10
109.28618
 20
100.954389
 30
0.0
  0
VERTEX
  5
BB
100
AcDbEntity
  8
レイヤー_1
 62
     7
100
AcDbVertex
100
AcDb2dVertex
 10
109.206943
 20
101.092193
 30
0.0
  0
VERTEX
  5
BC
100
AcDbEntity
  8
レイヤー_1
 62
     7
100
AcDbVertex
100
AcDb2dVertex
 10
109.622422
 20
101.26307
 30
0.0
  0
VERTEX
  5
BD
100
AcDbEntity
  8
レイヤー_1
 62
     7
100
AcDbVertex
100
AcDb2dVertex
 10
109.459124
 20
101.546946
 30
0.0
  0
SEQEND
  5
BE
100
AcDbEntity
  8
レイヤー_1
 62
     7
  0
SPLINE
  5
9F
100
AcDbEntity
  8
レイヤー_1
 62
     7
100
AcDbSpline
210
0.0
220
0.0
230
1.0
 70
     8
 71
     3
 72
    83
 73
    79
 74
     0
 42
0.00000001
 43
0.00000001
 40
0.0
 40
0.0
 40
0.0
 40
0.0
 40
1.0
 40
1.0
 40
1.0
 40
2.0
 40
2.0
 40
2.0
 40
3.0
 40
3.0
 40
3.0
 40
4.0
 40
4.0
 40
4.0
 40
5.0
 40
5.0
 40
5.0
 40
6.0
 40
6.0
 40
6.0
 40
7.0
 40
7.0
 40
7.0
 40
8.0
 40
8.0
 40
8.0
 40
9.0
 40
9.0
 40
9.0
 40
10.0
 40
10.0
 40
10.0
 40
11.0
 40
11.0
 40
11.0
 40
12.0
 40
12.0
 40
12.0
 40
13.0
 40
13.0
 40
13.0
 40
14.0
 40
14.0
 40
14.0
 40
15.0
 40
15.0
 40
15.0
 40
16.0
 40
16.0
 40
16.0
 40
17.0
 40
17.0
 40
17.0
 40
18.0
 40
18.0
 40
18.0
 40
19.0
 40
19.0
 40
19.0
 40
20.0
 40
20.0
 40
20.0
 40
21.0
 40
21.0
 40
21.0
 40
22.0
 40
22.0
 40
22.0
 40
23.0
 40
23.0
 40
23.0
 40
24.0
 40
24.0
 40
24.0
 40
25.0
 40
25.0
 40
25.0
 40
26.0
 40
26.0
 40
26.0
 40
26.0
 10
107.88161485460068
 20
104.72470160590277
 30
0.0
 10
107.88161485460068
 20
104.72470160590277
 30
0.0
 10
107.79238688151041
 20
105.57357313368054
 30
0.0
 10
107.79238688151041
 20
105.57357313368054
 30
0.0
 10
107.79238688151041
 20
105.57357313368054
 30
0.0
 10
107.97945556640624
 20
105.59286566840277
 30
0.0
 10
107.97945556640624
 20
105.59286566840277
 30
0.0
 10
107.97945556640624
 20
105.59286566840277
 30
0.0
 10
108.04939100477429
 20
104.93209635416666
 30
0.0
 10
108.04939100477429
 20
104.93209635416666
 30
0.0
 10
108.04939100477429
 20
104.93209635416666
 30
0.0
 10
108.07867431640624
 20
104.93554144965277
 30
0.0
 10
108.07867431640624
 20
104.93554144965277
 30
0.0
 10
108.20407579210068
 20
104.94243164062499
 30
0.0
 10
108.32672119140624
 20
104.94518771701388
 30
0.0
 10
108.44695502387152
 20
104.94449869791666
 30
0.0
 10
108.46624755859374
 20
104.9396755642361
 30
0.0
 10
108.48691813151041
 20
104.93760850694443
 30
0.0
 10
108.50689968532986
 20
104.9396755642361
 30
0.0
 10
108.41904975043401
 20
105.01753472222221
 30
0.0
 10
108.36909586588541
 20
105.10572916666666
 30
0.0
 10
108.35944959852429
 20
105.20425889756943
 30
0.0
 10
108.34566921657985
 20
105.33586154513888
 30
0.0
 10
108.37701958550346
 20
105.44817165798611
 30
0.0
 10
108.45315619574652
 20
105.54256727430554
 30
0.0
 10
108.53549397786458
 20
105.64454210069444
 30
0.0
 10
108.66606309678818
 20
105.70517578124999
 30
0.0
 10
108.84279649522568
 20
105.72377929687499
 30
0.0
 10
109.06707221137152
 20
105.74720594618054
 30
0.0
 10
109.24380560980902
 20
105.70655381944444
 30
0.0
 10
109.37506374782986
 20
105.59975585937499
 30
0.0
 10
109.47634955512152
 20
105.51776258680555
 30
0.0
 10
109.53353814019096
 20
105.40751953124999
 30
0.0
 10
109.54904106987846
 20
105.26902669270832
 30
0.0
 10
109.56282145182291
 20
105.13811306423611
 30
0.0
 10
109.53181559244791
 20
105.02511393229166
 30
0.0
 10
109.45464545355902
 20
104.93071831597221
 30
0.0
 10
109.37885335286457
 20
104.83632269965277
 30
0.0
 10
109.2558634440104
 20
104.76948784722221
 30
0.0
 10
109.08705376519096
 20
104.73159179687499
 30
0.0
 10
109.08705376519096
 20
104.73159179687499
 30
0.0
 10
109.0632826063368
 20
104.95896809895832
 30
0.0
 10
109.0632826063368
 20
104.95896809895832
 30
0.0
 10
109.1873060438368
 20
104.98515082465276
 30
0.0
 10
109.27171088324651
 20
105.02718098958333
 30
0.0
 10
109.31890869140624
 20
105.08574761284721
 30
0.0
 10
109.35404866536457
 20
105.12915581597221
 30
0.0
 10
109.36886257595485
 20
105.18083224826388
 30
0.0
 10
109.36300591362846
 20
105.24008789062499
 30
0.0
 10
109.35404866536457
 20
105.31863606770833
 30
0.0
 10
109.32442084418402
 20
105.37926974826388
 30
0.0
 10
109.27412245008679
 20
105.41992187499999
 30
0.0
 10
109.19419623480901
 20
105.48468967013888
 30
0.0
 10
109.06879475911457
 20
105.50811631944444
 30
0.0
 10
108.89757351345484
 20
105.49020182291666
 30
0.0
 10
108.73324245876735
 20
105.4729763454861
 30
0.0
 10
108.62472195095485
 20
105.43094618055555
 30
0.0
 10
108.57166748046875
 20
105.36548936631944
 30
0.0
 10
108.53652750651041
 20
105.32208116319444
 30
0.0
 10
108.52136908637152
 20
105.27453884548611
 30
0.0
 10
108.52653672960068
 20
105.22148437499999
 30
0.0
 10
108.53480495876735
 20
105.14293619791665
 30
0.0
 10
108.57235649956596
 20
105.07679036458332
 30
0.0
 10
108.63781331380207
 20
105.02373589409721
 30
0.0
 10
108.68122151692707
 20
104.9892849392361
 30
0.0
 10
108.71360541449651
 20
104.96585828993055
 30
0.0
 10
108.7346204969618
 20
104.95483398437499
 30
0.0
 10
108.7346204969618
 20
104.95483398437499
 30
0.0
 10
108.75529106987847
 20
104.75708550347221
 30
0.0
 10
108.75529106987847
 20
104.75708550347221
 30
0.0
 10
108.72841932508679
 20
104.76053059895833
 30
0.0
 10
108.70499267578124
 20
104.76190863715277
 30
0.0
 10
108.6853556315104
 20
104.7598415798611
 30
0.0
 10
108.6853556315104
 20
104.7598415798611
 30
0.0
 10
107.92054443359375
 20
104.72952473958333
 30
0.0
 10
107.92054443359375
 20
104.72952473958333
 30
0.0
 10
107.92054443359375
 20
104.72952473958333
 30
0.0
 10
107.88161485460068
 20
104.72470160590277
 30
0.0
 10
107.88161485460068
 20
104.72470160590277
 30
0.0
  0
SPLINE
  5
9E
100
AcDbEntity
  8
レイヤー_1
 62
     7
100
AcDbSpline
210
0.0
220
0.0
230
1.0
 70
     8
 71
     3
 72
    32
 73
    28
 74
     0
 42
0.00000001
 43
0.00000001
 40
0.0
 40
0.0
 40
0.0
 40
0.0
 40
1.0
 40
1.0
 40
1.0
 40
2.0
 40
2.0
 40
2.0
 40
3.0
 40
3.0
 40
3.0
 40
4.0
 40
4.0
 40
4.0
 40
5.0
 40
5.0
 40
5.0
 40
6.0
 40
6.0
 40
6.0
 40
7.0
 40
7.0
 40
7.0
 40
8.0
 40
8.0
 40
8.0
 40
9.0
 40
9.0
 40
9.0
 40
9.0
 10
107.76275906032986
 20
107.15487196180554
 30
0.0
 10
107.76275906032986
 20
107.15487196180554
 30
0.0
 10
107.77550591362846
 20
107.27407226562499
 30
0.0
 10
107.77550591362846
 20
107.27407226562499
 30
0.0
 10
107.77550591362846
 20
107.27407226562499
 30
0.0
 10
109.48117268880208
 20
107.09423828124999
 30
0.0
 10
109.48117268880208
 20
107.09423828124999
 30
0.0
 10
109.48117268880208
 20
107.09423828124999
 30
0.0
 10
109.45774603949651
 20
106.8682400173611
 30
0.0
 10
109.45774603949651
 20
106.8682400173611
 30
0.0
 10
109.45774603949651
 20
106.8682400173611
 30
0.0
 10
108.14619818793402
 20
107.00535481770832
 30
0.0
 10
108.14619818793402
 20
107.00535481770832
 30
0.0
 10
108.14619818793402
 20
107.00535481770832
 30
0.0
 10
108.11519232855902
 20
106.70907660590277
 30
0.0
 10
108.11519232855902
 20
106.70907660590277
 30
0.0
 10
108.11519232855902
 20
106.70907660590277
 30
0.0
 10
107.99702555338541
 20
106.72147894965276
 30
0.0
 10
107.99702555338541
 20
106.72147894965276
 30
0.0
 10
107.99702555338541
 20
106.72147894965276
 30
0.0
 10
108.00667182074652
 20
106.81036241319444
 30
0.0
 10
108.00667182074652
 20
106.81036241319444
 30
0.0
 10
108.01631808810762
 20
106.90337999131944
 30
0.0
 10
107.9966810438368
 20
106.97779405381944
 30
0.0
 10
107.94982774522569
 20
107.03636067708332
 30
0.0
 10
107.89711778428818
 20
107.10181749131944
 30
0.0
 10
107.83476155598957
 20
107.14178059895832
 30
0.0
 10
107.76275906032986
 20
107.15487196180554
 30
0.0
  0
SPLINE
  5
9D
100
AcDbEntity
  8
レイヤー_1
 62
     7
100
AcDbSpline
210
0.0
220
0.0
230
1.0
 70
     8
 71
     3
 72
    32
 73
    28
 74
     0
 42
0.00000001
 43
0.00000001
 40
0.0
 40
0.0
 40
0.0
 40
0.0
 40
1.0
 40
1.0
 40
1.0
 40
2.0
 40
2.0
 40
2.0
 40
3.0
 40
3.0
 40
3.0
 40
4.0
 40
4.0
 40
4.0
 40
5.0
 40
5.0
 40
5.0
 40
6.0
 40
6.0
 40
6.0
 40
7.0
 40
7.0
 40
7.0
 40
8.0
 40
8.0
 40
8.0
 40
9.0
 40
9.0
 40
9.0
 40
9.0
 10
108.14998779296874
 20
109.26740451388888
 30
0.0
 10
108.14998779296874
 20
109.26740451388888
 30
0.0
 10
108.18685031467012
 20
109.38109266493055
 30
0.0
 10
108.18685031467012
 20
109.38109266493055
 30
0.0
 10
108.18685031467012
 20
109.38109266493055
 30
0.0
 10
109.81775851779513
 20
108.85054796006943
 30
0.0
 10
109.81775851779513
 20
108.85054796006943
 30
0.0
 10
109.81775851779513
 20
108.85054796006943
 30
0.0
 10
109.74782307942708
 20
108.63419596354166
 30
0.0
 10
109.74782307942708
 20
108.63419596354166
 30
0.0
 10
109.74782307942708
 20
108.63419596354166
 30
0.0
 10
108.49380832248264
 20
109.04209526909722
 30
0.0
 10
108.49380832248264
 20
109.04209526909722
 30
0.0
 10
108.49380832248264
 20
109.04209526909722
 30
0.0
 10
108.40182427300346
 20
108.75821940104166
 30
0.0
 10
108.40182427300346
 20
108.75821940104166
 30
0.0
 10
108.40182427300346
 20
108.75821940104166
 30
0.0
 10
108.28882514105902
 20
108.79542643229166
 30
0.0
 10
108.28882514105902
 20
108.79542643229166
 30
0.0
 10
108.28882514105902
 20
108.79542643229166
 30
0.0
 10
108.31673041449652
 20
108.87948676215277
 30
0.0
 10
108.31673041449652
 20
108.87948676215277
 30
0.0
 10
108.34498019748263
 20
108.96837022569443
 30
0.0
 10
108.34187961154512
 20
109.04622938368054
 30
0.0
 10
108.30811767578125
 20
109.11237521701388
 30
0.0
 10
108.2695326063368
 20
109.1874782986111
 30
0.0
 10
108.21682264539929
 20
109.23915473090277
 30
0.0
 10
108.14998779296874
 20
109.26740451388888
 30
0.0
  0
SPLINE
  5
9C
100
AcDbEntity
  8
レイヤー_1
 62
     7
100
AcDbSpline
210
0.0
220
0.0
230
1.0
 70
     8
 71
     3
 72
    98
 73
    94
 74
     0
 42
0.00000001
 43
0.00000001
 40
0.0
 40
0.0
 40
0.0
 40
0.0
 40
1.0
 40
1.0
 40
1.0
 40
2.0
 40
2.0
 40
2.0
 40
3.0
 40
3.0
 40
3.0
 40
4.0
 40
4.0
 40
4.0
 40
5.0
 40
5.0
 40
5.0
 40
6.0
 40
6.0
 40
6.0
 40
7.0
 40
7.0
 40
7.0
 40
8.0
 40
8.0
 40
8.0
 40
9.0
 40
9.0
 40
9.0
 40
10.0
 40
10.0
 40
10.0
 40
11.0
 40
11.0
 40
11.0
 40
12.0
 40
12.0
 40
12.0
 40
13.0
 40
13.0
 40
13.0
 40
14.0
 40
14.0
 40
14.0
 40
15.0
 40
15.0
 40
15.0
 40
16.0
 40
16.0
 40
16.0
 40
17.0
 40
17.0
 40
17.0
 40
18.0
 40
18.0
 40
18.0
 40
19.0
 40
19.0
 40
19.0
 40
20.0
 40
20.0
 40
20.0
 40
21.0
 40
21.0
 40
21.0
 40
22.0
 40
22.0
 40
22.0
 40
23.0
 40
23.0
 40
23.0
 40
24.0
 40
24.0
 40
24.0
 40
25.0
 40
25.0
 40
25.0
 40
26.0
 40
26.0
 40
26.0
 40
27.0
 40
27.0
 40
27.0
 40
28.0
 40
28.0
 40
28.0
 40
29.0
 40
29.0
 40
29.0
 40
30.0
 40
30.0
 40
30.0
 40
31.0
 40
31.0
 40
31.0
 40
31.0
 10
109.2307142469618
 20
110.67989366319443
 30
0.0
 10
109.09842258029514
 20
110.75499674479165
 30
0.0
 10
109.01470675998263
 20
110.86041666666665
 30
0.0
 10
108.97887776692707
 20
110.99615342881944
 30
0.0
 10
108.94649386935762
 20
111.11259765624999
 30
0.0
 10
108.96303032769096
 20
111.22628580729166
 30
0.0
 10
109.02573106553818
 20
111.33515082465277
 30
0.0
 10
109.09773356119791
 20
111.46124131944444
 30
0.0
 10
109.19316270616318
 20
111.53978949652777
 30
0.0
 10
109.31064046223958
 20
111.57079535590277
 30
0.0
 10
109.41881646050346
 20
111.59973415798611
 30
0.0
 10
109.53009304470486
 20
111.58181966145833
 30
0.0
 10
109.64447021484374
 20
111.51567382812499
 30
0.0
 10
109.75884738498263
 20
111.45021701388887
 30
0.0
 10
109.82912733289929
 20
111.37097981770832
 30
0.0
 10
109.85358751085069
 20
111.28071831597221
 30
0.0
 10
109.86909044053819
 20
111.21801757812499
 30
0.0
 10
109.86771240234374
 20
111.16220703124999
 30
0.0
 10
109.84738633897568
 20
111.11259765624999
 30
0.0
 10
109.89768473307291
 20
111.16013997395832
 30
0.0
 10
109.95487331814235
 20
111.19114583333332
 30
0.0
 10
110.01688503689235
 20
111.2090603298611
 30
0.0
 10
110.12575005425346
 20
111.23868815104166
 30
0.0
 10
110.23737114800346
 20
111.21939561631943
 30
0.0
 10
110.35174831814236
 20
111.15256076388889
 30
0.0
 10
110.47818332248264
 20
111.08021375868054
 30
0.0
 10
110.55776502821179
 20
110.98168402777777
 30
0.0
 10
110.59152696397568
 20
110.85490451388888
 30
0.0
 10
110.6259779188368
 20
110.72812499999999
 30
0.0
 10
110.60082872178819
 20
110.59307725694444
 30
0.0
 10
110.51849093967013
 20
110.44976128472221
 30
0.0
 10
110.44924452039929
 20
110.32987196180555
 30
0.0
 10
110.35071478949652
 20
110.25270182291666
 30
0.0
 10
110.22462429470485
 20
110.21893988715277
 30
0.0
 10
110.09818929036457
 20
110.1858669704861
 30
0.0
 10
109.98071153428819
 20
110.19895833333332
 30
0.0
 10
109.87219102647569
 20
110.26234809027777
 30
0.0
 10
109.87219102647569
 20
110.26234809027777
 30
0.0
 10
109.80363362630207
 20
110.30162217881943
 30
0.0
 10
109.80363362630207
 20
110.30162217881943
 30
0.0
 10
109.80363362630207
 20
110.30162217881943
 30
0.0
 10
109.91732177734374
 20
110.50005967881944
 30
0.0
 10
109.91732177734374
 20
110.50005967881944
 30
0.0
 10
109.91732177734374
 20
110.50005967881944
 30
0.0
 10
109.97726643880208
 20
110.46560872395833
 30
0.0
 10
109.97726643880208
 20
110.46560872395833
 30
0.0
 10
110.05099148220485
 20
110.42151150173611
 30
0.0
 10
110.12953965928818
 20
110.41117621527776
 30
0.0
 10
110.2104994032118
 20
110.43322482638888
 30
0.0
 10
110.27423366970486
 20
110.45045030381944
 30
0.0
 10
110.32246500651041
 20
110.48696831597221
 30
0.0
 10
110.35519341362846
 20
110.54415690104166
 30
0.0
 10
110.39791259765624
 20
110.61857096354166
 30
0.0
 10
110.40997043185763
 20
110.69229600694443
 30
0.0
 10
110.39033338758679
 20
110.76464301215277
 30
0.0
 10
110.37069634331596
 20
110.8369900173611
 30
0.0
 10
110.3131632486979
 20
110.90037977430555
 30
0.0
 10
110.21566704644096
 20
110.95687934027777
 30
0.0
 10
110.13505181206597
 20
111.00373263888888
 30
0.0
 10
110.0585706922743
 20
111.0168240017361
 30
0.0
 10
109.98656819661457
 20
110.99753146701389
 30
0.0
 10
109.91456570095485
 20
110.97823893229166
 30
0.0
 10
109.86220024956596
 20
110.93965386284721
 30
0.0
 10
109.82912733289929
 20
110.88246527777777
 30
0.0
 10
109.82912733289929
 20
110.88246527777777
 30
0.0
 10
109.78950873480902
 20
110.81425238715276
 30
0.0
 10
109.78950873480902
 20
110.81425238715276
 30
0.0
 10
109.78950873480902
 20
110.81425238715276
 30
0.0
 10
109.6434366861979
 20
110.89831271701388
 30
0.0
 10
109.6434366861979
 20
110.89831271701388
 30
0.0
 10
109.6434366861979
 20
110.89831271701388
 30
0.0
 10
109.67340901692707
 20
110.94930013020833
 30
0.0
 10
109.67340901692707
 20
110.94930013020833
 30
0.0
 10
109.70303683810764
 20
111.00097656249999
 30
0.0
 10
109.70820448133679
 20
111.06298828124999
 30
0.0
 10
109.68822292751734
 20
111.13533528645833
 30
0.0
 10
109.66893039279513
 20
111.20768229166666
 30
0.0
 10
109.61656494140624
 20
111.26831597222221
 30
0.0
 10
109.52974853515624
 20
111.31861436631944
 30
0.0
 10
109.45636800130207
 20
111.36133355034721
 30
0.0
 10
109.3829874674479
 20
111.37304687499999
 30
0.0
 10
109.31029595269096
 20
111.35375434027777
 30
0.0
 10
109.25655246310762
 20
111.33928493923609
 30
0.0
 10
109.21314425998263
 20
111.30276692708333
 30
0.0
 10
109.17938232421874
 20
111.24626736111109
 30
0.0
 10
109.1504435221354
 20
111.19390190972221
 30
0.0
 10
109.14424235026041
 20
111.13671332465277
 30
0.0
 10
109.16077880859375
 20
111.07401258680555
 30
0.0
 10
109.18041585286457
 20
111.00097656249999
 30
0.0
 10
109.23932698567707
 20
110.93276367187499
 30
0.0
 10
109.33957926432291
 20
110.86730685763888
 30
0.0
 10
109.33957926432291
 20
110.86730685763888
 30
0.0
 10
109.2307142469618
 20
110.67989366319443
 30
0.0
 10
109.2307142469618
 20
110.67989366319443
 30
0.0
  0
SPLINE
  5
9B
100
AcDbEntity
  8
レイヤー_1
 62
     7
100
AcDbSpline
210
0.0
220
0.0
230
1.0
 70
     8
 71
     3
 72
    35
 73
    31
 74
     0
 42
0.00000001
 43
0.00000001
 40
0.0
 40
0.0
 40
0.0
 40
0.0
 40
1.0
 40
1.0
 40
1.0
 40
2.0
 40
2.0
 40
2.0
 40
3.0
 40
3.0
 40
3.0
 40
4.0
 40
4.0
 40
4.0
 40
5.0
 40
5.0
 40
5.0
 40
6.0
 40
6.0
 40
6.0
 40
7.0
 40
7.0
 40
7.0
 40
8.0
 40
8.0
 40
8.0
 40
9.0
 40
9.0
 40
9.0
 40
10.0
 40
10.0
 40
10.0
 40
10.0
 10
110.35278184678819
 20
112.81791992187499
 30
0.0
 10
110.3596720377604
 20
112.69665256076388
 30
0.0
 10
110.45096706814235
 20
112.55609266493055
 30
0.0
 10
110.62770046657985
 20
112.39692925347221
 30
0.0
 10
110.62770046657985
 20
112.39692925347221
 30
0.0
 10
110.79754367404513
 20
112.24396701388888
 30
0.0
 10
110.79754367404513
 20
112.24396701388888
 30
0.0
 10
110.96910942925346
 20
112.0896267361111
 30
0.0
 10
111.12138264973957
 20
112.01659071180555
 30
0.0
 10
111.25126274956597
 20
112.02210286458332
 30
0.0
 10
111.32602132161458
 20
112.02623697916665
 30
0.0
 10
111.38355441623263
 20
112.05035264756944
 30
0.0
 10
111.42351752387152
 20
112.09444986979166
 30
0.0
 10
111.46761474609374
 20
112.14337022569444
 30
0.0
 10
111.48725179036457
 20
112.20607096354166
 30
0.0
 10
111.48346218532986
 20
112.28048502604166
 30
0.0
 10
111.47691650390624
 20
112.40106336805555
 30
0.0
 10
111.38631049262152
 20
112.5423122829861
 30
0.0
 10
111.20888807508679
 20
112.70078667534722
 30
0.0
 10
111.20888807508679
 20
112.70078667534722
 30
0.0
 10
111.03973388671874
 20
112.85374891493055
 30
0.0
 10
111.03973388671874
 20
112.85374891493055
 30
0.0
 10
110.86265597873263
 20
113.01291232638887
 30
0.0
 10
110.71348334418401
 20
113.09008246527777
 30
0.0
 10
110.59187147352429
 20
113.08250325520832
 30
0.0
 10
110.51780192057291
 20
113.07905815972221
 30
0.0
 10
110.45820176866319
 20
113.05218641493055
 30
0.0
 10
110.41307101779513
 20
113.00326605902777
 30
0.0
 10
110.36931830512152
 20
112.95434570312499
 30
0.0
 10
110.34933675130208
 20
112.89302300347221
 30
0.0
 10
110.35278184678819
 20
112.81791992187499
 30
0.0
  0
SPLINE
  5
9A
100
AcDbEntity
  8
レイヤー_1
 62
     7
100
AcDbSpline
210
0.0
220
0.0
230
1.0
 70
     8
 71
     3
 72
    35
 73
    31
 74
     0
 42
0.00000001
 43
0.00000001
 40
0.0
 40
0.0
 40
0.0
 40
0.0
 40
1.0
 40
1.0
 40
1.0
 40
2.0
 40
2.0
 40
2.0
 40
3.0
 40
3.0
 40
3.0
 40
4.0
 40
4.0
 40
4.0
 40
5.0
 40
5.0
 40
5.0
 40
6.0
 40
6.0
 40
6.0
 40
7.0
 40
7.0
 40
7.0
 40
8.0
 40
8.0
 40
8.0
 40
9.0
 40
9.0
 40
9.0
 40
10.0
 40
10.0
 40
10.0
 40
10.0
 10
110.48300645616318
 20
112.20607096354166
 30
0.0
 10
110.26699896918402
 20
112.40175238715277
 30
0.0
 10
110.15434434678818
 20
112.59192165798611
 30
0.0
 10
110.14469807942707
 20
112.77864583333333
 30
0.0
 10
110.13780788845484
 20
112.90955946180554
 30
0.0
 10
110.18018256293402
 20
113.02600368923611
 30
0.0
 10
110.27354465060763
 20
113.13004557291666
 30
0.0
 10
110.36656222873263
 20
113.23270941840276
 30
0.0
 10
110.47887234157984
 20
113.28783094618055
 30
0.0
 10
110.60909695095485
 20
113.29472113715276
 30
0.0
 10
110.79582112630207
 20
113.30436740451388
 30
0.0
 10
110.99735921223957
 20
113.21203884548611
 30
0.0
 10
111.21371120876735
 20
113.01773546006943
 30
0.0
 10
111.21371120876735
 20
113.01773546006943
 30
0.0
 10
111.3608167860243
 20
112.88475477430555
 30
0.0
 10
111.3608167860243
 20
112.88475477430555
 30
0.0
 10
111.57200113932291
 20
112.69458550347221
 30
0.0
 10
111.68224419487846
 20
112.50579427083332
 30
0.0
 10
111.69223497178818
 20
112.3190700954861
 30
0.0
 10
111.69912516276041
 20
112.18884548611111
 30
0.0
 10
111.65606146918402
 20
112.07171223958332
 30
0.0
 10
111.56373291015623
 20
111.96904839409721
 30
0.0
 10
111.47002631293402
 20
111.86500651041666
 30
0.0
 10
111.35840521918402
 20
111.80988498263888
 30
0.0
 10
111.2278361002604
 20
111.80368381076389
 30
0.0
 10
111.04145643446179
 20
111.79403754340277
 30
0.0
 10
110.84164089626735
 20
111.88429904513887
 30
0.0
 10
110.63045654296874
 20
112.07446831597221
 30
0.0
 10
110.63045654296874
 20
112.07446831597221
 30
0.0
 10
110.48300645616318
 20
112.20607096354166
 30
0.0
 10
110.48300645616318
 20
112.20607096354166
 30
0.0
  0
SPLINE
  5
99
100
AcDbEntity
  8
レイヤー_1
 62
     7
100
AcDbSpline
210
0.0
220
0.0
230
1.0
 70
     8
 71
     3
 72
    98
 73
    94
 74
     0
 42
0.00000001
 43
0.00000001
 40
0.0
 40
0.0
 40
0.0
 40
0.0
 40
1.0
 40
1.0
 40
1.0
 40
2.0
 40
2.0
 40
2.0
 40
3.0
 40
3.0
 40
3.0
 40
4.0
 40
4.0
 40
4.0
 40
5.0
 40
5.0
 40
5.0
 40
6.0
 40
6.0
 40
6.0
 40
7.0
 40
7.0
 40
7.0
 40
8.0
 40
8.0
 40
8.0
 40
9.0
 40
9.0
 40
9.0
 40
10.0
 40
10.0
 40
10.0
 40
11.0
 40
11.0
 40
11.0
 40
12.0
 40
12.0
 40
12.0
 40
13.0
 40
13.0
 40
13.0
 40
14.0
 40
14.0
 40
14.0
 40
15.0
 40
15.0
 40
15.0
 40
16.0
 40
16.0
 40
16.0
 40
17.0
 40
17.0
 40
17.0
 40
18.0
 40
18.0
 40
18.0
 40
19.0
 40
19.0
 40
19.0
 40
20.0
 40
20.0
 40
20.0
 40
21.0
 40
21.0
 40
21.0
 40
22.0
 40
22.0
 40
22.0
 40
23.0
 40
23.0
 40
23.0
 40
24.0
 40
24.0
 40
24.0
 40
25.0
 40
25.0
 40
25.0
 40
26.0
 40
26.0
 40
26.0
 40
27.0
 40
27.0
 40
27.0
 40
28.0
 40
28.0
 40
28.0
 40
29.0
 40
29.0
 40
29.0
 40
30.0
 40
30.0
 40
30.0
 40
31.0
 40
31.0
 40
31.0
 40
31.0
 10
111.74081081814235
 20
113.8755642361111
 30
0.0
 10
111.65192735460069
 20
113.99889865451388
 30
0.0
 10
111.6181654188368
 20
114.12981228298609
 30
0.0
 10
111.6398695203993
 20
114.26761610243055
 30
0.0
 10
111.6588175455729
 20
114.38819444444444
 30
0.0
 10
111.71979573567707
 20
114.48465711805555
 30
0.0
 10
111.82073703342013
 20
114.55838216145833
 30
0.0
 10
111.93855929904512
 20
114.6445095486111
 30
0.0
 10
112.05775960286458
 20
114.67758246527777
 30
0.0
 10
112.17764892578124
 20
114.65828993055554
 30
0.0
 10
112.28823649088541
 20
114.64106445312498
 30
0.0
 10
112.38263210720486
 20
114.57905273437498
 30
0.0
 10
112.46049126519097
 20
114.47225477430554
 30
0.0
 10
112.53800591362847
 20
114.3654568142361
 30
0.0
 10
112.56935628255208
 20
114.26554904513888
 30
0.0
 10
112.55592041015623
 20
114.17253146701388
 30
0.0
 10
112.54455159505207
 20
114.10845269097221
 30
0.0
 10
112.5204359266493
 20
114.05815429687499
 30
0.0
 10
112.48150634765624
 20
114.02094726562498
 30
0.0
 10
112.54696316189235
 20
114.04437391493055
 30
0.0
 10
112.61173095703124
 20
114.04988606770833
 30
0.0
 10
112.67580973307291
 20
114.04023980034721
 30
0.0
 10
112.7870863172743
 20
114.02301432291665
 30
0.0
 10
112.88113742404514
 20
113.96031358506943
 30
0.0
 10
112.95865207248262
 20
113.85282660590276
 30
0.0
 10
113.04477945963541
 20
113.73569335937499
 30
0.0
 10
113.07612982855902
 20
113.61166992187499
 30
0.0
 10
113.05683729383679
 20
113.48351236979165
 30
0.0
 10
113.03547770182291
 20
113.35397677951387
 30
0.0
 10
112.95865207248262
 20
113.24028862847221
 30
0.0
 10
112.82532687717013
 20
113.14313693576388
 30
0.0
 10
112.71336127387151
 20
113.06114366319443
 30
0.0
 10
112.59174940321179
 20
113.03082682291665
 30
0.0
 10
112.46255832248264
 20
113.05149739583332
 30
0.0
 10
112.33371175130208
 20
113.07285698784722
 30
0.0
 10
112.23208143446179
 20
113.13211263020833
 30
0.0
 10
112.15835639105902
 20
113.23408745659721
 30
0.0
 10
112.15835639105902
 20
113.23408745659721
 30
0.0
 10
112.11184760199652
 20
113.29816623263888
 30
0.0
 10
112.11184760199652
 20
113.29816623263888
 30
0.0
 10
112.11184760199652
 20
113.29816623263888
 30
0.0
 10
112.29616021050346
 20
113.43321397569443
 30
0.0
 10
112.29616021050346
 20
113.43321397569443
 30
0.0
 10
112.29616021050346
 20
113.43321397569443
 30
0.0
 10
112.33715684678819
 20
113.37740342881943
 30
0.0
 10
112.33715684678819
 20
113.37740342881943
 30
0.0
 10
112.38676622178818
 20
113.30712348090277
 30
0.0
 10
112.45394558376735
 20
113.26578233506943
 30
0.0
 10
112.53697238498263
 20
113.25269097222221
 30
0.0
 10
112.60242919921873
 20
113.24304470486111
 30
0.0
 10
112.66134033203124
 20
113.25613606770833
 30
0.0
 10
112.71439480251735
 20
113.29541015624999
 30
0.0
 10
112.7839857313368
 20
113.34639756944443
 30
0.0
 10
112.8246378580729
 20
113.40909830729166
 30
0.0
 10
112.83600667317707
 20
113.48282335069443
 30
0.0
 10
112.84771999782986
 20
113.55654839409721
 30
0.0
 10
112.82084825303818
 20
113.63785264756943
 30
0.0
 10
112.75470241970486
 20
113.72949218749999
 30
0.0
 10
112.70026991102429
 20
113.80528428819443
 30
0.0
 10
112.6355021158854
 20
113.84800347222222
 30
0.0
 10
112.56212158203124
 20
113.85971679687499
 30
0.0
 10
112.48839653862846
 20
113.87143012152777
 30
0.0
 10
112.42466227213541
 20
113.85764973958332
 30
0.0
 10
112.37091878255207
 20
113.81906467013887
 30
0.0
 10
112.37091878255207
 20
113.81906467013887
 30
0.0
 10
112.30615098741319
 20
113.77221137152777
 30
0.0
 10
112.30615098741319
 20
113.77221137152777
 30
0.0
 10
112.30615098741319
 20
113.77221137152777
 30
0.0
 10
112.20831027560763
 20
113.90794813368055
 30
0.0
 10
112.20831027560763
 20
113.90794813368055
 30
0.0
 10
112.20831027560763
 20
113.90794813368055
 30
0.0
 10
112.25619710286458
 20
113.94308810763887
 30
0.0
 10
112.25619710286458
 20
113.94308810763887
 30
0.0
 10
112.30442843967013
 20
113.97822808159721
 30
0.0
 10
112.33405626085069
 20
114.03334960937499
 30
0.0
 10
112.34542507595485
 20
114.10707465277777
 30
0.0
 10
112.35713840060762
 20
114.18011067708332
 30
0.0
 10
112.33405626085069
 20
114.25728081597221
 30
0.0
 10
112.27514512803819
 20
114.33789605034721
 30
0.0
 10
112.22484673394096
 20
114.40748697916666
 30
0.0
 10
112.16283501519096
 20
114.44745008680555
 30
0.0
 10
112.0894544813368
 20
114.45985243055554
 30
0.0
 10
112.0339884440104
 20
114.46880967881944
 30
0.0
 10
111.97990044487847
 20
114.45296223958333
 30
0.0
 10
111.92581244574652
 20
114.41368815104165
 30
0.0
 10
111.87827012803818
 20
114.37923719618054
 30
0.0
 10
111.84898681640624
 20
114.32893880208333
 30
0.0
 10
111.83899603949652
 20
114.26486002604166
 30
0.0
 10
111.82693820529514
 20
114.19113498263887
 30
0.0
 10
111.85312093098958
 20
114.10431857638888
 30
0.0
 10
111.91823323567708
 20
114.00372178819444
 30
0.0
 10
111.91823323567708
 20
114.00372178819444
 30
0.0
 10
111.74081081814235
 20
113.8755642361111
 30
0.0
 10
111.74081081814235
 20
113.8755642361111
 30
0.0
  0
POLYLINE
  5
90
100
AcDbEntity
  8
レイヤー_1
 62
     7
100
AcDb2dPolyline
 66
     1
 10
0.0
 20
0.0
 30
0.0
 70
     1
  0
VERTEX
  5
91
100
AcDbEntity
  8
レイヤー_1
 62
     7
100
AcDbVertex
100
AcDb2dVertex
 10
113.204287
 20
115.443772
 30
0.0
  0
VERTEX
  5
92
100
AcDbEntity
  8
レイヤー_1
 62
     7
100
AcDbVertex
100
AcDb2dVertex
 10
114.064872
 20
115.826177
 30
0.0
  0
VERTEX
  5
93
100
AcDbEntity
  8
レイヤー_1
 62
     7
100
AcDbVertex
100
AcDb2dVertex
 10
114.1541
 20
115.626362
 30
0.0
  0
VERTEX
  5
94
100
AcDbEntity
  8
レイヤー_1
 62
     7
100
AcDbVertex
100
AcDb2dVertex
 10
114.319809
 20
114.083648
 30
0.0
  0
VERTEX
  5
95
100
AcDbEntity
  8
レイヤー_1
 62
     7
100
AcDbVertex
100
AcDb2dVertex
 10
114.121027
 20
113.994765
 30
0.0
  0
VERTEX
  5
96
100
AcDbEntity
  8
レイヤー_1
 62
     7
100
AcDbVertex
100
AcDb2dVertex
 10
113.942227
 20
115.565728
 30
0.0
  0
VERTEX
  5
97
100
AcDbEntity
  8
レイヤー_1
 62
     7
100
AcDbVertex
100
AcDb2dVertex
 10
113.281113
 20
115.272206
 30
0.0
  0
SEQEND
  5
98
100
AcDbEntity
  8
レイヤー_1
 62
     7
  0
SPLINE
  5
8F
100
AcDbEntity
  8
レイヤー_1
 62
     7
100
AcDbSpline
210
0.0
220
0.0
230
1.0
 70
     8
 71
     3
 72
    14
 73
    10
 74
     0
 42
0.00000001
 43
0.00000001
 40
0.0
 40
0.0
 40
0.0
 40
0.0
 40
1.0
 40
1.0
 40
1.0
 40
2.0
 40
2.0
 40
2.0
 40
3.0
 40
3.0
 40
3.0
 40
3.0
 10
113.76756049262151
 20
112.97363823784721
 30
0.0
 10
113.25389675564234
 20
112.64635416666665
 30
0.0
 10
112.78019612630207
 20
112.26394856770833
 30
0.0
 10
112.35748291015624
 20
111.8291775173611
 30
0.0
 10
112.35748291015624
 20
111.8291775173611
 30
0.0
 10
117.25571967230901
 20
106.93162977430555
 30
0.0
 10
117.25571967230901
 20
106.93162977430555
 30
0.0
 10
117.25571967230901
 20
106.93162977430555
 30
0.0
 10
113.76756049262151
 20
112.97363823784721
 30
0.0
 10
113.76756049262151
 20
112.97363823784721
 30
0.0
  0
SPLINE
  5
8E
100
AcDbEntity
  8
レイヤー_1
 62
     7
100
AcDbSpline
210
0.0
220
0.0
230
1.0
 70
     8
 71
     3
 72
    14
 73
    10
 74
     0
 42
0.00000001
 43
0.00000001
 40
0.0
 40
0.0
 40
0.0
 40
0.0
 40
1.0
 40
1.0
 40
1.0
 40
2.0
 40
2.0
 40
2.0
 40
3.0
 40
3.0
 40
3.0
 40
3.0
 10
115.5841593424479
 20
113.82871093749999
 30
0.0
 10
114.99401448567707
 20
113.64129774305555
 30
0.0
 10
114.43832058376735
 20
113.38015950520833
 30
0.0
 10
113.91845567491319
 20
113.06527777777777
 30
0.0
 10
113.91845567491319
 20
113.06527777777777
 30
0.0
 10
117.40868191189234
 20
107.01982421874999
 30
0.0
 10
117.40868191189234
 20
107.01982421874999
 30
0.0
 10
117.40868191189234
 20
107.01982421874999
 30
0.0
 10
115.5841593424479
 20
113.82871093749999
 30
0.0
 10
115.5841593424479
 20
113.82871093749999
 30
0.0
  0
SPLINE
  5
8D
100
AcDbEntity
  8
レイヤー_1
 62
     7
100
AcDbSpline
210
0.0
220
0.0
230
1.0
 70
     8
 71
     3
 72
    14
 73
    10
 74
     0
 42
0.00000001
 43
0.00000001
 40
0.0
 40
0.0
 40
0.0
 40
0.0
 40
1.0
 40
1.0
 40
1.0
 40
2.0
 40
2.0
 40
2.0
 40
3.0
 40
3.0
 40
3.0
 40
3.0
 10
111.08004150390624
 20
110.09629448784722
 30
0.0
 10
110.79788818359374
 20
109.57401801215276
 30
0.0
 10
110.58153618706596
 20
109.01315646701389
 30
0.0
 10
110.42340630425346
 20
108.42749023437499
 30
0.0
 10
110.42340630425346
 20
108.42749023437499
 30
0.0
 10
117.04281277126735
 20
106.65395507812499
 30
0.0
 10
117.04281277126735
 20
106.65395507812499
 30
0.0
 10
117.04281277126735
 20
106.65395507812499
 30
0.0
 10
111.08004150390624
 20
110.09629448784722
 30
0.0
 10
111.08004150390624
 20
110.09629448784722
 30
0.0
  0
SPLINE
  5
8C
100
AcDbEntity
  8
レイヤー_1
 62
     7
100
AcDbSpline
210
0.0
220
0.0
230
1.0
 70
     8
 71
     3
 72
    14
 73
    10
 74
     0
 42
0.00000001
 43
0.00000001
 40
0.0
 40
0.0
 40
0.0
 40
0.0
 40
1.0
 40
1.0
 40
1.0
 40
2.0
 40
2.0
 40
2.0
 40
3.0
 40
3.0
 40
3.0
 40
3.0
 10
110.37965359157985
 20
108.25661349826387
 30
0.0
 10
110.23978271484374
 20
107.6867947048611
 30
0.0
 10
110.1581339518229
 20
107.09492730034721
 30
0.0
 10
110.15124376085069
 20
106.48376736111111
 30
0.0
 10
110.15124376085069
 20
106.48376736111111
 30
0.0
 10
116.99699300130207
 20
106.48376736111111
 30
0.0
 10
116.99699300130207
 20
106.48376736111111
 30
0.0
 10
116.99699300130207
 20
106.48376736111111
 30
0.0
 10
110.37965359157985
 20
108.25661349826387
 30
0.0
 10
110.37965359157985
 20
108.25661349826387
 30
0.0
  0
SPLINE
  5
8B
100
AcDbEntity
  8
レイヤー_1
 62
     7
100
AcDbSpline
210
0.0
220
0.0
230
1.0
 70
     8
 71
     3
 72
    14
 73
    10
 74
     0
 42
0.00000001
 43
0.00000001
 40
0.0
 40
0.0
 40
0.0
 40
0.0
 40
1.0
 40
1.0
 40
1.0
 40
2.0
 40
2.0
 40
2.0
 40
3.0
 40
3.0
 40
3.0
 40
3.0
 10
117.57886962890623
 20
114.17666558159721
 30
0.0
 10
116.94807264539929
 20
114.14703776041665
 30
0.0
 10
116.33656819661458
 20
114.04781901041666
 30
0.0
 10
115.75365804036457
 20
113.87694227430555
 30
0.0
 10
115.75365804036457
 20
113.87694227430555
 30
0.0
 10
117.57886962890623
 20
107.06529947916665
 30
0.0
 10
117.57886962890623
 20
107.06529947916665
 30
0.0
 10
117.57886962890623
 20
107.06529947916665
 30
0.0
 10
117.57886962890623
 20
114.17666558159721
 30
0.0
 10
117.57886962890623
 20
114.17666558159721
 30
0.0
  0
SPLINE
  5
8A
100
AcDbEntity
  8
レイヤー_1
 62
     7
100
AcDbSpline
210
0.0
220
0.0
230
1.0
 70
     8
 71
     3
 72
    14
 73
    10
 74
     0
 42
0.00000001
 43
0.00000001
 40
0.0
 40
0.0
 40
0.0
 40
0.0
 40
1.0
 40
1.0
 40
1.0
 40
2.0
 40
2.0
 40
2.0
 40
3.0
 40
3.0
 40
3.0
 40
3.0
 10
112.23897162543402
 20
111.6989529079861
 30
0.0
 10
111.82969428168401
 20
111.25866970486111
 30
0.0
 10
111.46968180338541
 20
110.77360026041666
 30
0.0
 10
111.17030300564235
 20
110.2478786892361
 30
0.0
 10
111.17030300564235
 20
110.2478786892361
 30
0.0
 10
117.13100721571179
 20
106.80691731770833
 30
0.0
 10
117.13100721571179
 20
106.80691731770833
 30
0.0
 10
117.13100721571179
 20
106.80691731770833
 30
0.0
 10
112.23897162543402
 20
111.6989529079861
 30
0.0
 10
112.23897162543402
 20
111.6989529079861
 30
0.0
  0
SPLINE
  5
89
100
AcDbEntity
  8
レイヤー_1
 62
     7
100
AcDbSpline
210
0.0
220
0.0
230
1.0
 70
     8
 71
     3
 72
    14
 73
    10
 74
     0
 42
0.00000001
 43
0.00000001
 40
0.0
 40
0.0
 40
0.0
 40
0.0
 40
1.0
 40
1.0
 40
1.0
 40
2.0
 40
2.0
 40
2.0
 40
3.0
 40
3.0
 40
3.0
 40
3.0
 10
123.25018581814236
 20
112.10340711805554
 30
0.0
 10
122.78509792751736
 20
112.53542209201387
 30
0.0
 10
122.2717787000868
 20
112.91576063368055
 30
0.0
 10
121.71160617404513
 20
113.22513020833333
 30
0.0
 10
121.71160617404513
 20
113.22513020833333
 30
0.0
 10
118.07840847439235
 20
106.93231879340277
 30
0.0
 10
118.07840847439235
 20
106.93231879340277
 30
0.0
 10
118.07840847439235
 20
106.93231879340277
 30
0.0
 10
123.25018581814236
 20
112.10340711805554
 30
0.0
 10
123.25018581814236
 20
112.10340711805554
 30
0.0
  0
SPLINE
  5
88
100
AcDbEntity
  8
レイヤー_1
 62
     7
100
AcDbSpline
210
0.0
220
0.0
230
1.0
 70
     8
 71
     3
 72
    14
 73
    10
 74
     0
 42
0.00000001
 43
0.00000001
 40
0.0
 40
0.0
 40
0.0
 40
0.0
 40
1.0
 40
1.0
 40
1.0
 40
2.0
 40
2.0
 40
2.0
 40
3.0
 40
3.0
 40
3.0
 40
3.0
 10
125.43368733723958
 20
108.56805013020832
 30
0.0
 10
125.25247531467012
 20
109.19436848958333
 30
0.0
 10
124.99305962456596
 20
109.78623589409722
 30
0.0
 10
124.66956515842013
 20
110.33676215277777
 30
0.0
 10
124.66956515842013
 20
110.33676215277777
 30
0.0
 10
118.29131537543401
 20
106.65464409722222
 30
0.0
 10
118.29131537543401
 20
106.65464409722222
 30
0.0
 10
118.29131537543401
 20
106.65464409722222
 30
0.0
 10
125.43368733723958
 20
108.56805013020832
 30
0.0
 10
125.43368733723958
 20
108.56805013020832
 30
0.0
  0
SPLINE
  5
87
100
AcDbEntity
  8
レイヤー_1
 62
     7
100
AcDbSpline
210
0.0
220
0.0
230
1.0
 70
     8
 71
     3
 72
    17
 73
    13
 74
     0
 42
0.00000001
 43
0.00000001
 40
0.0
 40
0.0
 40
0.0
 40
0.0
 40
1.0
 40
1.0
 40
1.0
 40
2.0
 40
2.0
 40
2.0
 40
3.0
 40
3.0
 40
3.0
 40
4.0
 40
4.0
 40
4.0
 40
4.0
 10
119.61629909939235
 20
114.01130099826388
 30
0.0
 10
119.07783067491319
 20
114.12912326388887
 30
0.0
 10
118.52041422526041
 20
114.19526909722221
 30
0.0
 10
117.94680582682291
 20
114.19526909722221
 30
0.0
 10
117.88203803168402
 20
114.19526909722221
 30
0.0
 10
117.81968180338541
 20
114.18700086805555
 30
0.0
 10
117.75525851779513
 20
114.1856228298611
 30
0.0
 10
117.75525851779513
 20
114.1856228298611
 30
0.0
 10
117.75525851779513
 20
107.06529947916665
 30
0.0
 10
117.75525851779513
 20
107.06529947916665
 30
0.0
 10
117.75525851779513
 20
107.06529947916665
 30
0.0
 10
119.61629909939235
 20
114.01130099826388
 30
0.0
 10
119.61629909939235
 20
114.01130099826388
 30
0.0
  0
SPLINE
  5
86
100
AcDbEntity
  8
レイヤー_1
 62
     7
100
AcDbSpline
210
0.0
220
0.0
230
1.0
 70
     8
 71
     3
 72
    14
 73
    10
 74
     0
 42
0.00000001
 43
0.00000001
 40
0.0
 40
0.0
 40
0.0
 40
0.0
 40
1.0
 40
1.0
 40
1.0
 40
2.0
 40
2.0
 40
2.0
 40
3.0
 40
3.0
 40
3.0
 40
3.0
 10
125.74236789279513
 20
106.48376736111111
 30
0.0
 10
125.73513319227429
 20
107.14522569444443
 30
0.0
 10
125.64039306640623
 20
107.78532443576388
 30
0.0
 10
125.4777845594618
 20
108.39717339409721
 30
0.0
 10
125.4777845594618
 20
108.39717339409721
 30
0.0
 10
118.33610161675347
 20
106.48376736111111
 30
0.0
 10
118.33610161675347
 20
106.48376736111111
 30
0.0
 10
118.33610161675347
 20
106.48376736111111
 30
0.0
 10
125.74236789279513
 20
106.48376736111111
 30
0.0
 10
125.74236789279513
 20
106.48376736111111
 30
0.0
  0
SPLINE
  5
85
100
AcDbEntity
  8
レイヤー_1
 62
     7
100
AcDbSpline
210
0.0
220
0.0
230
1.0
 70
     8
 71
     3
 72
    14
 73
    10
 74
     0
 42
0.00000001
 43
0.00000001
 40
0.0
 40
0.0
 40
0.0
 40
0.0
 40
1.0
 40
1.0
 40
1.0
 40
2.0
 40
2.0
 40
2.0
 40
3.0
 40
3.0
 40
3.0
 40
3.0
 10
124.57792561848957
 20
110.48765733506943
 30
0.0
 10
124.23961724175346
 20
111.03473849826388
 30
0.0
 10
123.83964165581597
 20
111.53841145833333
 30
0.0
 10
123.38075493706596
 20
111.98489583333333
 30
0.0
 10
123.38075493706596
 20
111.98489583333333
 30
0.0
 10
118.20312093098957
 20
106.80760633680555
 30
0.0
 10
118.20312093098957
 20
106.80760633680555
 30
0.0
 10
118.20312093098957
 20
106.80760633680555
 30
0.0
 10
124.57792561848957
 20
110.48765733506943
 30
0.0
 10
124.57792561848957
 20
110.48765733506943
 30
0.0
  0
SPLINE
  5
84
100
AcDbEntity
  8
レイヤー_1
 62
     7
100
AcDbSpline
210
0.0
220
0.0
230
1.0
 70
     8
 71
     3
 72
    14
 73
    10
 74
     0
 42
0.00000001
 43
0.00000001
 40
0.0
 40
0.0
 40
0.0
 40
0.0
 40
1.0
 40
1.0
 40
1.0
 40
2.0
 40
2.0
 40
2.0
 40
3.0
 40
3.0
 40
3.0
 40
3.0
 10
110.15124376085069
 20
106.30737847222221
 30
0.0
 10
110.1581339518229
 20
105.69552951388889
 30
0.0
 10
110.23978271484374
 20
105.10366210937499
 30
0.0
 10
110.37965359157985
 20
104.53384331597221
 30
0.0
 10
110.37965359157985
 20
104.53384331597221
 30
0.0
 10
116.99733751085068
 20
106.30737847222221
 30
0.0
 10
116.99733751085068
 20
106.30737847222221
 30
0.0
 10
116.99733751085068
 20
106.30737847222221
 30
0.0
 10
110.15124376085069
 20
106.30737847222221
 30
0.0
 10
110.15124376085069
 20
106.30737847222221
 30
0.0
  0
SPLINE
  5
83
100
AcDbEntity
  8
レイヤー_1
 62
     7
100
AcDbSpline
210
0.0
220
0.0
230
1.0
 70
     8
 71
     3
 72
    14
 73
    10
 74
     0
 42
0.00000001
 43
0.00000001
 40
0.0
 40
0.0
 40
0.0
 40
0.0
 40
1.0
 40
1.0
 40
1.0
 40
2.0
 40
2.0
 40
2.0
 40
3.0
 40
3.0
 40
3.0
 40
3.0
 10
121.55485432942707
 20
113.30643446180555
 30
0.0
 10
121.00157199435763
 20
113.59582248263888
 30
0.0
 10
120.4083265516493
 20
113.81699761284722
 30
0.0
 10
119.78683132595485
 20
113.96789279513888
 30
0.0
 10
119.78683132595485
 20
113.96789279513888
 30
0.0
 10
117.92544623480902
 20
107.01982421874999
 30
0.0
 10
117.92544623480902
 20
107.01982421874999
 30
0.0
 10
117.92544623480902
 20
107.01982421874999
 30
0.0
 10
121.55485432942707
 20
113.30643446180555
 30
0.0
 10
121.55485432942707
 20
113.30643446180555
 30
0.0
  0
SPLINE
  5
82
100
AcDbEntity
  8
レイヤー_1
 62
     7
100
AcDbSpline
210
0.0
220
0.0
230
1.0
 70
     8
 71
     3
 72
    17
 73
    13
 74
     0
 42
0.00000001
 43
0.00000001
 40
0.0
 40
0.0
 40
0.0
 40
0.0
 40
1.0
 40
1.0
 40
1.0
 40
2.0
 40
2.0
 40
2.0
 40
3.0
 40
3.0
 40
3.0
 40
4.0
 40
4.0
 40
4.0
 40
4.0
 10
117.75525851779513
 20
98.604833984374991
 30
0.0
 10
117.81968180338541
 20
98.603455946180546
 30
0.0
 10
117.88203803168402
 20
98.595187717013886
 30
0.0
 10
117.94680582682291
 20
98.595187717013886
 30
0.0
 10
118.52075873480902
 20
98.595187717013886
 30
0.0
 10
119.0781751844618
 20
98.661333550347209
 30
0.0
 10
119.61664360894096
 20
98.778466796874994
 30
0.0
 10
119.61664360894096
 20
98.778466796874994
 30
0.0
 10
117.75525851779513
 20
105.72584635416666
 30
0.0
 10
117.75525851779513
 20
105.72584635416666
 30
0.0
 10
117.75525851779513
 20
105.72584635416666
 30
0.0
 10
117.75525851779513
 20
98.604833984374991
 30
0.0
 10
117.75525851779513
 20
98.604833984374991
 30
0.0
  0
SPLINE
  5
81
100
AcDbEntity
  8
レイヤー_1
 62
     7
100
AcDbSpline
210
0.0
220
0.0
230
1.0
 70
     8
 71
     3
 72
    14
 73
    10
 74
     0
 42
0.00000001
 43
0.00000001
 40
0.0
 40
0.0
 40
0.0
 40
0.0
 40
1.0
 40
1.0
 40
1.0
 40
2.0
 40
2.0
 40
2.0
 40
3.0
 40
3.0
 40
3.0
 40
3.0
 10
121.71229519314235
 20
99.565326605902769
 30
0.0
 10
122.27212320963541
 20
99.874696180555546
 30
0.0
 10
122.78544243706597
 20
100.25503472222222
 30
0.0
 10
123.25053032769097
 20
100.68704969618055
 30
0.0
 10
123.25053032769097
 20
100.68704969618055
 30
0.0
 10
118.07875298394096
 20
105.85882703993055
 30
0.0
 10
118.07875298394096
 20
105.85882703993055
 30
0.0
 10
118.07875298394096
 20
105.85882703993055
 30
0.0
 10
121.71229519314235
 20
99.565326605902769
 30
0.0
 10
121.71229519314235
 20
99.565326605902769
 30
0.0
  0
SPLINE
  5
80
100
AcDbEntity
  8
レイヤー_1
 62
     7
100
AcDbSpline
210
0.0
220
0.0
230
1.0
 70
     8
 71
     3
 72
    14
 73
    10
 74
     0
 42
0.00000001
 43
0.00000001
 40
0.0
 40
0.0
 40
0.0
 40
0.0
 40
1.0
 40
1.0
 40
1.0
 40
2.0
 40
2.0
 40
2.0
 40
3.0
 40
3.0
 40
3.0
 40
3.0
 10
119.78752034505207
 20
98.822564019097214
 30
0.0
 10
120.40901557074652
 20
98.973459201388877
 30
0.0
 10
121.00226101345486
 20
99.194634331597214
 30
0.0
 10
121.5555433485243
 20
99.484022352430543
 30
0.0
 10
121.5555433485243
 20
99.484022352430543
 30
0.0
 10
117.92544623480902
 20
105.77201063368055
 30
0.0
 10
117.92544623480902
 20
105.77201063368055
 30
0.0
 10
117.92544623480902
 20
105.77201063368055
 30
0.0
 10
119.78752034505207
 20
98.822564019097214
 30
0.0
 10
119.78752034505207
 20
98.822564019097214
 30
0.0
  0
SPLINE
  5
7F
100
AcDbEntity
  8
レイヤー_1
 62
     7
100
AcDbSpline
210
0.0
220
0.0
230
1.0
 70
     8
 71
     3
 72
    14
 73
    10
 74
     0
 42
0.00000001
 43
0.00000001
 40
0.0
 40
0.0
 40
0.0
 40
0.0
 40
1.0
 40
1.0
 40
1.0
 40
2.0
 40
2.0
 40
2.0
 40
3.0
 40
3.0
 40
3.0
 40
3.0
 10
123.38109944661457
 20
100.80624999999999
 30
0.0
 10
123.83998616536458
 20
101.25204535590277
 30
0.0
 10
124.23996175130208
 20
101.75640733506944
 30
0.0
 10
124.57827012803818
 20
102.30348849826387
 30
0.0
 10
124.57827012803818
 20
102.30348849826387
 30
0.0
 10
118.20346544053818
 20
105.98422851562499
 30
0.0
 10
118.20346544053818
 20
105.98422851562499
 30
0.0
 10
118.20346544053818
 20
105.98422851562499
 30
0.0
 10
123.38109944661457
 20
100.80624999999999
 30
0.0
 10
123.38109944661457
 20
100.80624999999999
 30
0.0
  0
SPLINE
  5
7E
100
AcDbEntity
  8
レイヤー_1
 62
     7
100
AcDbSpline
210
0.0
220
0.0
230
1.0
 70
     8
 71
     3
 72
    14
 73
    10
 74
     0
 42
0.00000001
 43
0.00000001
 40
0.0
 40
0.0
 40
0.0
 40
0.0
 40
1.0
 40
1.0
 40
1.0
 40
2.0
 40
2.0
 40
2.0
 40
3.0
 40
3.0
 40
3.0
 40
3.0
 10
124.66990966796874
 20
102.45438368055555
 30
0.0
 10
124.99340413411457
 20
103.0049099392361
 30
0.0
 10
125.25247531467012
 20
103.59677734374999
 30
0.0
 10
125.43403184678819
 20
104.223095703125
 30
0.0
 10
125.43403184678819
 20
104.223095703125
 30
0.0
 10
118.29097086588541
 20
106.13719075520832
 30
0.0
 10
118.29097086588541
 20
106.13719075520832
 30
0.0
 10
118.29097086588541
 20
106.13719075520832
 30
0.0
 10
124.66990966796874
 20
102.45438368055555
 30
0.0
 10
124.66990966796874
 20
102.45438368055555
 30
0.0
  0
SPLINE
  5
7D
100
AcDbEntity
  8
レイヤー_1
 62
     7
100
AcDbSpline
210
0.0
220
0.0
230
1.0
 70
     8
 71
     3
 72
    14
 73
    10
 74
     0
 42
0.00000001
 43
0.00000001
 40
0.0
 40
0.0
 40
0.0
 40
0.0
 40
1.0
 40
1.0
 40
1.0
 40
2.0
 40
2.0
 40
2.0
 40
3.0
 40
3.0
 40
3.0
 40
3.0
 10
118.33610161675347
 20
106.30737847222221
 30
0.0
 10
118.33610161675347
 20
106.30737847222221
 30
0.0
 10
125.4777845594618
 20
104.39397243923611
 30
0.0
 10
125.4777845594618
 20
104.39397243923611
 30
0.0
 10
125.64039306640623
 20
105.00651041666666
 30
0.0
 10
125.73513319227429
 20
105.64523111979166
 30
0.0
 10
125.74236789279513
 20
106.30737847222221
 30
0.0
 10
125.74236789279513
 20
106.30737847222221
 30
0.0
 10
118.33610161675347
 20
106.30737847222221
 30
0.0
 10
118.33610161675347
 20
106.30737847222221
 30
0.0
  0
SPLINE
  5
7C
100
AcDbEntity
  8
レイヤー_1
 62
     7
100
AcDbSpline
210
0.0
220
0.0
230
1.0
 70
     8
 71
     3
 72
    14
 73
    10
 74
     0
 42
0.00000001
 43
0.00000001
 40
0.0
 40
0.0
 40
0.0
 40
0.0
 40
1.0
 40
1.0
 40
1.0
 40
2.0
 40
2.0
 40
2.0
 40
3.0
 40
3.0
 40
3.0
 40
3.0
 10
115.75365804036457
 20
98.913514539930546
 30
0.0
 10
116.33656819661458
 20
98.742637803819434
 30
0.0
 10
116.94807264539929
 20
98.643419053819429
 30
0.0
 10
117.57886962890623
 20
98.613791232638874
 30
0.0
 10
117.57886962890623
 20
98.613791232638874
 30
0.0
 10
117.57886962890623
 20
105.72653537326389
 30
0.0
 10
117.57886962890623
 20
105.72653537326389
 30
0.0
 10
117.57886962890623
 20
105.72653537326389
 30
0.0
 10
115.75365804036457
 20
98.913514539930546
 30
0.0
 10
115.75365804036457
 20
98.913514539930546
 30
0.0
  0
SPLINE
  5
7B
100
AcDbEntity
  8
レイヤー_1
 62
     7
100
AcDbSpline
210
0.0
220
0.0
230
1.0
 70
     8
 71
     3
 72
    14
 73
    10
 74
     0
 42
0.00000001
 43
0.00000001
 40
0.0
 40
0.0
 40
0.0
 40
0.0
 40
1.0
 40
1.0
 40
1.0
 40
2.0
 40
2.0
 40
2.0
 40
3.0
 40
3.0
 40
3.0
 40
3.0
 10
110.42340630425346
 20
104.36296657986111
 30
0.0
 10
110.58119167751735
 20
103.77798936631943
 30
0.0
 10
110.79788818359374
 20
103.21643880208332
 30
0.0
 10
111.08004150390624
 20
102.69416232638888
 30
0.0
 10
111.08004150390624
 20
102.69416232638888
 30
0.0
 10
117.04315728081596
 20
106.13719075520832
 30
0.0
 10
117.04315728081596
 20
106.13719075520832
 30
0.0
 10
117.04315728081596
 20
106.13719075520832
 30
0.0
 10
110.42340630425346
 20
104.36296657986111
 30
0.0
 10
110.42340630425346
 20
104.36296657986111
 30
0.0
  0
SPLINE
  5
7A
100
AcDbEntity
  8
レイヤー_1
 62
     7
100
AcDbSpline
210
0.0
220
0.0
230
1.0
 70
     8
 71
     3
 72
    14
 73
    10
 74
     0
 42
0.00000001
 43
0.00000001
 40
0.0
 40
0.0
 40
0.0
 40
0.0
 40
1.0
 40
1.0
 40
1.0
 40
2.0
 40
2.0
 40
2.0
 40
3.0
 40
3.0
 40
3.0
 40
3.0
 10
111.17030300564235
 20
102.54257812499999
 30
0.0
 10
111.46968180338541
 20
102.01685655381944
 30
0.0
 10
111.82969428168401
 20
101.53178710937499
 30
0.0
 10
112.23897162543402
 20
101.09150390625
 30
0.0
 10
112.23897162543402
 20
101.09150390625
 30
0.0
 10
117.13066270616318
 20
105.98422851562499
 30
0.0
 10
117.13066270616318
 20
105.98422851562499
 30
0.0
 10
117.13066270616318
 20
105.98422851562499
 30
0.0
 10
111.17030300564235
 20
102.54257812499999
 30
0.0
 10
111.17030300564235
 20
102.54257812499999
 30
0.0
  0
SPLINE
  5
79
100
AcDbEntity
  8
レイヤー_1
 62
     7
100
AcDbSpline
210
0.0
220
0.0
230
1.0
 70
     8
 71
     3
 72
    14
 73
    10
 74
     0
 42
0.00000001
 43
0.00000001
 40
0.0
 40
0.0
 40
0.0
 40
0.0
 40
1.0
 40
1.0
 40
1.0
 40
2.0
 40
2.0
 40
2.0
 40
3.0
 40
3.0
 40
3.0
 40
3.0
 10
112.35748291015624
 20
100.96127929687499
 30
0.0
 10
112.78019612630207
 20
100.52650824652777
 30
0.0
 10
113.25355224609373
 20
100.14410264756944
 30
0.0
 10
113.7672159830729
 20
99.816818576388883
 30
0.0
 10
113.7672159830729
 20
99.816818576388883
 30
0.0
 10
117.2553751627604
 20
105.85951605902777
 30
0.0
 10
117.2553751627604
 20
105.85951605902777
 30
0.0
 10
117.2553751627604
 20
105.85951605902777
 30
0.0
 10
112.35748291015624
 20
100.96127929687499
 30
0.0
 10
112.35748291015624
 20
100.96127929687499
 30
0.0
  0
SPLINE
  5
78
100
AcDbEntity
  8
レイヤー_1
 62
     7
100
AcDbSpline
210
0.0
220
0.0
230
1.0
 70
     8
 71
     3
 72
    14
 73
    10
 74
     0
 42
0.00000001
 43
0.00000001
 40
0.0
 40
0.0
 40
0.0
 40
0.0
 40
1.0
 40
1.0
 40
1.0
 40
2.0
 40
2.0
 40
2.0
 40
3.0
 40
3.0
 40
3.0
 40
3.0
 10
113.91811116536458
 20
99.725179036458329
 30
0.0
 10
114.43832058376735
 20
99.410297309027769
 30
0.0
 10
114.99401448567707
 20
99.149159071180549
 30
0.0
 10
115.5841593424479
 20
98.961745876736103
 30
0.0
 10
115.5841593424479
 20
98.961745876736103
 30
0.0
 10
117.40868191189234
 20
105.77132161458333
 30
0.0
 10
117.40868191189234
 20
105.77132161458333
 30
0.0
 10
117.40868191189234
 20
105.77132161458333
 30
0.0
 10
113.91811116536458
 20
99.725179036458329
 30
0.0
 10
113.91811116536458
 20
99.725179036458329
 30
0.0
  0
LINE
  5
77
100
AcDbEntity
  8
レイヤー_1
 62
     7
100
AcDbLine
 10
109.228303
 20
114.21594
 30
0.0
 11
102.229591
 21
114.21594
 31
0.0
  0
LINE
  5
76
100
AcDbEntity
  8
レイヤー_1
 62
     7
100
AcDbLine
 10
109.228303
 20
98.615858
 30
0.0
 11
102.229591
 21
98.615858
 31
0.0
  0
LINE
  5
75
100
AcDbEntity
  8
レイヤー_1
 62
     7
100
AcDbLine
 10
117.724597
 20
95.420188
 30
0.0
 11
96.859721
 21
95.420188
 31
0.0
  0
LINE
  5
74
100
AcDbEntity
  8
レイヤー_1
 62
     7
100
AcDbLine
 10
117.724597
 20
117.420223
 30
0.0
 11
96.859721
 21
117.420223
 31
0.0
  0
HATCH
  5
73
100
AcDbEntity
  8
レイヤー_1
 62
     7
100
AcDbHatch
 10
0.0
 20
0.0
 30
0.0
210
0.0
220
0.0
230
1.0
  2
SOLID
 70
     1
 71
     0
 91
        1
 92
        3
 72
     0
 73
     1
 93
        3
 10
97.974553765190961
 20
96.698318142361103
 10
97.589392089843741
 20
95.420187717013874
 10
97.203541395399299
 20
96.698318142361103
 97
        0
 75
     2
 76
     1
 98
        1
 10
0.0
 20
0.0
  0
HATCH
  5
72
100
AcDbEntity
  8
レイヤー_1
 62
     7
100
AcDbHatch
 10
0.0
 20
0.0
 30
0.0
210
0.0
220
0.0
230
1.0
  2
SOLID
 70
     1
 71
     0
 91
        1
 92
        3
 72
     0
 73
     1
 93
        3
 10
103.9442152235243
 20
99.893988715277771
 10
103.55905354817708
 20
98.615858289930543
 10
103.17354736328124
 20
99.893988715277771
 97
        0
 75
     2
 76
     1
 98
        1
 10
0.0
 20
0.0
  0
HATCH
  5
71
100
AcDbEntity
  8
レイヤー_1
 62
     7
100
AcDbHatch
 10
0.0
 20
0.0
 30
0.0
210
0.0
220
0.0
230
1.0
  2
SOLID
 70
     1
 71
     0
 91
        1
 92
        3
 72
     0
 73
     1
 93
        3
 10
103.17389187282986
 20
112.93780924479165
 10
103.55905354817708
 20
114.21593967013888
 10
103.94455973307291
 20
112.93780924479165
 97
        0
 75
     2
 76
     1
 98
        1
 10
0.0
 20
0.0
  0
HATCH
  5
70
100
AcDbEntity
  8
レイヤー_1
 62
     7
100
AcDbHatch
 10
0.0
 20
0.0
 30
0.0
210
0.0
220
0.0
230
1.0
  2
SOLID
 70
     1
 71
     0
 91
        1
 92
        3
 72
     0
 73
     1
 93
        3
 10
97.203541395399299
 20
116.14209255642361
 10
97.588703070746519
 20
117.42022298177082
 10
97.974553765190961
 20
116.14209255642361
 97
        0
 75
     2
 76
     1
 98
        1
 10
0.0
 20
0.0
  0
MTEXT
  5
6F
100
AcDbEntity
  8
レイヤー_1
 62
     7
100
AcDbMText
 10
100.719934
 20
102.444737
 30
0.0
 40
2.624835
 41
0.0
 71
     1
 72
     2
  1
\fMSPGothic|b0|i0|c128;\H2.6248;\C7;\U+03A6
  7
STD
210
0.0
220
0.0
230
1.0
 11
0.0
 21
1.0
 31
0.0
 73
     1
 44
1.0
  0
MTEXT
  5
6E
100
AcDbEntity
  8
レイヤー_1
 62
     7
100
AcDbMText
 10
100.719934
 20
105.972515
 30
0.0
 40
2.624835
 41
0.0
 71
     1
 72
     2
  1
\fMSPGothic|b0|i0|c128;\H2.6248;\C7;\U+0037
  7
STD
210
0.0
220
0.0
230
1.0
 11
0.0
 21
1.0
 31
0.0
 73
     1
 44
1.0
  0
MTEXT
  5
6D
100
AcDbEntity
  8
レイヤー_1
 62
     7
100
AcDbMText
 10
100.719934
 20
107.736404
 30
0.0
 40
2.624835
 41
0.0
 71
     1
 72
     2
  1
\fMSPGothic|b0|i0|c128;\H2.6248;\C7;\U+002E
  7
STD
210
0.0
220
0.0
230
1.0
 11
0.0
 21
1.0
 31
0.0
 73
     1
 44
1.0
  0
MTEXT
  5
6C
100
AcDbEntity
  8
レイヤー_1
 62
     7
100
AcDbMText
 10
100.719762
 20
108.452984
 30
0.0
 40
2.624835
 41
0.0
 71
     1
 72
     2
  1
\fMSPGothic|b0|i0|c128;\H2.6248;\C7;\U+0038
  7
STD
210
0.0
220
0.0
230
1.0
 11
0.0
 21
1.0
 31
0.0
 73
     1
 44
1.0
  0
MTEXT
  5
6B
100
AcDbEntity
  8
レイヤー_1
 62
     7
100
AcDbMText
 10
94.321703
 20
103.003532
 30
0.0
 40
2.624835
 41
0.0
 71
     1
 72
     2
  1
\fMSPGothic|b0|i0|c128;\H2.6248;\C7;\U+03A6
  7
STD
210
0.0
220
0.0
230
1.0
 11
0.0
 21
1.0
 31
0.0
 73
     1
 44
1.0
  0
MTEXT
  5
6A
100
AcDbEntity
  8
レイヤー_1
 62
     7
100
AcDbMText
 10
94.321703
 20
106.53131
 30
0.0
 40
2.624835
 41
0.0
 71
     1
 72
     2
  1
\fMSPGothic|b0|i0|c128;\H2.6248;\C7;\U+0031
  7
STD
210
0.0
220
0.0
230
1.0
 11
0.0
 21
1.0
 31
0.0
 73
     1
 44
1.0
  0
MTEXT
  5
69
100
AcDbEntity
  8
レイヤー_1
 62
     7
100
AcDbMText
 10
94.321703
 20
108.295199
 30
0.0
 40
2.624835
 41
0.0
 71
     1
 72
     2
  1
\fMSPGothic|b0|i0|c128;\H2.6248;\C7;\U+0031
  7
STD
210
0.0
220
0.0
230
1.0
 11
0.0
 21
1.0
 31
0.0
 73
     1
 44
1.0
  0
LINE
  5
68
100
AcDbEntity
  8
レイヤー_1
 62
     7
100
AcDbLine
 10
103.559054
 20
98.615858
 30
0.0
 11
103.559054
 21
114.21594
 31
0.0
  0
LINE
  5
67
100
AcDbEntity
  8
レイヤー_1
 62
     7
100
AcDbLine
 10
97.588703
 20
95.420188
 30
0.0
 11
97.588703
 21
117.420223
 31
0.0
  0
POLYLINE
  5
61
100
AcDbEntity
  8
レイヤー_1
 62
     7
100
AcDb2dPolyline
 66
     1
 10
0.0
 20
0.0
 30
0.0
 70
     1
  0
VERTEX
  5
62
100
AcDbEntity
  8
レイヤー_1
 62
     7
100
AcDbVertex
100
AcDb2dVertex
 10
219.195578
 20
171.760231
 30
0.0
  0
VERTEX
  5
63
100
AcDbEntity
  8
レイヤー_1
 62
     7
100
AcDbVertex
100
AcDb2dVertex
 10
197.195715
 20
171.760231
 30
0.0
  0
VERTEX
  5
64
100
AcDbEntity
  8
レイヤー_1
 62
     7
100
AcDbVertex
100
AcDb2dVertex
 10
198.69571
 20
215.760301
 30
0.0
  0
VERTEX
  5
65
100
AcDbEntity
  8
レイヤー_1
 62
     7
100
AcDbVertex
100
AcDb2dVertex
 10
217.695584
 20
215.760301
 30
0.0
  0
SEQEND
  5
66
100
AcDbEntity
  8
レイヤー_1
 62
     7
  0
LINE
  5
60
100
AcDbEntity
  8
レイヤー_1
 62
     7
100
AcDbLine
 10
215.195822
 20
215.760301
 30
0.0
 11
217.927094
 21
189.908994
 31
0.0
  0
LINE
  5
5F
100
AcDbEntity
  8
レイヤー_1
 62
     7
100
AcDbLine
 10
198.43595
 20
189.908994
 30
0.0
 11
201.195816
 21
215.760301
 31
0.0
  0
POLYLINE
  5
59
100
AcDbEntity
  8
レイヤー_1
 62
     7
100
AcDb2dPolyline
 66
     1
 10
0.0
 20
0.0
 30
0.0
 70
     1
  0
VERTEX
  5
5A
100
AcDbEntity
  8
レイヤー_1
 62
     7
100
AcDbVertex
100
AcDb2dVertex
 10
219.195578
 20
169.760353
 30
0.0
  0
VERTEX
  5
5B
100
AcDbEntity
  8
レイヤー_1
 62
     7
100
AcDbVertex
100
AcDb2dVertex
 10
197.195715
 20
169.760353
 30
0.0
  0
VERTEX
  5
5C
100
AcDbEntity
  8
レイヤー_1
 62
     7
100
AcDbVertex
100
AcDb2dVertex
 10
197.195715
 20
171.760231
 30
0.0
  0
VERTEX
  5
5D
100
AcDbEntity
  8
レイヤー_1
 62
     7
100
AcDbVertex
100
AcDb2dVertex
 10
219.195578
 20
171.760231
 30
0.0
  0
SEQEND
  5
5E
100
AcDbEntity
  8
レイヤー_1
 62
     7
  0
LINE
  5
58
100
AcDbEntity
  8
レイヤー_1
 62
     7
100
AcDbLine
 10
217.221539
 20
189.76051
 30
0.0
 11
198.876922
 21
189.76051
 31
0.0
  0
LINE
  5
57
100
AcDbEntity
  8
レイヤー_1
 62
     7
100
AcDbLine
 10
197.758299
 20
187.760288
 30
0.0
 11
218.672613
 21
187.760288
 31
0.0
  0
HATCH
  5
56
100
AcDbEntity
  8
レイヤー_1
 62
     7
100
AcDbHatch
 10
0.0
 20
0.0
 30
0.0
210
0.0
220
0.0
230
1.0
  2
SOLID
 70
     1
 71
     0
 91
        1
 92
        3
 72
     0
 73
     1
 93
        3
 10
199.90838351779513
 20
221.89257134331595
 10
198.6302530924479
 20
222.27773301866318
 10
199.90838351779513
 20
222.66323920355902
 97
        0
 75
     2
 76
     1
 98
        1
 10
0.0
 20
0.0
  0
HATCH
  5
55
100
AcDbEntity
  8
レイヤー_1
 62
     7
100
AcDbHatch
 10
0.0
 20
0.0
 30
0.0
210
0.0
220
0.0
230
1.0
  2
SOLID
 70
     1
 71
     0
 91
        1
 92
        3
 72
     0
 73
     1
 93
        3
 10
216.39127061631942
 20
222.66289469401039
 10
217.66940104166665
 20
222.27773301866318
 10
216.39127061631942
 20
221.89257134331595
 97
        0
 75
     2
 76
     1
 98
        1
 10
0.0
 20
0.0
  0
MTEXT
  5
54
100
AcDbEntity
  8
レイヤー_1
 62
     7
100
AcDbMText
 10
205.522511
 20
225.587797
 30
0.0
 40
2.624835
 41
0.0
 71
     1
 72
     2
  1
\fMSPGothic|b0|i0|c128;\H2.6248;\C7;\U+0039
  7
STD
210
0.0
220
0.0
230
1.0
 11
1.0
 21
0.0
 31
0.0
 73
     1
 44
1.0
  0
MTEXT
  5
53
100
AcDbEntity
  8
レイヤー_1
 62
     7
100
AcDbMText
 10
207.2864
 20
225.587797
 30
0.0
 40
2.624835
 41
0.0
 71
     1
 72
     2
  1
\fMSPGothic|b0|i0|c128;\H2.6248;\C7;\U+002E
  7
STD
210
0.0
220
0.0
230
1.0
 11
1.0
 21
0.0
 31
0.0
 73
     1
 44
1.0
  0
MTEXT
  5
52
100
AcDbEntity
  8
レイヤー_1
 62
     7
100
AcDbMText
 10
208.002463
 20
225.587797
 30
0.0
 40
2.624835
 41
0.0
 71
     1
 72
     2
  1
\fMSPGothic|b0|i0|c128;\H2.6248;\C7;\U+0035
  7
STD
210
0.0
220
0.0
230
1.0
 11
1.0
 21
0.0
 31
0.0
 73
     1
 44
1.0
  0
LINE
  5
51
100
AcDbEntity
  8
レイヤー_1
 62
     7
100
AcDbLine
 10
198.669183
 20
216.936457
 30
0.0
 11
198.669183
 21
224.924255
 31
0.0
  0
LINE
  5
50
100
AcDbEntity
  8
レイヤー_1
 62
     7
100
AcDbLine
 10
217.669401
 20
216.936457
 30
0.0
 11
217.669401
 21
224.924255
 31
0.0
  0
LINE
  5
4F
100
AcDbEntity
  8
レイヤー_1
 62
     7
100
AcDbLine
 10
198.669183
 20
222.278078
 30
0.0
 11
217.669401
 21
222.278078
 31
0.0
  0
POLYLINE
  5
49
100
AcDbEntity
  8
レイヤー_1
 62
     7
100
AcDb2dPolyline
 66
     1
 10
0.0
 20
0.0
 30
0.0
 70
     1
  0
VERTEX
  5
4A
100
AcDbEntity
  8
レイヤー_1
 62
     7
100
AcDbVertex
100
AcDb2dVertex
 10
129.860463
 20
169.760353
 30
0.0
  0
VERTEX
  5
4B
100
AcDbEntity
  8
レイヤー_1
 62
     7
100
AcDbVertex
100
AcDb2dVertex
 10
107.860428
 20
169.760353
 30
0.0
  0
VERTEX
  5
4C
100
AcDbEntity
  8
レイヤー_1
 62
     7
100
AcDbVertex
100
AcDb2dVertex
 10
107.860428
 20
171.760231
 30
0.0
  0
VERTEX
  5
4D
100
AcDbEntity
  8
レイヤー_1
 62
     7
100
AcDbVertex
100
AcDb2dVertex
 10
129.860463
 20
171.760231
 30
0.0
  0
SEQEND
  5
4E
100
AcDbEntity
  8
レイヤー_1
 62
     7
  0
LINE
  5
48
100
AcDbEntity
  8
レイヤー_1
 62
     7
100
AcDbLine
 10
128.03284
 20
189.76051
 30
0.0
 11
120.881855
 21
189.76051
 31
0.0
  0
LINE
  5
47
100
AcDbEntity
  8
レイヤー_1
 62
     7
100
AcDbLine
 10
116.869008
 20
189.76051
 30
0.0
 11
109.688395
 21
189.76051
 31
0.0
  0
SPLINE
  5
46
100
AcDbEntity
  8
レイヤー_1
 62
     7
100
AcDbSpline
210
0.0
220
0.0
230
1.0
 70
     8
 71
     3
 72
    14
 73
    10
 74
     0
 42
0.00000001
 43
0.00000001
 40
0.0
 40
0.0
 40
0.0
 40
0.0
 40
1.0
 40
1.0
 40
1.0
 40
2.0
 40
2.0
 40
2.0
 40
3.0
 40
3.0
 40
3.0
 40
3.0
 10
116.86039496527776
 20
215.74307590060761
 30
0.0
 10
116.86039496527776
 20
215.74307590060761
 30
0.0
 10
116.86039496527776
 20
188.29668918185763
 30
0.0
 10
116.86039496527776
 20
188.29668918185763
 30
0.0
 10
116.86039496527776
 20
188.05691053602428
 30
0.0
 10
116.60442437065971
 20
187.76028781467014
 30
0.0
 10
116.3839382595486
 20
187.76028781467014
 30
0.0
 10
116.3839382595486
 20
187.76028781467014
 30
0.0
 10
108.42301161024305
 20
187.76028781467014
 30
0.0
 10
108.42301161024305
 20
187.76028781467014
 30
0.0
  0
SPLINE
  5
45
100
AcDbEntity
  8
レイヤー_1
 62
     7
100
AcDbSpline
210
0.0
220
0.0
230
1.0
 70
     8
 71
     3
 72
    14
 73
    10
 74
     0
 42
0.00000001
 43
0.00000001
 40
0.0
 40
0.0
 40
0.0
 40
0.0
 40
1.0
 40
1.0
 40
1.0
 40
2.0
 40
2.0
 40
2.0
 40
3.0
 40
3.0
 40
3.0
 40
3.0
 10
120.86049533420137
 20
215.74307590060761
 30
0.0
 10
120.86049533420137
 20
215.74307590060761
 30
0.0
 10
120.86049533420137
 20
188.29668918185763
 30
0.0
 10
120.86049533420137
 20
188.29668918185763
 30
0.0
 10
120.86049533420137
 20
188.05691053602428
 30
0.0
 10
121.05893283420137
 20
187.76028781467014
 30
0.0
 10
121.32317165798609
 20
187.76028781467014
 30
0.0
 10
121.32317165798609
 20
187.76028781467014
 30
0.0
 10
129.33715277777776
 20
187.76028781467014
 30
0.0
 10
129.33715277777776
 20
187.76028781467014
 30
0.0
  0
LINE
  5
44
100
AcDbEntity
  8
レイヤー_1
 62
     7
100
AcDbLine
 10
106.277406
 20
215.760301
 30
0.0
 11
87.131288
 21
215.760301
 31
0.0
  0
LINE
  5
43
100
AcDbEntity
  8
レイヤー_1
 62
     7
100
AcDbLine
 10
106.277406
 20
169.763109
 30
0.0
 11
87.131288
 21
169.763109
 31
0.0
  0
LINE
  5
42
100
AcDbEntity
  8
レイヤー_1
 62
     7
100
AcDbLine
 10
106.277406
 20
171.762987
 30
0.0
 11
98.897323
 21
171.762987
 31
0.0
  0
LINE
  5
41
100
AcDbEntity
  8
レイヤー_1
 62
     7
100
AcDbLine
 10
91.189266
 20
169.686628
 30
0.0
 11
91.189266
 21
215.686576
 31
0.0
  0
HATCH
  5
40
100
AcDbEntity
  8
レイヤー_1
 62
     7
100
AcDbHatch
 10
0.0
 20
0.0
 30
0.0
210
0.0
220
0.0
230
1.0
  2
SOLID
 70
     1
 71
     0
 91
        1
 92
        3
 72
     0
 73
     1
 93
        3
 10
90.780677625868051
 20
214.40844590928816
 10
91.165839301215271
 20
215.68657633463539
 10
91.551345486111103
 20
214.40844590928816
 97
        0
 75
     2
 76
     1
 98
        1
 10
0.0
 20
0.0
  0
HATCH
  5
3F
100
AcDbEntity
  8
レイヤー_1
 62
     7
100
AcDbHatch
 10
0.0
 20
0.0
 30
0.0
210
0.0
220
0.0
230
1.0
  2
SOLID
 70
     1
 71
     0
 91
        1
 92
        3
 72
     0
 73
     1
 93
        3
 10
113.07251247829861
 20
221.89257134331595
 10
111.79438205295138
 20
222.27773301866318
 10
113.07251247829861
 20
222.66323920355902
 97
        0
 75
     2
 76
     1
 98
        1
 10
0.0
 20
0.0
  0
HATCH
  5
3E
100
AcDbEntity
  8
レイヤー_1
 62
     7
100
AcDbHatch
 10
0.0
 20
0.0
 30
0.0
210
0.0
220
0.0
230
1.0
  2
SOLID
 70
     1
 71
     0
 91
        1
 92
        3
 72
     0
 73
     1
 93
        3
 10
124.56087239583333
 20
222.66289469401039
 10
125.83900282118054
 20
222.27773301866318
 10
124.56087239583333
 20
221.89257134331595
 97
        0
 75
     2
 76
     1
 98
        1
 10
0.0
 20
0.0
  0
HATCH
  5
3D
100
AcDbEntity
  8
レイヤー_1
 62
     7
100
AcDbHatch
 10
0.0
 20
0.0
 30
0.0
210
0.0
220
0.0
230
1.0
  2
SOLID
 70
     1
 71
     0
 91
        1
 92
        3
 72
     0
 73
     1
 93
        3
 10
91.551345486111103
 20
170.96475830078123
 10
91.166183810763883
 20
169.686627875434
 10
90.780677625868051
 20
170.96475830078123
 97
        0
 75
     2
 76
     1
 98
        1
 10
0.0
 20
0.0
  0
HATCH
  5
3C
100
AcDbEntity
  8
レイヤー_1
 62
     7
100
AcDbHatch
 10
0.0
 20
0.0
 30
0.0
210
0.0
220
0.0
230
1.0
  2
SOLID
 70
     1
 71
     0
 91
        1
 92
        3
 72
     0
 73
     1
 93
        3
 10
99.879174804687494
 20
173.01872422960068
 10
99.494013129340274
 20
171.74059380425345
 10
99.108506944444429
 20
173.01872422960068
 97
        0
 75
     2
 76
     1
 98
        1
 10
0.0
 20
0.0
  0
HATCH
  5
3B
100
AcDbEntity
  8
レイヤー_1
 62
     7
100
AcDbHatch
 10
0.0
 20
0.0
 30
0.0
210
0.0
220
0.0
230
1.0
  2
SOLID
 70
     1
 71
     0
 91
        1
 92
        3
 72
     0
 73
     1
 93
        3
 10
99.108506944444429
 20
168.49806993272568
 10
99.493668619791663
 20
169.77620035807291
 10
99.879174804687494
 20
168.49806993272568
 97
        0
 75
     2
 76
     1
 98
        1
 10
0.0
 20
0.0
  0
LINE
  5
3A
100
AcDbEntity
  8
レイヤー_1
 62
     7
100
AcDbLine
 10
99.494013
 20
167.032182
 30
0.0
 11
99.494013
 21
174.018146
 31
0.0
  0
MTEXT
  5
39
100
AcDbEntity
  8
レイヤー_1
 62
     7
100
AcDbMText
 10
87.721761
 20
192.079232
 30
0.0
 40
2.624835
 41
0.0
 71
     1
 72
     2
  1
\fMSPGothic|b0|i0|c128;\H2.6248;\C7;\U+0032
  7
STD
210
0.0
220
0.0
230
1.0
 11
0.0
 21
1.0
 31
0.0
 73
     1
 44
1.0
  0
MTEXT
  5
38
100
AcDbEntity
  8
レイヤー_1
 62
     7
100
AcDbMText
 10
87.721761
 20
193.843121
 30
0.0
 40
2.624835
 41
0.0
 71
     1
 72
     2
  1
\fMSPGothic|b0|i0|c128;\H2.6248;\C7;\U+0033
  7
STD
210
0.0
220
0.0
230
1.0
 11
0.0
 21
1.0
 31
0.0
 73
     1
 44
1.0
  0
MTEXT
  5
37
100
AcDbEntity
  8
レイヤー_1
 62
     7
100
AcDbMText
 10
117.294649
 20
225.587797
 30
0.0
 40
2.624835
 41
0.0
 71
     1
 72
     2
  1
\fMSPGothic|b0|i0|c128;\H2.6248;\C7;\U+0037
  7
STD
210
0.0
220
0.0
230
1.0
 11
1.0
 21
0.0
 31
0.0
 73
     1
 44
1.0
  0
MTEXT
  5
36
100
AcDbEntity
  8
レイヤー_1
 62
     7
100
AcDbMText
 10
96.323475
 20
169.780507
 30
0.0
 40
2.624835
 41
0.0
 71
     1
 72
     2
  1
\fMSPGothic|b0|i0|c128;\H2.6248;\C7;\U+0031
  7
STD
210
0.0
220
0.0
230
1.0
 11
0.0
 21
1.0
 31
0.0
 73
     1
 44
1.0
  0
LINE
  5
35
100
AcDbEntity
  8
レイヤー_1
 62
     7
100
AcDbLine
 10
111.839168
 20
216.936457
 30
0.0
 11
111.839168
 21
224.924255
 31
0.0
  0
LINE
  5
34
100
AcDbEntity
  8
レイヤー_1
 62
     7
100
AcDbLine
 10
125.839003
 20
216.936457
 30
0.0
 11
125.839003
 21
224.924255
 31
0.0
  0
LINE
  5
33
100
AcDbEntity
  8
レイヤー_1
 62
     7
100
AcDbLine
 10
111.839168
 20
222.278078
 30
0.0
 11
125.839003
 21
222.278078
 31
0.0
  0
POLYLINE
  5
29
100
AcDbEntity
  8
レイヤー_1
 62
     7
100
AcDb2dPolyline
 66
     1
 10
0.0
 20
0.0
 30
0.0
 70
     1
  0
VERTEX
  5
2A
100
AcDbEntity
  8
レイヤー_1
 62
     7
100
AcDbVertex
100
AcDb2dVertex
 10
129.315793
 20
187.760288
 30
0.0
  0
VERTEX
  5
2B
100
AcDbEntity
  8
レイヤー_1
 62
     7
100
AcDbVertex
100
AcDb2dVertex
 10
128.570275
 20
189.908994
 30
0.0
  0
VERTEX
  5
2C
100
AcDbEntity
  8
レイヤー_1
 62
     7
100
AcDbVertex
100
AcDb2dVertex
 10
125.839003
 20
215.760301
 30
0.0
  0
VERTEX
  5
2D
100
AcDbEntity
  8
レイヤー_1
 62
     7
100
AcDbVertex
100
AcDb2dVertex
 10
111.839168
 20
215.760301
 30
0.0
  0
VERTEX
  5
2E
100
AcDbEntity
  8
レイヤー_1
 62
     7
100
AcDbVertex
100
AcDb2dVertex
 10
109.079302
 20
189.908994
 30
0.0
  0
VERTEX
  5
2F
100
AcDbEntity
  8
レイヤー_1
 62
     7
100
AcDbVertex
100
AcDb2dVertex
 10
108.401652
 20
187.760288
 30
0.0
  0
VERTEX
  5
30
100
AcDbEntity
  8
レイヤー_1
 62
     7
100
AcDbVertex
100
AcDb2dVertex
 10
107.860428
 20
171.760231
 30
0.0
  0
VERTEX
  5
31
100
AcDbEntity
  8
レイヤー_1
 62
     7
100
AcDbVertex
100
AcDb2dVertex
 10
129.860463
 20
171.760231
 30
0.0
  0
SEQEND
  5
32
100
AcDbEntity
  8
レイヤー_1
 62
     7
  0
ENDSEC
  0
SECTION
  2
OBJECTS
  0
DICTIONARY
  5
19
100
AcDbDictionary
280
     0
281
     1
  3
ACAD_GROUP
350
1A
  3
ACAD_MLINESTYLE
350
1B
  3
ACAD_LAYOUT
350
1E
  3
ACAD_PLOTSETTINGS
350
22
  3
ACAD_PLOTSTYLENAME
350
1F
  3
ACAD_WIPEOUT_VARS
350
23
  0
DICTIONARY
  5
1A
102
{ACAD_REACTORS
330
19
102
}
100
AcDbDictionary
280
     0
281
     1
  0
DICTIONARY
  5
1B
102
{ACAD_REACTORS
330
19
102
}
100
AcDbDictionary
280
     0
281
     1
  3
Standard
350
1C
  0
MLINESTYLE
  5
1C
102
{ACAD_REACTORS
330
1B
102
}
100
AcDbMlineStyle
  2
Standard
 70
     0
  3

 62
     0
 51
90.0
 52
90.0
 71
     2
 49
0.5
 62
   256
  6
ByLayer
 49
-0.5
 62
   256
  6
ByLayer
  0
ACDBDICTIONARYWDFLT
  5
1F
102
{ACAD_REACTORS
330
19
102
}
100
AcDbDictionary
281
     1
  3
Normal
350
1D
100
AcDbDictionaryWithDefault
340
1D
  0
ACDBPLACEHOLDER
  5
1D
102
{ACAD_REACTORS
330
1F
102
}
  0
LAYOUT
  5
20
102
{ACAD_REACTORS
330
1E
102
}
100
AcDbPlotSettings
  1

  2

  4

  6

 40
0.0
 41
0.0
 42
0.0
 43
0.0
 44
0.0
 45
0.0
 46
0.0
 47
0.0
 48
0.0
 49
0.0
140
0.0
141
0.0
142
1.0
143
1.0
 70
  1024
 72
     0
 73
     0
 74
     0
  7

 75
     0
147
1.0
148
0.0
149
0.0
100
AcDbLayout
  1
Model
 70
     0
 71
     0
 10
0.0
 20
0.0
 11
0.0
 21
0.0
 12
0.0
 22
0.0
 32
0.0
 14
0.0
 24
0.0
 34
0.0
 15
0.0
 25
0.0
 35
0.0
146
0.0
 13
0.0
 23
0.0
 33
0.0
 16
0.0
 26
0.0
 36
0.0
 17
0.0
 27
0.0
 37
0.0
 76
     0
330
A
331
0
345
0
346
0
  0
LAYOUT
  5
21
102
{ACAD_REACTORS
330
1E
102
}
100
AcDbPlotSettings
  1

  2

  4

  6

 40
0.0
 41
0.0
 42
0.0
 43
0.0
 44
0.0
 45
0.0
 46
0.0
 47
0.0
 48
0.0
 49
0.0
140
0.0
141
0.0
142
1.0
143
1.0
 70
     0
 72
     0
 73
     0
 74
     0
  7

 75
     0
147
1.0
148
0.0
149
0.0
100
AcDbLayout
  1
Layout1
 70
     0
 71
     0
 10
0.0
 20
0.0
 11
0.0
 21
0.0
 12
0.0
 22
0.0
 32
0.0
 14
0.0
 24
0.0
 34
0.0
 15
0.0
 25
0.0
 35
0.0
146
0.0
 13
0.0
 23
0.0
 33
0.0
 16
0.0
 26
0.0
 36
0.0
 17
0.0
 27
0.0
 37
0.0
 76
     0
330
B
331
0
345
0
346
0
  0
DICTIONARY
  5
1E
102
{ACAD_REACTORS
330
19
102
}
100
AcDbDictionary
280
     0
281
     1
  3
Layout1
350
21
  3
Model
350
20
  0
DICTIONARY
  5
22
102
{ACAD_REACTORS
330
19
102
}
100
AcDbDictionary
280
     0
281
     1
  0
WIPEOUTVARIABLES
  5
23
100
AcDbWipeoutVariables
 70
     1
  0
ENDSEC
  0
EOF
