  0
SECTION
  2
HEADER
  9
$ACADVER
  1
AC1015
  9
$ACADMAINTVER
 70
     6
  9
$DWGCODEPAGE
  3
ANSI_932
  9
$INSBASE
 10
0.0
 20
0.0
 30
0.0
  9
$EXTMIN
 10
14.684375
 20
10.715625
 30
1.000000E+20
  9
$EXTMAX
 10
404.680208
 20
287.734375
 30
-1.000000E+20
  9
$LIMMIN
 10
14.684375
 20
10.715625
  9
$LIMMAX
 10
404.680208
 20
287.734375
  9
$ORTHOMODE
 70
     0
  9
$REGENMODE
 70
     1
  9
$FILLMODE
 70
     1
  9
$QTEXTMODE
 70
     0
  9
$MIRRTEXT
 70
     1
  9
$LTSCALE
 40
1.0
  9
$ATTMODE
 70
     1
  9
$TEXTSIZE
 40
0.2
  9
$TRACEWID
 40
0.05
  9
$TEXTSTYLE
  7
Standard
  9
$CLAYER
  8
0
  9
$CELTYPE
  6
Continuous
  9
$CECOLOR
 62
   256
  9
$CELTSCALE
 40
1.0
  9
$DISPSILH
 70
     0
  9
$DIMSCALE
 40
1.0
  9
$DIMASZ
 40
0.18
  9
$DIMEXO
 40
0.0625
  9
$DIMDLI
 40
0.38
  9
$DIMRND
 40
0.0
  9
$DIMDLE
 40
0.0
  9
$DIMEXE
 40
0.18
  9
$DIMTP
 40
0.0
  9
$DIMTM
 40
0.0
  9
$DIMTXT
 40
0.18
  9
$DIMCEN
 40
0.09
  9
$DIMTSZ
 40
0.0
  9
$DIMTOL
 70
     0
  9
$DIMLIM
 70
     0
  9
$DIMTIH
 70
     1
  9
$DIMTOH
 70
     1
  9
$DIMSE1
 70
     0
  9
$DIMSE2
 70
     0
  9
$DIMTAD
 70
     0
  9
$DIMZIN
 70
     0
  9
$DIMBLK
  1

  9
$DIMASO
 70
     1
  9
$DIMSHO
 70
     1
  9
$DIMPOST
  1

  9
$DIMAPOST
  1

  9
$DIMALT
 70
     0
  9
$DIMALTD
 70
     2
  9
$DIMALTF
 40
25.4
  9
$DIMLFAC
 40
1.0
  9
$DIMTOFL
 70
     0
  9
$DIMTVP
 40
0.0
  9
$DIMTIX
 70
     0
  9
$DIMSOXD
 70
     0
  9
$DIMSAH
 70
     0
  9
$DIMBLK1
  1

  9
$DIMBLK2
  1

  9
$DIMSTYLE
  2
Standard
  9
$DIMCLRD
 70
     0
  9
$DIMCLRE
 70
     0
  9
$DIMCLRT
 70
     0
  9
$DIMTFAC
 40
1.0
  9
$DIMGAP
 40
0.09
  9
$DIMJUST
 70
     0
  9
$DIMSD1
 70
     0
  9
$DIMSD2
 70
     0
  9
$DIMTOLJ
 70
     1
  9
$DIMTZIN
 70
     0
  9
$DIMALTZ
 70
     0
  9
$DIMALTTZ
 70
     0
  9
$DIMUPT
 70
     0
  9
$DIMDEC
 70
     4
  9
$DIMTDEC
 70
     4
  9
$DIMALTU
 70
     2
  9
$DIMALTTD
 70
     2
  9
$DIMTXSTY
  7
Standard
  9
$DIMAUNIT
 70
     0
  9
$DIMADEC
 70
     0
  9
$DIMALTRND
 40
0.0
  9
$DIMAZIN
 70
     0
  9
$DIMDSEP
 70
     0
  9
$DIMATFIT
 70
     3
  9
$DIMFRAC
 70
     0
  9
$DIMLDRBLK
  1

  9
$DIMLUNIT
 70
     2
  9
$DIMLWD
 70
     0
  9
$DIMLWE
 70
     0
  9
$DIMTMOVE
 70
     0
  9
$LUNITS
 70
     2
  9
$LUPREC
 70
     4
  9
$SKETCHINC
 40
0.1
  9
$FILLETRAD
 40
0.0
  9
$AUNITS
 70
     0
  9
$AUPREC
 70
     0
  9
$MENU
  1
acad
  9
$ELEVATION
 40
0.0
  9
$PELEVATION
 40
0.0
  9
$THICKNESS
 40
0.0
  9
$LIMCHECK
 70
     0
  9
$CHAMFERA
 40
0.0
  9
$CHAMFERB
 40
0.0
  9
$CHAMFERC
 40
0.0
  9
$CHAMFERD
 40
0.0
  9
$SKPOLY
 70
     0
  9
$TDCREATE
 40
0.000000000
  9
$TDUCREATE
 40
0.000000000
  9
$TDUPDATE
 40
0.000000000
  9
$TDUUPDATE
 40
0.000000000
  9
$TDINDWG
 40
0.0000000000
  9
$TDUSRTIMER
 40
0.0000000000
  9
$USRTIMER
 70
     1
  9
$ANGBASE
 50
0.0
  9
$ANGDIR
 70
     0
  9
$PDMODE
 70
     0
  9
$PDSIZE
 40
0.0
  9
$PLINEWID
 40
0.0
  9
$SPLFRAME
 70
     0
  9
$SPLINETYPE
 70
     6
  9
$SPLINESEGS
 70
     8
  9
$HANDSEED
  5
181
  9
$SURFTAB1
 70
     6
  9
$SURFTAB2
 70
     6
  9
$SURFTYPE
 70
     6
  9
$SURFU
 70
     6
  9
$SURFV
 70
     6
  9
$UCSBASE
  2

  9
$UCSNAME
  2

  9
$UCSORG
 10
0.0
 20
0.0
 30
0.0
  9
$UCSXDIR
 10
1.0
 20
0.0
 30
0.0
  9
$UCSYDIR
 10
0.0
 20
1.0
 30
0.0
  9
$UCSORTHOREF
  2

  9
$UCSORTHOVIEW
 70
     0
  9
$UCSORGTOP
 10
0.0
 20
0.0
 30
0.0
  9
$UCSORGBOTTOM
 10
0.0
 20
0.0
 30
0.0
  9
$UCSORGLEFT
 10
0.0
 20
0.0
 30
0.0
  9
$UCSORGRIGHT
 10
0.0
 20
0.0
 30
0.0
  9
$UCSORGFRONT
 10
0.0
 20
0.0
 30
0.0
  9
$UCSORGBACK
 10
0.0
 20
0.0
 30
0.0
  9
$PUCSBASE
  2

  9
$PUCSNAME
  2

  9
$PUCSORG
 10
0.0
 20
0.0
 30
0.0
  9
$PUCSXDIR
 10
1.0
 20
0.0
 30
0.0
  9
$PUCSYDIR
 10
0.0
 20
1.0
 30
0.0
  9
$PUCSORTHOREF
  2

  9
$PUCSORTHOVIEW
 70
     0
  9
$PUCSORGTOP
 10
0.0
 20
0.0
 30
0.0
  9
$PUCSORGBOTTOM
 10
0.0
 20
0.0
 30
0.0
  9
$PUCSORGLEFT
 10
0.0
 20
0.0
 30
0.0
  9
$PUCSORGRIGHT
 10
0.0
 20
0.0
 30
0.0
  9
$PUCSORGFRONT
 10
0.0
 20
0.0
 30
0.0
  9
$PUCSORGBACK
 10
0.0
 20
0.0
 30
0.0
  9
$USERI1
 70
     0
  9
$USERI2
 70
     0
  9
$USERI3
 70
     0
  9
$USERI4
 70
     0
  9
$USERI5
 70
     0
  9
$USERR1
 40
0.0
  9
$USERR2
 40
0.0
  9
$USERR3
 40
0.0
  9
$USERR4
 40
0.0
  9
$USERR5
 40
0.0
  9
$WORLDVIEW
 70
     1
  9
$SHADEDGE
 70
     3
  9
$SHADEDIF
 70
    70
  9
$TILEMODE
 70
     1
  9
$MAXACTVP
 70
    16
  9
$PINSBASE
 10
0.0
 20
0.0
 30
0.0
  9
$PLIMCHECK
 70
     0
  9
$PEXTMIN
 10
1.000000E+20
 20
1.000000E+20
 30
1.000000E+20
  9
$PEXTMAX
 10
-1.000000E+20
 20
-1.000000E+20
 30
-1.000000E+20
  9
$PLIMMIN
 10
0.0
 20
0.0
  9
$PLIMMAX
 10
12.0
 20
9.0
  9
$UNITMODE
 70
     0
  9
$VISRETAIN
 70
     0
  9
$PLINEGEN
 70
     1
  9
$PSLTSCALE
 70
     0
  9
$TREEDEPTH
 70
  3020
  9
$CMLSTYLE
  2
Standard
  9
$CMLJUST
 70
     0
  9
$CMLSCALE
 40
1.0
  9
$PROXYGRAPHICS
 70
     0
  9
$MEASUREMENT
 70
     1
  9
$CELWEIGHT
370
     0
  9
$ENDCAPS
280
     0
  9
$JOINSTYLE
280
     0
  9
$LWDISPLAY
290
     0
  9
$INSUNITS
 70
     0
  9
$HYPERLINKBASE
  1

  9
$STYLESHEET
  1

  9
$XEDIT
290
     1
  9
$CEPSNTYPE
380
     0
  9
$PSTYLEMODE
290
     1
  9
$FINGERPRINTGUID
  2

  9
$VERSIONGUID
  2

  9
$EXTNAMES
290
     1
  9
$PSVPSCALE
 40
0.0
  0
ENDSEC
  0
SECTION
  2
CLASSES
  0
CLASS
  1
LWPOLYLINE
  2
AcDbPolyline
  3
AutoCAD 2000
 90
    32768
280
     0
281
     1
  0
CLASS
  1
IMAGE
  2
AcDbRasterImage
  3
ISM
 90
    32895
280
     0
281
     1
  0
CLASS
  1
OLE2FRAME
  2
AcDbOle2Frame
  3
AutoCAD 2000
 90
    32768
280
     0
281
     1
  0
CLASS
  1
HATCH
  2
AcDbHatch
  3
AutoCAD 2000
 90
        0
280
     0
281
     1
  0
CLASS
  1
DICTIONARYVAR
  2
AcDbDictionaryVar
  3
AutoCAD 2000
 90
    32768
280
     0
281
     0
  0
CLASS
  1
RASTERVARIABLES
  2
AcDbRasterVariables
  3
ISM
 90
    32768
280
     0
281
     0
  0
CLASS
  1
IMAGEDEF
  2
AcDbRasterImageDef
  3
ISM
 90
    32768
280
     0
281
     0
  0
CLASS
  1
IMAGEDEF_REACTOR
  2
AcDbRasterImageDefReactor
  3
ISM
 90
    32769
280
     0
281
     0
  0
CLASS
  1
IDBUFFER
  2
AcDbIdBuffer
  3
AutoCAD 2000
 90
    32768
280
     0
281
     0
  0
CLASS
  1
SPATIAL_FILTER
  2
AcDbSpatialFilter
  3
AutoCAD 2000
 90
    32768
280
     0
281
     0
  0
CLASS
  1
XRECORD
  2
AcDbXrecord
  3
AutoCAD 2000
 90
    32768
280
     0
281
     0
  0
CLASS
  1
SORTENTSTABLE
  2
AcDbSortentsTable
  3
AutoCAD 2000
 90
    32768
280
     0
281
     0
  0
CLASS
  1
LAYER_INDEX
  2
AcDbLayerIndex
  3
AutoCAD 2000
 90
    32768
280
     0
281
     0
  0
CLASS
  1
SPATIAL_INDEX
  2
AcDbSpatialIndex
  3
AutoCAD 2000
 90
    32768
280
     0
281
     0
  0
CLASS
  1
OBJECT_PTR
  2
CAseDLPNTableRecord
  3
"ASE-LPNTableRecord"
 90
    32769
280
     0
281
     0
  0
CLASS
  1
LAYOUT
  2
AcDbLayout
  3
AutoCAD 2000
 90
        0
280
     0
281
     0
  0
CLASS
  1
PLOTSETTINGS
  2
AcDbPlotSettings
  3
AutoCAD 2000
 90
    32768
280
     0
281
     0
  0
CLASS
  1
ACDBDICTIONARYWDFLT
  2
AcDbDictionaryWithDefault
  3
AutoCAD 2000
 90
        0
280
     0
281
     0
  0
CLASS
  1
ACDBPLACEHOLDER
  2
AcDbPlaceHolder
  3
AutoCAD 2000
 90
        0
280
     0
281
     0
  0
CLASS
  1
VBA_PROJECT
  2
AcDbVbaProject
  3
acadvba
 90
    32768
280
     0
281
     0
  0
CLASS
  1
WIPEOUT
  2
AcDbWipeout
  3
WipeOut|AutoCAD Express Tool|expresstools@autodesk.com
 90
    32895
280
     0
281
     1
  0
CLASS
  1
WIPEOUTVARIABLES
  2
AcDbWipeoutVariables
  3
WipeOut|AutoCAD Express Tool|expresstools@autodesk.com
 90
        0
280
     0
281
     0
  0
CLASS
  1
RTEXT
  2
RText
  3
RText|AutoCAD Express Tool|expresstools@autodesk.com
 90
    32768
280
     0
281
     1
  0
CLASS
  1
ARCALIGNEDTEXT
  2
AcDbArcAlignedText
  3
ATEXT|AutoCAD Express Tool|expresstools@autodesk.com
 90
    32768
280
     0
281
     1
  0
ENDSEC
  0
SECTION
  2
TABLES
  0
TABLE
  2
VPORT
  5
7
100
AcDbSymbolTable
 70
     1
  0
VPORT
  5
15
100
AcDbSymbolTableRecord
100
AcDbViewportTableRecord
  2
*ACTIVE
 70
     0
 10
0.0
 20
0.0
 11
1.0
 21
1.0
 12
6.591288
 22
4.579184
 13
0.0
 23
0.0
 14
1.0
 24
1.0
 15
0.0
 25
0.0
 16
0.0
 26
0.0
 36
1.0
 17
0.0
 27
0.0
 37
0.0
 40
9.158369
 41
0.688564
 42
50.0
 43
0.0
 44
0.0
 50
0.0
 51
0.0
 71
     0
 72
   100
 73
     1
 74
     1
 75
     0
 76
     0
 77
     0
 78
     0
281
     0
 65
     0
110
0.0
120
0.0
130
0.0
111
1.0
121
0.0
131
0.0
112
0.0
122
1.0
132
0.0
345
0
346
0
 79
     0
146
0.0
  0
ENDTAB
  0
TABLE
  2
LTYPE
  5
4
100
AcDbSymbolTable
 70
     3
  0
LTYPE
  5
11
100
AcDbSymbolTableRecord
100
AcDbLinetypeTableRecord
  2
ByBlock
 70
    64
  3

 72
    65
 73
     0
 40
0.0
  0
LTYPE
  5
12
100
AcDbSymbolTableRecord
100
AcDbLinetypeTableRecord
  2
ByLayer
 70
    64
  3

 72
    65
 73
     0
 40
0.0
  0
LTYPE
  5
13
100
AcDbSymbolTableRecord
100
AcDbLinetypeTableRecord
  2
Continuous
 70
    64
  3
Solid line
 72
    65
 73
     0
 40
0.0
  0
ENDTAB
  0
TABLE
  2
LAYER
  5
2
100
AcDbSymbolTable
 70
     2
  0
LAYER
  5
14
100
AcDbSymbolTableRecord
100
AcDbLayerTableRecord
  2
0
 70
     0
 62
     7
  6
Continuous
290
     1
370
    -3
390
1D
  0
LAYER
  5
28
100
AcDbSymbolTableRecord
100
AcDbLayerTableRecord
  2
レイヤー_1
 70
     0
 62
   160
  6
Continuous
290
     1
370
    -3
390
1D
  0
ENDTAB
  0
TABLE
  2
STYLE
  5
3
100
AcDbSymbolTable
 70
     5
  0
STYLE
  5
17
100
AcDbSymbolTableRecord
100
AcDbTextStyleTableRecord
  2
Standard
 70
     0
 40
0.0
 41
1.0
 50
0.0
 71
     0
 42
0.0
  3
txt
  4

  0
STYLE
  5
24
100
AcDbSymbolTableRecord
100
AcDbTextStyleTableRecord
  2
STD
 70
     0
 40
0.0
 41
1.0
 50
0.0
 71
     0
 42
0.0
  3
txt
  4

  0
STYLE
  5
25
100
AcDbSymbolTableRecord
100
AcDbTextStyleTableRecord
  2
TATESTD
 70
     4
 40
0.0
 41
1.0
 50
0.0
 71
     0
 42
0.0
  3
txt
  4

  0
STYLE
  5
26
100
AcDbSymbolTableRecord
100
AcDbTextStyleTableRecord
  2
KANJISTD
 70
     0
 40
0.0
 41
1.0
 50
0.0
 71
     0
 42
0.0
  3
txt
  4
extfont
  0
STYLE
  5
27
100
AcDbSymbolTableRecord
100
AcDbTextStyleTableRecord
  2
KANJITATE
 70
     4
 40
0.0
 41
1.0
 50
0.0
 71
     0
 42
0.0
  3
txt
  4
extfont
  0
ENDTAB
  0
TABLE
  2
VIEW
  5
5
100
AcDbSymbolTable
 70
     0
  0
ENDTAB
  0
TABLE
  2
UCS
  5
6
100
AcDbSymbolTable
 70
     0
  0
ENDTAB
  0
TABLE
  2
APPID
  5
8
100
AcDbSymbolTable
 70
     1
  0
APPID
  5
16
100
AcDbSymbolTableRecord
100
AcDbRegAppTableRecord
  2
ACAD
 70
     0
  0
ENDTAB
  0
TABLE
  2
DIMSTYLE
  5
9
100
AcDbSymbolTable
 70
     1
100
AcDbDimStyleTable
 71
     0
  0
DIMSTYLE
105
18
100
AcDbSymbolTableRecord
100
AcDbDimStyleTableRecord
  2
Standard
 70
     0
  3

  4

 40
1.0
 41
0.18
 42
0.0625
 43
0.38
 44
0.18
 45
0.0
 46
0.0
 47
0.0
 48
0.0
 71
     0
 72
     0
 73
     1
 74
     1
 75
     0
 76
     0
 77
     0
 78
     0
 79
     0
140
0.18
141
0.09
142
0.0
143
25.4
144
1.0
145
0.0
146
1.0
147
0.09
148
0.0
170
     0
171
     2
172
     0
173
     0
174
     0
175
     0
176
     0
177
     0
178
     0
179
     0
271
     4
272
     4
273
     2
274
     2
275
     0
276
     0
277
     2
278
    46
279
     0
280
     0
281
     0
282
     0
283
     1
284
     0
285
     0
286
     0
288
     0
340
17
341
0
342
0
343
0
344
0
371
    -2
372
    -2
  0
ENDTAB
  0
TABLE
  2
BLOCK_RECORD
  5
1
100
AcDbSymbolTable
 70
     1
  0
BLOCK_RECORD
  5
A
100
AcDbSymbolTableRecord
100
AcDbBlockTableRecord
  2
*MODEL_SPACE
340
20
  0
BLOCK_RECORD
  5
B
100
AcDbSymbolTableRecord
100
AcDbBlockTableRecord
  2
*PAPER_SPACE
340
21
  0
BLOCK_RECORD
  5
11D
100
AcDbSymbolTableRecord
100
AcDbBlockTableRecord
  2
AI9-BLK1
340
0
102
{BLKREFS
331
11E
102
}
  0
ENDTAB
  0
ENDSEC
  0
SECTION
  2
BLOCKS
  0
BLOCK
  5
D
100
AcDbEntity
  8
0
100
AcDbBlockBegin
  2
*MODEL_SPACE
 70
     0
 10
0.0
 20
0.0
 30
0.0
  3
*MODEL_SPACE
  1

  0
ENDBLK
  5
E
100
AcDbEntity
  8
0
100
AcDbBlockEnd
  0
BLOCK
  5
F
100
AcDbEntity
 67
     1
  8
0
100
AcDbBlockBegin
  2
*PAPER_SPACE
 70
     0
 10
0.0
 20
0.0
 30
0.0
  3
*PAPER_SPACE
  1

  0
ENDBLK
  5
10
100
AcDbEntity
 67
     1
  8
0
100
AcDbBlockEnd
  0
BLOCK
  5
11F
100
AcDbEntity
  8
レイヤー_1
 62
     7
100
AcDbBlockBegin
  2
AI9-BLK1
 70
     0
 10
0.0
 20
0.0
 30
0.0
  3
AI9-BLK1
  1

  0
MTEXT
  5
122
100
AcDbEntity
  8
レイヤー_1
 62
     7
100
AcDbMText
 10
-4.7625
 20
1.215134
 30
0.0
 40
2.362351
 41
0.0
 71
     1
 72
     2
  1
\fMSGothic|b0|i0|c128;\H2.3624;\C7;\U+8A18
  7
STD
210
0.0
220
0.0
230
1.0
 11
1.0
 21
0.0
 31
0.0
 73
     1
 44
1.0
  0
MTEXT
  5
121
100
AcDbEntity
  8
レイヤー_1
 62
     7
100
AcDbMText
 10
-1.5875
 20
1.215134
 30
0.0
 40
2.362351
 41
0.0
 71
     1
 72
     2
  1
\fMSGothic|b0|i0|c128;\H2.3624;\C7;
  7
STD
210
0.0
220
0.0
230
1.0
 11
1.0
 21
0.0
 31
0.0
 73
     1
 44
1.0
  0
MTEXT
  5
120
100
AcDbEntity
  8
レイヤー_1
 62
     7
100
AcDbMText
 10
1.5875
 20
1.215134
 30
0.0
 40
2.362351
 41
0.0
 71
     1
 72
     2
  1
\fMSGothic|b0|i0|c128;\H2.3624;\C7;\U+4E8B
  7
STD
210
0.0
220
0.0
230
1.0
 11
1.0
 21
0.0
 31
0.0
 73
     1
 44
1.0
  0
ENDBLK
  5
123
100
AcDbEntity
  8
レイヤー_1
100
AcDbBlockEnd
  0
ENDSEC
  0
SECTION
  2
ENTITIES
  0
MTEXT
  5
180
100
AcDbEntity
  8
レイヤー_1
 62
     7
100
AcDbMText
 10
195.791667
 20
16.385268
 30
0.0
 40
2.362351
 41
0.0
 71
     1
 72
     2
  1
\fMSGothic|b0|i0|c128;\H2.3624;\C7;\U+FF15
  7
STD
210
0.0
220
0.0
230
1.0
 11
1.0
 21
0.0
 31
0.0
 73
     1
 44
1.0
  0
MTEXT
  5
17F
100
AcDbEntity
  8
レイヤー_1
 62
     7
100
AcDbMText
 10
198.966667
 20
16.385268
 30
0.0
 40
2.362351
 41
0.0
 71
     1
 72
     2
  1
\fMSGothic|b0|i0|c128;\H2.3624;\C7;\U+FF1A
  7
STD
210
0.0
220
0.0
230
1.0
 11
1.0
 21
0.0
 31
0.0
 73
     1
 44
1.0
  0
MTEXT
  5
17E
100
AcDbEntity
  8
レイヤー_1
 62
     7
100
AcDbMText
 10
202.141667
 20
16.385268
 30
0.0
 40
2.362351
 41
0.0
 71
     1
 72
     2
  1
\fMSGothic|b0|i0|c128;\H2.3624;\C7;\U+FF11
  7
STD
210
0.0
220
0.0
230
1.0
 11
1.0
 21
0.0
 31
0.0
 73
     1
 44
1.0
  0
MTEXT
  5
17D
100
AcDbEntity
  8
レイヤー_1
 62
     7
100
AcDbMText
 10
237.978928
 20
22.138233
 30
0.0
 40
2.362351
 41
0.0
 71
     1
 72
     2
  1
\fMSGothic|b0|i0|c128;\H2.3624;\C7;\U+30AC
  7
STD
210
0.0
220
0.0
230
1.0
 11
1.0
 21
0.0
 31
0.0
 73
     1
 44
1.0
  0
MTEXT
  5
17C
100
AcDbEntity
  8
レイヤー_1
 62
     7
100
AcDbMText
 10
241.153928
 20
22.138233
 30
0.0
 40
2.362351
 41
0.0
 71
     1
 72
     2
  1
\fMSGothic|b0|i0|c128;\H2.3624;\C7;\U+30FC
  7
STD
210
0.0
220
0.0
230
1.0
 11
1.0
 21
0.0
 31
0.0
 73
     1
 44
1.0
  0
MTEXT
  5
17B
100
AcDbEntity
  8
レイヤー_1
 62
     7
100
AcDbMText
 10
244.328928
 20
22.138233
 30
0.0
 40
2.362351
 41
0.0
 71
     1
 72
     2
  1
\fMSGothic|b0|i0|c128;\H2.3624;\C7;\U+30C7
  7
STD
210
0.0
220
0.0
230
1.0
 11
1.0
 21
0.0
 31
0.0
 73
     1
 44
1.0
  0
MTEXT
  5
17A
100
AcDbEntity
  8
レイヤー_1
 62
     7
100
AcDbMText
 10
247.503928
 20
22.138233
 30
0.0
 40
2.362351
 41
0.0
 71
     1
 72
     2
  1
\fMSGothic|b0|i0|c128;\H2.3624;\C7;\U+30F3
  7
STD
210
0.0
220
0.0
230
1.0
 11
1.0
 21
0.0
 31
0.0
 73
     1
 44
1.0
  0
MTEXT
  5
179
100
AcDbEntity
  8
レイヤー_1
 62
     7
100
AcDbMText
 10
250.678928
 20
22.138233
 30
0.0
 40
2.362351
 41
0.0
 71
     1
 72
     2
  1
\fMSGothic|b0|i0|c128;\H2.3624;\C7;\U+30B9
  7
STD
210
0.0
220
0.0
230
1.0
 11
1.0
 21
0.0
 31
0.0
 73
     1
 44
1.0
  0
MTEXT
  5
178
100
AcDbEntity
  8
レイヤー_1
 62
     7
100
AcDbMText
 10
253.853928
 20
22.138233
 30
0.0
 40
2.362351
 41
0.0
 71
     1
 72
     2
  1
\fMSGothic|b0|i0|c128;\H2.3624;\C7;\U+30B1
  7
STD
210
0.0
220
0.0
230
1.0
 11
1.0
 21
0.0
 31
0.0
 73
     1
 44
1.0
  0
MTEXT
  5
177
100
AcDbEntity
  8
レイヤー_1
 62
     7
100
AcDbMText
 10
257.028928
 20
22.138233
 30
0.0
 40
2.362351
 41
0.0
 71
     1
 72
     2
  1
\fMSGothic|b0|i0|c128;\H2.3624;\C7;\U+30FC
  7
STD
210
0.0
220
0.0
230
1.0
 11
1.0
 21
0.0
 31
0.0
 73
     1
 44
1.0
  0
MTEXT
  5
176
100
AcDbEntity
  8
レイヤー_1
 62
     7
100
AcDbMText
 10
260.203928
 20
22.138233
 30
0.0
 40
2.362351
 41
0.0
 71
     1
 72
     2
  1
\fMSGothic|b0|i0|c128;\H2.3624;\C7;\U+30D7
  7
STD
210
0.0
220
0.0
230
1.0
 11
1.0
 21
0.0
 31
0.0
 73
     1
 44
1.0
  0
MTEXT
  5
175
100
AcDbEntity
  8
レイヤー_1
 62
     7
100
AcDbMText
 10
263.378928
 20
22.138233
 30
0.0
 40
2.362351
 41
0.0
 71
     1
 72
     2
  1
\fMSGothic|b0|i0|c128;\H2.3624;\C7;\U+7528
  7
STD
210
0.0
220
0.0
230
1.0
 11
1.0
 21
0.0
 31
0.0
 73
     1
 44
1.0
  0
MTEXT
  5
174
100
AcDbEntity
  8
レイヤー_1
 62
     7
100
AcDbMText
 10
237.978928
 20
18.257677
 30
0.0
 40
2.362351
 41
0.0
 71
     1
 72
     2
  1
\fMSGothic|b0|i0|c128;\H2.3624;\C7;\U+30B3
  7
STD
210
0.0
220
0.0
230
1.0
 11
1.0
 21
0.0
 31
0.0
 73
     1
 44
1.0
  0
MTEXT
  5
173
100
AcDbEntity
  8
レイヤー_1
 62
     7
100
AcDbMText
 10
241.153928
 20
18.257677
 30
0.0
 40
2.362351
 41
0.0
 71
     1
 72
     2
  1
\fMSGothic|b0|i0|c128;\H2.3624;\C7;\U+30FC
  7
STD
210
0.0
220
0.0
230
1.0
 11
1.0
 21
0.0
 31
0.0
 73
     1
 44
1.0
  0
MTEXT
  5
172
100
AcDbEntity
  8
レイヤー_1
 62
     7
100
AcDbMText
 10
244.328928
 20
18.257677
 30
0.0
 40
2.362351
 41
0.0
 71
     1
 72
     2
  1
\fMSGothic|b0|i0|c128;\H2.3624;\C7;\U+30C9
  7
STD
210
0.0
220
0.0
230
1.0
 11
1.0
 21
0.0
 31
0.0
 73
     1
 44
1.0
  0
MTEXT
  5
171
100
AcDbEntity
  8
レイヤー_1
 62
     7
100
AcDbMText
 10
247.503928
 20
18.257677
 30
0.0
 40
2.362351
 41
0.0
 71
     1
 72
     2
  1
\fMSGothic|b0|i0|c128;\H2.3624;\C7;\U+FF15
  7
STD
210
0.0
220
0.0
230
1.0
 11
1.0
 21
0.0
 31
0.0
 73
     1
 44
1.0
  0
MTEXT
  5
170
100
AcDbEntity
  8
レイヤー_1
 62
     7
100
AcDbMText
 10
250.678928
 20
18.257677
 30
0.0
 40
2.362351
 41
0.0
 71
     1
 72
     2
  1
\fMSGothic|b0|i0|c128;\H2.3624;\C7;\U+FF4D
  7
STD
210
0.0
220
0.0
230
1.0
 11
1.0
 21
0.0
 31
0.0
 73
     1
 44
1.0
  0
MTEXT
  5
16F
100
AcDbEntity
  8
レイヤー_1
 62
     7
100
AcDbMText
 10
253.853928
 20
18.257677
 30
0.0
 40
2.362351
 41
0.0
 71
     1
 72
     2
  1
\fMSGothic|b0|i0|c128;\H2.3624;\C7;\U+7528
  7
STD
210
0.0
220
0.0
230
1.0
 11
1.0
 21
0.0
 31
0.0
 73
     1
 44
1.0
  0
MTEXT
  5
16E
100
AcDbEntity
  8
レイヤー_1
 62
     7
100
AcDbMText
 10
240.605469
 20
32.180342
 30
0.0
 40
2.362351
 41
0.0
 71
     1
 72
     2
  1
\fMSGothic|b0|i0|c128;\H2.3624;\C7;\U+FF28
  7
STD
210
0.0
220
0.0
230
1.0
 11
1.0
 21
0.0
 31
0.0
 73
     1
 44
1.0
  0
MTEXT
  5
16D
100
AcDbEntity
  8
レイヤー_1
 62
     7
100
AcDbMText
 10
243.780469
 20
32.180342
 30
0.0
 40
2.362351
 41
0.0
 71
     1
 72
     2
  1
\fMSGothic|b0|i0|c128;\H2.3624;\C7;\U+FF23
  7
STD
210
0.0
220
0.0
230
1.0
 11
1.0
 21
0.0
 31
0.0
 73
     1
 44
1.0
  0
MTEXT
  5
16C
100
AcDbEntity
  8
レイヤー_1
 62
     7
100
AcDbMText
 10
246.955469
 20
32.180342
 30
0.0
 40
2.362351
 41
0.0
 71
     1
 72
     2
  1
\fMSGothic|b0|i0|c128;\H2.3624;\C7;\U+FF25
  7
STD
210
0.0
220
0.0
230
1.0
 11
1.0
 21
0.0
 31
0.0
 73
     1
 44
1.0
  0
MTEXT
  5
16B
100
AcDbEntity
  8
レイヤー_1
 62
     7
100
AcDbMText
 10
250.130469
 20
32.180342
 30
0.0
 40
2.362351
 41
0.0
 71
     1
 72
     2
  1
\fMSGothic|b0|i0|c128;\H2.3624;\C7;\U+002D
  7
STD
210
0.0
220
0.0
230
1.0
 11
1.0
 21
0.0
 31
0.0
 73
     1
 44
1.0
  0
MTEXT
  5
16A
100
AcDbEntity
  8
レイヤー_1
 62
     7
100
AcDbMText
 10
251.717969
 20
32.180342
 30
0.0
 40
2.362351
 41
0.0
 71
     1
 72
     2
  1
\fMSGothic|b0|i0|c128;\H2.3624;\C7;\U+FF10
  7
STD
210
0.0
220
0.0
230
1.0
 11
1.0
 21
0.0
 31
0.0
 73
     1
 44
1.0
  0
MTEXT
  5
169
100
AcDbEntity
  8
レイヤー_1
 62
     7
100
AcDbMText
 10
254.892969
 20
32.180342
 30
0.0
 40
2.362351
 41
0.0
 71
     1
 72
     2
  1
\fMSGothic|b0|i0|c128;\H2.3624;\C7;\U+FF10
  7
STD
210
0.0
220
0.0
230
1.0
 11
1.0
 21
0.0
 31
0.0
 73
     1
 44
1.0
  0
MTEXT
  5
168
100
AcDbEntity
  8
レイヤー_1
 62
     7
100
AcDbMText
 10
258.067969
 20
32.180342
 30
0.0
 40
2.362351
 41
0.0
 71
     1
 72
     2
  1
\fMSGothic|b0|i0|c128;\H2.3624;\C7;\U+FF10
  7
STD
210
0.0
220
0.0
230
1.0
 11
1.0
 21
0.0
 31
0.0
 73
     1
 44
1.0
  0
MTEXT
  5
167
100
AcDbEntity
  8
レイヤー_1
 62
     7
100
AcDbMText
 10
261.242969
 20
32.180342
 30
0.0
 40
2.362351
 41
0.0
 71
     1
 72
     2
  1
\fMSGothic|b0|i0|c128;\H2.3624;\C7;\U+FF12
  7
STD
210
0.0
220
0.0
230
1.0
 11
1.0
 21
0.0
 31
0.0
 73
     1
 44
1.0
  0
MTEXT
  5
166
100
AcDbEntity
  8
レイヤー_1
 62
     7
100
AcDbMText
 10
197.353845
 20
24.147068
 30
0.0
 40
2.362351
 41
0.0
 71
     1
 72
     2
  1
\fMSGothic|b0|i0|c128;\H2.3624;\C7;\U+0034
  7
STD
210
0.0
220
0.0
230
1.0
 11
1.0
 21
0.0
 31
0.0
 73
     1
 44
1.0
  0
MTEXT
  5
165
100
AcDbEntity
  8
レイヤー_1
 62
     7
100
AcDbMText
 10
198.941345
 20
24.147068
 30
0.0
 40
2.362351
 41
0.0
 71
     1
 72
     2
  1
\fMSGothic|b0|i0|c128;\H2.3624;\C7;\U+0039
  7
STD
210
0.0
220
0.0
230
1.0
 11
1.0
 21
0.0
 31
0.0
 73
     1
 44
1.0
  0
MTEXT
  5
164
100
AcDbEntity
  8
レイヤー_1
 62
     7
100
AcDbMText
 10
200.528845
 20
24.147068
 30
0.0
 40
2.362351
 41
0.0
 71
     1
 72
     2
  1
\fMSGothic|b0|i0|c128;\H2.3624;\C7;\U+0038
  7
STD
210
0.0
220
0.0
230
1.0
 11
1.0
 21
0.0
 31
0.0
 73
     1
 44
1.0
  0
MTEXT
  5
163
100
AcDbEntity
  8
レイヤー_1
 62
     7
100
AcDbMText
 10
202.116345
 20
24.147068
 30
0.0
 40
2.362351
 41
0.0
 71
     1
 72
     2
  1
\fMSGothic|b0|i0|c128;\H2.3624;\C7;\U+0031
  7
STD
210
0.0
220
0.0
230
1.0
 11
1.0
 21
0.0
 31
0.0
 73
     1
 44
1.0
  0
MTEXT
  5
162
100
AcDbEntity
  8
レイヤー_1
 62
     7
100
AcDbMText
 10
203.703845
 20
24.147068
 30
0.0
 40
2.362351
 41
0.0
 71
     1
 72
     2
  1
\fMSGothic|b0|i0|c128;\H2.3624;\C7;\U+0038
  7
STD
210
0.0
220
0.0
230
1.0
 11
1.0
 21
0.0
 31
0.0
 73
     1
 44
1.0
  0
MTEXT
  5
161
100
AcDbEntity
  8
レイヤー_1
 62
     7
100
AcDbMText
 10
205.291345
 20
24.147068
 30
0.0
 40
2.362351
 41
0.0
 71
     1
 72
     2
  1
\fMSGothic|b0|i0|c128;\H2.3624;\C7;\U+0035
  7
STD
210
0.0
220
0.0
230
1.0
 11
1.0
 21
0.0
 31
0.0
 73
     1
 44
1.0
  0
MTEXT
  5
160
100
AcDbEntity
  8
レイヤー_1
 62
     7
100
AcDbMText
 10
31.204297
 20
283.112041
 30
0.0
 40
2.362351
 41
0.0
 71
     1
 72
     2
  1
\fMSGothic|b0|i0|c128;\H2.3624;\C7;\U+0034
  7
STD
210
0.0
220
0.0
230
1.0
 11
-1.0
 21
0.0
 31
0.0
 73
     1
 44
1.0
  0
MTEXT
  5
15F
100
AcDbEntity
  8
レイヤー_1
 62
     7
100
AcDbMText
 10
29.616797
 20
283.112041
 30
0.0
 40
2.362351
 41
0.0
 71
     1
 72
     2
  1
\fMSGothic|b0|i0|c128;\H2.3624;\C7;\U+0039
  7
STD
210
0.0
220
0.0
230
1.0
 11
-1.0
 21
0.0
 31
0.0
 73
     1
 44
1.0
  0
MTEXT
  5
15E
100
AcDbEntity
  8
レイヤー_1
 62
     7
100
AcDbMText
 10
28.029297
 20
283.112041
 30
0.0
 40
2.362351
 41
0.0
 71
     1
 72
     2
  1
\fMSGothic|b0|i0|c128;\H2.3624;\C7;\U+0038
  7
STD
210
0.0
220
0.0
230
1.0
 11
-1.0
 21
0.0
 31
0.0
 73
     1
 44
1.0
  0
MTEXT
  5
15D
100
AcDbEntity
  8
レイヤー_1
 62
     7
100
AcDbMText
 10
26.441797
 20
283.112041
 30
0.0
 40
2.362351
 41
0.0
 71
     1
 72
     2
  1
\fMSGothic|b0|i0|c128;\H2.3624;\C7;\U+0031
  7
STD
210
0.0
220
0.0
230
1.0
 11
-1.0
 21
0.0
 31
0.0
 73
     1
 44
1.0
  0
MTEXT
  5
15C
100
AcDbEntity
  8
レイヤー_1
 62
     7
100
AcDbMText
 10
24.854297
 20
283.112041
 30
0.0
 40
2.362351
 41
0.0
 71
     1
 72
     2
  1
\fMSGothic|b0|i0|c128;\H2.3624;\C7;\U+0038
  7
STD
210
0.0
220
0.0
230
1.0
 11
-1.0
 21
0.0
 31
0.0
 73
     1
 44
1.0
  0
MTEXT
  5
15B
100
AcDbEntity
  8
レイヤー_1
 62
     7
100
AcDbMText
 10
23.266797
 20
283.112041
 30
0.0
 40
2.362351
 41
0.0
 71
     1
 72
     2
  1
\fMSGothic|b0|i0|c128;\H2.3624;\C7;\U+0035
  7
STD
210
0.0
220
0.0
230
1.0
 11
-1.0
 21
0.0
 31
0.0
 73
     1
 44
1.0
  0
MTEXT
  5
15A
100
AcDbEntity
  8
レイヤー_1
 62
     7
100
AcDbMText
 10
169.8625
 20
32.789434
 30
0.0
 40
2.362351
 41
0.0
 71
     1
 72
     2
  1
\fMSGothic|b0|i0|c128;\H2.3624;\C7;\U+0032
  7
STD
210
0.0
220
0.0
230
1.0
 11
1.0
 21
0.0
 31
0.0
 73
     1
 44
1.0
  0
MTEXT
  5
159
100
AcDbEntity
  8
レイヤー_1
 62
     7
100
AcDbMText
 10
171.45
 20
32.789434
 30
0.0
 40
2.362351
 41
0.0
 71
     1
 72
     2
  1
\fMSGothic|b0|i0|c128;\H2.3624;\C7;\U+0030
  7
STD
210
0.0
220
0.0
230
1.0
 11
1.0
 21
0.0
 31
0.0
 73
     1
 44
1.0
  0
MTEXT
  5
158
100
AcDbEntity
  8
レイヤー_1
 62
     7
100
AcDbMText
 10
173.0375
 20
32.789434
 30
0.0
 40
2.362351
 41
0.0
 71
     1
 72
     2
  1
\fMSGothic|b0|i0|c128;\H2.3624;\C7;\U+0031
  7
STD
210
0.0
220
0.0
230
1.0
 11
1.0
 21
0.0
 31
0.0
 73
     1
 44
1.0
  0
MTEXT
  5
157
100
AcDbEntity
  8
レイヤー_1
 62
     7
100
AcDbMText
 10
174.625
 20
32.789434
 30
0.0
 40
2.362351
 41
0.0
 71
     1
 72
     2
  1
\fMSGothic|b0|i0|c128;\H2.3624;\C7;\U+0030
  7
STD
210
0.0
220
0.0
230
1.0
 11
1.0
 21
0.0
 31
0.0
 73
     1
 44
1.0
  0
MTEXT
  5
156
100
AcDbEntity
  8
レイヤー_1
 62
     7
100
AcDbMText
 10
176.2125
 20
32.789434
 30
0.0
 40
2.362351
 41
0.0
 71
     1
 72
     2
  1
\fMSGothic|b0|i0|c128;\H2.3624;\C7;
  7
STD
210
0.0
220
0.0
230
1.0
 11
1.0
 21
0.0
 31
0.0
 73
     1
 44
1.0
  0
MTEXT
  5
155
100
AcDbEntity
  8
レイヤー_1
 62
     7
100
AcDbMText
 10
179.3875
 20
32.789434
 30
0.0
 40
2.362351
 41
0.0
 71
     1
 72
     2
  1
\fMSGothic|b0|i0|c128;\H2.3624;\C7;\U+5E74
  7
STD
210
0.0
220
0.0
230
1.0
 11
1.0
 21
0.0
 31
0.0
 73
     1
 44
1.0
  0
MTEXT
  5
154
100
AcDbEntity
  8
レイヤー_1
 62
     7
100
AcDbMText
 10
182.5625
 20
32.789434
 30
0.0
 40
2.362351
 41
0.0
 71
     1
 72
     2
  1
\fMSGothic|b0|i0|c128;\H2.3624;\C7;
  7
STD
210
0.0
220
0.0
230
1.0
 11
1.0
 21
0.0
 31
0.0
 73
     1
 44
1.0
  0
MTEXT
  5
153
100
AcDbEntity
  8
レイヤー_1
 62
     7
100
AcDbMText
 10
185.7375
 20
32.789434
 30
0.0
 40
2.362351
 41
0.0
 71
     1
 72
     2
  1
\fMSGothic|b0|i0|c128;\H2.3624;\C7;\U+0036
  7
STD
210
0.0
220
0.0
230
1.0
 11
1.0
 21
0.0
 31
0.0
 73
     1
 44
1.0
  0
MTEXT
  5
152
100
AcDbEntity
  8
レイヤー_1
 62
     7
100
AcDbMText
 10
187.325
 20
32.789434
 30
0.0
 40
2.362351
 41
0.0
 71
     1
 72
     2
  1
\fMSGothic|b0|i0|c128;\H2.3624;\C7;
  7
STD
210
0.0
220
0.0
230
1.0
 11
1.0
 21
0.0
 31
0.0
 73
     1
 44
1.0
  0
MTEXT
  5
151
100
AcDbEntity
  8
レイヤー_1
 62
     7
100
AcDbMText
 10
190.5
 20
32.789434
 30
0.0
 40
2.362351
 41
0.0
 71
     1
 72
     2
  1
\fMSGothic|b0|i0|c128;\H2.3624;\C7;\U+6708
  7
STD
210
0.0
220
0.0
230
1.0
 11
1.0
 21
0.0
 31
0.0
 73
     1
 44
1.0
  0
MTEXT
  5
150
100
AcDbEntity
  8
レイヤー_1
 62
     7
100
AcDbMText
 10
193.675
 20
32.789434
 30
0.0
 40
2.362351
 41
0.0
 71
     1
 72
     2
  1
\fMSGothic|b0|i0|c128;\H2.3624;\C7;
  7
STD
210
0.0
220
0.0
230
1.0
 11
1.0
 21
0.0
 31
0.0
 73
     1
 44
1.0
  0
MTEXT
  5
14F
100
AcDbEntity
  8
レイヤー_1
 62
     7
100
AcDbMText
 10
196.85
 20
32.789434
 30
0.0
 40
2.362351
 41
0.0
 71
     1
 72
     2
  1
\fMSGothic|b0|i0|c128;\H2.3624;\C7;\U+0020
  7
STD
210
0.0
220
0.0
230
1.0
 11
1.0
 21
0.0
 31
0.0
 73
     1
 44
1.0
  0
MTEXT
  5
14E
100
AcDbEntity
  8
レイヤー_1
 62
     7
100
AcDbMText
 10
198.4375
 20
32.789434
 30
0.0
 40
2.362351
 41
0.0
 71
     1
 72
     2
  1
\fMSGothic|b0|i0|c128;\H2.3624;\C7;\U+0033
  7
STD
210
0.0
220
0.0
230
1.0
 11
1.0
 21
0.0
 31
0.0
 73
     1
 44
1.0
  0
MTEXT
  5
14D
100
AcDbEntity
  8
レイヤー_1
 62
     7
100
AcDbMText
 10
200.025
 20
32.789434
 30
0.0
 40
2.362351
 41
0.0
 71
     1
 72
     2
  1
\fMSGothic|b0|i0|c128;\H2.3624;\C7;
  7
STD
210
0.0
220
0.0
230
1.0
 11
1.0
 21
0.0
 31
0.0
 73
     1
 44
1.0
  0
MTEXT
  5
14C
100
AcDbEntity
  8
レイヤー_1
 62
     7
100
AcDbMText
 10
203.2
 20
32.789434
 30
0.0
 40
2.362351
 41
0.0
 71
     1
 72
     2
  1
\fMSGothic|b0|i0|c128;\H2.3624;\C7;\U+65E5
  7
STD
210
0.0
220
0.0
230
1.0
 11
1.0
 21
0.0
 31
0.0
 73
     1
 44
1.0
  0
LINE
  5
14B
100
AcDbEntity
  8
レイヤー_1
 62
     7
100
AcDbLine
 10
281.78125
 20
35.71875
 30
0.0
 11
281.78125
 21
10.847917
 31
0.0
  0
LINE
  5
14A
100
AcDbEntity
  8
レイヤー_1
 62
     7
100
AcDbLine
 10
148.695833
 20
27.78125
 30
0.0
 11
281.78125
 21
27.78125
 31
0.0
  0
LINE
  5
149
100
AcDbEntity
  8
レイヤー_1
 62
     7
100
AcDbLine
 10
181.76875
 20
19.314583
 30
0.0
 11
216.69375
 21
19.314583
 31
0.0
  0
POLYLINE
  5
144
100
AcDbEntity
  8
レイヤー_1
 62
     7
100
AcDb2dPolyline
 66
     1
 10
0.0
 20
0.0
 30
0.0
  0
VERTEX
  5
145
100
AcDbEntity
  8
レイヤー_1
 62
     7
100
AcDbVertex
100
AcDb2dVertex
 10
14.816667
 20
287.602083
 30
0.0
  0
VERTEX
  5
146
100
AcDbEntity
  8
レイヤー_1
 62
     7
100
AcDbVertex
100
AcDb2dVertex
 10
404.547917
 20
287.602083
 30
0.0
  0
VERTEX
  5
147
100
AcDbEntity
  8
レイヤー_1
 62
     7
100
AcDbVertex
100
AcDb2dVertex
 10
404.547917
 20
10.847917
 30
0.0
  0
SEQEND
  5
148
100
AcDbEntity
  8
レイヤー_1
 62
     7
  0
MTEXT
  5
143
100
AcDbEntity
  8
レイヤー_1
 62
     7
100
AcDbMText
 10
49.477083
 20
283.123066
 30
0.0
 40
2.362351
 41
0.0
 71
     1
 72
     2
  1
\fMSGothic|b0|i0|c128;\H2.3624;\C7;\U+56F3
  7
STD
210
0.0
220
0.0
230
1.0
 11
-1.0
 21
0.0
 31
0.0
 73
     1
 44
1.0
  0
MTEXT
  5
142
100
AcDbEntity
  8
レイヤー_1
 62
     7
100
AcDbMText
 10
46.302083
 20
283.123066
 30
0.0
 40
2.362351
 41
0.0
 71
     1
 72
     2
  1
\fMSGothic|b0|i0|c128;\H2.3624;\C7;
  7
STD
210
0.0
220
0.0
230
1.0
 11
-1.0
 21
0.0
 31
0.0
 73
     1
 44
1.0
  0
MTEXT
  5
141
100
AcDbEntity
  8
レイヤー_1
 62
     7
100
AcDbMText
 10
43.127083
 20
283.123066
 30
0.0
 40
2.362351
 41
0.0
 71
     1
 72
     2
  1
\fMSGothic|b0|i0|c128;\H2.3624;\C7;\U+756A
  7
STD
210
0.0
220
0.0
230
1.0
 11
-1.0
 21
0.0
 31
0.0
 73
     1
 44
1.0
  0
LINE
  5
140
100
AcDbEntity
  8
レイヤー_1
 62
     7
100
AcDbLine
 10
52.652083
 20
280.722917
 30
0.0
 11
52.652083
 21
287.602083
 31
0.0
  0
MTEXT
  5
13F
100
AcDbEntity
  8
レイヤー_1
 62
     7
100
AcDbMText
 10
25.929167
 20
14.004018
 30
0.0
 40
2.362351
 41
0.0
 71
     1
 72
     2
  1
\fMSGothic|b0|i0|c128;\H2.3624;\C7;\U+7B26
  7
STD
210
0.0
220
0.0
230
1.0
 11
1.0
 21
0.0
 31
0.0
 73
     1
 44
1.0
  0
MTEXT
  5
13E
100
AcDbEntity
  8
レイヤー_1
 62
     7
100
AcDbMText
 10
29.104167
 20
14.004018
 30
0.0
 40
2.362351
 41
0.0
 71
     1
 72
     2
  1
\fMSGothic|b0|i0|c128;\H2.3624;\C7;\U+0020
  7
STD
210
0.0
220
0.0
230
1.0
 11
1.0
 21
0.0
 31
0.0
 73
     1
 44
1.0
  0
MTEXT
  5
13D
100
AcDbEntity
  8
レイヤー_1
 62
     7
100
AcDbMText
 10
30.691667
 20
14.004018
 30
0.0
 40
2.362351
 41
0.0
 71
     1
 72
     2
  1
\fMSGothic|b0|i0|c128;\H2.3624;\C7;\U+53F7
  7
STD
210
0.0
220
0.0
230
1.0
 11
1.0
 21
0.0
 31
0.0
 73
     1
 44
1.0
  0
MTEXT
  5
13C
100
AcDbEntity
  8
レイヤー_1
 62
     7
100
AcDbMText
 10
17.727083
 20
33.583184
 30
0.0
 40
2.362351
 41
0.0
 71
     1
 72
     2
  1
\fMSGothic|b0|i0|c128;\H2.3624;\C7;\U+5099
  7
STD
210
0.0
220
0.0
230
1.0
 11
1.0
 21
0.0
 31
0.0
 73
     1
 44
1.0
  0
MTEXT
  5
13B
100
AcDbEntity
  8
レイヤー_1
 62
     7
100
AcDbMText
 10
20.902083
 20
33.583184
 30
0.0
 40
2.362351
 41
0.0
 71
     1
 72
     2
  1
\fMSGothic|b0|i0|c128;\H2.3624;\C7;
  7
STD
210
0.0
220
0.0
230
1.0
 11
1.0
 21
0.0
 31
0.0
 73
     1
 44
1.0
  0
MTEXT
  5
13A
100
AcDbEntity
  8
レイヤー_1
 62
     7
100
AcDbMText
 10
17.991667
 20
29.349851
 30
0.0
 40
2.362351
 41
0.0
 71
     1
 72
     2
  1
\fMSGothic|b0|i0|c128;\H2.3624;\C7;
  7
STD
210
0.0
220
0.0
230
1.0
 11
1.0
 21
0.0
 31
0.0
 73
     1
 44
1.0
  0
MTEXT
  5
139
100
AcDbEntity
  8
レイヤー_1
 62
     7
100
AcDbMText
 10
17.727083
 20
25.116518
 30
0.0
 40
2.362351
 41
0.0
 71
     1
 72
     2
  1
\fMSGothic|b0|i0|c128;\H2.3624;\C7;
  7
STD
210
0.0
220
0.0
230
1.0
 11
1.0
 21
0.0
 31
0.0
 73
     1
 44
1.0
  0
MTEXT
  5
138
100
AcDbEntity
  8
レイヤー_1
 62
     7
100
AcDbMText
 10
20.902083
 20
25.116518
 30
0.0
 40
2.362351
 41
0.0
 71
     1
 72
     2
  1
\fMSGothic|b0|i0|c128;\H2.3624;\C7;
  7
STD
210
0.0
220
0.0
230
1.0
 11
1.0
 21
0.0
 31
0.0
 73
     1
 44
1.0
  0
MTEXT
  5
137
100
AcDbEntity
  8
レイヤー_1
 62
     7
100
AcDbMText
 10
17.991667
 20
20.883184
 30
0.0
 40
2.362351
 41
0.0
 71
     1
 72
     2
  1
\fMSGothic|b0|i0|c128;\H2.3624;\C7;
  7
STD
210
0.0
220
0.0
230
1.0
 11
1.0
 21
0.0
 31
0.0
 73
     1
 44
1.0
  0
MTEXT
  5
136
100
AcDbEntity
  8
レイヤー_1
 62
     7
100
AcDbMText
 10
17.991667
 20
16.649851
 30
0.0
 40
2.362351
 41
0.0
 71
     1
 72
     2
  1
\fMSGothic|b0|i0|c128;\H2.3624;\C7;\U+6B04
  7
STD
210
0.0
220
0.0
230
1.0
 11
1.0
 21
0.0
 31
0.0
 73
     1
 44
1.0
  0
MTEXT
  5
135
100
AcDbEntity
  8
レイヤー_1
 62
     7
100
AcDbMText
 10
27.78125
 20
26.439434
 30
0.0
 40
2.362351
 41
0.0
 71
     1
 72
     2
  1
\fMSGothic|b0|i0|c128;\H2.3624;\C7;\U+2461
  7
STD
210
0.0
220
0.0
230
1.0
 11
1.0
 21
0.0
 31
0.0
 73
     1
 44
1.0
  0
MTEXT
  5
134
100
AcDbEntity
  8
レイヤー_1
 62
     7
100
AcDbMText
 10
27.78125
 20
19.560268
 30
0.0
 40
2.362351
 41
0.0
 71
     1
 72
     2
  1
\fMSGothic|b0|i0|c128;\H2.3624;\C7;\U+2460
  7
STD
210
0.0
220
0.0
230
1.0
 11
1.0
 21
0.0
 31
0.0
 73
     1
 44
1.0
  0
LINE
  5
133
100
AcDbEntity
  8
レイヤー_1
 62
     7
100
AcDbLine
 10
24.60625
 20
35.71875
 30
0.0
 11
24.60625
 21
10.847917
 31
0.0
  0
LINE
  5
132
100
AcDbEntity
  8
レイヤー_1
 62
     7
100
AcDbLine
 10
14.816667
 20
10.847917
 30
0.0
 11
14.816667
 21
287.602083
 31
0.0
  0
LINE
  5
131
100
AcDbEntity
  8
レイヤー_1
 62
     7
100
AcDbLine
 10
14.816667
 20
280.722917
 30
0.0
 11
52.652083
 21
280.722917
 31
0.0
  0
LINE
  5
130
100
AcDbEntity
  8
レイヤー_1
 62
     7
100
AcDbLine
 10
37.570833
 20
287.602083
 30
0.0
 11
37.570833
 21
280.722917
 31
0.0
  0
LINE
  5
12F
100
AcDbEntity
  8
レイヤー_1
 62
     7
100
AcDbLine
 10
52.652083
 20
280.722917
 30
0.0
 11
52.652083
 21
287.602083
 31
0.0
  0
LINE
  5
12E
100
AcDbEntity
  8
レイヤー_1
 62
     7
100
AcDbLine
 10
37.570833
 20
287.602083
 30
0.0
 11
37.570833
 21
280.722917
 31
0.0
  0
MTEXT
  5
12D
100
AcDbEntity
  8
レイヤー_1
 62
     7
100
AcDbMText
 10
27.78125
 20
33.318601
 30
0.0
 40
2.362351
 41
0.0
 71
     1
 72
     2
  1
\fMSGothic|b0|i0|c128;\H2.3624;\C7;\U+2462
  7
STD
210
0.0
220
0.0
230
1.0
 11
1.0
 21
0.0
 31
0.0
 73
     1
 44
1.0
  0
LINE
  5
12C
100
AcDbEntity
  8
レイヤー_1
 62
     7
100
AcDbLine
 10
24.60625
 20
35.71875
 30
0.0
 11
24.60625
 21
10.847917
 31
0.0
  0
LINE
  5
12B
100
AcDbEntity
  8
レイヤー_1
 62
     7
100
AcDbLine
 10
14.816667
 20
10.847917
 30
0.0
 11
14.816667
 21
35.71875
 31
0.0
  0
LINE
  5
12A
100
AcDbEntity
  8
レイヤー_1
 62
     7
100
AcDbLine
 10
34.660417
 20
35.71875
 30
0.0
 11
34.660417
 21
10.847917
 31
0.0
  0
LINE
  5
129
100
AcDbEntity
  8
レイヤー_1
 62
     7
100
AcDbLine
 10
34.660417
 20
35.71875
 30
0.0
 11
34.660417
 21
10.847917
 31
0.0
  0
POLYLINE
  5
124
100
AcDbEntity
  8
レイヤー_1
 62
     7
100
AcDb2dPolyline
 66
     1
 10
0.0
 20
0.0
 30
0.0
  0
VERTEX
  5
125
100
AcDbEntity
  8
レイヤー_1
 62
     7
100
AcDbVertex
100
AcDb2dVertex
 10
14.816667
 20
10.847917
 30
0.0
  0
VERTEX
  5
126
100
AcDbEntity
  8
レイヤー_1
 62
     7
100
AcDbVertex
100
AcDb2dVertex
 10
14.816667
 20
35.71875
 30
0.0
  0
VERTEX
  5
127
100
AcDbEntity
  8
レイヤー_1
 62
     7
100
AcDbVertex
100
AcDb2dVertex
 10
404.547917
 20
35.71875
 30
0.0
  0
SEQEND
  5
128
100
AcDbEntity
  8
レイヤー_1
 62
     7
  0
INSERT
  5
11E
100
AcDbEntity
  8
レイヤー_1
 62
     7
100
AcDbBlockReference
  2
AI9-BLK1
 10
103.1875
 20
12.5243
 30
0.0
  0
MTEXT
  5
11C
100
AcDbEntity
  8
レイヤー_1
 62
     7
100
AcDbMText
 10
40.745833
 20
14.004018
 30
0.0
 40
2.362351
 41
0.0
 71
     1
 72
     2
  1
\fMSGothic|b0|i0|c128;\H2.3624;\C7;\U+65E5
  7
STD
210
0.0
220
0.0
230
1.0
 11
1.0
 21
0.0
 31
0.0
 73
     1
 44
1.0
  0
MTEXT
  5
11B
100
AcDbEntity
  8
レイヤー_1
 62
     7
100
AcDbMText
 10
43.920833
 20
14.004018
 30
0.0
 40
2.362351
 41
0.0
 71
     1
 72
     2
  1
\fMSGothic|b0|i0|c128;\H2.3624;\C7;
  7
STD
210
0.0
220
0.0
230
1.0
 11
1.0
 21
0.0
 31
0.0
 73
     1
 44
1.0
  0
MTEXT
  5
11A
100
AcDbEntity
  8
レイヤー_1
 62
     7
100
AcDbMText
 10
47.095833
 20
14.004018
 30
0.0
 40
2.362351
 41
0.0
 71
     1
 72
     2
  1
\fMSGothic|b0|i0|c128;\H2.3624;\C7;\U+4ED8
  7
STD
210
0.0
220
0.0
230
1.0
 11
1.0
 21
0.0
 31
0.0
 73
     1
 44
1.0
  0
LINE
  5
119
100
AcDbEntity
  8
レイヤー_1
 62
     7
100
AcDbLine
 10
404.547917
 20
10.847917
 30
0.0
 11
14.816667
 21
10.847917
 31
0.0
  0
LINE
  5
118
100
AcDbEntity
  8
レイヤー_1
 62
     7
100
AcDbLine
 10
24.60625
 20
14.816667
 30
0.0
 11
148.695833
 21
14.816667
 31
0.0
  0
LINE
  5
117
100
AcDbEntity
  8
レイヤー_1
 62
     7
100
AcDbLine
 10
24.60625
 20
21.695833
 30
0.0
 11
148.695833
 21
21.695833
 31
0.0
  0
LINE
  5
116
100
AcDbEntity
  8
レイヤー_1
 62
     7
100
AcDbLine
 10
24.60625
 20
28.839583
 30
0.0
 11
148.695833
 21
28.839583
 31
0.0
  0
MTEXT
  5
115
100
AcDbEntity
  8
レイヤー_1
 62
     7
100
AcDbMText
 10
150.01875
 20
25.645684
 30
0.0
 40
2.362351
 41
0.0
 71
     1
 72
     2
  1
\fMSGothic|b0|i0|c128;\H2.3624;\C7;\U+88FD
  7
STD
210
0.0
220
0.0
230
1.0
 11
1.0
 21
0.0
 31
0.0
 73
     1
 44
1.0
  0
MTEXT
  5
114
100
AcDbEntity
  8
レイヤー_1
 62
     7
100
AcDbMText
 10
153.19375
 20
25.645684
 30
0.0
 40
2.362351
 41
0.0
 71
     1
 72
     2
  1
\fMSGothic|b0|i0|c128;\H2.3624;\C7;\U+0020
  7
STD
210
0.0
220
0.0
230
1.0
 11
1.0
 21
0.0
 31
0.0
 73
     1
 44
1.0
  0
MTEXT
  5
113
100
AcDbEntity
  8
レイヤー_1
 62
     7
100
AcDbMText
 10
154.78125
 20
25.645684
 30
0.0
 40
2.362351
 41
0.0
 71
     1
 72
     2
  1
\fMSGothic|b0|i0|c128;\H2.3624;\C7;\U+56F3
  7
STD
210
0.0
220
0.0
230
1.0
 11
1.0
 21
0.0
 31
0.0
 73
     1
 44
1.0
  0
LINE
  5
112
100
AcDbEntity
  8
レイヤー_1
 62
     7
100
AcDbLine
 10
58.7375
 20
35.71875
 30
0.0
 11
58.7375
 21
10.847917
 31
0.0
  0
LINE
  5
111
100
AcDbEntity
  8
レイヤー_1
 62
     7
100
AcDbLine
 10
24.60625
 20
14.816667
 30
0.0
 11
148.695833
 21
14.816667
 31
0.0
  0
MTEXT
  5
110
100
AcDbEntity
  8
レイヤー_1
 62
     7
100
AcDbMText
 10
150.01875
 20
33.054018
 30
0.0
 40
2.362351
 41
0.0
 71
     1
 72
     2
  1
\fMSGothic|b0|i0|c128;\H2.3624;\C7;\U+65E5
  7
STD
210
0.0
220
0.0
230
1.0
 11
1.0
 21
0.0
 31
0.0
 73
     1
 44
1.0
  0
MTEXT
  5
10F
100
AcDbEntity
  8
レイヤー_1
 62
     7
100
AcDbMText
 10
153.19375
 20
33.054018
 30
0.0
 40
2.362351
 41
0.0
 71
     1
 72
     2
  1
\fMSGothic|b0|i0|c128;\H2.3624;\C7;\U+0020
  7
STD
210
0.0
220
0.0
230
1.0
 11
1.0
 21
0.0
 31
0.0
 73
     1
 44
1.0
  0
MTEXT
  5
10E
100
AcDbEntity
  8
レイヤー_1
 62
     7
100
AcDbMText
 10
154.78125
 20
33.054018
 30
0.0
 40
2.362351
 41
0.0
 71
     1
 72
     2
  1
\fMSGothic|b0|i0|c128;\H2.3624;\C7;\U+4ED8
  7
STD
210
0.0
220
0.0
230
1.0
 11
1.0
 21
0.0
 31
0.0
 73
     1
 44
1.0
  0
MTEXT
  5
10D
100
AcDbEntity
  8
レイヤー_1
 62
     7
100
AcDbMText
 10
161.13125
 20
17.708184
 30
0.0
 40
2.362351
 41
0.0
 71
     1
 72
     2
  1
\fMSGothic|b0|i0|c128;\H2.3624;\C7;\U+85E4
  7
STD
210
0.0
220
0.0
230
1.0
 11
1.0
 21
0.0
 31
0.0
 73
     1
 44
1.0
  0
MTEXT
  5
10C
100
AcDbEntity
  8
レイヤー_1
 62
     7
100
AcDbMText
 10
164.30625
 20
17.708184
 30
0.0
 40
2.362351
 41
0.0
 71
     1
 72
     2
  1
\fMSGothic|b0|i0|c128;\H2.3624;\C7;\U+0020
  7
STD
210
0.0
220
0.0
230
1.0
 11
1.0
 21
0.0
 31
0.0
 73
     1
 44
1.0
  0
MTEXT
  5
10B
100
AcDbEntity
  8
レイヤー_1
 62
     7
100
AcDbMText
 10
165.89375
 20
17.708184
 30
0.0
 40
2.362351
 41
0.0
 71
     1
 72
     2
  1
\fMSGothic|b0|i0|c128;\H2.3624;\C7;\U+7530
  7
STD
210
0.0
220
0.0
230
1.0
 11
1.0
 21
0.0
 31
0.0
 73
     1
 44
1.0
  0
MTEXT
  5
10A
100
AcDbEntity
  8
レイヤー_1
 62
     7
100
AcDbMText
 10
161.13125
 20
25.645684
 30
0.0
 40
2.362351
 41
0.0
 71
     1
 72
     2
  1
\fMSGothic|b0|i0|c128;\H2.3624;\C7;\U+691C
  7
STD
210
0.0
220
0.0
230
1.0
 11
1.0
 21
0.0
 31
0.0
 73
     1
 44
1.0
  0
MTEXT
  5
109
100
AcDbEntity
  8
レイヤー_1
 62
     7
100
AcDbMText
 10
164.30625
 20
25.645684
 30
0.0
 40
2.362351
 41
0.0
 71
     1
 72
     2
  1
\fMSGothic|b0|i0|c128;\H2.3624;\C7;\U+0020
  7
STD
210
0.0
220
0.0
230
1.0
 11
1.0
 21
0.0
 31
0.0
 73
     1
 44
1.0
  0
MTEXT
  5
108
100
AcDbEntity
  8
レイヤー_1
 62
     7
100
AcDbMText
 10
165.89375
 20
25.645684
 30
0.0
 40
2.362351
 41
0.0
 71
     1
 72
     2
  1
\fMSGothic|b0|i0|c128;\H2.3624;\C7;\U+56F3
  7
STD
210
0.0
220
0.0
230
1.0
 11
1.0
 21
0.0
 31
0.0
 73
     1
 44
1.0
  0
MTEXT
  5
107
100
AcDbEntity
  8
レイヤー_1
 62
     7
100
AcDbMText
 10
171.979167
 20
25.910268
 30
0.0
 40
2.362351
 41
0.0
 71
     1
 72
     2
  1
\fMSGothic|b0|i0|c128;\H2.3624;\C7;\U+627F
  7
STD
210
0.0
220
0.0
230
1.0
 11
1.0
 21
0.0
 31
0.0
 73
     1
 44
1.0
  0
MTEXT
  5
106
100
AcDbEntity
  8
レイヤー_1
 62
     7
100
AcDbMText
 10
175.154167
 20
25.910268
 30
0.0
 40
2.362351
 41
0.0
 71
     1
 72
     2
  1
\fMSGothic|b0|i0|c128;\H2.3624;\C7;\U+0020
  7
STD
210
0.0
220
0.0
230
1.0
 11
1.0
 21
0.0
 31
0.0
 73
     1
 44
1.0
  0
MTEXT
  5
105
100
AcDbEntity
  8
レイヤー_1
 62
     7
100
AcDbMText
 10
176.741667
 20
25.910268
 30
0.0
 40
2.362351
 41
0.0
 71
     1
 72
     2
  1
\fMSGothic|b0|i0|c128;\H2.3624;\C7;\U+8A8D
  7
STD
210
0.0
220
0.0
230
1.0
 11
1.0
 21
0.0
 31
0.0
 73
     1
 44
1.0
  0
MTEXT
  5
104
100
AcDbEntity
  8
レイヤー_1
 62
     7
100
AcDbMText
 10
172.24375
 20
17.708184
 30
0.0
 40
2.362351
 41
0.0
 71
     1
 72
     2
  1
\fMSGothic|b0|i0|c128;\H2.3624;\C7;\U+53CB
  7
STD
210
0.0
220
0.0
230
1.0
 11
1.0
 21
0.0
 31
0.0
 73
     1
 44
1.0
  0
MTEXT
  5
103
100
AcDbEntity
  8
レイヤー_1
 62
     7
100
AcDbMText
 10
175.41875
 20
17.708184
 30
0.0
 40
2.362351
 41
0.0
 71
     1
 72
     2
  1
\fMSGothic|b0|i0|c128;\H2.3624;\C7;\U+0020
  7
STD
210
0.0
220
0.0
230
1.0
 11
1.0
 21
0.0
 31
0.0
 73
     1
 44
1.0
  0
MTEXT
  5
102
100
AcDbEntity
  8
レイヤー_1
 62
     7
100
AcDbMText
 10
177.00625
 20
17.708184
 30
0.0
 40
2.362351
 41
0.0
 71
     1
 72
     2
  1
\fMSGothic|b0|i0|c128;\H2.3624;\C7;\U+5C45
  7
STD
210
0.0
220
0.0
230
1.0
 11
1.0
 21
0.0
 31
0.0
 73
     1
 44
1.0
  0
MTEXT
  5
101
100
AcDbEntity
  8
レイヤー_1
 62
     7
100
AcDbMText
 10
182.5625
 20
18.501934
 30
0.0
 40
2.362351
 41
0.0
 71
     1
 72
     2
  1
\fMSGothic|b0|i0|c128;\H2.3624;\C7;\U+5C3A
  7
STD
210
0.0
220
0.0
230
1.0
 11
1.0
 21
0.0
 31
0.0
 73
     1
 44
1.0
  0
MTEXT
  5
100
100
AcDbEntity
  8
レイヤー_1
 62
     7
100
AcDbMText
 10
182.5625
 20
14.268601
 30
0.0
 40
2.362351
 41
0.0
 71
     1
 72
     2
  1
\fMSGothic|b0|i0|c128;\H2.3624;\C7;\U+5EA6
  7
STD
210
0.0
220
0.0
230
1.0
 11
1.0
 21
0.0
 31
0.0
 73
     1
 44
1.0
  0
MTEXT
  5
FF
100
AcDbEntity
  8
レイヤー_1
 62
     7
100
AcDbMText
 10
182.5625
 20
26.704018
 30
0.0
 40
2.362351
 41
0.0
 71
     1
 72
     2
  1
\fMSGothic|b0|i0|c128;\H2.3624;\C7;\U+56F3
  7
STD
210
0.0
220
0.0
230
1.0
 11
1.0
 21
0.0
 31
0.0
 73
     1
 44
1.0
  0
MTEXT
  5
FE
100
AcDbEntity
  8
レイヤー_1
 62
     7
100
AcDbMText
 10
185.7375
 20
26.704018
 30
0.0
 40
2.362351
 41
0.0
 71
     1
 72
     2
  1
\fMSGothic|b0|i0|c128;\H2.3624;\C7;
  7
STD
210
0.0
220
0.0
230
1.0
 11
1.0
 21
0.0
 31
0.0
 73
     1
 44
1.0
  0
MTEXT
  5
FD
100
AcDbEntity
  8
レイヤー_1
 62
     7
100
AcDbMText
 10
182.5625
 20
22.470684
 30
0.0
 40
2.362351
 41
0.0
 71
     1
 72
     2
  1
\fMSGothic|b0|i0|c128;\H2.3624;\C7;\U+756A
  7
STD
210
0.0
220
0.0
230
1.0
 11
1.0
 21
0.0
 31
0.0
 73
     1
 44
1.0
  0
MTEXT
  5
FC
100
AcDbEntity
  8
レイヤー_1
 62
     7
100
AcDbMText
 10
150.01875
 20
17.708184
 30
0.0
 40
2.362351
 41
0.0
 71
     1
 72
     2
  1
\fMSGothic|b0|i0|c128;\H2.3624;\C7;\U+82B1
  7
STD
210
0.0
220
0.0
230
1.0
 11
1.0
 21
0.0
 31
0.0
 73
     1
 44
1.0
  0
MTEXT
  5
FB
100
AcDbEntity
  8
レイヤー_1
 62
     7
100
AcDbMText
 10
153.19375
 20
17.708184
 30
0.0
 40
2.362351
 41
0.0
 71
     1
 72
     2
  1
\fMSGothic|b0|i0|c128;\H2.3624;\C7;\U+0020
  7
STD
210
0.0
220
0.0
230
1.0
 11
1.0
 21
0.0
 31
0.0
 73
     1
 44
1.0
  0
MTEXT
  5
FA
100
AcDbEntity
  8
レイヤー_1
 62
     7
100
AcDbMText
 10
154.78125
 20
17.708184
 30
0.0
 40
2.362351
 41
0.0
 71
     1
 72
     2
  1
\fMSGothic|b0|i0|c128;\H2.3624;\C7;\U+7530
  7
STD
210
0.0
220
0.0
230
1.0
 11
1.0
 21
0.0
 31
0.0
 73
     1
 44
1.0
  0
LINE
  5
F9
100
AcDbEntity
  8
レイヤー_1
 62
     7
100
AcDbLine
 10
159.808333
 20
35.71875
 30
0.0
 11
159.808333
 21
10.847917
 31
0.0
  0
LINE
  5
F8
100
AcDbEntity
  8
レイヤー_1
 62
     7
100
AcDbLine
 10
148.695833
 20
21.695833
 30
0.0
 11
181.76875
 21
21.695833
 31
0.0
  0
LINE
  5
F7
100
AcDbEntity
  8
レイヤー_1
 62
     7
100
AcDbLine
 10
148.695833
 20
35.71875
 30
0.0
 11
148.695833
 21
10.847917
 31
0.0
  0
MTEXT
  5
F6
100
AcDbEntity
  8
レイヤー_1
 62
     7
100
AcDbMText
 10
217.4875
 20
20.618601
 30
0.0
 40
2.362351
 41
0.0
 71
     1
 72
     2
  1
\fMSGothic|b0|i0|c128;\H2.3624;\C7;
  7
STD
210
0.0
220
0.0
230
1.0
 11
1.0
 21
0.0
 31
0.0
 73
     1
 44
1.0
  0
MTEXT
  5
F5
100
AcDbEntity
  8
レイヤー_1
 62
     7
100
AcDbMText
 10
217.4875
 20
24.851934
 30
0.0
 40
2.362351
 41
0.0
 71
     1
 72
     2
  1
\fMSGothic|b0|i0|c128;\H2.3624;\C7;\U+54C1
  7
STD
210
0.0
220
0.0
230
1.0
 11
1.0
 21
0.0
 31
0.0
 73
     1
 44
1.0
  0
MTEXT
  5
F4
100
AcDbEntity
  8
レイヤー_1
 62
     7
100
AcDbMText
 10
220.6625
 20
24.851934
 30
0.0
 40
2.362351
 41
0.0
 71
     1
 72
     2
  1
\fMSGothic|b0|i0|c128;\H2.3624;\C7;
  7
STD
210
0.0
220
0.0
230
1.0
 11
1.0
 21
0.0
 31
0.0
 73
     1
 44
1.0
  0
MTEXT
  5
F3
100
AcDbEntity
  8
レイヤー_1
 62
     7
100
AcDbMText
 10
217.752083
 20
20.618601
 30
0.0
 40
2.362351
 41
0.0
 71
     1
 72
     2
  1
\fMSGothic|b0|i0|c128;\H2.3624;\C7;
  7
STD
210
0.0
220
0.0
230
1.0
 11
1.0
 21
0.0
 31
0.0
 73
     1
 44
1.0
  0
MTEXT
  5
F2
100
AcDbEntity
  8
レイヤー_1
 62
     7
100
AcDbMText
 10
220.927083
 20
20.618601
 30
0.0
 40
2.362351
 41
0.0
 71
     1
 72
     2
  1
\fMSGothic|b0|i0|c128;\H2.3624;\C7;
  7
STD
210
0.0
220
0.0
230
1.0
 11
1.0
 21
0.0
 31
0.0
 73
     1
 44
1.0
  0
MTEXT
  5
F1
100
AcDbEntity
  8
レイヤー_1
 62
     7
100
AcDbMText
 10
217.4875
 20
16.385268
 30
0.0
 40
2.362351
 41
0.0
 71
     1
 72
     2
  1
\fMSGothic|b0|i0|c128;\H2.3624;\C7;
  7
STD
210
0.0
220
0.0
230
1.0
 11
1.0
 21
0.0
 31
0.0
 73
     1
 44
1.0
  0
MTEXT
  5
F0
100
AcDbEntity
  8
レイヤー_1
 62
     7
100
AcDbMText
 10
217.4875
 20
34.906101
 30
0.0
 40
2.362351
 41
0.0
 71
     1
 72
     2
  1
\fMSGothic|b0|i0|c128;\H2.3624;\C7;\U+54C1
  7
STD
210
0.0
220
0.0
230
1.0
 11
1.0
 21
0.0
 31
0.0
 73
     1
 44
1.0
  0
MTEXT
  5
EF
100
AcDbEntity
  8
レイヤー_1
 62
     7
100
AcDbMText
 10
217.752083
 20
30.672768
 30
0.0
 40
2.362351
 41
0.0
 71
     1
 72
     2
  1
\fMSGothic|b0|i0|c128;\H2.3624;\C7;\U+756A
  7
STD
210
0.0
220
0.0
230
1.0
 11
1.0
 21
0.0
 31
0.0
 73
     1
 44
1.0
  0
LINE
  5
EE
100
AcDbEntity
  8
レイヤー_1
 62
     7
100
AcDbLine
 10
221.720833
 20
35.71875
 30
0.0
 11
221.720833
 21
10.847917
 31
0.0
  0
LINE
  5
ED
100
AcDbEntity
  8
レイヤー_1
 62
     7
100
AcDbLine
 10
216.69375
 20
35.71875
 30
0.0
 11
216.69375
 21
10.847917
 31
0.0
  0
LINE
  5
EC
100
AcDbEntity
  8
レイヤー_1
 62
     7
100
AcDbLine
 10
148.695833
 20
27.78125
 30
0.0
 11
281.78125
 21
27.78125
 31
0.0
  0
LINE
  5
EB
100
AcDbEntity
  8
レイヤー_1
 62
     7
100
AcDbLine
 10
181.76875
 20
19.314583
 30
0.0
 11
216.69375
 21
19.314583
 31
0.0
  0
LINE
  5
EA
100
AcDbEntity
  8
レイヤー_1
 62
     7
100
AcDbLine
 10
186.795833
 20
27.78125
 30
0.0
 11
186.795833
 21
10.847917
 31
0.0
  0
LINE
  5
E9
100
AcDbEntity
  8
レイヤー_1
 62
     7
100
AcDbLine
 10
181.76875
 20
27.78125
 30
0.0
 11
181.76875
 21
10.847917
 31
0.0
  0
LINE
  5
E8
100
AcDbEntity
  8
レイヤー_1
 62
     7
100
AcDbLine
 10
170.65625
 20
27.78125
 30
0.0
 11
170.65625
 21
10.847917
 31
0.0
  0
LINE
  5
E7
100
AcDbEntity
  8
レイヤー_1
 62
     7
100
AcDbLine
 10
159.808333
 20
35.71875
 30
0.0
 11
159.808333
 21
10.847917
 31
0.0
  0
LINE
  5
E6
100
AcDbEntity
  8
レイヤー_1
 62
     7
100
AcDbLine
 10
148.695833
 20
21.695833
 30
0.0
 11
181.76875
 21
21.695833
 31
0.0
  0
LINE
  5
E5
100
AcDbEntity
  8
レイヤー_1
 62
     7
100
AcDbLine
 10
148.695833
 20
35.71875
 30
0.0
 11
148.695833
 21
10.847917
 31
0.0
  0
LINE
  5
E4
100
AcDbEntity
  8
レイヤー_1
 62
     7
100
AcDbLine
 10
186.795833
 20
27.78125
 30
0.0
 11
186.795833
 21
10.847917
 31
0.0
  0
LINE
  5
E3
100
AcDbEntity
  8
レイヤー_1
 62
     7
100
AcDbLine
 10
181.76875
 20
27.78125
 30
0.0
 11
181.76875
 21
10.847917
 31
0.0
  0
LINE
  5
E2
100
AcDbEntity
  8
レイヤー_1
 62
     7
100
AcDbLine
 10
170.65625
 20
27.78125
 30
0.0
 11
170.65625
 21
10.847917
 31
0.0
  0
MTEXT
  5
E1
100
AcDbEntity
  8
レイヤー_1
 62
     7
100
AcDbMText
 10
217.4875
 20
20.618601
 30
0.0
 40
2.362351
 41
0.0
 71
     1
 72
     2
  1
\fMSGothic|b0|i0|c128;\H2.3624;\C7;
  7
STD
210
0.0
220
0.0
230
1.0
 11
1.0
 21
0.0
 31
0.0
 73
     1
 44
1.0
  0
LINE
  5
E0
100
AcDbEntity
  8
レイヤー_1
 62
     7
100
AcDbLine
 10
221.720833
 20
35.71875
 30
0.0
 11
221.720833
 21
10.847917
 31
0.0
  0
LINE
  5
DF
100
AcDbEntity
  8
レイヤー_1
 62
     7
100
AcDbLine
 10
216.69375
 20
35.71875
 30
0.0
 11
216.69375
 21
10.847917
 31
0.0
  0
MTEXT
  5
DE
100
AcDbEntity
  8
レイヤー_1
 62
     7
100
AcDbMText
 10
38.629167
 20
19.295684
 30
0.0
 40
2.362351
 41
0.0
 71
     1
 72
     2
  1
\fMSGothic|b0|i0|c128;\H2.3624;\C7;\U+0032
  7
STD
210
0.0
220
0.0
230
1.0
 11
1.0
 21
0.0
 31
0.0
 73
     1
 44
1.0
  0
MTEXT
  5
DD
100
AcDbEntity
  8
レイヤー_1
 62
     7
100
AcDbMText
 10
40.216667
 20
19.295684
 30
0.0
 40
2.362351
 41
0.0
 71
     1
 72
     2
  1
\fMSGothic|b0|i0|c128;\H2.3624;\C7;\U+0030
  7
STD
210
0.0
220
0.0
230
1.0
 11
1.0
 21
0.0
 31
0.0
 73
     1
 44
1.0
  0
MTEXT
  5
DC
100
AcDbEntity
  8
レイヤー_1
 62
     7
100
AcDbMText
 10
41.804167
 20
19.295684
 30
0.0
 40
2.362351
 41
0.0
 71
     1
 72
     2
  1
\fMSGothic|b0|i0|c128;\H2.3624;\C7;\U+0030
  7
STD
210
0.0
220
0.0
230
1.0
 11
1.0
 21
0.0
 31
0.0
 73
     1
 44
1.0
  0
MTEXT
  5
DB
100
AcDbEntity
  8
レイヤー_1
 62
     7
100
AcDbMText
 10
43.391667
 20
19.295684
 30
0.0
 40
2.362351
 41
0.0
 71
     1
 72
     2
  1
\fMSGothic|b0|i0|c128;\H2.3624;\C7;\U+0039
  7
STD
210
0.0
220
0.0
230
1.0
 11
1.0
 21
0.0
 31
0.0
 73
     1
 44
1.0
  0
MTEXT
  5
DA
100
AcDbEntity
  8
レイヤー_1
 62
     7
100
AcDbMText
 10
44.979167
 20
19.295684
 30
0.0
 40
2.362351
 41
0.0
 71
     1
 72
     2
  1
\fMSGothic|b0|i0|c128;\H2.3624;\C7;\U+002E
  7
STD
210
0.0
220
0.0
230
1.0
 11
1.0
 21
0.0
 31
0.0
 73
     1
 44
1.0
  0
MTEXT
  5
D9
100
AcDbEntity
  8
レイヤー_1
 62
     7
100
AcDbMText
 10
46.566667
 20
19.295684
 30
0.0
 40
2.362351
 41
0.0
 71
     1
 72
     2
  1
\fMSGothic|b0|i0|c128;\H2.3624;\C7;\U+0031
  7
STD
210
0.0
220
0.0
230
1.0
 11
1.0
 21
0.0
 31
0.0
 73
     1
 44
1.0
  0
MTEXT
  5
D8
100
AcDbEntity
  8
レイヤー_1
 62
     7
100
AcDbMText
 10
48.154167
 20
19.295684
 30
0.0
 40
2.362351
 41
0.0
 71
     1
 72
     2
  1
\fMSGothic|b0|i0|c128;\H2.3624;\C7;\U+002E
  7
STD
210
0.0
220
0.0
230
1.0
 11
1.0
 21
0.0
 31
0.0
 73
     1
 44
1.0
  0
MTEXT
  5
D7
100
AcDbEntity
  8
レイヤー_1
 62
     7
100
AcDbMText
 10
49.741667
 20
19.295684
 30
0.0
 40
2.362351
 41
0.0
 71
     1
 72
     2
  1
\fMSGothic|b0|i0|c128;\H2.3624;\C7;\U+0032
  7
STD
210
0.0
220
0.0
230
1.0
 11
1.0
 21
0.0
 31
0.0
 73
     1
 44
1.0
  0
MTEXT
  5
D6
100
AcDbEntity
  8
レイヤー_1
 62
     7
100
AcDbMText
 10
51.329167
 20
19.295684
 30
0.0
 40
2.362351
 41
0.0
 71
     1
 72
     2
  1
\fMSGothic|b0|i0|c128;\H2.3624;\C7;\U+0036
  7
STD
210
0.0
220
0.0
230
1.0
 11
1.0
 21
0.0
 31
0.0
 73
     1
 44
1.0
  0
MTEXT
  5
D5
100
AcDbEntity
  8
レイヤー_1
 62
     7
100
AcDbMText
 10
62.177083
 20
19.295684
 30
0.0
 40
2.362351
 41
0.0
 71
     1
 72
     2
  1
\fMSGothic|b0|i0|c128;\H2.3624;\C7;\U+6750
  7
STD
210
0.0
220
0.0
230
1.0
 11
1.0
 21
0.0
 31
0.0
 73
     1
 44
1.0
  0
MTEXT
  5
D4
100
AcDbEntity
  8
レイヤー_1
 62
     7
100
AcDbMText
 10
65.352083
 20
19.295684
 30
0.0
 40
2.362351
 41
0.0
 71
     1
 72
     2
  1
\fMSGothic|b0|i0|c128;\H2.3624;\C7;\U+8CEA
  7
STD
210
0.0
220
0.0
230
1.0
 11
1.0
 21
0.0
 31
0.0
 73
     1
 44
1.0
  0
MTEXT
  5
D3
100
AcDbEntity
  8
レイヤー_1
 62
     7
100
AcDbMText
 10
68.527083
 20
19.295684
 30
0.0
 40
2.362351
 41
0.0
 71
     1
 72
     2
  1
\fMSGothic|b0|i0|c128;\H2.3624;\C7;\U+FF0F
  7
STD
210
0.0
220
0.0
230
1.0
 11
1.0
 21
0.0
 31
0.0
 73
     1
 44
1.0
  0
MTEXT
  5
D2
100
AcDbEntity
  8
レイヤー_1
 62
     7
100
AcDbMText
 10
71.702083
 20
19.295684
 30
0.0
 40
2.362351
 41
0.0
 71
     1
 72
     2
  1
\fMSGothic|b0|i0|c128;\H2.3624;\C7;\U+30B1
  7
STD
210
0.0
220
0.0
230
1.0
 11
1.0
 21
0.0
 31
0.0
 73
     1
 44
1.0
  0
MTEXT
  5
D1
100
AcDbEntity
  8
レイヤー_1
 62
     7
100
AcDbMText
 10
74.877083
 20
19.295684
 30
0.0
 40
2.362351
 41
0.0
 71
     1
 72
     2
  1
\fMSGothic|b0|i0|c128;\H2.3624;\C7;\U+30FC
  7
STD
210
0.0
220
0.0
230
1.0
 11
1.0
 21
0.0
 31
0.0
 73
     1
 44
1.0
  0
MTEXT
  5
D0
100
AcDbEntity
  8
レイヤー_1
 62
     7
100
AcDbMText
 10
78.052083
 20
19.295684
 30
0.0
 40
2.362351
 41
0.0
 71
     1
 72
     2
  1
\fMSGothic|b0|i0|c128;\H2.3624;\C7;\U+30D6
  7
STD
210
0.0
220
0.0
230
1.0
 11
1.0
 21
0.0
 31
0.0
 73
     1
 44
1.0
  0
MTEXT
  5
CF
100
AcDbEntity
  8
レイヤー_1
 62
     7
100
AcDbMText
 10
81.227083
 20
19.295684
 30
0.0
 40
2.362351
 41
0.0
 71
     1
 72
     2
  1
\fMSGothic|b0|i0|c128;\H2.3624;\C7;\U+30EB
  7
STD
210
0.0
220
0.0
230
1.0
 11
1.0
 21
0.0
 31
0.0
 73
     1
 44
1.0
  0
MTEXT
  5
CE
100
AcDbEntity
  8
レイヤー_1
 62
     7
100
AcDbMText
 10
84.402083
 20
19.295684
 30
0.0
 40
2.362351
 41
0.0
 71
     1
 72
     2
  1
\fMSGothic|b0|i0|c128;\H2.3624;\C7;\U+76AE
  7
STD
210
0.0
220
0.0
230
1.0
 11
1.0
 21
0.0
 31
0.0
 73
     1
 44
1.0
  0
MTEXT
  5
CD
100
AcDbEntity
  8
レイヤー_1
 62
     7
100
AcDbMText
 10
87.577083
 20
19.295684
 30
0.0
 40
2.362351
 41
0.0
 71
     1
 72
     2
  1
\fMSGothic|b0|i0|c128;\H2.3624;\C7;\U+819C
  7
STD
210
0.0
220
0.0
230
1.0
 11
1.0
 21
0.0
 31
0.0
 73
     1
 44
1.0
  0
MTEXT
  5
CC
100
AcDbEntity
  8
レイヤー_1
 62
     7
100
AcDbMText
 10
90.752083
 20
19.295684
 30
0.0
 40
2.362351
 41
0.0
 71
     1
 72
     2
  1
\fMSGothic|b0|i0|c128;\H2.3624;\C7;\U+FF1A
  7
STD
210
0.0
220
0.0
230
1.0
 11
1.0
 21
0.0
 31
0.0
 73
     1
 44
1.0
  0
MTEXT
  5
CB
100
AcDbEntity
  8
レイヤー_1
 62
     7
100
AcDbMText
 10
93.927083
 20
19.295684
 30
0.0
 40
2.362351
 41
0.0
 71
     1
 72
     2
  1
\fMSGothic|b0|i0|c128;\H2.3624;\C7;\U+FF33
  7
STD
210
0.0
220
0.0
230
1.0
 11
1.0
 21
0.0
 31
0.0
 73
     1
 44
1.0
  0
MTEXT
  5
CA
100
AcDbEntity
  8
レイヤー_1
 62
     7
100
AcDbMText
 10
97.102083
 20
19.295684
 30
0.0
 40
2.362351
 41
0.0
 71
     1
 72
     2
  1
\fMSGothic|b0|i0|c128;\H2.3624;\C7;\U+FF36
  7
STD
210
0.0
220
0.0
230
1.0
 11
1.0
 21
0.0
 31
0.0
 73
     1
 44
1.0
  0
MTEXT
  5
C9
100
AcDbEntity
  8
レイヤー_1
 62
     7
100
AcDbMText
 10
100.277083
 20
19.295684
 30
0.0
 40
2.362351
 41
0.0
 71
     1
 72
     2
  1
\fMSGothic|b0|i0|c128;\H2.3624;\C7;\U+FF23
  7
STD
210
0.0
220
0.0
230
1.0
 11
1.0
 21
0.0
 31
0.0
 73
     1
 44
1.0
  0
MTEXT
  5
C8
100
AcDbEntity
  8
レイヤー_1
 62
     7
100
AcDbMText
 10
103.452083
 20
19.295684
 30
0.0
 40
2.362351
 41
0.0
 71
     1
 72
     2
  1
\fMSGothic|b0|i0|c128;\H2.3624;\C7;\U+FF34
  7
STD
210
0.0
220
0.0
230
1.0
 11
1.0
 21
0.0
 31
0.0
 73
     1
 44
1.0
  0
MTEXT
  5
C7
100
AcDbEntity
  8
レイヤー_1
 62
     7
100
AcDbMText
 10
106.627083
 20
19.295684
 30
0.0
 40
2.362351
 41
0.0
 71
     1
 72
     2
  1
\fMSGothic|b0|i0|c128;\H2.3624;\C7;\U+FF26
  7
STD
210
0.0
220
0.0
230
1.0
 11
1.0
 21
0.0
 31
0.0
 73
     1
 44
1.0
  0
LINE
  5
C6
100
AcDbEntity
  8
レイヤー_1
 62
     7
100
AcDbLine
 10
281.78125
 20
35.71875
 30
0.0
 11
281.78125
 21
10.847917
 31
0.0
  0
MTEXT
  5
C5
100
AcDbEntity
  8
レイヤー_1
 62
     7
100
AcDbMText
 10
66.763539
 20
106.595618
 30
0.0
 40
3.674768
 41
0.0
 71
     1
 72
     2
  1
\fMSGothic|b0|i0|c128;\H3.6748;\C7;\U+3010
  7
STD
210
0.0
220
0.0
230
1.0
 11
1.0
 21
0.0
 31
0.0
 73
     1
 44
1.0
  0
MTEXT
  5
C4
100
AcDbEntity
  8
レイヤー_1
 62
     7
100
AcDbMText
 10
71.702428
 20
106.595618
 30
0.0
 40
3.674768
 41
0.0
 71
     1
 72
     2
  1
\fMSGothic|b0|i0|c128;\H3.6748;\C7;\U+6B63
  7
STD
210
0.0
220
0.0
230
1.0
 11
1.0
 21
0.0
 31
0.0
 73
     1
 44
1.0
  0
MTEXT
  5
C3
100
AcDbEntity
  8
レイヤー_1
 62
     7
100
AcDbMText
 10
76.641317
 20
106.595618
 30
0.0
 40
3.674768
 41
0.0
 71
     1
 72
     2
  1
\fMSGothic|b0|i0|c128;\H3.6748;\C7;\U+9762
  7
STD
210
0.0
220
0.0
230
1.0
 11
1.0
 21
0.0
 31
0.0
 73
     1
 44
1.0
  0
MTEXT
  5
C2
100
AcDbEntity
  8
レイヤー_1
 62
     7
100
AcDbMText
 10
81.580206
 20
106.595618
 30
0.0
 40
3.674768
 41
0.0
 71
     1
 72
     2
  1
\fMSGothic|b0|i0|c128;\H3.6748;\C7;\U+56F3
  7
STD
210
0.0
220
0.0
230
1.0
 11
1.0
 21
0.0
 31
0.0
 73
     1
 44
1.0
  0
MTEXT
  5
C1
100
AcDbEntity
  8
レイヤー_1
 62
     7
100
AcDbMText
 10
86.519095
 20
106.595618
 30
0.0
 40
3.674768
 41
0.0
 71
     1
 72
     2
  1
\fMSGothic|b0|i0|c128;\H3.6748;\C7;\U+3011
  7
STD
210
0.0
220
0.0
230
1.0
 11
1.0
 21
0.0
 31
0.0
 73
     1
 44
1.0
  0
MTEXT
  5
C0
100
AcDbEntity
  8
レイヤー_1
 62
     7
100
AcDbMText
 10
250.997255
 20
106.595618
 30
0.0
 40
3.674768
 41
0.0
 71
     1
 72
     2
  1
\fMSGothic|b0|i0|c128;\H3.6748;\C7;\U+3010
  7
STD
210
0.0
220
0.0
230
1.0
 11
1.0
 21
0.0
 31
0.0
 73
     1
 44
1.0
  0
MTEXT
  5
BF
100
AcDbEntity
  8
レイヤー_1
 62
     7
100
AcDbMText
 10
255.936144
 20
106.595618
 30
0.0
 40
3.674768
 41
0.0
 71
     1
 72
     2
  1
\fMSGothic|b0|i0|c128;\H3.6748;\C7;\U+5074
  7
STD
210
0.0
220
0.0
230
1.0
 11
1.0
 21
0.0
 31
0.0
 73
     1
 44
1.0
  0
MTEXT
  5
BE
100
AcDbEntity
  8
レイヤー_1
 62
     7
100
AcDbMText
 10
260.875033
 20
106.595618
 30
0.0
 40
3.674768
 41
0.0
 71
     1
 72
     2
  1
\fMSGothic|b0|i0|c128;\H3.6748;\C7;\U+9762
  7
STD
210
0.0
220
0.0
230
1.0
 11
1.0
 21
0.0
 31
0.0
 73
     1
 44
1.0
  0
MTEXT
  5
BD
100
AcDbEntity
  8
レイヤー_1
 62
     7
100
AcDbMText
 10
265.813921
 20
106.595618
 30
0.0
 40
3.674768
 41
0.0
 71
     1
 72
     2
  1
\fMSGothic|b0|i0|c128;\H3.6748;\C7;\U+56F3
  7
STD
210
0.0
220
0.0
230
1.0
 11
1.0
 21
0.0
 31
0.0
 73
     1
 44
1.0
  0
MTEXT
  5
BC
100
AcDbEntity
  8
レイヤー_1
 62
     7
100
AcDbMText
 10
270.75281
 20
106.595618
 30
0.0
 40
3.674768
 41
0.0
 71
     1
 72
     2
  1
\fMSGothic|b0|i0|c128;\H3.6748;\C7;\U+3011
  7
STD
210
0.0
220
0.0
230
1.0
 11
1.0
 21
0.0
 31
0.0
 73
     1
 44
1.0
  0
HATCH
  5
BB
100
AcDbEntity
  8
レイヤー_1
 62
     7
100
AcDbHatch
 10
0.0
 20
0.0
 30
0.0
210
0.0
220
0.0
230
1.0
  2
SOLID
 70
     1
 71
     0
 91
        1
 92
        1
 93
        1
 72
     4
 94
        3
 73
     0
 74
     0
 95
       68
 96
       64
 40
0.0
 40
0.0
 40
0.0
 40
0.0
 40
1.0
 40
1.0
 40
1.0
 40
2.0
 40
2.0
 40
2.0
 40
3.0
 40
3.0
 40
3.0
 40
4.0
 40
4.0
 40
4.0
 40
5.0
 40
5.0
 40
5.0
 40
6.0
 40
6.0
 40
6.0
 40
7.0
 40
7.0
 40
7.0
 40
8.0
 40
8.0
 40
8.0
 40
9.0
 40
9.0
 40
9.0
 40
10.0
 40
10.0
 40
10.0
 40
11.0
 40
11.0
 40
11.0
 40
12.0
 40
12.0
 40
12.0
 40
13.0
 40
13.0
 40
13.0
 40
14.0
 40
14.0
 40
14.0
 40
15.0
 40
15.0
 40
15.0
 40
16.0
 40
16.0
 40
16.0
 40
17.0
 40
17.0
 40
17.0
 40
18.0
 40
18.0
 40
18.0
 40
19.0
 40
19.0
 40
19.0
 40
20.0
 40
20.0
 40
20.0
 40
21.0
 40
21.0
 40
21.0
 40
21.0
 10
313.69661458333331
 20
21.173901367187497
 10
313.69661458333331
 20
21.111889648437497
 10
313.64769422743052
 20
21.064002821180555
 10
313.58843858506941
 20
21.064002821180555
 10
313.58843858506941
 20
21.064002821180555
 10
310.58844943576383
 20
21.064002821180555
 10
310.58844943576383
 20
21.064002821180555
 10
309.66309678819442
 20
21.064002821180555
 10
308.91206597222219
 20
21.814344618055554
 10
308.91206597222219
 20
22.74038628472222
 10
308.91206597222219
 20
23.665738932291664
 10
309.66309678819442
 20
24.416425238715277
 10
310.58844943576383
 20
24.416425238715277
 10
310.58844943576383
 20
24.416425238715277
 10
311.75771484374997
 20
24.416425238715277
 10
311.75771484374997
 20
24.416425238715277
 10
311.81903754340277
 20
24.416425238715277
 10
311.86726888020831
 20
24.367504882812497
 10
311.86726888020831
 20
24.30618218315972
 10
311.86726888020831
 20
24.30618218315972
 10
311.86726888020831
 20
23.241992187499999
 10
311.86726888020831
 20
23.241992187499999
 10
311.86726888020831
 20
23.182047526041664
 10
311.81903754340277
 20
23.133127170138888
 10
311.75771484374997
 20
23.133127170138888
 10
311.75771484374997
 20
23.133127170138888
 10
310.67319878472222
 20
23.132093641493054
 10
310.67319878472222
 20
23.132093641493054
 10
310.45891384548611
 20
23.132093641493054
 10
310.28390299479162
 20
22.95742730034722
 10
310.28390299479162
 20
22.742797851562496
 10
310.28390299479162
 20
22.527134874131942
 10
310.45891384548611
 20
22.351435004340274
 10
310.67319878472222
 20
22.351435004340274
 10
310.67319878472222
 20
22.351435004340274
 10
312.19179687499997
 20
22.353502061631943
 10
312.19179687499997
 20
22.353502061631943
 10
312.19179687499997
 20
22.353502061631943
 10
312.19179687499997
 20
24.601426866319443
 10
312.19179687499997
 20
24.601426866319443
 10
312.19179687499997
 20
24.930433485243054
 10
311.92583550347217
 20
25.196739366319441
 10
311.59510633680554
 20
25.196739366319441
 10
311.59510633680554
 20
25.196739366319441
 10
309.46190321180552
 20
25.196739366319441
 10
309.46190321180552
 20
25.196739366319441
 10
309.39989149305552
 20
25.196739366319441
 10
309.35166015624998
 20
25.24531521267361
 10
309.35166015624998
 20
25.306293402777776
 10
309.35166015624998
 20
25.306293402777776
 10
309.35166015624998
 20
26.374962022569441
 10
309.35166015624998
 20
26.374962022569441
 10
309.35166015624998
 20
26.434906684027776
 10
309.39989149305552
 20
26.484860568576387
 10
309.46190321180552
 20
26.484860568576387
 10
309.46190321180552
 20
26.484860568576387
 10
312.01609700520828
 20
26.484860568576387
 10
312.01609700520828
 20
26.484860568576387
 10
312.94765082465273
 20
26.484860568576387
 10
313.69661458333331
 20
25.731418185763886
 10
313.69661458333331
 20
24.800208875868055
 10
313.69661458333331
 20
24.800208875868055
 10
313.69661458333331
 20
21.173901367187497
 10
313.69661458333331
 20
21.173901367187497
 97
        0
 75
     2
 76
     1
 98
        1
 10
0.0
 20
0.0
  0
HATCH
  5
BA
100
AcDbEntity
  8
レイヤー_1
 62
     7
100
AcDbHatch
 10
0.0
 20
0.0
 30
0.0
210
0.0
220
0.0
230
1.0
  2
SOLID
 70
     1
 71
     0
 91
        1
 92
        1
 93
        1
 72
     4
 94
        3
 73
     0
 74
     0
 95
       68
 96
       64
 40
0.0
 40
0.0
 40
0.0
 40
0.0
 40
1.0
 40
1.0
 40
1.0
 40
2.0
 40
2.0
 40
2.0
 40
3.0
 40
3.0
 40
3.0
 40
4.0
 40
4.0
 40
4.0
 40
5.0
 40
5.0
 40
5.0
 40
6.0
 40
6.0
 40
6.0
 40
7.0
 40
7.0
 40
7.0
 40
8.0
 40
8.0
 40
8.0
 40
9.0
 40
9.0
 40
9.0
 40
10.0
 40
10.0
 40
10.0
 40
11.0
 40
11.0
 40
11.0
 40
12.0
 40
12.0
 40
12.0
 40
13.0
 40
13.0
 40
13.0
 40
14.0
 40
14.0
 40
14.0
 40
15.0
 40
15.0
 40
15.0
 40
16.0
 40
16.0
 40
16.0
 40
17.0
 40
17.0
 40
17.0
 40
18.0
 40
18.0
 40
18.0
 40
19.0
 40
19.0
 40
19.0
 40
20.0
 40
20.0
 40
20.0
 40
21.0
 40
21.0
 40
21.0
 40
21.0
 10
323.79074435763886
 20
21.173901367187497
 10
323.79074435763886
 20
21.111889648437497
 10
323.74182400173606
 20
21.064002821180555
 10
323.68050130208331
 20
21.064002821180555
 10
323.68050130208331
 20
21.064002821180555
 10
320.68051215277774
 20
21.064002821180555
 10
320.68051215277774
 20
21.064002821180555
 10
319.75584852430552
 20
21.064002821180555
 10
319.00481770833329
 20
21.814344618055554
 10
319.00481770833329
 20
22.74038628472222
 10
319.00481770833329
 20
23.665738932291664
 10
319.75584852430552
 20
24.416425238715277
 10
320.68051215277774
 20
24.416425238715277
 10
320.68051215277774
 20
24.416425238715277
 10
321.84977756076387
 20
24.416425238715277
 10
321.84977756076387
 20
24.416425238715277
 10
321.91041124131942
 20
24.416425238715277
 10
321.96002061631941
 20
24.367504882812497
 10
321.96002061631941
 20
24.30618218315972
 10
321.96002061631941
 20
24.30618218315972
 10
321.96002061631941
 20
23.241992187499999
 10
321.96002061631941
 20
23.241992187499999
 10
321.96002061631941
 20
23.182047526041664
 10
321.91041124131942
 20
23.133127170138888
 10
321.84977756076387
 20
23.133127170138888
 10
321.84977756076387
 20
23.133127170138888
 10
320.76595052083331
 20
23.132093641493054
 10
320.76595052083331
 20
23.132093641493054
 10
320.55097656249995
 20
23.132093641493054
 10
320.37665473090277
 20
22.95742730034722
 10
320.37665473090277
 20
22.742797851562496
 10
320.37665473090277
 20
22.527134874131942
 10
320.55097656249995
 20
22.351435004340274
 10
320.76595052083331
 20
22.351435004340274
 10
320.76595052083331
 20
22.351435004340274
 10
322.28454861111106
 20
22.353502061631943
 10
322.28454861111106
 20
22.353502061631943
 10
322.28454861111106
 20
22.353502061631943
 10
322.28454861111106
 20
24.601426866319443
 10
322.28454861111106
 20
24.601426866319443
 10
322.28454861111106
 20
24.930433485243054
 10
322.01789822048607
 20
25.196739366319441
 10
321.68854709201383
 20
25.196739366319441
 10
321.68854709201383
 20
25.196739366319441
 10
319.55258789062498
 20
25.196739366319441
 10
319.55258789062498
 20
25.196739366319441
 10
319.49264322916662
 20
25.196739366319441
 10
319.44372287326388
 20
25.24531521267361
 10
319.44372287326388
 20
25.306293402777776
 10
319.44372287326388
 20
25.306293402777776
 10
319.44372287326388
 20
26.374962022569441
 10
319.44372287326388
 20
26.374962022569441
 10
319.44372287326388
 20
26.434906684027776
 10
319.49264322916662
 20
26.484860568576387
 10
319.55258789062498
 20
26.484860568576387
 10
319.55258789062498
 20
26.484860568576387
 10
322.10815972222218
 20
26.484860568576387
 10
322.10815972222218
 20
26.484860568576387
 10
323.03902452256943
 20
26.484860568576387
 10
323.79074435763886
 20
25.731418185763886
 10
323.79074435763886
 20
24.800208875868055
 10
323.79074435763886
 20
24.800208875868055
 10
323.79074435763886
 20
21.173901367187497
 10
323.79074435763886
 20
21.173901367187497
 97
        0
 75
     2
 76
     1
 98
        1
 10
0.0
 20
0.0
  0
HATCH
  5
B9
100
AcDbEntity
  8
レイヤー_1
 62
     7
100
AcDbHatch
 10
0.0
 20
0.0
 30
0.0
210
0.0
220
0.0
230
1.0
  2
SOLID
 70
     1
 71
     0
 91
        1
 92
        1
 93
        1
 72
     4
 94
        3
 73
     0
 74
     0
 95
       65
 96
       61
 40
0.0
 40
0.0
 40
0.0
 40
0.0
 40
1.0
 40
1.0
 40
1.0
 40
2.0
 40
2.0
 40
2.0
 40
3.0
 40
3.0
 40
3.0
 40
4.0
 40
4.0
 40
4.0
 40
5.0
 40
5.0
 40
5.0
 40
6.0
 40
6.0
 40
6.0
 40
7.0
 40
7.0
 40
7.0
 40
8.0
 40
8.0
 40
8.0
 40
9.0
 40
9.0
 40
9.0
 40
10.0
 40
10.0
 40
10.0
 40
11.0
 40
11.0
 40
11.0
 40
12.0
 40
12.0
 40
12.0
 40
13.0
 40
13.0
 40
13.0
 40
14.0
 40
14.0
 40
14.0
 40
15.0
 40
15.0
 40
15.0
 40
16.0
 40
16.0
 40
16.0
 40
17.0
 40
17.0
 40
17.0
 40
18.0
 40
18.0
 40
18.0
 40
19.0
 40
19.0
 40
19.0
 40
20.0
 40
20.0
 40
20.0
 40
20.0
 10
324.42739800347221
 20
21.058490668402776
 10
324.36745334201385
 20
21.058490668402776
 10
324.3192220052083
 20
21.105688476562499
 10
324.3192220052083
 20
21.165288628472219
 10
324.3192220052083
 20
21.165288628472219
 10
324.3192220052083
 20
22.235679796006941
 10
324.3192220052083
 20
22.235679796006941
 10
324.3192220052083
 20
22.295624457465276
 10
324.36745334201385
 20
22.346956380208333
 10
324.42739800347221
 20
22.346956380208333
 10
324.42739800347221
 20
22.346956380208333
 10
326.97676866319443
 20
22.346956380208333
 10
326.97676866319443
 20
22.346956380208333
 10
327.19174262152774
 20
22.346956380208333
 10
327.36606445312498
 20
22.524378797743054
 10
327.36606445312498
 20
22.741419813368054
 10
327.36606445312498
 20
22.955015733506944
 10
327.19174262152774
 20
23.132093641493054
 10
326.97676866319443
 20
23.132093641493054
 10
326.97676866319443
 20
23.132093641493054
 10
325.84608832465273
 20
23.163099500868054
 10
325.84608832465273
 20
23.163099500868054
 10
324.92555881076385
 20
23.163099500868054
 10
324.17866210937495
 20
23.904828559027777
 10
324.17866210937495
 20
24.819845920138885
 10
324.17866210937495
 20
25.734518771701385
 10
324.92555881076385
 20
26.477625868055554
 10
325.84608832465273
 20
26.477625868055554
 10
325.84608832465273
 20
26.477625868055554
 10
328.41337348090275
 20
26.477625868055554
 10
328.41337348090275
 20
26.477625868055554
 10
328.4740071614583
 20
26.477625868055554
 10
328.52223849826385
 20
26.429739040798609
 10
328.52223849826385
 20
26.370483398437496
 10
328.52223849826385
 20
26.370483398437496
 10
328.52223849826385
 20
25.312150065104163
 10
328.52223849826385
 20
25.312150065104163
 10
328.52223849826385
 20
25.250827365451386
 10
328.4740071614583
 20
25.199495442708329
 10
328.41337348090275
 20
25.199495442708329
 10
328.41337348090275
 20
25.199495442708329
 10
326.00456271701387
 20
25.199495442708329
 10
326.00456271701387
 20
25.199495442708329
 10
325.79027777777776
 20
25.199495442708329
 10
325.61457790798607
 20
25.021728515624996
 10
325.61457790798607
 20
24.807443576388888
 10
325.61457790798607
 20
24.591436089409719
 10
325.79027777777776
 20
24.417458767361108
 10
326.00456271701387
 20
24.417458767361108
 10
326.00456271701387
 20
24.417458767361108
 10
327.14902343749998
 20
24.382663302951386
 10
327.14902343749998
 20
24.382663302951386
 10
328.07024197048611
 20
24.382663302951386
 10
328.81851671006939
 20
23.639900716145831
 10
328.81851671006939
 20
22.724538845486109
 10
328.81851671006939
 20
21.807454427083332
 10
328.07024197048611
 20
21.058490668402776
 10
327.14902343749998
 20
21.058490668402776
 10
327.14902343749998
 20
21.058490668402776
 10
324.42739800347221
 20
21.058490668402776
 10
324.42739800347221
 20
21.058490668402776
 97
        0
 75
     2
 76
     1
 98
        1
 10
0.0
 20
0.0
  0
HATCH
  5
B8
100
AcDbEntity
  8
レイヤー_1
 62
     7
100
AcDbHatch
 10
0.0
 20
0.0
 30
0.0
210
0.0
220
0.0
230
1.0
  2
SOLID
 70
     1
 71
     0
 91
        1
 92
        1
 93
        1
 72
     4
 94
        3
 73
     0
 74
     0
 95
       65
 96
       61
 40
0.0
 40
0.0
 40
0.0
 40
0.0
 40
1.0
 40
1.0
 40
1.0
 40
2.0
 40
2.0
 40
2.0
 40
3.0
 40
3.0
 40
3.0
 40
4.0
 40
4.0
 40
4.0
 40
5.0
 40
5.0
 40
5.0
 40
6.0
 40
6.0
 40
6.0
 40
7.0
 40
7.0
 40
7.0
 40
8.0
 40
8.0
 40
8.0
 40
9.0
 40
9.0
 40
9.0
 40
10.0
 40
10.0
 40
10.0
 40
11.0
 40
11.0
 40
11.0
 40
12.0
 40
12.0
 40
12.0
 40
13.0
 40
13.0
 40
13.0
 40
14.0
 40
14.0
 40
14.0
 40
15.0
 40
15.0
 40
15.0
 40
16.0
 40
16.0
 40
16.0
 40
17.0
 40
17.0
 40
17.0
 40
18.0
 40
18.0
 40
18.0
 40
19.0
 40
19.0
 40
19.0
 40
20.0
 40
20.0
 40
20.0
 40
20.0
 10
333.56585828993053
 20
26.48313802083333
 10
333.56585828993053
 20
26.48313802083333
 10
332.36145290798606
 20
26.48313802083333
 10
332.36145290798606
 20
26.48313802083333
 10
332.30081922743051
 20
26.48313802083333
 10
332.17472873263887
 20
26.433873155381942
 10
332.17472873263887
 20
26.374273003472219
 10
332.17472873263887
 20
26.374273003472219
 10
332.17472873263887
 20
24.422970920138887
 10
332.17472873263887
 20
24.422970920138887
 10
332.17472873263887
 20
24.422970920138887
 10
330.66508789062499
 20
24.422970920138887
 10
330.66508789062499
 20
24.422970920138887
 10
330.66508789062499
 20
24.422970920138887
 10
330.66508789062499
 20
26.374273003472219
 10
330.66508789062499
 20
26.374273003472219
 10
330.66508789062499
 20
26.433873155381942
 10
330.61547851562494
 20
26.48313802083333
 10
330.55622287326383
 20
26.48313802083333
 10
330.55622287326383
 20
26.48313802083333
 10
329.27326931423607
 20
26.48313802083333
 10
329.27326931423607
 20
26.48313802083333
 10
329.21332465277777
 20
26.48313802083333
 10
329.16440429687498
 20
26.433873155381942
 10
329.16440429687498
 20
26.374273003472219
 10
329.16440429687498
 20
26.374273003472219
 10
329.16440429687498
 20
21.173901367187497
 10
329.16440429687498
 20
21.173901367187497
 10
329.16440429687498
 20
21.111889648437497
 10
329.21332465277777
 20
21.064002821180555
 10
329.27326931423607
 20
21.064002821180555
 10
329.27326931423607
 20
21.064002821180555
 10
330.55622287326383
 20
21.064002821180555
 10
330.55622287326383
 20
21.064002821180555
 10
330.61547851562494
 20
21.064002821180555
 10
330.66508789062499
 20
21.111889648437497
 10
330.66508789062499
 20
21.173901367187497
 10
330.66508789062499
 20
21.173901367187497
 10
330.66508789062499
 20
23.136227756076387
 10
330.66508789062499
 20
23.136227756076387
 10
330.66508789062499
 20
23.136227756076387
 10
332.17472873263887
 20
23.136227756076387
 10
332.17472873263887
 20
23.136227756076387
 10
332.17472873263887
 20
23.136227756076387
 10
332.17472873263887
 20
21.173901367187497
 10
332.17472873263887
 20
21.173901367187497
 10
332.17472873263887
 20
21.111889648437497
 10
332.22364908854166
 20
21.064002821180555
 10
332.28359374999997
 20
21.064002821180555
 10
332.28359374999997
 20
21.064002821180555
 10
333.56585828993053
 20
21.064002821180555
 10
333.56585828993053
 20
21.064002821180555
 10
333.62580295138883
 20
21.064002821180555
 10
333.67472330729163
 20
21.111889648437497
 10
333.67472330729163
 20
21.173901367187497
 10
333.67472330729163
 20
21.173901367187497
 10
333.67472330729163
 20
26.374273003472219
 10
333.67472330729163
 20
26.374273003472219
 10
333.67472330729163
 20
26.433873155381942
 10
333.62580295138883
 20
26.48313802083333
 10
333.56585828993053
 20
26.48313802083333
 97
        0
 75
     2
 76
     1
 98
        1
 10
0.0
 20
0.0
  0
HATCH
  5
B7
100
AcDbEntity
  8
レイヤー_1
 62
     7
100
AcDbHatch
 10
0.0
 20
0.0
 30
0.0
210
0.0
220
0.0
230
1.0
  2
SOLID
 70
     1
 71
     0
 91
        2
 92
       16
 93
        1
 72
     4
 94
        3
 73
     0
 74
     0
 95
       29
 96
       25
 40
0.0
 40
0.0
 40
0.0
 40
0.0
 40
1.0
 40
1.0
 40
1.0
 40
2.0
 40
2.0
 40
2.0
 40
3.0
 40
3.0
 40
3.0
 40
4.0
 40
4.0
 40
4.0
 40
5.0
 40
5.0
 40
5.0
 40
6.0
 40
6.0
 40
6.0
 40
7.0
 40
7.0
 40
7.0
 40
8.0
 40
8.0
 40
8.0
 40
8.0
 10
337.65794270833328
 20
26.483827039930553
 10
337.65794270833328
 20
26.483827039930553
 10
335.64600694444442
 20
26.483827039930553
 10
335.64600694444442
 20
26.483827039930553
 10
334.79713541666666
 20
26.483827039930553
 10
334.10673828124999
 20
25.794807942708331
 10
334.10673828124999
 20
24.944902886284719
 10
334.10673828124999
 20
24.944902886284719
 10
334.10673828124999
 20
22.607750108506941
 10
334.10673828124999
 20
22.607750108506941
 10
334.10673828124999
 20
21.758189561631941
 10
334.79713541666666
 20
21.069514973958331
 10
335.64600694444442
 20
21.069514973958331
 10
335.64600694444442
 20
21.069514973958331
 10
337.65794270833328
 20
21.069514973958331
 10
337.65794270833328
 20
21.069514973958331
 10
338.50750325520829
 20
21.069514973958331
 10
339.19583333333333
 20
21.758189561631941
 10
339.19583333333333
 20
22.607750108506941
 10
339.19583333333333
 20
22.607750108506941
 10
339.19583333333333
 20
24.944902886284719
 10
339.19583333333333
 20
24.944902886284719
 10
339.19583333333333
 20
25.794807942708331
 10
338.50750325520829
 20
26.483827039930553
 10
337.65794270833328
 20
26.483827039930553
 97
        0
 92
        1
 93
        1
 72
     4
 94
        3
 73
     0
 74
     0
 95
       29
 96
       25
 40
0.0
 40
0.0
 40
0.0
 40
0.0
 40
1.0
 40
1.0
 40
1.0
 40
2.0
 40
2.0
 40
2.0
 40
3.0
 40
3.0
 40
3.0
 40
4.0
 40
4.0
 40
4.0
 40
5.0
 40
5.0
 40
5.0
 40
6.0
 40
6.0
 40
6.0
 40
7.0
 40
7.0
 40
7.0
 40
8.0
 40
8.0
 40
8.0
 40
8.0
 10
337.69308268229162
 20
22.910574001736109
 10
337.69308268229162
 20
22.607750108506941
 10
337.44710286458331
 20
22.362114800347221
 10
337.14462348090274
 20
22.362114800347221
 10
337.14462348090274
 20
22.362114800347221
 10
336.15932617187497
 20
22.362114800347221
 10
336.15932617187497
 20
22.362114800347221
 10
335.85546874999994
 20
22.362114800347221
 10
335.61017795138883
 20
22.607750108506941
 10
335.61017795138883
 20
22.910574001736109
 10
335.61017795138883
 20
22.910574001736109
 10
335.61017795138883
 20
24.642423502604164
 10
335.61017795138883
 20
24.642423502604164
 10
335.61017795138883
 20
24.944902886284719
 10
335.85546874999994
 20
25.190193684895831
 10
336.15932617187497
 20
25.190193684895831
 10
336.15932617187497
 20
25.190193684895831
 10
337.14462348090274
 20
25.190193684895831
 10
337.14462348090274
 20
25.190193684895831
 10
337.44710286458331
 20
25.190193684895831
 10
337.69308268229162
 20
24.944902886284719
 10
337.69308268229162
 20
24.642423502604164
 10
337.69308268229162
 20
24.642423502604164
 10
337.69308268229162
 20
22.910574001736109
 10
337.69308268229162
 20
22.910574001736109
 97
        0
 75
     2
 76
     1
 98
        1
 10
0.0
 20
0.0
  0
HATCH
  5
B6
100
AcDbEntity
  8
レイヤー_1
 62
     7
100
AcDbHatch
 10
0.0
 20
0.0
 30
0.0
210
0.0
220
0.0
230
1.0
  2
SOLID
 70
     1
 71
     0
 91
        1
 92
        1
 93
        1
 72
     4
 94
        3
 73
     0
 74
     0
 95
       47
 96
       43
 40
0.0
 40
0.0
 40
0.0
 40
0.0
 40
1.0
 40
1.0
 40
1.0
 40
2.0
 40
2.0
 40
2.0
 40
3.0
 40
3.0
 40
3.0
 40
4.0
 40
4.0
 40
4.0
 40
5.0
 40
5.0
 40
5.0
 40
6.0
 40
6.0
 40
6.0
 40
7.0
 40
7.0
 40
7.0
 40
8.0
 40
8.0
 40
8.0
 40
9.0
 40
9.0
 40
9.0
 40
10.0
 40
10.0
 40
10.0
 40
11.0
 40
11.0
 40
11.0
 40
12.0
 40
12.0
 40
12.0
 40
13.0
 40
13.0
 40
13.0
 40
14.0
 40
14.0
 40
14.0
 40
14.0
 10
310.38656684027774
 20
28.570521375868054
 10
310.38656684027774
 20
28.570521375868054
 10
304.5223253038194
 20
28.570521375868054
 10
304.5223253038194
 20
28.570521375868054
 10
304.46858181423607
 20
28.570521375868054
 10
304.42448459201387
 20
28.526424153645831
 10
304.42448459201387
 20
28.471991644965275
 10
304.42448459201387
 20
28.471991644965275
 10
304.42448459201387
 20
27.176635742187496
 10
304.42448459201387
 20
27.176635742187496
 10
304.42448459201387
 20
27.121858723958329
 10
304.46858181423607
 20
27.077761501736109
 10
304.5223253038194
 20
27.077761501736109
 10
304.5223253038194
 20
27.077761501736109
 10
306.58662651909719
 20
27.077761501736109
 10
306.58662651909719
 20
27.077761501736109
 10
306.58662651909719
 20
27.077761501736109
 10
306.58662651909719
 20
21.173901367187497
 10
306.58662651909719
 20
21.173901367187497
 10
306.58662651909719
 20
21.111889648437497
 10
306.63485785590274
 20
21.064002821180555
 10
306.69549153645829
 20
21.064002821180555
 10
306.69549153645829
 20
21.064002821180555
 10
308.21271158854165
 20
21.064002821180555
 10
308.21271158854165
 20
21.064002821180555
 10
308.2740342881944
 20
21.064002821180555
 10
308.32088758680555
 20
21.111889648437497
 10
308.32088758680555
 20
21.173901367187497
 10
308.32088758680555
 20
21.173901367187497
 10
308.32088758680555
 20
27.077761501736109
 10
308.32088758680555
 20
27.077761501736109
 10
308.32088758680555
 20
27.077761501736109
 10
310.38656684027774
 20
27.077761501736109
 10
310.38656684027774
 20
27.077761501736109
 10
310.44099934895831
 20
27.077761501736109
 10
310.48371853298607
 20
27.121858723958329
 10
310.48371853298607
 20
27.176635742187496
 10
310.48371853298607
 20
27.176635742187496
 10
310.48371853298607
 20
28.471991644965275
 10
310.48371853298607
 20
28.471991644965275
 10
310.48371853298607
 20
28.526424153645831
 10
310.44099934895831
 20
28.570521375868054
 10
310.38656684027774
 20
28.570521375868054
 97
        0
 75
     2
 76
     1
 98
        1
 10
0.0
 20
0.0
  0
HATCH
  5
B5
100
AcDbEntity
  8
レイヤー_1
 62
     7
100
AcDbHatch
 10
0.0
 20
0.0
 30
0.0
210
0.0
220
0.0
230
1.0
  2
SOLID
 70
     1
 71
     0
 91
        1
 92
        1
 93
        1
 72
     4
 94
        3
 73
     0
 74
     0
 95
       29
 96
       25
 40
0.0
 40
0.0
 40
0.0
 40
0.0
 40
1.0
 40
1.0
 40
1.0
 40
2.0
 40
2.0
 40
2.0
 40
3.0
 40
3.0
 40
3.0
 40
4.0
 40
4.0
 40
4.0
 40
5.0
 40
5.0
 40
5.0
 40
6.0
 40
6.0
 40
6.0
 40
7.0
 40
7.0
 40
7.0
 40
8.0
 40
8.0
 40
8.0
 40
8.0
 10
315.54387478298611
 20
21.064002821180555
 10
315.60381944444441
 20
21.064002821180555
 10
315.65411783854165
 20
21.111889648437497
 10
315.65411783854165
 20
21.174934895833331
 10
315.65411783854165
 20
21.174934895833331
 10
315.65411783854165
 20
26.382196723090274
 10
315.65411783854165
 20
26.382196723090274
 10
315.65411783854165
 20
26.442485894097221
 10
315.60381944444441
 20
26.491061740451386
 10
315.54387478298611
 20
26.491061740451386
 10
315.54387478298611
 20
26.491061740451386
 10
314.25678710937495
 20
26.491061740451386
 10
314.25678710937495
 20
26.491061740451386
 10
314.19546440972221
 20
26.491061740451386
 10
314.14654405381941
 20
26.442485894097221
 10
314.14654405381941
 20
26.382196723090274
 10
314.14654405381941
 20
26.382196723090274
 10
314.14654405381941
 20
21.174934895833331
 10
314.14654405381941
 20
21.174934895833331
 10
314.14654405381941
 20
21.111889648437497
 10
314.19546440972221
 20
21.064002821180555
 10
314.25678710937495
 20
21.064002821180555
 10
314.25678710937495
 20
21.064002821180555
 10
315.54387478298611
 20
21.064002821180555
 10
315.54387478298611
 20
21.064002821180555
 97
        0
 75
     2
 76
     1
 98
        1
 10
0.0
 20
0.0
  0
HATCH
  5
B4
100
AcDbEntity
  8
レイヤー_1
 62
     7
100
AcDbHatch
 10
0.0
 20
0.0
 30
0.0
210
0.0
220
0.0
230
1.0
  2
SOLID
 70
     1
 71
     0
 91
        1
 92
        1
 93
        1
 72
     4
 94
        3
 73
     0
 74
     0
 95
       29
 96
       25
 40
0.0
 40
0.0
 40
0.0
 40
0.0
 40
1.0
 40
1.0
 40
1.0
 40
2.0
 40
2.0
 40
2.0
 40
3.0
 40
3.0
 40
3.0
 40
4.0
 40
4.0
 40
4.0
 40
5.0
 40
5.0
 40
5.0
 40
6.0
 40
6.0
 40
6.0
 40
7.0
 40
7.0
 40
7.0
 40
8.0
 40
8.0
 40
8.0
 40
8.0
 10
317.66812065972221
 20
26.487616644965275
 10
317.56545681423609
 20
26.487616644965275
 10
317.47381727430553
 20
26.436284722222219
 10
317.41869574652776
 20
26.358081054687499
 10
317.41869574652776
 20
26.358081054687499
 10
315.65411783854165
 20
23.773914930555552
 10
315.65411783854165
 20
23.773914930555552
 10
315.65411783854165
 20
23.773914930555552
 10
317.40698242187494
 20
21.069514973958331
 10
317.40698242187494
 20
21.069514973958331
 10
317.40698242187494
 20
21.069514973958331
 10
319.25079752604165
 20
21.069514973958331
 10
319.25079752604165
 20
21.069514973958331
 10
319.25079752604165
 20
21.069514973958331
 10
317.24368489583333
 20
23.773914930555552
 10
317.24368489583333
 20
23.773914930555552
 10
317.24368489583333
 20
23.773914930555552
 10
319.24941948784721
 20
26.485894097222221
 10
319.24941948784721
 20
26.485894097222221
 10
319.24941948784721
 20
26.485894097222221
 10
317.66743164062495
 20
26.485894097222221
 10
317.66743164062495
 20
26.485894097222221
 10
317.66743164062495
 20
26.485894097222221
 10
317.66812065972221
 20
26.487616644965275
 10
317.66812065972221
 20
26.487616644965275
 97
        0
 75
     2
 76
     1
 98
        1
 10
0.0
 20
0.0
  0
HATCH
  5
B3
100
AcDbEntity
  8
レイヤー_1
 62
     7
100
AcDbHatch
 10
0.0
 20
0.0
 30
0.0
210
0.0
220
0.0
230
1.0
  2
SOLID
 70
     1
 71
     0
 91
        1
 92
        1
 93
        1
 72
     4
 94
        3
 73
     0
 74
     0
 95
       29
 96
       25
 40
0.0
 40
0.0
 40
0.0
 40
0.0
 40
1.0
 40
1.0
 40
1.0
 40
2.0
 40
2.0
 40
2.0
 40
3.0
 40
3.0
 40
3.0
 40
4.0
 40
4.0
 40
4.0
 40
5.0
 40
5.0
 40
5.0
 40
6.0
 40
6.0
 40
6.0
 40
7.0
 40
7.0
 40
7.0
 40
8.0
 40
8.0
 40
8.0
 40
8.0
 10
294.68795572916662
 20
24.820190429687496
 10
294.82575954861107
 20
24.820190429687496
 10
294.93669162326387
 20
24.932500542534719
 10
294.93669162326387
 20
25.069615342881942
 10
294.93669162326387
 20
25.069615342881942
 10
294.93669162326387
 20
28.318340386284721
 10
294.93669162326387
 20
28.318340386284721
 10
294.93669162326387
 20
28.456833224826386
 10
294.82575954861107
 20
28.567765299479163
 10
294.68795572916662
 20
28.567765299479163
 10
294.68795572916662
 20
28.567765299479163
 10
291.43923068576385
 20
28.567765299479163
 10
291.43923068576385
 20
28.567765299479163
 10
291.300048828125
 20
28.567765299479163
 10
291.18911675347221
 20
28.456833224826386
 10
291.18911675347221
 20
28.318340386284721
 10
291.18911675347221
 20
28.318340386284721
 10
291.18911675347221
 20
25.069615342881942
 10
291.18911675347221
 20
25.069615342881942
 10
291.18911675347221
 20
24.932500542534719
 10
291.300048828125
 20
24.820190429687496
 10
291.43923068576385
 20
24.820190429687496
 10
291.43923068576385
 20
24.820190429687496
 10
294.68795572916662
 20
24.820190429687496
 10
294.68795572916662
 20
24.820190429687496
 97
        0
 75
     2
 76
     1
 98
        1
 10
0.0
 20
0.0
  0
HATCH
  5
B2
100
AcDbEntity
  8
レイヤー_1
 62
     7
100
AcDbHatch
 10
0.0
 20
0.0
 30
0.0
210
0.0
220
0.0
230
1.0
  2
SOLID
 70
     1
 71
     0
 91
        1
 92
        1
 93
        1
 72
     4
 94
        3
 73
     0
 74
     0
 95
       29
 96
       25
 40
0.0
 40
0.0
 40
0.0
 40
0.0
 40
1.0
 40
1.0
 40
1.0
 40
2.0
 40
2.0
 40
2.0
 40
3.0
 40
3.0
 40
3.0
 40
4.0
 40
4.0
 40
4.0
 40
5.0
 40
5.0
 40
5.0
 40
6.0
 40
6.0
 40
6.0
 40
7.0
 40
7.0
 40
7.0
 40
8.0
 40
8.0
 40
8.0
 40
8.0
 10
298.43759765624998
 20
21.070893012152776
 10
298.57471245659718
 20
21.070893012152776
 10
298.68564453124998
 20
21.182514105902776
 10
298.68564453124998
 20
21.321351453993053
 10
298.68564453124998
 20
21.321351453993053
 10
298.68564453124998
 20
24.569042968749997
 10
298.68564453124998
 20
24.569042968749997
 10
298.68564453124998
 20
24.706502278645832
 10
298.57471245659718
 20
24.81777886284722
 10
298.43759765624998
 20
24.81777886284722
 10
298.43759765624998
 20
24.81777886284722
 10
295.18887261284721
 20
24.81777886284722
 10
295.18887261284721
 20
24.81777886284722
 10
295.05106879340275
 20
24.81777886284722
 10
294.93738064236106
 20
24.706502278645832
 10
294.93738064236106
 20
24.569042968749997
 10
294.93738064236106
 20
24.569042968749997
 10
294.93738064236106
 20
21.321351453993053
 10
294.93738064236106
 20
21.321351453993053
 10
294.93738064236106
 20
21.182514105902776
 10
295.05106879340275
 20
21.070893012152776
 10
295.18887261284721
 20
21.070893012152776
 10
295.18887261284721
 20
21.070893012152776
 10
298.43759765624998
 20
21.070893012152776
 10
298.43759765624998
 20
21.070893012152776
 97
        0
 75
     2
 76
     1
 98
        1
 10
0.0
 20
0.0
  0
HATCH
  5
B1
100
AcDbEntity
  8
レイヤー_1
 62
     7
100
AcDbHatch
 10
0.0
 20
0.0
 30
0.0
210
0.0
220
0.0
230
1.0
  2
SOLID
 70
     1
 71
     0
 91
        1
 92
        1
 93
        1
 72
     4
 94
        3
 73
     0
 74
     0
 95
       29
 96
       25
 40
0.0
 40
0.0
 40
0.0
 40
0.0
 40
1.0
 40
1.0
 40
1.0
 40
2.0
 40
2.0
 40
2.0
 40
3.0
 40
3.0
 40
3.0
 40
4.0
 40
4.0
 40
4.0
 40
5.0
 40
5.0
 40
5.0
 40
6.0
 40
6.0
 40
6.0
 40
7.0
 40
7.0
 40
7.0
 40
8.0
 40
8.0
 40
8.0
 40
8.0
 10
302.18723958333328
 20
24.820190429687496
 10
302.32435438368054
 20
24.820190429687496
 10
302.43666449652773
 20
24.932500542534719
 10
302.43666449652773
 20
25.069615342881942
 10
302.43666449652773
 20
25.069615342881942
 10
302.43666449652773
 20
28.318340386284721
 10
302.43666449652773
 20
28.318340386284721
 10
302.43666449652773
 20
28.456833224826386
 10
302.32435438368054
 20
28.567765299479163
 10
302.18723958333328
 20
28.567765299479163
 10
302.18723958333328
 20
28.567765299479163
 10
298.93782552083331
 20
28.567765299479163
 10
298.93782552083331
 20
28.567765299479163
 10
298.80002170138886
 20
28.567765299479163
 10
298.68908962673606
 20
28.456833224826386
 10
298.68908962673606
 20
28.318340386284721
 10
298.68908962673606
 20
28.318340386284721
 10
298.68908962673606
 20
25.069615342881942
 10
298.68908962673606
 20
25.069615342881942
 10
298.68908962673606
 20
24.932500542534719
 10
298.80002170138886
 20
24.820190429687496
 10
298.93782552083331
 20
24.820190429687496
 10
298.93782552083331
 20
24.820190429687496
 10
302.18723958333328
 20
24.820190429687496
 10
302.18723958333328
 20
24.820190429687496
 97
        0
 75
     2
 76
     1
 98
        1
 10
0.0
 20
0.0
  0
HATCH
  5
B0
100
AcDbEntity
  8
レイヤー_1
 62
     7
100
AcDbHatch
 10
0.0
 20
0.0
 30
0.0
210
0.0
220
0.0
230
1.0
  2
SOLID
 70
     1
 71
     0
 91
        1
 92
        1
 93
        1
 72
     4
 94
        3
 73
     0
 74
     0
 95
       29
 96
       25
 40
0.0
 40
0.0
 40
0.0
 40
0.0
 40
1.0
 40
1.0
 40
1.0
 40
2.0
 40
2.0
 40
2.0
 40
3.0
 40
3.0
 40
3.0
 40
4.0
 40
4.0
 40
4.0
 40
5.0
 40
5.0
 40
5.0
 40
6.0
 40
6.0
 40
6.0
 40
7.0
 40
7.0
 40
7.0
 40
8.0
 40
8.0
 40
8.0
 40
8.0
 10
294.68795572916662
 20
17.32090657552083
 10
294.82575954861107
 20
17.32090657552083
 10
294.93669162326387
 20
17.432872178819444
 10
294.93669162326387
 20
17.571020507812499
 10
294.93669162326387
 20
17.571020507812499
 10
294.93669162326387
 20
20.819401041666666
 10
294.93669162326387
 20
20.819401041666666
 10
294.93669162326387
 20
20.956515842013886
 10
294.82575954861107
 20
21.068481445312496
 10
294.68795572916662
 20
21.068481445312496
 10
294.68795572916662
 20
21.068481445312496
 10
291.43923068576385
 20
21.068481445312496
 10
291.43923068576385
 20
21.068481445312496
 10
291.300048828125
 20
21.068481445312496
 10
291.18911675347221
 20
20.956515842013886
 10
291.18911675347221
 20
20.819401041666666
 10
291.18911675347221
 20
20.819401041666666
 10
291.18911675347221
 20
17.571020507812499
 10
291.18911675347221
 20
17.571020507812499
 10
291.18911675347221
 20
17.432872178819444
 10
291.300048828125
 20
17.32090657552083
 10
291.43923068576385
 20
17.32090657552083
 10
291.43923068576385
 20
17.32090657552083
 10
294.68795572916662
 20
17.32090657552083
 10
294.68795572916662
 20
17.32090657552083
 97
        0
 75
     2
 76
     1
 98
        1
 10
0.0
 20
0.0
  0
MTEXT
  5
AF
100
AcDbEntity
  8
レイヤー_1
 62
     7
100
AcDbMText
 10
347.522629
 20
25.878924
 30
0.0
 40
2.849494
 41
0.0
 71
     1
 72
     2
  1
\fHGPGothicE|b0|i0|c128;\H2.8495;\C7;\U+548C
  7
STD
210
0.0
220
0.0
230
1.0
 11
1.0
 21
0.0
 31
0.0
 73
     1
 44
1.0
  0
MTEXT
  5
AE
100
AcDbEntity
  8
レイヤー_1
 62
     7
100
AcDbMText
 10
351.352197
 20
25.878924
 30
0.0
 40
2.849494
 41
0.0
 71
     1
 72
     2
  1
\fHGPGothicE|b0|i0|c128;\H2.8495;\C7;\U+6B4C
  7
STD
210
0.0
220
0.0
230
1.0
 11
1.0
 21
0.0
 31
0.0
 73
     1
 44
1.0
  0
MTEXT
  5
AD
100
AcDbEntity
  8
レイヤー_1
 62
     7
100
AcDbMText
 10
355.18211
 20
25.878924
 30
0.0
 40
2.849494
 41
0.0
 71
     1
 72
     2
  1
\fHGPGothicE|b0|i0|c128;\H2.8495;\C7;\U+5C71
  7
STD
210
0.0
220
0.0
230
1.0
 11
1.0
 21
0.0
 31
0.0
 73
     1
 44
1.0
  0
MTEXT
  5
AC
100
AcDbEntity
  8
レイヤー_1
 62
     7
100
AcDbMText
 10
359.011678
 20
25.878924
 30
0.0
 40
2.849494
 41
0.0
 71
     1
 72
     2
  1
\fHGPGothicE|b0|i0|c128;\H2.8495;\C7;\U+770C
  7
STD
210
0.0
220
0.0
230
1.0
 11
1.0
 21
0.0
 31
0.0
 73
     1
 44
1.0
  0
MTEXT
  5
AB
100
AcDbEntity
  8
レイヤー_1
 62
     7
100
AcDbMText
 10
362.841591
 20
25.878924
 30
0.0
 40
2.849494
 41
0.0
 71
     1
 72
     2
  1
\fHGPGothicE|b0|i0|c128;\H2.8495;\C7;\U+6D77
  7
STD
210
0.0
220
0.0
230
1.0
 11
1.0
 21
0.0
 31
0.0
 73
     1
 44
1.0
  0
MTEXT
  5
AA
100
AcDbEntity
  8
レイヤー_1
 62
     7
100
AcDbMText
 10
366.671159
 20
25.878924
 30
0.0
 40
2.849494
 41
0.0
 71
     1
 72
     2
  1
\fHGPGothicE|b0|i0|c128;\H2.8495;\C7;\U+5357
  7
STD
210
0.0
220
0.0
230
1.0
 11
1.0
 21
0.0
 31
0.0
 73
     1
 44
1.0
  0
MTEXT
  5
A9
100
AcDbEntity
  8
レイヤー_1
 62
     7
100
AcDbMText
 10
370.501072
 20
25.878924
 30
0.0
 40
2.849494
 41
0.0
 71
     1
 72
     2
  1
\fHGPGothicE|b0|i0|c128;\H2.8495;\C7;\U+5E02
  7
STD
210
0.0
220
0.0
230
1.0
 11
1.0
 21
0.0
 31
0.0
 73
     1
 44
1.0
  0
MTEXT
  5
A8
100
AcDbEntity
  8
レイヤー_1
 62
     7
100
AcDbMText
 10
374.33064
 20
25.878924
 30
0.0
 40
2.849494
 41
0.0
 71
     1
 72
     2
  1
\fHGPGothicE|b0|i0|c128;\H2.8495;\C7;\U+5357
  7
STD
210
0.0
220
0.0
230
1.0
 11
1.0
 21
0.0
 31
0.0
 73
     1
 44
1.0
  0
MTEXT
  5
A7
100
AcDbEntity
  8
レイヤー_1
 62
     7
100
AcDbMText
 10
378.160552
 20
25.878924
 30
0.0
 40
2.849494
 41
0.0
 71
     1
 72
     2
  1
\fHGPGothicE|b0|i0|c128;\H2.8495;\C7;\U+8D64
  7
STD
210
0.0
220
0.0
230
1.0
 11
1.0
 21
0.0
 31
0.0
 73
     1
 44
1.0
  0
MTEXT
  5
A6
100
AcDbEntity
  8
レイヤー_1
 62
     7
100
AcDbMText
 10
381.99012
 20
25.878924
 30
0.0
 40
2.849494
 41
0.0
 71
     1
 72
     2
  1
\fHGPGothicE|b0|i0|c128;\H2.8495;\C7;\U+5742
  7
STD
210
0.0
220
0.0
230
1.0
 11
1.0
 21
0.0
 31
0.0
 73
     1
 44
1.0
  0
MTEXT
  5
A5
100
AcDbEntity
  8
レイヤー_1
 62
     7
100
AcDbMText
 10
385.820033
 20
25.878924
 30
0.0
 40
2.849494
 41
0.0
 71
     1
 72
     2
  1
\fHGPGothicE|b0|i0|c128;\H2.8495;\C7;\U+FF12
  7
STD
210
0.0
220
0.0
230
1.0
 11
1.0
 21
0.0
 31
0.0
 73
     1
 44
1.0
  0
MTEXT
  5
A4
100
AcDbEntity
  8
レイヤー_1
 62
     7
100
AcDbMText
 10
388.2881
 20
25.878924
 30
0.0
 40
2.849494
 41
0.0
 71
     1
 72
     2
  1
\fHGPGothicE|b0|i0|c128;\H2.8495;\C7;\U+FF10
  7
STD
210
0.0
220
0.0
230
1.0
 11
1.0
 21
0.0
 31
0.0
 73
     1
 44
1.0
  0
MTEXT
  5
A3
100
AcDbEntity
  8
レイヤー_1
 62
     7
100
AcDbMText
 10
390.75651
 20
25.878924
 30
0.0
 40
2.849494
 41
0.0
 71
     1
 72
     2
  1
\fHGPGothicE|b0|i0|c128;\H2.8495;\C7;\U+002D
  7
STD
210
0.0
220
0.0
230
1.0
 11
1.0
 21
0.0
 31
0.0
 73
     1
 44
1.0
  0
MTEXT
  5
A2
100
AcDbEntity
  8
レイヤー_1
 62
     7
100
AcDbMText
 10
392.028095
 20
25.878924
 30
0.0
 40
2.849494
 41
0.0
 71
     1
 72
     2
  1
\fHGPGothicE|b0|i0|c128;\H2.8495;\C7;\U+FF11
  7
STD
210
0.0
220
0.0
230
1.0
 11
1.0
 21
0.0
 31
0.0
 73
     1
 44
1.0
  0
MTEXT
  5
A1
100
AcDbEntity
  8
レイヤー_1
 62
     7
100
AcDbMText
 10
347.522629
 20
21.343456
 30
0.0
 40
2.849494
 41
0.0
 71
     1
 72
     2
  1
\fHGPGothicE|b0|i0|c128;\H2.8495;\C7;\U+FF34
  7
STD
210
0.0
220
0.0
230
1.0
 11
1.0
 21
0.0
 31
0.0
 73
     1
 44
1.0
  0
MTEXT
  5
A0
100
AcDbEntity
  8
レイヤー_1
 62
     7
100
AcDbMText
 10
350.260791
 20
21.343456
 30
0.0
 40
2.849494
 41
0.0
 71
     1
 72
     2
  1
\fHGPGothicE|b0|i0|c128;\H2.8495;\C7;\U+FF25
  7
STD
210
0.0
220
0.0
230
1.0
 11
1.0
 21
0.0
 31
0.0
 73
     1
 44
1.0
  0
MTEXT
  5
9F
100
AcDbEntity
  8
レイヤー_1
 62
     7
100
AcDbMText
 10
353.029614
 20
21.343456
 30
0.0
 40
2.849494
 41
0.0
 71
     1
 72
     2
  1
\fHGPGothicE|b0|i0|c128;\H2.8495;\C7;\U+FF2C
  7
STD
210
0.0
220
0.0
230
1.0
 11
1.0
 21
0.0
 31
0.0
 73
     1
 44
1.0
  0
MTEXT
  5
9E
100
AcDbEntity
  8
レイヤー_1
 62
     7
100
AcDbMText
 10
355.634106
 20
21.343456
 30
0.0
 40
2.849494
 41
0.0
 71
     1
 72
     2
  1
\fHGPGothicE|b0|i0|c128;\H2.8495;\C7;\U+002E
  7
STD
210
0.0
220
0.0
230
1.0
 11
1.0
 21
0.0
 31
0.0
 73
     1
 44
1.0
  0
MTEXT
  5
9D
100
AcDbEntity
  8
レイヤー_1
 62
     7
100
AcDbMText
 10
356.488146
 20
21.343456
 30
0.0
 40
2.849494
 41
0.0
 71
     1
 72
     2
  1
\fHGPGothicE|b0|i0|c128;\H2.8495;\C7;\U+0020
  7
STD
210
0.0
220
0.0
230
1.0
 11
1.0
 21
0.0
 31
0.0
 73
     1
 44
1.0
  0
MTEXT
  5
9C
100
AcDbEntity
  8
レイヤー_1
 62
     7
100
AcDbMText
 10
357.759386
 20
21.343456
 30
0.0
 40
2.849494
 41
0.0
 71
     1
 72
     2
  1
\fHGPGothicE|b0|i0|c128;\H2.8495;\C7;\U+0020
  7
STD
210
0.0
220
0.0
230
1.0
 11
1.0
 21
0.0
 31
0.0
 73
     1
 44
1.0
  0
MTEXT
  5
9B
100
AcDbEntity
  8
レイヤー_1
 62
     7
100
AcDbMText
 10
347.522629
 20
16.808332
 30
0.0
 40
2.849494
 41
0.0
 71
     1
 72
     2
  1
\fHGPGothicE|b0|i0|c128;\H2.8495;\C7;\U+FF26
  7
STD
210
0.0
220
0.0
230
1.0
 11
1.0
 21
0.0
 31
0.0
 73
     1
 44
1.0
  0
MTEXT
  5
9A
100
AcDbEntity
  8
レイヤー_1
 62
     7
100
AcDbMText
 10
350.080957
 20
16.808332
 30
0.0
 40
2.849494
 41
0.0
 71
     1
 72
     2
  1
\fHGPGothicE|b0|i0|c128;\H2.8495;\C7;\U+FF21
  7
STD
210
0.0
220
0.0
230
1.0
 11
1.0
 21
0.0
 31
0.0
 73
     1
 44
1.0
  0
MTEXT
  5
99
100
AcDbEntity
  8
レイヤー_1
 62
     7
100
AcDbMText
 10
353.385837
 20
16.808332
 30
0.0
 40
2.849494
 41
0.0
 71
     1
 72
     2
  1
\fHGPGothicE|b0|i0|c128;\H2.8495;\C7;\U+FF38
  7
STD
210
0.0
220
0.0
230
1.0
 11
1.0
 21
0.0
 31
0.0
 73
     1
 44
1.0
  0
MTEXT
  5
98
100
AcDbEntity
  8
レイヤー_1
 62
     7
100
AcDbMText
 10
356.541545
 20
16.808332
 30
0.0
 40
2.849494
 41
0.0
 71
     1
 72
     2
  1
\fHGPGothicE|b0|i0|c128;\H2.8495;\C7;\U+002E
  7
STD
210
0.0
220
0.0
230
1.0
 11
1.0
 21
0.0
 31
0.0
 73
     1
 44
1.0
  0
MTEXT
  5
97
100
AcDbEntity
  8
レイヤー_1
 62
     7
100
AcDbMText
 10
357.395584
 20
16.808332
 30
0.0
 40
2.849494
 41
0.0
 71
     1
 72
     2
  1
\fHGPGothicE|b0|i0|c128;\H2.8495;\C7;\U+0020
  7
STD
210
0.0
220
0.0
230
1.0
 11
1.0
 21
0.0
 31
0.0
 73
     1
 44
1.0
  0
MTEXT
  5
96
100
AcDbEntity
  8
レイヤー_1
 62
     7
100
AcDbMText
 10
361.094238
 20
20.869755
 30
0.0
 40
2.849494
 41
0.0
 71
     1
 72
     2
  1
\fHGPGothicE|b0|i0|c128;\H2.8495;\C7;\U+FF10
  7
STD
210
0.0
220
0.0
230
1.0
 11
1.0
 21
0.0
 31
0.0
 73
     1
 44
1.0
  0
MTEXT
  5
95
100
AcDbEntity
  8
レイヤー_1
 62
     7
100
AcDbMText
 10
363.673581
 20
20.869755
 30
0.0
 40
2.849494
 41
0.0
 71
     1
 72
     2
  1
\fHGPGothicE|b0|i0|c128;\H2.8495;\C7;\U+FF17
  7
STD
210
0.0
220
0.0
230
1.0
 11
1.0
 21
0.0
 31
0.0
 73
     1
 44
1.0
  0
MTEXT
  5
94
100
AcDbEntity
  8
レイヤー_1
 62
     7
100
AcDbMText
 10
366.254647
 20
20.869755
 30
0.0
 40
2.849494
 41
0.0
 71
     1
 72
     2
  1
\fHGPGothicE|b0|i0|c128;\H2.8495;\C7;\U+FF13
  7
STD
210
0.0
220
0.0
230
1.0
 11
1.0
 21
0.0
 31
0.0
 73
     1
 44
1.0
  0
MTEXT
  5
93
100
AcDbEntity
  8
レイヤー_1
 62
     7
100
AcDbMText
 10
368.832612
 20
20.869755
 30
0.0
 40
2.849494
 41
0.0
 71
     1
 72
     2
  1
\fHGPGothicE|b0|i0|c128;\H2.8495;\C7;\U+002D
  7
STD
210
0.0
220
0.0
230
1.0
 11
1.0
 21
0.0
 31
0.0
 73
     1
 44
1.0
  0
MTEXT
  5
92
100
AcDbEntity
  8
レイヤー_1
 62
     7
100
AcDbMText
 10
370.215129
 20
20.869755
 30
0.0
 40
2.849494
 41
0.0
 71
     1
 72
     2
  1
\fHGPGothicE|b0|i0|c128;\H2.8495;\C7;\U+FF14
  7
STD
210
0.0
220
0.0
230
1.0
 11
1.0
 21
0.0
 31
0.0
 73
     1
 44
1.0
  0
MTEXT
  5
91
100
AcDbEntity
  8
レイヤー_1
 62
     7
100
AcDbMText
 10
372.794472
 20
20.869755
 30
0.0
 40
2.849494
 41
0.0
 71
     1
 72
     2
  1
\fHGPGothicE|b0|i0|c128;\H2.8495;\C7;\U+FF18
  7
STD
210
0.0
220
0.0
230
1.0
 11
1.0
 21
0.0
 31
0.0
 73
     1
 44
1.0
  0
MTEXT
  5
90
100
AcDbEntity
  8
レイヤー_1
 62
     7
100
AcDbMText
 10
375.375882
 20
20.869755
 30
0.0
 40
2.849494
 41
0.0
 71
     1
 72
     2
  1
\fHGPGothicE|b0|i0|c128;\H2.8495;\C7;\U+FF12
  7
STD
210
0.0
220
0.0
230
1.0
 11
1.0
 21
0.0
 31
0.0
 73
     1
 44
1.0
  0
MTEXT
  5
8F
100
AcDbEntity
  8
レイヤー_1
 62
     7
100
AcDbMText
 10
377.953502
 20
20.869755
 30
0.0
 40
2.849494
 41
0.0
 71
     1
 72
     2
  1
\fHGPGothicE|b0|i0|c128;\H2.8495;\C7;\U+002D
  7
STD
210
0.0
220
0.0
230
1.0
 11
1.0
 21
0.0
 31
0.0
 73
     1
 44
1.0
  0
MTEXT
  5
8E
100
AcDbEntity
  8
レイヤー_1
 62
     7
100
AcDbMText
 10
379.336019
 20
20.869755
 30
0.0
 40
2.849494
 41
0.0
 71
     1
 72
     2
  1
\fHGPGothicE|b0|i0|c128;\H2.8495;\C7;\U+FF14
  7
STD
210
0.0
220
0.0
230
1.0
 11
1.0
 21
0.0
 31
0.0
 73
     1
 44
1.0
  0
MTEXT
  5
8D
100
AcDbEntity
  8
レイヤー_1
 62
     7
100
AcDbMText
 10
381.917429
 20
20.869755
 30
0.0
 40
2.849494
 41
0.0
 71
     1
 72
     2
  1
\fHGPGothicE|b0|i0|c128;\H2.8495;\C7;\U+FF11
  7
STD
210
0.0
220
0.0
230
1.0
 11
1.0
 21
0.0
 31
0.0
 73
     1
 44
1.0
  0
MTEXT
  5
8C
100
AcDbEntity
  8
レイヤー_1
 62
     7
100
AcDbMText
 10
384.495049
 20
20.869755
 30
0.0
 40
2.849494
 41
0.0
 71
     1
 72
     2
  1
\fHGPGothicE|b0|i0|c128;\H2.8495;\C7;\U+FF12
  7
STD
210
0.0
220
0.0
230
1.0
 11
1.0
 21
0.0
 31
0.0
 73
     1
 44
1.0
  0
MTEXT
  5
8B
100
AcDbEntity
  8
レイヤー_1
 62
     7
100
AcDbMText
 10
387.074392
 20
20.869755
 30
0.0
 40
2.849494
 41
0.0
 71
     1
 72
     2
  1
\fHGPGothicE|b0|i0|c128;\H2.8495;\C7;\U+FF18
  7
STD
210
0.0
220
0.0
230
1.0
 11
1.0
 21
0.0
 31
0.0
 73
     1
 44
1.0
  0
MTEXT
  5
8A
100
AcDbEntity
  8
レイヤー_1
 62
     7
100
AcDbMText
 10
389.653735
 20
20.869755
 30
0.0
 40
2.849494
 41
0.0
 71
     1
 72
     2
  1
\fHGPGothicE|b0|i0|c128;\H2.8495;\C7;\U+FF08
  7
STD
210
0.0
220
0.0
230
1.0
 11
1.0
 21
0.0
 31
0.0
 73
     1
 44
1.0
  0
MTEXT
  5
89
100
AcDbEntity
  8
レイヤー_1
 62
     7
100
AcDbMText
 10
391.679796
 20
20.869755
 30
0.0
 40
2.849494
 41
0.0
 71
     1
 72
     2
  1
\fHGPGothicE|b0|i0|c128;\H2.8495;\C7;\U+4EE3
  7
STD
210
0.0
220
0.0
230
1.0
 11
1.0
 21
0.0
 31
0.0
 73
     1
 44
1.0
  0
MTEXT
  5
88
100
AcDbEntity
  8
レイヤー_1
 62
     7
100
AcDbMText
 10
395.620641
 20
20.869755
 30
0.0
 40
2.849494
 41
0.0
 71
     1
 72
     2
  1
\fHGPGothicE|b0|i0|c128;\H2.8495;\C7;\U+FF09
  7
STD
210
0.0
220
0.0
230
1.0
 11
1.0
 21
0.0
 31
0.0
 73
     1
 44
1.0
  0
MTEXT
  5
87
100
AcDbEntity
  8
レイヤー_1
 62
     7
100
AcDbMText
 10
361.094238
 20
16.334631
 30
0.0
 40
2.849494
 41
0.0
 71
     1
 72
     2
  1
\fHGPGothicE|b0|i0|c128;\H2.8495;\C7;\U+FF10
  7
STD
210
0.0
220
0.0
230
1.0
 11
1.0
 21
0.0
 31
0.0
 73
     1
 44
1.0
  0
MTEXT
  5
86
100
AcDbEntity
  8
レイヤー_1
 62
     7
100
AcDbMText
 10
363.673581
 20
16.334631
 30
0.0
 40
2.849494
 41
0.0
 71
     1
 72
     2
  1
\fHGPGothicE|b0|i0|c128;\H2.8495;\C7;\U+FF17
  7
STD
210
0.0
220
0.0
230
1.0
 11
1.0
 21
0.0
 31
0.0
 73
     1
 44
1.0
  0
MTEXT
  5
85
100
AcDbEntity
  8
レイヤー_1
 62
     7
100
AcDbMText
 10
366.254647
 20
16.334631
 30
0.0
 40
2.849494
 41
0.0
 71
     1
 72
     2
  1
\fHGPGothicE|b0|i0|c128;\H2.8495;\C7;\U+FF13
  7
STD
210
0.0
220
0.0
230
1.0
 11
1.0
 21
0.0
 31
0.0
 73
     1
 44
1.0
  0
MTEXT
  5
84
100
AcDbEntity
  8
レイヤー_1
 62
     7
100
AcDbMText
 10
368.832612
 20
16.334631
 30
0.0
 40
2.849494
 41
0.0
 71
     1
 72
     2
  1
\fHGPGothicE|b0|i0|c128;\H2.8495;\C7;\U+002D
  7
STD
210
0.0
220
0.0
230
1.0
 11
1.0
 21
0.0
 31
0.0
 73
     1
 44
1.0
  0
MTEXT
  5
83
100
AcDbEntity
  8
レイヤー_1
 62
     7
100
AcDbMText
 10
370.215129
 20
16.334631
 30
0.0
 40
2.849494
 41
0.0
 71
     1
 72
     2
  1
\fHGPGothicE|b0|i0|c128;\H2.8495;\C7;\U+FF14
  7
STD
210
0.0
220
0.0
230
1.0
 11
1.0
 21
0.0
 31
0.0
 73
     1
 44
1.0
  0
MTEXT
  5
82
100
AcDbEntity
  8
レイヤー_1
 62
     7
100
AcDbMText
 10
372.794472
 20
16.334631
 30
0.0
 40
2.849494
 41
0.0
 71
     1
 72
     2
  1
\fHGPGothicE|b0|i0|c128;\H2.8495;\C7;\U+FF18
  7
STD
210
0.0
220
0.0
230
1.0
 11
1.0
 21
0.0
 31
0.0
 73
     1
 44
1.0
  0
MTEXT
  5
81
100
AcDbEntity
  8
レイヤー_1
 62
     7
100
AcDbMText
 10
375.375882
 20
16.334631
 30
0.0
 40
2.849494
 41
0.0
 71
     1
 72
     2
  1
\fHGPGothicE|b0|i0|c128;\H2.8495;\C7;\U+FF16
  7
STD
210
0.0
220
0.0
230
1.0
 11
1.0
 21
0.0
 31
0.0
 73
     1
 44
1.0
  0
MTEXT
  5
80
100
AcDbEntity
  8
レイヤー_1
 62
     7
100
AcDbMText
 10
377.953502
 20
16.334631
 30
0.0
 40
2.849494
 41
0.0
 71
     1
 72
     2
  1
\fHGPGothicE|b0|i0|c128;\H2.8495;\C7;\U+002D
  7
STD
210
0.0
220
0.0
230
1.0
 11
1.0
 21
0.0
 31
0.0
 73
     1
 44
1.0
  0
MTEXT
  5
7F
100
AcDbEntity
  8
レイヤー_1
 62
     7
100
AcDbMText
 10
379.336019
 20
16.334631
 30
0.0
 40
2.849494
 41
0.0
 71
     1
 72
     2
  1
\fHGPGothicE|b0|i0|c128;\H2.8495;\C7;\U+FF12
  7
STD
210
0.0
220
0.0
230
1.0
 11
1.0
 21
0.0
 31
0.0
 73
     1
 44
1.0
  0
MTEXT
  5
7E
100
AcDbEntity
  8
レイヤー_1
 62
     7
100
AcDbMText
 10
381.917429
 20
16.334631
 30
0.0
 40
2.849494
 41
0.0
 71
     1
 72
     2
  1
\fHGPGothicE|b0|i0|c128;\H2.8495;\C7;\U+FF15
  7
STD
210
0.0
220
0.0
230
1.0
 11
1.0
 21
0.0
 31
0.0
 73
     1
 44
1.0
  0
MTEXT
  5
7D
100
AcDbEntity
  8
レイヤー_1
 62
     7
100
AcDbMText
 10
384.495049
 20
16.334631
 30
0.0
 40
2.849494
 41
0.0
 71
     1
 72
     2
  1
\fHGPGothicE|b0|i0|c128;\H2.8495;\C7;\U+FF16
  7
STD
210
0.0
220
0.0
230
1.0
 11
1.0
 21
0.0
 31
0.0
 73
     1
 44
1.0
  0
MTEXT
  5
7C
100
AcDbEntity
  8
レイヤー_1
 62
     7
100
AcDbMText
 10
387.074392
 20
16.334631
 30
0.0
 40
2.849494
 41
0.0
 71
     1
 72
     2
  1
\fHGPGothicE|b0|i0|c128;\H2.8495;\C7;\U+FF10
  7
STD
210
0.0
220
0.0
230
1.0
 11
1.0
 21
0.0
 31
0.0
 73
     1
 44
1.0
  0
MTEXT
  5
7B
100
AcDbEntity
  8
レイヤー_1
 62
     7
100
AcDbMText
 10
389.653735
 20
16.334631
 30
0.0
 40
2.849494
 41
0.0
 71
     1
 72
     2
  1
\fHGPGothicE|b0|i0|c128;\H2.8495;\C7;\U+FF08
  7
STD
210
0.0
220
0.0
230
1.0
 11
1.0
 21
0.0
 31
0.0
 73
     1
 44
1.0
  0
MTEXT
  5
7A
100
AcDbEntity
  8
レイヤー_1
 62
     7
100
AcDbMText
 10
391.679796
 20
16.334631
 30
0.0
 40
2.849494
 41
0.0
 71
     1
 72
     2
  1
\fHGPGothicE|b0|i0|c128;\H2.8495;\C7;\U+4EE3
  7
STD
210
0.0
220
0.0
230
1.0
 11
1.0
 21
0.0
 31
0.0
 73
     1
 44
1.0
  0
MTEXT
  5
79
100
AcDbEntity
  8
レイヤー_1
 62
     7
100
AcDbMText
 10
395.620641
 20
16.334631
 30
0.0
 40
2.849494
 41
0.0
 71
     1
 72
     2
  1
\fHGPGothicE|b0|i0|c128;\H2.8495;\C7;\U+FF09
  7
STD
210
0.0
220
0.0
230
1.0
 11
1.0
 21
0.0
 31
0.0
 73
     1
 44
1.0
  0
HATCH
  5
78
100
AcDbEntity
  8
レイヤー_1
 62
     7
100
AcDbHatch
 10
0.0
 20
0.0
 30
0.0
210
0.0
220
0.0
230
1.0
  2
SOLID
 70
     1
 71
     0
 91
        3
 92
        1
 93
        1
 72
     4
 94
        3
 73
     0
 74
     0
 95
       23
 96
       19
 40
0.0
 40
0.0
 40
0.0
 40
0.0
 40
1.0
 40
1.0
 40
1.0
 40
2.0
 40
2.0
 40
2.0
 40
3.0
 40
3.0
 40
3.0
 40
4.0
 40
4.0
 40
4.0
 40
5.0
 40
5.0
 40
5.0
 40
6.0
 40
6.0
 40
6.0
 40
6.0
 10
349.74264865451386
 20
30.684087456597219
 10
349.74264865451386
 20
30.684087456597219
 10
349.74264865451386
 20
29.858642578124996
 10
349.74264865451386
 20
29.858642578124996
 10
349.64205186631943
 20
29.988867187499999
 10
349.33268229166663
 20
30.39883355034722
 10
349.17834201388888
 20
30.778483072916664
 10
349.17834201388888
 20
30.778483072916664
 10
349.17834201388888
 20
31.039621310763884
 10
349.17834201388888
 20
31.039621310763884
 10
349.17834201388888
 20
31.039621310763884
 10
349.72404513888887
 20
31.039621310763884
 10
349.72404513888887
 20
31.039621310763884
 10
349.72404513888887
 20
31.039621310763884
 10
350.18155381944439
 20
30.684087456597219
 10
350.18155381944439
 20
30.684087456597219
 10
350.18155381944439
 20
30.684087456597219
 10
349.74264865451386
 20
30.684087456597219
 10
349.74264865451386
 20
30.684087456597219
 97
        0
 92
       16
 93
        1
 72
     4
 94
        3
 73
     0
 74
     0
 95
      128
 96
      124
 40
0.0
 40
0.0
 40
0.0
 40
0.0
 40
1.0
 40
1.0
 40
1.0
 40
2.0
 40
2.0
 40
2.0
 40
3.0
 40
3.0
 40
3.0
 40
4.0
 40
4.0
 40
4.0
 40
5.0
 40
5.0
 40
5.0
 40
6.0
 40
6.0
 40
6.0
 40
7.0
 40
7.0
 40
7.0
 40
8.0
 40
8.0
 40
8.0
 40
9.0
 40
9.0
 40
9.0
 40
10.0
 40
10.0
 40
10.0
 40
11.0
 40
11.0
 40
11.0
 40
12.0
 40
12.0
 40
12.0
 40
13.0
 40
13.0
 40
13.0
 40
14.0
 40
14.0
 40
14.0
 40
15.0
 40
15.0
 40
15.0
 40
16.0
 40
16.0
 40
16.0
 40
17.0
 40
17.0
 40
17.0
 40
18.0
 40
18.0
 40
18.0
 40
19.0
 40
19.0
 40
19.0
 40
20.0
 40
20.0
 40
20.0
 40
21.0
 40
21.0
 40
21.0
 40
22.0
 40
22.0
 40
22.0
 40
23.0
 40
23.0
 40
23.0
 40
24.0
 40
24.0
 40
24.0
 40
25.0
 40
25.0
 40
25.0
 40
26.0
 40
26.0
 40
26.0
 40
27.0
 40
27.0
 40
27.0
 40
28.0
 40
28.0
 40
28.0
 40
29.0
 40
29.0
 40
29.0
 40
30.0
 40
30.0
 40
30.0
 40
31.0
 40
31.0
 40
31.0
 40
32.0
 40
32.0
 40
32.0
 40
33.0
 40
33.0
 40
33.0
 40
34.0
 40
34.0
 40
34.0
 40
35.0
 40
35.0
 40
35.0
 40
36.0
 40
36.0
 40
36.0
 40
37.0
 40
37.0
 40
37.0
 40
38.0
 40
38.0
 40
38.0
 40
39.0
 40
39.0
 40
39.0
 40
40.0
 40
40.0
 40
40.0
 40
41.0
 40
41.0
 40
41.0
 40
41.0
 10
350.80442708333328
 20
32.090375434027777
 10
350.86506076388883
 20
32.357714843749996
 10
350.89399956597219
 20
32.505164930555551
 10
350.92362738715275
 20
32.654682074652776
 10
350.92362738715275
 20
32.654682074652776
 10
350.12229817708328
 20
32.725651041666666
 10
350.12229817708328
 20
32.725651041666666
 10
350.03961588541665
 20
32.113802083333333
 10
349.8549587673611
 20
31.704524739583331
 10
349.74264865451386
 20
31.490239800347219
 10
349.74264865451386
 20
31.490239800347219
 10
349.74264865451386
 20
31.858865017361108
 10
349.74264865451386
 20
31.858865017361108
 10
349.74264865451386
 20
31.858865017361108
 10
349.17834201388888
 20
31.858865017361108
 10
349.17834201388888
 20
31.858865017361108
 10
349.17834201388888
 20
31.858865017361108
 10
349.17834201388888
 20
32.837961154513884
 10
349.17834201388888
 20
32.837961154513884
 10
349.17834201388888
 20
32.837961154513884
 10
348.35978732638887
 20
32.837961154513884
 10
348.35978732638887
 20
32.837961154513884
 10
348.35978732638887
 20
32.837961154513884
 10
348.35978732638887
 20
31.858865017361108
 10
348.35978732638887
 20
31.858865017361108
 10
348.35978732638887
 20
31.858865017361108
 10
347.63493923611105
 20
31.858865017361108
 10
347.63493923611105
 20
31.858865017361108
 10
347.63493923611105
 20
31.858865017361108
 10
347.63493923611105
 20
31.039621310763884
 10
347.63493923611105
 20
31.039621310763884
 10
347.63493923611105
 20
31.039621310763884
 10
348.29433051215273
 20
31.039621310763884
 10
348.29433051215273
 20
31.039621310763884
 10
348.02699110243054
 20
30.108067491319442
 10
347.76585286458328
 20
29.71670464409722
 10
347.52262912326387
 20
29.413536241319441
 10
347.52262912326387
 20
29.413536241319441
 10
347.80168185763887
 20
28.244959852430554
 10
347.80168185763887
 20
28.244959852430554
 10
347.94430881076386
 20
28.451665581597219
 10
348.1634168836805
 20
28.789973958333331
 10
348.35978732638887
 20
29.466590711805551
 10
348.35978732638887
 20
29.466590711805551
 10
348.35978732638887
 20
27.216943359374998
 10
348.35978732638887
 20
27.216943359374998
 10
348.35978732638887
 20
27.216943359374998
 10
349.17834201388888
 20
27.216943359374998
 10
349.17834201388888
 20
27.216943359374998
 10
349.17834201388888
 20
27.216943359374998
 10
349.17834201388888
 20
29.692588975694441
 10
349.17834201388888
 20
29.692588975694441
 10
349.23759765624999
 20
29.450054253472221
 10
349.26791449652774
 20
29.324652777777775
 10
349.51665039062499
 20
28.861631944444444
 10
349.51665039062499
 20
28.861631944444444
 10
350.02790256076383
 20
29.538248697916664
 10
350.02790256076383
 20
29.538248697916664
 10
349.93833007812498
 20
29.620930989583332
 10
349.87356228298609
 20
29.687076822916666
 10
349.75436197916662
 20
29.834526909722218
 10
349.75436197916662
 20
29.834526909722218
 10
350.80442708333328
 20
29.834526909722218
 10
350.80442708333328
 20
29.834526909722218
 10
350.31866861979165
 20
28.949826388888887
 10
349.7130208333333
 20
28.540549045138885
 10
349.46910807291664
 20
28.386208767361108
 10
349.46910807291664
 20
28.386208767361108
 10
349.99138454861105
 20
27.549739583333331
 10
349.99138454861105
 20
27.549739583333331
 10
350.46611870659717
 20
27.983132595486108
 10
350.84094509548606
 20
28.487494574652775
 10
351.11310763888883
 20
29.075227864583329
 10
351.11310763888883
 20
29.075227864583329
 10
351.11310763888883
 20
27.216943359374998
 10
351.11310763888883
 20
27.216943359374998
 10
351.11310763888883
 20
27.216943359374998
 10
351.96197916666665
 20
27.216943359374998
 10
351.96197916666665
 20
27.216943359374998
 10
351.96197916666665
 20
27.216943359374998
 10
351.96197916666665
 20
28.939491102430551
 10
351.96197916666665
 20
28.939491102430551
 10
352.2114040798611
 20
28.411013454861109
 10
352.5504014756944
 20
27.923187934027776
 10
353.01342230902776
 20
27.560763888888886
 10
353.01342230902776
 20
27.560763888888886
 10
353.36275499131943
 20
28.564664713541664
 10
353.36275499131943
 20
28.564664713541664
 10
353.10161675347217
 20
28.742431640624996
 10
352.63859592013887
 20
29.075227864583329
 10
352.20589192708331
 20
29.834526909722218
 10
352.20589192708331
 20
29.834526909722218
 10
353.25595703124998
 20
29.834526909722218
 10
353.25595703124998
 20
29.834526909722218
 10
353.25595703124998
 20
29.834526909722218
 10
353.25595703124998
 20
30.684087456597219
 10
353.25595703124998
 20
30.684087456597219
 10
353.25595703124998
 20
30.684087456597219
 10
351.96197916666665
 20
30.684087456597219
 10
351.96197916666665
 20
30.684087456597219
 10
351.96197916666665
 20
30.684087456597219
 10
351.96197916666665
 20
31.247705078124998
 10
351.96197916666665
 20
31.247705078124998
 10
351.96197916666665
 20
31.247705078124998
 10
353.16707356770831
 20
31.247705078124998
 10
353.16707356770831
 20
31.247705078124998
 10
353.16707356770831
 20
31.247705078124998
 10
353.16707356770831
 20
32.090375434027777
 10
353.16707356770831
 20
32.090375434027777
 10
353.16707356770831
 20
32.090375434027777
 10
351.96197916666665
 20
32.090375434027777
 10
351.96197916666665
 20
32.090375434027777
 10
351.96197916666665
 20
32.090375434027777
 10
351.96197916666665
 20
32.837961154513884
 10
351.96197916666665
 20
32.837961154513884
 10
351.96197916666665
 20
32.837961154513884
 10
351.11310763888883
 20
32.837961154513884
 10
351.11310763888883
 20
32.837961154513884
 10
351.11310763888883
 20
32.837961154513884
 10
351.11310763888883
 20
32.090375434027777
 10
351.11310763888883
 20
32.090375434027777
 10
351.11310763888883
 20
32.090375434027777
 10
350.80442708333328
 20
32.090375434027777
 10
350.80442708333328
 20
32.090375434027777
 97
        0
 92
        1
 93
        1
 72
     4
 94
        3
 73
     0
 74
     0
 95
       17
 96
       13
 40
0.0
 40
0.0
 40
0.0
 40
0.0
 40
1.0
 40
1.0
 40
1.0
 40
2.0
 40
2.0
 40
2.0
 40
3.0
 40
3.0
 40
3.0
 40
4.0
 40
4.0
 40
4.0
 40
4.0
 10
350.25252278645831
 20
30.684087456597219
 10
350.34209526909717
 20
30.814312065972221
 10
350.44889322916663
 20
31.004481336805554
 10
350.5501790364583
 20
31.247705078124998
 10
350.5501790364583
 20
31.247705078124998
 10
351.11310763888883
 20
31.247705078124998
 10
351.11310763888883
 20
31.247705078124998
 10
351.11310763888883
 20
31.247705078124998
 10
351.11310763888883
 20
30.684087456597219
 10
351.11310763888883
 20
30.684087456597219
 10
351.11310763888883
 20
30.684087456597219
 10
350.25252278645831
 20
30.684087456597219
 10
350.25252278645831
 20
30.684087456597219
 97
        0
 75
     2
 76
     1
 98
        1
 10
0.0
 20
0.0
  0
HATCH
  5
77
100
AcDbEntity
  8
レイヤー_1
 62
     7
100
AcDbHatch
 10
0.0
 20
0.0
 30
0.0
210
0.0
220
0.0
230
1.0
  2
SOLID
 70
     1
 71
     0
 91
        2
 92
        1
 93
        1
 72
     4
 94
        3
 73
     0
 74
     0
 95
       71
 96
       67
 40
0.0
 40
0.0
 40
0.0
 40
0.0
 40
1.0
 40
1.0
 40
1.0
 40
2.0
 40
2.0
 40
2.0
 40
3.0
 40
3.0
 40
3.0
 40
4.0
 40
4.0
 40
4.0
 40
5.0
 40
5.0
 40
5.0
 40
6.0
 40
6.0
 40
6.0
 40
7.0
 40
7.0
 40
7.0
 40
8.0
 40
8.0
 40
8.0
 40
9.0
 40
9.0
 40
9.0
 40
10.0
 40
10.0
 40
10.0
 40
11.0
 40
11.0
 40
11.0
 40
12.0
 40
12.0
 40
12.0
 40
13.0
 40
13.0
 40
13.0
 40
14.0
 40
14.0
 40
14.0
 40
15.0
 40
15.0
 40
15.0
 40
16.0
 40
16.0
 40
16.0
 40
17.0
 40
17.0
 40
17.0
 40
18.0
 40
18.0
 40
18.0
 40
19.0
 40
19.0
 40
19.0
 40
20.0
 40
20.0
 40
20.0
 40
21.0
 40
21.0
 40
21.0
 40
22.0
 40
22.0
 40
22.0
 40
22.0
 10
358.62823893229165
 20
32.025607638888886
 10
358.62823893229165
 20
32.025607638888886
 10
359.1856553819444
 20
32.025607638888886
 10
359.1856553819444
 20
32.025607638888886
 10
359.1856553819444
 20
32.025607638888886
 10
359.1856553819444
 20
31.164333767361107
 10
359.1856553819444
 20
31.164333767361107
 10
359.1856553819444
 20
31.164333767361107
 10
357.53545464409717
 20
31.164333767361107
 10
357.53545464409717
 20
31.164333767361107
 10
357.57197265624995
 20
30.416059027777774
 10
357.65465494791664
 20
29.668473307291663
 10
357.89167751736107
 20
28.956716579861109
 10
357.95162217881943
 20
28.778949652777776
 10
358.11078559027777
 20
28.357269965277776
 10
358.28372938368051
 20
28.357269965277776
 10
358.44978298611107
 20
28.357269965277776
 10
358.76948784722219
 20
28.766547309027775
 10
358.90729166666665
 20
29.164111328124996
 10
358.90729166666665
 20
29.164111328124996
 10
359.28694118923607
 20
28.214643012152774
 10
359.28694118923607
 20
28.214643012152774
 10
359.16222873263888
 20
27.870133463541663
 10
358.85906032986105
 20
27.205919053819443
 10
358.30784505208328
 20
27.205919053819443
 10
358.02879231770828
 20
27.205919053819443
 10
357.7435384114583
 20
27.359570312499997
 10
357.58299696180552
 20
27.538715277777776
 10
356.72241210937494
 20
28.487494574652775
 10
356.66315646701383
 20
30.209353298611109
 10
356.6280164930555
 20
31.164333767361107
 10
356.6280164930555
 20
31.164333767361107
 10
353.5887532552083
 20
31.164333767361107
 10
353.5887532552083
 20
31.164333767361107
 10
353.5887532552083
 20
31.164333767361107
 10
353.5887532552083
 20
32.025607638888886
 10
353.5887532552083
 20
32.025607638888886
 10
353.5887532552083
 20
32.025607638888886
 10
356.59838867187494
 20
32.025607638888886
 10
356.59838867187494
 20
32.025607638888886
 10
356.59218749999997
 20
32.113802083333333
 10
356.58047417534721
 20
32.547884114583333
 10
356.57427300347217
 20
32.642279730902771
 10
356.57427300347217
 20
32.696023220486111
 10
356.57427300347217
 20
32.742876519097216
 10
356.56807183159719
 20
32.849674479166666
 10
356.56807183159719
 20
32.849674479166666
 10
357.51822916666663
 20
32.849674479166666
 10
357.51822916666663
 20
32.849674479166666
 10
357.51202799479165
 20
32.381830512152774
 10
357.51202799479165
 20
32.244715711805554
 10
357.51822916666663
 20
32.025607638888886
 10
357.51822916666663
 20
32.025607638888886
 10
358.09976128472221
 20
32.025607638888886
 10
358.09976128472221
 20
32.025607638888886
 10
357.9454210069444
 20
32.250916883680553
 10
357.81450737847217
 20
32.441086154513883
 10
357.6663682725694
 20
32.576822916666664
 10
357.6663682725694
 20
32.576822916666664
 10
358.43255750868053
 20
32.886192491319441
 10
358.43255750868053
 20
32.886192491319441
 10
358.52075195312494
 20
32.820046657986111
 10
358.59792209201385
 20
32.766303168402771
 10
359.00857747395833
 20
32.191661241319444
 10
359.00857747395833
 20
32.191661241319444
 10
358.62823893229165
 20
32.025607638888886
 10
358.62823893229165
 20
32.025607638888886
 97
        0
 92
        1
 93
        1
 72
     4
 94
        3
 73
     0
 74
     0
 95
       44
 96
       40
 40
0.0
 40
0.0
 40
0.0
 40
0.0
 40
1.0
 40
1.0
 40
1.0
 40
2.0
 40
2.0
 40
2.0
 40
3.0
 40
3.0
 40
3.0
 40
4.0
 40
4.0
 40
4.0
 40
5.0
 40
5.0
 40
5.0
 40
6.0
 40
6.0
 40
6.0
 40
7.0
 40
7.0
 40
7.0
 40
8.0
 40
8.0
 40
8.0
 40
9.0
 40
9.0
 40
9.0
 40
10.0
 40
10.0
 40
10.0
 40
11.0
 40
11.0
 40
11.0
 40
12.0
 40
12.0
 40
12.0
 40
13.0
 40
13.0
 40
13.0
 40
13.0
 10
353.53569878472217
 20
28.279410807291665
 10
353.64800889756941
 20
28.285611979166664
 10
353.70726453993052
 20
28.285611979166664
 10
353.78443467881942
 20
28.291813151041666
 10
353.90914713541662
 20
28.298014322916664
 10
354.50859374999999
 20
28.351068793402774
 10
354.64570855034719
 20
28.357269965277776
 10
354.64570855034719
 20
28.357269965277776
 10
354.64570855034719
 20
29.786984592013887
 10
354.64570855034719
 20
29.786984592013887
 10
354.64570855034719
 20
29.786984592013887
 10
353.70106336805554
 20
29.786984592013887
 10
353.70106336805554
 20
29.786984592013887
 10
353.70106336805554
 20
29.786984592013887
 10
353.70106336805554
 20
30.647569444444443
 10
353.70106336805554
 20
30.647569444444443
 10
353.70106336805554
 20
30.647569444444443
 10
356.47918836805553
 20
30.647569444444443
 10
356.47918836805553
 20
30.647569444444443
 10
356.47918836805553
 20
30.647569444444443
 10
356.47918836805553
 20
29.786984592013887
 10
356.47918836805553
 20
29.786984592013887
 10
356.47918836805553
 20
29.786984592013887
 10
355.55314670138887
 20
29.786984592013887
 10
355.55314670138887
 20
29.786984592013887
 10
355.55314670138887
 20
29.786984592013887
 10
355.55314670138887
 20
28.434440104166665
 10
355.55314670138887
 20
28.434440104166665
 10
356.22356228298605
 20
28.499207899305553
 10
356.46747504340277
 20
28.546750217013887
 10
356.68727213541661
 20
28.588091362847219
 10
356.68727213541661
 20
28.588091362847219
 10
356.69829644097217
 20
27.745421006944444
 10
356.69829644097217
 20
27.745421006944444
 10
356.02236870659721
 20
27.602794053819441
 10
355.64823133680551
 20
27.560763888888886
 10
353.63629557291665
 20
27.347856987847219
 10
353.63629557291665
 20
27.347856987847219
 10
353.53569878472217
 20
28.279410807291665
 10
353.53569878472217
 20
28.279410807291665
 97
        0
 75
     2
 76
     1
 98
        1
 10
0.0
 20
0.0
  0
HATCH
  5
76
100
AcDbEntity
  8
レイヤー_1
 62
     7
100
AcDbHatch
 10
0.0
 20
0.0
 30
0.0
210
0.0
220
0.0
230
1.0
  2
SOLID
 70
     1
 71
     0
 91
        4
 92
        1
 93
        1
 72
     4
 94
        3
 73
     0
 74
     0
 95
       23
 96
       19
 40
0.0
 40
0.0
 40
0.0
 40
0.0
 40
1.0
 40
1.0
 40
1.0
 40
2.0
 40
2.0
 40
2.0
 40
3.0
 40
3.0
 40
3.0
 40
4.0
 40
4.0
 40
4.0
 40
5.0
 40
5.0
 40
5.0
 40
6.0
 40
6.0
 40
6.0
 40
6.0
 10
362.92496202256939
 20
28.933289930555553
 10
363.06758897569443
 20
28.760346137152776
 10
363.17507595486109
 20
28.630121527777774
 10
363.41209852430552
 20
28.315239800347218
 10
363.22124023437499
 20
28.309727647569442
 10
362.28486328124995
 20
28.267697482638887
 10
362.07609049479163
 20
28.255984157986109
 10
361.96998155381942
 20
28.25047200520833
 10
361.92243923611107
 20
28.25047200520833
 10
361.49455837673605
 20
28.25047200520833
 10
361.67232530381943
 20
28.606005859374996
 10
361.79152560763885
 20
28.874034288194441
 10
361.95757921006941
 20
29.26470811631944
 10
361.95757921006941
 20
29.26470811631944
 10
363.62569444444443
 20
29.26470811631944
 10
363.62569444444443
 20
29.26470811631944
 10
363.62569444444443
 20
29.26470811631944
 10
362.92496202256939
 20
28.933289930555553
 10
362.92496202256939
 20
28.933289930555553
 97
        0
 92
       16
 93
        1
 72
     4
 94
        3
 73
     0
 74
     0
 95
       44
 96
       40
 40
0.0
 40
0.0
 40
0.0
 40
0.0
 40
1.0
 40
1.0
 40
1.0
 40
2.0
 40
2.0
 40
2.0
 40
3.0
 40
3.0
 40
3.0
 40
4.0
 40
4.0
 40
4.0
 40
5.0
 40
5.0
 40
5.0
 40
6.0
 40
6.0
 40
6.0
 40
7.0
 40
7.0
 40
7.0
 40
8.0
 40
8.0
 40
8.0
 40
9.0
 40
9.0
 40
9.0
 40
10.0
 40
10.0
 40
10.0
 40
11.0
 40
11.0
 40
11.0
 40
12.0
 40
12.0
 40
12.0
 40
13.0
 40
13.0
 40
13.0
 40
13.0
 10
365.0147569444444
 20
27.614507378472219
 10
364.6585340711805
 20
28.178814019097221
 10
364.28439670138886
 20
28.707291666666663
 10
363.76763237847217
 20
29.26470811631944
 10
363.76763237847217
 20
29.26470811631944
 10
364.99615342881941
 20
29.26470811631944
 10
364.99615342881941
 20
29.26470811631944
 10
364.99615342881941
 20
29.26470811631944
 10
364.99615342881941
 20
30.11978081597222
 10
364.99615342881941
 20
30.11978081597222
 10
364.99615342881941
 20
30.11978081597222
 10
359.64316406249998
 20
30.11978081597222
 10
359.64316406249998
 20
30.11978081597222
 10
359.64316406249998
 20
30.11978081597222
 10
359.64316406249998
 20
29.26470811631944
 10
359.64316406249998
 20
29.26470811631944
 10
359.64316406249998
 20
29.26470811631944
 10
360.96608072916661
 20
29.26470811631944
 10
360.96608072916661
 20
29.26470811631944
 10
360.84205729166661
 20
28.87954644097222
 10
360.7049424913194
 20
28.559152560763888
 10
360.55749240451388
 20
28.244959852430554
 10
360.45069444444442
 20
28.244959852430554
 10
359.98698459201387
 20
28.238069661458329
 10
359.89189995659717
 20
28.238069661458329
 10
359.84504665798607
 20
28.238069661458329
 10
359.80301649305551
 20
28.238069661458329
 10
359.6838161892361
 20
28.244959852430554
 10
359.6838161892361
 20
28.244959852430554
 10
359.82713216145828
 20
27.324430338541664
 10
359.82713216145828
 20
27.324430338541664
 10
361.17416449652774
 20
27.365771484374996
 10
361.38224826388887
 20
27.383685980902776
 10
363.91646050347219
 20
27.585568576388887
 10
364.02877061631943
 20
27.400911458333329
 10
364.08251410590276
 20
27.312027994791663
 10
364.15968424479161
 20
27.163888888888888
 10
364.15968424479161
 20
27.163888888888888
 10
365.0147569444444
 20
27.614507378472219
 10
365.0147569444444
 20
27.614507378472219
 97
        0
 92
       16
 93
        1
 72
     4
 94
        3
 73
     0
 74
     0
 95
       35
 96
       31
 40
0.0
 40
0.0
 40
0.0
 40
0.0
 40
1.0
 40
1.0
 40
1.0
 40
2.0
 40
2.0
 40
2.0
 40
3.0
 40
3.0
 40
3.0
 40
4.0
 40
4.0
 40
4.0
 40
5.0
 40
5.0
 40
5.0
 40
6.0
 40
6.0
 40
6.0
 40
7.0
 40
7.0
 40
7.0
 40
8.0
 40
8.0
 40
8.0
 40
9.0
 40
9.0
 40
9.0
 40
10.0
 40
10.0
 40
10.0
 40
10.0
 10
360.74697265624997
 20
30.53594835069444
 10
360.74697265624997
 20
30.53594835069444
 10
363.90474717881943
 20
30.53594835069444
 10
363.90474717881943
 20
30.53594835069444
 10
363.90474717881943
 20
30.53594835069444
 10
363.90474717881943
 20
30.897683376736108
 10
363.90474717881943
 20
30.897683376736108
 10
364.32642686631942
 20
30.642746310763886
 10
364.58136393229165
 20
30.529747178819441
 10
364.78875868055553
 20
30.439485677083329
 10
364.78875868055553
 20
30.439485677083329
 10
365.25246853298609
 20
31.336588541666664
 10
365.25246853298609
 20
31.336588541666664
 10
364.35054253472219
 20
31.675585937499996
 10
363.4954698350694
 20
32.155143229166661
 10
362.86639539930553
 20
32.886192491319441
 10
362.86639539930553
 20
32.886192491319441
 10
361.80944010416664
 20
32.886192491319441
 10
361.80944010416664
 20
32.886192491319441
 10
361.42979058159722
 20
32.350824652777774
 10
360.77108832465274
 20
31.865066189236106
 10
359.39373914930553
 20
31.324186197916664
 10
359.39373914930553
 20
31.324186197916664
 10
359.84504665798607
 20
30.422949218749999
 10
359.84504665798607
 20
30.422949218749999
 10
360.0228135850694
 20
30.493229166666662
 10
360.28326280381941
 20
30.594514973958329
 10
360.74697265624997
 20
30.873567708333329
 10
360.74697265624997
 20
30.873567708333329
 10
360.74697265624997
 20
30.53594835069444
 10
360.74697265624997
 20
30.53594835069444
 97
        0
 92
        1
 93
        1
 72
     4
 94
        3
 73
     0
 74
     0
 95
       14
 96
       10
 40
0.0
 40
0.0
 40
0.0
 40
0.0
 40
1.0
 40
1.0
 40
1.0
 40
2.0
 40
2.0
 40
2.0
 40
3.0
 40
3.0
 40
3.0
 40
3.0
 10
361.41738823784721
 20
31.330387369791662
 10
361.98100585937499
 20
31.758268229166664
 10
362.18357747395828
 20
31.983577473958331
 10
362.3324055989583
 20
32.166856553819443
 10
362.50948350694443
 20
31.971864149305553
 10
362.74099392361109
 20
31.722439236111107
 10
363.25775824652777
 20
31.330387369791662
 10
363.25775824652777
 20
31.330387369791662
 10
361.41738823784721
 20
31.330387369791662
 10
361.41738823784721
 20
31.330387369791662
 97
        0
 75
     2
 76
     1
 98
        1
 10
0.0
 20
0.0
  0
HATCH
  5
75
100
AcDbEntity
  8
レイヤー_1
 62
     7
100
AcDbHatch
 10
0.0
 20
0.0
 30
0.0
210
0.0
220
0.0
230
1.0
  2
SOLID
 70
     1
 71
     0
 91
        2
 92
        1
 93
        1
 72
     4
 94
        3
 73
     0
 74
     0
 95
       59
 96
       55
 40
0.0
 40
0.0
 40
0.0
 40
0.0
 40
1.0
 40
1.0
 40
1.0
 40
2.0
 40
2.0
 40
2.0
 40
3.0
 40
3.0
 40
3.0
 40
4.0
 40
4.0
 40
4.0
 40
5.0
 40
5.0
 40
5.0
 40
6.0
 40
6.0
 40
6.0
 40
7.0
 40
7.0
 40
7.0
 40
8.0
 40
8.0
 40
8.0
 40
9.0
 40
9.0
 40
9.0
 40
10.0
 40
10.0
 40
10.0
 40
11.0
 40
11.0
 40
11.0
 40
12.0
 40
12.0
 40
12.0
 40
13.0
 40
13.0
 40
13.0
 40
14.0
 40
14.0
 40
14.0
 40
15.0
 40
15.0
 40
15.0
 40
16.0
 40
16.0
 40
16.0
 40
17.0
 40
17.0
 40
17.0
 40
18.0
 40
18.0
 40
18.0
 40
18.0
 10
367.10937499999994
 20
27.211431206597219
 10
367.10937499999994
 20
27.211431206597219
 10
366.2081380208333
 20
27.211431206597219
 10
366.2081380208333
 20
27.211431206597219
 10
366.2081380208333
 20
27.211431206597219
 10
366.2081380208333
 20
29.194428168402776
 10
366.2081380208333
 20
29.194428168402776
 10
365.96422526041664
 20
28.986344401041663
 10
365.79817165798607
 20
28.867144097222219
 10
365.57768554687499
 20
28.719694010416664
 10
365.57768554687499
 20
28.719694010416664
 10
365.35306532118051
 20
29.76975911458333
 10
365.35306532118051
 20
29.76975911458333
 10
366.01727973090277
 20
30.167323133680554
 10
366.56367187499995
 20
30.80190972222222
 10
366.75935329861107
 20
31.193961588541665
 10
366.75935329861107
 20
31.193961588541665
 10
365.45986328124997
 20
31.193961588541665
 10
365.45986328124997
 20
31.193961588541665
 10
365.45986328124997
 20
31.193961588541665
 10
365.45986328124997
 20
32.025607638888886
 10
365.45986328124997
 20
32.025607638888886
 10
365.45986328124997
 20
32.025607638888886
 10
366.2081380208333
 20
32.025607638888886
 10
366.2081380208333
 20
32.025607638888886
 10
366.2081380208333
 20
32.025607638888886
 10
366.2081380208333
 20
32.844162326388883
 10
366.2081380208333
 20
32.844162326388883
 10
366.2081380208333
 20
32.844162326388883
 10
367.10937499999994
 20
32.844162326388883
 10
367.10937499999994
 20
32.844162326388883
 10
367.10937499999994
 20
32.844162326388883
 10
367.10937499999994
 20
32.025607638888886
 10
367.10937499999994
 20
32.025607638888886
 10
367.10937499999994
 20
32.025607638888886
 10
367.71502278645829
 20
32.025607638888886
 10
367.71502278645829
 20
32.025607638888886
 10
367.71502278645829
 20
32.025607638888886
 10
367.71502278645829
 20
31.188449435763886
 10
367.71502278645829
 20
31.188449435763886
 10
367.62682834201388
 20
30.974853515624996
 10
367.51314019097219
 20
30.719227430555552
 10
367.24648980034721
 20
30.333376736111109
 10
367.5730848524305
 20
29.971641710069441
 10
367.86385091145831
 20
29.799386935763888
 10
368.0533311631944
 20
29.692588975694441
 10
368.0533311631944
 20
29.692588975694441
 10
367.60822482638883
 20
28.849918619791666
 10
367.60822482638883
 20
28.849918619791666
 10
367.43597005208329
 20
29.009771050347219
 10
367.29954427083328
 20
29.152398003472218
 10
367.10937499999994
 20
29.419048394097221
 10
367.10937499999994
 20
29.419048394097221
 10
367.10937499999994
 20
27.211431206597219
 10
367.10937499999994
 20
27.211431206597219
 97
        0
 92
        1
 93
        1
 72
     4
 94
        3
 73
     0
 74
     0
 95
       53
 96
       49
 40
0.0
 40
0.0
 40
0.0
 40
0.0
 40
1.0
 40
1.0
 40
1.0
 40
2.0
 40
2.0
 40
2.0
 40
3.0
 40
3.0
 40
3.0
 40
4.0
 40
4.0
 40
4.0
 40
5.0
 40
5.0
 40
5.0
 40
6.0
 40
6.0
 40
6.0
 40
7.0
 40
7.0
 40
7.0
 40
8.0
 40
8.0
 40
8.0
 40
9.0
 40
9.0
 40
9.0
 40
10.0
 40
10.0
 40
10.0
 40
11.0
 40
11.0
 40
11.0
 40
12.0
 40
12.0
 40
12.0
 40
13.0
 40
13.0
 40
13.0
 40
14.0
 40
14.0
 40
14.0
 40
15.0
 40
15.0
 40
15.0
 40
16.0
 40
16.0
 40
16.0
 40
16.0
 10
368.87257486979161
 20
32.837961154513884
 10
368.87257486979161
 20
32.837961154513884
 10
369.79930555555552
 20
32.837961154513884
 10
369.79930555555552
 20
32.837961154513884
 10
369.79930555555552
 20
32.837961154513884
 10
369.79930555555552
 20
31.366905381944441
 10
369.79930555555552
 20
31.366905381944441
 10
369.79930555555552
 20
31.366905381944441
 10
370.94996744791661
 20
31.366905381944441
 10
370.94996744791661
 20
31.366905381944441
 10
370.94996744791661
 20
31.366905381944441
 10
370.94996744791661
 20
30.45188802083333
 10
370.94996744791661
 20
30.45188802083333
 10
370.94996744791661
 20
30.45188802083333
 10
369.79930555555552
 20
30.45188802083333
 10
369.79930555555552
 20
30.45188802083333
 10
369.79930555555552
 20
30.45188802083333
 10
369.79930555555552
 20
28.279410807291665
 10
369.79930555555552
 20
28.279410807291665
 10
369.79930555555552
 20
28.279410807291665
 10
371.03885091145833
 20
28.279410807291665
 10
371.03885091145833
 20
28.279410807291665
 10
371.03885091145833
 20
28.279410807291665
 10
371.03885091145833
 20
27.377484809027774
 10
371.03885091145833
 20
27.377484809027774
 10
371.03885091145833
 20
27.377484809027774
 10
367.51314019097219
 20
27.377484809027774
 10
367.51314019097219
 20
27.377484809027774
 10
367.51314019097219
 20
27.377484809027774
 10
367.51314019097219
 20
28.279410807291665
 10
367.51314019097219
 20
28.279410807291665
 10
367.51314019097219
 20
28.279410807291665
 10
368.87257486979161
 20
28.279410807291665
 10
368.87257486979161
 20
28.279410807291665
 10
368.87257486979161
 20
28.279410807291665
 10
368.87257486979161
 20
30.45188802083333
 10
368.87257486979161
 20
30.45188802083333
 10
368.87257486979161
 20
30.45188802083333
 10
367.80321723090276
 20
30.45188802083333
 10
367.80321723090276
 20
30.45188802083333
 10
367.80321723090276
 20
30.45188802083333
 10
367.80321723090276
 20
31.366905381944441
 10
367.80321723090276
 20
31.366905381944441
 10
367.80321723090276
 20
31.366905381944441
 10
368.87257486979161
 20
31.366905381944441
 10
368.87257486979161
 20
31.366905381944441
 10
368.87257486979161
 20
31.366905381944441
 10
368.87257486979161
 20
32.837961154513884
 10
368.87257486979161
 20
32.837961154513884
 97
        0
 75
     2
 76
     1
 98
        1
 10
0.0
 20
0.0
  0
HATCH
  5
74
100
AcDbEntity
  8
レイヤー_1
 62
     7
100
AcDbHatch
 10
0.0
 20
0.0
 30
0.0
210
0.0
220
0.0
230
1.0
  2
SOLID
 70
     1
 71
     0
 91
        1
 92
        1
 93
        1
 72
     4
 94
        3
 73
     0
 74
     0
 95
       47
 96
       43
 40
0.0
 40
0.0
 40
0.0
 40
0.0
 40
1.0
 40
1.0
 40
1.0
 40
2.0
 40
2.0
 40
2.0
 40
3.0
 40
3.0
 40
3.0
 40
4.0
 40
4.0
 40
4.0
 40
5.0
 40
5.0
 40
5.0
 40
6.0
 40
6.0
 40
6.0
 40
7.0
 40
7.0
 40
7.0
 40
8.0
 40
8.0
 40
8.0
 40
9.0
 40
9.0
 40
9.0
 40
10.0
 40
10.0
 40
10.0
 40
11.0
 40
11.0
 40
11.0
 40
12.0
 40
12.0
 40
12.0
 40
13.0
 40
13.0
 40
13.0
 40
14.0
 40
14.0
 40
14.0
 40
14.0
 10
373.54963650173607
 20
30.624142795138887
 10
374.01334635416663
 20
30.434662543402776
 10
374.35716688368052
 20
30.262407769097219
 10
374.7836697048611
 20
29.941324869791664
 10
375.03378363715274
 20
30.292035590277774
 10
375.19432508680552
 20
30.630343967013886
 10
375.3417751736111
 20
31.152620442708329
 10
375.3417751736111
 20
31.152620442708329
 10
373.62680664062498
 20
31.152620442708329
 10
373.62680664062498
 20
31.152620442708329
 10
373.15276150173605
 20
30.553173828124997
 10
372.63530815972217
 20
30.10186631944444
 10
372.02483723958329
 20
29.751844618055554
 10
372.02483723958329
 20
29.751844618055554
 10
371.41918945312494
 20
30.439485677083329
 10
371.41918945312494
 20
30.439485677083329
 10
372.51748589409721
 20
31.02790798611111
 10
373.04596354166665
 20
31.751378038194442
 10
373.43112521701386
 20
32.742876519097216
 10
373.43112521701386
 20
32.742876519097216
 10
374.44605034722218
 20
32.611962890624994
 10
374.44605034722218
 20
32.611962890624994
 10
374.37439236111106
 20
32.399055989583331
 10
374.32753906249997
 20
32.286056857638883
 10
374.19662543402774
 20
32.019406467013887
 10
374.19662543402774
 20
32.019406467013887
 10
376.51172960069442
 20
32.019406467013887
 10
376.51172960069442
 20
32.019406467013887
 10
376.10796440972217
 20
29.460389539930553
 10
374.7664442274305
 20
27.976931423611109
 10
372.29148763020828
 20
27.394710286458331
 10
372.29148763020828
 20
27.394710286458331
 10
371.78712565104161
 20
28.244959852430554
 10
371.78712565104161
 20
28.244959852430554
 10
372.16677517361109
 20
28.309727647569442
 10
373.09901801215273
 20
28.464067925347219
 10
374.09602864583331
 20
29.235080295138886
 10
373.57926432291663
 20
29.651247829861109
 10
373.16378580729162
 20
29.858642578124996
 10
372.92056206597221
 20
29.982666015624996
 10
372.92056206597221
 20
29.982666015624996
 10
373.54963650173607
 20
30.624142795138887
 10
373.54963650173607
 20
30.624142795138887
 97
        0
 75
     2
 76
     1
 98
        1
 10
0.0
 20
0.0
  0
HATCH
  5
73
100
AcDbEntity
  8
レイヤー_1
 62
     7
100
AcDbHatch
 10
0.0
 20
0.0
 30
0.0
210
0.0
220
0.0
230
1.0
  2
SOLID
 70
     1
 71
     0
 91
        1
 92
        1
 93
        1
 72
     4
 94
        3
 73
     0
 74
     0
 95
       68
 96
       64
 40
0.0
 40
0.0
 40
0.0
 40
0.0
 40
1.0
 40
1.0
 40
1.0
 40
2.0
 40
2.0
 40
2.0
 40
3.0
 40
3.0
 40
3.0
 40
4.0
 40
4.0
 40
4.0
 40
5.0
 40
5.0
 40
5.0
 40
6.0
 40
6.0
 40
6.0
 40
7.0
 40
7.0
 40
7.0
 40
8.0
 40
8.0
 40
8.0
 40
9.0
 40
9.0
 40
9.0
 40
10.0
 40
10.0
 40
10.0
 40
11.0
 40
11.0
 40
11.0
 40
12.0
 40
12.0
 40
12.0
 40
13.0
 40
13.0
 40
13.0
 40
14.0
 40
14.0
 40
14.0
 40
15.0
 40
15.0
 40
15.0
 40
16.0
 40
16.0
 40
16.0
 40
17.0
 40
17.0
 40
17.0
 40
18.0
 40
18.0
 40
18.0
 40
19.0
 40
19.0
 40
19.0
 40
20.0
 40
20.0
 40
20.0
 40
21.0
 40
21.0
 40
21.0
 40
21.0
 10
382.05006510416661
 20
31.628043619791665
 10
382.05006510416661
 20
31.628043619791665
 10
382.05006510416661
 20
30.719227430555552
 10
382.05006510416661
 20
30.719227430555552
 10
382.05006510416661
 20
30.090152994791662
 10
381.99632161458328
 20
28.87954644097222
 10
381.88883463541663
 20
28.404812282986107
 10
381.69384223090276
 20
27.544227430555551
 10
381.19499240451387
 20
27.467057291666663
 10
380.66651475694442
 20
27.467057291666663
 10
380.08498263888885
 20
27.467057291666663
 10
379.79352756076383
 20
27.531825086805554
 10
379.63987630208328
 20
27.567654079861107
 10
379.63987630208328
 20
27.567654079861107
 10
379.58682183159721
 20
28.499207899305553
 10
379.58682183159721
 20
28.499207899305553
 10
379.80592990451385
 20
28.458555772569444
 10
380.13872612847217
 20
28.398611111111109
 10
380.49425998263888
 20
28.398611111111109
 10
380.77882486979161
 20
28.398611111111109
 10
380.8918240017361
 20
28.464067925347219
 10
380.9517686631944
 20
28.623920355902776
 10
381.05167643229163
 20
28.944314236111108
 10
381.09921874999998
 20
30.285145399305552
 10
381.09921874999998
 20
30.428461371527774
 10
381.09921874999998
 20
30.428461371527774
 10
381.09921874999998
 20
30.737830946180551
 10
381.09921874999998
 20
30.737830946180551
 10
381.09921874999998
 20
30.737830946180551
 10
379.80592990451385
 20
30.737830946180551
 10
379.80592990451385
 20
30.737830946180551
 10
379.68121744791665
 20
30.012982855902774
 10
379.48553602430553
 20
29.49070638020833
 10
379.25953776041661
 20
29.075227864583329
 10
378.71383463541662
 20
28.065814887152776
 10
377.98967556423605
 20
27.614507378472219
 10
377.69270833333331
 20
27.430539279513887
 10
377.69270833333331
 20
27.430539279513887
 10
377.03951822916662
 20
28.149186197916663
 10
377.03951822916662
 20
28.149186197916663
 10
378.2391004774305
 20
28.813400607638886
 10
378.60634765624997
 20
29.562364366319443
 10
378.81994357638888
 20
30.737830946180551
 10
378.81994357638888
 20
30.737830946180551
 10
377.31857096354162
 20
30.737830946180551
 10
377.31857096354162
 20
30.737830946180551
 10
377.31857096354162
 20
30.737830946180551
 10
377.31857096354162
 20
31.628043619791665
 10
377.31857096354162
 20
31.628043619791665
 10
377.31857096354162
 20
31.628043619791665
 10
378.92743055555553
 20
31.628043619791665
 10
378.92743055555553
 20
31.628043619791665
 10
378.95636935763883
 20
32.025607638888886
 10
378.96325954861106
 20
32.274343532986109
 10
378.96325954861106
 20
32.654682074652776
 10
378.96325954861106
 20
32.654682074652776
 10
379.96578233506943
 20
32.642279730902771
 10
379.96578233506943
 20
32.642279730902771
 10
379.94786783854164
 20
32.131716579861106
 10
379.9306423611111
 20
31.924321831597219
 10
379.90721571180552
 20
31.628043619791665
 10
379.90721571180552
 20
31.628043619791665
 10
382.05006510416661
 20
31.628043619791665
 10
382.05006510416661
 20
31.628043619791665
 97
        0
 75
     2
 76
     1
 98
        1
 10
0.0
 20
0.0
  0
HATCH
  5
72
100
AcDbEntity
  8
レイヤー_1
 62
     7
100
AcDbHatch
 10
0.0
 20
0.0
 30
0.0
210
0.0
220
0.0
230
1.0
  2
SOLID
 70
     1
 71
     0
 91
        3
 92
        1
 93
        1
 72
     4
 94
        3
 73
     0
 74
     0
 95
       17
 96
       13
 40
0.0
 40
0.0
 40
0.0
 40
0.0
 40
1.0
 40
1.0
 40
1.0
 40
2.0
 40
2.0
 40
2.0
 40
3.0
 40
3.0
 40
3.0
 40
4.0
 40
4.0
 40
4.0
 40
4.0
 10
385.12998046874998
 20
31.06304796006944
 10
384.55396050347218
 20
31.360704210069443
 10
383.93728841145833
 20
31.561897786458331
 10
383.31372612847218
 20
31.716238064236109
 10
383.31372612847218
 20
31.716238064236109
 10
383.65203450520829
 20
32.505164930555551
 10
383.65203450520829
 20
32.505164930555551
 10
384.21565212673607
 20
32.399055989583331
 10
384.92809787326388
 20
32.185460069444439
 10
385.50411783854162
 20
31.906407335069442
 10
385.50411783854162
 20
31.906407335069442
 10
385.12998046874998
 20
31.06304796006944
 10
385.12998046874998
 20
31.06304796006944
 97
        0
 92
        1
 93
        1
 72
     4
 94
        3
 73
     0
 74
     0
 95
       17
 96
       13
 40
0.0
 40
0.0
 40
0.0
 40
0.0
 40
1.0
 40
1.0
 40
1.0
 40
2.0
 40
2.0
 40
2.0
 40
3.0
 40
3.0
 40
3.0
 40
4.0
 40
4.0
 40
4.0
 40
4.0
 10
384.60770399305551
 20
29.633333333333329
 10
384.09714084201386
 20
29.917898220486109
 10
383.48529188368053
 20
30.154920789930554
 10
382.85690646701386
 20
30.32786458333333
 10
382.85690646701386
 20
30.32786458333333
 10
383.18901367187499
 20
31.122303602430552
 10
383.18901367187499
 20
31.122303602430552
 10
383.65203450520829
 20
31.02790798611111
 10
384.40582139756941
 20
30.790885416666665
 10
384.97012803819439
 20
30.482204861111107
 10
384.97012803819439
 20
30.482204861111107
 10
384.60770399305551
 20
29.633333333333329
 10
384.60770399305551
 20
29.633333333333329
 97
        0
 92
        1
 93
        1
 72
     4
 94
        3
 73
     0
 74
     0
 95
       17
 96
       13
 40
0.0
 40
0.0
 40
0.0
 40
0.0
 40
1.0
 40
1.0
 40
1.0
 40
2.0
 40
2.0
 40
2.0
 40
3.0
 40
3.0
 40
3.0
 40
4.0
 40
4.0
 40
4.0
 40
4.0
 10
383.17109917534719
 20
28.504720052083332
 10
385.04040798611106
 20
28.672151692708329
 10
386.3467881944444
 20
29.015283203124998
 10
387.15431857638885
 20
31.722439236111107
 10
387.15431857638885
 20
31.722439236111107
 10
388.05004340277776
 20
31.295247395833332
 10
388.05004340277776
 20
31.295247395833332
 10
387.08886176215276
 20
28.439952256944441
 10
385.62814127604162
 20
27.751622178819442
 10
383.43154839409721
 20
27.48428276909722
 10
383.43154839409721
 20
27.48428276909722
 10
383.17109917534719
 20
28.504720052083332
 10
383.17109917534719
 20
28.504720052083332
 97
        0
 75
     2
 76
     1
 98
        1
 10
0.0
 20
0.0
  0
HATCH
  5
71
100
AcDbEntity
  8
レイヤー_1
 62
     7
100
AcDbHatch
 10
0.0
 20
0.0
 30
0.0
210
0.0
220
0.0
230
1.0
  2
SOLID
 70
     1
 71
     0
 91
        1
 92
        3
 72
     0
 73
     1
 93
       12
 10
392.28888888888883
 20
31.443386501736107
 10
392.28888888888883
 20
27.585568576388887
 10
388.65569118923605
 20
27.585568576388887
 10
388.65569118923605
 20
28.404812282986107
 10
391.3855848524305
 20
28.404812282986107
 10
391.3855848524305
 20
29.152398003472218
 10
388.81003146701386
 20
29.152398003472218
 10
388.81003146701386
 20
29.935812717013885
 10
391.3855848524305
 20
29.935812717013885
 10
391.3855848524305
 20
30.642746310763886
 10
388.71494683159716
 20
30.642746310763886
 10
388.71494683159716
 20
31.443386501736107
 97
        0
 75
     2
 76
     1
 98
        1
 10
0.0
 20
0.0
  0
LINE
  5
70
100
AcDbEntity
  8
レイヤー_1
 62
     7
100
AcDbLine
 10
393.136382
 20
30.036754
 30
0.0
 11
397.540592
 21
30.036754
 31
0.0
  0
MTEXT
  5
6F
100
AcDbEntity
  8
レイヤー_1
 62
     7
100
AcDbMText
 10
374.65
 20
41.138968
 30
0.0
 40
2.362351
 41
0.0
 71
     1
 72
     2
  1
\fMSGothic|b0|i0|c128;\H2.3624;\C7;\U+5BF8
  7
STD
210
0.0
220
0.0
230
1.0
 11
1.0
 21
0.0
 31
0.0
 73
     1
 44
1.0
  0
MTEXT
  5
6E
100
AcDbEntity
  8
レイヤー_1
 62
     7
100
AcDbMText
 10
377.825
 20
41.138968
 30
0.0
 40
2.362351
 41
0.0
 71
     1
 72
     2
  1
\fMSGothic|b0|i0|c128;\H2.3624;\C7;\U+6CD5
  7
STD
210
0.0
220
0.0
230
1.0
 11
1.0
 21
0.0
 31
0.0
 73
     1
 44
1.0
  0
MTEXT
  5
6D
100
AcDbEntity
  8
レイヤー_1
 62
     7
100
AcDbMText
 10
381.0
 20
41.138968
 30
0.0
 40
2.362351
 41
0.0
 71
     1
 72
     2
  1
\fMSGothic|b0|i0|c128;\H2.3624;\C7;\U+516C
  7
STD
210
0.0
220
0.0
230
1.0
 11
1.0
 21
0.0
 31
0.0
 73
     1
 44
1.0
  0
MTEXT
  5
6C
100
AcDbEntity
  8
レイヤー_1
 62
     7
100
AcDbMText
 10
384.175
 20
41.138968
 30
0.0
 40
2.362351
 41
0.0
 71
     1
 72
     2
  1
\fMSGothic|b0|i0|c128;\H2.3624;\C7;\U+5DEE
  7
STD
210
0.0
220
0.0
230
1.0
 11
1.0
 21
0.0
 31
0.0
 73
     1
 44
1.0
  0
MTEXT
  5
6B
100
AcDbEntity
  8
レイヤー_1
 62
     7
100
AcDbMText
 10
387.35
 20
41.138968
 30
0.0
 40
2.362351
 41
0.0
 71
     1
 72
     2
  1
\fMSGothic|b0|i0|c128;\H2.3624;\C7;\U+FF1A
  7
STD
210
0.0
220
0.0
230
1.0
 11
1.0
 21
0.0
 31
0.0
 73
     1
 44
1.0
  0
MTEXT
  5
6A
100
AcDbEntity
  8
レイヤー_1
 62
     7
100
AcDbMText
 10
390.525
 20
41.138968
 30
0.0
 40
2.362351
 41
0.0
 71
     1
 72
     2
  1
\fMSGothic|b0|i0|c128;\H2.3624;\C7;\U+00B1
  7
STD
210
0.0
220
0.0
230
1.0
 11
1.0
 21
0.0
 31
0.0
 73
     1
 44
1.0
  0
MTEXT
  5
69
100
AcDbEntity
  8
レイヤー_1
 62
     7
100
AcDbMText
 10
393.7
 20
41.138968
 30
0.0
 40
2.362351
 41
0.0
 71
     1
 72
     2
  1
\fMSGothic|b0|i0|c128;\H2.3624;\C7;\U+0030
  7
STD
210
0.0
220
0.0
230
1.0
 11
1.0
 21
0.0
 31
0.0
 73
     1
 44
1.0
  0
MTEXT
  5
68
100
AcDbEntity
  8
レイヤー_1
 62
     7
100
AcDbMText
 10
395.2875
 20
41.138968
 30
0.0
 40
2.362351
 41
0.0
 71
     1
 72
     2
  1
\fMSGothic|b0|i0|c128;\H2.3624;\C7;\U+002E
  7
STD
210
0.0
220
0.0
230
1.0
 11
1.0
 21
0.0
 31
0.0
 73
     1
 44
1.0
  0
MTEXT
  5
67
100
AcDbEntity
  8
レイヤー_1
 62
     7
100
AcDbMText
 10
396.875
 20
41.138968
 30
0.0
 40
2.362351
 41
0.0
 71
     1
 72
     2
  1
\fMSGothic|b0|i0|c128;\H2.3624;\C7;\U+0035
  7
STD
210
0.0
220
0.0
230
1.0
 11
1.0
 21
0.0
 31
0.0
 73
     1
 44
1.0
  0
MTEXT
  5
66
100
AcDbEntity
  8
レイヤー_1
 62
     7
100
AcDbMText
 10
398.4625
 20
41.138968
 30
0.0
 40
2.362351
 41
0.0
 71
     1
 72
     2
  1
\fMSGothic|b0|i0|c128;\H2.3624;\C7;\U+006D
  7
STD
210
0.0
220
0.0
230
1.0
 11
1.0
 21
0.0
 31
0.0
 73
     1
 44
1.0
  0
MTEXT
  5
65
100
AcDbEntity
  8
レイヤー_1
 62
     7
100
AcDbMText
 10
400.05
 20
41.138968
 30
0.0
 40
2.362351
 41
0.0
 71
     1
 72
     2
  1
\fMSGothic|b0|i0|c128;\H2.3624;\C7;\U+006D
  7
STD
210
0.0
220
0.0
230
1.0
 11
1.0
 21
0.0
 31
0.0
 73
     1
 44
1.0
  0
MTEXT
  5
64
100
AcDbEntity
  8
レイヤー_1
 62
     7
100
AcDbMText
 10
374.65
 20
44.648831
 30
0.0
 40
2.362351
 41
0.0
 71
     1
 72
     2
  1
\fMSGothic|b0|i0|c128;\H2.3624;\C7;\U+5BF8
  7
STD
210
0.0
220
0.0
230
1.0
 11
1.0
 21
0.0
 31
0.0
 73
     1
 44
1.0
  0
MTEXT
  5
63
100
AcDbEntity
  8
レイヤー_1
 62
     7
100
AcDbMText
 10
377.825
 20
44.648831
 30
0.0
 40
2.362351
 41
0.0
 71
     1
 72
     2
  1
\fMSGothic|b0|i0|c128;\H2.3624;\C7;\U+6CD5
  7
STD
210
0.0
220
0.0
230
1.0
 11
1.0
 21
0.0
 31
0.0
 73
     1
 44
1.0
  0
MTEXT
  5
62
100
AcDbEntity
  8
レイヤー_1
 62
     7
100
AcDbMText
 10
381.0
 20
44.648831
 30
0.0
 40
2.362351
 41
0.0
 71
     1
 72
     2
  1
\fMSGothic|b0|i0|c128;\H2.3624;\C7;\U+6570
  7
STD
210
0.0
220
0.0
230
1.0
 11
1.0
 21
0.0
 31
0.0
 73
     1
 44
1.0
  0
MTEXT
  5
61
100
AcDbEntity
  8
レイヤー_1
 62
     7
100
AcDbMText
 10
384.175
 20
44.648831
 30
0.0
 40
2.362351
 41
0.0
 71
     1
 72
     2
  1
\fMSGothic|b0|i0|c128;\H2.3624;\C7;\U+5024
  7
STD
210
0.0
220
0.0
230
1.0
 11
1.0
 21
0.0
 31
0.0
 73
     1
 44
1.0
  0
MTEXT
  5
60
100
AcDbEntity
  8
レイヤー_1
 62
     7
100
AcDbMText
 10
387.35
 20
44.648831
 30
0.0
 40
2.362351
 41
0.0
 71
     1
 72
     2
  1
\fMSGothic|b0|i0|c128;\H2.3624;\C7;\U+FF1A
  7
STD
210
0.0
220
0.0
230
1.0
 11
1.0
 21
0.0
 31
0.0
 73
     1
 44
1.0
  0
MTEXT
  5
5F
100
AcDbEntity
  8
レイヤー_1
 62
     7
100
AcDbMText
 10
390.525
 20
44.648831
 30
0.0
 40
2.362351
 41
0.0
 71
     1
 72
     2
  1
\fMSGothic|b0|i0|c128;\H2.3624;\C7;\U+006D
  7
STD
210
0.0
220
0.0
230
1.0
 11
1.0
 21
0.0
 31
0.0
 73
     1
 44
1.0
  0
MTEXT
  5
5E
100
AcDbEntity
  8
レイヤー_1
 62
     7
100
AcDbMText
 10
392.1125
 20
44.648831
 30
0.0
 40
2.362351
 41
0.0
 71
     1
 72
     2
  1
\fMSGothic|b0|i0|c128;\H2.3624;\C7;\U+006D
  7
STD
210
0.0
220
0.0
230
1.0
 11
1.0
 21
0.0
 31
0.0
 73
     1
 44
1.0
  0
MTEXT
  5
5D
100
AcDbEntity
  8
レイヤー_1
 62
     7
100
AcDbMText
 10
393.7
 20
44.648831
 30
0.0
 40
2.362351
 41
0.0
 71
     1
 72
     2
  1
\fMSGothic|b0|i0|c128;\H2.3624;\C7;\U+8868
  7
STD
210
0.0
220
0.0
230
1.0
 11
1.0
 21
0.0
 31
0.0
 73
     1
 44
1.0
  0
MTEXT
  5
5C
100
AcDbEntity
  8
レイヤー_1
 62
     7
100
AcDbMText
 10
396.875
 20
44.648831
 30
0.0
 40
2.362351
 41
0.0
 71
     1
 72
     2
  1
\fMSGothic|b0|i0|c128;\H2.3624;\C7;\U+8A18
  7
STD
210
0.0
220
0.0
230
1.0
 11
1.0
 21
0.0
 31
0.0
 73
     1
 44
1.0
  0
POLYLINE
  5
56
100
AcDbEntity
  8
レイヤー_1
 62
     7
100
AcDb2dPolyline
 66
     1
 10
0.0
 20
0.0
 30
0.0
  0
VERTEX
  5
57
100
AcDbEntity
  8
レイヤー_1
 62
     7
100
AcDbVertex
100
AcDb2dVertex
 10
253.742307
 20
168.75938
 30
0.0
  0
VERTEX
  5
58
100
AcDbEntity
  8
レイヤー_1
 62
     7
100
AcDbVertex
100
AcDb2dVertex
 10
376.309502
 20
168.75938
 30
0.0
  0
VERTEX
  5
59
100
AcDbEntity
  8
レイヤー_1
 62
     7
100
AcDbVertex
100
AcDb2dVertex
 10
376.309502
 20
131.5868
 30
0.0
  0
VERTEX
  5
5A
100
AcDbEntity
  8
レイヤー_1
 62
     7
100
AcDbVertex
100
AcDb2dVertex
 10
265.497662
 20
131.5868
 30
0.0
  0
SEQEND
  5
5B
100
AcDbEntity
  8
レイヤー_1
 62
     7
  0
POLYLINE
  5
50
100
AcDbEntity
  8
レイヤー_1
 62
     7
100
AcDb2dPolyline
 66
     1
 10
0.0
 20
0.0
 30
0.0
  0
VERTEX
  5
51
100
AcDbEntity
  8
レイヤー_1
 62
     7
100
AcDbVertex
100
AcDb2dVertex
 10
258.650534
 20
131.5868
 30
0.0
  0
VERTEX
  5
52
100
AcDbEntity
  8
レイヤー_1
 62
     7
100
AcDbVertex
100
AcDb2dVertex
 10
143.972952
 20
131.5868
 30
0.0
  0
VERTEX
  5
53
100
AcDbEntity
  8
レイヤー_1
 62
     7
100
AcDbVertex
100
AcDb2dVertex
 10
143.972952
 20
168.75938
 30
0.0
  0
VERTEX
  5
54
100
AcDbEntity
  8
レイヤー_1
 62
     7
100
AcDbVertex
100
AcDb2dVertex
 10
247.100163
 20
168.75938
 30
0.0
  0
SEQEND
  5
55
100
AcDbEntity
  8
レイヤー_1
 62
     7
  0
SPLINE
  5
4F
100
AcDbEntity
  8
レイヤー_1
 62
     7
100
AcDbSpline
210
0.0
220
0.0
230
1.0
 70
     8
 71
     3
 72
    17
 73
    13
 74
     0
 42
0.00000001
 43
0.00000001
 40
0.0
 40
0.0
 40
0.0
 40
0.0
 40
1.0
 40
1.0
 40
1.0
 40
2.0
 40
2.0
 40
2.0
 40
3.0
 40
3.0
 40
3.0
 40
4.0
 40
4.0
 40
4.0
 40
4.0
 10
261.30394694010414
 20
121.44478352864583
 30
0.0
 10
263.62008463541662
 20
124.76344401041665
 30
0.0
 10
265.67784016927084
 20
128.86345214843749
 30
0.0
 10
265.67784016927084
 20
135.44117296006942
 30
0.0
 10
265.67784016927084
 20
143.75487738715276
 30
0.0
 10
262.28579915364583
 20
148.12808159722221
 30
0.0
 10
259.29132215711803
 20
151.98727756076389
 30
0.0
 10
256.42603624131942
 20
155.68558756510416
 30
0.0
 10
253.71405707465274
 20
159.18063693576389
 30
0.0
 10
253.71405707465274
 20
166.29441460503472
 30
0.0
 10
253.71405707465274
 20
173.38648817274304
 30
0.0
 10
256.40949978298607
 20
176.84398600260414
 30
0.0
 10
259.26686197916666
 20
180.50784505208333
 30
0.0
  0
SPLINE
  5
4E
100
AcDbEntity
  8
レイヤー_1
 62
     7
100
AcDbSpline
210
0.0
220
0.0
230
1.0
 70
     8
 71
     3
 72
    17
 73
    13
 74
     0
 42
0.00000001
 43
0.00000001
 40
0.0
 40
0.0
 40
0.0
 40
0.0
 40
1.0
 40
1.0
 40
1.0
 40
2.0
 40
2.0
 40
2.0
 40
3.0
 40
3.0
 40
3.0
 40
4.0
 40
4.0
 40
4.0
 40
4.0
 10
251.40653211805554
 20
180.3926066080729
 30
0.0
 10
249.0618001302083
 20
177.06068250868054
 30
0.0
 10
246.98750813802081
 20
172.92295057508679
 30
0.0
 10
246.98750813802081
 20
166.29441460503472
 30
0.0
 10
246.98750813802081
 20
157.74816623263888
 30
0.0
 10
250.42881401909719
 20
153.31605088975692
 30
0.0
 10
253.46842176649304
 20
149.40001085069443
 30
0.0
 10
256.40949978298607
 20
145.60282660590278
 30
0.0
 10
258.95508083767356
 20
142.32206217447916
 30
0.0
 10
258.95508083767356
 20
135.44117296006942
 30
0.0
 10
258.95508083767356
 20
128.46451009114583
 30
0.0
 10
256.31097005208329
 20
125.03664008246527
 30
0.0
 10
253.51355251736109
 20
121.40723198784721
 30
0.0
  0
LINE
  5
4D
100
AcDbEntity
  8
レイヤー_1
 62
     7
100
AcDbLine
 10
376.309502
 20
175.1223
 30
0.0
 11
376.309502
 21
190.46331
 31
0.0
  0
LINE
  5
4C
100
AcDbEntity
  8
レイヤー_1
 62
     7
100
AcDbLine
 10
143.820679
 20
175.122989
 30
0.0
 11
143.820679
 21
190.46331
 31
0.0
  0
LINE
  5
4B
100
AcDbEntity
  8
レイヤー_1
 62
     7
100
AcDbLine
 10
143.89716
 20
188.850316
 30
0.0
 11
376.27643
 21
188.850316
 31
0.0
  0
HATCH
  5
4A
100
AcDbEntity
  8
レイヤー_1
 62
     7
100
AcDbHatch
 10
0.0
 20
0.0
 30
0.0
210
0.0
220
0.0
230
1.0
  2
SOLID
 70
     1
 71
     0
 91
        1
 92
        3
 72
     0
 73
     1
 93
        3
 10
145.46915690104166
 20
189.27199571397568
 10
143.82050645616317
 20
188.85031602647567
 10
145.46915690104166
 20
188.42863633897568
 97
        0
 75
     2
 76
     1
 98
        1
 10
0.0
 20
0.0
  0
HATCH
  5
49
100
AcDbEntity
  8
レイヤー_1
 62
     7
100
AcDbHatch
 10
0.0
 20
0.0
 30
0.0
210
0.0
220
0.0
230
1.0
  2
SOLID
 70
     1
 71
     0
 91
        1
 92
        3
 72
     0
 73
     1
 93
        3
 10
374.62760687934025
 20
188.42863633897568
 10
376.27642957899303
 20
188.85031602647567
 10
374.62760687934025
 20
189.27199571397568
 97
        0
 75
     2
 76
     1
 98
        1
 10
0.0
 20
0.0
  0
MTEXT
  5
48
100
AcDbEntity
  8
レイヤー_1
 62
     7
100
AcDbMText
 10
254.097496
 20
192.428409
 30
0.0
 40
2.624835
 41
0.0
 71
     1
 72
     2
  1
\fMSGothic|b0|i0|c128;\H2.6248;\C7;\U+0035
  7
STD
210
0.0
220
0.0
230
1.0
 11
1.0
 21
0.0
 31
0.0
 73
     1
 44
1.0
  0
MTEXT
  5
47
100
AcDbEntity
  8
レイヤー_1
 62
     7
100
AcDbMText
 10
255.861385
 20
192.428409
 30
0.0
 40
2.624835
 41
0.0
 71
     1
 72
     2
  1
\fMSGothic|b0|i0|c128;\H2.6248;\C7;\U+0030
  7
STD
210
0.0
220
0.0
230
1.0
 11
1.0
 21
0.0
 31
0.0
 73
     1
 44
1.0
  0
MTEXT
  5
46
100
AcDbEntity
  8
レイヤー_1
 62
     7
100
AcDbMText
 10
257.625274
 20
192.428409
 30
0.0
 40
2.624835
 41
0.0
 71
     1
 72
     2
  1
\fMSGothic|b0|i0|c128;\H2.6248;\C7;\U+0030
  7
STD
210
0.0
220
0.0
230
1.0
 11
1.0
 21
0.0
 31
0.0
 73
     1
 44
1.0
  0
MTEXT
  5
45
100
AcDbEntity
  8
レイヤー_1
 62
     7
100
AcDbMText
 10
259.389163
 20
192.428409
 30
0.0
 40
2.624835
 41
0.0
 71
     1
 72
     2
  1
\fMSGothic|b0|i0|c128;\H2.6248;\C7;\U+0030
  7
STD
210
0.0
220
0.0
230
1.0
 11
1.0
 21
0.0
 31
0.0
 73
     1
 44
1.0
  0
LINE
  5
44
100
AcDbEntity
  8
レイヤー_1
 62
     7
100
AcDbLine
 10
97.172708
 20
160.831527
 30
0.0
 11
97.172708
 21
189.554321
 31
0.0
  0
LINE
  5
43
100
AcDbEntity
  8
レイヤー_1
 62
     7
100
AcDbLine
 10
60.139654
 20
160.832216
 30
0.0
 11
60.139654
 21
189.554321
 31
0.0
  0
LINE
  5
42
100
AcDbEntity
  8
レイヤー_1
 62
     7
100
AcDbLine
 10
60.215101
 20
187.964926
 30
0.0
 11
97.139979
 21
187.964926
 31
0.0
  0
HATCH
  5
41
100
AcDbEntity
  8
レイヤー_1
 62
     7
100
AcDbHatch
 10
0.0
 20
0.0
 30
0.0
210
0.0
220
0.0
230
1.0
  2
SOLID
 70
     1
 71
     0
 91
        1
 92
        3
 72
     0
 73
     1
 93
        3
 10
61.764016384548604
 20
188.38040500217014
 10
60.139653862847219
 20
187.96492648654512
 10
61.764016384548604
 20
187.54944797092011
 97
        0
 75
     2
 76
     1
 98
        1
 10
0.0
 20
0.0
  0
MTEXT
  5
40
100
AcDbEntity
  8
レイヤー_1
 62
     7
100
AcDbMText
 10
74.053706
 20
192.504201
 30
0.0
 40
2.624835
 41
0.0
 71
     1
 72
     2
  1
\fMSGothic|b0|i0|c128;\H2.6248;\C7;\U+03A6
  7
STD
210
0.0
220
0.0
230
1.0
 11
1.0
 21
0.0
 31
0.0
 73
     1
 44
1.0
  0
MTEXT
  5
3F
100
AcDbEntity
  8
レイヤー_1
 62
     7
100
AcDbMText
 10
77.581483
 20
192.504201
 30
0.0
 40
2.624835
 41
0.0
 71
     1
 72
     2
  1
\fMSGothic|b0|i0|c128;\H2.6248;\C7;\U+0037
  7
STD
210
0.0
220
0.0
230
1.0
 11
1.0
 21
0.0
 31
0.0
 73
     1
 44
1.0
  0
MTEXT
  5
3E
100
AcDbEntity
  8
レイヤー_1
 62
     7
100
AcDbMText
 10
79.345372
 20
192.504201
 30
0.0
 40
2.624835
 41
0.0
 71
     1
 72
     2
  1
\fMSGothic|b0|i0|c128;\H2.6248;\C7;\U+002E
  7
STD
210
0.0
220
0.0
230
1.0
 11
1.0
 21
0.0
 31
0.0
 73
     1
 44
1.0
  0
MTEXT
  5
3D
100
AcDbEntity
  8
レイヤー_1
 62
     7
100
AcDbMText
 10
81.109261
 20
192.504201
 30
0.0
 40
2.624835
 41
0.0
 71
     1
 72
     2
  1
\fMSGothic|b0|i0|c128;\H2.6248;\C7;\U+0034
  7
STD
210
0.0
220
0.0
230
1.0
 11
1.0
 21
0.0
 31
0.0
 73
     1
 44
1.0
  0
HATCH
  5
3C
100
AcDbEntity
  8
レイヤー_1
 62
     7
100
AcDbHatch
 10
0.0
 20
0.0
 30
0.0
210
0.0
220
0.0
230
1.0
  2
SOLID
 70
     1
 71
     0
 91
        1
 92
        3
 72
     0
 73
     1
 93
        3
 10
95.515961371527766
 20
188.37437608506943
 10
97.13997938368054
 20
187.95889756944442
 10
95.515961371527766
 20
187.54341905381943
 97
        0
 75
     2
 76
     1
 98
        1
 10
0.0
 20
0.0
  0
CIRCLE
  5
3B
100
AcDbEntity
  8
レイヤー_1
 62
     7
100
AcDbCircle
 10
71.899487
 20
150.215809
 30
0.0
 40
3.749986
  0
CIRCLE
  5
3A
100
AcDbEntity
  8
レイヤー_1
 62
     7
100
AcDbCircle
 10
71.900349
 20
150.215809
 30
0.0
 40
6.749803
  0
CIRCLE
  5
39
100
AcDbEntity
  8
レイヤー_1
 62
     7
100
AcDbCircle
 10
85.399094
 20
150.215809
 30
0.0
 40
3.749986
  0
CIRCLE
  5
38
100
AcDbEntity
  8
レイヤー_1
 62
     7
100
AcDbCircle
 10
85.399955
 20
150.215809
 30
0.0
 40
6.749803
  0
CIRCLE
  5
37
100
AcDbEntity
  8
レイヤー_1
 62
     7
100
AcDbCircle
 10
78.650152
 20
150.215809
 30
0.0
 40
18.500163
  0
LINE
  5
36
100
AcDbEntity
  8
レイヤー_1
 62
     7
100
AcDbLine
 10
82.749816
 20
152.815134
 30
0.0
 11
109.181966
 21
126.383328
 31
0.0
  0
HATCH
  5
35
100
AcDbEntity
  8
レイヤー_1
 62
     7
100
AcDbHatch
 10
0.0
 20
0.0
 30
0.0
210
0.0
220
0.0
230
1.0
  2
SOLID
 70
     1
 71
     0
 91
        1
 92
        3
 72
     0
 73
     1
 93
        3
 10
83.175112575954856
 20
151.81398925781249
 10
82.703651258680551
 20
152.88059082031248
 10
83.770425075954847
 20
152.4093017578125
 97
        0
 75
     2
 76
     1
 98
        1
 10
0.0
 20
0.0
  0
HATCH
  5
34
100
AcDbEntity
  8
レイヤー_1
 62
     7
100
AcDbHatch
 10
0.0
 20
0.0
 30
0.0
210
0.0
220
0.0
230
1.0
  2
SOLID
 70
     1
 71
     0
 91
        1
 92
        3
 72
     0
 73
     1
 93
        3
 10
87.591552734374986
 20
148.58765733506942
 10
88.063014051649304
 20
147.52105577256944
 10
86.996240234374994
 20
147.99234483506942
 97
        0
 75
     2
 76
     1
 98
        1
 10
0.0
 20
0.0
  0
MTEXT
  5
33
100
AcDbEntity
  8
レイヤー_1
 62
     7
100
AcDbMText
 10
104.839829
 20
135.415913
 30
0.0
 40
2.362325
 41
0.0
 71
     1
 72
     2
  1
\fMSGothic|b0|i0|c128;\H2.3623;\C7;\U+03A6
  7
STD
210
0.0
220
0.0
230
0.9999999999999999
 11
0.707107
 21
-0.707107
 31
0.0
 73
     1
 44
1.0
  0
MTEXT
  5
32
100
AcDbEntity
  8
レイヤー_1
 62
     7
100
AcDbMText
 10
107.084653
 20
133.170744
 30
0.0
 40
2.362325
 41
0.0
 71
     1
 72
     2
  1
\fMSGothic|b0|i0|c128;\H2.3623;\C7;\U+0031
  7
STD
210
0.0
220
0.0
230
0.9999999999999999
 11
0.707107
 21
-0.707107
 31
0.0
 73
     1
 44
1.0
  0
MTEXT
  5
31
100
AcDbEntity
  8
レイヤー_1
 62
     7
100
AcDbMText
 10
108.20741
 20
132.048332
 30
0.0
 40
2.362325
 41
0.0
 71
     1
 72
     2
  1
\fMSGothic|b0|i0|c128;\H2.3623;\C7;\U+002E
  7
STD
210
0.0
220
0.0
230
0.9999999999999999
 11
0.707107
 21
-0.707107
 31
0.0
 73
     1
 44
1.0
  0
MTEXT
  5
30
100
AcDbEntity
  8
レイヤー_1
 62
     7
100
AcDbMText
 10
109.330167
 20
130.925575
 30
0.0
 40
2.362325
 41
0.0
 71
     1
 72
     2
  1
\fMSGothic|b0|i0|c128;\H2.3623;\C7;\U+0035
  7
STD
210
0.0
220
0.0
230
0.9999999999999999
 11
0.707107
 21
-0.707107
 31
0.0
 73
     1
 44
1.0
  0
LINE
  5
2F
100
AcDbEntity
  8
レイヤー_1
 62
     7
100
AcDbLine
 10
67.286332
 20
154.847396
 30
0.0
 11
95.616558
 21
126.517687
 31
0.0
  0
HATCH
  5
2E
100
AcDbEntity
  8
レイヤー_1
 62
     7
100
AcDbHatch
 10
0.0
 20
0.0
 30
0.0
210
0.0
220
0.0
230
1.0
  2
SOLID
 70
     1
 71
     0
 91
        1
 92
        3
 72
     0
 73
     1
 93
        3
 10
67.606037055121519
 20
153.95167100694442
 10
67.134575737847214
 20
155.01827256944443
 10
68.201349555121524
 20
154.54698350694443
 97
        0
 75
     2
 76
     1
 98
        1
 10
0.0
 20
0.0
  0
HATCH
  5
2D
100
AcDbEntity
  8
レイヤー_1
 62
     7
100
AcDbHatch
 10
0.0
 20
0.0
 30
0.0
210
0.0
220
0.0
230
1.0
  2
SOLID
 70
     1
 71
     0
 91
        1
 92
        3
 72
     0
 73
     1
 93
        3
 10
76.214469401041654
 20
146.53334689670137
 10
76.685930718315959
 20
145.46674533420136
 10
75.619156901041663
 20
145.93803439670137
 97
        0
 75
     2
 76
     1
 98
        1
 10
0.0
 20
0.0
  0
MTEXT
  5
2C
100
AcDbEntity
  8
レイヤー_1
 62
     7
100
AcDbMText
 10
91.274421
 20
135.458632
 30
0.0
 40
2.362325
 41
0.0
 71
     1
 72
     2
  1
\fMSGothic|b0|i0|c128;\H2.3623;\C7;\U+03A6
  7
STD
210
0.0
220
0.0
230
0.9999999999999999
 11
0.707107
 21
-0.707107
 31
0.0
 73
     1
 44
1.0
  0
MTEXT
  5
2B
100
AcDbEntity
  8
レイヤー_1
 62
     7
100
AcDbMText
 10
93.519245
 20
133.213463
 30
0.0
 40
2.362325
 41
0.0
 71
     1
 72
     2
  1
\fMSGothic|b0|i0|c128;\H2.3623;\C7;\U+0032
  7
STD
210
0.0
220
0.0
230
0.9999999999999999
 11
0.707107
 21
-0.707107
 31
0.0
 73
     1
 44
1.0
  0
MTEXT
  5
2A
100
AcDbEntity
  8
レイヤー_1
 62
     7
100
AcDbMText
 10
94.642002
 20
132.091051
 30
0.0
 40
2.362325
 41
0.0
 71
     1
 72
     2
  1
\fMSGothic|b0|i0|c128;\H2.3623;\C7;\U+002E
  7
STD
210
0.0
220
0.0
230
0.9999999999999999
 11
0.707107
 21
-0.707107
 31
0.0
 73
     1
 44
1.0
  0
MTEXT
  5
29
100
AcDbEntity
  8
レイヤー_1
 62
     7
100
AcDbMText
 10
95.764586
 20
130.968639
 30
0.0
 40
2.362325
 41
0.0
 71
     1
 72
     2
  1
\fMSGothic|b0|i0|c128;\H2.3623;\C7;\U+0037
  7
STD
210
0.0
220
0.0
230
0.9999999999999999
 11
0.707107
 21
-0.707107
 31
0.0
 73
     1
 44
1.0
  0
ENDSEC
  0
SECTION
  2
OBJECTS
  0
DICTIONARY
  5
19
100
AcDbDictionary
280
     0
281
     1
  3
ACAD_GROUP
350
1A
  3
ACAD_MLINESTYLE
350
1B
  3
ACAD_LAYOUT
350
1E
  3
ACAD_PLOTSETTINGS
350
22
  3
ACAD_PLOTSTYLENAME
350
1F
  3
ACAD_WIPEOUT_VARS
350
23
  0
DICTIONARY
  5
1A
102
{ACAD_REACTORS
330
19
102
}
100
AcDbDictionary
280
     0
281
     1
  0
DICTIONARY
  5
1B
102
{ACAD_REACTORS
330
19
102
}
100
AcDbDictionary
280
     0
281
     1
  3
Standard
350
1C
  0
MLINESTYLE
  5
1C
102
{ACAD_REACTORS
330
1B
102
}
100
AcDbMlineStyle
  2
Standard
 70
     0
  3

 62
     0
 51
90.0
 52
90.0
 71
     2
 49
0.5
 62
   256
  6
ByLayer
 49
-0.5
 62
   256
  6
ByLayer
  0
ACDBDICTIONARYWDFLT
  5
1F
102
{ACAD_REACTORS
330
19
102
}
100
AcDbDictionary
281
     1
  3
Normal
350
1D
100
AcDbDictionaryWithDefault
340
1D
  0
ACDBPLACEHOLDER
  5
1D
102
{ACAD_REACTORS
330
1F
102
}
  0
LAYOUT
  5
20
102
{ACAD_REACTORS
330
1E
102
}
100
AcDbPlotSettings
  1

  2

  4

  6

 40
0.0
 41
0.0
 42
0.0
 43
0.0
 44
0.0
 45
0.0
 46
0.0
 47
0.0
 48
0.0
 49
0.0
140
0.0
141
0.0
142
1.0
143
1.0
 70
  1024
 72
     0
 73
     0
 74
     0
  7

 75
     0
147
1.0
148
0.0
149
0.0
100
AcDbLayout
  1
Model
 70
     0
 71
     0
 10
0.0
 20
0.0
 11
0.0
 21
0.0
 12
0.0
 22
0.0
 32
0.0
 14
0.0
 24
0.0
 34
0.0
 15
0.0
 25
0.0
 35
0.0
146
0.0
 13
0.0
 23
0.0
 33
0.0
 16
0.0
 26
0.0
 36
0.0
 17
0.0
 27
0.0
 37
0.0
 76
     0
330
A
331
0
345
0
346
0
  0
LAYOUT
  5
21
102
{ACAD_REACTORS
330
1E
102
}
100
AcDbPlotSettings
  1

  2

  4

  6

 40
0.0
 41
0.0
 42
0.0
 43
0.0
 44
0.0
 45
0.0
 46
0.0
 47
0.0
 48
0.0
 49
0.0
140
0.0
141
0.0
142
1.0
143
1.0
 70
     0
 72
     0
 73
     0
 74
     0
  7

 75
     0
147
1.0
148
0.0
149
0.0
100
AcDbLayout
  1
Layout1
 70
     0
 71
     0
 10
0.0
 20
0.0
 11
0.0
 21
0.0
 12
0.0
 22
0.0
 32
0.0
 14
0.0
 24
0.0
 34
0.0
 15
0.0
 25
0.0
 35
0.0
146
0.0
 13
0.0
 23
0.0
 33
0.0
 16
0.0
 26
0.0
 36
0.0
 17
0.0
 27
0.0
 37
0.0
 76
     0
330
B
331
0
345
0
346
0
  0
DICTIONARY
  5
1E
102
{ACAD_REACTORS
330
19
102
}
100
AcDbDictionary
280
     0
281
     1
  3
Layout1
350
21
  3
Model
350
20
  0
DICTIONARY
  5
22
102
{ACAD_REACTORS
330
19
102
}
100
AcDbDictionary
280
     0
281
     1
  0
WIPEOUTVARIABLES
  5
23
100
AcDbWipeoutVariables
 70
     1
  0
ENDSEC
  0
EOF
