  0
SECTION
  2
HEADER
  9
$ACADVER
  1
AC1018
  9
$ACADMAINTVER
 70
     0
  9
$DWGCODEPAGE
  3
ANSI_932
  9
$INSBASE
 10
0.0
 20
0.0
 30
0.0
  9
$EXTMIN
 10
1.000000000000000E+20
 20
1.000000000000000E+20
 30
1.000000000000000E+20
  9
$EXTMAX
 10
-1.000000000000000E+20
 20
-1.000000000000000E+20
 30
-1.000000000000000E+20
  9
$LIMMIN
 10
0.0
 20
0.0
  9
$LIMMAX
 10
12.0
 20
9.0
  9
$ORTHOMODE
 70
     0
  9
$REGENMODE
 70
     1
  9
$FILLMODE
 70
     1
  9
$QTEXTMODE
 70
     0
  9
$MIRRTEXT
 70
     1
  9
$LTSCALE
 40
1.0
  9
$ATTMODE
 70
     1
  9
$TEXTSIZE
 40
0.2
  9
$TRACEWID
 40
0.05
  9
$TEXTSTYLE
  7
Standard
  9
$CLAYER
  8
0
  9
$CELTYPE
  6
ByLayer
  9
$CECOLOR
 62
   256
  9
$CELTSCALE
 40
1.0
  9
$DISPSILH
 70
     0
  9
$DIMSCALE
 40
1.0
  9
$DIMASZ
 40
0.18
  9
$DIMEXO
 40
0.0625
  9
$DIMDLI
 40
0.38
  9
$DIMRND
 40
0.0
  9
$DIMDLE
 40
0.0
  9
$DIMEXE
 40
0.18
  9
$DIMTP
 40
0.0
  9
$DIMTM
 40
0.0
  9
$DIMTXT
 40
0.18
  9
$DIMCEN
 40
0.09
  9
$DIMTSZ
 40
0.0
  9
$DIMTOL
 70
     0
  9
$DIMLIM
 70
     0
  9
$DIMTIH
 70
     1
  9
$DIMTOH
 70
     1
  9
$DIMSE1
 70
     0
  9
$DIMSE2
 70
     0
  9
$DIMTAD
 70
     0
  9
$DIMZIN
 70
     0
  9
$DIMBLK
  1

  9
$DIMASO
 70
     1
  9
$DIMSHO
 70
     1
  9
$DIMPOST
  1

  9
$DIMAPOST
  1

  9
$DIMALT
 70
     0
  9
$DIMALTD
 70
     2
  9
$DIMALTF
 40
25.4
  9
$DIMLFAC
 40
1.0
  9
$DIMTOFL
 70
     0
  9
$DIMTVP
 40
0.0
  9
$DIMTIX
 70
     0
  9
$DIMSOXD
 70
     0
  9
$DIMSAH
 70
     0
  9
$DIMBLK1
  1

  9
$DIMBLK2
  1

  9
$DIMSTYLE
  2
Standard
  9
$DIMCLRD
 70
     0
  9
$DIMCLRE
 70
     0
  9
$DIMCLRT
 70
     0
  9
$DIMTFAC
 40
1.0
  9
$DIMGAP
 40
0.09
  9
$DIMJUST
 70
     0
  9
$DIMSD1
 70
     0
  9
$DIMSD2
 70
     0
  9
$DIMTOLJ
 70
     1
  9
$DIMTZIN
 70
     0
  9
$DIMALTZ
 70
     0
  9
$DIMALTTZ
 70
     0
  9
$DIMUPT
 70
     0
  9
$DIMDEC
 70
     4
  9
$DIMTDEC
 70
     4
  9
$DIMALTU
 70
     2
  9
$DIMALTTD
 70
     2
  9
$DIMTXSTY
  7
Standard
  9
$DIMAUNIT
 70
     0
  9
$DIMADEC
 70
     0
  9
$DIMALTRND
 40
0.0
  9
$DIMAZIN
 70
     0
  9
$DIMDSEP
 70
    46
  9
$DIMATFIT
 70
     3
  9
$DIMFRAC
 70
     0
  9
$DIMLDRBLK
  1

  9
$DIMLUNIT
 70
     2
  9
$DIMLWD
 70
    -2
  9
$DIMLWE
 70
    -2
  9
$DIMTMOVE
 70
     0
  9
$LUNITS
 70
     2
  9
$LUPREC
 70
     4
  9
$SKETCHINC
 40
0.1
  9
$FILLETRAD
 40
0.5
  9
$AUNITS
 70
     0
  9
$AUPREC
 70
     0
  9
$MENU
  1
.
  9
$ELEVATION
 40
0.0
  9
$PELEVATION
 40
0.0
  9
$THICKNESS
 40
0.0
  9
$LIMCHECK
 70
     0
  9
$CHAMFERA
 40
0.5
  9
$CHAMFERB
 40
0.5
  9
$CHAMFERC
 40
1.0
  9
$CHAMFERD
 40
0.0
  9
$SKPOLY
 70
     0
  9
$TDCREATE
 40
2456868.696160428
  9
$TDUCREATE
 40
2456868.321160428
  9
$TDUPDATE
 40
2456868.69616044
  9
$TDUUPDATE
 40
2456868.32116044
  9
$TDINDWG
 40
0.0000000116
  9
$TDUSRTIMER
 40
0.0000000116
  9
$USRTIMER
 70
     1
  9
$ANGBASE
 50
0.0
  9
$ANGDIR
 70
     0
  9
$PDMODE
 70
     0
  9
$PDSIZE
 40
0.0
  9
$PLINEWID
 40
0.0
  9
$SPLFRAME
 70
     0
  9
$SPLINETYPE
 70
     6
  9
$SPLINESEGS
 70
     8
  9
$HANDSEED
  5
286
  9
$SURFTAB1
 70
     6
  9
$SURFTAB2
 70
     6
  9
$SURFTYPE
 70
     6
  9
$SURFU
 70
     6
  9
$SURFV
 70
     6
  9
$UCSBASE
  2

  9
$UCSNAME
  2

  9
$UCSORG
 10
0.0
 20
0.0
 30
0.0
  9
$UCSXDIR
 10
1.0
 20
0.0
 30
0.0
  9
$UCSYDIR
 10
0.0
 20
1.0
 30
0.0
  9
$UCSORTHOREF
  2

  9
$UCSORTHOVIEW
 70
     0
  9
$UCSORGTOP
 10
0.0
 20
0.0
 30
0.0
  9
$UCSORGBOTTOM
 10
0.0
 20
0.0
 30
0.0
  9
$UCSORGLEFT
 10
0.0
 20
0.0
 30
0.0
  9
$UCSORGRIGHT
 10
0.0
 20
0.0
 30
0.0
  9
$UCSORGFRONT
 10
0.0
 20
0.0
 30
0.0
  9
$UCSORGBACK
 10
0.0
 20
0.0
 30
0.0
  9
$PUCSBASE
  2

  9
$PUCSNAME
  2

  9
$PUCSORG
 10
0.0
 20
0.0
 30
0.0
  9
$PUCSXDIR
 10
1.0
 20
0.0
 30
0.0
  9
$PUCSYDIR
 10
0.0
 20
1.0
 30
0.0
  9
$PUCSORTHOREF
  2

  9
$PUCSORTHOVIEW
 70
     0
  9
$PUCSORGTOP
 10
0.0
 20
0.0
 30
0.0
  9
$PUCSORGBOTTOM
 10
0.0
 20
0.0
 30
0.0
  9
$PUCSORGLEFT
 10
0.0
 20
0.0
 30
0.0
  9
$PUCSORGRIGHT
 10
0.0
 20
0.0
 30
0.0
  9
$PUCSORGFRONT
 10
0.0
 20
0.0
 30
0.0
  9
$PUCSORGBACK
 10
0.0
 20
0.0
 30
0.0
  9
$USERI1
 70
     0
  9
$USERI2
 70
     0
  9
$USERI3
 70
     0
  9
$USERI4
 70
     0
  9
$USERI5
 70
     0
  9
$USERR1
 40
0.0
  9
$USERR2
 40
0.0
  9
$USERR3
 40
0.0
  9
$USERR4
 40
0.0
  9
$USERR5
 40
0.0
  9
$WORLDVIEW
 70
     1
  9
$SHADEDGE
 70
     3
  9
$SHADEDIF
 70
    70
  9
$TILEMODE
 70
     1
  9
$MAXACTVP
 70
    64
  9
$PINSBASE
 10
0.0
 20
0.0
 30
0.0
  9
$PLIMCHECK
 70
     0
  9
$PEXTMIN
 10
1.000000000000000E+20
 20
1.000000000000000E+20
 30
1.000000000000000E+20
  9
$PEXTMAX
 10
-1.000000000000000E+20
 20
-1.000000000000000E+20
 30
-1.000000000000000E+20
  9
$PLIMMIN
 10
0.0
 20
0.0
  9
$PLIMMAX
 10
12.0
 20
9.0
  9
$UNITMODE
 70
     0
  9
$VISRETAIN
 70
     1
  9
$PLINEGEN
 70
     0
  9
$PSLTSCALE
 70
     1
  9
$TREEDEPTH
 70
  3020
  9
$CMLSTYLE
  2
Standard
  9
$CMLJUST
 70
     0
  9
$CMLSCALE
 40
1.0
  9
$PROXYGRAPHICS
 70
     1
  9
$MEASUREMENT
 70
     0
  9
$CELWEIGHT
370
    -1
  9
$ENDCAPS
280
     0
  9
$JOINSTYLE
280
     0
  9
$LWDISPLAY
290
     1
  9
$INSUNITS
 70
     1
  9
$HYPERLINKBASE
  1

  9
$STYLESHEET
  1

  9
$XEDIT
290
     1
  9
$CEPSNTYPE
380
     0
  9
$PSTYLEMODE
290
     1
  9
$FINGERPRINTGUID
  2
{232EC9E1-21DE-4BC4-8F02-FDFDA044B12C}
  9
$VERSIONGUID
  2
{FAEB1C32-E019-11D5-929B-00C0DF256EC4}
  9
$EXTNAMES
290
     1
  9
$PSVPSCALE
 40
0.0
  9
$OLESTARTUP
290
     0
  9
$SORTENTS
280
   127
  9
$INDEXCTL
280
     0
  9
$HIDETEXT
280
     1
  9
$XCLIPFRAME
290
     0
  9
$HALOGAP
280
     0
  9
$OBSCOLOR
 70
   257
  9
$OBSLTYPE
280
     0
  9
$INTERSECTIONDISPLAY
280
     0
  9
$INTERSECTIONCOLOR
 70
   257
  9
$DIMASSOC
280
     2
  9
$PROJECTNAME
  1

  0
ENDSEC
  0
SECTION
  2
CLASSES
  0
CLASS
  1
ACDBDICTIONARYWDFLT
  2
AcDbDictionaryWithDefault
  3
ObjectDBX Classes
 90
        0
 91
        3
280
     0
281
     0
  0
CLASS
  1
VISUALSTYLE
  2
AcDbVisualStyle
  3
ObjectDBX Classes
 90
     4095
 91
        3
280
     0
281
     0
  0
ENDSEC
  0
SECTION
  2
TABLES
  0
TABLE
  2
VPORT
  5
8
330
0
100
AcDbSymbolTable
 70
     1
  0
VPORT
  5
29
330
8
100
AcDbSymbolTableRecord
100
AcDbViewportTableRecord
  2
*Active
 70
     0
 10
0.0
 20
0.0
 11
1.0
 21
1.0
 12
0.0
 22
0.0
 13
0.0
 23
0.0
 14
0.5
 24
0.5
 15
0.5
 25
0.5
 16
0.0
 26
0.0
 36
1.0
 17
210.0791666141469
 27
148.5194444073146
 37
0.0
 40
297.0388888146292
 41
1.414489311163896
 42
50.0
 43
0.0
 44
0.0
 50
0.0
 51
0.0
 71
     0
 72
   100
 73
     1
 74
     3
 75
     0
 76
     0
 77
     0
 78
     0
281
     0
 65
     1
110
0.0
120
0.0
130
0.0
111
1.0
121
0.0
131
0.0
112
0.0
122
1.0
132
0.0
 79
     0
146
0.0
  0
ENDTAB
  0
TABLE
  2
LTYPE
  5
5
330
0
100
AcDbSymbolTable
 70
     1
  0
LTYPE
  5
14
330
5
100
AcDbSymbolTableRecord
100
AcDbLinetypeTableRecord
  2
ByBlock
 70
     0
  3

 72
    65
 73
     0
 40
0.0
  0
LTYPE
  5
15
330
5
100
AcDbSymbolTableRecord
100
AcDbLinetypeTableRecord
  2
ByLayer
 70
     0
  3

 72
    65
 73
     0
 40
0.0
  0
LTYPE
  5
16
330
5
100
AcDbSymbolTableRecord
100
AcDbLinetypeTableRecord
  2
Continuous
 70
     0
  3
Solid line
 72
    65
 73
     0
 40
0.0
  0
ENDTAB
  0
TABLE
  2
LAYER
  5
2
330
0
100
AcDbSymbolTable
 70
     2
  0
LAYER
  5
10
330
2
100
AcDbSymbolTableRecord
100
AcDbLayerTableRecord
  2
0
 70
     0
 62
     7
  6
Continuous
370
    -3
390
F
  0
LAYER
  5
3B
330
2
100
AcDbSymbolTableRecord
100
AcDbLayerTableRecord
  2
\U+30EC\U+30A4\U+30E4\U+30FC 1
 70
     0
 62
     7
  6
Continuous
370
    -3
390
F
  0
ENDTAB
  0
TABLE
  2
STYLE
  5
3
330
0
100
AcDbSymbolTable
 70
     1
  0
STYLE
  5
11
330
3
100
AcDbSymbolTableRecord
100
AcDbTextStyleTableRecord
  2
Standard
 70
     0
 40
0.0
 41
1.0
 50
0.0
 71
     0
 42
0.2
  3
txt
  4

  0
ENDTAB
  0
TABLE
  2
VIEW
  5
6
330
0
100
AcDbSymbolTable
 70
     0
  0
ENDTAB
  0
TABLE
  2
UCS
  5
7
330
0
100
AcDbSymbolTable
 70
     0
  0
ENDTAB
  0
TABLE
  2
APPID
  5
9
330
0
100
AcDbSymbolTable
 70
     1
  0
APPID
  5
12
330
9
100
AcDbSymbolTableRecord
100
AcDbRegAppTableRecord
  2
ACAD
 70
     0
  0
ENDTAB
  0
TABLE
  2
DIMSTYLE
  5
A
330
0
100
AcDbSymbolTable
 70
     1
100
AcDbDimStyleTable
  0
DIMSTYLE
105
27
330
A
100
AcDbSymbolTableRecord
100
AcDbDimStyleTableRecord
  2
Standard
 70
     0
340
11
  0
ENDTAB
  0
TABLE
  2
BLOCK_RECORD
  5
1
330
0
100
AcDbSymbolTable
 70
     2
  0
BLOCK_RECORD
  5
1F
330
1
100
AcDbSymbolTableRecord
100
AcDbBlockTableRecord
  2
*Model_Space
340
22
  0
BLOCK_RECORD
  5
1B
330
1
100
AcDbSymbolTableRecord
100
AcDbBlockTableRecord
  2
*Paper_Space
340
1E
  0
BLOCK_RECORD
  5
23
330
1
100
AcDbSymbolTableRecord
100
AcDbBlockTableRecord
  2
*Paper_Space0
340
26
  0
BLOCK_RECORD
  5
B6
330
1
100
AcDbSymbolTableRecord
100
AcDbBlockTableRecord
  2
block 2
340
0
102
{BLKREFS
331
B7
102
}
  0
ENDTAB
  0
ENDSEC
  0
SECTION
  2
BLOCKS
  0
BLOCK
  5
20
330
1F
100
AcDbEntity
  8
0
100
AcDbBlockBegin
  2
*Model_Space
 70
     0
 71
     0
 10
0.0
 20
0.0
 30
0.0
  3
*Model_Space
  1

  0
ENDBLK
  5
21
330
1F
100
AcDbEntity
  8
0
100
AcDbBlockEnd
  0
BLOCK
  5
1C
330
1B
100
AcDbEntity
 67
     1
  8
0
100
AcDbBlockBegin
  2
*Paper_Space
 70
     0
 71
     0
 10
0.0
 20
0.0
 30
0.0
  3
*Paper_Space
  1

  0
ENDBLK
  5
1D
330
1B
100
AcDbEntity
 67
     1
  8
0
100
AcDbBlockEnd
  0
BLOCK
  5
24
330
23
100
AcDbEntity
  8
0
100
AcDbBlockBegin
  2
*Paper_Space0
 70
     0
 71
     0
 10
0.0
 20
0.0
 30
0.0
  3
*Paper_Space0
  1

  0
ENDBLK
  5
25
330
23
100
AcDbEntity
  8
0
100
AcDbBlockEnd
  0
BLOCK
  5
B8
330
B6
100
AcDbEntity
  8
0
100
AcDbBlockBegin
  2
block 2
 70
     0
 71
     0
 10
0.0
 20
0.0
 30
0.0
  3
block 2
  1

  0
MTEXT
  5
BA
330
B6
100
AcDbEntity
  8
\U+30EC\U+30A4\U+30E4\U+30FC 1
 62
     7
420
 16777215
100
AcDbMText
 10
98.42499997539376
 20
11.37708333048906
 30
0.0
 40
2.15899999946025
 41
0.0
 71
     7
 72
     1
  1
\fMSGothic 90ms-RKSJ-H|b0|i0|c0|p34;\W1;記
 73
     1
 44
1.0
  0
MTEXT
  5
BB
330
B6
100
AcDbEntity
  8
\U+30EC\U+30A4\U+30E4\U+30FC 1
 62
     7
420
 16777215
100
AcDbMText
 10
101.5999999746
 20
11.37708333048906
 30
0.0
 40
2.15899999946025
 41
0.0
 71
     7
 72
     1
  1
\fMSGothic 90ms-RKSJ-H|b0|i0|c0|p34;\W1;\U+2003
 73
     1
 44
1.0
  0
MTEXT
  5
BC
330
B6
100
AcDbEntity
  8
\U+30EC\U+30A4\U+30E4\U+30FC 1
 62
     7
420
 16777215
100
AcDbMText
 10
104.7749999738063
 20
11.37708333048906
 30
0.0
 40
2.15899999946025
 41
0.0
 71
     7
 72
     1
  1
\fMSGothic 90ms-RKSJ-H|b0|i0|c0|p34;\W1;事
 73
     1
 44
1.0
  0
POLYLINE
  5
BD
330
B6
100
AcDbEntity
  8
\U+30EC\U+30A4\U+30E4\U+30FC 1
370
     0
100
AcDb2dPolyline
 66
     1
 10
0.0
 20
0.0
 30
0.0
  0
VERTEX
  5
BE
330
BD
100
AcDbEntity
  8
\U+30EC\U+30A4\U+30E4\U+30FC 1
370
     0
100
AcDbVertex
100
AcDb2dVertex
 10
98.42499997539376
 20
11.11249999722188
 30
0.0
  0
VERTEX
  5
BF
330
BD
100
AcDbEntity
  8
\U+30EC\U+30A4\U+30E4\U+30FC 1
370
     0
100
AcDbVertex
100
AcDb2dVertex
 10
107.9499999730125
 20
11.11249999722188
 30
0.0
  0
VERTEX
  5
C0
330
BD
100
AcDbEntity
  8
\U+30EC\U+30A4\U+30E4\U+30FC 1
370
     0
100
AcDbVertex
100
AcDb2dVertex
 10
107.9499999730125
 20
14.02291666316094
 30
0.0
  0
VERTEX
  5
C1
330
BD
100
AcDbEntity
  8
\U+30EC\U+30A4\U+30E4\U+30FC 1
370
     0
100
AcDbVertex
100
AcDb2dVertex
 10
98.42499997539376
 20
14.02291666316094
 30
0.0
  0
VERTEX
  5
C2
330
BD
100
AcDbEntity
  8
\U+30EC\U+30A4\U+30E4\U+30FC 1
370
     0
100
AcDbVertex
100
AcDb2dVertex
 10
98.42499997539376
 20
11.11249999722188
 30
0.0
  0
SEQEND
  5
C3
330
BD
100
AcDbEntity
  8
\U+30EC\U+30A4\U+30E4\U+30FC 1
370
     0
  0
ENDBLK
  5
B9
330
B6
100
AcDbEntity
  8
0
100
AcDbBlockEnd
  0
ENDSEC
  0
SECTION
  2
ENTITIES
  0
MTEXT
  5
3C
330
1F
100
AcDbEntity
  8
\U+30EC\U+30A4\U+30E4\U+30FC 1
 62
     7
420
 16777215
100
AcDbMText
 10
195.7916666177188
 20
14.02291666316094
 30
0.0
 40
2.15899999946025
 41
0.0
 71
     7
 72
     1
  1
\fMSGothic 90ms-RKSJ-H|b0|i0|c0|p34;\W1;５
 73
     1
 44
1.0
  0
MTEXT
  5
3D
330
1F
100
AcDbEntity
  8
\U+30EC\U+30A4\U+30E4\U+30FC 1
 62
     7
420
 16777215
100
AcDbMText
 10
198.966666616925
 20
14.02291666316094
 30
0.0
 40
2.15899999946025
 41
0.0
 71
     7
 72
     1
  1
\fMSGothic 90ms-RKSJ-H|b0|i0|c0|p34;\W1;：
 73
     1
 44
1.0
  0
MTEXT
  5
3E
330
1F
100
AcDbEntity
  8
\U+30EC\U+30A4\U+30E4\U+30FC 1
 62
     7
420
 16777215
100
AcDbMText
 10
202.1416666161313
 20
14.02291666316094
 30
0.0
 40
2.15899999946025
 41
0.0
 71
     7
 72
     1
  1
\fMSGothic 90ms-RKSJ-H|b0|i0|c0|p34;\W1;１
 73
     1
 44
1.0
  0
MTEXT
  5
3F
330
1F
100
AcDbEntity
  8
\U+30EC\U+30A4\U+30E4\U+30FC 1
 62
     7
420
 16777215
100
AcDbMText
 10
233.7455945596192
 20
19.77588161397964
 30
0.0
 40
2.15899999946025
 41
0.0
 71
     7
 72
     1
  1
\fMSGothic 90ms-RKSJ-H|b0|i0|c0|p34;\W1;ガ
 73
     1
 44
1.0
  0
MTEXT
  5
40
330
1F
100
AcDbEntity
  8
\U+30EC\U+30A4\U+30E4\U+30FC 1
 62
     7
420
 16777215
100
AcDbMText
 10
236.9205945588254
 20
19.77588161397964
 30
0.0
 40
2.15899999946025
 41
0.0
 71
     7
 72
     1
  1
\fMSGothic 90ms-RKSJ-H|b0|i0|c0|p34;\W1;ー
 73
     1
 44
1.0
  0
MTEXT
  5
41
330
1F
100
AcDbEntity
  8
\U+30EC\U+30A4\U+30E4\U+30FC 1
 62
     7
420
 16777215
100
AcDbMText
 10
240.0955945580317
 20
19.77588161397964
 30
0.0
 40
2.15899999946025
 41
0.0
 71
     7
 72
     1
  1
\fMSGothic 90ms-RKSJ-H|b0|i0|c0|p34;\W1;デ
 73
     1
 44
1.0
  0
MTEXT
  5
42
330
1F
100
AcDbEntity
  8
\U+30EC\U+30A4\U+30E4\U+30FC 1
 62
     7
420
 16777215
100
AcDbMText
 10
243.2705945572379
 20
19.77588161397964
 30
0.0
 40
2.15899999946025
 41
0.0
 71
     7
 72
     1
  1
\fMSGothic 90ms-RKSJ-H|b0|i0|c0|p34;\W1;ン
 73
     1
 44
1.0
  0
MTEXT
  5
43
330
1F
100
AcDbEntity
  8
\U+30EC\U+30A4\U+30E4\U+30FC 1
 62
     7
420
 16777215
100
AcDbMText
 10
246.4455945564442
 20
19.77588161397964
 30
0.0
 40
2.15899999946025
 41
0.0
 71
     7
 72
     1
  1
\fMSGothic 90ms-RKSJ-H|b0|i0|c0|p34;\W1;ス
 73
     1
 44
1.0
  0
MTEXT
  5
44
330
1F
100
AcDbEntity
  8
\U+30EC\U+30A4\U+30E4\U+30FC 1
 62
     7
420
 16777215
100
AcDbMText
 10
249.6205945556504
 20
19.77588161397964
 30
0.0
 40
2.15899999946025
 41
0.0
 71
     7
 72
     1
  1
\fMSGothic 90ms-RKSJ-H|b0|i0|c0|p34;\W1;ケ
 73
     1
 44
1.0
  0
MTEXT
  5
45
330
1F
100
AcDbEntity
  8
\U+30EC\U+30A4\U+30E4\U+30FC 1
 62
     7
420
 16777215
100
AcDbMText
 10
252.7955945548567
 20
19.77588161397964
 30
0.0
 40
2.15899999946025
 41
0.0
 71
     7
 72
     1
  1
\fMSGothic 90ms-RKSJ-H|b0|i0|c0|p34;\W1;ー
 73
     1
 44
1.0
  0
MTEXT
  5
46
330
1F
100
AcDbEntity
  8
\U+30EC\U+30A4\U+30E4\U+30FC 1
 62
     7
420
 16777215
100
AcDbMText
 10
255.9705945540629
 20
19.77588161397964
 30
0.0
 40
2.15899999946025
 41
0.0
 71
     7
 72
     1
  1
\fMSGothic 90ms-RKSJ-H|b0|i0|c0|p34;\W1;プ
 73
     1
 44
1.0
  0
MTEXT
  5
47
330
1F
100
AcDbEntity
  8
\U+30EC\U+30A4\U+30E4\U+30FC 1
 62
     7
420
 16777215
100
AcDbMText
 10
259.1455945532692
 20
19.77588161397964
 30
0.0
 40
2.15899999946025
 41
0.0
 71
     7
 72
     1
  1
\fMSGothic 90ms-RKSJ-H|b0|i0|c0|p34;\W1;用
 73
     1
 44
1.0
  0
MTEXT
  5
48
330
1F
100
AcDbEntity
  8
\U+30EC\U+30A4\U+30E4\U+30FC 1
 62
     7
420
 16777215
100
AcDbMText
 10
262.3784721566276
 20
19.77588161397964
 30
0.0
 40
2.15899999946025
 41
0.0
 71
     7
 72
     1
  1
\fMSGothic 90ms-RKSJ-H|b0|i0|c0|p34;\W1;コ
 73
     1
 44
1.0
  0
MTEXT
  5
49
330
1F
100
AcDbEntity
  8
\U+30EC\U+30A4\U+30E4\U+30FC 1
 62
     7
420
 16777215
100
AcDbMText
 10
265.5534721558338
 20
19.77588161397964
 30
0.0
 40
2.15899999946025
 41
0.0
 71
     7
 72
     1
  1
\fMSGothic 90ms-RKSJ-H|b0|i0|c0|p34;\W1;ー
 73
     1
 44
1.0
  0
MTEXT
  5
4A
330
1F
100
AcDbEntity
  8
\U+30EC\U+30A4\U+30E4\U+30FC 1
 62
     7
420
 16777215
100
AcDbMText
 10
268.7284721550401
 20
19.77588161397964
 30
0.0
 40
2.15899999946025
 41
0.0
 71
     7
 72
     1
  1
\fMSGothic 90ms-RKSJ-H|b0|i0|c0|p34;\W1;ド
 73
     1
 44
1.0
  0
MTEXT
  5
4B
330
1F
100
AcDbEntity
  8
\U+30EC\U+30A4\U+30E4\U+30FC 1
 62
     7
420
 16777215
100
AcDbMText
 10
240.8011501134108
 20
15.89532605939423
 30
0.0
 40
2.15899999946025
 41
0.0
 71
     7
 72
     1
  1
\fMSGothic 90ms-RKSJ-H|b0|i0|c0|p34;\W1;１００ｍリール
 73
     1
 44
1.0
  0
MTEXT
  5
4C
330
1F
100
AcDbEntity
  8
\U+30EC\U+30A4\U+30E4\U+30FC 1
 62
     7
420
 16777215
100
AcDbMText
 10
240.6054686898486
 20
29.81799044393439
 30
0.0
 40
2.15899999946025
 41
0.0
 71
     7
 72
     1
  1
\fMSGothic 90ms-RKSJ-H|b0|i0|c0|p34;\W1;Ｈ
 73
     1
 44
1.0
  0
MTEXT
  5
4D
330
1F
100
AcDbEntity
  8
\U+30EC\U+30A4\U+30E4\U+30FC 1
 62
     7
420
 16777215
100
AcDbMText
 10
243.7804686890549
 20
29.81799044393439
 30
0.0
 40
2.15899999946025
 41
0.0
 71
     7
 72
     1
  1
\fMSGothic 90ms-RKSJ-H|b0|i0|c0|p34;\W1;Ｃ
 73
     1
 44
1.0
  0
MTEXT
  5
4E
330
1F
100
AcDbEntity
  8
\U+30EC\U+30A4\U+30E4\U+30FC 1
 62
     7
420
 16777215
100
AcDbMText
 10
246.9554686882611
 20
29.81799044393439
 30
0.0
 40
2.15899999946025
 41
0.0
 71
     7
 72
     1
  1
\fMSGothic 90ms-RKSJ-H|b0|i0|c0|p34;\W1;Ｅ
 73
     1
 44
1.0
  0
MTEXT
  5
4F
330
1F
100
AcDbEntity
  8
\U+30EC\U+30A4\U+30E4\U+30FC 1
 62
     7
420
 16777215
100
AcDbMText
 10
250.1304686874674
 20
29.81799044393439
 30
0.0
 40
2.15899999946025
 41
0.0
 71
     7
 72
     1
  1
\fMSGothic 90ms-RKSJ-H|b0|i0|c0|p34;\W1;-
 73
     1
 44
1.0
  0
MTEXT
  5
50
330
1F
100
AcDbEntity
  8
\U+30EC\U+30A4\U+30E4\U+30FC 1
 62
     7
420
 16777215
100
AcDbMText
 10
251.7179686870705
 20
29.81799044393439
 30
0.0
 40
2.15899999946025
 41
0.0
 71
     7
 72
     1
  1
\fMSGothic 90ms-RKSJ-H|b0|i0|c0|p34;\W1;０
 73
     1
 44
1.0
  0
MTEXT
  5
51
330
1F
100
AcDbEntity
  8
\U+30EC\U+30A4\U+30E4\U+30FC 1
 62
     7
420
 16777215
100
AcDbMText
 10
254.8929686862768
 20
29.81799044393439
 30
0.0
 40
2.15899999946025
 41
0.0
 71
     7
 72
     1
  1
\fMSGothic 90ms-RKSJ-H|b0|i0|c0|p34;\W1;０
 73
     1
 44
1.0
  0
MTEXT
  5
52
330
1F
100
AcDbEntity
  8
\U+30EC\U+30A4\U+30E4\U+30FC 1
 62
     7
420
 16777215
100
AcDbMText
 10
258.067968685483
 20
29.81799044393439
 30
0.0
 40
2.15899999946025
 41
0.0
 71
     7
 72
     1
  1
\fMSGothic 90ms-RKSJ-H|b0|i0|c0|p34;\W1;０
 73
     1
 44
1.0
  0
MTEXT
  5
53
330
1F
100
AcDbEntity
  8
\U+30EC\U+30A4\U+30E4\U+30FC 1
 62
     7
420
 16777215
100
AcDbMText
 10
261.2429686846893
 20
29.81799044393439
 30
0.0
 40
2.15899999946025
 41
0.0
 71
     7
 72
     1
  1
\fMSGothic 90ms-RKSJ-H|b0|i0|c0|p34;\W1;４
 73
     1
 44
1.0
  0
MTEXT
  5
54
330
1F
100
AcDbEntity
  8
\U+30EC\U+30A4\U+30E4\U+30FC 1
 62
     7
420
 16777215
100
AcDbMText
 10
195.8104423881134
 20
21.78471679142882
 30
0.0
 40
2.15899999946025
 41
0.0
 71
     7
 72
     1
  1
\fMSGothic 90ms-RKSJ-H|b0|i0|c0|p34;\W1;498215
 73
     1
 44
1.0
  0
MTEXT
  5
55
330
1F
100
AcDbEntity
  8
\U+30EC\U+30A4\U+30E4\U+30FC 1
 62
     7
420
 16777215
100
AcDbMText
 10
169.8624999575344
 20
30.42708332572656
 30
0.0
 40
2.15899999946025
 41
0.0
 71
     7
 72
     1
  1
\fMSGothic 90ms-RKSJ-H|b0|i0|c0|p34;\W1;2
 73
     1
 44
1.0
  0
MTEXT
  5
56
330
1F
100
AcDbEntity
  8
\U+30EC\U+30A4\U+30E4\U+30FC 1
 62
     7
420
 16777215
100
AcDbMText
 10
171.4499999571375
 20
30.42708332572656
 30
0.0
 40
2.15899999946025
 41
0.0
 71
     7
 72
     1
  1
\fMSGothic 90ms-RKSJ-H|b0|i0|c0|p34;\W1;0
 73
     1
 44
1.0
  0
MTEXT
  5
57
330
1F
100
AcDbEntity
  8
\U+30EC\U+30A4\U+30E4\U+30FC 1
 62
     7
420
 16777215
100
AcDbMText
 10
173.0374999567406
 20
30.42708332572656
 30
0.0
 40
2.15899999946025
 41
0.0
 71
     7
 72
     1
  1
\fMSGothic 90ms-RKSJ-H|b0|i0|c0|p34;\W1;1
 73
     1
 44
1.0
  0
MTEXT
  5
58
330
1F
100
AcDbEntity
  8
\U+30EC\U+30A4\U+30E4\U+30FC 1
 62
     7
420
 16777215
100
AcDbMText
 10
174.6249999563438
 20
30.42708332572656
 30
0.0
 40
2.15899999946025
 41
0.0
 71
     7
 72
     1
  1
\fMSGothic 90ms-RKSJ-H|b0|i0|c0|p34;\W1;4
 73
     1
 44
1.0
  0
MTEXT
  5
59
330
1F
100
AcDbEntity
  8
\U+30EC\U+30A4\U+30E4\U+30FC 1
 62
     7
420
 16777215
100
AcDbMText
 10
176.2124999559469
 20
30.42708332572656
 30
0.0
 40
2.15899999946025
 41
0.0
 71
     7
 72
     1
  1
\fMSGothic 90ms-RKSJ-H|b0|i0|c0|p34;\W1;\U+2003
 73
     1
 44
1.0
  0
MTEXT
  5
5A
330
1F
100
AcDbEntity
  8
\U+30EC\U+30A4\U+30E4\U+30FC 1
 62
     7
420
 16777215
100
AcDbMText
 10
179.3874999551531
 20
30.42708332572656
 30
0.0
 40
2.15899999946025
 41
0.0
 71
     7
 72
     1
  1
\fMSGothic 90ms-RKSJ-H|b0|i0|c0|p34;\W1;年
 73
     1
 44
1.0
  0
MTEXT
  5
5B
330
1F
100
AcDbEntity
  8
\U+30EC\U+30A4\U+30E4\U+30FC 1
 62
     7
420
 16777215
100
AcDbMText
 10
182.5624999543594
 20
30.42708332572656
 30
0.0
 40
2.15899999946025
 41
0.0
 71
     7
 72
     1
  1
\fMSGothic 90ms-RKSJ-H|b0|i0|c0|p34;\W1;\U+2003
 73
     1
 44
1.0
  0
MTEXT
  5
5C
330
1F
100
AcDbEntity
  8
\U+30EC\U+30A4\U+30E4\U+30FC 1
 62
     7
420
 16777215
100
AcDbMText
 10
185.7374999535656
 20
30.42708332572656
 30
0.0
 40
2.15899999946025
 41
0.0
 71
     7
 72
     1
  1
\fMSGothic 90ms-RKSJ-H|b0|i0|c0|p34;\W1;7
 73
     1
 44
1.0
  0
MTEXT
  5
5D
330
1F
100
AcDbEntity
  8
\U+30EC\U+30A4\U+30E4\U+30FC 1
 62
     7
420
 16777215
100
AcDbMText
 10
187.3249999531688
 20
30.42708332572656
 30
0.0
 40
2.15899999946025
 41
0.0
 71
     7
 72
     1
  1
\fMSGothic 90ms-RKSJ-H|b0|i0|c0|p34;\W1;\U+2003
 73
     1
 44
1.0
  0
MTEXT
  5
5E
330
1F
100
AcDbEntity
  8
\U+30EC\U+30A4\U+30E4\U+30FC 1
 62
     7
420
 16777215
100
AcDbMText
 10
190.499999952375
 20
30.42708332572656
 30
0.0
 40
2.15899999946025
 41
0.0
 71
     7
 72
     1
  1
\fMSGothic 90ms-RKSJ-H|b0|i0|c0|p34;\W1;月
 73
     1
 44
1.0
  0
MTEXT
  5
5F
330
1F
100
AcDbEntity
  8
\U+30EC\U+30A4\U+30E4\U+30FC 1
 62
     7
420
 16777215
100
AcDbMText
 10
193.6749999515813
 20
30.42708332572656
 30
0.0
 40
2.15899999946025
 41
0.0
 71
     7
 72
     1
  1
\fMSGothic 90ms-RKSJ-H|b0|i0|c0|p34;\W1;\U+2003
 73
     1
 44
1.0
  0
MTEXT
  5
60
330
1F
100
AcDbEntity
  8
\U+30EC\U+30A4\U+30E4\U+30FC 1
 62
     7
420
 16777215
100
AcDbMText
 10
196.8499999507875
 20
30.42708332572656
 30
0.0
 40
2.15899999946025
 41
0.0
 71
     7
 72
     1
  1
\fMSGothic 90ms-RKSJ-H|b0|i0|c0|p34;\W1; 
 73
     1
 44
1.0
  0
MTEXT
  5
61
330
1F
100
AcDbEntity
  8
\U+30EC\U+30A4\U+30E4\U+30FC 1
 62
     7
420
 16777215
100
AcDbMText
 10
197.6878471728003
 20
30.42708332572656
 30
0.0
 40
2.15899999946025
 41
0.0
 71
     7
 72
     1
  1
\fMSGothic 90ms-RKSJ-H|b0|i0|c0|p34;\W1;16
 73
     1
 44
1.0
  0
MTEXT
  5
62
330
1F
100
AcDbEntity
  8
\U+30EC\U+30A4\U+30E4\U+30FC 1
 62
     7
420
 16777215
100
AcDbMText
 10
200.0249999499938
 20
30.42708332572656
 30
0.0
 40
2.15899999946025
 41
0.0
 71
     7
 72
     1
  1
\fMSGothic 90ms-RKSJ-H|b0|i0|c0|p34;\W1;\U+2003
 73
     1
 44
1.0
  0
MTEXT
  5
63
330
1F
100
AcDbEntity
  8
\U+30EC\U+30A4\U+30E4\U+30FC 1
 62
     7
420
 16777215
100
AcDbMText
 10
203.1999999492
 20
30.42708332572656
 30
0.0
 40
2.15899999946025
 41
0.0
 71
     7
 72
     1
  1
\fMSGothic 90ms-RKSJ-H|b0|i0|c0|p34;\W1;日
 73
     1
 44
1.0
  0
POLYLINE
  5
64
330
1F
100
AcDbEntity
  8
\U+30EC\U+30A4\U+30E4\U+30FC 1
 62
     7
420
 16777215
370
    25
100
AcDb2dPolyline
 66
     1
 10
0.0
 20
0.0
 30
0.0
  0
VERTEX
  5
65
330
64
100
AcDbEntity
  8
\U+30EC\U+30A4\U+30E4\U+30FC 1
 62
     7
420
 16777215
370
    25
100
AcDbVertex
100
AcDb2dVertex
 10
281.7812499295547
 20
35.71874999107031
 30
0.0
  0
VERTEX
  5
66
330
64
100
AcDbEntity
  8
\U+30EC\U+30A4\U+30E4\U+30FC 1
 62
     7
420
 16777215
370
    25
100
AcDbVertex
100
AcDb2dVertex
 10
281.7812499295547
 20
10.84791666395469
 30
0.0
  0
SEQEND
  5
67
330
64
100
AcDbEntity
  8
\U+30EC\U+30A4\U+30E4\U+30FC 1
370
    25
  0
POLYLINE
  5
68
330
1F
100
AcDbEntity
  8
\U+30EC\U+30A4\U+30E4\U+30FC 1
 62
     7
420
 16777215
370
    25
100
AcDb2dPolyline
 66
     1
 10
0.0
 20
0.0
 30
0.0
  0
VERTEX
  5
69
330
68
100
AcDbEntity
  8
\U+30EC\U+30A4\U+30E4\U+30FC 1
 62
     7
420
 16777215
370
    25
100
AcDbVertex
100
AcDb2dVertex
 10
148.6958332961594
 20
27.78124999305469
 30
0.0
  0
VERTEX
  5
6A
330
68
100
AcDbEntity
  8
\U+30EC\U+30A4\U+30E4\U+30FC 1
 62
     7
420
 16777215
370
    25
100
AcDbVertex
100
AcDb2dVertex
 10
281.7812499295547
 20
27.78124999305469
 30
0.0
  0
SEQEND
  5
6B
330
68
100
AcDbEntity
  8
\U+30EC\U+30A4\U+30E4\U+30FC 1
370
    25
  0
POLYLINE
  5
6C
330
1F
100
AcDbEntity
  8
\U+30EC\U+30A4\U+30E4\U+30FC 1
 62
     7
420
 16777215
370
    25
100
AcDb2dPolyline
 66
     1
 10
0.0
 20
0.0
 30
0.0
  0
VERTEX
  5
6D
330
6C
100
AcDbEntity
  8
\U+30EC\U+30A4\U+30E4\U+30FC 1
 62
     7
420
 16777215
370
    25
100
AcDbVertex
100
AcDb2dVertex
 10
181.7687499545578
 20
19.31458332850469
 30
0.0
  0
VERTEX
  5
6E
330
6C
100
AcDbEntity
  8
\U+30EC\U+30A4\U+30E4\U+30FC 1
 62
     7
420
 16777215
370
    25
100
AcDbVertex
100
AcDb2dVertex
 10
216.6937499458266
 20
19.31458332850469
 30
0.0
  0
SEQEND
  5
6F
330
6C
100
AcDbEntity
  8
\U+30EC\U+30A4\U+30E4\U+30FC 1
370
    25
  0
POLYLINE
  5
70
330
1F
100
AcDbEntity
  8
\U+30EC\U+30A4\U+30E4\U+30FC 1
 62
     7
420
 16777215
370
    25
100
AcDb2dPolyline
 66
     1
 10
0.0
 20
0.0
 30
0.0
  0
VERTEX
  5
71
330
70
100
AcDbEntity
  8
\U+30EC\U+30A4\U+30E4\U+30FC 1
 62
     7
420
 16777215
370
    25
100
AcDbVertex
100
AcDb2dVertex
 10
14.8166666629625
 20
287.6020832614328
 30
0.0
  0
VERTEX
  5
72
330
70
100
AcDbEntity
  8
\U+30EC\U+30A4\U+30E4\U+30FC 1
 62
     7
420
 16777215
370
    25
100
AcDbVertex
100
AcDb2dVertex
 10
404.5479165655297
 20
287.6020832614328
 30
0.0
  0
VERTEX
  5
73
330
70
100
AcDbEntity
  8
\U+30EC\U+30A4\U+30E4\U+30FC 1
 62
     7
420
 16777215
370
    25
100
AcDbVertex
100
AcDb2dVertex
 10
404.5479165655297
 20
10.84791666395469
 30
0.0
  0
SEQEND
  5
74
330
70
100
AcDbEntity
  8
\U+30EC\U+30A4\U+30E4\U+30FC 1
370
    25
  0
MTEXT
  5
75
330
1F
100
AcDbEntity
  8
\U+30EC\U+30A4\U+30E4\U+30FC 1
 62
     7
420
 16777215
100
AcDbMText
 10
49.47708332096406
 20
285.4854165952953
 30
0.0
 40
2.15899999946025
 41
0.0
 71
     7
 72
     1
  1
\fMSGothic 90ms-RKSJ-H|b0|i0|c0|p34;\W1;図
 11
-0.9999999999999886
 21
1.509957990978371E-7
 31
0.0
 73
     1
 44
1.0
  0
MTEXT
  5
76
330
1F
100
AcDbEntity
  8
\U+30EC\U+30A4\U+30E4\U+30FC 1
 62
     7
420
 16777215
100
AcDbMText
 10
46.30208332175781
 20
285.4854165952953
 30
0.0
 40
2.15899999946025
 41
0.0
 71
     7
 72
     1
  1
\fMSGothic 90ms-RKSJ-H|b0|i0|c0|p34;\W1;\U+2003
 11
-0.9999999999999886
 21
1.509957990978371E-7
 31
0.0
 73
     1
 44
1.0
  0
MTEXT
  5
77
330
1F
100
AcDbEntity
  8
\U+30EC\U+30A4\U+30E4\U+30FC 1
 62
     7
420
 16777215
100
AcDbMText
 10
43.12708332255156
 20
285.4854165952953
 30
0.0
 40
2.15899999946025
 41
0.0
 71
     7
 72
     1
  1
\fMSGothic 90ms-RKSJ-H|b0|i0|c0|p34;\W1;番
 11
-0.9999999999999886
 21
1.509957990978371E-7
 31
0.0
 73
     1
 44
1.0
  0
POLYLINE
  5
78
330
1F
100
AcDbEntity
  8
\U+30EC\U+30A4\U+30E4\U+30FC 1
 62
     7
420
 16777215
370
    25
100
AcDb2dPolyline
 66
     1
 10
0.0
 20
0.0
 30
0.0
  0
VERTEX
  5
79
330
78
100
AcDbEntity
  8
\U+30EC\U+30A4\U+30E4\U+30FC 1
 62
     7
420
 16777215
370
    25
100
AcDbVertex
100
AcDb2dVertex
 10
52.65208332017031
 20
280.722916596486
 30
0.0
  0
VERTEX
  5
7A
330
78
100
AcDbEntity
  8
\U+30EC\U+30A4\U+30E4\U+30FC 1
 62
     7
420
 16777215
370
    25
100
AcDbVertex
100
AcDb2dVertex
 10
52.65208332017031
 20
287.6020832614328
 30
0.0
  0
SEQEND
  5
7B
330
78
100
AcDbEntity
  8
\U+30EC\U+30A4\U+30E4\U+30FC 1
370
    25
  0
MTEXT
  5
7C
330
1F
100
AcDbEntity
  8
\U+30EC\U+30A4\U+30E4\U+30FC 1
 62
     7
420
 16777215
100
AcDbMText
 10
25.92916666018438
 20
11.64166666375625
 30
0.0
 40
2.15899999946025
 41
0.0
 71
     7
 72
     1
  1
\fMSGothic 90ms-RKSJ-H|b0|i0|c0|p34;\W1;符
 73
     1
 44
1.0
  0
MTEXT
  5
7D
330
1F
100
AcDbEntity
  8
\U+30EC\U+30A4\U+30E4\U+30FC 1
 62
     7
420
 16777215
100
AcDbMText
 10
29.10416665939062
 20
11.64166666375625
 30
0.0
 40
2.15899999946025
 41
0.0
 71
     7
 72
     1
  1
\fMSGothic 90ms-RKSJ-H|b0|i0|c0|p34;\W1; 
 73
     1
 44
1.0
  0
MTEXT
  5
7E
330
1F
100
AcDbEntity
  8
\U+30EC\U+30A4\U+30E4\U+30FC 1
 62
     7
420
 16777215
100
AcDbMText
 10
30.69166665899375
 20
11.64166666375625
 30
0.0
 40
2.15899999946025
 41
0.0
 71
     7
 72
     1
  1
\fMSGothic 90ms-RKSJ-H|b0|i0|c0|p34;\W1;号
 73
     1
 44
1.0
  0
MTEXT
  5
7F
330
1F
100
AcDbEntity
  8
\U+30EC\U+30A4\U+30E4\U+30FC 1
 62
     7
420
 16777215
100
AcDbMText
 10
17.72708332890156
 20
31.22083332552813
 30
0.0
 40
2.15899999946025
 41
0.0
 71
     7
 72
     1
  1
\fMSGothic 90ms-RKSJ-H|b0|i0|c0|p34;\W1;備
 73
     1
 44
1.0
  0
MTEXT
  5
80
330
1F
100
AcDbEntity
  8
\U+30EC\U+30A4\U+30E4\U+30FC 1
 62
     7
420
 16777215
100
AcDbMText
 10
20.90208332810781
 20
31.22083332552813
 30
0.0
 40
2.15899999946025
 41
0.0
 71
     7
 72
     1
  1
\fMSGothic 90ms-RKSJ-H|b0|i0|c0|p34;\W1;\U+2003
 73
     1
 44
1.0
  0
MTEXT
  5
81
330
1F
100
AcDbEntity
  8
\U+30EC\U+30A4\U+30E4\U+30FC 1
 62
     7
420
 16777215
100
AcDbMText
 10
17.99166666216875
 20
26.98749999325313
 30
0.0
 40
2.15899999946025
 41
0.0
 71
     7
 72
     1
  1
\fMSGothic 90ms-RKSJ-H|b0|i0|c0|p34;\W1;\U+2003
 73
     1
 44
1.0
  0
MTEXT
  5
82
330
1F
100
AcDbEntity
  8
\U+30EC\U+30A4\U+30E4\U+30FC 1
 62
     7
420
 16777215
100
AcDbMText
 10
17.72708332890156
 20
22.75416666097813
 30
0.0
 40
2.15899999946025
 41
0.0
 71
     7
 72
     1
  1
\fMSGothic 90ms-RKSJ-H|b0|i0|c0|p34;\W1;考
 73
     1
 44
1.0
  0
MTEXT
  5
83
330
1F
100
AcDbEntity
  8
\U+30EC\U+30A4\U+30E4\U+30FC 1
 62
     7
420
 16777215
100
AcDbMText
 10
20.90208332810781
 20
22.75416666097813
 30
0.0
 40
2.15899999946025
 41
0.0
 71
     7
 72
     1
  1
\fMSGothic 90ms-RKSJ-H|b0|i0|c0|p34;\W1;\U+2003
 73
     1
 44
1.0
  0
MTEXT
  5
84
330
1F
100
AcDbEntity
  8
\U+30EC\U+30A4\U+30E4\U+30FC 1
 62
     7
420
 16777215
100
AcDbMText
 10
17.99166666216875
 20
18.52083332870313
 30
0.0
 40
2.15899999946025
 41
0.0
 71
     7
 72
     1
  1
\fMSGothic 90ms-RKSJ-H|b0|i0|c0|p34;\W1;\U+2003
 73
     1
 44
1.0
  0
MTEXT
  5
85
330
1F
100
AcDbEntity
  8
\U+30EC\U+30A4\U+30E4\U+30FC 1
 62
     7
420
 16777215
100
AcDbMText
 10
17.99166666216875
 20
14.28749999642813
 30
0.0
 40
2.15899999946025
 41
0.0
 71
     7
 72
     1
  1
\fMSGothic 90ms-RKSJ-H|b0|i0|c0|p34;\W1;欄
 73
     1
 44
1.0
  0
MTEXT
  5
86
330
1F
100
AcDbEntity
  8
\U+30EC\U+30A4\U+30E4\U+30FC 1
 62
     7
420
 16777215
100
AcDbMText
 10
27.78124999305469
 20
24.07708332731406
 30
0.0
 40
2.15899999946025
 41
0.0
 71
     7
 72
     1
  1
\fMSGothic 90ms-RKSJ-H|b0|i0|c0|p34;\W1;②
 73
     1
 44
1.0
  0
MTEXT
  5
87
330
1F
100
AcDbEntity
  8
\U+30EC\U+30A4\U+30E4\U+30FC 1
 62
     7
420
 16777215
100
AcDbMText
 10
27.78124999305469
 20
17.19791666236719
 30
0.0
 40
2.15899999946025
 41
0.0
 71
     7
 72
     1
  1
\fMSGothic 90ms-RKSJ-H|b0|i0|c0|p34;\W1;①
 73
     1
 44
1.0
  0
POLYLINE
  5
88
330
1F
100
AcDbEntity
  8
\U+30EC\U+30A4\U+30E4\U+30FC 1
 62
     7
420
 16777215
370
    25
100
AcDb2dPolyline
 66
     1
 10
0.0
 20
0.0
 30
0.0
  0
VERTEX
  5
89
330
88
100
AcDbEntity
  8
\U+30EC\U+30A4\U+30E4\U+30FC 1
 62
     7
420
 16777215
370
    25
100
AcDbVertex
100
AcDb2dVertex
 10
24.60624999384844
 20
35.71874999107031
 30
0.0
  0
VERTEX
  5
8A
330
88
100
AcDbEntity
  8
\U+30EC\U+30A4\U+30E4\U+30FC 1
 62
     7
420
 16777215
370
    25
100
AcDbVertex
100
AcDb2dVertex
 10
24.60624999384844
 20
10.84791666395469
 30
0.0
  0
SEQEND
  5
8B
330
88
100
AcDbEntity
  8
\U+30EC\U+30A4\U+30E4\U+30FC 1
370
    25
  0
POLYLINE
  5
8C
330
1F
100
AcDbEntity
  8
\U+30EC\U+30A4\U+30E4\U+30FC 1
 62
     7
420
 16777215
370
    25
100
AcDb2dPolyline
 66
     1
 10
0.0
 20
0.0
 30
0.0
  0
VERTEX
  5
8D
330
8C
100
AcDbEntity
  8
\U+30EC\U+30A4\U+30E4\U+30FC 1
 62
     7
420
 16777215
370
    25
100
AcDbVertex
100
AcDb2dVertex
 10
14.8166666629625
 20
10.84791666395469
 30
0.0
  0
VERTEX
  5
8E
330
8C
100
AcDbEntity
  8
\U+30EC\U+30A4\U+30E4\U+30FC 1
 62
     7
420
 16777215
370
    25
100
AcDbVertex
100
AcDb2dVertex
 10
14.8166666629625
 20
287.6020832614328
 30
0.0
  0
SEQEND
  5
8F
330
8C
100
AcDbEntity
  8
\U+30EC\U+30A4\U+30E4\U+30FC 1
370
    25
  0
POLYLINE
  5
90
330
1F
100
AcDbEntity
  8
\U+30EC\U+30A4\U+30E4\U+30FC 1
 62
     7
420
 16777215
370
    25
100
AcDb2dPolyline
 66
     1
 10
0.0
 20
0.0
 30
0.0
  0
VERTEX
  5
91
330
90
100
AcDbEntity
  8
\U+30EC\U+30A4\U+30E4\U+30FC 1
 62
     7
420
 16777215
370
    25
100
AcDbVertex
100
AcDb2dVertex
 10
14.8166666629625
 20
280.722916596486
 30
0.0
  0
VERTEX
  5
92
330
90
100
AcDbEntity
  8
\U+30EC\U+30A4\U+30E4\U+30FC 1
 62
     7
420
 16777215
370
    25
100
AcDbVertex
100
AcDb2dVertex
 10
52.65208332017031
 20
280.722916596486
 30
0.0
  0
SEQEND
  5
93
330
90
100
AcDbEntity
  8
\U+30EC\U+30A4\U+30E4\U+30FC 1
370
    25
  0
POLYLINE
  5
94
330
1F
100
AcDbEntity
  8
\U+30EC\U+30A4\U+30E4\U+30FC 1
 62
     7
420
 16777215
370
    25
100
AcDb2dPolyline
 66
     1
 10
0.0
 20
0.0
 30
0.0
  0
VERTEX
  5
95
330
94
100
AcDbEntity
  8
\U+30EC\U+30A4\U+30E4\U+30FC 1
 62
     7
420
 16777215
370
    25
100
AcDbVertex
100
AcDb2dVertex
 10
37.57083332394063
 20
287.6020832614328
 30
0.0
  0
VERTEX
  5
96
330
94
100
AcDbEntity
  8
\U+30EC\U+30A4\U+30E4\U+30FC 1
 62
     7
420
 16777215
370
    25
100
AcDbVertex
100
AcDb2dVertex
 10
37.57083332394063
 20
280.722916596486
 30
0.0
  0
SEQEND
  5
97
330
94
100
AcDbEntity
  8
\U+30EC\U+30A4\U+30E4\U+30FC 1
370
    25
  0
POLYLINE
  5
98
330
1F
100
AcDbEntity
  8
\U+30EC\U+30A4\U+30E4\U+30FC 1
 62
     7
420
 16777215
370
    25
100
AcDb2dPolyline
 66
     1
 10
0.0
 20
0.0
 30
0.0
  0
VERTEX
  5
99
330
98
100
AcDbEntity
  8
\U+30EC\U+30A4\U+30E4\U+30FC 1
 62
     7
420
 16777215
370
    25
100
AcDbVertex
100
AcDb2dVertex
 10
52.65208332017031
 20
280.722916596486
 30
0.0
  0
VERTEX
  5
9A
330
98
100
AcDbEntity
  8
\U+30EC\U+30A4\U+30E4\U+30FC 1
 62
     7
420
 16777215
370
    25
100
AcDbVertex
100
AcDb2dVertex
 10
52.65208332017031
 20
287.6020832614328
 30
0.0
  0
SEQEND
  5
9B
330
98
100
AcDbEntity
  8
\U+30EC\U+30A4\U+30E4\U+30FC 1
370
    25
  0
POLYLINE
  5
9C
330
1F
100
AcDbEntity
  8
\U+30EC\U+30A4\U+30E4\U+30FC 1
 62
     7
420
 16777215
370
    25
100
AcDb2dPolyline
 66
     1
 10
0.0
 20
0.0
 30
0.0
  0
VERTEX
  5
9D
330
9C
100
AcDbEntity
  8
\U+30EC\U+30A4\U+30E4\U+30FC 1
 62
     7
420
 16777215
370
    25
100
AcDbVertex
100
AcDb2dVertex
 10
37.57083332394063
 20
287.6020832614328
 30
0.0
  0
VERTEX
  5
9E
330
9C
100
AcDbEntity
  8
\U+30EC\U+30A4\U+30E4\U+30FC 1
 62
     7
420
 16777215
370
    25
100
AcDbVertex
100
AcDb2dVertex
 10
37.57083332394063
 20
280.722916596486
 30
0.0
  0
SEQEND
  5
9F
330
9C
100
AcDbEntity
  8
\U+30EC\U+30A4\U+30E4\U+30FC 1
370
    25
  0
MTEXT
  5
A0
330
1F
100
AcDbEntity
  8
\U+30EC\U+30A4\U+30E4\U+30FC 1
 62
     7
420
 16777215
100
AcDbMText
 10
27.78124999305469
 20
30.95624999226094
 30
0.0
 40
2.15899999946025
 41
0.0
 71
     7
 72
     1
  1
\fMSGothic 90ms-RKSJ-H|b0|i0|c0|p34;\W1;③
 73
     1
 44
1.0
  0
POLYLINE
  5
A1
330
1F
100
AcDbEntity
  8
\U+30EC\U+30A4\U+30E4\U+30FC 1
 62
     7
420
 16777215
370
    25
100
AcDb2dPolyline
 66
     1
 10
0.0
 20
0.0
 30
0.0
  0
VERTEX
  5
A2
330
A1
100
AcDbEntity
  8
\U+30EC\U+30A4\U+30E4\U+30FC 1
 62
     7
420
 16777215
370
    25
100
AcDbVertex
100
AcDb2dVertex
 10
24.60624999384844
 20
35.71874999107031
 30
0.0
  0
VERTEX
  5
A3
330
A1
100
AcDbEntity
  8
\U+30EC\U+30A4\U+30E4\U+30FC 1
 62
     7
420
 16777215
370
    25
100
AcDbVertex
100
AcDb2dVertex
 10
24.60624999384844
 20
10.84791666395469
 30
0.0
  0
SEQEND
  5
A4
330
A1
100
AcDbEntity
  8
\U+30EC\U+30A4\U+30E4\U+30FC 1
370
    25
  0
POLYLINE
  5
A5
330
1F
100
AcDbEntity
  8
\U+30EC\U+30A4\U+30E4\U+30FC 1
 62
     7
420
 16777215
370
    25
100
AcDb2dPolyline
 66
     1
 10
0.0
 20
0.0
 30
0.0
  0
VERTEX
  5
A6
330
A5
100
AcDbEntity
  8
\U+30EC\U+30A4\U+30E4\U+30FC 1
 62
     7
420
 16777215
370
    25
100
AcDbVertex
100
AcDb2dVertex
 10
14.8166666629625
 20
10.84791666395469
 30
0.0
  0
VERTEX
  5
A7
330
A5
100
AcDbEntity
  8
\U+30EC\U+30A4\U+30E4\U+30FC 1
 62
     7
420
 16777215
370
    25
100
AcDbVertex
100
AcDb2dVertex
 10
14.8166666629625
 20
35.71874999107031
 30
0.0
  0
SEQEND
  5
A8
330
A5
100
AcDbEntity
  8
\U+30EC\U+30A4\U+30E4\U+30FC 1
370
    25
  0
POLYLINE
  5
A9
330
1F
100
AcDbEntity
  8
\U+30EC\U+30A4\U+30E4\U+30FC 1
 62
     7
420
 16777215
370
    25
100
AcDb2dPolyline
 66
     1
 10
0.0
 20
0.0
 30
0.0
  0
VERTEX
  5
AA
330
A9
100
AcDbEntity
  8
\U+30EC\U+30A4\U+30E4\U+30FC 1
 62
     7
420
 16777215
370
    25
100
AcDbVertex
100
AcDb2dVertex
 10
34.66041665800157
 20
35.71874999107031
 30
0.0
  0
VERTEX
  5
AB
330
A9
100
AcDbEntity
  8
\U+30EC\U+30A4\U+30E4\U+30FC 1
 62
     7
420
 16777215
370
    25
100
AcDbVertex
100
AcDb2dVertex
 10
34.66041665800157
 20
10.84791666395469
 30
0.0
  0
SEQEND
  5
AC
330
A9
100
AcDbEntity
  8
\U+30EC\U+30A4\U+30E4\U+30FC 1
370
    25
  0
POLYLINE
  5
AD
330
1F
100
AcDbEntity
  8
\U+30EC\U+30A4\U+30E4\U+30FC 1
 62
     7
420
 16777215
370
    25
100
AcDb2dPolyline
 66
     1
 10
0.0
 20
0.0
 30
0.0
  0
VERTEX
  5
AE
330
AD
100
AcDbEntity
  8
\U+30EC\U+30A4\U+30E4\U+30FC 1
 62
     7
420
 16777215
370
    25
100
AcDbVertex
100
AcDb2dVertex
 10
34.66041665800157
 20
35.71874999107031
 30
0.0
  0
VERTEX
  5
AF
330
AD
100
AcDbEntity
  8
\U+30EC\U+30A4\U+30E4\U+30FC 1
 62
     7
420
 16777215
370
    25
100
AcDbVertex
100
AcDb2dVertex
 10
34.66041665800157
 20
10.84791666395469
 30
0.0
  0
SEQEND
  5
B0
330
AD
100
AcDbEntity
  8
\U+30EC\U+30A4\U+30E4\U+30FC 1
370
    25
  0
POLYLINE
  5
B1
330
1F
100
AcDbEntity
  8
\U+30EC\U+30A4\U+30E4\U+30FC 1
 62
     7
420
 16777215
370
    25
100
AcDb2dPolyline
 66
     1
 10
0.0
 20
0.0
 30
0.0
  0
VERTEX
  5
B2
330
B1
100
AcDbEntity
  8
\U+30EC\U+30A4\U+30E4\U+30FC 1
 62
     7
420
 16777215
370
    25
100
AcDbVertex
100
AcDb2dVertex
 10
14.8166666629625
 20
10.84791666395469
 30
0.0
  0
VERTEX
  5
B3
330
B1
100
AcDbEntity
  8
\U+30EC\U+30A4\U+30E4\U+30FC 1
 62
     7
420
 16777215
370
    25
100
AcDbVertex
100
AcDb2dVertex
 10
14.8166666629625
 20
35.71874999107031
 30
0.0
  0
VERTEX
  5
B4
330
B1
100
AcDbEntity
  8
\U+30EC\U+30A4\U+30E4\U+30FC 1
 62
     7
420
 16777215
370
    25
100
AcDbVertex
100
AcDb2dVertex
 10
404.5479165655297
 20
35.71874999107031
 30
0.0
  0
SEQEND
  5
B5
330
B1
100
AcDbEntity
  8
\U+30EC\U+30A4\U+30E4\U+30FC 1
370
    25
  0
INSERT
  5
B7
330
1F
100
AcDbEntity
  8
\U+30EC\U+30A4\U+30E4\U+30FC 1
100
AcDbBlockReference
  2
block 2
 10
0.0
 20
0.0
 30
0.0
  0
MTEXT
  5
C4
330
1F
100
AcDbEntity
  8
\U+30EC\U+30A4\U+30E4\U+30FC 1
 62
     7
420
 16777215
100
AcDbMText
 10
40.74583332314688
 20
11.64166666375625
 30
0.0
 40
2.15899999946025
 41
0.0
 71
     7
 72
     1
  1
\fMSGothic 90ms-RKSJ-H|b0|i0|c0|p34;\W1;日
 73
     1
 44
1.0
  0
MTEXT
  5
C5
330
1F
100
AcDbEntity
  8
\U+30EC\U+30A4\U+30E4\U+30FC 1
 62
     7
420
 16777215
100
AcDbMText
 10
43.92083332235313
 20
11.64166666375625
 30
0.0
 40
2.15899999946025
 41
0.0
 71
     7
 72
     1
  1
\fMSGothic 90ms-RKSJ-H|b0|i0|c0|p34;\W1;\U+2003
 73
     1
 44
1.0
  0
MTEXT
  5
C6
330
1F
100
AcDbEntity
  8
\U+30EC\U+30A4\U+30E4\U+30FC 1
 62
     7
420
 16777215
100
AcDbMText
 10
47.09583332155938
 20
11.64166666375625
 30
0.0
 40
2.15899999946025
 41
0.0
 71
     7
 72
     1
  1
\fMSGothic 90ms-RKSJ-H|b0|i0|c0|p34;\W1;付
 73
     1
 44
1.0
  0
POLYLINE
  5
C7
330
1F
100
AcDbEntity
  8
\U+30EC\U+30A4\U+30E4\U+30FC 1
 62
     7
420
 16777215
370
    25
100
AcDb2dPolyline
 66
     1
 10
0.0
 20
0.0
 30
0.0
  0
VERTEX
  5
C8
330
C7
100
AcDbEntity
  8
\U+30EC\U+30A4\U+30E4\U+30FC 1
 62
     7
420
 16777215
370
    25
100
AcDbVertex
100
AcDb2dVertex
 10
404.5479165655297
 20
10.84791666395469
 30
0.0
  0
VERTEX
  5
C9
330
C7
100
AcDbEntity
  8
\U+30EC\U+30A4\U+30E4\U+30FC 1
 62
     7
420
 16777215
370
    25
100
AcDbVertex
100
AcDb2dVertex
 10
14.8166666629625
 20
10.84791666395469
 30
0.0
  0
SEQEND
  5
CA
330
C7
100
AcDbEntity
  8
\U+30EC\U+30A4\U+30E4\U+30FC 1
370
    25
  0
POLYLINE
  5
CB
330
1F
100
AcDbEntity
  8
\U+30EC\U+30A4\U+30E4\U+30FC 1
 62
     7
420
 16777215
370
    25
100
AcDb2dPolyline
 66
     1
 10
0.0
 20
0.0
 30
0.0
  0
VERTEX
  5
CC
330
CB
100
AcDbEntity
  8
\U+30EC\U+30A4\U+30E4\U+30FC 1
 62
     7
420
 16777215
370
    25
100
AcDbVertex
100
AcDb2dVertex
 10
24.60624999384844
 20
14.8166666629625
 30
0.0
  0
VERTEX
  5
CD
330
CB
100
AcDbEntity
  8
\U+30EC\U+30A4\U+30E4\U+30FC 1
 62
     7
420
 16777215
370
    25
100
AcDbVertex
100
AcDb2dVertex
 10
148.6958332961594
 20
14.8166666629625
 30
0.0
  0
SEQEND
  5
CE
330
CB
100
AcDbEntity
  8
\U+30EC\U+30A4\U+30E4\U+30FC 1
370
    25
  0
POLYLINE
  5
CF
330
1F
100
AcDbEntity
  8
\U+30EC\U+30A4\U+30E4\U+30FC 1
 62
     7
420
 16777215
370
    25
100
AcDb2dPolyline
 66
     1
 10
0.0
 20
0.0
 30
0.0
  0
VERTEX
  5
D0
330
CF
100
AcDbEntity
  8
\U+30EC\U+30A4\U+30E4\U+30FC 1
 62
     7
420
 16777215
370
    25
100
AcDbVertex
100
AcDb2dVertex
 10
24.60624999384844
 20
21.69583332790938
 30
0.0
  0
VERTEX
  5
D1
330
CF
100
AcDbEntity
  8
\U+30EC\U+30A4\U+30E4\U+30FC 1
 62
     7
420
 16777215
370
    25
100
AcDbVertex
100
AcDb2dVertex
 10
148.6958332961594
 20
21.69583332790938
 30
0.0
  0
SEQEND
  5
D2
330
CF
100
AcDbEntity
  8
\U+30EC\U+30A4\U+30E4\U+30FC 1
370
    25
  0
POLYLINE
  5
D3
330
1F
100
AcDbEntity
  8
\U+30EC\U+30A4\U+30E4\U+30FC 1
 62
     7
420
 16777215
370
    25
100
AcDb2dPolyline
 66
     1
 10
0.0
 20
0.0
 30
0.0
  0
VERTEX
  5
D4
330
D3
100
AcDbEntity
  8
\U+30EC\U+30A4\U+30E4\U+30FC 1
 62
     7
420
 16777215
370
    25
100
AcDbVertex
100
AcDb2dVertex
 10
24.60624999384844
 20
28.83958332612344
 30
0.0
  0
VERTEX
  5
D5
330
D3
100
AcDbEntity
  8
\U+30EC\U+30A4\U+30E4\U+30FC 1
 62
     7
420
 16777215
370
    25
100
AcDbVertex
100
AcDb2dVertex
 10
148.6958332961594
 20
28.83958332612344
 30
0.0
  0
SEQEND
  5
D6
330
D3
100
AcDbEntity
  8
\U+30EC\U+30A4\U+30E4\U+30FC 1
370
    25
  0
MTEXT
  5
D7
330
1F
100
AcDbEntity
  8
\U+30EC\U+30A4\U+30E4\U+30FC 1
 62
     7
420
 16777215
100
AcDbMText
 10
150.0187499624953
 20
23.2833333275125
 30
0.0
 40
2.15899999946025
 41
0.0
 71
     7
 72
     1
  1
\fMSGothic 90ms-RKSJ-H|b0|i0|c0|p34;\W1;製
 73
     1
 44
1.0
  0
MTEXT
  5
D8
330
1F
100
AcDbEntity
  8
\U+30EC\U+30A4\U+30E4\U+30FC 1
 62
     7
420
 16777215
100
AcDbMText
 10
153.1937499617016
 20
23.2833333275125
 30
0.0
 40
2.15899999946025
 41
0.0
 71
     7
 72
     1
  1
\fMSGothic 90ms-RKSJ-H|b0|i0|c0|p34;\W1; 
 73
     1
 44
1.0
  0
MTEXT
  5
D9
330
1F
100
AcDbEntity
  8
\U+30EC\U+30A4\U+30E4\U+30FC 1
 62
     7
420
 16777215
100
AcDbMText
 10
154.7812499613047
 20
23.2833333275125
 30
0.0
 40
2.15899999946025
 41
0.0
 71
     7
 72
     1
  1
\fMSGothic 90ms-RKSJ-H|b0|i0|c0|p34;\W1;図
 73
     1
 44
1.0
  0
POLYLINE
  5
DA
330
1F
100
AcDbEntity
  8
\U+30EC\U+30A4\U+30E4\U+30FC 1
 62
     7
420
 16777215
370
    25
100
AcDb2dPolyline
 66
     1
 10
0.0
 20
0.0
 30
0.0
  0
VERTEX
  5
DB
330
DA
100
AcDbEntity
  8
\U+30EC\U+30A4\U+30E4\U+30FC 1
 62
     7
420
 16777215
370
    25
100
AcDbVertex
100
AcDb2dVertex
 10
58.73749998531563
 20
35.71874999107031
 30
0.0
  0
VERTEX
  5
DC
330
DA
100
AcDbEntity
  8
\U+30EC\U+30A4\U+30E4\U+30FC 1
 62
     7
420
 16777215
370
    25
100
AcDbVertex
100
AcDb2dVertex
 10
58.73749998531563
 20
10.84791666395469
 30
0.0
  0
SEQEND
  5
DD
330
DA
100
AcDbEntity
  8
\U+30EC\U+30A4\U+30E4\U+30FC 1
370
    25
  0
POLYLINE
  5
DE
330
1F
100
AcDbEntity
  8
\U+30EC\U+30A4\U+30E4\U+30FC 1
 62
     7
420
 16777215
370
    25
100
AcDb2dPolyline
 66
     1
 10
0.0
 20
0.0
 30
0.0
  0
VERTEX
  5
DF
330
DE
100
AcDbEntity
  8
\U+30EC\U+30A4\U+30E4\U+30FC 1
 62
     7
420
 16777215
370
    25
100
AcDbVertex
100
AcDb2dVertex
 10
24.60624999384844
 20
14.8166666629625
 30
0.0
  0
VERTEX
  5
E0
330
DE
100
AcDbEntity
  8
\U+30EC\U+30A4\U+30E4\U+30FC 1
 62
     7
420
 16777215
370
    25
100
AcDbVertex
100
AcDb2dVertex
 10
148.6958332961594
 20
14.8166666629625
 30
0.0
  0
SEQEND
  5
E1
330
DE
100
AcDbEntity
  8
\U+30EC\U+30A4\U+30E4\U+30FC 1
370
    25
  0
MTEXT
  5
E2
330
1F
100
AcDbEntity
  8
\U+30EC\U+30A4\U+30E4\U+30FC 1
 62
     7
420
 16777215
100
AcDbMText
 10
150.0187499624953
 20
30.69166665899375
 30
0.0
 40
2.15899999946025
 41
0.0
 71
     7
 72
     1
  1
\fMSGothic 90ms-RKSJ-H|b0|i0|c0|p34;\W1;日
 73
     1
 44
1.0
  0
MTEXT
  5
E3
330
1F
100
AcDbEntity
  8
\U+30EC\U+30A4\U+30E4\U+30FC 1
 62
     7
420
 16777215
100
AcDbMText
 10
153.1937499617016
 20
30.69166665899375
 30
0.0
 40
2.15899999946025
 41
0.0
 71
     7
 72
     1
  1
\fMSGothic 90ms-RKSJ-H|b0|i0|c0|p34;\W1; 
 73
     1
 44
1.0
  0
MTEXT
  5
E4
330
1F
100
AcDbEntity
  8
\U+30EC\U+30A4\U+30E4\U+30FC 1
 62
     7
420
 16777215
100
AcDbMText
 10
154.7812499613047
 20
30.69166665899375
 30
0.0
 40
2.15899999946025
 41
0.0
 71
     7
 72
     1
  1
\fMSGothic 90ms-RKSJ-H|b0|i0|c0|p34;\W1;付
 73
     1
 44
1.0
  0
MTEXT
  5
E5
330
1F
100
AcDbEntity
  8
\U+30EC\U+30A4\U+30E4\U+30FC 1
 62
     7
420
 16777215
100
AcDbMText
 10
164.3062499589234
 20
15.34583332949687
 30
0.0
 40
2.15899999946025
 41
0.0
 71
     7
 72
     1
  1
\fMSGothic 90ms-RKSJ-H|b0|i0|c0|p34;\W1; 
 73
     1
 44
1.0
  0
MTEXT
  5
E6
330
1F
100
AcDbEntity
  8
\U+30EC\U+30A4\U+30E4\U+30FC 1
 62
     7
420
 16777215
100
AcDbMText
 10
161.1312499597172
 20
23.2833333275125
 30
0.0
 40
2.15899999946025
 41
0.0
 71
     7
 72
     1
  1
\fMSGothic 90ms-RKSJ-H|b0|i0|c0|p34;\W1;検
 73
     1
 44
1.0
  0
MTEXT
  5
E7
330
1F
100
AcDbEntity
  8
\U+30EC\U+30A4\U+30E4\U+30FC 1
 62
     7
420
 16777215
100
AcDbMText
 10
164.3062499589234
 20
23.2833333275125
 30
0.0
 40
2.15899999946025
 41
0.0
 71
     7
 72
     1
  1
\fMSGothic 90ms-RKSJ-H|b0|i0|c0|p34;\W1; 
 73
     1
 44
1.0
  0
MTEXT
  5
E8
330
1F
100
AcDbEntity
  8
\U+30EC\U+30A4\U+30E4\U+30FC 1
 62
     7
420
 16777215
100
AcDbMText
 10
165.8937499585266
 20
23.2833333275125
 30
0.0
 40
2.15899999946025
 41
0.0
 71
     7
 72
     1
  1
\fMSGothic 90ms-RKSJ-H|b0|i0|c0|p34;\W1;図
 73
     1
 44
1.0
  0
MTEXT
  5
E9
330
1F
100
AcDbEntity
  8
\U+30EC\U+30A4\U+30E4\U+30FC 1
 62
     7
420
 16777215
100
AcDbMText
 10
171.9791666236719
 20
23.54791666077969
 30
0.0
 40
2.15899999946025
 41
0.0
 71
     7
 72
     1
  1
\fMSGothic 90ms-RKSJ-H|b0|i0|c0|p34;\W1;承
 73
     1
 44
1.0
  0
MTEXT
  5
EA
330
1F
100
AcDbEntity
  8
\U+30EC\U+30A4\U+30E4\U+30FC 1
 62
     7
420
 16777215
100
AcDbMText
 10
175.1541666228781
 20
23.54791666077969
 30
0.0
 40
2.15899999946025
 41
0.0
 71
     7
 72
     1
  1
\fMSGothic 90ms-RKSJ-H|b0|i0|c0|p34;\W1; 
 73
     1
 44
1.0
  0
MTEXT
  5
EB
330
1F
100
AcDbEntity
  8
\U+30EC\U+30A4\U+30E4\U+30FC 1
 62
     7
420
 16777215
100
AcDbMText
 10
176.7416666224813
 20
23.54791666077969
 30
0.0
 40
2.15899999946025
 41
0.0
 71
     7
 72
     1
  1
\fMSGothic 90ms-RKSJ-H|b0|i0|c0|p34;\W1;認
 73
     1
 44
1.0
  0
MTEXT
  5
EC
330
1F
100
AcDbEntity
  8
\U+30EC\U+30A4\U+30E4\U+30FC 1
 62
     7
420
 16777215
100
AcDbMText
 10
175.4187499561453
 20
15.34583332949687
 30
0.0
 40
2.15899999946025
 41
0.0
 71
     7
 72
     1
  1
\fMSGothic 90ms-RKSJ-H|b0|i0|c0|p34;\W1; 
 73
     1
 44
1.0
  0
MTEXT
  5
ED
330
1F
100
AcDbEntity
  8
\U+30EC\U+30A4\U+30E4\U+30FC 1
 62
     7
420
 16777215
100
AcDbMText
 10
182.5624999543594
 20
16.13958332929844
 30
0.0
 40
2.15899999946025
 41
0.0
 71
     7
 72
     1
  1
\fMSGothic 90ms-RKSJ-H|b0|i0|c0|p34;\W1;尺
 73
     1
 44
1.0
  0
MTEXT
  5
EE
330
1F
100
AcDbEntity
  8
\U+30EC\U+30A4\U+30E4\U+30FC 1
 62
     7
420
 16777215
100
AcDbMText
 10
182.5624999543594
 20
11.90624999702344
 30
0.0
 40
2.15899999946025
 41
0.0
 71
     7
 72
     1
  1
\fMSGothic 90ms-RKSJ-H|b0|i0|c0|p34;\W1;度
 73
     1
 44
1.0
  0
MTEXT
  5
EF
330
1F
100
AcDbEntity
  8
\U+30EC\U+30A4\U+30E4\U+30FC 1
 62
     7
420
 16777215
100
AcDbMText
 10
182.5624999543594
 20
24.34166666058125
 30
0.0
 40
2.15899999946025
 41
0.0
 71
     7
 72
     1
  1
\fMSGothic 90ms-RKSJ-H|b0|i0|c0|p34;\W1;図
 73
     1
 44
1.0
  0
MTEXT
  5
F0
330
1F
100
AcDbEntity
  8
\U+30EC\U+30A4\U+30E4\U+30FC 1
 62
     7
420
 16777215
100
AcDbMText
 10
185.7374999535656
 20
24.34166666058125
 30
0.0
 40
2.15899999946025
 41
0.0
 71
     7
 72
     1
  1
\fMSGothic 90ms-RKSJ-H|b0|i0|c0|p34;\W1;\U+2003
 73
     1
 44
1.0
  0
MTEXT
  5
F1
330
1F
100
AcDbEntity
  8
\U+30EC\U+30A4\U+30E4\U+30FC 1
 62
     7
420
 16777215
100
AcDbMText
 10
182.5624999543594
 20
20.10833332830625
 30
0.0
 40
2.15899999946025
 41
0.0
 71
     7
 72
     1
  1
\fMSGothic 90ms-RKSJ-H|b0|i0|c0|p34;\W1;番
 73
     1
 44
1.0
  0
MTEXT
  5
F2
330
1F
100
AcDbEntity
  8
\U+30EC\U+30A4\U+30E4\U+30FC 1
 62
     7
420
 16777215
100
AcDbMText
 10
150.0187499624953
 20
15.34583332949687
 30
0.0
 40
2.15899999946025
 41
0.0
 71
     7
 72
     1
  1
\fMSGothic 90ms-RKSJ-H|b0|i0|c0|p34;\W1;畔 上
 73
     1
 44
1.0
  0
MTEXT
  5
F3
330
1F
100
AcDbEntity
  8
\U+30EC\U+30A4\U+30E4\U+30FC 1
 62
     7
420
 16777215
100
AcDbMText
 10
161.3958332929844
 20
15.34583332949687
 30
0.0
 40
2.15899999946025
 41
0.0
 71
     7
 72
     1
  1
\fMSGothic 90ms-RKSJ-H|b0|i0|c0|p34;\W1;花 田
 73
     1
 44
1.0
  0
MTEXT
  5
F4
330
1F
100
AcDbEntity
  8
\U+30EC\U+30A4\U+30E4\U+30FC 1
 62
     7
420
 16777215
100
AcDbMText
 10
172.0673610680943
 20
15.34583332949687
 30
0.0
 40
2.15899999946025
 41
0.0
 71
     7
 72
     1
  1
\fMSGothic 90ms-RKSJ-H|b0|i0|c0|p34;\W1;花 田
 73
     1
 44
1.0
  0
POLYLINE
  5
F5
330
1F
100
AcDbEntity
  8
\U+30EC\U+30A4\U+30E4\U+30FC 1
 62
     7
420
 16777215
370
    25
100
AcDb2dPolyline
 66
     1
 10
0.0
 20
0.0
 30
0.0
  0
VERTEX
  5
F6
330
F5
100
AcDbEntity
  8
\U+30EC\U+30A4\U+30E4\U+30FC 1
 62
     7
420
 16777215
370
    25
100
AcDbVertex
100
AcDb2dVertex
 10
159.8083332933813
 20
35.71874999107031
 30
0.0
  0
VERTEX
  5
F7
330
F5
100
AcDbEntity
  8
\U+30EC\U+30A4\U+30E4\U+30FC 1
 62
     7
420
 16777215
370
    25
100
AcDbVertex
100
AcDb2dVertex
 10
159.8083332933813
 20
10.84791666395469
 30
0.0
  0
SEQEND
  5
F8
330
F5
100
AcDbEntity
  8
\U+30EC\U+30A4\U+30E4\U+30FC 1
370
    25
  0
POLYLINE
  5
F9
330
1F
100
AcDbEntity
  8
\U+30EC\U+30A4\U+30E4\U+30FC 1
 62
     7
420
 16777215
370
    25
100
AcDb2dPolyline
 66
     1
 10
0.0
 20
0.0
 30
0.0
  0
VERTEX
  5
FA
330
F9
100
AcDbEntity
  8
\U+30EC\U+30A4\U+30E4\U+30FC 1
 62
     7
420
 16777215
370
    25
100
AcDbVertex
100
AcDb2dVertex
 10
148.6958332961594
 20
21.69583332790938
 30
0.0
  0
VERTEX
  5
FB
330
F9
100
AcDbEntity
  8
\U+30EC\U+30A4\U+30E4\U+30FC 1
 62
     7
420
 16777215
370
    25
100
AcDbVertex
100
AcDb2dVertex
 10
181.7687499545578
 20
21.69583332790938
 30
0.0
  0
SEQEND
  5
FC
330
F9
100
AcDbEntity
  8
\U+30EC\U+30A4\U+30E4\U+30FC 1
370
    25
  0
POLYLINE
  5
FD
330
1F
100
AcDbEntity
  8
\U+30EC\U+30A4\U+30E4\U+30FC 1
 62
     7
420
 16777215
370
    25
100
AcDb2dPolyline
 66
     1
 10
0.0
 20
0.0
 30
0.0
  0
VERTEX
  5
FE
330
FD
100
AcDbEntity
  8
\U+30EC\U+30A4\U+30E4\U+30FC 1
 62
     7
420
 16777215
370
    25
100
AcDbVertex
100
AcDb2dVertex
 10
148.6958332961594
 20
35.71874999107031
 30
0.0
  0
VERTEX
  5
FF
330
FD
100
AcDbEntity
  8
\U+30EC\U+30A4\U+30E4\U+30FC 1
 62
     7
420
 16777215
370
    25
100
AcDbVertex
100
AcDb2dVertex
 10
148.6958332961594
 20
10.84791666395469
 30
0.0
  0
SEQEND
  5
100
330
FD
100
AcDbEntity
  8
\U+30EC\U+30A4\U+30E4\U+30FC 1
370
    25
  0
MTEXT
  5
101
330
1F
100
AcDbEntity
  8
\U+30EC\U+30A4\U+30E4\U+30FC 1
 62
     7
420
 16777215
100
AcDbMText
 10
217.4874999456281
 20
18.25624999543594
 30
0.0
 40
2.15899999946025
 41
0.0
 71
     7
 72
     1
  1
\fMSGothic 90ms-RKSJ-H|b0|i0|c0|p34;\W1;\U+2003
 73
     1
 44
1.0
  0
MTEXT
  5
102
330
1F
100
AcDbEntity
  8
\U+30EC\U+30A4\U+30E4\U+30FC 1
 62
     7
420
 16777215
100
AcDbMText
 10
217.4874999456281
 20
22.48958332771094
 30
0.0
 40
2.15899999946025
 41
0.0
 71
     7
 72
     1
  1
\fMSGothic 90ms-RKSJ-H|b0|i0|c0|p34;\W1;品
 73
     1
 44
1.0
  0
MTEXT
  5
103
330
1F
100
AcDbEntity
  8
\U+30EC\U+30A4\U+30E4\U+30FC 1
 62
     7
420
 16777215
100
AcDbMText
 10
220.6624999448344
 20
22.48958332771094
 30
0.0
 40
2.15899999946025
 41
0.0
 71
     7
 72
     1
  1
\fMSGothic 90ms-RKSJ-H|b0|i0|c0|p34;\W1;\U+2003
 73
     1
 44
1.0
  0
MTEXT
  5
104
330
1F
100
AcDbEntity
  8
\U+30EC\U+30A4\U+30E4\U+30FC 1
 62
     7
420
 16777215
100
AcDbMText
 10
217.7520832788953
 20
18.25624999543594
 30
0.0
 40
2.15899999946025
 41
0.0
 71
     7
 72
     1
  1
\fMSGothic 90ms-RKSJ-H|b0|i0|c0|p34;\W1;\U+2003
 73
     1
 44
1.0
  0
MTEXT
  5
105
330
1F
100
AcDbEntity
  8
\U+30EC\U+30A4\U+30E4\U+30FC 1
 62
     7
420
 16777215
100
AcDbMText
 10
220.9270832781016
 20
18.25624999543594
 30
0.0
 40
2.15899999946025
 41
0.0
 71
     7
 72
     1
  1
\fMSGothic 90ms-RKSJ-H|b0|i0|c0|p34;\W1;\U+2003
 73
     1
 44
1.0
  0
MTEXT
  5
106
330
1F
100
AcDbEntity
  8
\U+30EC\U+30A4\U+30E4\U+30FC 1
 62
     7
420
 16777215
100
AcDbMText
 10
217.4874999456281
 20
14.02291666316094
 30
0.0
 40
2.15899999946025
 41
0.0
 71
     7
 72
     1
  1
\fMSGothic 90ms-RKSJ-H|b0|i0|c0|p34;\W1;名
 73
     1
 44
1.0
  0
MTEXT
  5
107
330
1F
100
AcDbEntity
  8
\U+30EC\U+30A4\U+30E4\U+30FC 1
 62
     7
420
 16777215
100
AcDbMText
 10
217.4874999456281
 20
32.54374999186406
 30
0.0
 40
2.15899999946025
 41
0.0
 71
     7
 72
     1
  1
\fMSGothic 90ms-RKSJ-H|b0|i0|c0|p34;\W1;品
 73
     1
 44
1.0
  0
MTEXT
  5
108
330
1F
100
AcDbEntity
  8
\U+30EC\U+30A4\U+30E4\U+30FC 1
 62
     7
420
 16777215
100
AcDbMText
 10
217.7520832788953
 20
28.31041665958906
 30
0.0
 40
2.15899999946025
 41
0.0
 71
     7
 72
     1
  1
\fMSGothic 90ms-RKSJ-H|b0|i0|c0|p34;\W1;番
 73
     1
 44
1.0
  0
POLYLINE
  5
109
330
1F
100
AcDbEntity
  8
\U+30EC\U+30A4\U+30E4\U+30FC 1
 62
     7
420
 16777215
370
    25
100
AcDb2dPolyline
 66
     1
 10
0.0
 20
0.0
 30
0.0
  0
VERTEX
  5
10A
330
109
100
AcDbEntity
  8
\U+30EC\U+30A4\U+30E4\U+30FC 1
 62
     7
420
 16777215
370
    25
100
AcDbVertex
100
AcDb2dVertex
 10
221.7208332779031
 20
35.71874999107031
 30
0.0
  0
VERTEX
  5
10B
330
109
100
AcDbEntity
  8
\U+30EC\U+30A4\U+30E4\U+30FC 1
 62
     7
420
 16777215
370
    25
100
AcDbVertex
100
AcDb2dVertex
 10
221.7208332779031
 20
10.84791666395469
 30
0.0
  0
SEQEND
  5
10C
330
109
100
AcDbEntity
  8
\U+30EC\U+30A4\U+30E4\U+30FC 1
370
    25
  0
POLYLINE
  5
10D
330
1F
100
AcDbEntity
  8
\U+30EC\U+30A4\U+30E4\U+30FC 1
 62
     7
420
 16777215
370
    25
100
AcDb2dPolyline
 66
     1
 10
0.0
 20
0.0
 30
0.0
  0
VERTEX
  5
10E
330
10D
100
AcDbEntity
  8
\U+30EC\U+30A4\U+30E4\U+30FC 1
 62
     7
420
 16777215
370
    25
100
AcDbVertex
100
AcDb2dVertex
 10
216.6937499458266
 20
35.71874999107031
 30
0.0
  0
VERTEX
  5
10F
330
10D
100
AcDbEntity
  8
\U+30EC\U+30A4\U+30E4\U+30FC 1
 62
     7
420
 16777215
370
    25
100
AcDbVertex
100
AcDb2dVertex
 10
216.6937499458266
 20
10.84791666395469
 30
0.0
  0
SEQEND
  5
110
330
10D
100
AcDbEntity
  8
\U+30EC\U+30A4\U+30E4\U+30FC 1
370
    25
  0
POLYLINE
  5
111
330
1F
100
AcDbEntity
  8
\U+30EC\U+30A4\U+30E4\U+30FC 1
 62
     7
420
 16777215
370
    25
100
AcDb2dPolyline
 66
     1
 10
0.0
 20
0.0
 30
0.0
  0
VERTEX
  5
112
330
111
100
AcDbEntity
  8
\U+30EC\U+30A4\U+30E4\U+30FC 1
 62
     7
420
 16777215
370
    25
100
AcDbVertex
100
AcDb2dVertex
 10
148.6958332961594
 20
27.78124999305469
 30
0.0
  0
VERTEX
  5
113
330
111
100
AcDbEntity
  8
\U+30EC\U+30A4\U+30E4\U+30FC 1
 62
     7
420
 16777215
370
    25
100
AcDbVertex
100
AcDb2dVertex
 10
281.7812499295547
 20
27.78124999305469
 30
0.0
  0
SEQEND
  5
114
330
111
100
AcDbEntity
  8
\U+30EC\U+30A4\U+30E4\U+30FC 1
370
    25
  0
POLYLINE
  5
115
330
1F
100
AcDbEntity
  8
\U+30EC\U+30A4\U+30E4\U+30FC 1
 62
     7
420
 16777215
370
    25
100
AcDb2dPolyline
 66
     1
 10
0.0
 20
0.0
 30
0.0
  0
VERTEX
  5
116
330
115
100
AcDbEntity
  8
\U+30EC\U+30A4\U+30E4\U+30FC 1
 62
     7
420
 16777215
370
    25
100
AcDbVertex
100
AcDb2dVertex
 10
181.7687499545578
 20
19.31458332850469
 30
0.0
  0
VERTEX
  5
117
330
115
100
AcDbEntity
  8
\U+30EC\U+30A4\U+30E4\U+30FC 1
 62
     7
420
 16777215
370
    25
100
AcDbVertex
100
AcDb2dVertex
 10
216.6937499458266
 20
19.31458332850469
 30
0.0
  0
SEQEND
  5
118
330
115
100
AcDbEntity
  8
\U+30EC\U+30A4\U+30E4\U+30FC 1
370
    25
  0
POLYLINE
  5
119
330
1F
100
AcDbEntity
  8
\U+30EC\U+30A4\U+30E4\U+30FC 1
 62
     7
420
 16777215
370
    25
100
AcDb2dPolyline
 66
     1
 10
0.0
 20
0.0
 30
0.0
  0
VERTEX
  5
11A
330
119
100
AcDbEntity
  8
\U+30EC\U+30A4\U+30E4\U+30FC 1
 62
     7
420
 16777215
370
    25
100
AcDbVertex
100
AcDb2dVertex
 10
186.7958332866344
 20
27.78124999305469
 30
0.0
  0
VERTEX
  5
11B
330
119
100
AcDbEntity
  8
\U+30EC\U+30A4\U+30E4\U+30FC 1
 62
     7
420
 16777215
370
    25
100
AcDbVertex
100
AcDb2dVertex
 10
186.7958332866344
 20
10.84791666395469
 30
0.0
  0
SEQEND
  5
11C
330
119
100
AcDbEntity
  8
\U+30EC\U+30A4\U+30E4\U+30FC 1
370
    25
  0
POLYLINE
  5
11D
330
1F
100
AcDbEntity
  8
\U+30EC\U+30A4\U+30E4\U+30FC 1
 62
     7
420
 16777215
370
    25
100
AcDb2dPolyline
 66
     1
 10
0.0
 20
0.0
 30
0.0
  0
VERTEX
  5
11E
330
11D
100
AcDbEntity
  8
\U+30EC\U+30A4\U+30E4\U+30FC 1
 62
     7
420
 16777215
370
    25
100
AcDbVertex
100
AcDb2dVertex
 10
181.7687499545578
 20
27.78124999305469
 30
0.0
  0
VERTEX
  5
11F
330
11D
100
AcDbEntity
  8
\U+30EC\U+30A4\U+30E4\U+30FC 1
 62
     7
420
 16777215
370
    25
100
AcDbVertex
100
AcDb2dVertex
 10
181.7687499545578
 20
10.84791666395469
 30
0.0
  0
SEQEND
  5
120
330
11D
100
AcDbEntity
  8
\U+30EC\U+30A4\U+30E4\U+30FC 1
370
    25
  0
POLYLINE
  5
121
330
1F
100
AcDbEntity
  8
\U+30EC\U+30A4\U+30E4\U+30FC 1
 62
     7
420
 16777215
370
    25
100
AcDb2dPolyline
 66
     1
 10
0.0
 20
0.0
 30
0.0
  0
VERTEX
  5
122
330
121
100
AcDbEntity
  8
\U+30EC\U+30A4\U+30E4\U+30FC 1
 62
     7
420
 16777215
370
    25
100
AcDbVertex
100
AcDb2dVertex
 10
170.6562499573359
 20
27.78124999305469
 30
0.0
  0
VERTEX
  5
123
330
121
100
AcDbEntity
  8
\U+30EC\U+30A4\U+30E4\U+30FC 1
 62
     7
420
 16777215
370
    25
100
AcDbVertex
100
AcDb2dVertex
 10
170.6562499573359
 20
10.84791666395469
 30
0.0
  0
SEQEND
  5
124
330
121
100
AcDbEntity
  8
\U+30EC\U+30A4\U+30E4\U+30FC 1
370
    25
  0
POLYLINE
  5
125
330
1F
100
AcDbEntity
  8
\U+30EC\U+30A4\U+30E4\U+30FC 1
 62
     7
420
 16777215
370
    25
100
AcDb2dPolyline
 66
     1
 10
0.0
 20
0.0
 30
0.0
  0
VERTEX
  5
126
330
125
100
AcDbEntity
  8
\U+30EC\U+30A4\U+30E4\U+30FC 1
 62
     7
420
 16777215
370
    25
100
AcDbVertex
100
AcDb2dVertex
 10
159.8083332933813
 20
35.71874999107031
 30
0.0
  0
VERTEX
  5
127
330
125
100
AcDbEntity
  8
\U+30EC\U+30A4\U+30E4\U+30FC 1
 62
     7
420
 16777215
370
    25
100
AcDbVertex
100
AcDb2dVertex
 10
159.8083332933813
 20
10.84791666395469
 30
0.0
  0
SEQEND
  5
128
330
125
100
AcDbEntity
  8
\U+30EC\U+30A4\U+30E4\U+30FC 1
370
    25
  0
POLYLINE
  5
129
330
1F
100
AcDbEntity
  8
\U+30EC\U+30A4\U+30E4\U+30FC 1
 62
     7
420
 16777215
370
    25
100
AcDb2dPolyline
 66
     1
 10
0.0
 20
0.0
 30
0.0
  0
VERTEX
  5
12A
330
129
100
AcDbEntity
  8
\U+30EC\U+30A4\U+30E4\U+30FC 1
 62
     7
420
 16777215
370
    25
100
AcDbVertex
100
AcDb2dVertex
 10
148.6958332961594
 20
21.69583332790938
 30
0.0
  0
VERTEX
  5
12B
330
129
100
AcDbEntity
  8
\U+30EC\U+30A4\U+30E4\U+30FC 1
 62
     7
420
 16777215
370
    25
100
AcDbVertex
100
AcDb2dVertex
 10
181.7687499545578
 20
21.69583332790938
 30
0.0
  0
SEQEND
  5
12C
330
129
100
AcDbEntity
  8
\U+30EC\U+30A4\U+30E4\U+30FC 1
370
    25
  0
POLYLINE
  5
12D
330
1F
100
AcDbEntity
  8
\U+30EC\U+30A4\U+30E4\U+30FC 1
 62
     7
420
 16777215
370
    25
100
AcDb2dPolyline
 66
     1
 10
0.0
 20
0.0
 30
0.0
  0
VERTEX
  5
12E
330
12D
100
AcDbEntity
  8
\U+30EC\U+30A4\U+30E4\U+30FC 1
 62
     7
420
 16777215
370
    25
100
AcDbVertex
100
AcDb2dVertex
 10
148.6958332961594
 20
35.71874999107031
 30
0.0
  0
VERTEX
  5
12F
330
12D
100
AcDbEntity
  8
\U+30EC\U+30A4\U+30E4\U+30FC 1
 62
     7
420
 16777215
370
    25
100
AcDbVertex
100
AcDb2dVertex
 10
148.6958332961594
 20
10.84791666395469
 30
0.0
  0
SEQEND
  5
130
330
12D
100
AcDbEntity
  8
\U+30EC\U+30A4\U+30E4\U+30FC 1
370
    25
  0
POLYLINE
  5
131
330
1F
100
AcDbEntity
  8
\U+30EC\U+30A4\U+30E4\U+30FC 1
 62
     7
420
 16777215
370
    25
100
AcDb2dPolyline
 66
     1
 10
0.0
 20
0.0
 30
0.0
  0
VERTEX
  5
132
330
131
100
AcDbEntity
  8
\U+30EC\U+30A4\U+30E4\U+30FC 1
 62
     7
420
 16777215
370
    25
100
AcDbVertex
100
AcDb2dVertex
 10
186.7958332866344
 20
27.78124999305469
 30
0.0
  0
VERTEX
  5
133
330
131
100
AcDbEntity
  8
\U+30EC\U+30A4\U+30E4\U+30FC 1
 62
     7
420
 16777215
370
    25
100
AcDbVertex
100
AcDb2dVertex
 10
186.7958332866344
 20
10.84791666395469
 30
0.0
  0
SEQEND
  5
134
330
131
100
AcDbEntity
  8
\U+30EC\U+30A4\U+30E4\U+30FC 1
370
    25
  0
POLYLINE
  5
135
330
1F
100
AcDbEntity
  8
\U+30EC\U+30A4\U+30E4\U+30FC 1
 62
     7
420
 16777215
370
    25
100
AcDb2dPolyline
 66
     1
 10
0.0
 20
0.0
 30
0.0
  0
VERTEX
  5
136
330
135
100
AcDbEntity
  8
\U+30EC\U+30A4\U+30E4\U+30FC 1
 62
     7
420
 16777215
370
    25
100
AcDbVertex
100
AcDb2dVertex
 10
181.7687499545578
 20
27.78124999305469
 30
0.0
  0
VERTEX
  5
137
330
135
100
AcDbEntity
  8
\U+30EC\U+30A4\U+30E4\U+30FC 1
 62
     7
420
 16777215
370
    25
100
AcDbVertex
100
AcDb2dVertex
 10
181.7687499545578
 20
10.84791666395469
 30
0.0
  0
SEQEND
  5
138
330
135
100
AcDbEntity
  8
\U+30EC\U+30A4\U+30E4\U+30FC 1
370
    25
  0
POLYLINE
  5
139
330
1F
100
AcDbEntity
  8
\U+30EC\U+30A4\U+30E4\U+30FC 1
 62
     7
420
 16777215
370
    25
100
AcDb2dPolyline
 66
     1
 10
0.0
 20
0.0
 30
0.0
  0
VERTEX
  5
13A
330
139
100
AcDbEntity
  8
\U+30EC\U+30A4\U+30E4\U+30FC 1
 62
     7
420
 16777215
370
    25
100
AcDbVertex
100
AcDb2dVertex
 10
170.6562499573359
 20
27.78124999305469
 30
0.0
  0
VERTEX
  5
13B
330
139
100
AcDbEntity
  8
\U+30EC\U+30A4\U+30E4\U+30FC 1
 62
     7
420
 16777215
370
    25
100
AcDbVertex
100
AcDb2dVertex
 10
170.6562499573359
 20
10.84791666395469
 30
0.0
  0
SEQEND
  5
13C
330
139
100
AcDbEntity
  8
\U+30EC\U+30A4\U+30E4\U+30FC 1
370
    25
  0
MTEXT
  5
13D
330
1F
100
AcDbEntity
  8
\U+30EC\U+30A4\U+30E4\U+30FC 1
 62
     7
420
 16777215
100
AcDbMText
 10
217.4874999456281
 20
18.25624999543594
 30
0.0
 40
2.15899999946025
 41
0.0
 71
     7
 72
     1
  1
\fMSGothic 90ms-RKSJ-H|b0|i0|c0|p34;\W1;\U+2003
 73
     1
 44
1.0
  0
POLYLINE
  5
13E
330
1F
100
AcDbEntity
  8
\U+30EC\U+30A4\U+30E4\U+30FC 1
 62
     7
420
 16777215
370
    25
100
AcDb2dPolyline
 66
     1
 10
0.0
 20
0.0
 30
0.0
  0
VERTEX
  5
13F
330
13E
100
AcDbEntity
  8
\U+30EC\U+30A4\U+30E4\U+30FC 1
 62
     7
420
 16777215
370
    25
100
AcDbVertex
100
AcDb2dVertex
 10
221.7208332779031
 20
35.71874999107031
 30
0.0
  0
VERTEX
  5
140
330
13E
100
AcDbEntity
  8
\U+30EC\U+30A4\U+30E4\U+30FC 1
 62
     7
420
 16777215
370
    25
100
AcDbVertex
100
AcDb2dVertex
 10
221.7208332779031
 20
10.84791666395469
 30
0.0
  0
SEQEND
  5
141
330
13E
100
AcDbEntity
  8
\U+30EC\U+30A4\U+30E4\U+30FC 1
370
    25
  0
POLYLINE
  5
142
330
1F
100
AcDbEntity
  8
\U+30EC\U+30A4\U+30E4\U+30FC 1
 62
     7
420
 16777215
370
    25
100
AcDb2dPolyline
 66
     1
 10
0.0
 20
0.0
 30
0.0
  0
VERTEX
  5
143
330
142
100
AcDbEntity
  8
\U+30EC\U+30A4\U+30E4\U+30FC 1
 62
     7
420
 16777215
370
    25
100
AcDbVertex
100
AcDb2dVertex
 10
216.6937499458266
 20
35.71874999107031
 30
0.0
  0
VERTEX
  5
144
330
142
100
AcDbEntity
  8
\U+30EC\U+30A4\U+30E4\U+30FC 1
 62
     7
420
 16777215
370
    25
100
AcDbVertex
100
AcDb2dVertex
 10
216.6937499458266
 20
10.84791666395469
 30
0.0
  0
SEQEND
  5
145
330
142
100
AcDbEntity
  8
\U+30EC\U+30A4\U+30E4\U+30FC 1
370
    25
  0
MTEXT
  5
146
330
1F
100
AcDbEntity
  8
\U+30EC\U+30A4\U+30E4\U+30FC 1
 62
     7
420
 16777215
100
AcDbMText
 10
38.62916665700938
 20
16.9333333291
 30
0.0
 40
2.15899999946025
 41
0.0
 71
     7
 72
     1
  1
\fMSGothic 90ms-RKSJ-H|b0|i0|c0|p34;\W1;2
 73
     1
 44
1.0
  0
MTEXT
  5
147
330
1F
100
AcDbEntity
  8
\U+30EC\U+30A4\U+30E4\U+30FC 1
 62
     7
420
 16777215
100
AcDbMText
 10
40.2166666566125
 20
16.9333333291
 30
0.0
 40
2.15899999946025
 41
0.0
 71
     7
 72
     1
  1
\fMSGothic 90ms-RKSJ-H|b0|i0|c0|p34;\W1;0
 73
     1
 44
1.0
  0
MTEXT
  5
148
330
1F
100
AcDbEntity
  8
\U+30EC\U+30A4\U+30E4\U+30FC 1
 62
     7
420
 16777215
100
AcDbMText
 10
41.80416665621563
 20
16.9333333291
 30
0.0
 40
2.15899999946025
 41
0.0
 71
     7
 72
     1
  1
\fMSGothic 90ms-RKSJ-H|b0|i0|c0|p34;\W1;14
 73
     1
 44
1.0
  0
MTEXT
  5
149
330
1F
100
AcDbEntity
  8
\U+30EC\U+30A4\U+30E4\U+30FC 1
 62
     7
420
 16777215
100
AcDbMText
 10
44.97916665542188
 20
16.9333333291
 30
0.0
 40
2.15899999946025
 41
0.0
 71
     7
 72
     1
  1
\fMSGothic 90ms-RKSJ-H|b0|i0|c0|p34;\W1;.
 73
     1
 44
1.0
  0
MTEXT
  5
14A
330
1F
100
AcDbEntity
  8
\U+30EC\U+30A4\U+30E4\U+30FC 1
 62
     7
420
 16777215
100
AcDbMText
 10
46.566666655025
 20
16.9333333291
 30
0.0
 40
2.15899999946025
 41
0.0
 71
     7
 72
     1
  1
\fMSGothic 90ms-RKSJ-H|b0|i0|c0|p34;\W1;7
 73
     1
 44
1.0
  0
MTEXT
  5
14B
330
1F
100
AcDbEntity
  8
\U+30EC\U+30A4\U+30E4\U+30FC 1
 62
     7
420
 16777215
100
AcDbMText
 10
48.15416665462813
 20
16.9333333291
 30
0.0
 40
2.15899999946025
 41
0.0
 71
     7
 72
     1
  1
\fMSGothic 90ms-RKSJ-H|b0|i0|c0|p34;\W1;.
 73
     1
 44
1.0
  0
MTEXT
  5
14C
330
1F
100
AcDbEntity
  8
\U+30EC\U+30A4\U+30E4\U+30FC 1
 62
     7
420
 16777215
100
AcDbMText
 10
49.74166665423125
 20
16.9333333291
 30
0.0
 40
2.15899999946025
 41
0.0
 71
     7
 72
     1
  1
\fMSGothic 90ms-RKSJ-H|b0|i0|c0|p34;\W1;1
 73
     1
 44
1.0
  0
MTEXT
  5
14D
330
1F
100
AcDbEntity
  8
\U+30EC\U+30A4\U+30E4\U+30FC 1
 62
     7
420
 16777215
100
AcDbMText
 10
51.32916665383438
 20
16.9333333291
 30
0.0
 40
2.15899999946025
 41
0.0
 71
     7
 72
     1
  1
\fMSGothic 90ms-RKSJ-H|b0|i0|c0|p34;\W1;6
 73
     1
 44
1.0
  0
MTEXT
  5
14E
330
1F
100
AcDbEntity
  8
\U+30EC\U+30A4\U+30E4\U+30FC 1
 62
     7
420
 16777215
100
AcDbMText
 10
62.17708331778906
 20
16.9333333291
 30
0.0
 40
2.15899999946025
 41
0.0
 71
     7
 72
     1
  1
\fMSGothic 90ms-RKSJ-H|b0|i0|c0|p34;\W1;材
 73
     1
 44
1.0
  0
MTEXT
  5
14F
330
1F
100
AcDbEntity
  8
\U+30EC\U+30A4\U+30E4\U+30FC 1
 62
     7
420
 16777215
100
AcDbMText
 10
65.35208331699532
 20
16.9333333291
 30
0.0
 40
2.15899999946025
 41
0.0
 71
     7
 72
     1
  1
\fMSGothic 90ms-RKSJ-H|b0|i0|c0|p34;\W1;質
 73
     1
 44
1.0
  0
MTEXT
  5
150
330
1F
100
AcDbEntity
  8
\U+30EC\U+30A4\U+30E4\U+30FC 1
 62
     7
420
 16777215
100
AcDbMText
 10
68.52708331620157
 20
16.9333333291
 30
0.0
 40
2.15899999946025
 41
0.0
 71
     7
 72
     1
  1
\fMSGothic 90ms-RKSJ-H|b0|i0|c0|p34;\W1;／
 73
     1
 44
1.0
  0
MTEXT
  5
151
330
1F
100
AcDbEntity
  8
\U+30EC\U+30A4\U+30E4\U+30FC 1
 62
     7
420
 16777215
100
AcDbMText
 10
71.70208331540782
 20
16.9333333291
 30
0.0
 40
2.15899999946025
 41
0.0
 71
     7
 72
     1
  1
\fMSGothic 90ms-RKSJ-H|b0|i0|c0|p34;\W1;ケ
 73
     1
 44
1.0
  0
MTEXT
  5
152
330
1F
100
AcDbEntity
  8
\U+30EC\U+30A4\U+30E4\U+30FC 1
 62
     7
420
 16777215
100
AcDbMText
 10
74.87708331461407
 20
16.9333333291
 30
0.0
 40
2.15899999946025
 41
0.0
 71
     7
 72
     1
  1
\fMSGothic 90ms-RKSJ-H|b0|i0|c0|p34;\W1;ー
 73
     1
 44
1.0
  0
MTEXT
  5
153
330
1F
100
AcDbEntity
  8
\U+30EC\U+30A4\U+30E4\U+30FC 1
 62
     7
420
 16777215
100
AcDbMText
 10
78.05208331382032
 20
16.9333333291
 30
0.0
 40
2.15899999946025
 41
0.0
 71
     7
 72
     1
  1
\fMSGothic 90ms-RKSJ-H|b0|i0|c0|p34;\W1;ブ
 73
     1
 44
1.0
  0
MTEXT
  5
154
330
1F
100
AcDbEntity
  8
\U+30EC\U+30A4\U+30E4\U+30FC 1
 62
     7
420
 16777215
100
AcDbMText
 10
81.22708331302657
 20
16.9333333291
 30
0.0
 40
2.15899999946025
 41
0.0
 71
     7
 72
     1
  1
\fMSGothic 90ms-RKSJ-H|b0|i0|c0|p34;\W1;ル
 73
     1
 44
1.0
  0
MTEXT
  5
155
330
1F
100
AcDbEntity
  8
\U+30EC\U+30A4\U+30E4\U+30FC 1
 62
     7
420
 16777215
100
AcDbMText
 10
84.40208331223282
 20
16.9333333291
 30
0.0
 40
2.15899999946025
 41
0.0
 71
     7
 72
     1
  1
\fMSGothic 90ms-RKSJ-H|b0|i0|c0|p34;\W1;皮
 73
     1
 44
1.0
  0
MTEXT
  5
156
330
1F
100
AcDbEntity
  8
\U+30EC\U+30A4\U+30E4\U+30FC 1
 62
     7
420
 16777215
100
AcDbMText
 10
87.57708331143907
 20
16.9333333291
 30
0.0
 40
2.15899999946025
 41
0.0
 71
     7
 72
     1
  1
\fMSGothic 90ms-RKSJ-H|b0|i0|c0|p34;\W1;膜
 73
     1
 44
1.0
  0
MTEXT
  5
157
330
1F
100
AcDbEntity
  8
\U+30EC\U+30A4\U+30E4\U+30FC 1
 62
     7
420
 16777215
100
AcDbMText
 10
90.75208331064532
 20
16.9333333291
 30
0.0
 40
2.15899999946025
 41
0.0
 71
     7
 72
     1
  1
\fMSGothic 90ms-RKSJ-H|b0|i0|c0|p34;\W1;：
 73
     1
 44
1.0
  0
MTEXT
  5
158
330
1F
100
AcDbEntity
  8
\U+30EC\U+30A4\U+30E4\U+30FC 1
 62
     7
420
 16777215
100
AcDbMText
 10
93.92708330985157
 20
16.9333333291
 30
0.0
 40
2.15899999946025
 41
0.0
 71
     7
 72
     1
  1
\fMSGothic 90ms-RKSJ-H|b0|i0|c0|p34;\W1;Ｓ
 73
     1
 44
1.0
  0
MTEXT
  5
159
330
1F
100
AcDbEntity
  8
\U+30EC\U+30A4\U+30E4\U+30FC 1
 62
     7
420
 16777215
100
AcDbMText
 10
97.10208330905782
 20
16.9333333291
 30
0.0
 40
2.15899999946025
 41
0.0
 71
     7
 72
     1
  1
\fMSGothic 90ms-RKSJ-H|b0|i0|c0|p34;\W1;Ｖ
 73
     1
 44
1.0
  0
MTEXT
  5
15A
330
1F
100
AcDbEntity
  8
\U+30EC\U+30A4\U+30E4\U+30FC 1
 62
     7
420
 16777215
100
AcDbMText
 10
100.2770833082641
 20
16.9333333291
 30
0.0
 40
2.15899999946025
 41
0.0
 71
     7
 72
     1
  1
\fMSGothic 90ms-RKSJ-H|b0|i0|c0|p34;\W1;Ｃ
 73
     1
 44
1.0
  0
MTEXT
  5
15B
330
1F
100
AcDbEntity
  8
\U+30EC\U+30A4\U+30E4\U+30FC 1
 62
     7
420
 16777215
100
AcDbMText
 10
103.4520833074703
 20
16.9333333291
 30
0.0
 40
2.15899999946025
 41
0.0
 71
     7
 72
     1
  1
\fMSGothic 90ms-RKSJ-H|b0|i0|c0|p34;\W1;Ｔ
 73
     1
 44
1.0
  0
MTEXT
  5
15C
330
1F
100
AcDbEntity
  8
\U+30EC\U+30A4\U+30E4\U+30FC 1
 62
     7
420
 16777215
100
AcDbMText
 10
106.6270833066766
 20
16.9333333291
 30
0.0
 40
2.15899999946025
 41
0.0
 71
     7
 72
     1
  1
\fMSGothic 90ms-RKSJ-H|b0|i0|c0|p34;\W1;Ｆ
 73
     1
 44
1.0
  0
POLYLINE
  5
15D
330
1F
100
AcDbEntity
  8
\U+30EC\U+30A4\U+30E4\U+30FC 1
 62
     7
420
 16777215
370
    25
100
AcDb2dPolyline
 66
     1
 10
0.0
 20
0.0
 30
0.0
  0
VERTEX
  5
15E
330
15D
100
AcDbEntity
  8
\U+30EC\U+30A4\U+30E4\U+30FC 1
 62
     7
420
 16777215
370
    25
100
AcDbVertex
100
AcDb2dVertex
 10
281.7812499295547
 20
35.71874999107031
 30
0.0
  0
VERTEX
  5
15F
330
15D
100
AcDbEntity
  8
\U+30EC\U+30A4\U+30E4\U+30FC 1
 62
     7
420
 16777215
370
    25
100
AcDbVertex
100
AcDb2dVertex
 10
281.7812499295547
 20
10.84791666395469
 30
0.0
  0
SEQEND
  5
160
330
15D
100
AcDbEntity
  8
\U+30EC\U+30A4\U+30E4\U+30FC 1
370
    25
  0
MTEXT
  5
161
330
1F
100
AcDbEntity
  8
\U+30EC\U+30A4\U+30E4\U+30FC 1
 62
     7
420
 16777215
100
AcDbMText
 10
66.76353893730217
 20
102.9208495836448
 30
0.0
 40
3.358444443604833
 41
0.0
 71
     7
 72
     1
  1
\fMSGothic 90ms-RKSJ-H|b0|i0|c0|p34;\W1;【
 73
     1
 44
1.0
  0
MTEXT
  5
162
330
1F
100
AcDbEntity
  8
\U+30EC\U+30A4\U+30E4\U+30FC 1
 62
     7
420
 16777215
100
AcDbMText
 10
71.70242782495635
 20
102.9208495836448
 30
0.0
 40
3.358444443604833
 41
0.0
 71
     7
 72
     1
  1
\fMSGothic 90ms-RKSJ-H|b0|i0|c0|p34;\W1;正
 73
     1
 44
1.0
  0
MTEXT
  5
163
330
1F
100
AcDbEntity
  8
\U+30EC\U+30A4\U+30E4\U+30FC 1
 62
     7
420
 16777215
100
AcDbMText
 10
76.6413167126105
 20
102.9208495836448
 30
0.0
 40
3.358444443604833
 41
0.0
 71
     7
 72
     1
  1
\fMSGothic 90ms-RKSJ-H|b0|i0|c0|p34;\W1;面
 73
     1
 44
1.0
  0
MTEXT
  5
164
330
1F
100
AcDbEntity
  8
\U+30EC\U+30A4\U+30E4\U+30FC 1
 62
     7
420
 16777215
100
AcDbMText
 10
81.58020560026468
 20
102.9208495836448
 30
0.0
 40
3.358444443604833
 41
0.0
 71
     7
 72
     1
  1
\fMSGothic 90ms-RKSJ-H|b0|i0|c0|p34;\W1;図
 73
     1
 44
1.0
  0
MTEXT
  5
165
330
1F
100
AcDbEntity
  8
\U+30EC\U+30A4\U+30E4\U+30FC 1
 62
     7
420
 16777215
100
AcDbMText
 10
86.51909448791884
 20
102.9208495836448
 30
0.0
 40
3.358444443604833
 41
0.0
 71
     7
 72
     1
  1
\fMSGothic 90ms-RKSJ-H|b0|i0|c0|p34;\W1;】
 73
     1
 44
1.0
  0
MTEXT
  5
166
330
1F
100
AcDbEntity
  8
\U+30EC\U+30A4\U+30E4\U+30FC 1
 62
     7
420
 16777215
100
AcDbMText
 10
250.9972547115563
 20
102.9208495836448
 30
0.0
 40
3.358444443604833
 41
0.0
 71
     7
 72
     1
  1
\fMSGothic 90ms-RKSJ-H|b0|i0|c0|p34;\W1;【
 73
     1
 44
1.0
  0
MTEXT
  5
167
330
1F
100
AcDbEntity
  8
\U+30EC\U+30A4\U+30E4\U+30FC 1
 62
     7
420
 16777215
100
AcDbMText
 10
255.9361435992104
 20
102.9208495836448
 30
0.0
 40
3.358444443604833
 41
0.0
 71
     7
 72
     1
  1
\fMSGothic 90ms-RKSJ-H|b0|i0|c0|p34;\W1;側
 73
     1
 44
1.0
  0
MTEXT
  5
168
330
1F
100
AcDbEntity
  8
\U+30EC\U+30A4\U+30E4\U+30FC 1
 62
     7
420
 16777215
100
AcDbMText
 10
260.8750324868646
 20
102.9208495836448
 30
0.0
 40
3.358444443604833
 41
0.0
 71
     7
 72
     1
  1
\fMSGothic 90ms-RKSJ-H|b0|i0|c0|p34;\W1;面
 73
     1
 44
1.0
  0
MTEXT
  5
169
330
1F
100
AcDbEntity
  8
\U+30EC\U+30A4\U+30E4\U+30FC 1
 62
     7
420
 16777215
100
AcDbMText
 10
265.8139213745188
 20
102.9208495836448
 30
0.0
 40
3.358444443604833
 41
0.0
 71
     7
 72
     1
  1
\fMSGothic 90ms-RKSJ-H|b0|i0|c0|p34;\W1;図
 73
     1
 44
1.0
  0
MTEXT
  5
16A
330
1F
100
AcDbEntity
  8
\U+30EC\U+30A4\U+30E4\U+30FC 1
 62
     7
420
 16777215
100
AcDbMText
 10
270.7528102621729
 20
102.9208495836448
 30
0.0
 40
3.358444443604833
 41
0.0
 71
     7
 72
     1
  1
\fMSGothic 90ms-RKSJ-H|b0|i0|c0|p34;\W1;】
 73
     1
 44
1.0
  0
SPLINE
  5
16B
330
1F
100
AcDbEntity
  8
\U+30EC\U+30A4\U+30E4\U+30FC 1
370
     0
100
AcDbSpline
210
0.0
220
0.0
230
1.0
 70
    11
 71
     3
 72
    68
 73
    64
 74
     0
 42
0.0000000001
 43
0.0000000001
 40
0.0
 40
0.0
 40
0.0
 40
0.0
 40
1.0
 40
1.0
 40
1.0
 40
2.0
 40
2.0
 40
2.0
 40
3.0
 40
3.0
 40
3.0
 40
4.0
 40
4.0
 40
4.0
 40
5.0
 40
5.0
 40
5.0
 40
6.0
 40
6.0
 40
6.0
 40
7.0
 40
7.0
 40
7.0
 40
8.0
 40
8.0
 40
8.0
 40
9.0
 40
9.0
 40
9.0
 40
10.0
 40
10.0
 40
10.0
 40
11.0
 40
11.0
 40
11.0
 40
12.0
 40
12.0
 40
12.0
 40
13.0
 40
13.0
 40
13.0
 40
14.0
 40
14.0
 40
14.0
 40
15.0
 40
15.0
 40
15.0
 40
16.0
 40
16.0
 40
16.0
 40
17.0
 40
17.0
 40
17.0
 40
18.0
 40
18.0
 40
18.0
 40
19.0
 40
19.0
 40
19.0
 40
20.0
 40
20.0
 40
20.0
 40
21.0
 40
21.0
 40
21.0
 40
21.0
 10
313.6966145049092
 20
21.17390136189402
 30
0.0
 10
313.6966145049092
 20
21.11188964315953
 30
0.0
 10
313.6476941490187
 20
21.06400281591456
 30
0.0
 10
313.5884385066723
 20
21.06400281591456
 30
0.0
 10
313.5884385066723
 20
21.06400281591456
 30
0.0
 10
310.5884493581168
 20
21.06400281591456
 30
0.0
 10
310.5884493581168
 20
21.06400281591456
 30
0.0
 10
309.6630967107787
 20
21.06400281591456
 30
0.0
 10
308.9120658949942
 20
21.81434461260197
 30
0.0
 10
308.9120658949942
 20
22.74038627903712
 30
0.0
 10
308.9120658949942
 20
23.66573892637523
 30
0.0
 10
309.6630967107787
 20
24.41642523261117
 30
0.0
 10
310.5884493581168
 20
24.41642523261117
 30
0.0
 10
310.5884493581168
 20
24.41642523261117
 30
0.0
 10
311.7577147658106
 20
24.41642523261117
 30
0.0
 10
311.7577147658106
 20
24.41642523261117
 30
0.0
 10
311.819037465448
 20
24.41642523261117
 30
0.0
 10
311.8672688022415
 20
24.36750487672062
 30
0.0
 10
311.8672688022415
 20
24.30618217708318
 30
0.0
 10
311.8672688022415
 20
24.30618217708318
 30
0.0
 10
311.8672688022415
 20
23.2419921816895
 30
0.0
 10
311.8672688022415
 20
23.2419921816895
 30
0.0
 10
311.8672688022415
 20
23.18204752024615
 30
0.0
 10
311.819037465448
 20
23.13312716435561
 30
0.0
 10
311.7577147658106
 20
23.13312716435561
 30
0.0
 10
311.7577147658106
 20
23.13312716435561
 30
0.0
 10
310.6731987070539
 20
23.13209363571003
 30
0.0
 10
310.6731987070539
 20
23.13209363571003
 30
0.0
 10
310.4589137678714
 20
23.13209363571003
 30
0.0
 10
310.2839029172207
 20
22.95742729460787
 30
0.0
 10
310.2839029172207
 20
22.7427978458768
 30
0.0
 10
310.2839029172207
 20
22.52713486850016
 30
0.0
 10
310.4589137678714
 20
22.35143499875242
 30
0.0
 10
310.6731987070539
 20
22.35143499875242
 30
0.0
 10
310.6731987070539
 20
22.35143499875242
 30
0.0
 10
312.1917967969521
 20
22.35350205604357
 30
0.0
 10
312.1917967969521
 20
22.35350205604357
 30
0.0
 10
312.1917967969521
 20
22.35350205604357
 30
0.0
 10
312.1917967969521
 20
24.60142686016909
 30
0.0
 10
312.1917967969521
 20
24.60142686016909
 30
0.0
 10
312.1917967969521
 20
24.93043347901045
 30
0.0
 10
311.9258354254908
 20
25.19673936002026
 30
0.0
 10
311.5951062589068
 20
25.19673936002026
 30
0.0
 10
311.5951062589068
 20
25.19673936002026
 30
0.0
 10
309.4619031344401
 20
25.19673936002026
 30
0.0
 10
309.4619031344401
 20
25.19673936002026
 30
0.0
 10
309.3998914157056
 20
25.19673936002026
 30
0.0
 10
309.3516600789121
 20
25.24531520636229
 30
0.0
 10
309.3516600789121
 20
25.30629339645121
 30
0.0
 10
309.3516600789121
 20
25.30629339645121
 30
0.0
 10
309.3516600789121
 20
26.3749620159757
 30
0.0
 10
309.3516600789121
 20
26.3749620159757
 30
0.0
 10
309.3516600789121
 20
26.43490667741905
 30
0.0
 10
309.3998914157056
 20
26.48486056195517
 30
0.0
 10
309.4619031344401
 20
26.48486056195517
 30
0.0
 10
309.4619031344401
 20
26.48486056195517
 30
0.0
 10
312.0160969272043
 20
26.48486056195517
 30
0.0
 10
312.0160969272043
 20
26.48486056195517
 30
0.0
 10
312.9476507464159
 20
26.48486056195517
 30
0.0
 10
313.6966145049092
 20
25.73141817933104
 30
0.0
 10
313.6966145049092
 20
24.800208869668
 30
0.0
 10
313.6966145049092
 20
24.800208869668
 30
0.0
 10
313.6966145049092
 20
21.17390136189402
 30
0.0
 10
313.6966145049092
 20
21.17390136189402
 30
0.0
  0
HATCH
  5
16C
330
1F
100
AcDbEntity
  8
\U+30EC\U+30A4\U+30E4\U+30FC 1
 62
     7
420
 16777215
100
AcDbHatch
 10
0.0
 20
0.0
 30
0.0
210
0.0
220
0.0
230
1.0
  2
SOLID
 70
     1
 71
     0
 91
        1
 92
        1
 93
        1
 72
     4
 94
        3
 73
     0
 74
     1
 95
       68
 96
       64
 40
0.0
 40
0.0
 40
0.0
 40
0.0
 40
1.0
 40
1.0
 40
1.0
 40
2.0
 40
2.0
 40
2.0
 40
3.0
 40
3.0
 40
3.0
 40
4.0
 40
4.0
 40
4.0
 40
5.0
 40
5.0
 40
5.0
 40
6.0
 40
6.0
 40
6.0
 40
7.0
 40
7.0
 40
7.0
 40
8.0
 40
8.0
 40
8.0
 40
9.0
 40
9.0
 40
9.0
 40
10.0
 40
10.0
 40
10.0
 40
11.0
 40
11.0
 40
11.0
 40
12.0
 40
12.0
 40
12.0
 40
13.0
 40
13.0
 40
13.0
 40
14.0
 40
14.0
 40
14.0
 40
15.0
 40
15.0
 40
15.0
 40
16.0
 40
16.0
 40
16.0
 40
17.0
 40
17.0
 40
17.0
 40
18.0
 40
18.0
 40
18.0
 40
19.0
 40
19.0
 40
19.0
 40
20.0
 40
20.0
 40
20.0
 40
21.0
 40
21.0
 40
21.0
 40
21.0
 10
313.6966145049092
 20
21.17390136189402
 10
313.6966145049092
 20
21.11188964315953
 10
313.6476941490187
 20
21.06400281591456
 10
313.5884385066723
 20
21.06400281591456
 10
313.5884385066723
 20
21.06400281591456
 10
310.5884493581168
 20
21.06400281591456
 10
310.5884493581168
 20
21.06400281591456
 10
309.6630967107787
 20
21.06400281591456
 10
308.9120658949942
 20
21.81434461260197
 10
308.9120658949942
 20
22.74038627903712
 10
308.9120658949942
 20
23.66573892637523
 10
309.6630967107787
 20
24.41642523261117
 10
310.5884493581168
 20
24.41642523261117
 10
310.5884493581168
 20
24.41642523261117
 10
311.7577147658106
 20
24.41642523261117
 10
311.7577147658106
 20
24.41642523261117
 10
311.819037465448
 20
24.41642523261117
 10
311.8672688022415
 20
24.36750487672062
 10
311.8672688022415
 20
24.30618217708318
 10
311.8672688022415
 20
24.30618217708318
 10
311.8672688022415
 20
23.2419921816895
 10
311.8672688022415
 20
23.2419921816895
 10
311.8672688022415
 20
23.18204752024615
 10
311.819037465448
 20
23.13312716435561
 10
311.7577147658106
 20
23.13312716435561
 10
311.7577147658106
 20
23.13312716435561
 10
310.6731987070539
 20
23.13209363571003
 10
310.6731987070539
 20
23.13209363571003
 10
310.4589137678714
 20
23.13209363571003
 10
310.2839029172207
 20
22.95742729460787
 10
310.2839029172207
 20
22.7427978458768
 10
310.2839029172207
 20
22.52713486850016
 10
310.4589137678714
 20
22.35143499875242
 10
310.6731987070539
 20
22.35143499875242
 10
310.6731987070539
 20
22.35143499875242
 10
312.1917967969521
 20
22.35350205604357
 10
312.1917967969521
 20
22.35350205604357
 10
312.1917967969521
 20
22.35350205604357
 10
312.1917967969521
 20
24.60142686016909
 10
312.1917967969521
 20
24.60142686016909
 10
312.1917967969521
 20
24.93043347901045
 10
311.9258354254908
 20
25.19673936002026
 10
311.5951062589068
 20
25.19673936002026
 10
311.5951062589068
 20
25.19673936002026
 10
309.4619031344401
 20
25.19673936002026
 10
309.4619031344401
 20
25.19673936002026
 10
309.3998914157056
 20
25.19673936002026
 10
309.3516600789121
 20
25.24531520636229
 10
309.3516600789121
 20
25.30629339645121
 10
309.3516600789121
 20
25.30629339645121
 10
309.3516600789121
 20
26.3749620159757
 10
309.3516600789121
 20
26.3749620159757
 10
309.3516600789121
 20
26.43490667741905
 10
309.3998914157056
 20
26.48486056195517
 10
309.4619031344401
 20
26.48486056195517
 10
309.4619031344401
 20
26.48486056195517
 10
312.0160969272043
 20
26.48486056195517
 10
312.0160969272043
 20
26.48486056195517
 10
312.9476507464159
 20
26.48486056195517
 10
313.6966145049092
 20
25.73141817933104
 10
313.6966145049092
 20
24.800208869668
 10
313.6966145049092
 20
24.800208869668
 10
313.6966145049092
 20
21.17390136189402
 10
313.6966145049092
 20
21.17390136189402
 97
        0
 75
     2
 76
     1
 98
        0
  0
SPLINE
  5
16D
330
1F
100
AcDbEntity
  8
\U+30EC\U+30A4\U+30E4\U+30FC 1
370
     0
100
AcDbSpline
210
0.0
220
0.0
230
1.0
 70
    11
 71
     3
 72
    68
 73
    64
 74
     0
 42
0.0000000001
 43
0.0000000001
 40
0.0
 40
0.0
 40
0.0
 40
0.0
 40
1.0
 40
1.0
 40
1.0
 40
2.0
 40
2.0
 40
2.0
 40
3.0
 40
3.0
 40
3.0
 40
4.0
 40
4.0
 40
4.0
 40
5.0
 40
5.0
 40
5.0
 40
6.0
 40
6.0
 40
6.0
 40
7.0
 40
7.0
 40
7.0
 40
8.0
 40
8.0
 40
8.0
 40
9.0
 40
9.0
 40
9.0
 40
10.0
 40
10.0
 40
10.0
 40
11.0
 40
11.0
 40
11.0
 40
12.0
 40
12.0
 40
12.0
 40
13.0
 40
13.0
 40
13.0
 40
14.0
 40
14.0
 40
14.0
 40
15.0
 40
15.0
 40
15.0
 40
16.0
 40
16.0
 40
16.0
 40
17.0
 40
17.0
 40
17.0
 40
18.0
 40
18.0
 40
18.0
 40
19.0
 40
19.0
 40
19.0
 40
20.0
 40
20.0
 40
20.0
 40
21.0
 40
21.0
 40
21.0
 40
21.0
 10
323.7907442766912
 20
21.17390136189402
 30
0.0
 10
323.7907442766912
 20
21.11188964315953
 30
0.0
 10
323.7418239208007
 20
21.06400281591456
 30
0.0
 10
323.6805012211632
 20
21.06400281591456
 30
0.0
 10
323.6805012211632
 20
21.06400281591456
 30
0.0
 10
320.6805120726077
 20
21.06400281591456
 30
0.0
 10
320.6805120726077
 20
21.06400281591456
 30
0.0
 10
319.7558484443666
 20
21.06400281591456
 30
0.0
 10
319.0048176285821
 20
21.81434461260197
 30
0.0
 10
319.0048176285821
 20
22.74038627903712
 30
0.0
 10
319.0048176285821
 20
23.66573892637523
 30
0.0
 10
319.7558484443666
 20
24.41642523261117
 30
0.0
 10
320.6805120726077
 20
24.41642523261117
 30
0.0
 10
320.6805120726077
 20
24.41642523261117
 30
0.0
 10
321.8497774803014
 20
24.41642523261117
 30
0.0
 10
321.8497774803014
 20
24.41642523261117
 30
0.0
 10
321.9104111608419
 20
24.41642523261117
 30
0.0
 10
321.9600205358295
 20
24.36750487672062
 30
0.0
 10
321.9600205358295
 20
24.30618217708318
 30
0.0
 10
321.9600205358295
 20
24.30618217708318
 30
0.0
 10
321.9600205358295
 20
23.2419921816895
 30
0.0
 10
321.9600205358295
 20
23.2419921816895
 30
0.0
 10
321.9600205358295
 20
23.18204752024615
 30
0.0
 10
321.9104111608419
 20
23.13312716435561
 30
0.0
 10
321.8497774803014
 20
23.13312716435561
 30
0.0
 10
321.8497774803014
 20
23.13312716435561
 30
0.0
 10
320.7659504406419
 20
23.13209363571003
 30
0.0
 10
320.7659504406419
 20
23.13209363571003
 30
0.0
 10
320.5509764823623
 20
23.13209363571003
 30
0.0
 10
320.3766546508086
 20
22.95742729460787
 30
0.0
 10
320.3766546508086
 20
22.7427978458768
 30
0.0
 10
320.3766546508086
 20
22.52713486850016
 30
0.0
 10
320.5509764823623
 20
22.35143499875242
 30
0.0
 10
320.7659504406419
 20
22.35143499875242
 30
0.0
 10
320.7659504406419
 20
22.35143499875242
 30
0.0
 10
322.28454853054
 20
22.35350205604357
 30
0.0
 10
322.28454853054
 20
22.35350205604357
 30
0.0
 10
322.28454853054
 20
22.35350205604357
 30
0.0
 10
322.28454853054
 20
24.60142686016909
 30
0.0
 10
322.28454853054
 20
24.60142686016909
 30
0.0
 10
322.28454853054
 20
24.93043347901045
 30
0.0
 10
322.0178981399816
 20
25.19673936002026
 30
0.0
 10
321.6885470115918
 20
25.19673936002026
 30
0.0
 10
321.6885470115918
 20
25.19673936002026
 30
0.0
 10
319.5525878107369
 20
25.19673936002026
 30
0.0
 10
319.5525878107369
 20
25.19673936002026
 30
0.0
 10
319.4926431492935
 20
25.19673936002026
 30
0.0
 10
319.443722793403
 20
25.24531520636229
 30
0.0
 10
319.443722793403
 20
25.30629339645121
 30
0.0
 10
319.443722793403
 20
25.30629339645121
 30
0.0
 10
319.443722793403
 20
26.3749620159757
 30
0.0
 10
319.443722793403
 20
26.3749620159757
 30
0.0
 10
319.443722793403
 20
26.43490667741905
 30
0.0
 10
319.4926431492935
 20
26.48486056195517
 30
0.0
 10
319.5525878107369
 20
26.48486056195517
 30
0.0
 10
319.5525878107369
 20
26.48486056195517
 30
0.0
 10
322.1081596416952
 20
26.48486056195517
 30
0.0
 10
322.1081596416952
 20
26.48486056195517
 30
0.0
 10
323.0390244418097
 20
26.48486056195517
 30
0.0
 10
323.7907442766912
 20
25.73141817933104
 30
0.0
 10
323.7907442766912
 20
24.800208869668
 30
0.0
 10
323.7907442766912
 20
24.800208869668
 30
0.0
 10
323.7907442766912
 20
21.17390136189402
 30
0.0
 10
323.7907442766912
 20
21.17390136189402
 30
0.0
  0
HATCH
  5
16E
330
1F
100
AcDbEntity
  8
\U+30EC\U+30A4\U+30E4\U+30FC 1
 62
     7
420
 16777215
100
AcDbHatch
 10
0.0
 20
0.0
 30
0.0
210
0.0
220
0.0
230
1.0
  2
SOLID
 70
     1
 71
     0
 91
        1
 92
        1
 93
        1
 72
     4
 94
        3
 73
     0
 74
     1
 95
       68
 96
       64
 40
0.0
 40
0.0
 40
0.0
 40
0.0
 40
1.0
 40
1.0
 40
1.0
 40
2.0
 40
2.0
 40
2.0
 40
3.0
 40
3.0
 40
3.0
 40
4.0
 40
4.0
 40
4.0
 40
5.0
 40
5.0
 40
5.0
 40
6.0
 40
6.0
 40
6.0
 40
7.0
 40
7.0
 40
7.0
 40
8.0
 40
8.0
 40
8.0
 40
9.0
 40
9.0
 40
9.0
 40
10.0
 40
10.0
 40
10.0
 40
11.0
 40
11.0
 40
11.0
 40
12.0
 40
12.0
 40
12.0
 40
13.0
 40
13.0
 40
13.0
 40
14.0
 40
14.0
 40
14.0
 40
15.0
 40
15.0
 40
15.0
 40
16.0
 40
16.0
 40
16.0
 40
17.0
 40
17.0
 40
17.0
 40
18.0
 40
18.0
 40
18.0
 40
19.0
 40
19.0
 40
19.0
 40
20.0
 40
20.0
 40
20.0
 40
21.0
 40
21.0
 40
21.0
 40
21.0
 10
323.7907442766912
 20
21.17390136189402
 10
323.7907442766912
 20
21.11188964315953
 10
323.7418239208007
 20
21.06400281591456
 10
323.6805012211632
 20
21.06400281591456
 10
323.6805012211632
 20
21.06400281591456
 10
320.6805120726077
 20
21.06400281591456
 10
320.6805120726077
 20
21.06400281591456
 10
319.7558484443666
 20
21.06400281591456
 10
319.0048176285821
 20
21.81434461260197
 10
319.0048176285821
 20
22.74038627903712
 10
319.0048176285821
 20
23.66573892637523
 10
319.7558484443666
 20
24.41642523261117
 10
320.6805120726077
 20
24.41642523261117
 10
320.6805120726077
 20
24.41642523261117
 10
321.8497774803014
 20
24.41642523261117
 10
321.8497774803014
 20
24.41642523261117
 10
321.9104111608419
 20
24.41642523261117
 10
321.9600205358295
 20
24.36750487672062
 10
321.9600205358295
 20
24.30618217708318
 10
321.9600205358295
 20
24.30618217708318
 10
321.9600205358295
 20
23.2419921816895
 10
321.9600205358295
 20
23.2419921816895
 10
321.9600205358295
 20
23.18204752024615
 10
321.9104111608419
 20
23.13312716435561
 10
321.8497774803014
 20
23.13312716435561
 10
321.8497774803014
 20
23.13312716435561
 10
320.7659504406419
 20
23.13209363571003
 10
320.7659504406419
 20
23.13209363571003
 10
320.5509764823623
 20
23.13209363571003
 10
320.3766546508086
 20
22.95742729460787
 10
320.3766546508086
 20
22.7427978458768
 10
320.3766546508086
 20
22.52713486850016
 10
320.5509764823623
 20
22.35143499875242
 10
320.7659504406419
 20
22.35143499875242
 10
320.7659504406419
 20
22.35143499875242
 10
322.28454853054
 20
22.35350205604357
 10
322.28454853054
 20
22.35350205604357
 10
322.28454853054
 20
22.35350205604357
 10
322.28454853054
 20
24.60142686016909
 10
322.28454853054
 20
24.60142686016909
 10
322.28454853054
 20
24.93043347901045
 10
322.0178981399816
 20
25.19673936002026
 10
321.6885470115918
 20
25.19673936002026
 10
321.6885470115918
 20
25.19673936002026
 10
319.5525878107369
 20
25.19673936002026
 10
319.5525878107369
 20
25.19673936002026
 10
319.4926431492935
 20
25.19673936002026
 10
319.443722793403
 20
25.24531520636229
 10
319.443722793403
 20
25.30629339645121
 10
319.443722793403
 20
25.30629339645121
 10
319.443722793403
 20
26.3749620159757
 10
319.443722793403
 20
26.3749620159757
 10
319.443722793403
 20
26.43490667741905
 10
319.4926431492935
 20
26.48486056195517
 10
319.5525878107369
 20
26.48486056195517
 10
319.5525878107369
 20
26.48486056195517
 10
322.1081596416952
 20
26.48486056195517
 10
322.1081596416952
 20
26.48486056195517
 10
323.0390244418097
 20
26.48486056195517
 10
323.7907442766912
 20
25.73141817933104
 10
323.7907442766912
 20
24.800208869668
 10
323.7907442766912
 20
24.800208869668
 10
323.7907442766912
 20
21.17390136189402
 10
323.7907442766912
 20
21.17390136189402
 97
        0
 75
     2
 76
     1
 98
        0
  0
SPLINE
  5
16F
330
1F
100
AcDbEntity
  8
\U+30EC\U+30A4\U+30E4\U+30FC 1
370
     0
100
AcDbSpline
210
0.0
220
0.0
230
1.0
 70
    11
 71
     3
 72
    65
 73
    61
 74
     0
 42
0.0000000001
 43
0.0000000001
 40
0.0
 40
0.0
 40
0.0
 40
0.0
 40
1.0
 40
1.0
 40
1.0
 40
2.0
 40
2.0
 40
2.0
 40
3.0
 40
3.0
 40
3.0
 40
4.0
 40
4.0
 40
4.0
 40
5.0
 40
5.0
 40
5.0
 40
6.0
 40
6.0
 40
6.0
 40
7.0
 40
7.0
 40
7.0
 40
8.0
 40
8.0
 40
8.0
 40
9.0
 40
9.0
 40
9.0
 40
10.0
 40
10.0
 40
10.0
 40
11.0
 40
11.0
 40
11.0
 40
12.0
 40
12.0
 40
12.0
 40
13.0
 40
13.0
 40
13.0
 40
14.0
 40
14.0
 40
14.0
 40
15.0
 40
15.0
 40
15.0
 40
16.0
 40
16.0
 40
16.0
 40
17.0
 40
17.0
 40
17.0
 40
18.0
 40
18.0
 40
18.0
 40
19.0
 40
19.0
 40
19.0
 40
20.0
 40
20.0
 40
20.0
 40
20.0
 10
324.4273979223654
 20
21.05849066313815
 30
0.0
 10
324.367453260922
 20
21.05849066313815
 30
0.0
 10
324.3192219241286
 20
21.10568847128608
 30
0.0
 10
324.3192219241286
 20
21.1652886231809
 30
0.0
 10
324.3192219241286
 20
21.1652886231809
 30
0.0
 10
324.3192219241286
 20
22.23567979044802
 30
0.0
 10
324.3192219241286
 20
22.23567979044802
 30
0.0
 10
324.3192219241286
 20
22.29562445189137
 30
0.0
 10
324.367453260922
 20
22.34695637462159
 30
0.0
 10
324.4273979223654
 20
22.34695637462159
 30
0.0
 10
324.4273979223654
 20
22.34695637462159
 30
0.0
 10
326.9767685814502
 20
22.34695637462159
 30
0.0
 10
326.9767685814502
 20
22.34695637462159
 30
0.0
 10
327.1917425397298
 20
22.34695637462159
 30
0.0
 10
327.3660643712835
 20
22.52437879211196
 30
0.0
 10
327.3660643712835
 20
22.7414198076827
 30
0.0
 10
327.3660643712835
 20
22.95501572776819
 30
0.0
 10
327.1917425397298
 20
23.13209363571003
 30
0.0
 10
326.9767685814502
 20
23.13209363571003
 30
0.0
 10
326.9767685814502
 20
23.13209363571003
 30
0.0
 10
325.8460882431913
 20
23.16309949507728
 30
0.0
 10
325.8460882431913
 20
23.16309949507728
 30
0.0
 10
324.9255587295325
 20
23.16309949507728
 30
0.0
 10
324.1786620283303
 20
23.90482855305157
 30
0.0
 10
324.1786620283303
 20
24.81984591393393
 30
0.0
 10
324.1786620283303
 20
25.73451876526776
 30
0.0
 10
324.9255587295325
 20
26.47762586143615
 30
0.0
 10
325.8460882431913
 20
26.47762586143615
 30
0.0
 10
325.8460882431913
 20
26.47762586143615
 30
0.0
 10
328.4133733987994
 20
26.47762586143615
 30
0.0
 10
328.4133733987994
 20
26.47762586143615
 30
0.0
 10
328.4740070793399
 20
26.47762586143615
 30
0.0
 10
328.5222384161333
 20
26.42973903419118
 30
0.0
 10
328.5222384161333
 20
26.37048339184488
 30
0.0
 10
328.5222384161333
 20
26.37048339184488
 30
0.0
 10
328.5222384161333
 20
25.31215005877613
 30
0.0
 10
328.5222384161333
 20
25.31215005877613
 30
0.0
 10
328.5222384161333
 20
25.25082735913868
 30
0.0
 10
328.4740070793399
 20
25.19949543640846
 30
0.0
 10
328.4133733987994
 20
25.19949543640846
 30
0.0
 10
328.4133733987994
 20
25.19949543640846
 30
0.0
 10
326.0045626355127
 20
25.19949543640846
 30
0.0
 10
326.0045626355127
 20
25.19949543640846
 30
0.0
 10
325.7902776963302
 20
25.19949543640846
 30
0.0
 10
325.6145778265825
 20
25.02172850936957
 30
0.0
 10
325.6145778265825
 20
24.80744357018703
 30
0.0
 10
325.6145778265825
 20
24.59143608326186
 30
0.0
 10
325.7902776963302
 20
24.41745876125675
 30
0.0
 10
326.0045626355127
 20
24.41745876125675
 30
0.0
 10
326.0045626355127
 20
24.41745876125675
 30
0.0
 10
327.1490233557128
 20
24.38266329685572
 30
0.0
 10
327.1490233557128
 20
24.38266329685572
 30
0.0
 10
328.0702418884686
 20
24.38266329685572
 30
0.0
 10
328.8185166278648
 20
23.63990071023586
 30
0.0
 10
328.8185166278648
 20
22.72453883980498
 30
0.0
 10
328.8185166278648
 20
21.80745442163147
 30
0.0
 10
328.0702418884686
 20
21.05849066313815
 30
0.0
 10
327.1490233557128
 20
21.05849066313815
 30
0.0
 10
327.1490233557128
 20
21.05849066313815
 30
0.0
 10
324.4273979223654
 20
21.05849066313815
 30
0.0
 10
324.4273979223654
 20
21.05849066313815
 30
0.0
  0
HATCH
  5
170
330
1F
100
AcDbEntity
  8
\U+30EC\U+30A4\U+30E4\U+30FC 1
 62
     7
420
 16777215
100
AcDbHatch
 10
0.0
 20
0.0
 30
0.0
210
0.0
220
0.0
230
1.0
  2
SOLID
 70
     1
 71
     0
 91
        1
 92
        1
 93
        1
 72
     4
 94
        3
 73
     0
 74
     1
 95
       65
 96
       61
 40
0.0
 40
0.0
 40
0.0
 40
0.0
 40
1.0
 40
1.0
 40
1.0
 40
2.0
 40
2.0
 40
2.0
 40
3.0
 40
3.0
 40
3.0
 40
4.0
 40
4.0
 40
4.0
 40
5.0
 40
5.0
 40
5.0
 40
6.0
 40
6.0
 40
6.0
 40
7.0
 40
7.0
 40
7.0
 40
8.0
 40
8.0
 40
8.0
 40
9.0
 40
9.0
 40
9.0
 40
10.0
 40
10.0
 40
10.0
 40
11.0
 40
11.0
 40
11.0
 40
12.0
 40
12.0
 40
12.0
 40
13.0
 40
13.0
 40
13.0
 40
14.0
 40
14.0
 40
14.0
 40
15.0
 40
15.0
 40
15.0
 40
16.0
 40
16.0
 40
16.0
 40
17.0
 40
17.0
 40
17.0
 40
18.0
 40
18.0
 40
18.0
 40
19.0
 40
19.0
 40
19.0
 40
20.0
 40
20.0
 40
20.0
 40
20.0
 10
324.4273979223654
 20
21.05849066313815
 10
324.367453260922
 20
21.05849066313815
 10
324.3192219241286
 20
21.10568847128608
 10
324.3192219241286
 20
21.1652886231809
 10
324.3192219241286
 20
21.1652886231809
 10
324.3192219241286
 20
22.23567979044802
 10
324.3192219241286
 20
22.23567979044802
 10
324.3192219241286
 20
22.29562445189137
 10
324.367453260922
 20
22.34695637462159
 10
324.4273979223654
 20
22.34695637462159
 10
324.4273979223654
 20
22.34695637462159
 10
326.9767685814502
 20
22.34695637462159
 10
326.9767685814502
 20
22.34695637462159
 10
327.1917425397298
 20
22.34695637462159
 10
327.3660643712835
 20
22.52437879211196
 10
327.3660643712835
 20
22.7414198076827
 10
327.3660643712835
 20
22.95501572776819
 10
327.1917425397298
 20
23.13209363571003
 10
326.9767685814502
 20
23.13209363571003
 10
326.9767685814502
 20
23.13209363571003
 10
325.8460882431913
 20
23.16309949507728
 10
325.8460882431913
 20
23.16309949507728
 10
324.9255587295325
 20
23.16309949507728
 10
324.1786620283303
 20
23.90482855305157
 10
324.1786620283303
 20
24.81984591393393
 10
324.1786620283303
 20
25.73451876526776
 10
324.9255587295325
 20
26.47762586143615
 10
325.8460882431913
 20
26.47762586143615
 10
325.8460882431913
 20
26.47762586143615
 10
328.4133733987994
 20
26.47762586143615
 10
328.4133733987994
 20
26.47762586143615
 10
328.4740070793399
 20
26.47762586143615
 10
328.5222384161333
 20
26.42973903419118
 10
328.5222384161333
 20
26.37048339184488
 10
328.5222384161333
 20
26.37048339184488
 10
328.5222384161333
 20
25.31215005877613
 10
328.5222384161333
 20
25.31215005877613
 10
328.5222384161333
 20
25.25082735913868
 10
328.4740070793399
 20
25.19949543640846
 10
328.4133733987994
 20
25.19949543640846
 10
328.4133733987994
 20
25.19949543640846
 10
326.0045626355127
 20
25.19949543640846
 10
326.0045626355127
 20
25.19949543640846
 10
325.7902776963302
 20
25.19949543640846
 10
325.6145778265825
 20
25.02172850936957
 10
325.6145778265825
 20
24.80744357018703
 10
325.6145778265825
 20
24.59143608326186
 10
325.7902776963302
 20
24.41745876125675
 10
326.0045626355127
 20
24.41745876125675
 10
326.0045626355127
 20
24.41745876125675
 10
327.1490233557128
 20
24.38266329685572
 10
327.1490233557128
 20
24.38266329685572
 10
328.0702418884686
 20
24.38266329685572
 10
328.8185166278648
 20
23.63990071023586
 10
328.8185166278648
 20
22.72453883980498
 10
328.8185166278648
 20
21.80745442163147
 10
328.0702418884686
 20
21.05849066313815
 10
327.1490233557128
 20
21.05849066313815
 10
327.1490233557128
 20
21.05849066313815
 10
324.4273979223654
 20
21.05849066313815
 10
324.4273979223654
 20
21.05849066313815
 97
        0
 75
     2
 76
     1
 98
        0
  0
SPLINE
  5
171
330
1F
100
AcDbEntity
  8
\U+30EC\U+30A4\U+30E4\U+30FC 1
370
     0
100
AcDbSpline
210
0.0
220
0.0
230
1.0
 70
    11
 71
     3
 72
    65
 73
    61
 74
     0
 42
0.0000000001
 43
0.0000000001
 40
0.0
 40
0.0
 40
0.0
 40
0.0
 40
1.0
 40
1.0
 40
1.0
 40
2.0
 40
2.0
 40
2.0
 40
3.0
 40
3.0
 40
3.0
 40
4.0
 40
4.0
 40
4.0
 40
5.0
 40
5.0
 40
5.0
 40
6.0
 40
6.0
 40
6.0
 40
7.0
 40
7.0
 40
7.0
 40
8.0
 40
8.0
 40
8.0
 40
9.0
 40
9.0
 40
9.0
 40
10.0
 40
10.0
 40
10.0
 40
11.0
 40
11.0
 40
11.0
 40
12.0
 40
12.0
 40
12.0
 40
13.0
 40
13.0
 40
13.0
 40
14.0
 40
14.0
 40
14.0
 40
15.0
 40
15.0
 40
15.0
 40
16.0
 40
16.0
 40
16.0
 40
17.0
 40
17.0
 40
17.0
 40
18.0
 40
18.0
 40
18.0
 40
19.0
 40
19.0
 40
19.0
 40
20.0
 40
20.0
 40
20.0
 40
20.0
 10
333.5658582065391
 20
26.48313801421255
 30
0.0
 10
333.5658582065391
 20
26.48313801421255
 30
0.0
 10
332.3614528248958
 20
26.48313801421255
 30
0.0
 10
332.3614528248958
 20
26.48313801421255
 30
0.0
 10
332.3008191443554
 20
26.48313801421255
 30
0.0
 10
332.1747286495952
 20
26.43387314877348
 30
0.0
 10
332.1747286495952
 20
26.37427299687866
 30
0.0
 10
332.1747286495952
 20
26.37427299687866
 30
0.0
 10
332.1747286495952
 20
24.42297091403315
 30
0.0
 10
332.1747286495952
 20
24.42297091403315
 30
0.0
 10
332.1747286495952
 20
24.42297091403315
 30
0.0
 10
330.6650878079587
 20
24.42297091403315
 30
0.0
 10
330.6650878079587
 20
24.42297091403315
 30
0.0
 10
330.6650878079587
 20
24.42297091403315
 30
0.0
 10
330.6650878079587
 20
26.37427299687866
 30
0.0
 10
330.6650878079587
 20
26.37427299687866
 30
0.0
 10
330.6650878079587
 20
26.43387314877348
 30
0.0
 10
330.6154784329711
 20
26.48313801421255
 30
0.0
 10
330.5562227906249
 20
26.48313801421255
 30
0.0
 10
330.5562227906249
 20
26.48313801421255
 30
0.0
 10
329.2732692319178
 20
26.48313801421255
 30
0.0
 10
329.2732692319178
 20
26.48313801421255
 30
0.0
 10
329.2133245704745
 20
26.48313801421255
 30
0.0
 10
329.1644042145839
 20
26.43387314877348
 30
0.0
 10
329.1644042145839
 20
26.37427299687866
 30
0.0
 10
329.1644042145839
 20
26.37427299687866
 30
0.0
 10
329.1644042145839
 20
21.17390136189402
 30
0.0
 10
329.1644042145839
 20
21.17390136189402
 30
0.0
 10
329.1644042145839
 20
21.11188964315953
 30
0.0
 10
329.2133245704745
 20
21.06400281591456
 30
0.0
 10
329.2732692319178
 20
21.06400281591456
 30
0.0
 10
329.2732692319178
 20
21.06400281591456
 30
0.0
 10
330.5562227906249
 20
21.06400281591456
 30
0.0
 10
330.5562227906249
 20
21.06400281591456
 30
0.0
 10
330.6154784329711
 20
21.06400281591456
 30
0.0
 10
330.6650878079587
 20
21.11188964315953
 30
0.0
 10
330.6650878079587
 20
21.17390136189402
 30
0.0
 10
330.6650878079587
 20
21.17390136189402
 30
0.0
 10
330.6650878079587
 20
23.13622775029233
 30
0.0
 10
330.6650878079587
 20
23.13622775029233
 30
0.0
 10
330.6650878079587
 20
23.13622775029233
 30
0.0
 10
332.1747286495952
 20
23.13622775029233
 30
0.0
 10
332.1747286495952
 20
23.13622775029233
 30
0.0
 10
332.1747286495952
 20
23.13622775029233
 30
0.0
 10
332.1747286495952
 20
21.17390136189402
 30
0.0
 10
332.1747286495952
 20
21.17390136189402
 30
0.0
 10
332.1747286495952
 20
21.11188964315953
 30
0.0
 10
332.2236490054858
 20
21.06400281591456
 30
0.0
 10
332.2835936669291
 20
21.06400281591456
 30
0.0
 10
332.2835936669291
 20
21.06400281591456
 30
0.0
 10
333.5658582065391
 20
21.06400281591456
 30
0.0
 10
333.5658582065391
 20
21.06400281591456
 30
0.0
 10
333.6258028679824
 20
21.06400281591456
 30
0.0
 10
333.674723223873
 20
21.11188964315953
 30
0.0
 10
333.674723223873
 20
21.17390136189402
 30
0.0
 10
333.674723223873
 20
21.17390136189402
 30
0.0
 10
333.674723223873
 20
26.37427299687866
 30
0.0
 10
333.674723223873
 20
26.37427299687866
 30
0.0
 10
333.674723223873
 20
26.43387314877348
 30
0.0
 10
333.6258028679824
 20
26.48313801421255
 30
0.0
 10
333.5658582065391
 20
26.48313801421255
 30
0.0
  0
HATCH
  5
172
330
1F
100
AcDbEntity
  8
\U+30EC\U+30A4\U+30E4\U+30FC 1
 62
     7
420
 16777215
100
AcDbHatch
 10
0.0
 20
0.0
 30
0.0
210
0.0
220
0.0
230
1.0
  2
SOLID
 70
     1
 71
     0
 91
        1
 92
        1
 93
        1
 72
     4
 94
        3
 73
     0
 74
     1
 95
       65
 96
       61
 40
0.0
 40
0.0
 40
0.0
 40
0.0
 40
1.0
 40
1.0
 40
1.0
 40
2.0
 40
2.0
 40
2.0
 40
3.0
 40
3.0
 40
3.0
 40
4.0
 40
4.0
 40
4.0
 40
5.0
 40
5.0
 40
5.0
 40
6.0
 40
6.0
 40
6.0
 40
7.0
 40
7.0
 40
7.0
 40
8.0
 40
8.0
 40
8.0
 40
9.0
 40
9.0
 40
9.0
 40
10.0
 40
10.0
 40
10.0
 40
11.0
 40
11.0
 40
11.0
 40
12.0
 40
12.0
 40
12.0
 40
13.0
 40
13.0
 40
13.0
 40
14.0
 40
14.0
 40
14.0
 40
15.0
 40
15.0
 40
15.0
 40
16.0
 40
16.0
 40
16.0
 40
17.0
 40
17.0
 40
17.0
 40
18.0
 40
18.0
 40
18.0
 40
19.0
 40
19.0
 40
19.0
 40
20.0
 40
20.0
 40
20.0
 40
20.0
 10
333.5658582065391
 20
26.48313801421255
 10
333.5658582065391
 20
26.48313801421255
 10
332.3614528248958
 20
26.48313801421255
 10
332.3614528248958
 20
26.48313801421255
 10
332.3008191443554
 20
26.48313801421255
 10
332.1747286495952
 20
26.43387314877348
 10
332.1747286495952
 20
26.37427299687866
 10
332.1747286495952
 20
26.37427299687866
 10
332.1747286495952
 20
24.42297091403315
 10
332.1747286495952
 20
24.42297091403315
 10
332.1747286495952
 20
24.42297091403315
 10
330.6650878079587
 20
24.42297091403315
 10
330.6650878079587
 20
24.42297091403315
 10
330.6650878079587
 20
24.42297091403315
 10
330.6650878079587
 20
26.37427299687866
 10
330.6650878079587
 20
26.37427299687866
 10
330.6650878079587
 20
26.43387314877348
 10
330.6154784329711
 20
26.48313801421255
 10
330.5562227906249
 20
26.48313801421255
 10
330.5562227906249
 20
26.48313801421255
 10
329.2732692319178
 20
26.48313801421255
 10
329.2732692319178
 20
26.48313801421255
 10
329.2133245704745
 20
26.48313801421255
 10
329.1644042145839
 20
26.43387314877348
 10
329.1644042145839
 20
26.37427299687866
 10
329.1644042145839
 20
26.37427299687866
 10
329.1644042145839
 20
21.17390136189402
 10
329.1644042145839
 20
21.17390136189402
 10
329.1644042145839
 20
21.11188964315953
 10
329.2133245704745
 20
21.06400281591456
 10
329.2732692319178
 20
21.06400281591456
 10
329.2732692319178
 20
21.06400281591456
 10
330.5562227906249
 20
21.06400281591456
 10
330.5562227906249
 20
21.06400281591456
 10
330.6154784329711
 20
21.06400281591456
 10
330.6650878079587
 20
21.11188964315953
 10
330.6650878079587
 20
21.17390136189402
 10
330.6650878079587
 20
21.17390136189402
 10
330.6650878079587
 20
23.13622775029233
 10
330.6650878079587
 20
23.13622775029233
 10
330.6650878079587
 20
23.13622775029233
 10
332.1747286495952
 20
23.13622775029233
 10
332.1747286495952
 20
23.13622775029233
 10
332.1747286495952
 20
23.13622775029233
 10
332.1747286495952
 20
21.17390136189402
 10
332.1747286495952
 20
21.17390136189402
 10
332.1747286495952
 20
21.11188964315953
 10
332.2236490054858
 20
21.06400281591456
 10
332.2835936669291
 20
21.06400281591456
 10
332.2835936669291
 20
21.06400281591456
 10
333.5658582065391
 20
21.06400281591456
 10
333.5658582065391
 20
21.06400281591456
 10
333.6258028679824
 20
21.06400281591456
 10
333.674723223873
 20
21.11188964315953
 10
333.674723223873
 20
21.17390136189402
 10
333.674723223873
 20
21.17390136189402
 10
333.674723223873
 20
26.37427299687866
 10
333.674723223873
 20
26.37427299687866
 10
333.674723223873
 20
26.43387314877348
 10
333.6258028679824
 20
26.48313801421255
 10
333.5658582065391
 20
26.48313801421255
 97
        0
 75
     2
 76
     1
 98
        0
  0
SPLINE
  5
173
330
1F
100
AcDbEntity
  8
\U+30EC\U+30A4\U+30E4\U+30FC 1
370
     0
100
AcDbSpline
210
0.0
220
0.0
230
1.0
 70
    11
 71
     3
 72
    29
 73
    25
 74
     0
 42
0.0000000001
 43
0.0000000001
 40
0.0
 40
0.0
 40
0.0
 40
0.0
 40
1.0
 40
1.0
 40
1.0
 40
2.0
 40
2.0
 40
2.0
 40
3.0
 40
3.0
 40
3.0
 40
4.0
 40
4.0
 40
4.0
 40
5.0
 40
5.0
 40
5.0
 40
6.0
 40
6.0
 40
6.0
 40
7.0
 40
7.0
 40
7.0
 40
8.0
 40
8.0
 40
8.0
 40
8.0
 10
337.6930825978684
 20
22.91057399600847
 30
0.0
 10
337.6930825978684
 20
22.60775010285501
 30
0.0
 10
337.4471027802216
 20
22.3621147947567
 30
0.0
 10
337.1446233966166
 20
22.3621147947567
 30
0.0
 10
337.1446233966166
 20
22.3621147947567
 30
0.0
 10
336.1593260878352
 20
22.3621147947567
 30
0.0
 10
336.1593260878352
 20
22.3621147947567
 30
0.0
 10
335.8554686660361
 20
22.3621147947567
 30
0.0
 10
335.6101778674864
 20
22.60775010285501
 30
0.0
 10
335.6101778674864
 20
22.91057399600847
 30
0.0
 10
335.6101778674864
 20
22.91057399600847
 30
0.0
 10
335.6101778674864
 20
24.64242349644356
 30
0.0
 10
335.6101778674864
 20
24.64242349644356
 30
0.0
 10
335.6101778674864
 20
24.9449028800485
 30
0.0
 10
335.8554686660361
 20
25.19019367859829
 30
0.0
 10
336.1593260878352
 20
25.19019367859829
 30
0.0
 10
336.1593260878352
 20
25.19019367859829
 30
0.0
 10
337.1446233966166
 20
25.19019367859829
 30
0.0
 10
337.1446233966166
 20
25.19019367859829
 30
0.0
 10
337.4471027802216
 20
25.19019367859829
 30
0.0
 10
337.6930825978684
 20
24.9449028800485
 30
0.0
 10
337.6930825978684
 20
24.64242349644356
 30
0.0
 10
337.6930825978684
 20
24.64242349644356
 30
0.0
 10
337.6930825978684
 20
22.91057399600847
 30
0.0
 10
337.6930825978684
 20
22.91057399600847
 30
0.0
  0
SPLINE
  5
174
330
1F
100
AcDbEntity
  8
\U+30EC\U+30A4\U+30E4\U+30FC 1
370
     0
100
AcDbSpline
210
0.0
220
0.0
230
1.0
 70
    11
 71
     3
 72
    29
 73
    25
 74
     0
 42
0.0000000001
 43
0.0000000001
 40
0.0
 40
0.0
 40
0.0
 40
0.0
 40
1.0
 40
1.0
 40
1.0
 40
2.0
 40
2.0
 40
2.0
 40
3.0
 40
3.0
 40
3.0
 40
4.0
 40
4.0
 40
4.0
 40
5.0
 40
5.0
 40
5.0
 40
6.0
 40
6.0
 40
6.0
 40
7.0
 40
7.0
 40
7.0
 40
8.0
 40
8.0
 40
8.0
 40
8.0
 10
337.6579426239189
 20
26.4838270333096
 30
0.0
 10
337.6579426239189
 20
26.4838270333096
 30
0.0
 10
335.646006860533
 20
26.4838270333096
 30
0.0
 10
335.646006860533
 20
26.4838270333096
 30
0.0
 10
334.7971353329674
 20
26.4838270333096
 30
0.0
 10
334.1067381977233
 20
25.79480793625963
 30
0.0
 10
334.1067381977233
 20
24.9449028800485
 30
0.0
 10
334.1067381977233
 20
24.9449028800485
 30
0.0
 10
334.1067381977233
 20
22.60775010285501
 30
0.0
 10
334.1067381977233
 20
22.60775010285501
 30
0.0
 10
334.1067381977233
 20
21.7581895561924
 30
0.0
 10
334.7971353329674
 20
21.06951496869096
 30
0.0
 10
335.646006860533
 20
21.06951496869096
 30
0.0
 10
335.646006860533
 20
21.06951496869096
 30
0.0
 10
337.6579426239189
 20
21.06951496869096
 30
0.0
 10
337.6579426239189
 20
21.06951496869096
 30
0.0
 10
338.5075031705815
 20
21.06951496869096
 30
0.0
 10
339.1958332485344
 20
21.7581895561924
 30
0.0
 10
339.1958332485344
 20
22.60775010285501
 30
0.0
 10
339.1958332485344
 20
22.60775010285501
 30
0.0
 10
339.1958332485344
 20
24.9449028800485
 30
0.0
 10
339.1958332485344
 20
24.9449028800485
 30
0.0
 10
339.1958332485344
 20
25.79480793625963
 30
0.0
 10
338.5075031705815
 20
26.4838270333096
 30
0.0
 10
337.6579426239189
 20
26.4838270333096
 30
0.0
  0
HATCH
  5
175
330
1F
100
AcDbEntity
  8
\U+30EC\U+30A4\U+30E4\U+30FC 1
 62
     7
420
 16777215
100
AcDbHatch
 10
0.0
 20
0.0
 30
0.0
210
0.0
220
0.0
230
1.0
  2
SOLID
 70
     1
 71
     0
 91
        2
 92
        1
 93
        1
 72
     4
 94
        3
 73
     0
 74
     1
 95
       29
 96
       25
 40
0.0
 40
0.0
 40
0.0
 40
0.0
 40
1.0
 40
1.0
 40
1.0
 40
2.0
 40
2.0
 40
2.0
 40
3.0
 40
3.0
 40
3.0
 40
4.0
 40
4.0
 40
4.0
 40
5.0
 40
5.0
 40
5.0
 40
6.0
 40
6.0
 40
6.0
 40
7.0
 40
7.0
 40
7.0
 40
8.0
 40
8.0
 40
8.0
 40
8.0
 10
337.6930825978684
 20
22.91057399600847
 10
337.6930825978684
 20
22.60775010285501
 10
337.4471027802216
 20
22.3621147947567
 10
337.1446233966166
 20
22.3621147947567
 10
337.1446233966166
 20
22.3621147947567
 10
336.1593260878352
 20
22.3621147947567
 10
336.1593260878352
 20
22.3621147947567
 10
335.8554686660361
 20
22.3621147947567
 10
335.6101778674864
 20
22.60775010285501
 10
335.6101778674864
 20
22.91057399600847
 10
335.6101778674864
 20
22.91057399600847
 10
335.6101778674864
 20
24.64242349644356
 10
335.6101778674864
 20
24.64242349644356
 10
335.6101778674864
 20
24.9449028800485
 10
335.8554686660361
 20
25.19019367859829
 10
336.1593260878352
 20
25.19019367859829
 10
336.1593260878352
 20
25.19019367859829
 10
337.1446233966166
 20
25.19019367859829
 10
337.1446233966166
 20
25.19019367859829
 10
337.4471027802216
 20
25.19019367859829
 10
337.6930825978684
 20
24.9449028800485
 10
337.6930825978684
 20
24.64242349644356
 10
337.6930825978684
 20
24.64242349644356
 10
337.6930825978684
 20
22.91057399600847
 10
337.6930825978684
 20
22.91057399600847
 97
        0
 92
        1
 93
        2
 72
     4
 94
        3
 73
     0
 74
     0
 95
       29
 96
       25
 40
0.0
 40
0.0
 40
0.0
 40
0.0
 40
0.3527777776895833
 40
0.3527777776895833
 40
0.3527777776895833
 40
0.7055555553791667
 40
0.7055555553791667
 40
0.7055555553791667
 40
1.05833333306875
 40
1.05833333306875
 40
1.05833333306875
 40
1.411111110758333
 40
1.411111110758333
 40
1.411111110758333
 40
1.763888888447917
 40
1.763888888447917
 40
1.763888888447917
 40
2.1166666661375
 40
2.1166666661375
 40
2.1166666661375
 40
2.469444443827083
 40
2.469444443827083
 40
2.469444443827083
 40
2.822222221516667
 40
2.822222221516667
 40
2.822222221516667
 40
2.822222221516667
 10
337.6579426239189
 20
26.4838270333096
 10
337.6579426239189
 20
26.4838270333096
 10
335.646006860533
 20
26.4838270333096
 10
335.646006860533
 20
26.4838270333096
 10
334.7971353329674
 20
26.4838270333096
 10
334.1067381977233
 20
25.79480793625963
 10
334.1067381977233
 20
24.9449028800485
 10
334.1067381977233
 20
24.9449028800485
 10
334.1067381977233
 20
22.60775010285501
 10
334.1067381977233
 20
22.60775010285501
 10
334.1067381977233
 20
21.7581895561924
 10
334.7971353329674
 20
21.06951496869096
 10
335.646006860533
 20
21.06951496869096
 10
335.646006860533
 20
21.06951496869096
 10
337.6579426239189
 20
21.06951496869096
 10
337.6579426239189
 20
21.06951496869096
 10
338.5075031705815
 20
21.06951496869096
 10
339.1958332485344
 20
21.7581895561924
 10
339.1958332485344
 20
22.60775010285501
 10
339.1958332485344
 20
22.60775010285501
 10
339.1958332485344
 20
24.9449028800485
 10
339.1958332485344
 20
24.9449028800485
 10
339.1958332485344
 20
25.79480793625963
 10
338.5075031705815
 20
26.4838270333096
 10
337.6579426239189
 20
26.4838270333096
 72
     1
 10
337.6579426239189
 20
26.4838270333096
 11
337.6579426239189
 21
26.4838270333096
 97
        0
 75
     2
 76
     1
 98
        0
  0
SPLINE
  5
176
330
1F
100
AcDbEntity
  8
\U+30EC\U+30A4\U+30E4\U+30FC 1
370
     0
100
AcDbSpline
210
0.0
220
0.0
230
1.0
 70
    11
 71
     3
 72
    47
 73
    43
 74
     0
 42
0.0000000001
 43
0.0000000001
 40
0.0
 40
0.0
 40
0.0
 40
0.0
 40
1.0
 40
1.0
 40
1.0
 40
2.0
 40
2.0
 40
2.0
 40
3.0
 40
3.0
 40
3.0
 40
4.0
 40
4.0
 40
4.0
 40
5.0
 40
5.0
 40
5.0
 40
6.0
 40
6.0
 40
6.0
 40
7.0
 40
7.0
 40
7.0
 40
8.0
 40
8.0
 40
8.0
 40
9.0
 40
9.0
 40
9.0
 40
10.0
 40
10.0
 40
10.0
 40
11.0
 40
11.0
 40
11.0
 40
12.0
 40
12.0
 40
12.0
 40
13.0
 40
13.0
 40
13.0
 40
14.0
 40
14.0
 40
14.0
 40
14.0
 10
310.3865667626811
 20
28.57052136872543
 30
0.0
 10
310.3865667626811
 20
28.57052136872543
 30
0.0
 10
304.5223252276889
 20
28.57052136872543
 30
0.0
 10
304.5223252276889
 20
28.57052136872543
 30
0.0
 10
304.468581738119
 20
28.57052136872543
 30
0.0
 10
304.4244845159078
 20
28.52642414651423
 30
0.0
 10
304.4244845159078
 20
28.47199163784728
 30
0.0
 10
304.4244845159078
 20
28.47199163784728
 30
0.0
 10
304.4244845159078
 20
27.17663573539334
 30
0.0
 10
304.4244845159078
 20
27.17663573539334
 30
0.0
 10
304.4244845159078
 20
27.12185871717787
 30
0.0
 10
304.468581738119
 20
27.07776149496667
 30
0.0
 10
304.5223252276889
 20
27.07776149496667
 30
0.0
 10
304.5223252276889
 20
27.07776149496667
 30
0.0
 10
306.5866264424506
 20
27.07776149496667
 30
0.0
 10
306.5866264424506
 20
27.07776149496667
 30
0.0
 10
306.5866264424506
 20
27.07776149496667
 30
0.0
 10
306.5866264424506
 20
21.17390136189402
 30
0.0
 10
306.5866264424506
 20
21.17390136189402
 30
0.0
 10
306.5866264424506
 20
21.11188964315953
 30
0.0
 10
306.6348577792441
 20
21.06400281591456
 30
0.0
 10
306.6954914597845
 20
21.06400281591456
 30
0.0
 10
306.6954914597845
 20
21.06400281591456
 30
0.0
 10
308.2127115114885
 20
21.06400281591456
 30
0.0
 10
308.2127115114885
 20
21.06400281591456
 30
0.0
 10
308.2740342111259
 20
21.06400281591456
 30
0.0
 10
308.3208875097254
 20
21.11188964315953
 30
0.0
 10
308.3208875097254
 20
21.17390136189402
 30
0.0
 10
308.3208875097254
 20
21.17390136189402
 30
0.0
 10
308.3208875097254
 20
27.07776149496667
 30
0.0
 10
308.3208875097254
 20
27.07776149496667
 30
0.0
 10
308.3208875097254
 20
27.07776149496667
 30
0.0
 10
310.3865667626811
 20
27.07776149496667
 30
0.0
 10
310.3865667626811
 20
27.07776149496667
 30
0.0
 10
310.4409992713481
 20
27.07776149496667
 30
0.0
 10
310.4837184553652
 20
27.12185871717787
 30
0.0
 10
310.4837184553652
 20
27.17663573539334
 30
0.0
 10
310.4837184553652
 20
27.17663573539334
 30
0.0
 10
310.4837184553652
 20
28.47199163784728
 30
0.0
 10
310.4837184553652
 20
28.47199163784728
 30
0.0
 10
310.4837184553652
 20
28.52642414651423
 30
0.0
 10
310.4409992713481
 20
28.57052136872543
 30
0.0
 10
310.3865667626811
 20
28.57052136872543
 30
0.0
  0
HATCH
  5
177
330
1F
100
AcDbEntity
  8
\U+30EC\U+30A4\U+30E4\U+30FC 1
 62
     7
420
 16777215
100
AcDbHatch
 10
0.0
 20
0.0
 30
0.0
210
0.0
220
0.0
230
1.0
  2
SOLID
 70
     1
 71
     0
 91
        1
 92
        1
 93
        1
 72
     4
 94
        3
 73
     0
 74
     1
 95
       47
 96
       43
 40
0.0
 40
0.0
 40
0.0
 40
0.0
 40
1.0
 40
1.0
 40
1.0
 40
2.0
 40
2.0
 40
2.0
 40
3.0
 40
3.0
 40
3.0
 40
4.0
 40
4.0
 40
4.0
 40
5.0
 40
5.0
 40
5.0
 40
6.0
 40
6.0
 40
6.0
 40
7.0
 40
7.0
 40
7.0
 40
8.0
 40
8.0
 40
8.0
 40
9.0
 40
9.0
 40
9.0
 40
10.0
 40
10.0
 40
10.0
 40
11.0
 40
11.0
 40
11.0
 40
12.0
 40
12.0
 40
12.0
 40
13.0
 40
13.0
 40
13.0
 40
14.0
 40
14.0
 40
14.0
 40
14.0
 10
310.3865667626811
 20
28.57052136872543
 10
310.3865667626811
 20
28.57052136872543
 10
304.5223252276889
 20
28.57052136872543
 10
304.5223252276889
 20
28.57052136872543
 10
304.468581738119
 20
28.57052136872543
 10
304.4244845159078
 20
28.52642414651423
 10
304.4244845159078
 20
28.47199163784728
 10
304.4244845159078
 20
28.47199163784728
 10
304.4244845159078
 20
27.17663573539334
 10
304.4244845159078
 20
27.17663573539334
 10
304.4244845159078
 20
27.12185871717787
 10
304.468581738119
 20
27.07776149496667
 10
304.5223252276889
 20
27.07776149496667
 10
304.5223252276889
 20
27.07776149496667
 10
306.5866264424506
 20
27.07776149496667
 10
306.5866264424506
 20
27.07776149496667
 10
306.5866264424506
 20
27.07776149496667
 10
306.5866264424506
 20
21.17390136189402
 10
306.5866264424506
 20
21.17390136189402
 10
306.5866264424506
 20
21.11188964315953
 10
306.6348577792441
 20
21.06400281591456
 10
306.6954914597845
 20
21.06400281591456
 10
306.6954914597845
 20
21.06400281591456
 10
308.2127115114885
 20
21.06400281591456
 10
308.2127115114885
 20
21.06400281591456
 10
308.2740342111259
 20
21.06400281591456
 10
308.3208875097254
 20
21.11188964315953
 10
308.3208875097254
 20
21.17390136189402
 10
308.3208875097254
 20
21.17390136189402
 10
308.3208875097254
 20
27.07776149496667
 10
308.3208875097254
 20
27.07776149496667
 10
308.3208875097254
 20
27.07776149496667
 10
310.3865667626811
 20
27.07776149496667
 10
310.3865667626811
 20
27.07776149496667
 10
310.4409992713481
 20
27.07776149496667
 10
310.4837184553652
 20
27.12185871717787
 10
310.4837184553652
 20
27.17663573539334
 10
310.4837184553652
 20
27.17663573539334
 10
310.4837184553652
 20
28.47199163784728
 10
310.4837184553652
 20
28.47199163784728
 10
310.4837184553652
 20
28.52642414651423
 10
310.4409992713481
 20
28.57052136872543
 10
310.3865667626811
 20
28.57052136872543
 97
        0
 75
     2
 76
     1
 98
        0
  0
SPLINE
  5
178
330
1F
100
AcDbEntity
  8
\U+30EC\U+30A4\U+30E4\U+30FC 1
370
     0
100
AcDbSpline
210
0.0
220
0.0
230
1.0
 70
    11
 71
     3
 72
    29
 73
    25
 74
     0
 42
0.0000000001
 43
0.0000000001
 40
0.0
 40
0.0
 40
0.0
 40
0.0
 40
1.0
 40
1.0
 40
1.0
 40
2.0
 40
2.0
 40
2.0
 40
3.0
 40
3.0
 40
3.0
 40
4.0
 40
4.0
 40
4.0
 40
5.0
 40
5.0
 40
5.0
 40
6.0
 40
6.0
 40
6.0
 40
7.0
 40
7.0
 40
7.0
 40
8.0
 40
8.0
 40
8.0
 40
8.0
 10
315.5438747041002
 20
21.06400281591456
 30
0.0
 10
315.6038193655435
 20
21.06400281591456
 30
0.0
 10
315.6541177596281
 20
21.11188964315953
 30
0.0
 10
315.6541177596281
 20
21.1749348905396
 30
0.0
 10
315.6541177596281
 20
21.1749348905396
 30
0.0
 10
315.6541177596281
 20
26.38219671649473
 30
0.0
 10
315.6541177596281
 20
26.38219671649473
 30
0.0
 10
315.6541177596281
 20
26.4424858874866
 30
0.0
 10
315.6038193655435
 20
26.49106173382862
 30
0.0
 10
315.5438747041002
 20
26.49106173382862
 30
0.0
 10
315.5438747041002
 20
26.49106173382862
 30
0.0
 10
314.2567870308108
 20
26.49106173382862
 30
0.0
 10
314.2567870308108
 20
26.49106173382862
 30
0.0
 10
314.1954643311734
 20
26.49106173382862
 30
0.0
 10
314.1465439752828
 20
26.4424858874866
 30
0.0
 10
314.1465439752828
 20
26.38219671649473
 30
0.0
 10
314.1465439752828
 20
26.38219671649473
 30
0.0
 10
314.1465439752828
 20
21.1749348905396
 30
0.0
 10
314.1465439752828
 20
21.1749348905396
 30
0.0
 10
314.1465439752828
 20
21.11188964315953
 30
0.0
 10
314.1954643311734
 20
21.06400281591456
 30
0.0
 10
314.2567870308108
 20
21.06400281591456
 30
0.0
 10
314.2567870308108
 20
21.06400281591456
 30
0.0
 10
315.5438747041002
 20
21.06400281591456
 30
0.0
 10
315.5438747041002
 20
21.06400281591456
 30
0.0
  0
HATCH
  5
179
330
1F
100
AcDbEntity
  8
\U+30EC\U+30A4\U+30E4\U+30FC 1
 62
     7
420
 16777215
100
AcDbHatch
 10
0.0
 20
0.0
 30
0.0
210
0.0
220
0.0
230
1.0
  2
SOLID
 70
     1
 71
     0
 91
        1
 92
        1
 93
        1
 72
     4
 94
        3
 73
     0
 74
     1
 95
       29
 96
       25
 40
0.0
 40
0.0
 40
0.0
 40
0.0
 40
1.0
 40
1.0
 40
1.0
 40
2.0
 40
2.0
 40
2.0
 40
3.0
 40
3.0
 40
3.0
 40
4.0
 40
4.0
 40
4.0
 40
5.0
 40
5.0
 40
5.0
 40
6.0
 40
6.0
 40
6.0
 40
7.0
 40
7.0
 40
7.0
 40
8.0
 40
8.0
 40
8.0
 40
8.0
 10
315.5438747041002
 20
21.06400281591456
 10
315.6038193655435
 20
21.06400281591456
 10
315.6541177596281
 20
21.11188964315953
 10
315.6541177596281
 20
21.1749348905396
 10
315.6541177596281
 20
21.1749348905396
 10
315.6541177596281
 20
26.38219671649473
 10
315.6541177596281
 20
26.38219671649473
 10
315.6541177596281
 20
26.4424858874866
 10
315.6038193655435
 20
26.49106173382862
 10
315.5438747041002
 20
26.49106173382862
 10
315.5438747041002
 20
26.49106173382862
 10
314.2567870308108
 20
26.49106173382862
 10
314.2567870308108
 20
26.49106173382862
 10
314.1954643311734
 20
26.49106173382862
 10
314.1465439752828
 20
26.4424858874866
 10
314.1465439752828
 20
26.38219671649473
 10
314.1465439752828
 20
26.38219671649473
 10
314.1465439752828
 20
21.1749348905396
 10
314.1465439752828
 20
21.1749348905396
 10
314.1465439752828
 20
21.11188964315953
 10
314.1954643311734
 20
21.06400281591456
 10
314.2567870308108
 20
21.06400281591456
 10
314.2567870308108
 20
21.06400281591456
 10
315.5438747041002
 20
21.06400281591456
 10
315.5438747041002
 20
21.06400281591456
 97
        0
 75
     2
 76
     1
 98
        0
  0
SPLINE
  5
17A
330
1F
100
AcDbEntity
  8
\U+30EC\U+30A4\U+30E4\U+30FC 1
370
     0
100
AcDbSpline
210
0.0
220
0.0
230
1.0
 70
    11
 71
     3
 72
    29
 73
    25
 74
     0
 42
0.0000000001
 43
0.0000000001
 40
0.0
 40
0.0
 40
0.0
 40
0.0
 40
1.0
 40
1.0
 40
1.0
 40
2.0
 40
2.0
 40
2.0
 40
3.0
 40
3.0
 40
3.0
 40
4.0
 40
4.0
 40
4.0
 40
5.0
 40
5.0
 40
5.0
 40
6.0
 40
6.0
 40
6.0
 40
7.0
 40
7.0
 40
7.0
 40
8.0
 40
8.0
 40
8.0
 40
8.0
 10
317.6681205803052
 20
26.48761663834338
 30
0.0
 10
317.5654567348448
 20
26.48761663834338
 30
0.0
 10
317.4738171949371
 20
26.43628471561315
 30
0.0
 10
317.4186956671731
 20
26.35808104809798
 30
0.0
 10
317.4186956671731
 20
26.35808104809798
 30
0.0
 10
315.6541177596281
 20
23.77391492461208
 30
0.0
 10
315.6541177596281
 20
23.77391492461208
 30
0.0
 10
315.6541177596281
 20
23.77391492461208
 30
0.0
 10
317.4069823425233
 20
21.06951496869096
 30
0.0
 10
317.4069823425233
 20
21.06951496869096
 30
0.0
 10
317.4069823425233
 20
21.06951496869096
 30
0.0
 10
319.250797446229
 20
21.06951496869096
 30
0.0
 10
319.250797446229
 20
21.06951496869096
 30
0.0
 10
319.250797446229
 20
21.06951496869096
 30
0.0
 10
317.2436848165224
 20
23.77391492461208
 30
0.0
 10
317.2436848165224
 20
23.77391492461208
 30
0.0
 10
317.2436848165224
 20
23.77391492461208
 30
0.0
 10
319.2494194080349
 20
26.48589409060075
 30
0.0
 10
319.2494194080349
 20
26.48589409060075
 30
0.0
 10
319.2494194080349
 20
26.48589409060075
 30
0.0
 10
317.6674315612082
 20
26.48589409060075
 30
0.0
 10
317.6674315612082
 20
26.48589409060075
 30
0.0
 10
317.6674315612082
 20
26.48589409060075
 30
0.0
 10
317.6681205803052
 20
26.48761663834338
 30
0.0
 10
317.6681205803052
 20
26.48761663834338
 30
0.0
  0
HATCH
  5
17B
330
1F
100
AcDbEntity
  8
\U+30EC\U+30A4\U+30E4\U+30FC 1
 62
     7
420
 16777215
100
AcDbHatch
 10
0.0
 20
0.0
 30
0.0
210
0.0
220
0.0
230
1.0
  2
SOLID
 70
     1
 71
     0
 91
        1
 92
        1
 93
        1
 72
     4
 94
        3
 73
     0
 74
     1
 95
       29
 96
       25
 40
0.0
 40
0.0
 40
0.0
 40
0.0
 40
1.0
 40
1.0
 40
1.0
 40
2.0
 40
2.0
 40
2.0
 40
3.0
 40
3.0
 40
3.0
 40
4.0
 40
4.0
 40
4.0
 40
5.0
 40
5.0
 40
5.0
 40
6.0
 40
6.0
 40
6.0
 40
7.0
 40
7.0
 40
7.0
 40
8.0
 40
8.0
 40
8.0
 40
8.0
 10
317.6681205803052
 20
26.48761663834338
 10
317.5654567348448
 20
26.48761663834338
 10
317.4738171949371
 20
26.43628471561315
 10
317.4186956671731
 20
26.35808104809798
 10
317.4186956671731
 20
26.35808104809798
 10
315.6541177596281
 20
23.77391492461208
 10
315.6541177596281
 20
23.77391492461208
 10
315.6541177596281
 20
23.77391492461208
 10
317.4069823425233
 20
21.06951496869096
 10
317.4069823425233
 20
21.06951496869096
 10
317.4069823425233
 20
21.06951496869096
 10
319.250797446229
 20
21.06951496869096
 10
319.250797446229
 20
21.06951496869096
 10
319.250797446229
 20
21.06951496869096
 10
317.2436848165224
 20
23.77391492461208
 10
317.2436848165224
 20
23.77391492461208
 10
317.2436848165224
 20
23.77391492461208
 10
319.2494194080349
 20
26.48589409060075
 10
319.2494194080349
 20
26.48589409060075
 10
319.2494194080349
 20
26.48589409060075
 10
317.6674315612082
 20
26.48589409060075
 10
317.6674315612082
 20
26.48589409060075
 10
317.6674315612082
 20
26.48589409060075
 10
317.6681205803052
 20
26.48761663834338
 10
317.6681205803052
 20
26.48761663834338
 97
        0
 75
     2
 76
     1
 98
        0
  0
SPLINE
  5
17C
330
1F
100
AcDbEntity
  8
\U+30EC\U+30A4\U+30E4\U+30FC 1
370
     0
100
AcDbSpline
210
0.0
220
0.0
230
1.0
 70
    11
 71
     3
 72
    29
 73
    25
 74
     0
 42
0.0000000001
 43
0.0000000001
 40
0.0
 40
0.0
 40
0.0
 40
0.0
 40
1.0
 40
1.0
 40
1.0
 40
2.0
 40
2.0
 40
2.0
 40
3.0
 40
3.0
 40
3.0
 40
4.0
 40
4.0
 40
4.0
 40
5.0
 40
5.0
 40
5.0
 40
6.0
 40
6.0
 40
6.0
 40
7.0
 40
7.0
 40
7.0
 40
8.0
 40
8.0
 40
8.0
 40
8.0
 10
294.6879556554947
 20
24.82019042348245
 30
0.0
 10
294.8257594749047
 20
24.82019042348245
 30
0.0
 10
294.9366915495297
 20
24.9325005363016
 30
0.0
 10
294.9366915495297
 20
25.06961533661454
 30
0.0
 10
294.9366915495297
 20
25.06961533661454
 30
0.0
 10
294.9366915495297
 20
28.31834037920514
 30
0.0
 10
294.9366915495297
 20
28.31834037920514
 30
0.0
 10
294.9366915495297
 20
28.45683321771218
 30
0.0
 10
294.8257594749047
 20
28.56776529233723
 30
0.0
 10
294.6879556554947
 20
28.56776529233723
 30
0.0
 10
294.6879556554947
 20
28.56776529233723
 30
0.0
 10
291.4392306129041
 20
28.56776529233723
 30
0.0
 10
291.4392306129041
 20
28.56776529233723
 30
0.0
 10
291.3000487553
 20
28.56776529233723
 30
0.0
 10
291.1891166806749
 20
28.45683321771218
 30
0.0
 10
291.1891166806749
 20
28.31834037920514
 30
0.0
 10
291.1891166806749
 20
28.31834037920514
 30
0.0
 10
291.1891166806749
 20
25.06961533661454
 30
0.0
 10
291.1891166806749
 20
25.06961533661454
 30
0.0
 10
291.1891166806749
 20
24.9325005363016
 30
0.0
 10
291.3000487553
 20
24.82019042348245
 30
0.0
 10
291.4392306129041
 20
24.82019042348245
 30
0.0
 10
291.4392306129041
 20
24.82019042348245
 30
0.0
 10
294.6879556554947
 20
24.82019042348245
 30
0.0
 10
294.6879556554947
 20
24.82019042348245
 30
0.0
  0
HATCH
  5
17D
330
1F
100
AcDbEntity
  8
\U+30EC\U+30A4\U+30E4\U+30FC 1
 62
     7
420
 16777215
100
AcDbHatch
 10
0.0
 20
0.0
 30
0.0
210
0.0
220
0.0
230
1.0
  2
SOLID
 70
     1
 71
     0
 91
        1
 92
        1
 93
        1
 72
     4
 94
        3
 73
     0
 74
     1
 95
       29
 96
       25
 40
0.0
 40
0.0
 40
0.0
 40
0.0
 40
1.0
 40
1.0
 40
1.0
 40
2.0
 40
2.0
 40
2.0
 40
3.0
 40
3.0
 40
3.0
 40
4.0
 40
4.0
 40
4.0
 40
5.0
 40
5.0
 40
5.0
 40
6.0
 40
6.0
 40
6.0
 40
7.0
 40
7.0
 40
7.0
 40
8.0
 40
8.0
 40
8.0
 40
8.0
 10
294.6879556554947
 20
24.82019042348245
 10
294.8257594749047
 20
24.82019042348245
 10
294.9366915495297
 20
24.9325005363016
 10
294.9366915495297
 20
25.06961533661454
 10
294.9366915495297
 20
25.06961533661454
 10
294.9366915495297
 20
28.31834037920514
 10
294.9366915495297
 20
28.31834037920514
 10
294.9366915495297
 20
28.45683321771218
 10
294.8257594749047
 20
28.56776529233723
 10
294.6879556554947
 20
28.56776529233723
 10
294.6879556554947
 20
28.56776529233723
 10
291.4392306129041
 20
28.56776529233723
 10
291.4392306129041
 20
28.56776529233723
 10
291.3000487553
 20
28.56776529233723
 10
291.1891166806749
 20
28.45683321771218
 10
291.1891166806749
 20
28.31834037920514
 10
291.1891166806749
 20
28.31834037920514
 10
291.1891166806749
 20
25.06961533661454
 10
291.1891166806749
 20
25.06961533661454
 10
291.1891166806749
 20
24.9325005363016
 10
291.3000487553
 20
24.82019042348245
 10
291.4392306129041
 20
24.82019042348245
 10
291.4392306129041
 20
24.82019042348245
 10
294.6879556554947
 20
24.82019042348245
 10
294.6879556554947
 20
24.82019042348245
 97
        0
 75
     2
 76
     1
 98
        0
  0
SPLINE
  5
17E
330
1F
100
AcDbEntity
  8
\U+30EC\U+30A4\U+30E4\U+30FC 1
370
     0
100
AcDbSpline
210
0.0
220
0.0
230
1.0
 70
    11
 71
     3
 72
    29
 73
    25
 74
     0
 42
0.0000000001
 43
0.0000000001
 40
0.0
 40
0.0
 40
0.0
 40
0.0
 40
1.0
 40
1.0
 40
1.0
 40
2.0
 40
2.0
 40
2.0
 40
3.0
 40
3.0
 40
3.0
 40
4.0
 40
4.0
 40
4.0
 40
5.0
 40
5.0
 40
5.0
 40
6.0
 40
6.0
 40
6.0
 40
7.0
 40
7.0
 40
7.0
 40
8.0
 40
8.0
 40
8.0
 40
8.0
 10
298.4375975816406
 20
21.07089300688505
 30
0.0
 10
298.5747123819535
 20
21.07089300688505
 30
0.0
 10
298.6856444565786
 20
21.18251410060715
 30
0.0
 10
298.6856444565786
 20
21.32135144866272
 30
0.0
 10
298.6856444565786
 20
21.32135144866272
 30
0.0
 10
298.6856444565786
 20
24.56904296260774
 30
0.0
 10
298.6856444565786
 20
24.56904296260774
 30
0.0
 10
298.6856444565786
 20
24.70650227246921
 30
0.0
 10
298.5747123819535
 20
24.81777885664278
 30
0.0
 10
298.4375975816406
 20
24.81777885664278
 30
0.0
 10
298.4375975816406
 20
24.81777885664278
 30
0.0
 10
295.18887253905
 20
24.81777885664278
 30
0.0
 10
295.18887253905
 20
24.81777885664278
 30
0.0
 10
295.05106871964
 20
24.81777885664278
 30
0.0
 10
294.9373805686268
 20
24.70650227246921
 30
0.0
 10
294.9373805686268
 20
24.56904296260774
 30
0.0
 10
294.9373805686268
 20
24.56904296260774
 30
0.0
 10
294.9373805686268
 20
21.32135144866272
 30
0.0
 10
294.9373805686268
 20
21.32135144866272
 30
0.0
 10
294.9373805686268
 20
21.18251410060715
 30
0.0
 10
295.05106871964
 20
21.07089300688505
 30
0.0
 10
295.18887253905
 20
21.07089300688505
 30
0.0
 10
295.18887253905
 20
21.07089300688505
 30
0.0
 10
298.4375975816406
 20
21.07089300688505
 30
0.0
 10
298.4375975816406
 20
21.07089300688505
 30
0.0
  0
HATCH
  5
17F
330
1F
100
AcDbEntity
  8
\U+30EC\U+30A4\U+30E4\U+30FC 1
 62
     7
420
 16777215
100
AcDbHatch
 10
0.0
 20
0.0
 30
0.0
210
0.0
220
0.0
230
1.0
  2
SOLID
 70
     1
 71
     0
 91
        1
 92
        1
 93
        1
 72
     4
 94
        3
 73
     0
 74
     1
 95
       29
 96
       25
 40
0.0
 40
0.0
 40
0.0
 40
0.0
 40
1.0
 40
1.0
 40
1.0
 40
2.0
 40
2.0
 40
2.0
 40
3.0
 40
3.0
 40
3.0
 40
4.0
 40
4.0
 40
4.0
 40
5.0
 40
5.0
 40
5.0
 40
6.0
 40
6.0
 40
6.0
 40
7.0
 40
7.0
 40
7.0
 40
8.0
 40
8.0
 40
8.0
 40
8.0
 10
298.4375975816406
 20
21.07089300688505
 10
298.5747123819535
 20
21.07089300688505
 10
298.6856444565786
 20
21.18251410060715
 10
298.6856444565786
 20
21.32135144866272
 10
298.6856444565786
 20
21.32135144866272
 10
298.6856444565786
 20
24.56904296260774
 10
298.6856444565786
 20
24.56904296260774
 10
298.6856444565786
 20
24.70650227246921
 10
298.5747123819535
 20
24.81777885664278
 10
298.4375975816406
 20
24.81777885664278
 10
298.4375975816406
 20
24.81777885664278
 10
295.18887253905
 20
24.81777885664278
 10
295.18887253905
 20
24.81777885664278
 10
295.05106871964
 20
24.81777885664278
 10
294.9373805686268
 20
24.70650227246921
 10
294.9373805686268
 20
24.56904296260774
 10
294.9373805686268
 20
24.56904296260774
 10
294.9373805686268
 20
21.32135144866272
 10
294.9373805686268
 20
21.32135144866272
 10
294.9373805686268
 20
21.18251410060715
 10
295.05106871964
 20
21.07089300688505
 10
295.18887253905
 20
21.07089300688505
 10
295.18887253905
 20
21.07089300688505
 10
298.4375975816406
 20
21.07089300688505
 10
298.4375975816406
 20
21.07089300688505
 97
        0
 75
     2
 76
     1
 98
        0
  0
SPLINE
  5
180
330
1F
100
AcDbEntity
  8
\U+30EC\U+30A4\U+30E4\U+30FC 1
370
     0
100
AcDbSpline
210
0.0
220
0.0
230
1.0
 70
    11
 71
     3
 72
    29
 73
    25
 74
     0
 42
0.0000000001
 43
0.0000000001
 40
0.0
 40
0.0
 40
0.0
 40
0.0
 40
1.0
 40
1.0
 40
1.0
 40
2.0
 40
2.0
 40
2.0
 40
3.0
 40
3.0
 40
3.0
 40
4.0
 40
4.0
 40
4.0
 40
5.0
 40
5.0
 40
5.0
 40
6.0
 40
6.0
 40
6.0
 40
7.0
 40
7.0
 40
7.0
 40
8.0
 40
8.0
 40
8.0
 40
8.0
 10
302.1872395077866
 20
24.82019042348245
 30
0.0
 10
302.3243543080995
 20
24.82019042348245
 30
0.0
 10
302.4366644209186
 20
24.9325005363016
 30
0.0
 10
302.4366644209186
 20
25.06961533661454
 30
0.0
 10
302.4366644209186
 20
25.06961533661454
 30
0.0
 10
302.4366644209186
 20
28.31834037920514
 30
0.0
 10
302.4366644209186
 20
28.31834037920514
 30
0.0
 10
302.4366644209186
 20
28.45683321771218
 30
0.0
 10
302.3243543080995
 20
28.56776529233723
 30
0.0
 10
302.1872395077866
 20
28.56776529233723
 30
0.0
 10
302.1872395077866
 20
28.56776529233723
 30
0.0
 10
298.9378254460989
 20
28.56776529233723
 30
0.0
 10
298.9378254460989
 20
28.56776529233723
 30
0.0
 10
298.8000216266889
 20
28.56776529233723
 30
0.0
 10
298.6890895520639
 20
28.45683321771218
 30
0.0
 10
298.6890895520639
 20
28.31834037920514
 30
0.0
 10
298.6890895520639
 20
28.31834037920514
 30
0.0
 10
298.6890895520639
 20
25.06961533661454
 30
0.0
 10
298.6890895520639
 20
25.06961533661454
 30
0.0
 10
298.6890895520639
 20
24.9325005363016
 30
0.0
 10
298.8000216266889
 20
24.82019042348245
 30
0.0
 10
298.9378254460989
 20
24.82019042348245
 30
0.0
 10
298.9378254460989
 20
24.82019042348245
 30
0.0
 10
302.1872395077866
 20
24.82019042348245
 30
0.0
 10
302.1872395077866
 20
24.82019042348245
 30
0.0
  0
HATCH
  5
181
330
1F
100
AcDbEntity
  8
\U+30EC\U+30A4\U+30E4\U+30FC 1
 62
     7
420
 16777215
100
AcDbHatch
 10
0.0
 20
0.0
 30
0.0
210
0.0
220
0.0
230
1.0
  2
SOLID
 70
     1
 71
     0
 91
        1
 92
        1
 93
        1
 72
     4
 94
        3
 73
     0
 74
     1
 95
       29
 96
       25
 40
0.0
 40
0.0
 40
0.0
 40
0.0
 40
1.0
 40
1.0
 40
1.0
 40
2.0
 40
2.0
 40
2.0
 40
3.0
 40
3.0
 40
3.0
 40
4.0
 40
4.0
 40
4.0
 40
5.0
 40
5.0
 40
5.0
 40
6.0
 40
6.0
 40
6.0
 40
7.0
 40
7.0
 40
7.0
 40
8.0
 40
8.0
 40
8.0
 40
8.0
 10
302.1872395077866
 20
24.82019042348245
 10
302.3243543080995
 20
24.82019042348245
 10
302.4366644209186
 20
24.9325005363016
 10
302.4366644209186
 20
25.06961533661454
 10
302.4366644209186
 20
25.06961533661454
 10
302.4366644209186
 20
28.31834037920514
 10
302.4366644209186
 20
28.31834037920514
 10
302.4366644209186
 20
28.45683321771218
 10
302.3243543080995
 20
28.56776529233723
 10
302.1872395077866
 20
28.56776529233723
 10
302.1872395077866
 20
28.56776529233723
 10
298.9378254460989
 20
28.56776529233723
 10
298.9378254460989
 20
28.56776529233723
 10
298.8000216266889
 20
28.56776529233723
 10
298.6890895520639
 20
28.45683321771218
 10
298.6890895520639
 20
28.31834037920514
 10
298.6890895520639
 20
28.31834037920514
 10
298.6890895520639
 20
25.06961533661454
 10
298.6890895520639
 20
25.06961533661454
 10
298.6890895520639
 20
24.9325005363016
 10
298.8000216266889
 20
24.82019042348245
 10
298.9378254460989
 20
24.82019042348245
 10
298.9378254460989
 20
24.82019042348245
 10
302.1872395077866
 20
24.82019042348245
 10
302.1872395077866
 20
24.82019042348245
 97
        0
 75
     2
 76
     1
 98
        0
  0
SPLINE
  5
182
330
1F
100
AcDbEntity
  8
\U+30EC\U+30A4\U+30E4\U+30FC 1
370
     0
100
AcDbSpline
210
0.0
220
0.0
230
1.0
 70
    11
 71
     3
 72
    29
 73
    25
 74
     0
 42
0.0000000001
 43
0.0000000001
 40
0.0
 40
0.0
 40
0.0
 40
0.0
 40
1.0
 40
1.0
 40
1.0
 40
2.0
 40
2.0
 40
2.0
 40
3.0
 40
3.0
 40
3.0
 40
4.0
 40
4.0
 40
4.0
 40
5.0
 40
5.0
 40
5.0
 40
6.0
 40
6.0
 40
6.0
 40
7.0
 40
7.0
 40
7.0
 40
8.0
 40
8.0
 40
8.0
 40
8.0
 10
294.6879556554947
 20
17.32090657119061
 30
0.0
 10
294.8257594749047
 20
17.32090657119061
 30
0.0
 10
294.9366915495297
 20
17.43287217446123
 30
0.0
 10
294.9366915495297
 20
17.57102050341975
 30
0.0
 10
294.9366915495297
 20
17.57102050341975
 30
0.0
 10
294.9366915495297
 20
20.81940103646182
 30
0.0
 10
294.9366915495297
 20
20.81940103646182
 30
0.0
 10
294.9366915495297
 20
20.95651583677476
 30
0.0
 10
294.8257594749047
 20
21.06848144004538
 30
0.0
 10
294.6879556554947
 20
21.06848144004538
 30
0.0
 10
294.6879556554947
 20
21.06848144004538
 30
0.0
 10
291.4392306129041
 20
21.06848144004538
 30
0.0
 10
291.4392306129041
 20
21.06848144004538
 30
0.0
 10
291.3000487553
 20
21.06848144004538
 30
0.0
 10
291.1891166806749
 20
20.95651583677476
 30
0.0
 10
291.1891166806749
 20
20.81940103646182
 30
0.0
 10
291.1891166806749
 20
20.81940103646182
 30
0.0
 10
291.1891166806749
 20
17.57102050341975
 30
0.0
 10
291.1891166806749
 20
17.57102050341975
 30
0.0
 10
291.1891166806749
 20
17.43287217446123
 30
0.0
 10
291.3000487553
 20
17.32090657119061
 30
0.0
 10
291.4392306129041
 20
17.32090657119061
 30
0.0
 10
291.4392306129041
 20
17.32090657119061
 30
0.0
 10
294.6879556554947
 20
17.32090657119061
 30
0.0
 10
294.6879556554947
 20
17.32090657119061
 30
0.0
  0
HATCH
  5
183
330
1F
100
AcDbEntity
  8
\U+30EC\U+30A4\U+30E4\U+30FC 1
 62
     7
420
 16777215
100
AcDbHatch
 10
0.0
 20
0.0
 30
0.0
210
0.0
220
0.0
230
1.0
  2
SOLID
 70
     1
 71
     0
 91
        1
 92
        1
 93
        1
 72
     4
 94
        3
 73
     0
 74
     1
 95
       29
 96
       25
 40
0.0
 40
0.0
 40
0.0
 40
0.0
 40
1.0
 40
1.0
 40
1.0
 40
2.0
 40
2.0
 40
2.0
 40
3.0
 40
3.0
 40
3.0
 40
4.0
 40
4.0
 40
4.0
 40
5.0
 40
5.0
 40
5.0
 40
6.0
 40
6.0
 40
6.0
 40
7.0
 40
7.0
 40
7.0
 40
8.0
 40
8.0
 40
8.0
 40
8.0
 10
294.6879556554947
 20
17.32090657119061
 10
294.8257594749047
 20
17.32090657119061
 10
294.9366915495297
 20
17.43287217446123
 10
294.9366915495297
 20
17.57102050341975
 10
294.9366915495297
 20
17.57102050341975
 10
294.9366915495297
 20
20.81940103646182
 10
294.9366915495297
 20
20.81940103646182
 10
294.9366915495297
 20
20.95651583677476
 10
294.8257594749047
 20
21.06848144004538
 10
294.6879556554947
 20
21.06848144004538
 10
294.6879556554947
 20
21.06848144004538
 10
291.4392306129041
 20
21.06848144004538
 10
291.4392306129041
 20
21.06848144004538
 10
291.3000487553
 20
21.06848144004538
 10
291.1891166806749
 20
20.95651583677476
 10
291.1891166806749
 20
20.81940103646182
 10
291.1891166806749
 20
20.81940103646182
 10
291.1891166806749
 20
17.57102050341975
 10
291.1891166806749
 20
17.57102050341975
 10
291.1891166806749
 20
17.43287217446123
 10
291.3000487553
 20
17.32090657119061
 10
291.4392306129041
 20
17.32090657119061
 10
291.4392306129041
 20
17.32090657119061
 10
294.6879556554947
 20
17.32090657119061
 10
294.6879556554947
 20
17.32090657119061
 97
        0
 75
     2
 76
     1
 98
        0
  0
MTEXT
  5
184
330
1F
100
AcDbEntity
  8
\U+30EC\U+30A4\U+30E4\U+30FC 1
 62
     7
420
 16777215
100
AcDbMText
 10
347.5226290363833
 20
23.02942979024959
 30
0.0
 40
2.604209742848704
 41
0.0
 71
     7
 72
     1
  1
\fHGPGothicE|b0|i0|c0|p34;\W1;和
 73
     1
 44
1.0
  0
MTEXT
  5
185
330
1F
100
AcDbEntity
  8
\U+30EC\U+30A4\U+30E4\U+30FC 1
 62
     7
420
 16777215
100
AcDbMText
 10
351.352197177787
 20
23.02942979024959
 30
0.0
 40
2.604209742848704
 41
0.0
 71
     7
 72
     1
  1
\fHGPGothicE|b0|i0|c0|p34;\W1;歌
 73
     1
 44
1.0
  0
MTEXT
  5
186
330
1F
100
AcDbEntity
  8
\U+30EC\U+30A4\U+30E4\U+30FC 1
 62
     7
420
 16777215
100
AcDbMText
 10
355.1821098287392
 20
23.02942979024959
 30
0.0
 40
2.604209742848704
 41
0.0
 71
     7
 72
     1
  1
\fHGPGothicE|b0|i0|c0|p34;\W1;山
 73
     1
 44
1.0
  0
MTEXT
  5
187
330
1F
100
AcDbEntity
  8
\U+30EC\U+30A4\U+30E4\U+30FC 1
 62
     7
420
 16777215
100
AcDbMText
 10
359.011677970143
 20
23.02942979024959
 30
0.0
 40
2.604209742848704
 41
0.0
 71
     7
 72
     1
  1
\fHGPGothicE|b0|i0|c0|p34;\W1;県
 73
     1
 44
1.0
  0
MTEXT
  5
188
330
1F
100
AcDbEntity
  8
\U+30EC\U+30A4\U+30E4\U+30FC 1
 62
     7
420
 16777215
100
AcDbMText
 10
362.8415906210952
 20
23.02942979024959
 30
0.0
 40
2.604209742848704
 41
0.0
 71
     7
 72
     1
  1
\fHGPGothicE|b0|i0|c0|p34;\W1;海
 73
     1
 44
1.0
  0
MTEXT
  5
189
330
1F
100
AcDbEntity
  8
\U+30EC\U+30A4\U+30E4\U+30FC 1
 62
     7
420
 16777215
100
AcDbMText
 10
366.6711587624989
 20
23.02942979024959
 30
0.0
 40
2.604209742848704
 41
0.0
 71
     7
 72
     1
  1
\fHGPGothicE|b0|i0|c0|p34;\W1;南
 73
     1
 44
1.0
  0
MTEXT
  5
18A
330
1F
100
AcDbEntity
  8
\U+30EC\U+30A4\U+30E4\U+30FC 1
 62
     7
420
 16777215
100
AcDbMText
 10
370.5010714134511
 20
23.02942979024959
 30
0.0
 40
2.604209742848704
 41
0.0
 71
     7
 72
     1
  1
\fHGPGothicE|b0|i0|c0|p34;\W1;市
 73
     1
 44
1.0
  0
MTEXT
  5
18B
330
1F
100
AcDbEntity
  8
\U+30EC\U+30A4\U+30E4\U+30FC 1
 62
     7
420
 16777215
100
AcDbMText
 10
374.3306395548549
 20
23.02942979024959
 30
0.0
 40
2.604209742848704
 41
0.0
 71
     7
 72
     1
  1
\fHGPGothicE|b0|i0|c0|p34;\W1;南
 73
     1
 44
1.0
  0
MTEXT
  5
18C
330
1F
100
AcDbEntity
  8
\U+30EC\U+30A4\U+30E4\U+30FC 1
 62
     7
420
 16777215
100
AcDbMText
 10
378.1605522058071
 20
23.02942979024959
 30
0.0
 40
2.604209742848704
 41
0.0
 71
     7
 72
     1
  1
\fHGPGothicE|b0|i0|c0|p34;\W1;赤
 73
     1
 44
1.0
  0
MTEXT
  5
18D
330
1F
100
AcDbEntity
  8
\U+30EC\U+30A4\U+30E4\U+30FC 1
 62
     7
420
 16777215
100
AcDbMText
 10
381.9901203472108
 20
23.02942979024959
 30
0.0
 40
2.604209742848704
 41
0.0
 71
     7
 72
     1
  1
\fHGPGothicE|b0|i0|c0|p34;\W1;坂
 73
     1
 44
1.0
  0
MTEXT
  5
18E
330
1F
100
AcDbEntity
  8
\U+30EC\U+30A4\U+30E4\U+30FC 1
 62
     7
420
 16777215
100
AcDbMText
 10
385.8200329981631
 20
23.02942979024959
 30
0.0
 40
2.604209742848704
 41
0.0
 71
     7
 72
     1
  1
\fHGPGothicE|b0|i0|c0|p34;\W1;２
 73
     1
 44
1.0
  0
MTEXT
  5
18F
330
1F
100
AcDbEntity
  8
\U+30EC\U+30A4\U+30E4\U+30FC 1
 62
     7
420
 16777215
100
AcDbMText
 10
388.288099403796
 20
23.02942979024959
 30
0.0
 40
2.604209742848704
 41
0.0
 71
     7
 72
     1
  1
\fHGPGothicE|b0|i0|c0|p34;\W1;０
 73
     1
 44
1.0
  0
MTEXT
  5
190
330
1F
100
AcDbEntity
  8
\U+30EC\U+30A4\U+30E4\U+30FC 1
 62
     7
420
 16777215
100
AcDbMText
 10
390.7565103189776
 20
23.02942979024959
 30
0.0
 40
2.604209742848704
 41
0.0
 71
     7
 72
     1
  1
\fHGPGothicE|b0|i0|c0|p34;\W1;-
 73
     1
 44
1.0
  0
MTEXT
  5
191
330
1F
100
AcDbEntity
  8
\U+30EC\U+30A4\U+30E4\U+30FC 1
 62
     7
420
 16777215
100
AcDbMText
 10
392.0280950625832
 20
23.02942979024959
 30
0.0
 40
2.604209742848704
 41
0.0
 71
     7
 72
     1
  1
\fHGPGothicE|b0|i0|c0|p34;\W1;１
 73
     1
 44
1.0
  0
MTEXT
  5
192
330
1F
100
AcDbEntity
  8
\U+30EC\U+30A4\U+30E4\U+30FC 1
 62
     7
420
 16777215
100
AcDbMText
 10
347.5226290363833
 20
18.49396158391818
 30
0.0
 40
2.604209742848704
 41
0.0
 71
     7
 72
     1
  1
\fHGPGothicE|b0|i0|c0|p34;\W1;Ｔ
 73
     1
 44
1.0
  0
MTEXT
  5
193
330
1F
100
AcDbEntity
  8
\U+30EC\U+30A4\U+30E4\U+30FC 1
 62
     7
420
 16777215
100
AcDbMText
 10
350.2607909280598
 20
18.49396158391818
 30
0.0
 40
2.604209742848704
 41
0.0
 71
     7
 72
     1
  1
\fHGPGothicE|b0|i0|c0|p34;\W1;Ｅ
 73
     1
 44
1.0
  0
MTEXT
  5
194
330
1F
100
AcDbEntity
  8
\U+30EC\U+30A4\U+30E4\U+30FC 1
 62
     7
420
 16777215
100
AcDbMText
 10
353.0296141695551
 20
18.49396158391818
 30
0.0
 40
2.604209742848704
 41
0.0
 71
     7
 72
     1
  1
\fHGPGothicE|b0|i0|c0|p34;\W1;Ｌ
 73
     1
 44
1.0
  0
MTEXT
  5
195
330
1F
100
AcDbEntity
  8
\U+30EC\U+30A4\U+30E4\U+30FC 1
 62
     7
420
 16777215
100
AcDbMText
 10
355.634106356404
 20
18.49396158391818
 30
0.0
 40
2.604209742848704
 41
0.0
 71
     7
 72
     1
  1
\fHGPGothicE|b0|i0|c0|p34;\W1;.
 73
     1
 44
1.0
  0
MTEXT
  5
196
330
1F
100
AcDbEntity
  8
\U+30EC\U+30A4\U+30E4\U+30FC 1
 62
     7
420
 16777215
100
AcDbMText
 10
356.4881455271974
 20
18.49396158391818
 30
0.0
 40
2.604209742848704
 41
0.0
 71
     7
 72
     1
  1
\fHGPGothicE|b0|i0|c0|p34;\W1; 
 73
     1
 44
1.0
  0
MTEXT
  5
197
330
1F
100
AcDbEntity
  8
\U+30EC\U+30A4\U+30E4\U+30FC 1
 62
     7
420
 16777215
100
AcDbMText
 10
357.7593857612546
 20
18.49396158391818
 30
0.0
 40
2.604209742848704
 41
0.0
 71
     7
 72
     1
  1
\fHGPGothicE|b0|i0|c0|p34;\W1; 
 73
     1
 44
1.0
  0
MTEXT
  5
198
330
1F
100
AcDbEntity
  8
\U+30EC\U+30A4\U+30E4\U+30FC 1
 62
     7
420
 16777215
100
AcDbMText
 10
347.5226290363833
 20
13.95883788713529
 30
0.0
 40
2.604209742848704
 41
0.0
 71
     7
 72
     1
  1
\fHGPGothicE|b0|i0|c0|p34;\W1;Ｆ
 73
     1
 44
1.0
  0
MTEXT
  5
199
330
1F
100
AcDbEntity
  8
\U+30EC\U+30A4\U+30E4\U+30FC 1
 62
     7
420
 16777215
100
AcDbMText
 10
350.0809569437298
 20
13.95883788713529
 30
0.0
 40
2.604209742848704
 41
0.0
 71
     7
 72
     1
  1
\fHGPGothicE|b0|i0|c0|p34;\W1;Ａ
 73
     1
 44
1.0
  0
MTEXT
  5
19A
330
1F
100
AcDbEntity
  8
\U+30EC\U+30A4\U+30E4\U+30FC 1
 62
     7
420
 16777215
100
AcDbMText
 10
353.3858370427299
 20
13.95883788713529
 30
0.0
 40
2.604209742848704
 41
0.0
 71
     7
 72
     1
  1
\fHGPGothicE|b0|i0|c0|p34;\W1;Ｘ
 73
     1
 44
1.0
  0
MTEXT
  5
19B
330
1F
100
AcDbEntity
  8
\U+30EC\U+30A4\U+30E4\U+30FC 1
 62
     7
420
 16777215
100
AcDbMText
 10
356.5415445072188
 20
13.95883788713529
 30
0.0
 40
2.604209742848704
 41
0.0
 71
     7
 72
     1
  1
\fHGPGothicE|b0|i0|c0|p34;\W1;.
 73
     1
 44
1.0
  0
MTEXT
  5
19C
330
1F
100
AcDbEntity
  8
\U+30EC\U+30A4\U+30E4\U+30FC 1
 62
     7
420
 16777215
100
AcDbMText
 10
357.3955836780123
 20
13.95883788713529
 30
0.0
 40
2.604209742848704
 41
0.0
 71
     7
 72
     1
  1
\fHGPGothicE|b0|i0|c0|p34;\W1; 
 73
     1
 44
1.0
  0
MTEXT
  5
19D
330
1F
100
AcDbEntity
  8
\U+30EC\U+30A4\U+30E4\U+30FC 1
 62
     7
420
 16777215
100
AcDbMText
 10
361.0942381909765
 20
18.02026095469633
 30
0.0
 40
2.604209742848704
 41
0.0
 71
     7
 72
     1
  1
\fHGPGothicE|b0|i0|c0|p34;\W1;０
 73
     1
 44
1.0
  0
MTEXT
  5
19E
330
1F
100
AcDbEntity
  8
\U+30EC\U+30A4\U+30E4\U+30FC 1
 62
     7
420
 16777215
100
AcDbMText
 10
363.673581180783
 20
18.02026095469633
 30
0.0
 40
2.604209742848704
 41
0.0
 71
     7
 72
     1
  1
\fHGPGothicE|b0|i0|c0|p34;\W1;７
 73
     1
 44
1.0
  0
MTEXT
  5
19F
330
1F
100
AcDbEntity
  8
\U+30EC\U+30A4\U+30E4\U+30FC 1
 62
     7
420
 16777215
100
AcDbMText
 10
366.2546467183322
 20
18.02026095469633
 30
0.0
 40
2.604209742848704
 41
0.0
 71
     7
 72
     1
  1
\fHGPGothicE|b0|i0|c0|p34;\W1;３
 73
     1
 44
1.0
  0
MTEXT
  5
1A0
330
1F
100
AcDbEntity
  8
\U+30EC\U+30A4\U+30E4\U+30FC 1
 62
     7
420
 16777215
100
AcDbMText
 10
368.8326116699446
 20
18.02026095469633
 30
0.0
 40
2.604209742848704
 41
0.0
 71
     7
 72
     1
  1
\fHGPGothicE|b0|i0|c0|p34;\W1;-
 73
     1
 44
1.0
  0
MTEXT
  5
1A1
330
1F
100
AcDbEntity
  8
\U+30EC\U+30A4\U+30E4\U+30FC 1
 62
     7
420
 16777215
100
AcDbMText
 10
370.2151284881754
 20
18.02026095469633
 30
0.0
 40
2.604209742848704
 41
0.0
 71
     7
 72
     1
  1
\fHGPGothicE|b0|i0|c0|p34;\W1;４
 73
     1
 44
1.0
  0
MTEXT
  5
1A2
330
1F
100
AcDbEntity
  8
\U+30EC\U+30A4\U+30E4\U+30FC 1
 62
     7
420
 16777215
100
AcDbMText
 10
372.794471477982
 20
18.02026095469633
 30
0.0
 40
2.604209742848704
 41
0.0
 71
     7
 72
     1
  1
\fHGPGothicE|b0|i0|c0|p34;\W1;８
 73
     1
 44
1.0
  0
MTEXT
  5
1A3
330
1F
100
AcDbEntity
  8
\U+30EC\U+30A4\U+30E4\U+30FC 1
 62
     7
420
 16777215
100
AcDbMText
 10
375.3758815250796
 20
18.02026095469633
 30
0.0
 40
2.604209742848704
 41
0.0
 71
     7
 72
     1
  1
\fHGPGothicE|b0|i0|c0|p34;\W1;２
 73
     1
 44
1.0
  0
MTEXT
  5
1A4
330
1F
100
AcDbEntity
  8
\U+30EC\U+30A4\U+30E4\U+30FC 1
 62
     7
420
 16777215
100
AcDbMText
 10
377.9535019671436
 20
18.02026095469633
 30
0.0
 40
2.604209742848704
 41
0.0
 71
     7
 72
     1
  1
\fHGPGothicE|b0|i0|c0|p34;\W1;-
 73
     1
 44
1.0
  0
MTEXT
  5
1A5
330
1F
100
AcDbEntity
  8
\U+30EC\U+30A4\U+30E4\U+30FC 1
 62
     7
420
 16777215
100
AcDbMText
 10
379.3360187853743
 20
18.02026095469633
 30
0.0
 40
2.604209742848704
 41
0.0
 71
     7
 72
     1
  1
\fHGPGothicE|b0|i0|c0|p34;\W1;４
 73
     1
 44
1.0
  0
MTEXT
  5
1A6
330
1F
100
AcDbEntity
  8
\U+30EC\U+30A4\U+30E4\U+30FC 1
 62
     7
420
 16777215
100
AcDbMText
 10
381.9174288324721
 20
18.02026095469633
 30
0.0
 40
2.604209742848704
 41
0.0
 71
     7
 72
     1
  1
\fHGPGothicE|b0|i0|c0|p34;\W1;１
 73
     1
 44
1.0
  0
MTEXT
  5
1A7
330
1F
100
AcDbEntity
  8
\U+30EC\U+30A4\U+30E4\U+30FC 1
 62
     7
420
 16777215
100
AcDbMText
 10
384.495049274536
 20
18.02026095469633
 30
0.0
 40
2.604209742848704
 41
0.0
 71
     7
 72
     1
  1
\fHGPGothicE|b0|i0|c0|p34;\W1;２
 73
     1
 44
1.0
  0
MTEXT
  5
1A8
330
1F
100
AcDbEntity
  8
\U+30EC\U+30A4\U+30E4\U+30FC 1
 62
     7
420
 16777215
100
AcDbMText
 10
387.0743922643425
 20
18.02026095469633
 30
0.0
 40
2.604209742848704
 41
0.0
 71
     7
 72
     1
  1
\fHGPGothicE|b0|i0|c0|p34;\W1;８
 73
     1
 44
1.0
  0
MTEXT
  5
1A9
330
1F
100
AcDbEntity
  8
\U+30EC\U+30A4\U+30E4\U+30FC 1
 62
     7
420
 16777215
100
AcDbMText
 10
389.6537352541491
 20
18.02026095469633
 30
0.0
 40
2.604209742848704
 41
0.0
 71
     7
 72
     1
  1
\fHGPGothicE|b0|i0|c0|p34;\W1;（
 73
     1
 44
1.0
  0
MTEXT
  5
1AA
330
1F
100
AcDbEntity
  8
\U+30EC\U+30A4\U+30E4\U+30FC 1
 62
     7
420
 16777215
100
AcDbMText
 10
391.6797959090245
 20
18.02026095469633
 30
0.0
 40
2.604209742848704
 41
0.0
 71
     7
 72
     1
  1
\fHGPGothicE|b0|i0|c0|p34;\W1;代
 73
     1
 44
1.0
  0
MTEXT
  5
1AB
330
1F
100
AcDbEntity
  8
\U+30EC\U+30A4\U+30E4\U+30FC 1
 62
     7
420
 16777215
100
AcDbMText
 10
395.6206406346018
 20
18.02026095469633
 30
0.0
 40
2.604209742848704
 41
0.0
 71
     7
 72
     1
  1
\fHGPGothicE|b0|i0|c0|p34;\W1;）
 73
     1
 44
1.0
  0
MTEXT
  5
1AC
330
1F
100
AcDbEntity
  8
\U+30EC\U+30A4\U+30E4\U+30FC 1
 62
     7
420
 16777215
100
AcDbMText
 10
361.0942381909765
 20
13.48513725791344
 30
0.0
 40
2.604209742848704
 41
0.0
 71
     7
 72
     1
  1
\fHGPGothicE|b0|i0|c0|p34;\W1;０
 73
     1
 44
1.0
  0
MTEXT
  5
1AD
330
1F
100
AcDbEntity
  8
\U+30EC\U+30A4\U+30E4\U+30FC 1
 62
     7
420
 16777215
100
AcDbMText
 10
363.673581180783
 20
13.48513725791344
 30
0.0
 40
2.604209742848704
 41
0.0
 71
     7
 72
     1
  1
\fHGPGothicE|b0|i0|c0|p34;\W1;７
 73
     1
 44
1.0
  0
MTEXT
  5
1AE
330
1F
100
AcDbEntity
  8
\U+30EC\U+30A4\U+30E4\U+30FC 1
 62
     7
420
 16777215
100
AcDbMText
 10
366.2546467183322
 20
13.48513725791344
 30
0.0
 40
2.604209742848704
 41
0.0
 71
     7
 72
     1
  1
\fHGPGothicE|b0|i0|c0|p34;\W1;３
 73
     1
 44
1.0
  0
MTEXT
  5
1AF
330
1F
100
AcDbEntity
  8
\U+30EC\U+30A4\U+30E4\U+30FC 1
 62
     7
420
 16777215
100
AcDbMText
 10
368.8326116699446
 20
13.48513725791344
 30
0.0
 40
2.604209742848704
 41
0.0
 71
     7
 72
     1
  1
\fHGPGothicE|b0|i0|c0|p34;\W1;-
 73
     1
 44
1.0
  0
MTEXT
  5
1B0
330
1F
100
AcDbEntity
  8
\U+30EC\U+30A4\U+30E4\U+30FC 1
 62
     7
420
 16777215
100
AcDbMText
 10
370.2151284881754
 20
13.48513725791344
 30
0.0
 40
2.604209742848704
 41
0.0
 71
     7
 72
     1
  1
\fHGPGothicE|b0|i0|c0|p34;\W1;４
 73
     1
 44
1.0
  0
MTEXT
  5
1B1
330
1F
100
AcDbEntity
  8
\U+30EC\U+30A4\U+30E4\U+30FC 1
 62
     7
420
 16777215
100
AcDbMText
 10
372.794471477982
 20
13.48513725791344
 30
0.0
 40
2.604209742848704
 41
0.0
 71
     7
 72
     1
  1
\fHGPGothicE|b0|i0|c0|p34;\W1;８
 73
     1
 44
1.0
  0
MTEXT
  5
1B2
330
1F
100
AcDbEntity
  8
\U+30EC\U+30A4\U+30E4\U+30FC 1
 62
     7
420
 16777215
100
AcDbMText
 10
375.3758815250796
 20
13.48513725791344
 30
0.0
 40
2.604209742848704
 41
0.0
 71
     7
 72
     1
  1
\fHGPGothicE|b0|i0|c0|p34;\W1;６
 73
     1
 44
1.0
  0
MTEXT
  5
1B3
330
1F
100
AcDbEntity
  8
\U+30EC\U+30A4\U+30E4\U+30FC 1
 62
     7
420
 16777215
100
AcDbMText
 10
377.9535019671436
 20
13.48513725791344
 30
0.0
 40
2.604209742848704
 41
0.0
 71
     7
 72
     1
  1
\fHGPGothicE|b0|i0|c0|p34;\W1;-
 73
     1
 44
1.0
  0
MTEXT
  5
1B4
330
1F
100
AcDbEntity
  8
\U+30EC\U+30A4\U+30E4\U+30FC 1
 62
     7
420
 16777215
100
AcDbMText
 10
379.3360187853743
 20
13.48513725791344
 30
0.0
 40
2.604209742848704
 41
0.0
 71
     7
 72
     1
  1
\fHGPGothicE|b0|i0|c0|p34;\W1;２
 73
     1
 44
1.0
  0
MTEXT
  5
1B5
330
1F
100
AcDbEntity
  8
\U+30EC\U+30A4\U+30E4\U+30FC 1
 62
     7
420
 16777215
100
AcDbMText
 10
381.9174288324721
 20
13.48513725791344
 30
0.0
 40
2.604209742848704
 41
0.0
 71
     7
 72
     1
  1
\fHGPGothicE|b0|i0|c0|p34;\W1;５
 73
     1
 44
1.0
  0
MTEXT
  5
1B6
330
1F
100
AcDbEntity
  8
\U+30EC\U+30A4\U+30E4\U+30FC 1
 62
     7
420
 16777215
100
AcDbMText
 10
384.495049274536
 20
13.48513725791344
 30
0.0
 40
2.604209742848704
 41
0.0
 71
     7
 72
     1
  1
\fHGPGothicE|b0|i0|c0|p34;\W1;６
 73
     1
 44
1.0
  0
MTEXT
  5
1B7
330
1F
100
AcDbEntity
  8
\U+30EC\U+30A4\U+30E4\U+30FC 1
 62
     7
420
 16777215
100
AcDbMText
 10
387.0743922643425
 20
13.48513725791344
 30
0.0
 40
2.604209742848704
 41
0.0
 71
     7
 72
     1
  1
\fHGPGothicE|b0|i0|c0|p34;\W1;０
 73
     1
 44
1.0
  0
MTEXT
  5
1B8
330
1F
100
AcDbEntity
  8
\U+30EC\U+30A4\U+30E4\U+30FC 1
 62
     7
420
 16777215
100
AcDbMText
 10
389.6537352541491
 20
13.48513725791344
 30
0.0
 40
2.604209742848704
 41
0.0
 71
     7
 72
     1
  1
\fHGPGothicE|b0|i0|c0|p34;\W1;（
 73
     1
 44
1.0
  0
MTEXT
  5
1B9
330
1F
100
AcDbEntity
  8
\U+30EC\U+30A4\U+30E4\U+30FC 1
 62
     7
420
 16777215
100
AcDbMText
 10
391.6797959090245
 20
13.48513725791344
 30
0.0
 40
2.604209742848704
 41
0.0
 71
     7
 72
     1
  1
\fHGPGothicE|b0|i0|c0|p34;\W1;代
 73
     1
 44
1.0
  0
MTEXT
  5
1BA
330
1F
100
AcDbEntity
  8
\U+30EC\U+30A4\U+30E4\U+30FC 1
 62
     7
420
 16777215
100
AcDbMText
 10
395.6206406346018
 20
13.48513725791344
 30
0.0
 40
2.604209742848704
 41
0.0
 71
     7
 72
     1
  1
\fHGPGothicE|b0|i0|c0|p34;\W1;）
 73
     1
 44
1.0
  0
SPLINE
  5
1BB
330
1F
100
AcDbEntity
  8
\U+30EC\U+30A4\U+30E4\U+30FC 1
370
     0
100
AcDbSpline
210
0.0
220
0.0
230
1.0
 70
    11
 71
     3
 72
    17
 73
    13
 74
     0
 42
0.0000000001
 43
0.0000000001
 40
0.0
 40
0.0
 40
0.0
 40
0.0
 40
1.0
 40
1.0
 40
1.0
 40
2.0
 40
2.0
 40
2.0
 40
3.0
 40
3.0
 40
3.0
 40
4.0
 40
4.0
 40
4.0
 40
4.0
 10
350.2525226988952
 20
30.6840874489262
 30
0.0
 10
350.3420951815117
 20
30.81431205826864
 30
0.0
 10
350.4488931415544
 20
31.00448132905444
 30
0.0
 10
350.5501789488208
 20
31.24770507031307
 30
0.0
 10
350.5501789488208
 20
31.24770507031307
 30
0.0
 10
351.1131075511106
 20
31.24770507031307
 30
0.0
 10
351.1131075511106
 20
31.24770507031307
 30
0.0
 10
351.1131075511106
 20
31.24770507031307
 30
0.0
 10
351.1131075511106
 20
30.6840874489262
 30
0.0
 10
351.1131075511106
 20
30.6840874489262
 30
0.0
 10
351.1131075511106
 20
30.6840874489262
 30
0.0
 10
350.2525226988952
 20
30.6840874489262
 30
0.0
 10
350.2525226988952
 20
30.6840874489262
 30
0.0
  0
SPLINE
  5
1BC
330
1F
100
AcDbEntity
  8
\U+30EC\U+30A4\U+30E4\U+30FC 1
370
     0
100
AcDbSpline
210
0.0
220
0.0
230
1.0
 70
    11
 71
     3
 72
   128
 73
   124
 74
     0
 42
0.0000000001
 43
0.0000000001
 40
0.0
 40
0.0
 40
0.0
 40
0.0
 40
1.0
 40
1.0
 40
1.0
 40
2.0
 40
2.0
 40
2.0
 40
3.0
 40
3.0
 40
3.0
 40
4.0
 40
4.0
 40
4.0
 40
5.0
 40
5.0
 40
5.0
 40
6.0
 40
6.0
 40
6.0
 40
7.0
 40
7.0
 40
7.0
 40
8.0
 40
8.0
 40
8.0
 40
9.0
 40
9.0
 40
9.0
 40
10.0
 40
10.0
 40
10.0
 40
11.0
 40
11.0
 40
11.0
 40
12.0
 40
12.0
 40
12.0
 40
13.0
 40
13.0
 40
13.0
 40
14.0
 40
14.0
 40
14.0
 40
15.0
 40
15.0
 40
15.0
 40
16.0
 40
16.0
 40
16.0
 40
17.0
 40
17.0
 40
17.0
 40
18.0
 40
18.0
 40
18.0
 40
19.0
 40
19.0
 40
19.0
 40
20.0
 40
20.0
 40
20.0
 40
21.0
 40
21.0
 40
21.0
 40
22.0
 40
22.0
 40
22.0
 40
23.0
 40
23.0
 40
23.0
 40
24.0
 40
24.0
 40
24.0
 40
25.0
 40
25.0
 40
25.0
 40
26.0
 40
26.0
 40
26.0
 40
27.0
 40
27.0
 40
27.0
 40
28.0
 40
28.0
 40
28.0
 40
29.0
 40
29.0
 40
29.0
 40
30.0
 40
30.0
 40
30.0
 40
31.0
 40
31.0
 40
31.0
 40
32.0
 40
32.0
 40
32.0
 40
33.0
 40
33.0
 40
33.0
 40
34.0
 40
34.0
 40
34.0
 40
35.0
 40
35.0
 40
35.0
 40
36.0
 40
36.0
 40
36.0
 40
37.0
 40
37.0
 40
37.0
 40
38.0
 40
38.0
 40
38.0
 40
39.0
 40
39.0
 40
39.0
 40
40.0
 40
40.0
 40
40.0
 40
41.0
 40
41.0
 40
41.0
 40
41.0
 10
350.8044269956322
 20
32.09037542600519
 30
0.0
 10
350.8650606761726
 20
32.35771483566057
 30
0.0
 10
350.8939994782488
 20
32.50516492242927
 30
0.0
 10
350.9236272994219
 20
32.65468206648911
 30
0.0
 10
350.9236272994219
 20
32.65468206648911
 30
0.0
 10
350.1222980895528
 20
32.72565103348526
 30
0.0
 10
350.1222980895528
 20
32.72565103348526
 30
0.0
 10
350.0396157979068
 20
32.11380207530488
 30
0.0
 10
349.8549586798974
 20
31.70452473165721
 30
0.0
 10
349.7426485670782
 20
31.49023979247466
 30
0.0
 10
349.7426485670782
 20
31.49023979247466
 30
0.0
 10
349.7426485670782
 20
31.8588650093964
 30
0.0
 10
349.7426485670782
 20
31.8588650093964
 30
0.0
 10
349.7426485670782
 20
31.8588650093964
 30
0.0
 10
349.1783419265943
 20
31.8588650093964
 30
0.0
 10
349.1783419265943
 20
31.8588650093964
 30
0.0
 10
349.1783419265943
 20
31.8588650093964
 30
0.0
 10
349.1783419265943
 20
32.8379611463044
 30
0.0
 10
349.1783419265943
 20
32.8379611463044
 30
0.0
 10
349.1783419265943
 20
32.8379611463044
 30
0.0
 10
348.359787239299
 20
32.8379611463044
 30
0.0
 10
348.359787239299
 20
32.8379611463044
 30
0.0
 10
348.359787239299
 20
32.8379611463044
 30
0.0
 10
348.359787239299
 20
31.8588650093964
 30
0.0
 10
348.359787239299
 20
31.8588650093964
 30
0.0
 10
348.359787239299
 20
31.8588650093964
 30
0.0
 10
347.6349391492024
 20
31.8588650093964
 30
0.0
 10
347.6349391492024
 20
31.8588650093964
 30
0.0
 10
347.6349391492024
 20
31.8588650093964
 30
0.0
 10
347.6349391492024
 20
31.03962130300399
 30
0.0
 10
347.6349391492024
 20
31.03962130300399
 30
0.0
 10
347.6349391492024
 20
31.03962130300399
 30
0.0
 10
348.2943304250792
 20
31.03962130300399
 30
0.0
 10
348.2943304250792
 20
31.03962130300399
 30
0.0
 10
348.0269910154238
 20
30.10806748379243
 30
0.0
 10
347.7658527776419
 20
29.71670463666805
 30
0.0
 10
347.5226290363833
 20
29.41353623396606
 30
0.0
 10
347.5226290363833
 20
29.41353623396606
 30
0.0
 10
347.8016817706885
 20
28.24495984536932
 30
0.0
 10
347.8016817706885
 20
28.24495984536932
 30
0.0
 10
347.9443087237779
 20
28.45166557448431
 30
0.0
 10
348.1634167966397
 20
28.78997395113584
 30
0.0
 10
348.359787239299
 20
29.46659070443891
 30
0.0
 10
348.359787239299
 20
29.46659070443891
 30
0.0
 10
348.359787239299
 20
27.21694335257077
 30
0.0
 10
348.359787239299
 20
27.21694335257077
 30
0.0
 10
348.359787239299
 20
27.21694335257077
 30
0.0
 10
349.1783419265943
 20
27.21694335257077
 30
0.0
 10
349.1783419265943
 20
27.21694335257077
 30
0.0
 10
349.1783419265943
 20
27.21694335257077
 30
0.0
 10
349.1783419265943
 20
29.6925889682713
 30
0.0
 10
349.1783419265943
 20
29.6925889682713
 30
0.0
 10
349.2375975689406
 20
29.45005424610971
 30
0.0
 10
349.2679144092108
 20
29.32465277044662
 30
0.0
 10
349.5166503032459
 20
28.86163193722904
 30
0.0
 10
349.5166503032459
 20
28.86163193722904
 30
0.0
 10
350.0279024732569
 20
29.53824869053211
 30
0.0
 10
350.0279024732569
 20
29.53824869053211
 30
0.0
 10
349.9383299906405
 20
29.6209309821781
 30
0.0
 10
349.8735621955178
 20
29.6870768154949
 30
0.0
 10
349.7543618917281
 20
29.83452690226359
 30
0.0
 10
349.7543618917281
 20
29.83452690226359
 30
0.0
 10
350.8044269956322
 20
29.83452690226359
 30
0.0
 10
350.8044269956322
 20
29.83452690226359
 30
0.0
 10
350.318668532212
 20
28.94982638165143
 30
0.0
 10
349.7130207459051
 20
28.54054903800375
 30
0.0
 10
349.4691079855494
 20
28.38620876026456
 30
0.0
 10
349.4691079855494
 20
28.38620876026456
 30
0.0
 10
349.9913844611133
 20
27.5497395764459
 30
0.0
 10
349.9913844611133
 20
27.5497395764459
 30
0.0
 10
350.4661186189807
 20
27.98313258849033
 30
0.0
 10
350.8409450077759
 20
28.48749456753091
 30
0.0
 10
351.1131075511106
 20
29.07522785731453
 30
0.0
 10
351.1131075511106
 20
29.07522785731453
 30
0.0
 10
351.1131075511106
 20
27.21694335257077
 30
0.0
 10
351.1131075511106
 20
27.21694335257077
 30
0.0
 10
351.1131075511106
 20
27.21694335257077
 30
0.0
 10
351.9619790786762
 20
27.21694335257077
 30
0.0
 10
351.9619790786762
 20
27.21694335257077
 30
0.0
 10
351.9619790786762
 20
27.21694335257077
 30
0.0
 10
351.9619790786762
 20
28.93949109519568
 30
0.0
 10
351.9619790786762
 20
28.93949109519568
 30
0.0
 10
352.2114039918083
 20
28.41101344775836
 30
0.0
 10
352.5504013875569
 20
27.92318792704698
 30
0.0
 10
353.0134222207744
 20
27.5607638819987
 30
0.0
 10
353.0134222207744
 20
27.5607638819987
 30
0.0
 10
353.3627549029788
 20
28.5646647064005
 30
0.0
 10
353.3627549029788
 20
28.5646647064005
 30
0.0
 10
353.1016166651968
 20
28.7424316334394
 30
0.0
 10
352.6385958319793
 20
29.07522785731453
 30
0.0
 10
352.2058918390319
 20
29.83452690226359
 30
0.0
 10
352.2058918390319
 20
29.83452690226359
 30
0.0
 10
353.2559569429361
 20
29.83452690226359
 30
0.0
 10
353.2559569429361
 20
29.83452690226359
 30
0.0
 10
353.2559569429361
 20
29.83452690226359
 30
0.0
 10
353.2559569429361
 20
30.6840874489262
 30
0.0
 10
353.2559569429361
 20
30.6840874489262
 30
0.0
 10
353.2559569429361
 20
30.6840874489262
 30
0.0
 10
351.9619790786762
 20
30.6840874489262
 30
0.0
 10
351.9619790786762
 20
30.6840874489262
 30
0.0
 10
351.9619790786762
 20
30.6840874489262
 30
0.0
 10
351.9619790786762
 20
31.24770507031307
 30
0.0
 10
351.9619790786762
 20
31.24770507031307
 30
0.0
 10
351.9619790786762
 20
31.24770507031307
 30
0.0
 10
353.1670734794166
 20
31.24770507031307
 30
0.0
 10
353.1670734794166
 20
31.24770507031307
 30
0.0
 10
353.1670734794166
 20
31.24770507031307
 30
0.0
 10
353.1670734794166
 20
32.09037542600519
 30
0.0
 10
353.1670734794166
 20
32.09037542600519
 30
0.0
 10
353.1670734794166
 20
32.09037542600519
 30
0.0
 10
351.9619790786762
 20
32.09037542600519
 30
0.0
 10
351.9619790786762
 20
32.09037542600519
 30
0.0
 10
351.9619790786762
 20
32.09037542600519
 30
0.0
 10
351.9619790786762
 20
32.8379611463044
 30
0.0
 10
351.9619790786762
 20
32.8379611463044
 30
0.0
 10
351.9619790786762
 20
32.8379611463044
 30
0.0
 10
351.1131075511106
 20
32.8379611463044
 30
0.0
 10
351.1131075511106
 20
32.8379611463044
 30
0.0
 10
351.1131075511106
 20
32.8379611463044
 30
0.0
 10
351.1131075511106
 20
32.09037542600519
 30
0.0
 10
351.1131075511106
 20
32.09037542600519
 30
0.0
 10
351.1131075511106
 20
32.09037542600519
 30
0.0
 10
350.8044269956322
 20
32.09037542600519
 30
0.0
 10
350.8044269956322
 20
32.09037542600519
 30
0.0
  0
SPLINE
  5
1BD
330
1F
100
AcDbEntity
  8
\U+30EC\U+30A4\U+30E4\U+30FC 1
370
     0
100
AcDbSpline
210
0.0
220
0.0
230
1.0
 70
    11
 71
     3
 72
    23
 73
    19
 74
     0
 42
0.0000000001
 43
0.0000000001
 40
0.0
 40
0.0
 40
0.0
 40
0.0
 40
1.0
 40
1.0
 40
1.0
 40
2.0
 40
2.0
 40
2.0
 40
3.0
 40
3.0
 40
3.0
 40
4.0
 40
4.0
 40
4.0
 40
5.0
 40
5.0
 40
5.0
 40
6.0
 40
6.0
 40
6.0
 40
6.0
 10
349.7426485670782
 20
30.6840874489262
 30
0.0
 10
349.7426485670782
 20
30.6840874489262
 30
0.0
 10
349.7426485670782
 20
29.85864257066034
 30
0.0
 10
349.7426485670782
 20
29.85864257066034
 30
0.0
 10
349.6420517789089
 20
29.98886718000279
 30
0.0
 10
349.3326822043335
 20
30.39883354274751
 30
0.0
 10
349.1783419265943
 20
30.77848306522205
 30
0.0
 10
349.1783419265943
 20
30.77848306522205
 30
0.0
 10
349.1783419265943
 20
31.03962130300399
 30
0.0
 10
349.1783419265943
 20
31.03962130300399
 30
0.0
 10
349.1783419265943
 20
31.03962130300399
 30
0.0
 10
349.7240450514579
 20
31.03962130300399
 30
0.0
 10
349.7240450514579
 20
31.03962130300399
 30
0.0
 10
349.7240450514579
 20
31.03962130300399
 30
0.0
 10
350.181553731899
 20
30.6840874489262
 30
0.0
 10
350.181553731899
 20
30.6840874489262
 30
0.0
 10
350.181553731899
 20
30.6840874489262
 30
0.0
 10
349.7426485670782
 20
30.6840874489262
 30
0.0
 10
349.7426485670782
 20
30.6840874489262
 30
0.0
  0
HATCH
  5
1BE
330
1F
100
AcDbEntity
  8
\U+30EC\U+30A4\U+30E4\U+30FC 1
 62
     7
420
 16777215
100
AcDbHatch
 10
0.0
 20
0.0
 30
0.0
210
0.0
220
0.0
230
1.0
  2
SOLID
 70
     1
 71
     0
 91
        3
 92
        1
 93
        1
 72
     4
 94
        3
 73
     0
 74
     1
 95
       17
 96
       13
 40
0.0
 40
0.0
 40
0.0
 40
0.0
 40
1.0
 40
1.0
 40
1.0
 40
2.0
 40
2.0
 40
2.0
 40
3.0
 40
3.0
 40
3.0
 40
4.0
 40
4.0
 40
4.0
 40
4.0
 10
350.2525226988952
 20
30.6840874489262
 10
350.3420951815117
 20
30.81431205826864
 10
350.4488931415544
 20
31.00448132905444
 10
350.5501789488208
 20
31.24770507031307
 10
350.5501789488208
 20
31.24770507031307
 10
351.1131075511106
 20
31.24770507031307
 10
351.1131075511106
 20
31.24770507031307
 10
351.1131075511106
 20
31.24770507031307
 10
351.1131075511106
 20
30.6840874489262
 10
351.1131075511106
 20
30.6840874489262
 10
351.1131075511106
 20
30.6840874489262
 10
350.2525226988952
 20
30.6840874489262
 10
350.2525226988952
 20
30.6840874489262
 97
        0
 92
        1
 93
        2
 72
     4
 94
        3
 73
     0
 74
     0
 95
      128
 96
      124
 40
0.0
 40
0.0
 40
0.0
 40
0.0
 40
0.3527777776895833
 40
0.3527777776895833
 40
0.3527777776895833
 40
0.7055555553791667
 40
0.7055555553791667
 40
0.7055555553791667
 40
1.05833333306875
 40
1.05833333306875
 40
1.05833333306875
 40
1.411111110758333
 40
1.411111110758333
 40
1.411111110758333
 40
1.763888888447917
 40
1.763888888447917
 40
1.763888888447917
 40
2.1166666661375
 40
2.1166666661375
 40
2.1166666661375
 40
2.469444443827083
 40
2.469444443827083
 40
2.469444443827083
 40
2.822222221516667
 40
2.822222221516667
 40
2.822222221516667
 40
3.17499999920625
 40
3.17499999920625
 40
3.17499999920625
 40
3.527777776895833
 40
3.527777776895833
 40
3.527777776895833
 40
3.880555554585417
 40
3.880555554585417
 40
3.880555554585417
 40
4.233333332275
 40
4.233333332275
 40
4.233333332275
 40
4.586111109964584
 40
4.586111109964584
 40
4.586111109964584
 40
4.938888887654167
 40
4.938888887654167
 40
4.938888887654167
 40
5.29166666534375
 40
5.29166666534375
 40
5.29166666534375
 40
5.644444443033334
 40
5.644444443033334
 40
5.644444443033334
 40
5.997222220722917
 40
5.997222220722917
 40
5.997222220722917
 40
6.349999998412501
 40
6.349999998412501
 40
6.349999998412501
 40
6.702777776102083
 40
6.702777776102083
 40
6.702777776102083
 40
7.055555553791667
 40
7.055555553791667
 40
7.055555553791667
 40
7.40833333148125
 40
7.40833333148125
 40
7.40833333148125
 40
7.761111109170834
 40
7.761111109170834
 40
7.761111109170834
 40
8.113888886860417
 40
8.113888886860417
 40
8.113888886860417
 40
8.46666666455
 40
8.46666666455
 40
8.46666666455
 40
8.819444442239584
 40
8.819444442239584
 40
8.819444442239584
 40
9.172222219929168
 40
9.172222219929168
 40
9.172222219929168
 40
9.52499999761875
 40
9.52499999761875
 40
9.52499999761875
 40
9.877777775308333
 40
9.877777775308333
 40
9.877777775308333
 40
10.23055555299792
 40
10.23055555299792
 40
10.23055555299792
 40
10.5833333306875
 40
10.5833333306875
 40
10.5833333306875
 40
10.93611110837708
 40
10.93611110837708
 40
10.93611110837708
 40
11.28888888606667
 40
11.28888888606667
 40
11.28888888606667
 40
11.64166666375625
 40
11.64166666375625
 40
11.64166666375625
 40
11.99444444144583
 40
11.99444444144583
 40
11.99444444144583
 40
12.34722221913542
 40
12.34722221913542
 40
12.34722221913542
 40
12.699999996825
 40
12.699999996825
 40
12.699999996825
 40
13.05277777451458
 40
13.05277777451458
 40
13.05277777451458
 40
13.40555555220417
 40
13.40555555220417
 40
13.40555555220417
 40
13.75833332989375
 40
13.75833332989375
 40
13.75833332989375
 40
14.11111110758333
 40
14.11111110758333
 40
14.11111110758333
 40
14.46388888527292
 40
14.46388888527292
 40
14.46388888527292
 40
14.46388888527292
 10
350.8044269956322
 20
32.09037542600519
 10
350.8650606761726
 20
32.35771483566057
 10
350.8939994782488
 20
32.50516492242927
 10
350.9236272994219
 20
32.65468206648911
 10
350.9236272994219
 20
32.65468206648911
 10
350.1222980895528
 20
32.72565103348526
 10
350.1222980895528
 20
32.72565103348526
 10
350.0396157979068
 20
32.11380207530488
 10
349.8549586798974
 20
31.70452473165721
 10
349.7426485670782
 20
31.49023979247466
 10
349.7426485670782
 20
31.49023979247466
 10
349.7426485670782
 20
31.8588650093964
 10
349.7426485670782
 20
31.8588650093964
 10
349.7426485670782
 20
31.8588650093964
 10
349.1783419265943
 20
31.8588650093964
 10
349.1783419265943
 20
31.8588650093964
 10
349.1783419265943
 20
31.8588650093964
 10
349.1783419265943
 20
32.8379611463044
 10
349.1783419265943
 20
32.8379611463044
 10
349.1783419265943
 20
32.8379611463044
 10
348.359787239299
 20
32.8379611463044
 10
348.359787239299
 20
32.8379611463044
 10
348.359787239299
 20
32.8379611463044
 10
348.359787239299
 20
31.8588650093964
 10
348.359787239299
 20
31.8588650093964
 10
348.359787239299
 20
31.8588650093964
 10
347.6349391492024
 20
31.8588650093964
 10
347.6349391492024
 20
31.8588650093964
 10
347.6349391492024
 20
31.8588650093964
 10
347.6349391492024
 20
31.03962130300399
 10
347.6349391492024
 20
31.03962130300399
 10
347.6349391492024
 20
31.03962130300399
 10
348.2943304250792
 20
31.03962130300399
 10
348.2943304250792
 20
31.03962130300399
 10
348.0269910154238
 20
30.10806748379243
 10
347.7658527776419
 20
29.71670463666805
 10
347.5226290363833
 20
29.41353623396606
 10
347.5226290363833
 20
29.41353623396606
 10
347.8016817706885
 20
28.24495984536932
 10
347.8016817706885
 20
28.24495984536932
 10
347.9443087237779
 20
28.45166557448431
 10
348.1634167966397
 20
28.78997395113584
 10
348.359787239299
 20
29.46659070443891
 10
348.359787239299
 20
29.46659070443891
 10
348.359787239299
 20
27.21694335257077
 10
348.359787239299
 20
27.21694335257077
 10
348.359787239299
 20
27.21694335257077
 10
349.1783419265943
 20
27.21694335257077
 10
349.1783419265943
 20
27.21694335257077
 10
349.1783419265943
 20
27.21694335257077
 10
349.1783419265943
 20
29.6925889682713
 10
349.1783419265943
 20
29.6925889682713
 10
349.2375975689406
 20
29.45005424610971
 10
349.2679144092108
 20
29.32465277044662
 10
349.5166503032459
 20
28.86163193722904
 10
349.5166503032459
 20
28.86163193722904
 10
350.0279024732569
 20
29.53824869053211
 10
350.0279024732569
 20
29.53824869053211
 10
349.9383299906405
 20
29.6209309821781
 10
349.8735621955178
 20
29.6870768154949
 10
349.7543618917281
 20
29.83452690226359
 10
349.7543618917281
 20
29.83452690226359
 10
350.8044269956322
 20
29.83452690226359
 10
350.8044269956322
 20
29.83452690226359
 10
350.318668532212
 20
28.94982638165143
 10
349.7130207459051
 20
28.54054903800375
 10
349.4691079855494
 20
28.38620876026456
 10
349.4691079855494
 20
28.38620876026456
 10
349.9913844611133
 20
27.5497395764459
 10
349.9913844611133
 20
27.5497395764459
 10
350.4661186189807
 20
27.98313258849033
 10
350.8409450077759
 20
28.48749456753091
 10
351.1131075511106
 20
29.07522785731453
 10
351.1131075511106
 20
29.07522785731453
 10
351.1131075511106
 20
27.21694335257077
 10
351.1131075511106
 20
27.21694335257077
 10
351.1131075511106
 20
27.21694335257077
 10
351.9619790786762
 20
27.21694335257077
 10
351.9619790786762
 20
27.21694335257077
 10
351.9619790786762
 20
27.21694335257077
 10
351.9619790786762
 20
28.93949109519568
 10
351.9619790786762
 20
28.93949109519568
 10
352.2114039918083
 20
28.41101344775836
 10
352.5504013875569
 20
27.92318792704698
 10
353.0134222207744
 20
27.5607638819987
 10
353.0134222207744
 20
27.5607638819987
 10
353.3627549029788
 20
28.5646647064005
 10
353.3627549029788
 20
28.5646647064005
 10
353.1016166651968
 20
28.7424316334394
 10
352.6385958319793
 20
29.07522785731453
 10
352.2058918390319
 20
29.83452690226359
 10
352.2058918390319
 20
29.83452690226359
 10
353.2559569429361
 20
29.83452690226359
 10
353.2559569429361
 20
29.83452690226359
 10
353.2559569429361
 20
29.83452690226359
 10
353.2559569429361
 20
30.6840874489262
 10
353.2559569429361
 20
30.6840874489262
 10
353.2559569429361
 20
30.6840874489262
 10
351.9619790786762
 20
30.6840874489262
 10
351.9619790786762
 20
30.6840874489262
 10
351.9619790786762
 20
30.6840874489262
 10
351.9619790786762
 20
31.24770507031307
 10
351.9619790786762
 20
31.24770507031307
 10
351.9619790786762
 20
31.24770507031307
 10
353.1670734794166
 20
31.24770507031307
 10
353.1670734794166
 20
31.24770507031307
 10
353.1670734794166
 20
31.24770507031307
 10
353.1670734794166
 20
32.09037542600519
 10
353.1670734794166
 20
32.09037542600519
 10
353.1670734794166
 20
32.09037542600519
 10
351.9619790786762
 20
32.09037542600519
 10
351.9619790786762
 20
32.09037542600519
 10
351.9619790786762
 20
32.09037542600519
 10
351.9619790786762
 20
32.8379611463044
 10
351.9619790786762
 20
32.8379611463044
 10
351.9619790786762
 20
32.8379611463044
 10
351.1131075511106
 20
32.8379611463044
 10
351.1131075511106
 20
32.8379611463044
 10
351.1131075511106
 20
32.8379611463044
 10
351.1131075511106
 20
32.09037542600519
 10
351.1131075511106
 20
32.09037542600519
 10
351.1131075511106
 20
32.09037542600519
 10
350.8044269956322
 20
32.09037542600519
 10
350.8044269956322
 20
32.09037542600519
 72
     1
 10
350.8044269956322
 20
32.09037542600519
 11
350.8044269956322
 21
32.09037542600519
 97
        0
 92
        1
 93
        2
 72
     4
 94
        3
 73
     0
 74
     0
 95
       23
 96
       19
 40
0.0
 40
0.0
 40
0.0
 40
0.0
 40
0.3527777776895833
 40
0.3527777776895833
 40
0.3527777776895833
 40
0.7055555553791667
 40
0.7055555553791667
 40
0.7055555553791667
 40
1.05833333306875
 40
1.05833333306875
 40
1.05833333306875
 40
1.411111110758333
 40
1.411111110758333
 40
1.411111110758333
 40
1.763888888447917
 40
1.763888888447917
 40
1.763888888447917
 40
2.1166666661375
 40
2.1166666661375
 40
2.1166666661375
 40
2.1166666661375
 10
349.7426485670782
 20
30.6840874489262
 10
349.7426485670782
 20
30.6840874489262
 10
349.7426485670782
 20
29.85864257066034
 10
349.7426485670782
 20
29.85864257066034
 10
349.6420517789089
 20
29.98886718000279
 10
349.3326822043335
 20
30.39883354274751
 10
349.1783419265943
 20
30.77848306522205
 10
349.1783419265943
 20
30.77848306522205
 10
349.1783419265943
 20
31.03962130300399
 10
349.1783419265943
 20
31.03962130300399
 10
349.1783419265943
 20
31.03962130300399
 10
349.7240450514579
 20
31.03962130300399
 10
349.7240450514579
 20
31.03962130300399
 10
349.7240450514579
 20
31.03962130300399
 10
350.181553731899
 20
30.6840874489262
 10
350.181553731899
 20
30.6840874489262
 10
350.181553731899
 20
30.6840874489262
 10
349.7426485670782
 20
30.6840874489262
 10
349.7426485670782
 20
30.6840874489262
 72
     1
 10
349.7426485670782
 20
30.6840874489262
 11
349.7426485670782
 21
30.6840874489262
 97
        0
 75
     2
 76
     1
 98
        0
  0
SPLINE
  5
1BF
330
1F
100
AcDbEntity
  8
\U+30EC\U+30A4\U+30E4\U+30FC 1
370
     0
100
AcDbSpline
210
0.0
220
0.0
230
1.0
 70
    11
 71
     3
 72
    44
 73
    40
 74
     0
 42
0.0000000001
 43
0.0000000001
 40
0.0
 40
0.0
 40
0.0
 40
0.0
 40
1.0
 40
1.0
 40
1.0
 40
2.0
 40
2.0
 40
2.0
 40
3.0
 40
3.0
 40
3.0
 40
4.0
 40
4.0
 40
4.0
 40
5.0
 40
5.0
 40
5.0
 40
6.0
 40
6.0
 40
6.0
 40
7.0
 40
7.0
 40
7.0
 40
8.0
 40
8.0
 40
8.0
 40
9.0
 40
9.0
 40
9.0
 40
10.0
 40
10.0
 40
10.0
 40
11.0
 40
11.0
 40
11.0
 40
12.0
 40
12.0
 40
12.0
 40
13.0
 40
13.0
 40
13.0
 40
13.0
 10
353.5356986963383
 20
28.27941080022181
 30
0.0
 10
353.6480088091574
 20
28.28561197209526
 30
0.0
 10
353.7072644515038
 20
28.28561197209526
 30
0.0
 10
353.7844345903733
 20
28.29181314396871
 30
0.0
 10
353.9091470469394
 20
28.29801431584216
 30
0.0
 10
354.5085936613729
 20
28.35106878631501
 30
0.0
 10
354.6457084616858
 20
28.35726995818846
 30
0.0
 10
354.6457084616858
 20
28.35726995818846
 30
0.0
 10
354.6457084616858
 20
29.78698458456714
 30
0.0
 10
354.6457084616858
 20
29.78698458456714
 30
0.0
 10
354.6457084616858
 20
29.78698458456714
 30
0.0
 10
353.7010632796303
 20
29.78698458456714
 30
0.0
 10
353.7010632796303
 20
29.78698458456714
 30
0.0
 10
353.7010632796303
 20
29.78698458456714
 30
0.0
 10
353.7010632796303
 20
30.64756943678255
 30
0.0
 10
353.7010632796303
 20
30.64756943678255
 30
0.0
 10
353.7010632796303
 20
30.64756943678255
 30
0.0
 10
356.4791882789358
 20
30.64756943678255
 30
0.0
 10
356.4791882789358
 20
30.64756943678255
 30
0.0
 10
356.4791882789358
 20
30.64756943678255
 30
0.0
 10
356.4791882789358
 20
29.78698458456714
 30
0.0
 10
356.4791882789358
 20
29.78698458456714
 30
0.0
 10
356.4791882789358
 20
29.78698458456714
 30
0.0
 10
355.5531466125006
 20
29.78698458456714
 30
0.0
 10
355.5531466125006
 20
29.78698458456714
 30
0.0
 10
355.5531466125006
 20
29.78698458456714
 30
0.0
 10
355.5531466125006
 20
28.43444009705806
 30
0.0
 10
355.5531466125006
 20
28.43444009705806
 30
0.0
 10
356.2235621939303
 20
28.49920789218076
 30
0.0
 10
356.4674749542859
 20
28.5467502098772
 30
0.0
 10
356.6872720462449
 20
28.5880913557002
 30
0.0
 10
356.6872720462449
 20
28.5880913557002
 30
0.0
 10
356.6982963517976
 20
27.74542100000809
 30
0.0
 10
356.6982963517976
 20
27.74542100000809
 30
0.0
 10
356.0223686175917
 20
27.60279404691875
 30
0.0
 10
355.6482312478935
 20
27.5607638819987
 30
0.0
 10
353.6362954845076
 20
27.34785698101026
 30
0.0
 10
353.6362954845076
 20
27.34785698101026
 30
0.0
 10
353.5356986963383
 20
28.27941080022181
 30
0.0
 10
353.5356986963383
 20
28.27941080022181
 30
0.0
  0
SPLINE
  5
1C0
330
1F
100
AcDbEntity
  8
\U+30EC\U+30A4\U+30E4\U+30FC 1
370
     0
100
AcDbSpline
210
0.0
220
0.0
230
1.0
 70
    11
 71
     3
 72
    71
 73
    67
 74
     0
 42
0.0000000001
 43
0.0000000001
 40
0.0
 40
0.0
 40
0.0
 40
0.0
 40
1.0
 40
1.0
 40
1.0
 40
2.0
 40
2.0
 40
2.0
 40
3.0
 40
3.0
 40
3.0
 40
4.0
 40
4.0
 40
4.0
 40
5.0
 40
5.0
 40
5.0
 40
6.0
 40
6.0
 40
6.0
 40
7.0
 40
7.0
 40
7.0
 40
8.0
 40
8.0
 40
8.0
 40
9.0
 40
9.0
 40
9.0
 40
10.0
 40
10.0
 40
10.0
 40
11.0
 40
11.0
 40
11.0
 40
12.0
 40
12.0
 40
12.0
 40
13.0
 40
13.0
 40
13.0
 40
14.0
 40
14.0
 40
14.0
 40
15.0
 40
15.0
 40
15.0
 40
16.0
 40
16.0
 40
16.0
 40
17.0
 40
17.0
 40
17.0
 40
18.0
 40
18.0
 40
18.0
 40
19.0
 40
19.0
 40
19.0
 40
20.0
 40
20.0
 40
20.0
 40
21.0
 40
21.0
 40
21.0
 40
22.0
 40
22.0
 40
22.0
 40
22.0
 10
358.6282388426346
 20
32.02560763088249
 30
0.0
 10
358.6282388426346
 20
32.02560763088249
 30
0.0
 10
359.1856552921481
 20
32.02560763088249
 30
0.0
 10
359.1856552921481
 20
32.02560763088249
 30
0.0
 10
359.1856552921481
 20
32.02560763088249
 30
0.0
 10
359.1856552921481
 20
31.16433375957003
 30
0.0
 10
359.1856552921481
 20
31.16433375957003
 30
0.0
 10
359.1856552921481
 20
31.16433375957003
 30
0.0
 10
357.5354545547134
 20
31.16433375957003
 30
0.0
 10
357.5354545547134
 20
31.16433375957003
 30
0.0
 10
357.571972566857
 20
30.41605902017377
 30
0.0
 10
357.654654858503
 20
29.66847329987455
 30
0.0
 10
357.8916774278882
 20
28.95671657262193
 30
0.0
 10
357.9516220893316
 20
28.77894964558304
 30
0.0
 10
358.1107855007501
 20
28.35726995818846
 30
0.0
 10
358.2837292941097
 20
28.35726995818846
 30
0.0
 10
358.4497828964987
 20
28.35726995818846
 30
0.0
 10
358.7694877575299
 20
28.76654730183614
 30
0.0
 10
358.9072915769399
 20
29.16411132083397
 30
0.0
 10
358.9072915769399
 20
29.16411132083397
 30
0.0
 10
359.2869410994144
 20
28.21464300509912
 30
0.0
 10
359.2869410994144
 20
28.21464300509912
 30
0.0
 10
359.1622286428483
 20
27.87013345657413
 30
0.0
 10
358.8590602401463
 20
27.20591904701796
 30
0.0
 10
358.3078449625064
 20
27.20591904701796
 30
0.0
 10
358.0287922282012
 20
27.20591904701796
 30
0.0
 10
357.7435383220225
 20
27.35957030566011
 30
0.0
 10
357.5829968724098
 20
27.5387152708931
 30
0.0
 10
356.7224120201944
 20
28.48749456753091
 30
0.0
 10
356.6631563778481
 20
30.20935329105878
 30
0.0
 10
356.6280164038986
 20
31.16433375957003
 30
0.0
 10
356.6280164038986
 20
31.16433375957003
 30
0.0
 10
353.5887531668112
 20
31.16433375957003
 30
0.0
 10
353.5887531668112
 20
31.16433375957003
 30
0.0
 10
353.5887531668112
 20
31.16433375957003
 30
0.0
 10
353.5887531668112
 20
32.02560763088249
 30
0.0
 10
353.5887531668112
 20
32.02560763088249
 30
0.0
 10
353.5887531668112
 20
32.02560763088249
 30
0.0
 10
356.5983885827254
 20
32.02560763088249
 30
0.0
 10
356.5983885827254
 20
32.02560763088249
 30
0.0
 10
356.592187410852
 20
32.11380207530488
 30
0.0
 10
356.5804740862021
 20
32.54788410644636
 30
0.0
 10
356.5742729143287
 20
32.64227972274221
 30
0.0
 10
356.5742729143287
 20
32.69602321231211
 30
0.0
 10
356.5742729143287
 20
32.74287651091151
 30
0.0
 10
356.5680717424552
 20
32.84967447095425
 30
0.0
 10
356.5680717424552
 20
32.84967447095425
 30
0.0
 10
357.5182290772871
 20
32.84967447095425
 30
0.0
 10
357.5182290772871
 20
32.84967447095425
 30
0.0
 10
357.5120279054137
 20
32.38183050405732
 30
0.0
 10
357.5120279054137
 20
32.24471570374438
 30
0.0
 10
357.5182290772871
 20
32.02560763088249
 30
0.0
 10
357.5182290772871
 20
32.02560763088249
 30
0.0
 10
358.0997611951973
 20
32.02560763088249
 30
0.0
 10
358.0997611951973
 20
32.02560763088249
 30
0.0
 10
357.9454209174581
 20
32.25091687561783
 30
0.0
 10
357.8145072890186
 20
32.44108614640362
 30
0.0
 10
357.6663681831529
 20
32.57682290852246
 30
0.0
 10
357.6663681831529
 20
32.57682290852246
 30
0.0
 10
358.4325574190725
 20
32.8861924830979
 30
0.0
 10
358.4325574190725
 20
32.8861924830979
 30
0.0
 10
358.5207518634948
 20
32.8200466497811
 30
0.0
 10
358.5979220023644
 20
32.7663031602112
 30
0.0
 10
359.0085773842062
 20
32.19166123327153
 30
0.0
 10
359.0085773842062
 20
32.19166123327153
 30
0.0
 10
358.6282388426346
 20
32.02560763088249
 30
0.0
 10
358.6282388426346
 20
32.02560763088249
 30
0.0
  0
HATCH
  5
1C1
330
1F
100
AcDbEntity
  8
\U+30EC\U+30A4\U+30E4\U+30FC 1
 62
     7
420
 16777215
100
AcDbHatch
 10
0.0
 20
0.0
 30
0.0
210
0.0
220
0.0
230
1.0
  2
SOLID
 70
     1
 71
     0
 91
        2
 92
        1
 93
        1
 72
     4
 94
        3
 73
     0
 74
     1
 95
       44
 96
       40
 40
0.0
 40
0.0
 40
0.0
 40
0.0
 40
1.0
 40
1.0
 40
1.0
 40
2.0
 40
2.0
 40
2.0
 40
3.0
 40
3.0
 40
3.0
 40
4.0
 40
4.0
 40
4.0
 40
5.0
 40
5.0
 40
5.0
 40
6.0
 40
6.0
 40
6.0
 40
7.0
 40
7.0
 40
7.0
 40
8.0
 40
8.0
 40
8.0
 40
9.0
 40
9.0
 40
9.0
 40
10.0
 40
10.0
 40
10.0
 40
11.0
 40
11.0
 40
11.0
 40
12.0
 40
12.0
 40
12.0
 40
13.0
 40
13.0
 40
13.0
 40
13.0
 10
353.5356986963383
 20
28.27941080022181
 10
353.6480088091574
 20
28.28561197209526
 10
353.7072644515038
 20
28.28561197209526
 10
353.7844345903733
 20
28.29181314396871
 10
353.9091470469394
 20
28.29801431584216
 10
354.5085936613729
 20
28.35106878631501
 10
354.6457084616858
 20
28.35726995818846
 10
354.6457084616858
 20
28.35726995818846
 10
354.6457084616858
 20
29.78698458456714
 10
354.6457084616858
 20
29.78698458456714
 10
354.6457084616858
 20
29.78698458456714
 10
353.7010632796303
 20
29.78698458456714
 10
353.7010632796303
 20
29.78698458456714
 10
353.7010632796303
 20
29.78698458456714
 10
353.7010632796303
 20
30.64756943678255
 10
353.7010632796303
 20
30.64756943678255
 10
353.7010632796303
 20
30.64756943678255
 10
356.4791882789358
 20
30.64756943678255
 10
356.4791882789358
 20
30.64756943678255
 10
356.4791882789358
 20
30.64756943678255
 10
356.4791882789358
 20
29.78698458456714
 10
356.4791882789358
 20
29.78698458456714
 10
356.4791882789358
 20
29.78698458456714
 10
355.5531466125006
 20
29.78698458456714
 10
355.5531466125006
 20
29.78698458456714
 10
355.5531466125006
 20
29.78698458456714
 10
355.5531466125006
 20
28.43444009705806
 10
355.5531466125006
 20
28.43444009705806
 10
356.2235621939303
 20
28.49920789218076
 10
356.4674749542859
 20
28.5467502098772
 10
356.6872720462449
 20
28.5880913557002
 10
356.6872720462449
 20
28.5880913557002
 10
356.6982963517976
 20
27.74542100000809
 10
356.6982963517976
 20
27.74542100000809
 10
356.0223686175917
 20
27.60279404691875
 10
355.6482312478935
 20
27.5607638819987
 10
353.6362954845076
 20
27.34785698101026
 10
353.6362954845076
 20
27.34785698101026
 10
353.5356986963383
 20
28.27941080022181
 10
353.5356986963383
 20
28.27941080022181
 97
        0
 92
        1
 93
        2
 72
     4
 94
        3
 73
     0
 74
     0
 95
       71
 96
       67
 40
0.0
 40
0.0
 40
0.0
 40
0.0
 40
0.3527777776895833
 40
0.3527777776895833
 40
0.3527777776895833
 40
0.7055555553791667
 40
0.7055555553791667
 40
0.7055555553791667
 40
1.05833333306875
 40
1.05833333306875
 40
1.05833333306875
 40
1.411111110758333
 40
1.411111110758333
 40
1.411111110758333
 40
1.763888888447917
 40
1.763888888447917
 40
1.763888888447917
 40
2.1166666661375
 40
2.1166666661375
 40
2.1166666661375
 40
2.469444443827083
 40
2.469444443827083
 40
2.469444443827083
 40
2.822222221516667
 40
2.822222221516667
 40
2.822222221516667
 40
3.17499999920625
 40
3.17499999920625
 40
3.17499999920625
 40
3.527777776895833
 40
3.527777776895833
 40
3.527777776895833
 40
3.880555554585417
 40
3.880555554585417
 40
3.880555554585417
 40
4.233333332275
 40
4.233333332275
 40
4.233333332275
 40
4.586111109964584
 40
4.586111109964584
 40
4.586111109964584
 40
4.938888887654167
 40
4.938888887654167
 40
4.938888887654167
 40
5.29166666534375
 40
5.29166666534375
 40
5.29166666534375
 40
5.644444443033334
 40
5.644444443033334
 40
5.644444443033334
 40
5.997222220722917
 40
5.997222220722917
 40
5.997222220722917
 40
6.349999998412501
 40
6.349999998412501
 40
6.349999998412501
 40
6.702777776102083
 40
6.702777776102083
 40
6.702777776102083
 40
7.055555553791667
 40
7.055555553791667
 40
7.055555553791667
 40
7.40833333148125
 40
7.40833333148125
 40
7.40833333148125
 40
7.761111109170834
 40
7.761111109170834
 40
7.761111109170834
 40
7.761111109170834
 10
358.6282388426346
 20
32.02560763088249
 10
358.6282388426346
 20
32.02560763088249
 10
359.1856552921481
 20
32.02560763088249
 10
359.1856552921481
 20
32.02560763088249
 10
359.1856552921481
 20
32.02560763088249
 10
359.1856552921481
 20
31.16433375957003
 10
359.1856552921481
 20
31.16433375957003
 10
359.1856552921481
 20
31.16433375957003
 10
357.5354545547134
 20
31.16433375957003
 10
357.5354545547134
 20
31.16433375957003
 10
357.571972566857
 20
30.41605902017377
 10
357.654654858503
 20
29.66847329987455
 10
357.8916774278882
 20
28.95671657262193
 10
357.9516220893316
 20
28.77894964558304
 10
358.1107855007501
 20
28.35726995818846
 10
358.2837292941097
 20
28.35726995818846
 10
358.4497828964987
 20
28.35726995818846
 10
358.7694877575299
 20
28.76654730183614
 10
358.9072915769399
 20
29.16411132083397
 10
358.9072915769399
 20
29.16411132083397
 10
359.2869410994144
 20
28.21464300509912
 10
359.2869410994144
 20
28.21464300509912
 10
359.1622286428483
 20
27.87013345657413
 10
358.8590602401463
 20
27.20591904701796
 10
358.3078449625064
 20
27.20591904701796
 10
358.0287922282012
 20
27.20591904701796
 10
357.7435383220225
 20
27.35957030566011
 10
357.5829968724098
 20
27.5387152708931
 10
356.7224120201944
 20
28.48749456753091
 10
356.6631563778481
 20
30.20935329105878
 10
356.6280164038986
 20
31.16433375957003
 10
356.6280164038986
 20
31.16433375957003
 10
353.5887531668112
 20
31.16433375957003
 10
353.5887531668112
 20
31.16433375957003
 10
353.5887531668112
 20
31.16433375957003
 10
353.5887531668112
 20
32.02560763088249
 10
353.5887531668112
 20
32.02560763088249
 10
353.5887531668112
 20
32.02560763088249
 10
356.5983885827254
 20
32.02560763088249
 10
356.5983885827254
 20
32.02560763088249
 10
356.592187410852
 20
32.11380207530488
 10
356.5804740862021
 20
32.54788410644636
 10
356.5742729143287
 20
32.64227972274221
 10
356.5742729143287
 20
32.69602321231211
 10
356.5742729143287
 20
32.74287651091151
 10
356.5680717424552
 20
32.84967447095425
 10
356.5680717424552
 20
32.84967447095425
 10
357.5182290772871
 20
32.84967447095425
 10
357.5182290772871
 20
32.84967447095425
 10
357.5120279054137
 20
32.38183050405732
 10
357.5120279054137
 20
32.24471570374438
 10
357.5182290772871
 20
32.02560763088249
 10
357.5182290772871
 20
32.02560763088249
 10
358.0997611951973
 20
32.02560763088249
 10
358.0997611951973
 20
32.02560763088249
 10
357.9454209174581
 20
32.25091687561783
 10
357.8145072890186
 20
32.44108614640362
 10
357.6663681831529
 20
32.57682290852246
 10
357.6663681831529
 20
32.57682290852246
 10
358.4325574190725
 20
32.8861924830979
 10
358.4325574190725
 20
32.8861924830979
 10
358.5207518634948
 20
32.8200466497811
 10
358.5979220023644
 20
32.7663031602112
 10
359.0085773842062
 20
32.19166123327153
 10
359.0085773842062
 20
32.19166123327153
 10
358.6282388426346
 20
32.02560763088249
 10
358.6282388426346
 20
32.02560763088249
 72
     1
 10
358.6282388426346
 20
32.02560763088249
 11
358.6282388426346
 21
32.02560763088249
 97
        0
 75
     2
 76
     1
 98
        0
  0
SPLINE
  5
1C2
330
1F
100
AcDbEntity
  8
\U+30EC\U+30A4\U+30E4\U+30FC 1
370
     0
100
AcDbSpline
210
0.0
220
0.0
230
1.0
 70
    11
 71
     3
 72
    14
 73
    10
 74
     0
 42
0.0000000001
 43
0.0000000001
 40
0.0
 40
0.0
 40
0.0
 40
0.0
 40
1.0
 40
1.0
 40
1.0
 40
2.0
 40
2.0
 40
2.0
 40
3.0
 40
3.0
 40
3.0
 40
3.0
 10
361.4173881474929
 20
31.33038736195907
 30
0.0
 10
361.9810057688798
 20
31.7582682212271
 30
0.0
 10
362.1835773834125
 20
31.98357746596244
 30
0.0
 10
362.3324055083752
 20
32.16685654577773
 30
0.0
 10
362.5094834163171
 20
31.97186414131259
 30
0.0
 10
362.7409938329259
 20
31.7224392281805
 30
0.0
 10
363.2577581557134
 20
31.33038736195907
 30
0.0
 10
363.2577581557134
 20
31.33038736195907
 30
0.0
 10
361.4173881474929
 20
31.33038736195907
 30
0.0
 10
361.4173881474929
 20
31.33038736195907
 30
0.0
  0
SPLINE
  5
1C3
330
1F
100
AcDbEntity
  8
\U+30EC\U+30A4\U+30E4\U+30FC 1
370
     0
100
AcDbSpline
210
0.0
220
0.0
230
1.0
 70
    11
 71
     3
 72
    35
 73
    31
 74
     0
 42
0.0000000001
 43
0.0000000001
 40
0.0
 40
0.0
 40
0.0
 40
0.0
 40
1.0
 40
1.0
 40
1.0
 40
2.0
 40
2.0
 40
2.0
 40
3.0
 40
3.0
 40
3.0
 40
4.0
 40
4.0
 40
4.0
 40
5.0
 40
5.0
 40
5.0
 40
6.0
 40
6.0
 40
6.0
 40
7.0
 40
7.0
 40
7.0
 40
8.0
 40
8.0
 40
8.0
 40
9.0
 40
9.0
 40
9.0
 40
10.0
 40
10.0
 40
10.0
 40
10.0
 10
360.7469725660633
 20
30.53594834306046
 30
0.0
 10
360.7469725660633
 20
30.53594834306046
 30
0.0
 10
363.9047470878432
 20
30.53594834306046
 30
0.0
 10
363.9047470878432
 20
30.53594834306046
 30
0.0
 10
363.9047470878432
 20
30.53594834306046
 30
0.0
 10
363.9047470878432
 20
30.89768336901169
 30
0.0
 10
363.9047470878432
 20
30.89768336901169
 30
0.0
 10
364.3264267752378
 20
30.64274630310321
 30
0.0
 10
364.5813638411464
 20
30.52974717118701
 30
0.0
 10
364.7887585893584
 20
30.43948566947346
 30
0.0
 10
364.7887585893584
 20
30.43948566947346
 30
0.0
 10
365.252468441673
 20
31.33658853383252
 30
0.0
 10
365.252468441673
 20
31.33658853383252
 30
0.0
 10
364.3505424436346
 20
31.6755859295811
 30
0.0
 10
363.4954697441956
 20
32.15514322112788
 30
0.0
 10
362.8663953085889
 20
32.8861924830979
 30
0.0
 10
362.8663953085889
 20
32.8861924830979
 30
0.0
 10
361.8094400137143
 20
32.8861924830979
 30
0.0
 10
361.8094400137143
 20
32.8861924830979
 30
0.0
 10
361.4297904912398
 20
32.35082464469007
 30
0.0
 10
360.77108823446
 20
31.86506618126985
 30
0.0
 10
359.3937390594571
 20
31.32418619008562
 30
0.0
 10
359.3937390594571
 20
31.32418619008562
 30
0.0
 10
359.8450465680249
 20
30.42294921114426
 30
0.0
 10
359.8450465680249
 20
30.42294921114426
 30
0.0
 10
360.0228134950638
 20
30.49322915904336
 30
0.0
 10
360.2832627137486
 20
30.59451496630971
 30
0.0
 10
360.7469725660633
 20
30.87356770061494
 30
0.0
 10
360.7469725660633
 20
30.87356770061494
 30
0.0
 10
360.7469725660633
 20
30.53594834306046
 30
0.0
 10
360.7469725660633
 20
30.53594834306046
 30
0.0
  0
SPLINE
  5
1C4
330
1F
100
AcDbEntity
  8
\U+30EC\U+30A4\U+30E4\U+30FC 1
370
     0
100
AcDbSpline
210
0.0
220
0.0
230
1.0
 70
    11
 71
     3
 72
    44
 73
    40
 74
     0
 42
0.0000000001
 43
0.0000000001
 40
0.0
 40
0.0
 40
0.0
 40
0.0
 40
1.0
 40
1.0
 40
1.0
 40
2.0
 40
2.0
 40
2.0
 40
3.0
 40
3.0
 40
3.0
 40
4.0
 40
4.0
 40
4.0
 40
5.0
 40
5.0
 40
5.0
 40
6.0
 40
6.0
 40
6.0
 40
7.0
 40
7.0
 40
7.0
 40
8.0
 40
8.0
 40
8.0
 40
9.0
 40
9.0
 40
9.0
 40
10.0
 40
10.0
 40
10.0
 40
11.0
 40
11.0
 40
11.0
 40
12.0
 40
12.0
 40
12.0
 40
13.0
 40
13.0
 40
13.0
 40
13.0
 10
365.0147568531908
 20
27.6145073715686
 30
0.0
 10
364.6585339800159
 20
28.17881401205252
 30
0.0
 10
364.2843966103178
 20
28.70729165948984
 30
0.0
 10
363.7676322875303
 20
29.26470810900327
 30
0.0
 10
363.7676322875303
 20
29.26470810900327
 30
0.0
 10
364.9961533375704
 20
29.26470810900327
 30
0.0
 10
364.9961533375704
 20
29.26470810900327
 30
0.0
 10
364.9961533375704
 20
29.26470810900327
 30
0.0
 10
364.9961533375704
 20
30.11978080844228
 30
0.0
 10
364.9961533375704
 20
30.11978080844228
 30
0.0
 10
364.9961533375704
 20
30.11978080844228
 30
0.0
 10
359.6431639725892
 20
30.11978080844228
 30
0.0
 10
359.6431639725892
 20
30.11978080844228
 30
0.0
 10
359.6431639725892
 20
30.11978080844228
 30
0.0
 10
359.6431639725892
 20
29.26470810900327
 30
0.0
 10
359.6431639725892
 20
29.26470810900327
 30
0.0
 10
359.6431639725892
 20
29.26470810900327
 30
0.0
 10
360.9660806389252
 20
29.26470810900327
 30
0.0
 10
360.9660806389252
 20
29.26470810900327
 30
0.0
 10
360.8420572014562
 20
28.87954643375234
 30
0.0
 10
360.7049424011432
 20
28.5591525536241
 30
0.0
 10
360.5574923143745
 20
28.24495984536932
 30
0.0
 10
360.4506943543318
 20
28.24495984536932
 30
0.0
 10
359.9869845020172
 20
28.23806965439882
 30
0.0
 10
359.8918998666243
 20
28.23806965439882
 30
0.0
 10
359.8450465680249
 20
28.23806965439882
 30
0.0
 10
359.8030164031048
 20
28.23806965439882
 30
0.0
 10
359.6838160993152
 20
28.24495984536932
 30
0.0
 10
359.6838160993152
 20
28.24495984536932
 30
0.0
 10
359.8271320715016
 20
27.32443033171056
 30
0.0
 10
359.8271320715016
 20
27.32443033171056
 30
0.0
 10
361.1741644062342
 20
27.36577147753356
 30
0.0
 10
361.3822481735434
 20
27.38368597405686
 30
0.0
 10
363.9164604124931
 20
27.5855685694925
 30
0.0
 10
364.0287705253123
 20
27.40091145148311
 30
0.0
 10
364.0825140148822
 20
27.31202798796366
 30
0.0
 10
364.1596841537518
 20
27.16388888209792
 30
0.0
 10
364.1596841537518
 20
27.16388888209792
 30
0.0
 10
365.0147568531908
 20
27.6145073715686
 30
0.0
 10
365.0147568531908
 20
27.6145073715686
 30
0.0
  0
SPLINE
  5
1C5
330
1F
100
AcDbEntity
  8
\U+30EC\U+30A4\U+30E4\U+30FC 1
370
     0
100
AcDbSpline
210
0.0
220
0.0
230
1.0
 70
    11
 71
     3
 72
    23
 73
    19
 74
     0
 42
0.0000000001
 43
0.0000000001
 40
0.0
 40
0.0
 40
0.0
 40
0.0
 40
1.0
 40
1.0
 40
1.0
 40
2.0
 40
2.0
 40
2.0
 40
3.0
 40
3.0
 40
3.0
 40
4.0
 40
4.0
 40
4.0
 40
5.0
 40
5.0
 40
5.0
 40
6.0
 40
6.0
 40
6.0
 40
6.0
 10
362.9249619318382
 20
28.93328992332223
 30
0.0
 10
363.0675888849275
 20
28.76034612996269
 30
0.0
 10
363.1750758640674
 20
28.63012152062025
 30
0.0
 10
363.4120984334526
 20
28.31523979326841
 30
0.0
 10
363.2212401435697
 20
28.30972764049201
 30
0.0
 10
362.2848631906788
 20
28.26769747557196
 30
0.0
 10
362.0760904042726
 20
28.25598415092212
 30
0.0
 10
361.969981463327
 20
28.25047199814572
 30
0.0
 10
361.9224391456305
 20
28.25047199814572
 30
0.0
 10
361.4945582863625
 20
28.25047199814572
 30
0.0
 10
361.6723252134014
 20
28.6060058522235
 30
0.0
 10
361.791525517191
 20
28.87403428097594
 30
0.0
 10
361.9575791195801
 20
29.26470810900327
 30
0.0
 10
361.9575791195801
 20
29.26470810900327
 30
0.0
 10
363.6256943535381
 20
29.26470810900327
 30
0.0
 10
363.6256943535381
 20
29.26470810900327
 30
0.0
 10
363.6256943535381
 20
29.26470810900327
 30
0.0
 10
362.9249619318382
 20
28.93328992332223
 30
0.0
 10
362.9249619318382
 20
28.93328992332223
 30
0.0
  0
HATCH
  5
1C6
330
1F
100
AcDbEntity
  8
\U+30EC\U+30A4\U+30E4\U+30FC 1
 62
     7
420
 16777215
100
AcDbHatch
 10
0.0
 20
0.0
 30
0.0
210
0.0
220
0.0
230
1.0
  2
SOLID
 70
     1
 71
     0
 91
        4
 92
        1
 93
        1
 72
     4
 94
        3
 73
     0
 74
     1
 95
       14
 96
       10
 40
0.0
 40
0.0
 40
0.0
 40
0.0
 40
1.0
 40
1.0
 40
1.0
 40
2.0
 40
2.0
 40
2.0
 40
3.0
 40
3.0
 40
3.0
 40
3.0
 10
361.4173881474929
 20
31.33038736195907
 10
361.9810057688798
 20
31.7582682212271
 10
362.1835773834125
 20
31.98357746596244
 10
362.3324055083752
 20
32.16685654577773
 10
362.5094834163171
 20
31.97186414131259
 10
362.7409938329259
 20
31.7224392281805
 10
363.2577581557134
 20
31.33038736195907
 10
363.2577581557134
 20
31.33038736195907
 10
361.4173881474929
 20
31.33038736195907
 10
361.4173881474929
 20
31.33038736195907
 97
        0
 92
        1
 93
        2
 72
     4
 94
        3
 73
     0
 74
     0
 95
       35
 96
       31
 40
0.0
 40
0.0
 40
0.0
 40
0.0
 40
0.3527777776895833
 40
0.3527777776895833
 40
0.3527777776895833
 40
0.7055555553791667
 40
0.7055555553791667
 40
0.7055555553791667
 40
1.05833333306875
 40
1.05833333306875
 40
1.05833333306875
 40
1.411111110758333
 40
1.411111110758333
 40
1.411111110758333
 40
1.763888888447917
 40
1.763888888447917
 40
1.763888888447917
 40
2.1166666661375
 40
2.1166666661375
 40
2.1166666661375
 40
2.469444443827083
 40
2.469444443827083
 40
2.469444443827083
 40
2.822222221516667
 40
2.822222221516667
 40
2.822222221516667
 40
3.17499999920625
 40
3.17499999920625
 40
3.17499999920625
 40
3.527777776895833
 40
3.527777776895833
 40
3.527777776895833
 40
3.527777776895833
 10
360.7469725660633
 20
30.53594834306046
 10
360.7469725660633
 20
30.53594834306046
 10
363.9047470878432
 20
30.53594834306046
 10
363.9047470878432
 20
30.53594834306046
 10
363.9047470878432
 20
30.53594834306046
 10
363.9047470878432
 20
30.89768336901169
 10
363.9047470878432
 20
30.89768336901169
 10
364.3264267752378
 20
30.64274630310321
 10
364.5813638411464
 20
30.52974717118701
 10
364.7887585893584
 20
30.43948566947346
 10
364.7887585893584
 20
30.43948566947346
 10
365.252468441673
 20
31.33658853383252
 10
365.252468441673
 20
31.33658853383252
 10
364.3505424436346
 20
31.6755859295811
 10
363.4954697441956
 20
32.15514322112788
 10
362.8663953085889
 20
32.8861924830979
 10
362.8663953085889
 20
32.8861924830979
 10
361.8094400137143
 20
32.8861924830979
 10
361.8094400137143
 20
32.8861924830979
 10
361.4297904912398
 20
32.35082464469007
 10
360.77108823446
 20
31.86506618126985
 10
359.3937390594571
 20
31.32418619008562
 10
359.3937390594571
 20
31.32418619008562
 10
359.8450465680249
 20
30.42294921114426
 10
359.8450465680249
 20
30.42294921114426
 10
360.0228134950638
 20
30.49322915904336
 10
360.2832627137486
 20
30.59451496630971
 10
360.7469725660633
 20
30.87356770061494
 10
360.7469725660633
 20
30.87356770061494
 10
360.7469725660633
 20
30.53594834306046
 10
360.7469725660633
 20
30.53594834306046
 72
     1
 10
360.7469725660633
 20
30.53594834306046
 11
360.7469725660633
 21
30.53594834306046
 97
        0
 92
        1
 93
        2
 72
     4
 94
        3
 73
     0
 74
     0
 95
       44
 96
       40
 40
0.0
 40
0.0
 40
0.0
 40
0.0
 40
0.3527777776895833
 40
0.3527777776895833
 40
0.3527777776895833
 40
0.7055555553791667
 40
0.7055555553791667
 40
0.7055555553791667
 40
1.05833333306875
 40
1.05833333306875
 40
1.05833333306875
 40
1.411111110758333
 40
1.411111110758333
 40
1.411111110758333
 40
1.763888888447917
 40
1.763888888447917
 40
1.763888888447917
 40
2.1166666661375
 40
2.1166666661375
 40
2.1166666661375
 40
2.469444443827083
 40
2.469444443827083
 40
2.469444443827083
 40
2.822222221516667
 40
2.822222221516667
 40
2.822222221516667
 40
3.17499999920625
 40
3.17499999920625
 40
3.17499999920625
 40
3.527777776895833
 40
3.527777776895833
 40
3.527777776895833
 40
3.880555554585417
 40
3.880555554585417
 40
3.880555554585417
 40
4.233333332275
 40
4.233333332275
 40
4.233333332275
 40
4.586111109964584
 40
4.586111109964584
 40
4.586111109964584
 40
4.586111109964584
 10
365.0147568531908
 20
27.6145073715686
 10
364.6585339800159
 20
28.17881401205252
 10
364.2843966103178
 20
28.70729165948984
 10
363.7676322875303
 20
29.26470810900327
 10
363.7676322875303
 20
29.26470810900327
 10
364.9961533375704
 20
29.26470810900327
 10
364.9961533375704
 20
29.26470810900327
 10
364.9961533375704
 20
29.26470810900327
 10
364.9961533375704
 20
30.11978080844228
 10
364.9961533375704
 20
30.11978080844228
 10
364.9961533375704
 20
30.11978080844228
 10
359.6431639725892
 20
30.11978080844228
 10
359.6431639725892
 20
30.11978080844228
 10
359.6431639725892
 20
30.11978080844228
 10
359.6431639725892
 20
29.26470810900327
 10
359.6431639725892
 20
29.26470810900327
 10
359.6431639725892
 20
29.26470810900327
 10
360.9660806389252
 20
29.26470810900327
 10
360.9660806389252
 20
29.26470810900327
 10
360.8420572014562
 20
28.87954643375234
 10
360.7049424011432
 20
28.5591525536241
 10
360.5574923143745
 20
28.24495984536932
 10
360.4506943543318
 20
28.24495984536932
 10
359.9869845020172
 20
28.23806965439882
 10
359.8918998666243
 20
28.23806965439882
 10
359.8450465680249
 20
28.23806965439882
 10
359.8030164031048
 20
28.23806965439882
 10
359.6838160993152
 20
28.24495984536932
 10
359.6838160993152
 20
28.24495984536932
 10
359.8271320715016
 20
27.32443033171056
 10
359.8271320715016
 20
27.32443033171056
 10
361.1741644062342
 20
27.36577147753356
 10
361.3822481735434
 20
27.38368597405686
 10
363.9164604124931
 20
27.5855685694925
 10
364.0287705253123
 20
27.40091145148311
 10
364.0825140148822
 20
27.31202798796366
 10
364.1596841537518
 20
27.16388888209792
 10
364.1596841537518
 20
27.16388888209792
 10
365.0147568531908
 20
27.6145073715686
 10
365.0147568531908
 20
27.6145073715686
 72
     1
 10
365.0147568531908
 20
27.6145073715686
 11
365.0147568531908
 21
27.6145073715686
 97
        0
 92
        1
 93
        2
 72
     4
 94
        3
 73
     0
 74
     0
 95
       23
 96
       19
 40
0.0
 40
0.0
 40
0.0
 40
0.0
 40
0.3527777776895833
 40
0.3527777776895833
 40
0.3527777776895833
 40
0.7055555553791667
 40
0.7055555553791667
 40
0.7055555553791667
 40
1.05833333306875
 40
1.05833333306875
 40
1.05833333306875
 40
1.411111110758333
 40
1.411111110758333
 40
1.411111110758333
 40
1.763888888447917
 40
1.763888888447917
 40
1.763888888447917
 40
2.1166666661375
 40
2.1166666661375
 40
2.1166666661375
 40
2.1166666661375
 10
362.9249619318382
 20
28.93328992332223
 10
363.0675888849275
 20
28.76034612996269
 10
363.1750758640674
 20
28.63012152062025
 10
363.4120984334526
 20
28.31523979326841
 10
363.2212401435697
 20
28.30972764049201
 10
362.2848631906788
 20
28.26769747557196
 10
362.0760904042726
 20
28.25598415092212
 10
361.969981463327
 20
28.25047199814572
 10
361.9224391456305
 20
28.25047199814572
 10
361.4945582863625
 20
28.25047199814572
 10
361.6723252134014
 20
28.6060058522235
 10
361.791525517191
 20
28.87403428097594
 10
361.9575791195801
 20
29.26470810900327
 10
361.9575791195801
 20
29.26470810900327
 10
363.6256943535381
 20
29.26470810900327
 10
363.6256943535381
 20
29.26470810900327
 10
363.6256943535381
 20
29.26470810900327
 10
362.9249619318382
 20
28.93328992332223
 10
362.9249619318382
 20
28.93328992332223
 72
     1
 10
362.9249619318382
 20
28.93328992332223
 11
362.9249619318382
 21
28.93328992332223
 97
        0
 75
     2
 76
     1
 98
        0
  0
POLYLINE
  5
1C7
330
1F
100
AcDbEntity
  8
\U+30EC\U+30A4\U+30E4\U+30FC 1
370
     0
100
AcDb2dPolyline
 66
     1
 10
0.0
 20
0.0
 30
0.0
  0
VERTEX
  5
1C8
330
1C7
100
AcDbEntity
  8
\U+30EC\U+30A4\U+30E4\U+30FC 1
370
     0
100
AcDbVertex
100
AcDb2dVertex
 10
368.8725747775736
 20
32.8379611463044
 30
0.0
  0
VERTEX
  5
1C9
330
1C7
100
AcDbEntity
  8
\U+30EC\U+30A4\U+30E4\U+30FC 1
370
     0
100
AcDbVertex
100
AcDb2dVertex
 10
369.7993054631057
 20
32.8379611463044
 30
0.0
  0
VERTEX
  5
1CA
330
1C7
100
AcDbEntity
  8
\U+30EC\U+30A4\U+30E4\U+30FC 1
370
     0
100
AcDbVertex
100
AcDb2dVertex
 10
369.7993054631057
 20
31.36690537410272
 30
0.0
  0
VERTEX
  5
1CB
330
1C7
100
AcDbEntity
  8
\U+30EC\U+30A4\U+30E4\U+30FC 1
370
     0
100
AcDbVertex
100
AcDb2dVertex
 10
370.9499673551792
 20
31.36690537410272
 30
0.0
  0
VERTEX
  5
1CC
330
1C7
100
AcDbEntity
  8
\U+30EC\U+30A4\U+30E4\U+30FC 1
370
     0
100
AcDbVertex
100
AcDb2dVertex
 10
370.9499673551792
 20
30.45188801322036
 30
0.0
  0
VERTEX
  5
1CD
330
1C7
100
AcDbEntity
  8
\U+30EC\U+30A4\U+30E4\U+30FC 1
370
     0
100
AcDbVertex
100
AcDb2dVertex
 10
369.7993054631057
 20
30.45188801322036
 30
0.0
  0
VERTEX
  5
1CE
330
1C7
100
AcDbEntity
  8
\U+30EC\U+30A4\U+30E4\U+30FC 1
370
     0
100
AcDbVertex
100
AcDb2dVertex
 10
369.7993054631057
 20
28.27941080022181
 30
0.0
  0
VERTEX
  5
1CF
330
1C7
100
AcDbEntity
  8
\U+30EC\U+30A4\U+30E4\U+30FC 1
370
     0
100
AcDbVertex
100
AcDb2dVertex
 10
371.0388508186986
 20
28.27941080022181
 30
0.0
  0
VERTEX
  5
1D0
330
1C7
100
AcDbEntity
  8
\U+30EC\U+30A4\U+30E4\U+30FC 1
370
     0
100
AcDbVertex
100
AcDb2dVertex
 10
371.0388508186986
 20
27.37748480218341
 30
0.0
  0
VERTEX
  5
1D1
330
1C7
100
AcDbEntity
  8
\U+30EC\U+30A4\U+30E4\U+30FC 1
370
     0
100
AcDbVertex
100
AcDb2dVertex
 10
367.513140099094
 20
27.37748480218341
 30
0.0
  0
VERTEX
  5
1D2
330
1C7
100
AcDbEntity
  8
\U+30EC\U+30A4\U+30E4\U+30FC 1
370
     0
100
AcDbVertex
100
AcDb2dVertex
 10
367.513140099094
 20
28.27941080022181
 30
0.0
  0
VERTEX
  5
1D3
330
1C7
100
AcDbEntity
  8
\U+30EC\U+30A4\U+30E4\U+30FC 1
370
     0
100
AcDbVertex
100
AcDb2dVertex
 10
368.8725747775736
 20
28.27941080022181
 30
0.0
  0
VERTEX
  5
1D4
330
1C7
100
AcDbEntity
  8
\U+30EC\U+30A4\U+30E4\U+30FC 1
370
     0
100
AcDbVertex
100
AcDb2dVertex
 10
368.8725747775736
 20
30.45188801322036
 30
0.0
  0
VERTEX
  5
1D5
330
1C7
100
AcDbEntity
  8
\U+30EC\U+30A4\U+30E4\U+30FC 1
370
     0
100
AcDbVertex
100
AcDb2dVertex
 10
367.803217138952
 20
30.45188801322036
 30
0.0
  0
VERTEX
  5
1D6
330
1C7
100
AcDbEntity
  8
\U+30EC\U+30A4\U+30E4\U+30FC 1
370
     0
100
AcDbVertex
100
AcDb2dVertex
 10
367.803217138952
 20
31.36690537410272
 30
0.0
  0
VERTEX
  5
1D7
330
1C7
100
AcDbEntity
  8
\U+30EC\U+30A4\U+30E4\U+30FC 1
370
     0
100
AcDbVertex
100
AcDb2dVertex
 10
368.8725747775736
 20
31.36690537410272
 30
0.0
  0
VERTEX
  5
1D8
330
1C7
100
AcDbEntity
  8
\U+30EC\U+30A4\U+30E4\U+30FC 1
370
     0
100
AcDbVertex
100
AcDb2dVertex
 10
368.8725747775736
 20
32.8379611463044
 30
0.0
  0
SEQEND
  5
1D9
330
1C7
100
AcDbEntity
  8
\U+30EC\U+30A4\U+30E4\U+30FC 1
370
     0
  0
SPLINE
  5
1DA
330
1F
100
AcDbEntity
  8
\U+30EC\U+30A4\U+30E4\U+30FC 1
370
     0
100
AcDbSpline
210
0.0
220
0.0
230
1.0
 70
    11
 71
     3
 72
    59
 73
    55
 74
     0
 42
0.0000000001
 43
0.0000000001
 40
0.0
 40
0.0
 40
0.0
 40
0.0
 40
1.0
 40
1.0
 40
1.0
 40
2.0
 40
2.0
 40
2.0
 40
3.0
 40
3.0
 40
3.0
 40
4.0
 40
4.0
 40
4.0
 40
5.0
 40
5.0
 40
5.0
 40
6.0
 40
6.0
 40
6.0
 40
7.0
 40
7.0
 40
7.0
 40
8.0
 40
8.0
 40
8.0
 40
9.0
 40
9.0
 40
9.0
 40
10.0
 40
10.0
 40
10.0
 40
11.0
 40
11.0
 40
11.0
 40
12.0
 40
12.0
 40
12.0
 40
13.0
 40
13.0
 40
13.0
 40
14.0
 40
14.0
 40
14.0
 40
15.0
 40
15.0
 40
15.0
 40
16.0
 40
16.0
 40
16.0
 40
17.0
 40
17.0
 40
17.0
 40
18.0
 40
18.0
 40
18.0
 40
18.0
 10
367.1093749082227
 20
27.21143119979437
 30
0.0
 10
367.1093749082227
 20
27.21143119979437
 30
0.0
 10
366.2081379292813
 20
27.21143119979437
 30
0.0
 10
366.2081379292813
 20
27.21143119979437
 30
0.0
 10
366.2081379292813
 20
27.21143119979437
 30
0.0
 10
366.2081379292813
 20
29.19442816110417
 30
0.0
 10
366.2081379292813
 20
29.19442816110417
 30
0.0
 10
365.9642251689256
 20
28.98634439379508
 30
0.0
 10
365.7981715665366
 20
28.86714409000544
 30
0.0
 10
365.5776854554806
 20
28.71969400323674
 30
0.0
 10
365.5776854554806
 20
28.71969400323674
 30
0.0
 10
365.3530652298423
 20
29.7697591071409
 30
0.0
 10
365.3530652298423
 20
29.7697591071409
 30
0.0
 10
366.0172796393985
 20
30.16732312613873
 30
0.0
 10
366.5636717833591
 20
30.80190971452175
 30
0.0
 10
366.7593532069213
 20
31.19396158074318
 30
0.0
 10
366.7593532069213
 20
31.19396158074318
 30
0.0
 10
365.459863189885
 20
31.19396158074318
 30
0.0
 10
365.459863189885
 20
31.19396158074318
 30
0.0
 10
365.459863189885
 20
31.19396158074318
 30
0.0
 10
365.459863189885
 20
32.02560763088249
 30
0.0
 10
365.459863189885
 20
32.02560763088249
 30
0.0
 10
365.459863189885
 20
32.02560763088249
 30
0.0
 10
366.2081379292813
 20
32.02560763088249
 30
0.0
 10
366.2081379292813
 20
32.02560763088249
 30
0.0
 10
366.2081379292813
 20
32.02560763088249
 30
0.0
 10
366.2081379292813
 20
32.84416231817785
 30
0.0
 10
366.2081379292813
 20
32.84416231817785
 30
0.0
 10
366.2081379292813
 20
32.84416231817785
 30
0.0
 10
367.1093749082227
 20
32.84416231817785
 30
0.0
 10
367.1093749082227
 20
32.84416231817785
 30
0.0
 10
367.1093749082227
 20
32.84416231817785
 30
0.0
 10
367.1093749082227
 20
32.02560763088249
 30
0.0
 10
367.1093749082227
 20
32.02560763088249
 30
0.0
 10
367.1093749082227
 20
32.02560763088249
 30
0.0
 10
367.7150226945296
 20
32.02560763088249
 30
0.0
 10
367.7150226945296
 20
32.02560763088249
 30
0.0
 10
367.7150226945296
 20
32.02560763088249
 30
0.0
 10
367.7150226945296
 20
31.18844942796678
 30
0.0
 10
367.7150226945296
 20
31.18844942796678
 30
0.0
 10
367.6268282501072
 20
30.97485350788129
 30
0.0
 10
367.513140099094
 20
30.71922742287575
 30
0.0
 10
367.2464897085356
 20
30.33337672852777
 30
0.0
 10
367.5730847605373
 20
29.97164170257653
 30
0.0
 10
367.8638508194924
 20
29.79938692831404
 30
0.0
 10
368.0533310711811
 20
29.6925889682713
 30
0.0
 10
368.0533310711811
 20
29.6925889682713
 30
0.0
 10
367.6082247344868
 20
28.84991861257919
 30
0.0
 10
367.6082247344868
 20
28.84991861257919
 30
0.0
 10
367.4359699602244
 20
29.00977104309478
 30
0.0
 10
367.2995441790085
 20
29.15239799618412
 30
0.0
 10
367.1093749082227
 20
29.41904838674246
 30
0.0
 10
367.1093749082227
 20
29.41904838674246
 30
0.0
 10
367.1093749082227
 20
27.21143119979437
 30
0.0
 10
367.1093749082227
 20
27.21143119979437
 30
0.0
  0
HATCH
  5
1DB
330
1F
100
AcDbEntity
  8
\U+30EC\U+30A4\U+30E4\U+30FC 1
 62
     7
420
 16777215
100
AcDbHatch
 10
0.0
 20
0.0
 30
0.0
210
0.0
220
0.0
230
1.0
  2
SOLID
 70
     1
 71
     0
 91
        2
 92
        1
 93
       16
 72
     1
 10
368.8725747775736
 20
32.8379611463044
 11
369.7993054631057
 21
32.8379611463044
 72
     1
 10
369.7993054631057
 20
32.8379611463044
 11
369.7993054631057
 21
31.36690537410272
 72
     1
 10
369.7993054631057
 20
31.36690537410272
 11
370.9499673551792
 21
31.36690537410272
 72
     1
 10
370.9499673551792
 20
31.36690537410272
 11
370.9499673551792
 21
30.45188801322036
 72
     1
 10
370.9499673551792
 20
30.45188801322036
 11
369.7993054631057
 21
30.45188801322036
 72
     1
 10
369.7993054631057
 20
30.45188801322036
 11
369.7993054631057
 21
28.27941080022181
 72
     1
 10
369.7993054631057
 20
28.27941080022181
 11
371.0388508186986
 21
28.27941080022181
 72
     1
 10
371.0388508186986
 20
28.27941080022181
 11
371.0388508186986
 21
27.37748480218341
 72
     1
 10
371.0388508186986
 20
27.37748480218341
 11
367.513140099094
 21
27.37748480218341
 72
     1
 10
367.513140099094
 20
27.37748480218341
 11
367.513140099094
 21
28.27941080022181
 72
     1
 10
367.513140099094
 20
28.27941080022181
 11
368.8725747775736
 21
28.27941080022181
 72
     1
 10
368.8725747775736
 20
28.27941080022181
 11
368.8725747775736
 21
30.45188801322036
 72
     1
 10
368.8725747775736
 20
30.45188801322036
 11
367.803217138952
 21
30.45188801322036
 72
     1
 10
367.803217138952
 20
30.45188801322036
 11
367.803217138952
 21
31.36690537410272
 72
     1
 10
367.803217138952
 20
31.36690537410272
 11
368.8725747775736
 21
31.36690537410272
 72
     1
 10
368.8725747775736
 20
31.36690537410272
 11
368.8725747775736
 21
32.8379611463044
 97
        0
 92
        1
 93
        2
 72
     4
 94
        3
 73
     0
 74
     0
 95
       59
 96
       55
 40
0.0
 40
0.0
 40
0.0
 40
0.0
 40
0.3527777776895833
 40
0.3527777776895833
 40
0.3527777776895833
 40
0.7055555553791667
 40
0.7055555553791667
 40
0.7055555553791667
 40
1.05833333306875
 40
1.05833333306875
 40
1.05833333306875
 40
1.411111110758333
 40
1.411111110758333
 40
1.411111110758333
 40
1.763888888447917
 40
1.763888888447917
 40
1.763888888447917
 40
2.1166666661375
 40
2.1166666661375
 40
2.1166666661375
 40
2.469444443827083
 40
2.469444443827083
 40
2.469444443827083
 40
2.822222221516667
 40
2.822222221516667
 40
2.822222221516667
 40
3.17499999920625
 40
3.17499999920625
 40
3.17499999920625
 40
3.527777776895833
 40
3.527777776895833
 40
3.527777776895833
 40
3.880555554585417
 40
3.880555554585417
 40
3.880555554585417
 40
4.233333332275
 40
4.233333332275
 40
4.233333332275
 40
4.586111109964584
 40
4.586111109964584
 40
4.586111109964584
 40
4.938888887654167
 40
4.938888887654167
 40
4.938888887654167
 40
5.29166666534375
 40
5.29166666534375
 40
5.29166666534375
 40
5.644444443033334
 40
5.644444443033334
 40
5.644444443033334
 40
5.997222220722917
 40
5.997222220722917
 40
5.997222220722917
 40
6.349999998412501
 40
6.349999998412501
 40
6.349999998412501
 40
6.349999998412501
 10
367.1093749082227
 20
27.21143119979437
 10
367.1093749082227
 20
27.21143119979437
 10
366.2081379292813
 20
27.21143119979437
 10
366.2081379292813
 20
27.21143119979437
 10
366.2081379292813
 20
27.21143119979437
 10
366.2081379292813
 20
29.19442816110417
 10
366.2081379292813
 20
29.19442816110417
 10
365.9642251689256
 20
28.98634439379508
 10
365.7981715665366
 20
28.86714409000544
 10
365.5776854554806
 20
28.71969400323674
 10
365.5776854554806
 20
28.71969400323674
 10
365.3530652298423
 20
29.7697591071409
 10
365.3530652298423
 20
29.7697591071409
 10
366.0172796393985
 20
30.16732312613873
 10
366.5636717833591
 20
30.80190971452175
 10
366.7593532069213
 20
31.19396158074318
 10
366.7593532069213
 20
31.19396158074318
 10
365.459863189885
 20
31.19396158074318
 10
365.459863189885
 20
31.19396158074318
 10
365.459863189885
 20
31.19396158074318
 10
365.459863189885
 20
32.02560763088249
 10
365.459863189885
 20
32.02560763088249
 10
365.459863189885
 20
32.02560763088249
 10
366.2081379292813
 20
32.02560763088249
 10
366.2081379292813
 20
32.02560763088249
 10
366.2081379292813
 20
32.02560763088249
 10
366.2081379292813
 20
32.84416231817785
 10
366.2081379292813
 20
32.84416231817785
 10
366.2081379292813
 20
32.84416231817785
 10
367.1093749082227
 20
32.84416231817785
 10
367.1093749082227
 20
32.84416231817785
 10
367.1093749082227
 20
32.84416231817785
 10
367.1093749082227
 20
32.02560763088249
 10
367.1093749082227
 20
32.02560763088249
 10
367.1093749082227
 20
32.02560763088249
 10
367.7150226945296
 20
32.02560763088249
 10
367.7150226945296
 20
32.02560763088249
 10
367.7150226945296
 20
32.02560763088249
 10
367.7150226945296
 20
31.18844942796678
 10
367.7150226945296
 20
31.18844942796678
 10
367.6268282501072
 20
30.97485350788129
 10
367.513140099094
 20
30.71922742287575
 10
367.2464897085356
 20
30.33337672852777
 10
367.5730847605373
 20
29.97164170257653
 10
367.8638508194924
 20
29.79938692831404
 10
368.0533310711811
 20
29.6925889682713
 10
368.0533310711811
 20
29.6925889682713
 10
367.6082247344868
 20
28.84991861257919
 10
367.6082247344868
 20
28.84991861257919
 10
367.4359699602244
 20
29.00977104309478
 10
367.2995441790085
 20
29.15239799618412
 10
367.1093749082227
 20
29.41904838674246
 10
367.1093749082227
 20
29.41904838674246
 10
367.1093749082227
 20
27.21143119979437
 10
367.1093749082227
 20
27.21143119979437
 72
     1
 10
367.1093749082227
 20
27.21143119979437
 11
367.1093749082227
 21
27.21143119979437
 97
        0
 75
     2
 76
     1
 98
        0
  0
SPLINE
  5
1DC
330
1F
100
AcDbEntity
  8
\U+30EC\U+30A4\U+30E4\U+30FC 1
370
     0
100
AcDbSpline
210
0.0
220
0.0
230
1.0
 70
    11
 71
     3
 72
    47
 73
    43
 74
     0
 42
0.0000000001
 43
0.0000000001
 40
0.0
 40
0.0
 40
0.0
 40
0.0
 40
1.0
 40
1.0
 40
1.0
 40
2.0
 40
2.0
 40
2.0
 40
3.0
 40
3.0
 40
3.0
 40
4.0
 40
4.0
 40
4.0
 40
5.0
 40
5.0
 40
5.0
 40
6.0
 40
6.0
 40
6.0
 40
7.0
 40
7.0
 40
7.0
 40
8.0
 40
8.0
 40
8.0
 40
9.0
 40
9.0
 40
9.0
 40
10.0
 40
10.0
 40
10.0
 40
11.0
 40
11.0
 40
11.0
 40
12.0
 40
12.0
 40
12.0
 40
13.0
 40
13.0
 40
13.0
 40
14.0
 40
14.0
 40
14.0
 40
14.0
 10
373.5496364083487
 20
30.62414278748285
 30
0.0
 10
374.0133462606634
 20
30.43466253579411
 30
0.0
 10
374.3571667900913
 20
30.26240776153162
 30
0.0
 10
374.7836696111652
 20
29.94132486230634
 30
0.0
 10
375.0337835433943
 20
30.29203558270477
 30
0.0
 10
375.194324993007
 20
30.6303439593563
 30
0.0
 10
375.3417750797757
 20
31.15262043492018
 30
0.0
 10
375.3417750797757
 20
31.15262043492018
 30
0.0
 10
373.6268065472183
 20
31.15262043492018
 30
0.0
 10
373.6268065472183
 20
31.15262043492018
 30
0.0
 10
373.1527614084479
 20
30.55317382048671
 30
0.0
 10
372.6353080665634
 20
30.10186631191898
 30
0.0
 10
372.0248371465771
 20
29.7518446106176
 30
0.0
 10
372.0248371465771
 20
29.7518446106176
 30
0.0
 10
371.4191893602702
 20
30.43948566947346
 30
0.0
 10
371.4191893602702
 20
30.43948566947346
 30
0.0
 10
372.5174858009678
 20
31.02790797835414
 30
0.0
 10
373.0459634484052
 20
31.7513780302566
 30
0.0
 10
373.4311251236561
 20
32.74287651091151
 30
0.0
 10
373.4311251236561
 20
32.74287651091151
 30
0.0
 10
374.4460502536107
 20
32.61196288247201
 30
0.0
 10
374.4460502536107
 20
32.61196288247201
 30
0.0
 10
374.3743922675175
 20
32.39905598148357
 30
0.0
 10
374.3275389689181
 20
32.28605684956737
 30
0.0
 10
374.1966253404786
 20
32.01940645900904
 30
0.0
 10
374.1966253404786
 20
32.01940645900904
 30
0.0
 10
376.5117295065666
 20
32.01940645900904
 30
0.0
 10
376.5117295065666
 20
32.01940645900904
 30
0.0
 10
376.1079643156953
 20
29.46038953256546
 30
0.0
 10
374.766444133739
 20
27.97693141661688
 30
0.0
 10
372.2914875371355
 20
27.39471027960966
 30
0.0
 10
372.2914875371355
 20
27.39471027960966
 30
0.0
 10
371.7871255580949
 20
28.24495984536932
 30
0.0
 10
371.7871255580949
 20
28.24495984536932
 30
0.0
 10
372.1667750805694
 20
28.30972764049201
 30
0.0
 10
373.099017918878
 20
28.4640679182312
 30
0.0
 10
374.0960285523093
 20
29.23508028783012
 30
0.0
 10
373.5792642295219
 20
29.6512478224483
 30
0.0
 10
373.1637857140007
 20
29.85864257066034
 30
0.0
 10
372.9205619727421
 20
29.98266600812934
 30
0.0
 10
372.9205619727421
 20
29.98266600812934
 30
0.0
 10
373.5496364083487
 20
30.62414278748285
 30
0.0
 10
373.5496364083487
 20
30.62414278748285
 30
0.0
  0
HATCH
  5
1DD
330
1F
100
AcDbEntity
  8
\U+30EC\U+30A4\U+30E4\U+30FC 1
 62
     7
420
 16777215
100
AcDbHatch
 10
0.0
 20
0.0
 30
0.0
210
0.0
220
0.0
230
1.0
  2
SOLID
 70
     1
 71
     0
 91
        1
 92
        1
 93
        1
 72
     4
 94
        3
 73
     0
 74
     1
 95
       47
 96
       43
 40
0.0
 40
0.0
 40
0.0
 40
0.0
 40
1.0
 40
1.0
 40
1.0
 40
2.0
 40
2.0
 40
2.0
 40
3.0
 40
3.0
 40
3.0
 40
4.0
 40
4.0
 40
4.0
 40
5.0
 40
5.0
 40
5.0
 40
6.0
 40
6.0
 40
6.0
 40
7.0
 40
7.0
 40
7.0
 40
8.0
 40
8.0
 40
8.0
 40
9.0
 40
9.0
 40
9.0
 40
10.0
 40
10.0
 40
10.0
 40
11.0
 40
11.0
 40
11.0
 40
12.0
 40
12.0
 40
12.0
 40
13.0
 40
13.0
 40
13.0
 40
14.0
 40
14.0
 40
14.0
 40
14.0
 10
373.5496364083487
 20
30.62414278748285
 10
374.0133462606634
 20
30.43466253579411
 10
374.3571667900913
 20
30.26240776153162
 10
374.7836696111652
 20
29.94132486230634
 10
375.0337835433943
 20
30.29203558270477
 10
375.194324993007
 20
30.6303439593563
 10
375.3417750797757
 20
31.15262043492018
 10
375.3417750797757
 20
31.15262043492018
 10
373.6268065472183
 20
31.15262043492018
 10
373.6268065472183
 20
31.15262043492018
 10
373.1527614084479
 20
30.55317382048671
 10
372.6353080665634
 20
30.10186631191898
 10
372.0248371465771
 20
29.7518446106176
 10
372.0248371465771
 20
29.7518446106176
 10
371.4191893602702
 20
30.43948566947346
 10
371.4191893602702
 20
30.43948566947346
 10
372.5174858009678
 20
31.02790797835414
 10
373.0459634484052
 20
31.7513780302566
 10
373.4311251236561
 20
32.74287651091151
 10
373.4311251236561
 20
32.74287651091151
 10
374.4460502536107
 20
32.61196288247201
 10
374.4460502536107
 20
32.61196288247201
 10
374.3743922675175
 20
32.39905598148357
 10
374.3275389689181
 20
32.28605684956737
 10
374.1966253404786
 20
32.01940645900904
 10
374.1966253404786
 20
32.01940645900904
 10
376.5117295065666
 20
32.01940645900904
 10
376.5117295065666
 20
32.01940645900904
 10
376.1079643156953
 20
29.46038953256546
 10
374.766444133739
 20
27.97693141661688
 10
372.2914875371355
 20
27.39471027960966
 10
372.2914875371355
 20
27.39471027960966
 10
371.7871255580949
 20
28.24495984536932
 10
371.7871255580949
 20
28.24495984536932
 10
372.1667750805694
 20
28.30972764049201
 10
373.099017918878
 20
28.4640679182312
 10
374.0960285523093
 20
29.23508028783012
 10
373.5792642295219
 20
29.6512478224483
 10
373.1637857140007
 20
29.85864257066034
 10
372.9205619727421
 20
29.98266600812934
 10
372.9205619727421
 20
29.98266600812934
 10
373.5496364083487
 20
30.62414278748285
 10
373.5496364083487
 20
30.62414278748285
 97
        0
 75
     2
 76
     1
 98
        0
  0
SPLINE
  5
1DE
330
1F
100
AcDbEntity
  8
\U+30EC\U+30A4\U+30E4\U+30FC 1
370
     0
100
AcDbSpline
210
0.0
220
0.0
230
1.0
 70
    11
 71
     3
 72
    68
 73
    64
 74
     0
 42
0.0000000001
 43
0.0000000001
 40
0.0
 40
0.0
 40
0.0
 40
0.0
 40
1.0
 40
1.0
 40
1.0
 40
2.0
 40
2.0
 40
2.0
 40
3.0
 40
3.0
 40
3.0
 40
4.0
 40
4.0
 40
4.0
 40
5.0
 40
5.0
 40
5.0
 40
6.0
 40
6.0
 40
6.0
 40
7.0
 40
7.0
 40
7.0
 40
8.0
 40
8.0
 40
8.0
 40
9.0
 40
9.0
 40
9.0
 40
10.0
 40
10.0
 40
10.0
 40
11.0
 40
11.0
 40
11.0
 40
12.0
 40
12.0
 40
12.0
 40
13.0
 40
13.0
 40
13.0
 40
14.0
 40
14.0
 40
14.0
 40
15.0
 40
15.0
 40
15.0
 40
16.0
 40
16.0
 40
16.0
 40
17.0
 40
17.0
 40
17.0
 40
18.0
 40
18.0
 40
18.0
 40
19.0
 40
19.0
 40
19.0
 40
20.0
 40
20.0
 40
20.0
 40
21.0
 40
21.0
 40
21.0
 40
21.0
 10
382.0500650086541
 20
31.62804361188466
 30
0.0
 10
382.0500650086541
 20
31.62804361188466
 30
0.0
 10
382.0500650086541
 20
30.71922742287575
 30
0.0
 10
382.0500650086541
 20
30.71922742287575
 30
0.0
 10
382.0500650086541
 20
30.09015298726913
 30
0.0
 10
381.9963215190843
 20
28.87954643375234
 30
0.0
 10
381.8888345399445
 20
28.40481227588491
 30
0.0
 10
381.6938421354793
 20
27.5442274236695
 30
0.0
 10
381.1949923092151
 20
27.4670572847999
 30
0.0
 10
380.6665146617779
 20
27.4670572847999
 30
0.0
 10
380.0849825438677
 20
27.4670572847999
 30
0.0
 10
379.7935274658155
 20
27.5318250799226
 30
0.0
 10
379.6398762071734
 20
27.5676540729692
 30
0.0
 10
379.6398762071734
 20
27.5676540729692
 30
0.0
 10
379.5868217367005
 20
28.49920789218076
 30
0.0
 10
379.5868217367005
 20
28.49920789218076
 30
0.0
 10
379.8059298095624
 20
28.45855576545481
 30
0.0
 10
380.1387260334375
 20
28.39861110401146
 30
0.0
 10
380.4942598875153
 20
28.39861110401146
 30
0.0
 10
380.778824774597
 20
28.39861110401146
 30
0.0
 10
380.8918239065132
 20
28.4640679182312
 30
0.0
 10
380.9517685679565
 20
28.6239203487468
 30
0.0
 10
381.0516763370288
 20
28.94431422887503
 30
0.0
 10
381.0992186547252
 20
30.28514539173427
 30
0.0
 10
381.0992186547252
 20
30.42846136392066
 30
0.0
 10
381.0992186547252
 20
30.42846136392066
 30
0.0
 10
381.0992186547252
 20
30.7378309384961
 30
0.0
 10
381.0992186547252
 20
30.7378309384961
 30
0.0
 10
381.0992186547252
 20
30.7378309384961
 30
0.0
 10
379.8059298095624
 20
30.7378309384961
 30
0.0
 10
379.8059298095624
 20
30.7378309384961
 30
0.0
 10
379.6812173529964
 20
30.01298284839953
 30
0.0
 10
379.4855359294342
 20
29.49070637283566
 30
0.0
 10
379.2595376656018
 20
29.07522785731453
 30
0.0
 10
378.7138345407382
 20
28.06581488013633
 30
0.0
 10
377.9896754697387
 20
27.6145073715686
 30
0.0
 10
377.6927082389102
 20
27.43053927265625
 30
0.0
 10
377.6927082389102
 20
27.43053927265625
 30
0.0
 10
377.0395181349068
 20
28.14918619087937
 30
0.0
 10
377.0395181349068
 20
28.14918619087937
 30
0.0
 10
378.2391003828708
 20
28.81340060043554
 30
0.0
 10
378.6063475615985
 20
29.56236435892885
 30
0.0
 10
378.8199434816839
 20
30.7378309384961
 30
0.0
 10
378.8199434816839
 20
30.7378309384961
 30
0.0
 10
377.3185708692121
 20
30.7378309384961
 30
0.0
 10
377.3185708692121
 20
30.7378309384961
 30
0.0
 10
377.3185708692121
 20
30.7378309384961
 30
0.0
 10
377.3185708692121
 20
31.62804361188466
 30
0.0
 10
377.3185708692121
 20
31.62804361188466
 30
0.0
 10
377.3185708692121
 20
31.62804361188466
 30
0.0
 10
378.9274304608237
 20
31.62804361188466
 30
0.0
 10
378.9274304608237
 20
31.62804361188466
 30
0.0
 10
378.9563692628998
 20
32.02560763088249
 30
0.0
 10
378.9632594538703
 20
32.27434352491753
 30
0.0
 10
378.9632594538703
 20
32.65468206648911
 30
0.0
 10
378.9632594538703
 20
32.65468206648911
 30
0.0
 10
379.965782240078
 20
32.64227972274221
 30
0.0
 10
379.965782240078
 20
32.64227972274221
 30
0.0
 10
379.9478677435547
 20
32.13171657182819
 30
0.0
 10
379.9306422661285
 20
31.92432182361614
 30
0.0
 10
379.9072156168288
 20
31.62804361188466
 30
0.0
 10
379.9072156168288
 20
31.62804361188466
 30
0.0
 10
382.0500650086541
 20
31.62804361188466
 30
0.0
 10
382.0500650086541
 20
31.62804361188466
 30
0.0
  0
HATCH
  5
1DF
330
1F
100
AcDbEntity
  8
\U+30EC\U+30A4\U+30E4\U+30FC 1
 62
     7
420
 16777215
100
AcDbHatch
 10
0.0
 20
0.0
 30
0.0
210
0.0
220
0.0
230
1.0
  2
SOLID
 70
     1
 71
     0
 91
        1
 92
        1
 93
        1
 72
     4
 94
        3
 73
     0
 74
     1
 95
       68
 96
       64
 40
0.0
 40
0.0
 40
0.0
 40
0.0
 40
1.0
 40
1.0
 40
1.0
 40
2.0
 40
2.0
 40
2.0
 40
3.0
 40
3.0
 40
3.0
 40
4.0
 40
4.0
 40
4.0
 40
5.0
 40
5.0
 40
5.0
 40
6.0
 40
6.0
 40
6.0
 40
7.0
 40
7.0
 40
7.0
 40
8.0
 40
8.0
 40
8.0
 40
9.0
 40
9.0
 40
9.0
 40
10.0
 40
10.0
 40
10.0
 40
11.0
 40
11.0
 40
11.0
 40
12.0
 40
12.0
 40
12.0
 40
13.0
 40
13.0
 40
13.0
 40
14.0
 40
14.0
 40
14.0
 40
15.0
 40
15.0
 40
15.0
 40
16.0
 40
16.0
 40
16.0
 40
17.0
 40
17.0
 40
17.0
 40
18.0
 40
18.0
 40
18.0
 40
19.0
 40
19.0
 40
19.0
 40
20.0
 40
20.0
 40
20.0
 40
21.0
 40
21.0
 40
21.0
 40
21.0
 10
382.0500650086541
 20
31.62804361188466
 10
382.0500650086541
 20
31.62804361188466
 10
382.0500650086541
 20
30.71922742287575
 10
382.0500650086541
 20
30.71922742287575
 10
382.0500650086541
 20
30.09015298726913
 10
381.9963215190843
 20
28.87954643375234
 10
381.8888345399445
 20
28.40481227588491
 10
381.6938421354793
 20
27.5442274236695
 10
381.1949923092151
 20
27.4670572847999
 10
380.6665146617779
 20
27.4670572847999
 10
380.0849825438677
 20
27.4670572847999
 10
379.7935274658155
 20
27.5318250799226
 10
379.6398762071734
 20
27.5676540729692
 10
379.6398762071734
 20
27.5676540729692
 10
379.5868217367005
 20
28.49920789218076
 10
379.5868217367005
 20
28.49920789218076
 10
379.8059298095624
 20
28.45855576545481
 10
380.1387260334375
 20
28.39861110401146
 10
380.4942598875153
 20
28.39861110401146
 10
380.778824774597
 20
28.39861110401146
 10
380.8918239065132
 20
28.4640679182312
 10
380.9517685679565
 20
28.6239203487468
 10
381.0516763370288
 20
28.94431422887503
 10
381.0992186547252
 20
30.28514539173427
 10
381.0992186547252
 20
30.42846136392066
 10
381.0992186547252
 20
30.42846136392066
 10
381.0992186547252
 20
30.7378309384961
 10
381.0992186547252
 20
30.7378309384961
 10
381.0992186547252
 20
30.7378309384961
 10
379.8059298095624
 20
30.7378309384961
 10
379.8059298095624
 20
30.7378309384961
 10
379.6812173529964
 20
30.01298284839953
 10
379.4855359294342
 20
29.49070637283566
 10
379.2595376656018
 20
29.07522785731453
 10
378.7138345407382
 20
28.06581488013633
 10
377.9896754697387
 20
27.6145073715686
 10
377.6927082389102
 20
27.43053927265625
 10
377.6927082389102
 20
27.43053927265625
 10
377.0395181349068
 20
28.14918619087937
 10
377.0395181349068
 20
28.14918619087937
 10
378.2391003828708
 20
28.81340060043554
 10
378.6063475615985
 20
29.56236435892885
 10
378.8199434816839
 20
30.7378309384961
 10
378.8199434816839
 20
30.7378309384961
 10
377.3185708692121
 20
30.7378309384961
 10
377.3185708692121
 20
30.7378309384961
 10
377.3185708692121
 20
30.7378309384961
 10
377.3185708692121
 20
31.62804361188466
 10
377.3185708692121
 20
31.62804361188466
 10
377.3185708692121
 20
31.62804361188466
 10
378.9274304608237
 20
31.62804361188466
 10
378.9274304608237
 20
31.62804361188466
 10
378.9563692628998
 20
32.02560763088249
 10
378.9632594538703
 20
32.27434352491753
 10
378.9632594538703
 20
32.65468206648911
 10
378.9632594538703
 20
32.65468206648911
 10
379.965782240078
 20
32.64227972274221
 10
379.965782240078
 20
32.64227972274221
 10
379.9478677435547
 20
32.13171657182819
 10
379.9306422661285
 20
31.92432182361614
 10
379.9072156168288
 20
31.62804361188466
 10
379.9072156168288
 20
31.62804361188466
 10
382.0500650086541
 20
31.62804361188466
 10
382.0500650086541
 20
31.62804361188466
 97
        0
 75
     2
 76
     1
 98
        0
  0
SPLINE
  5
1E0
330
1F
100
AcDbEntity
  8
\U+30EC\U+30A4\U+30E4\U+30FC 1
370
     0
100
AcDbSpline
210
0.0
220
0.0
230
1.0
 70
    11
 71
     3
 72
    17
 73
    13
 74
     0
 42
0.0000000001
 43
0.0000000001
 40
0.0
 40
0.0
 40
0.0
 40
0.0
 40
1.0
 40
1.0
 40
1.0
 40
2.0
 40
2.0
 40
2.0
 40
3.0
 40
3.0
 40
3.0
 40
4.0
 40
4.0
 40
4.0
 40
4.0
 10
383.1710990795544
 20
28.50472004495715
 30
0.0
 10
385.0404078898511
 20
28.6721516855403
 30
0.0
 10
386.3467880978578
 20
29.01528319587118
 30
0.0
 10
387.1543184796003
 20
31.7224392281805
 30
0.0
 10
387.1543184796003
 20
31.7224392281805
 30
0.0
 10
388.0500433057653
 20
31.29524738800952
 30
0.0
 10
388.0500433057653
 20
31.29524738800952
 30
0.0
 10
387.0888616653806
 20
28.43995224983446
 30
0.0
 10
385.6281411796347
 20
27.75162217188154
 30
0.0
 10
383.4315482982394
 20
27.48428276222615
 30
0.0
 10
383.4315482982394
 20
27.48428276222615
 30
0.0
 10
383.1710990795544
 20
28.50472004495715
 30
0.0
 10
383.1710990795544
 20
28.50472004495715
 30
0.0
  0
SPLINE
  5
1E1
330
1F
100
AcDbEntity
  8
\U+30EC\U+30A4\U+30E4\U+30FC 1
370
     0
100
AcDbSpline
210
0.0
220
0.0
230
1.0
 70
    11
 71
     3
 72
    17
 73
    13
 74
     0
 42
0.0000000001
 43
0.0000000001
 40
0.0
 40
0.0
 40
0.0
 40
0.0
 40
1.0
 40
1.0
 40
1.0
 40
2.0
 40
2.0
 40
2.0
 40
3.0
 40
3.0
 40
3.0
 40
4.0
 40
4.0
 40
4.0
 40
4.0
 10
384.6077038969037
 20
29.633333325925
 30
0.0
 10
384.0971407459896
 20
29.91789821300664
 30
0.0
 10
383.4852917878093
 20
30.15492078239183
 30
0.0
 10
382.8569063712997
 20
30.32786457575137
 30
0.0
 10
382.8569063712997
 20
30.32786457575137
 30
0.0
 10
383.1890135760777
 20
31.12230359464998
 30
0.0
 10
383.1890135760777
 20
31.12230359464998
 30
0.0
 10
383.6520344092954
 20
31.02790797835414
 30
0.0
 10
384.405821301468
 20
30.79088540896895
 30
0.0
 10
384.9701279419519
 20
30.48220485349056
 30
0.0
 10
384.9701279419519
 20
30.48220485349056
 30
0.0
 10
384.6077038969037
 20
29.633333325925
 30
0.0
 10
384.6077038969037
 20
29.633333325925
 30
0.0
  0
SPLINE
  5
1E2
330
1F
100
AcDbEntity
  8
\U+30EC\U+30A4\U+30E4\U+30FC 1
370
     0
100
AcDbSpline
210
0.0
220
0.0
230
1.0
 70
    11
 71
     3
 72
    17
 73
    13
 74
     0
 42
0.0000000001
 43
0.0000000001
 40
0.0
 40
0.0
 40
0.0
 40
0.0
 40
1.0
 40
1.0
 40
1.0
 40
2.0
 40
2.0
 40
2.0
 40
3.0
 40
3.0
 40
3.0
 40
4.0
 40
4.0
 40
4.0
 40
4.0
 10
385.1299803724675
 20
31.06304795230368
 30
0.0
 10
384.5539604073338
 20
31.36070420222927
 30
0.0
 10
383.937288315474
 20
31.56189777856786
 30
0.0
 10
383.3137260326438
 20
31.71623805630705
 30
0.0
 10
383.3137260326438
 20
31.71623805630705
 30
0.0
 10
383.6520344092954
 20
32.50516492242927
 30
0.0
 10
383.6520344092954
 20
32.50516492242927
 30
0.0
 10
384.2156520306822
 20
32.39905598148357
 30
0.0
 10
384.9280977770319
 20
32.18546006139808
 30
0.0
 10
385.5041177421656
 20
31.90640732709284
 30
0.0
 10
385.5041177421656
 20
31.90640732709284
 30
0.0
 10
385.1299803724675
 20
31.06304795230368
 30
0.0
 10
385.1299803724675
 20
31.06304795230368
 30
0.0
  0
HATCH
  5
1E3
330
1F
100
AcDbEntity
  8
\U+30EC\U+30A4\U+30E4\U+30FC 1
 62
     7
420
 16777215
100
AcDbHatch
 10
0.0
 20
0.0
 30
0.0
210
0.0
220
0.0
230
1.0
  2
SOLID
 70
     1
 71
     0
 91
        3
 92
        1
 93
        1
 72
     4
 94
        3
 73
     0
 74
     1
 95
       17
 96
       13
 40
0.0
 40
0.0
 40
0.0
 40
0.0
 40
1.0
 40
1.0
 40
1.0
 40
2.0
 40
2.0
 40
2.0
 40
3.0
 40
3.0
 40
3.0
 40
4.0
 40
4.0
 40
4.0
 40
4.0
 10
383.1710990795544
 20
28.50472004495715
 10
385.0404078898511
 20
28.6721516855403
 10
386.3467880978578
 20
29.01528319587118
 10
387.1543184796003
 20
31.7224392281805
 10
387.1543184796003
 20
31.7224392281805
 10
388.0500433057653
 20
31.29524738800952
 10
388.0500433057653
 20
31.29524738800952
 10
387.0888616653806
 20
28.43995224983446
 10
385.6281411796347
 20
27.75162217188154
 10
383.4315482982394
 20
27.48428276222615
 10
383.4315482982394
 20
27.48428276222615
 10
383.1710990795544
 20
28.50472004495715
 10
383.1710990795544
 20
28.50472004495715
 97
        0
 92
        1
 93
        2
 72
     4
 94
        3
 73
     0
 74
     0
 95
       17
 96
       13
 40
0.0
 40
0.0
 40
0.0
 40
0.0
 40
0.3527777776895833
 40
0.3527777776895833
 40
0.3527777776895833
 40
0.7055555553791667
 40
0.7055555553791667
 40
0.7055555553791667
 40
1.05833333306875
 40
1.05833333306875
 40
1.05833333306875
 40
1.411111110758333
 40
1.411111110758333
 40
1.411111110758333
 40
1.411111110758333
 10
384.6077038969037
 20
29.633333325925
 10
384.0971407459896
 20
29.91789821300664
 10
383.4852917878093
 20
30.15492078239183
 10
382.8569063712997
 20
30.32786457575137
 10
382.8569063712997
 20
30.32786457575137
 10
383.1890135760777
 20
31.12230359464998
 10
383.1890135760777
 20
31.12230359464998
 10
383.6520344092954
 20
31.02790797835414
 10
384.405821301468
 20
30.79088540896895
 10
384.9701279419519
 20
30.48220485349056
 10
384.9701279419519
 20
30.48220485349056
 10
384.6077038969037
 20
29.633333325925
 10
384.6077038969037
 20
29.633333325925
 72
     1
 10
384.6077038969037
 20
29.633333325925
 11
384.6077038969037
 21
29.633333325925
 97
        0
 92
        1
 93
        2
 72
     4
 94
        3
 73
     0
 74
     0
 95
       17
 96
       13
 40
0.0
 40
0.0
 40
0.0
 40
0.0
 40
0.3527777776895833
 40
0.3527777776895833
 40
0.3527777776895833
 40
0.7055555553791667
 40
0.7055555553791667
 40
0.7055555553791667
 40
1.05833333306875
 40
1.05833333306875
 40
1.05833333306875
 40
1.411111110758333
 40
1.411111110758333
 40
1.411111110758333
 40
1.411111110758333
 10
385.1299803724675
 20
31.06304795230368
 10
384.5539604073338
 20
31.36070420222927
 10
383.937288315474
 20
31.56189777856786
 10
383.3137260326438
 20
31.71623805630705
 10
383.3137260326438
 20
31.71623805630705
 10
383.6520344092954
 20
32.50516492242927
 10
383.6520344092954
 20
32.50516492242927
 10
384.2156520306822
 20
32.39905598148357
 10
384.9280977770319
 20
32.18546006139808
 10
385.5041177421656
 20
31.90640732709284
 10
385.5041177421656
 20
31.90640732709284
 10
385.1299803724675
 20
31.06304795230368
 10
385.1299803724675
 20
31.06304795230368
 72
     1
 10
385.1299803724675
 20
31.06304795230368
 11
385.1299803724675
 21
31.06304795230368
 97
        0
 75
     2
 76
     1
 98
        0
  0
POLYLINE
  5
1E4
330
1F
100
AcDbEntity
  8
\U+30EC\U+30A4\U+30E4\U+30FC 1
370
     0
100
AcDb2dPolyline
 66
     1
 10
0.0
 20
0.0
 30
0.0
  0
VERTEX
  5
1E5
330
1E4
100
AcDbEntity
  8
\U+30EC\U+30A4\U+30E4\U+30FC 1
370
     0
100
AcDbVertex
100
AcDb2dVertex
 10
392.2888887908167
 20
31.44338649387527
 30
0.0
  0
VERTEX
  5
1E6
330
1E4
100
AcDbEntity
  8
\U+30EC\U+30A4\U+30E4\U+30FC 1
370
     0
100
AcDbVertex
100
AcDb2dVertex
 10
392.2888887908167
 20
27.5855685694925
 30
0.0
  0
VERTEX
  5
1E7
330
1E4
100
AcDbEntity
  8
\U+30EC\U+30A4\U+30E4\U+30FC 1
370
     0
100
AcDbVertex
100
AcDb2dVertex
 10
388.6556910920722
 20
27.5855685694925
 30
0.0
  0
VERTEX
  5
1E8
330
1E4
100
AcDbEntity
  8
\U+30EC\U+30A4\U+30E4\U+30FC 1
370
     0
100
AcDbVertex
100
AcDb2dVertex
 10
388.6556910920722
 20
28.40481227588491
 30
0.0
  0
VERTEX
  5
1E9
330
1E4
100
AcDbEntity
  8
\U+30EC\U+30A4\U+30E4\U+30FC 1
370
     0
100
AcDbVertex
100
AcDb2dVertex
 10
391.3855847545842
 20
28.40481227588491
 30
0.0
  0
VERTEX
  5
1EA
330
1E4
100
AcDbEntity
  8
\U+30EC\U+30A4\U+30E4\U+30FC 1
370
     0
100
AcDbVertex
100
AcDb2dVertex
 10
391.3855847545842
 20
29.15239799618412
 30
0.0
  0
VERTEX
  5
1EB
330
1E4
100
AcDbEntity
  8
\U+30EC\U+30A4\U+30E4\U+30FC 1
370
     0
100
AcDbVertex
100
AcDb2dVertex
 10
388.8100313698114
 20
29.15239799618412
 30
0.0
  0
VERTEX
  5
1EC
330
1E4
100
AcDbEntity
  8
\U+30EC\U+30A4\U+30E4\U+30FC 1
370
     0
100
AcDbVertex
100
AcDb2dVertex
 10
388.8100313698114
 20
29.93581270952994
 30
0.0
  0
VERTEX
  5
1ED
330
1E4
100
AcDbEntity
  8
\U+30EC\U+30A4\U+30E4\U+30FC 1
370
     0
100
AcDbVertex
100
AcDb2dVertex
 10
391.3855847545842
 20
29.93581270952994
 30
0.0
  0
VERTEX
  5
1EE
330
1E4
100
AcDbEntity
  8
\U+30EC\U+30A4\U+30E4\U+30FC 1
370
     0
100
AcDbVertex
100
AcDb2dVertex
 10
391.3855847545842
 20
30.64274630310321
 30
0.0
  0
VERTEX
  5
1EF
330
1E4
100
AcDbEntity
  8
\U+30EC\U+30A4\U+30E4\U+30FC 1
370
     0
100
AcDbVertex
100
AcDb2dVertex
 10
388.7149467344185
 20
30.64274630310321
 30
0.0
  0
VERTEX
  5
1F0
330
1E4
100
AcDbEntity
  8
\U+30EC\U+30A4\U+30E4\U+30FC 1
370
     0
100
AcDbVertex
100
AcDb2dVertex
 10
388.7149467344185
 20
31.44338649387527
 30
0.0
  0
VERTEX
  5
1F1
330
1E4
100
AcDbEntity
  8
\U+30EC\U+30A4\U+30E4\U+30FC 1
370
     0
100
AcDbVertex
100
AcDb2dVertex
 10
392.2888887908167
 20
31.44338649387527
 30
0.0
  0
SEQEND
  5
1F2
330
1E4
100
AcDbEntity
  8
\U+30EC\U+30A4\U+30E4\U+30FC 1
370
     0
  0
HATCH
  5
1F3
330
1F
100
AcDbEntity
  8
\U+30EC\U+30A4\U+30E4\U+30FC 1
 62
     7
420
 16777215
100
AcDbHatch
 10
0.0
 20
0.0
 30
0.0
210
0.0
220
0.0
230
1.0
  2
SOLID
 70
     1
 71
     0
 91
        1
 92
        1
 93
       12
 72
     1
 10
392.2888887908167
 20
31.44338649387527
 11
392.2888887908167
 21
27.5855685694925
 72
     1
 10
392.2888887908167
 20
27.5855685694925
 11
388.6556910920722
 21
27.5855685694925
 72
     1
 10
388.6556910920722
 20
27.5855685694925
 11
388.6556910920722
 21
28.40481227588491
 72
     1
 10
388.6556910920722
 20
28.40481227588491
 11
391.3855847545842
 21
28.40481227588491
 72
     1
 10
391.3855847545842
 20
28.40481227588491
 11
391.3855847545842
 21
29.15239799618412
 72
     1
 10
391.3855847545842
 20
29.15239799618412
 11
388.8100313698114
 21
29.15239799618412
 72
     1
 10
388.8100313698114
 20
29.15239799618412
 11
388.8100313698114
 21
29.93581270952994
 72
     1
 10
388.8100313698114
 20
29.93581270952994
 11
391.3855847545842
 21
29.93581270952994
 72
     1
 10
391.3855847545842
 20
29.93581270952994
 11
391.3855847545842
 21
30.64274630310321
 72
     1
 10
391.3855847545842
 20
30.64274630310321
 11
388.7149467344185
 21
30.64274630310321
 72
     1
 10
388.7149467344185
 20
30.64274630310321
 11
388.7149467344185
 21
31.44338649387527
 72
     1
 10
388.7149467344185
 20
31.44338649387527
 11
392.2888887908167
 21
31.44338649387527
 97
        0
 75
     2
 76
     1
 98
        0
  0
POLYLINE
  5
1F4
330
1F
100
AcDbEntity
  8
\U+30EC\U+30A4\U+30E4\U+30FC 1
 62
     7
420
 16777215
370
    70
100
AcDb2dPolyline
 66
     1
 10
0.0
 20
0.0
 30
0.0
  0
VERTEX
  5
1F5
330
1F4
100
AcDbEntity
  8
\U+30EC\U+30A4\U+30E4\U+30FC 1
 62
     7
420
 16777215
370
    70
100
AcDbVertex
100
AcDb2dVertex
 10
393.1363822801882
 20
30.03675400724776
 30
0.0
  0
VERTEX
  5
1F6
330
1F4
100
AcDbEntity
  8
\U+30EC\U+30A4\U+30E4\U+30FC 1
 62
     7
420
 16777215
370
    70
100
AcDbVertex
100
AcDb2dVertex
 10
397.5405923485316
 20
30.03675400724776
 30
0.0
  0
SEQEND
  5
1F7
330
1F4
100
AcDbEntity
  8
\U+30EC\U+30A4\U+30E4\U+30FC 1
370
    70
  0
MTEXT
  5
1F8
330
1F
100
AcDbEntity
  8
\U+30EC\U+30A4\U+30E4\U+30FC 1
 62
     7
420
 16777215
100
AcDbMText
 10
374.6499999063375
 20
38.77661674377807
 30
0.0
 40
2.15899999946025
 41
0.0
 71
     7
 72
     1
  1
\fMSGothic 90ms-RKSJ-H|b0|i0|c0|p34;\W1;寸
 73
     1
 44
1.0
  0
MTEXT
  5
1F9
330
1F
100
AcDbEntity
  8
\U+30EC\U+30A4\U+30E4\U+30FC 1
 62
     7
420
 16777215
100
AcDbMText
 10
377.8249999055438
 20
38.77661674377807
 30
0.0
 40
2.15899999946025
 41
0.0
 71
     7
 72
     1
  1
\fMSGothic 90ms-RKSJ-H|b0|i0|c0|p34;\W1;法
 73
     1
 44
1.0
  0
MTEXT
  5
1FA
330
1F
100
AcDbEntity
  8
\U+30EC\U+30A4\U+30E4\U+30FC 1
 62
     7
420
 16777215
100
AcDbMText
 10
380.99999990475
 20
38.77661674377807
 30
0.0
 40
2.15899999946025
 41
0.0
 71
     7
 72
     1
  1
\fMSGothic 90ms-RKSJ-H|b0|i0|c0|p34;\W1;公
 73
     1
 44
1.0
  0
MTEXT
  5
1FB
330
1F
100
AcDbEntity
  8
\U+30EC\U+30A4\U+30E4\U+30FC 1
 62
     7
420
 16777215
100
AcDbMText
 10
384.1749999039563
 20
38.77661674377807
 30
0.0
 40
2.15899999946025
 41
0.0
 71
     7
 72
     1
  1
\fMSGothic 90ms-RKSJ-H|b0|i0|c0|p34;\W1;差
 73
     1
 44
1.0
  0
MTEXT
  5
1FC
330
1F
100
AcDbEntity
  8
\U+30EC\U+30A4\U+30E4\U+30FC 1
 62
     7
420
 16777215
100
AcDbMText
 10
387.3499999031625
 20
38.77661674377807
 30
0.0
 40
2.15899999946025
 41
0.0
 71
     7
 72
     1
  1
\fMSGothic 90ms-RKSJ-H|b0|i0|c0|p34;\W1;：
 73
     1
 44
1.0
  0
MTEXT
  5
1FD
330
1F
100
AcDbEntity
  8
\U+30EC\U+30A4\U+30E4\U+30FC 1
 62
     7
420
 16777215
100
AcDbMText
 10
390.5249999023688
 20
38.77661674377807
 30
0.0
 40
2.15899999946025
 41
0.0
 71
     7
 72
     1
  1
\fMSGothic 90ms-RKSJ-H|b0|i0|c0|p34;\W1;±
 73
     1
 44
1.0
  0
MTEXT
  5
1FE
330
1F
100
AcDbEntity
  8
\U+30EC\U+30A4\U+30E4\U+30FC 1
 62
     7
420
 16777215
100
AcDbMText
 10
393.699999901575
 20
38.77661674377807
 30
0.0
 40
2.15899999946025
 41
0.0
 71
     7
 72
     1
  1
\fMSGothic 90ms-RKSJ-H|b0|i0|c0|p34;\W1;0
 73
     1
 44
1.0
  0
MTEXT
  5
1FF
330
1F
100
AcDbEntity
  8
\U+30EC\U+30A4\U+30E4\U+30FC 1
 62
     7
420
 16777215
100
AcDbMText
 10
395.2874999011781
 20
38.77661674377807
 30
0.0
 40
2.15899999946025
 41
0.0
 71
     7
 72
     1
  1
\fMSGothic 90ms-RKSJ-H|b0|i0|c0|p34;\W1;.
 73
     1
 44
1.0
  0
MTEXT
  5
200
330
1F
100
AcDbEntity
  8
\U+30EC\U+30A4\U+30E4\U+30FC 1
 62
     7
420
 16777215
100
AcDbMText
 10
396.8749999007813
 20
38.77661674377807
 30
0.0
 40
2.15899999946025
 41
0.0
 71
     7
 72
     1
  1
\fMSGothic 90ms-RKSJ-H|b0|i0|c0|p34;\W1;5
 73
     1
 44
1.0
  0
MTEXT
  5
201
330
1F
100
AcDbEntity
  8
\U+30EC\U+30A4\U+30E4\U+30FC 1
 62
     7
420
 16777215
100
AcDbMText
 10
398.4624999003844
 20
38.77661674377807
 30
0.0
 40
2.15899999946025
 41
0.0
 71
     7
 72
     1
  1
\fMSGothic 90ms-RKSJ-H|b0|i0|c0|p34;\W1;m
 73
     1
 44
1.0
  0
MTEXT
  5
202
330
1F
100
AcDbEntity
  8
\U+30EC\U+30A4\U+30E4\U+30FC 1
 62
     7
420
 16777215
100
AcDbMText
 10
400.0499998999875
 20
38.77661674377807
 30
0.0
 40
2.15899999946025
 41
0.0
 71
     7
 72
     1
  1
\fMSGothic 90ms-RKSJ-H|b0|i0|c0|p34;\W1;m
 73
     1
 44
1.0
  0
MTEXT
  5
203
330
1F
100
AcDbEntity
  8
\U+30EC\U+30A4\U+30E4\U+30FC 1
 62
     7
420
 16777215
100
AcDbMText
 10
374.6499999063375
 20
42.28648002415061
 30
0.0
 40
2.15899999946025
 41
0.0
 71
     7
 72
     1
  1
\fMSGothic 90ms-RKSJ-H|b0|i0|c0|p34;\W1;寸
 73
     1
 44
1.0
  0
MTEXT
  5
204
330
1F
100
AcDbEntity
  8
\U+30EC\U+30A4\U+30E4\U+30FC 1
 62
     7
420
 16777215
100
AcDbMText
 10
377.8249999055438
 20
42.28648002415061
 30
0.0
 40
2.15899999946025
 41
0.0
 71
     7
 72
     1
  1
\fMSGothic 90ms-RKSJ-H|b0|i0|c0|p34;\W1;法
 73
     1
 44
1.0
  0
MTEXT
  5
205
330
1F
100
AcDbEntity
  8
\U+30EC\U+30A4\U+30E4\U+30FC 1
 62
     7
420
 16777215
100
AcDbMText
 10
380.99999990475
 20
42.28648002415061
 30
0.0
 40
2.15899999946025
 41
0.0
 71
     7
 72
     1
  1
\fMSGothic 90ms-RKSJ-H|b0|i0|c0|p34;\W1;数
 73
     1
 44
1.0
  0
MTEXT
  5
206
330
1F
100
AcDbEntity
  8
\U+30EC\U+30A4\U+30E4\U+30FC 1
 62
     7
420
 16777215
100
AcDbMText
 10
384.1749999039563
 20
42.28648002415061
 30
0.0
 40
2.15899999946025
 41
0.0
 71
     7
 72
     1
  1
\fMSGothic 90ms-RKSJ-H|b0|i0|c0|p34;\W1;値
 73
     1
 44
1.0
  0
MTEXT
  5
207
330
1F
100
AcDbEntity
  8
\U+30EC\U+30A4\U+30E4\U+30FC 1
 62
     7
420
 16777215
100
AcDbMText
 10
387.3499999031625
 20
42.28648002415061
 30
0.0
 40
2.15899999946025
 41
0.0
 71
     7
 72
     1
  1
\fMSGothic 90ms-RKSJ-H|b0|i0|c0|p34;\W1;：
 73
     1
 44
1.0
  0
MTEXT
  5
208
330
1F
100
AcDbEntity
  8
\U+30EC\U+30A4\U+30E4\U+30FC 1
 62
     7
420
 16777215
100
AcDbMText
 10
390.5249999023688
 20
42.28648002415061
 30
0.0
 40
2.15899999946025
 41
0.0
 71
     7
 72
     1
  1
\fMSGothic 90ms-RKSJ-H|b0|i0|c0|p34;\W1;m
 73
     1
 44
1.0
  0
MTEXT
  5
209
330
1F
100
AcDbEntity
  8
\U+30EC\U+30A4\U+30E4\U+30FC 1
 62
     7
420
 16777215
100
AcDbMText
 10
392.1124999019719
 20
42.28648002415061
 30
0.0
 40
2.15899999946025
 41
0.0
 71
     7
 72
     1
  1
\fMSGothic 90ms-RKSJ-H|b0|i0|c0|p34;\W1;m
 73
     1
 44
1.0
  0
MTEXT
  5
20A
330
1F
100
AcDbEntity
  8
\U+30EC\U+30A4\U+30E4\U+30FC 1
 62
     7
420
 16777215
100
AcDbMText
 10
393.699999901575
 20
42.28648002415061
 30
0.0
 40
2.15899999946025
 41
0.0
 71
     7
 72
     1
  1
\fMSGothic 90ms-RKSJ-H|b0|i0|c0|p34;\W1;表
 73
     1
 44
1.0
  0
MTEXT
  5
20B
330
1F
100
AcDbEntity
  8
\U+30EC\U+30A4\U+30E4\U+30FC 1
 62
     7
420
 16777215
100
AcDbMText
 10
396.8749999007813
 20
42.28648002415061
 30
0.0
 40
2.15899999946025
 41
0.0
 71
     7
 72
     1
  1
\fMSGothic 90ms-RKSJ-H|b0|i0|c0|p34;\W1;記
 73
     1
 44
1.0
  0
POLYLINE
  5
20C
330
1F
100
AcDbEntity
  8
\U+30EC\U+30A4\U+30E4\U+30FC 1
 62
     7
420
 16777215
370
    18
100
AcDb2dPolyline
 66
     1
 10
0.0
 20
0.0
 30
0.0
  0
VERTEX
  5
20D
330
20C
100
AcDbEntity
  8
\U+30EC\U+30A4\U+30E4\U+30FC 1
 62
     7
420
 16777215
370
    18
100
AcDbVertex
100
AcDb2dVertex
 10
253.7423067942033
 20
168.7593803831574
 30
0.0
  0
VERTEX
  5
20E
330
20C
100
AcDbEntity
  8
\U+30EC\U+30A4\U+30E4\U+30FC 1
 62
     7
420
 16777215
370
    18
100
AcDbVertex
100
AcDb2dVertex
 10
376.3095024015823
 20
168.7593803831574
 30
0.0
  0
VERTEX
  5
20F
330
20C
100
AcDbEntity
  8
\U+30EC\U+30A4\U+30E4\U+30FC 1
 62
     7
420
 16777215
370
    18
100
AcDbVertex
100
AcDb2dVertex
 10
376.3095024015823
 20
131.5868000973117
 30
0.0
  0
VERTEX
  5
210
330
20C
100
AcDbEntity
  8
\U+30EC\U+30A4\U+30E4\U+30FC 1
 62
     7
420
 16777215
370
    18
100
AcDbVertex
100
AcDb2dVertex
 10
265.4976616089728
 20
131.5868000973117
 30
0.0
  0
SEQEND
  5
211
330
20C
100
AcDbEntity
  8
\U+30EC\U+30A4\U+30E4\U+30FC 1
370
    18
  0
POLYLINE
  5
212
330
1F
100
AcDbEntity
  8
\U+30EC\U+30A4\U+30E4\U+30FC 1
 62
     7
420
 16777215
370
    18
100
AcDb2dPolyline
 66
     1
 10
0.0
 20
0.0
 30
0.0
  0
VERTEX
  5
213
330
212
100
AcDbEntity
  8
\U+30EC\U+30A4\U+30E4\U+30FC 1
 62
     7
420
 16777215
370
    18
100
AcDbVertex
100
AcDb2dVertex
 10
258.6505343320388
 20
131.5868000973117
 30
0.0
  0
VERTEX
  5
214
330
212
100
AcDbEntity
  8
\U+30EC\U+30A4\U+30E4\U+30FC 1
 62
     7
420
 16777215
370
    18
100
AcDbVertex
100
AcDb2dVertex
 10
143.9729518954304
 20
131.5868000973117
 30
0.0
  0
VERTEX
  5
215
330
212
100
AcDbEntity
  8
\U+30EC\U+30A4\U+30E4\U+30FC 1
 62
     7
420
 16777215
370
    18
100
AcDbVertex
100
AcDb2dVertex
 10
143.9729518954304
 20
168.7593803831574
 30
0.0
  0
VERTEX
  5
216
330
212
100
AcDbEntity
  8
\U+30EC\U+30A4\U+30E4\U+30FC 1
 62
     7
420
 16777215
370
    18
100
AcDbVertex
100
AcDb2dVertex
 10
247.1001626986416
 20
168.7593803831574
 30
0.0
  0
SEQEND
  5
217
330
212
100
AcDbEntity
  8
\U+30EC\U+30A4\U+30E4\U+30FC 1
370
    18
  0
SPLINE
  5
218
330
1F
100
AcDbEntity
  8
\U+30EC\U+30A4\U+30E4\U+30FC 1
 62
     7
420
 16777215
370
    18
100
AcDbSpline
210
0.0
220
0.0
230
1.0
 70
     8
 71
     3
 72
    17
 73
    13
 74
     0
 42
0.0000000001
 43
0.0000000001
 40
0.0
 40
0.0
 40
0.0
 40
0.0
 40
1.0
 40
1.0
 40
1.0
 40
2.0
 40
2.0
 40
2.0
 40
3.0
 40
3.0
 40
3.0
 40
4.0
 40
4.0
 40
4.0
 40
4.0
 10
261.3039468747782
 20
121.4447834982846
 30
0.0
 10
263.6200845695117
 20
124.7634439792258
 30
0.0
 10
265.6778401028514
 20
128.8634521162217
 30
0.0
 10
265.6778401028514
 20
135.4411729262092
 30
0.0
 10
265.6778401028514
 20
143.7548773512141
 30
0.0
 10
262.2857990880744
 20
148.1280815601902
 30
0.0
 10
259.2913220922952
 20
151.9872775227671
 30
0.0
 10
256.4260361772129
 20
155.6855875261828
 30
0.0
 10
253.7140570112243
 20
159.1806368959687
 30
0.0
 10
253.7140570112243
 20
166.2944145634611
 30
0.0
 10
253.7140570112243
 20
173.3864881293964
 30
0.0
 10
256.4094997188838
 20
176.8439859583932
 30
0.0
 10
259.26686191435
 20
180.5078450069564
 30
0.0
  0
SPLINE
  5
219
330
1F
100
AcDbEntity
  8
\U+30EC\U+30A4\U+30E4\U+30FC 1
 62
     7
420
 16777215
370
    18
100
AcDbSpline
210
0.0
220
0.0
230
1.0
 70
     8
 71
     3
 72
    17
 73
    13
 74
     0
 42
0.0000000001
 43
0.0000000001
 40
0.0
 40
0.0
 40
0.0
 40
0.0
 40
1.0
 40
1.0
 40
1.0
 40
2.0
 40
2.0
 40
2.0
 40
3.0
 40
3.0
 40
3.0
 40
4.0
 40
4.0
 40
4.0
 40
4.0
 10
251.4065320552039
 20
180.3926065629748
 30
0.0
 10
249.0618000679429
 20
177.0606824644154
 30
0.0
 10
246.987508076274
 20
172.9229505318561
 30
0.0
 10
246.987508076274
 20
166.2944145634611
 30
0.0
 10
246.987508076274
 20
157.7481661932019
 30
0.0
 10
250.42881395649
 20
153.3160508514279
 30
0.0
 10
253.468421703126
 20
149.4000108133444
 30
0.0
 10
256.4094997188838
 20
145.6028265695021
 30
0.0
 10
258.9550807729349
 20
142.3220621388986
 30
0.0
 10
258.9550807729349
 20
135.4411729262092
 30
0.0
 10
258.9550807729349
 20
128.4645100590297
 30
0.0
 10
256.3109699880056
 20
125.0366400512061
 30
0.0
 10
253.5135524539827
 20
121.4072319574954
 30
0.0
  0
POLYLINE
  5
21A
330
1F
100
AcDbEntity
  8
\U+30EC\U+30A4\U+30E4\U+30FC 1
 62
     7
420
 16777215
370
     9
100
AcDb2dPolyline
 66
     1
 10
0.0
 20
0.0
 30
0.0
  0
VERTEX
  5
21B
330
21A
100
AcDbEntity
  8
\U+30EC\U+30A4\U+30E4\U+30FC 1
 62
     7
420
 16777215
370
     9
100
AcDbVertex
100
AcDb2dVertex
 10
376.3095024015823
 20
175.1222994896396
 30
0.0
  0
VERTEX
  5
21C
330
21A
100
AcDbEntity
  8
\U+30EC\U+30A4\U+30E4\U+30FC 1
 62
     7
420
 16777215
370
     9
100
AcDbVertex
100
AcDb2dVertex
 10
376.3095024015823
 20
190.4633096854571
 30
0.0
  0
SEQEND
  5
21D
330
21A
100
AcDbEntity
  8
\U+30EC\U+30A4\U+30E4\U+30FC 1
370
     9
  0
POLYLINE
  5
21E
330
1F
100
AcDbEntity
  8
\U+30EC\U+30A4\U+30E4\U+30FC 1
 62
     7
420
 16777215
370
     9
100
AcDb2dPolyline
 66
     1
 10
0.0
 20
0.0
 30
0.0
  0
VERTEX
  5
21F
330
21E
100
AcDbEntity
  8
\U+30EC\U+30A4\U+30E4\U+30FC 1
 62
     7
420
 16777215
370
     9
100
AcDbVertex
100
AcDb2dVertex
 10
143.8206786749823
 20
175.1229885087366
 30
0.0
  0
VERTEX
  5
220
330
21E
100
AcDbEntity
  8
\U+30EC\U+30A4\U+30E4\U+30FC 1
 62
     7
420
 16777215
370
     9
100
AcDbVertex
100
AcDb2dVertex
 10
143.8206786749823
 20
190.4633096854571
 30
0.0
  0
SEQEND
  5
221
330
21E
100
AcDbEntity
  8
\U+30EC\U+30A4\U+30E4\U+30FC 1
370
     9
  0
POLYLINE
  5
222
330
1F
100
AcDbEntity
  8
\U+30EC\U+30A4\U+30E4\U+30FC 1
 62
     7
420
 16777215
370
     9
100
AcDb2dPolyline
 66
     1
 10
0.0
 20
0.0
 30
0.0
  0
VERTEX
  5
223
330
222
100
AcDbEntity
  8
\U+30EC\U+30A4\U+30E4\U+30FC 1
 62
     7
420
 16777215
370
     9
100
AcDbVertex
100
AcDb2dVertex
 10
143.8971597947549
 20
188.8503159792631
 30
0.0
  0
VERTEX
  5
224
330
222
100
AcDbEntity
  8
\U+30EC\U+30A4\U+30E4\U+30FC 1
 62
     7
420
 16777215
370
     9
100
AcDbVertex
100
AcDb2dVertex
 10
376.2764294849239
 20
188.8503159792631
 30
0.0
  0
SEQEND
  5
225
330
222
100
AcDbEntity
  8
\U+30EC\U+30A4\U+30E4\U+30FC 1
370
     9
  0
POLYLINE
  5
226
330
1F
100
AcDbEntity
  8
\U+30EC\U+30A4\U+30E4\U+30FC 1
370
     0
100
AcDb2dPolyline
 66
     1
 10
0.0
 20
0.0
 30
0.0
  0
VERTEX
  5
227
330
226
100
AcDbEntity
  8
\U+30EC\U+30A4\U+30E4\U+30FC 1
370
     0
100
AcDbVertex
100
AcDb2dVertex
 10
145.4691568646744
 20
189.2719956666577
 30
0.0
  0
VERTEX
  5
228
330
226
100
AcDbEntity
  8
\U+30EC\U+30A4\U+30E4\U+30FC 1
370
     0
100
AcDbVertex
100
AcDb2dVertex
 10
143.8205064202081
 20
188.8503159792631
 30
0.0
  0
VERTEX
  5
229
330
226
100
AcDbEntity
  8
\U+30EC\U+30A4\U+30E4\U+30FC 1
370
     0
100
AcDbVertex
100
AcDb2dVertex
 10
145.4691568646744
 20
188.4286362918685
 30
0.0
  0
VERTEX
  5
22A
330
226
100
AcDbEntity
  8
\U+30EC\U+30A4\U+30E4\U+30FC 1
370
     0
100
AcDbVertex
100
AcDb2dVertex
 10
145.4691568646744
 20
189.2719956666577
 30
0.0
  0
SEQEND
  5
22B
330
226
100
AcDbEntity
  8
\U+30EC\U+30A4\U+30E4\U+30FC 1
370
     0
  0
HATCH
  5
22C
330
1F
100
AcDbEntity
  8
\U+30EC\U+30A4\U+30E4\U+30FC 1
 62
     7
420
 16777215
100
AcDbHatch
 10
0.0
 20
0.0
 30
0.0
210
0.0
220
0.0
230
1.0
  2
SOLID
 70
     1
 71
     0
 91
        1
 92
        1
 93
        3
 72
     1
 10
145.4691568646744
 20
189.2719956666577
 11
143.8205064202081
 21
188.8503159792631
 72
     1
 10
143.8205064202081
 20
188.8503159792631
 11
145.4691568646744
 21
188.4286362918685
 72
     1
 10
145.4691568646744
 20
188.4286362918685
 11
145.4691568646744
 21
189.2719956666577
 97
        0
 75
     2
 76
     1
 98
        0
  0
POLYLINE
  5
22D
330
1F
100
AcDbEntity
  8
\U+30EC\U+30A4\U+30E4\U+30FC 1
370
     0
100
AcDb2dPolyline
 66
     1
 10
0.0
 20
0.0
 30
0.0
  0
VERTEX
  5
22E
330
22D
100
AcDbEntity
  8
\U+30EC\U+30A4\U+30E4\U+30FC 1
370
     0
100
AcDbVertex
100
AcDb2dVertex
 10
374.6276067856834
 20
188.4286362918685
 30
0.0
  0
VERTEX
  5
22F
330
22D
100
AcDbEntity
  8
\U+30EC\U+30A4\U+30E4\U+30FC 1
370
     0
100
AcDbVertex
100
AcDb2dVertex
 10
376.2764294849239
 20
188.8503159792631
 30
0.0
  0
VERTEX
  5
230
330
22D
100
AcDbEntity
  8
\U+30EC\U+30A4\U+30E4\U+30FC 1
370
     0
100
AcDbVertex
100
AcDb2dVertex
 10
374.6276067856834
 20
189.2719956666577
 30
0.0
  0
VERTEX
  5
231
330
22D
100
AcDbEntity
  8
\U+30EC\U+30A4\U+30E4\U+30FC 1
370
     0
100
AcDbVertex
100
AcDb2dVertex
 10
374.6276067856834
 20
188.4286362918685
 30
0.0
  0
SEQEND
  5
232
330
22D
100
AcDbEntity
  8
\U+30EC\U+30A4\U+30E4\U+30FC 1
370
     0
  0
HATCH
  5
233
330
1F
100
AcDbEntity
  8
\U+30EC\U+30A4\U+30E4\U+30FC 1
 62
     7
420
 16777215
100
AcDbHatch
 10
0.0
 20
0.0
 30
0.0
210
0.0
220
0.0
230
1.0
  2
SOLID
 70
     1
 71
     0
 91
        1
 92
        1
 93
        3
 72
     1
 10
374.6276067856834
 20
188.4286362918685
 11
376.2764294849239
 21
188.8503159792631
 72
     1
 10
376.2764294849239
 20
188.8503159792631
 11
374.6276067856834
 21
189.2719956666577
 72
     1
 10
374.6276067856834
 20
189.2719956666577
 11
374.6276067856834
 21
188.4286362918685
 97
        0
 75
     2
 76
     1
 98
        0
  0
MTEXT
  5
234
330
1F
100
AcDbEntity
  8
\U+30EC\U+30A4\U+30E4\U+30FC 1
 62
     7
420
 16777215
100
AcDbMText
 10
254.0974961387326
 20
189.8035739000318
 30
0.0
 40
2.398888888289167
 41
0.0
 71
     7
 72
     1
  1
\fMSGothic 90ms-RKSJ-H|b0|i0|c0|p34;\W1;100000
 73
     1
 44
1.0
  0
POLYLINE
  5
235
330
1F
100
AcDbEntity
  8
\U+30EC\U+30A4\U+30E4\U+30FC 1
 62
     7
420
 16777215
370
     9
100
AcDb2dPolyline
 66
     1
 10
0.0
 20
0.0
 30
0.0
  0
VERTEX
  5
236
330
235
100
AcDbEntity
  8
\U+30EC\U+30A4\U+30E4\U+30FC 1
 62
     7
420
 16777215
370
     9
100
AcDbVertex
100
AcDb2dVertex
 10
97.17270776650544
 20
160.8315266525005
 30
0.0
  0
VERTEX
  5
237
330
235
100
AcDbEntity
  8
\U+30EC\U+30A4\U+30E4\U+30FC 1
 62
     7
420
 16777215
370
     9
100
AcDbVertex
100
AcDb2dVertex
 10
97.17270776650544
 20
189.5543212416739
 30
0.0
  0
SEQEND
  5
238
330
235
100
AcDbEntity
  8
\U+30EC\U+30A4\U+30E4\U+30FC 1
370
     9
  0
POLYLINE
  5
239
330
1F
100
AcDbEntity
  8
\U+30EC\U+30A4\U+30E4\U+30FC 1
 62
     7
420
 16777215
370
     9
100
AcDb2dPolyline
 66
     1
 10
0.0
 20
0.0
 30
0.0
  0
VERTEX
  5
23A
330
239
100
AcDbEntity
  8
\U+30EC\U+30A4\U+30E4\U+30FC 1
 62
     7
420
 16777215
370
     9
100
AcDbVertex
100
AcDb2dVertex
 10
60.13965384781231
 20
160.8322156715975
 30
0.0
  0
VERTEX
  5
23B
330
239
100
AcDbEntity
  8
\U+30EC\U+30A4\U+30E4\U+30FC 1
 62
     7
420
 16777215
370
     9
100
AcDbVertex
100
AcDb2dVertex
 10
60.13965384781231
 20
189.5543212416739
 30
0.0
  0
SEQEND
  5
23C
330
239
100
AcDbEntity
  8
\U+30EC\U+30A4\U+30E4\U+30FC 1
370
     9
  0
POLYLINE
  5
23D
330
1F
100
AcDbEntity
  8
\U+30EC\U+30A4\U+30E4\U+30FC 1
 62
     7
420
 16777215
370
     9
100
AcDb2dPolyline
 66
     1
 10
0.0
 20
0.0
 30
0.0
  0
VERTEX
  5
23E
330
23D
100
AcDbEntity
  8
\U+30EC\U+30A4\U+30E4\U+30FC 1
 62
     7
420
 16777215
370
     9
100
AcDbVertex
100
AcDb2dVertex
 10
60.21510143893929
 20
187.9649264395539
 30
0.0
  0
VERTEX
  5
23F
330
23D
100
AcDbEntity
  8
\U+30EC\U+30A4\U+30E4\U+30FC 1
 62
     7
420
 16777215
370
     9
100
AcDbVertex
100
AcDb2dVertex
 10
97.13997935939557
 20
187.9649264395539
 30
0.0
  0
SEQEND
  5
240
330
23D
100
AcDbEntity
  8
\U+30EC\U+30A4\U+30E4\U+30FC 1
370
     9
  0
POLYLINE
  5
241
330
1F
100
AcDbEntity
  8
\U+30EC\U+30A4\U+30E4\U+30FC 1
370
     0
100
AcDb2dPolyline
 66
     1
 10
0.0
 20
0.0
 30
0.0
  0
VERTEX
  5
242
330
241
100
AcDbEntity
  8
\U+30EC\U+30A4\U+30E4\U+30FC 1
370
     0
100
AcDbVertex
100
AcDb2dVertex
 10
61.76401636910761
 20
188.3804049550751
 30
0.0
  0
VERTEX
  5
243
330
241
100
AcDbEntity
  8
\U+30EC\U+30A4\U+30E4\U+30FC 1
370
     0
100
AcDbVertex
100
AcDb2dVertex
 10
60.13965384781231
 20
187.9649264395539
 30
0.0
  0
VERTEX
  5
244
330
241
100
AcDbEntity
  8
\U+30EC\U+30A4\U+30E4\U+30FC 1
370
     0
100
AcDbVertex
100
AcDb2dVertex
 10
61.76401636910761
 20
187.5494479240328
 30
0.0
  0
VERTEX
  5
245
330
241
100
AcDbEntity
  8
\U+30EC\U+30A4\U+30E4\U+30FC 1
370
     0
100
AcDbVertex
100
AcDb2dVertex
 10
61.76401636910761
 20
188.3804049550751
 30
0.0
  0
SEQEND
  5
246
330
241
100
AcDbEntity
  8
\U+30EC\U+30A4\U+30E4\U+30FC 1
370
     0
  0
HATCH
  5
247
330
1F
100
AcDbEntity
  8
\U+30EC\U+30A4\U+30E4\U+30FC 1
 62
     7
420
 16777215
100
AcDbHatch
 10
0.0
 20
0.0
 30
0.0
210
0.0
220
0.0
230
1.0
  2
SOLID
 70
     1
 71
     0
 91
        1
 92
        1
 93
        3
 72
     1
 10
61.76401636910761
 20
188.3804049550751
 11
60.13965384781231
 21
187.9649264395539
 72
     1
 10
60.13965384781231
 20
187.9649264395539
 11
61.76401636910761
 21
187.5494479240328
 72
     1
 10
61.76401636910761
 20
187.5494479240328
 11
61.76401636910761
 21
188.3804049550751
 97
        0
 75
     2
 76
     1
 98
        0
  0
MTEXT
  5
248
330
1F
100
AcDbEntity
  8
\U+30EC\U+30A4\U+30E4\U+30FC 1
 62
     7
420
 16777215
100
AcDbMText
 10
74.05370549363936
 20
189.8793660007073
 30
0.0
 40
2.398888888289167
 41
0.0
 71
     7
 72
     1
  1
\fMSGothic 90ms-RKSJ-H|b0|i0|c0|p34;\W1;Φ
 73
     1
 44
1.0
  0
MTEXT
  5
249
330
1F
100
AcDbEntity
  8
\U+30EC\U+30A4\U+30E4\U+30FC 1
 62
     7
420
 16777215
100
AcDbMText
 10
77.58148327053519
 20
189.8793660007073
 30
0.0
 40
2.398888888289167
 41
0.0
 71
     7
 72
     1
  1
\fMSGothic 90ms-RKSJ-H|b0|i0|c0|p34;\W1;7
 73
     1
 44
1.0
  0
MTEXT
  5
24A
330
1F
100
AcDbEntity
  8
\U+30EC\U+30A4\U+30E4\U+30FC 1
 62
     7
420
 16777215
100
AcDbMText
 10
79.34537215898311
 20
189.8793660007073
 30
0.0
 40
2.398888888289167
 41
0.0
 71
     7
 72
     1
  1
\fMSGothic 90ms-RKSJ-H|b0|i0|c0|p34;\W1;.
 73
     1
 44
1.0
  0
MTEXT
  5
24B
330
1F
100
AcDbEntity
  8
\U+30EC\U+30A4\U+30E4\U+30FC 1
 62
     7
420
 16777215
100
AcDbMText
 10
81.10926104743102
 20
189.8793660007073
 30
0.0
 40
2.398888888289167
 41
0.0
 71
     7
 72
     1
  1
\fMSGothic 90ms-RKSJ-H|b0|i0|c0|p34;\W1;4
 73
     1
 44
1.0
  0
POLYLINE
  5
24C
330
1F
100
AcDbEntity
  8
\U+30EC\U+30A4\U+30E4\U+30FC 1
370
     0
100
AcDb2dPolyline
 66
     1
 10
0.0
 20
0.0
 30
0.0
  0
VERTEX
  5
24D
330
24C
100
AcDbEntity
  8
\U+30EC\U+30A4\U+30E4\U+30FC 1
370
     0
100
AcDbVertex
100
AcDb2dVertex
 10
95.5159613476488
 20
188.3743760379758
 30
0.0
  0
VERTEX
  5
24E
330
24C
100
AcDbEntity
  8
\U+30EC\U+30A4\U+30E4\U+30FC 1
370
     0
100
AcDbVertex
100
AcDb2dVertex
 10
97.13997935939557
 20
187.9588975224547
 30
0.0
  0
VERTEX
  5
24F
330
24C
100
AcDbEntity
  8
\U+30EC\U+30A4\U+30E4\U+30FC 1
370
     0
100
AcDbVertex
100
AcDb2dVertex
 10
95.5159613476488
 20
187.5434190069336
 30
0.0
  0
VERTEX
  5
250
330
24C
100
AcDbEntity
  8
\U+30EC\U+30A4\U+30E4\U+30FC 1
370
     0
100
AcDbVertex
100
AcDb2dVertex
 10
95.5159613476488
 20
188.3743760379758
 30
0.0
  0
SEQEND
  5
251
330
24C
100
AcDbEntity
  8
\U+30EC\U+30A4\U+30E4\U+30FC 1
370
     0
  0
HATCH
  5
252
330
1F
100
AcDbEntity
  8
\U+30EC\U+30A4\U+30E4\U+30FC 1
 62
     7
420
 16777215
100
AcDbHatch
 10
0.0
 20
0.0
 30
0.0
210
0.0
220
0.0
230
1.0
  2
SOLID
 70
     1
 71
     0
 91
        1
 92
        1
 93
        3
 72
     1
 10
95.5159613476488
 20
188.3743760379758
 11
97.13997935939557
 21
187.9588975224547
 72
     1
 10
97.13997935939557
 20
187.9588975224547
 11
95.5159613476488
 21
187.5434190069336
 72
     1
 10
95.5159613476488
 20
187.5434190069336
 11
95.5159613476488
 21
188.3743760379758
 97
        0
 75
     2
 76
     1
 98
        0
  0
SPLINE
  5
253
330
1F
100
AcDbEntity
  8
\U+30EC\U+30A4\U+30E4\U+30FC 1
 62
     7
420
 16777215
370
    18
100
AcDbSpline
210
0.0
220
0.0
230
1.0
 70
    11
 71
     3
 72
    17
 73
    13
 74
     0
 42
0.0000000001
 43
0.0000000001
 40
0.0
 40
0.0
 40
0.0
 40
0.0
 40
1.0
 40
1.0
 40
1.0
 40
2.0
 40
2.0
 40
2.0
 40
3.0
 40
3.0
 40
3.0
 40
4.0
 40
4.0
 40
4.0
 40
4.0
 10
75.64947372240708
 20
150.2158094242516
 30
0.0
 10
75.64947372240708
 20
148.1446180185194
 30
0.0
 10
73.97171222109041
 20
146.4654784790086
 30
0.0
 10
71.89948728671263
 20
146.4654784790086
 30
0.0
 10
69.82898490007747
 20
146.4654784790086
 30
0.0
 10
68.14950085101819
 20
148.1446180185194
 30
0.0
 10
68.14950085101819
 20
150.2158094242516
 30
0.0
 10
68.14950085101819
 20
152.2870008299838
 30
0.0
 10
69.82898490007747
 20
153.9654513503975
 30
0.0
 10
71.89948728671263
 20
153.9654513503975
 30
0.0
 10
73.97171222109041
 20
153.9654513503975
 30
0.0
 10
75.64947372240708
 20
152.2870008299838
 30
0.0
 10
75.64947372240708
 20
150.2158094242516
 30
0.0
  0
SPLINE
  5
254
330
1F
100
AcDbEntity
  8
\U+30EC\U+30A4\U+30E4\U+30FC 1
 62
     7
420
 16777215
370
    18
100
AcDbSpline
210
0.0
220
0.0
230
1.0
 70
    11
 71
     3
 72
    17
 73
    13
 74
     0
 42
0.0000000001
 43
0.0000000001
 40
0.0
 40
0.0
 40
0.0
 40
0.0
 40
1.0
 40
1.0
 40
1.0
 40
2.0
 40
2.0
 40
2.0
 40
3.0
 40
3.0
 40
3.0
 40
4.0
 40
4.0
 40
4.0
 40
4.0
 10
78.65015189005969
 20
150.2158094242516
 30
0.0
 10
78.65015189005969
 20
146.4875270901142
 30
0.0
 10
75.62880314949558
 20
143.4661783495501
 30
0.0
 10
71.89948728671263
 20
143.4661783495501
 30
0.0
 10
68.1718939716723
 20
143.4661783495501
 30
0.0
 10
65.1505452311082
 20
146.4875270901142
 30
0.0
 10
65.1505452311082
 20
150.2158094242516
 30
0.0
 10
65.1505452311082
 20
153.9434027392919
 30
0.0
 10
68.1718939716723
 20
156.9654404989531
 30
0.0
 10
71.89948728671263
 20
156.9654404989531
 30
0.0
 10
75.62880314949558
 20
156.9654404989531
 30
0.0
 10
78.65015189005969
 20
153.9434027392919
 30
0.0
 10
78.65015189005969
 20
150.2158094242516
 30
0.0
  0
SPLINE
  5
255
330
1F
100
AcDbEntity
  8
\U+30EC\U+30A4\U+30E4\U+30FC 1
 62
     7
420
 16777215
370
    18
100
AcDbSpline
210
0.0
220
0.0
230
1.0
 70
    11
 71
     3
 72
    17
 73
    13
 74
     0
 42
0.0000000001
 43
0.0000000001
 40
0.0
 40
0.0
 40
0.0
 40
0.0
 40
1.0
 40
1.0
 40
1.0
 40
2.0
 40
2.0
 40
2.0
 40
3.0
 40
3.0
 40
3.0
 40
4.0
 40
4.0
 40
4.0
 40
4.0
 10
89.14908038135857
 20
150.2158094242516
 30
0.0
 10
89.14908038135857
 20
148.1446180185194
 30
0.0
 10
87.47131888004189
 20
146.4654784790086
 30
0.0
 10
85.39909394566412
 20
146.4654784790086
 30
0.0
 10
83.32859155902896
 20
146.4654784790086
 30
0.0
 10
81.64910750996967
 20
148.1446180185194
 30
0.0
 10
81.64910750996967
 20
150.2158094242516
 30
0.0
 10
81.64910750996967
 20
152.2870008299838
 30
0.0
 10
83.32859155902896
 20
153.9654513503975
 30
0.0
 10
85.39909394566412
 20
153.9654513503975
 30
0.0
 10
87.47131888004189
 20
153.9654513503975
 30
0.0
 10
89.14908038135857
 20
152.2870008299838
 30
0.0
 10
89.14908038135857
 20
150.2158094242516
 30
0.0
  0
SPLINE
  5
256
330
1F
100
AcDbEntity
  8
\U+30EC\U+30A4\U+30E4\U+30FC 1
 62
     7
420
 16777215
370
    18
100
AcDbSpline
210
0.0
220
0.0
230
1.0
 70
    11
 71
     3
 72
    17
 73
    13
 74
     0
 42
0.0000000001
 43
0.0000000001
 40
0.0
 40
0.0
 40
0.0
 40
0.0
 40
1.0
 40
1.0
 40
1.0
 40
2.0
 40
2.0
 40
2.0
 40
3.0
 40
3.0
 40
3.0
 40
4.0
 40
4.0
 40
4.0
 40
4.0
 10
92.14975854901118
 20
150.2158094242516
 30
0.0
 10
92.14975854901118
 20
146.4875270901142
 30
0.0
 10
89.12840980844707
 20
143.4661783495501
 30
0.0
 10
85.39909394566412
 20
143.4661783495501
 30
0.0
 10
81.6715006306238
 20
143.4661783495501
 30
0.0
 10
78.65015189005969
 20
146.4875270901142
 30
0.0
 10
78.65015189005969
 20
150.2158094242516
 30
0.0
 10
78.65015189005969
 20
153.9434027392919
 30
0.0
 10
81.6715006306238
 20
156.9654404989531
 30
0.0
 10
85.39909394566412
 20
156.9654404989531
 30
0.0
 10
89.12840980844707
 20
156.9654404989531
 30
0.0
 10
92.14975854901118
 20
153.9434027392919
 30
0.0
 10
92.14975854901118
 20
150.2158094242516
 30
0.0
  0
SPLINE
  5
257
330
1F
100
AcDbEntity
  8
\U+30EC\U+30A4\U+30E4\U+30FC 1
 62
     7
420
 16777215
370
    18
100
AcDbSpline
210
0.0
220
0.0
230
1.0
 70
    11
 71
     3
 72
    17
 73
    13
 74
     0
 42
0.0000000001
 43
0.0000000001
 40
0.0
 40
0.0
 40
0.0
 40
0.0
 40
1.0
 40
1.0
 40
1.0
 40
2.0
 40
2.0
 40
2.0
 40
3.0
 40
3.0
 40
3.0
 40
4.0
 40
4.0
 40
4.0
 40
4.0
 10
97.15031464585131
 20
150.2158094242516
 30
0.0
 10
97.15031464585131
 20
139.9983452340977
 30
0.0
 10
88.86658255156809
 20
131.71564666846
 30
0.0
 10
78.65015189005969
 20
131.71564666846
 30
0.0
 10
68.43199868080868
 20
131.71564666846
 30
0.0
 10
60.14998913426806
 20
139.9983452340977
 30
0.0
 10
60.14998913426806
 20
150.2158094242516
 30
0.0
 10
60.14998913426806
 20
160.4332736144056
 30
0.0
 10
68.43199868080868
 20
168.715799925269
 30
0.0
 10
78.65015189005969
 20
168.715799925269
 30
0.0
 10
88.86658255156809
 20
168.715799925269
 30
0.0
 10
97.15031464585131
 20
160.4332736144056
 30
0.0
 10
97.15031464585131
 20
150.2158094242516
 30
0.0
  0
POLYLINE
  5
258
330
1F
100
AcDbEntity
  8
\U+30EC\U+30A4\U+30E4\U+30FC 1
 62
     7
420
 16777215
370
     9
100
AcDb2dPolyline
 66
     1
 10
0.0
 20
0.0
 30
0.0
  0
VERTEX
  5
259
330
258
100
AcDbEntity
  8
\U+30EC\U+30A4\U+30E4\U+30FC 1
 62
     7
420
 16777215
370
     9
100
AcDbVertex
100
AcDb2dVertex
 10
82.74981551750699
 20
152.8151339678726
 30
0.0
  0
VERTEX
  5
25A
330
258
100
AcDbEntity
  8
\U+30EC\U+30A4\U+30E4\U+30FC 1
 62
     7
420
 16777215
370
     9
100
AcDbVertex
100
AcDb2dVertex
 10
109.1819661185378
 20
126.3833278763903
 30
0.0
  0
SEQEND
  5
25B
330
258
100
AcDbEntity
  8
\U+30EC\U+30A4\U+30E4\U+30FC 1
370
     9
  0
POLYLINE
  5
25C
330
1F
100
AcDbEntity
  8
\U+30EC\U+30A4\U+30E4\U+30FC 1
370
     0
100
AcDb2dPolyline
 66
     1
 10
0.0
 20
0.0
 30
0.0
  0
VERTEX
  5
25D
330
25C
100
AcDbEntity
  8
\U+30EC\U+30A4\U+30E4\U+30FC 1
370
     0
100
AcDbVertex
100
AcDb2dVertex
 10
83.17511255516109
 20
151.813989219859
 30
0.0
  0
VERTEX
  5
25E
330
25C
100
AcDbEntity
  8
\U+30EC\U+30A4\U+30E4\U+30FC 1
370
     0
100
AcDbVertex
100
AcDb2dVertex
 10
82.70365123800465
 20
152.8805907820924
 30
0.0
  0
VERTEX
  5
25F
330
25C
100
AcDbEntity
  8
\U+30EC\U+30A4\U+30E4\U+30FC 1
370
     0
100
AcDbVertex
100
AcDb2dVertex
 10
83.77042505501225
 20
152.4093017197102
 30
0.0
  0
VERTEX
  5
260
330
25C
100
AcDbEntity
  8
\U+30EC\U+30A4\U+30E4\U+30FC 1
370
     0
100
AcDbVertex
100
AcDb2dVertex
 10
83.17511255516109
 20
151.813989219859
 30
0.0
  0
SEQEND
  5
261
330
25C
100
AcDbEntity
  8
\U+30EC\U+30A4\U+30E4\U+30FC 1
370
     0
  0
HATCH
  5
262
330
1F
100
AcDbEntity
  8
\U+30EC\U+30A4\U+30E4\U+30FC 1
 62
     7
420
 16777215
100
AcDbHatch
 10
0.0
 20
0.0
 30
0.0
210
0.0
220
0.0
230
1.0
  2
SOLID
 70
     1
 71
     0
 91
        1
 92
        1
 93
        3
 72
     1
 10
83.17511255516109
 20
151.813989219859
 11
82.70365123800465
 21
152.8805907820924
 72
     1
 10
82.70365123800465
 20
152.8805907820924
 11
83.77042505501225
 21
152.4093017197102
 72
     1
 10
83.77042505501225
 20
152.4093017197102
 11
83.17511255516109
 21
151.813989219859
 97
        0
 75
     2
 76
     1
 98
        0
  0
POLYLINE
  5
263
330
1F
100
AcDbEntity
  8
\U+30EC\U+30A4\U+30E4\U+30FC 1
370
     0
100
AcDb2dPolyline
 66
     1
 10
0.0
 20
0.0
 30
0.0
  0
VERTEX
  5
264
330
263
100
AcDbEntity
  8
\U+30EC\U+30A4\U+30E4\U+30FC 1
370
     0
100
AcDbVertex
100
AcDb2dVertex
 10
87.59155271247711
 20
148.5876572979225
 30
0.0
  0
VERTEX
  5
265
330
263
100
AcDbEntity
  8
\U+30EC\U+30A4\U+30E4\U+30FC 1
370
     0
100
AcDbVertex
100
AcDb2dVertex
 10
88.06301402963355
 20
147.5210557356892
 30
0.0
  0
VERTEX
  5
266
330
263
100
AcDbEntity
  8
\U+30EC\U+30A4\U+30E4\U+30FC 1
370
     0
100
AcDbVertex
100
AcDb2dVertex
 10
86.99624021262595
 20
147.9923447980714
 30
0.0
  0
VERTEX
  5
267
330
263
100
AcDbEntity
  8
\U+30EC\U+30A4\U+30E4\U+30FC 1
370
     0
100
AcDbVertex
100
AcDb2dVertex
 10
87.59155271247711
 20
148.5876572979225
 30
0.0
  0
SEQEND
  5
268
330
263
100
AcDbEntity
  8
\U+30EC\U+30A4\U+30E4\U+30FC 1
370
     0
  0
HATCH
  5
269
330
1F
100
AcDbEntity
  8
\U+30EC\U+30A4\U+30E4\U+30FC 1
 62
     7
420
 16777215
100
AcDbHatch
 10
0.0
 20
0.0
 30
0.0
210
0.0
220
0.0
230
1.0
  2
SOLID
 70
     1
 71
     0
 91
        1
 92
        1
 93
        3
 72
     1
 10
87.59155271247711
 20
148.5876572979225
 11
88.06301402963355
 21
147.5210557356892
 72
     1
 10
88.06301402963355
 20
147.5210557356892
 11
86.99624021262595
 21
147.9923447980714
 72
     1
 10
86.99624021262595
 20
147.9923447980714
 11
87.59155271247711
 21
148.5876572979225
 97
        0
 75
     2
 76
     1
 98
        0
  0
MTEXT
  5
26A
330
1F
100
AcDbEntity
  8
\U+30EC\U+30A4\U+30E4\U+30FC 1
 62
     7
420
 16777215
100
AcDbMText
 10
103.169068713357
 20
133.7268934127488
 30
0.0
 40
2.158986044132054
 41
0.0
 71
     7
 72
     1
  1
\fMSGothic 90ms-RKSJ-H|b0|i0|c0|p34;\W1;Φ
 11
0.7071066786324686
 21
-0.7071068837406116
 31
0.0
 73
     1
 44
1.0
  0
MTEXT
  5
26B
330
1F
100
AcDbEntity
  8
\U+30EC\U+30A4\U+30E4\U+30FC 1
 62
     7
420
 16777215
100
AcDbMText
 10
105.4138929315458
 20
131.4817246850115
 30
0.0
 40
2.158986044132054
 41
0.0
 71
     7
 72
     1
  1
\fMSGothic 90ms-RKSJ-H|b0|i0|c0|p34;\W1;1
 11
0.7071066786324686
 21
-0.7071068837406116
 31
0.0
 73
     1
 44
1.0
  0
MTEXT
  5
26C
330
1F
100
AcDbEntity
  8
\U+30EC\U+30A4\U+30E4\U+30FC 1
 62
     7
420
 16777215
100
AcDbMText
 10
106.5366495501888
 20
130.3593125759171
 30
0.0
 40
2.158986044132054
 41
0.0
 71
     7
 72
     1
  1
\fMSGothic 90ms-RKSJ-H|b0|i0|c0|p34;\W1;.
 11
0.7071066786324686
 21
-0.7071068837406116
 31
0.0
 73
     1
 44
1.0
  0
MTEXT
  5
26D
330
1F
100
AcDbEntity
  8
\U+30EC\U+30A4\U+30E4\U+30FC 1
 62
     7
420
 16777215
100
AcDbMText
 10
107.6592339140574
 20
129.2365559572742
 30
0.0
 40
2.158986044132054
 41
0.0
 71
     7
 72
     1
  1
\fMSGothic 90ms-RKSJ-H|b0|i0|c0|p34;\W1;5
 11
0.7071066786324686
 21
-0.7071068837406116
 31
0.0
 73
     1
 44
1.0
  0
POLYLINE
  5
26E
330
1F
100
AcDbEntity
  8
\U+30EC\U+30A4\U+30E4\U+30FC 1
 62
     7
420
 16777215
370
     9
100
AcDb2dPolyline
 66
     1
 10
0.0
 20
0.0
 30
0.0
  0
VERTEX
  5
26F
330
26E
100
AcDbEntity
  8
\U+30EC\U+30A4\U+30E4\U+30FC 1
 62
     7
420
 16777215
370
     9
100
AcDbVertex
100
AcDb2dVertex
 10
67.28633217718884
 20
154.8473957946215
 30
0.0
  0
VERTEX
  5
270
330
26E
100
AcDbEntity
  8
\U+30EC\U+30A4\U+30E4\U+30FC 1
 62
     7
420
 16777215
370
     9
100
AcDbVertex
100
AcDb2dVertex
 10
95.61655813581808
 20
126.517686600315
 30
0.0
  0
SEQEND
  5
271
330
26E
100
AcDbEntity
  8
\U+30EC\U+30A4\U+30E4\U+30FC 1
370
     9
  0
POLYLINE
  5
272
330
1F
100
AcDbEntity
  8
\U+30EC\U+30A4\U+30E4\U+30FC 1
370
     0
100
AcDb2dPolyline
 66
     1
 10
0.0
 20
0.0
 30
0.0
  0
VERTEX
  5
273
330
272
100
AcDbEntity
  8
\U+30EC\U+30A4\U+30E4\U+30FC 1
370
     0
100
AcDbVertex
100
AcDb2dVertex
 10
67.60603703822002
 20
153.9516709684565
 30
0.0
  0
VERTEX
  5
274
330
272
100
AcDbEntity
  8
\U+30EC\U+30A4\U+30E4\U+30FC 1
370
     0
100
AcDbVertex
100
AcDb2dVertex
 10
67.13457572106358
 20
155.0182725306899
 30
0.0
  0
VERTEX
  5
275
330
272
100
AcDbEntity
  8
\U+30EC\U+30A4\U+30E4\U+30FC 1
370
     0
100
AcDbVertex
100
AcDb2dVertex
 10
68.2013495380712
 20
154.5469834683077
 30
0.0
  0
VERTEX
  5
276
330
272
100
AcDbEntity
  8
\U+30EC\U+30A4\U+30E4\U+30FC 1
370
     0
100
AcDbVertex
100
AcDb2dVertex
 10
67.60603703822002
 20
153.9516709684565
 30
0.0
  0
SEQEND
  5
277
330
272
100
AcDbEntity
  8
\U+30EC\U+30A4\U+30E4\U+30FC 1
370
     0
  0
HATCH
  5
278
330
1F
100
AcDbEntity
  8
\U+30EC\U+30A4\U+30E4\U+30FC 1
 62
     7
420
 16777215
100
AcDbHatch
 10
0.0
 20
0.0
 30
0.0
210
0.0
220
0.0
230
1.0
  2
SOLID
 70
     1
 71
     0
 91
        1
 92
        1
 93
        3
 72
     1
 10
67.60603703822002
 20
153.9516709684565
 11
67.13457572106358
 21
155.0182725306899
 72
     1
 10
67.13457572106358
 20
155.0182725306899
 11
68.2013495380712
 21
154.5469834683077
 72
     1
 10
68.2013495380712
 20
154.5469834683077
 11
67.60603703822002
 21
153.9516709684565
 97
        0
 75
     2
 76
     1
 98
        0
  0
POLYLINE
  5
279
330
1F
100
AcDbEntity
  8
\U+30EC\U+30A4\U+30E4\U+30FC 1
370
     0
100
AcDb2dPolyline
 66
     1
 10
0.0
 20
0.0
 30
0.0
  0
VERTEX
  5
27A
330
279
100
AcDbEntity
  8
\U+30EC\U+30A4\U+30E4\U+30FC 1
370
     0
100
AcDbVertex
100
AcDb2dVertex
 10
76.21446938198805
 20
146.5333468600681
 30
0.0
  0
VERTEX
  5
27B
330
279
100
AcDbEntity
  8
\U+30EC\U+30A4\U+30E4\U+30FC 1
370
     0
100
AcDbVertex
100
AcDb2dVertex
 10
76.68593069914449
 20
145.4667452978347
 30
0.0
  0
VERTEX
  5
27C
330
279
100
AcDbEntity
  8
\U+30EC\U+30A4\U+30E4\U+30FC 1
370
     0
100
AcDbVertex
100
AcDb2dVertex
 10
75.61915688213688
 20
145.9380343602169
 30
0.0
  0
VERTEX
  5
27D
330
279
100
AcDbEntity
  8
\U+30EC\U+30A4\U+30E4\U+30FC 1
370
     0
100
AcDbVertex
100
AcDb2dVertex
 10
76.21446938198805
 20
146.5333468600681
 30
0.0
  0
SEQEND
  5
27E
330
279
100
AcDbEntity
  8
\U+30EC\U+30A4\U+30E4\U+30FC 1
370
     0
  0
HATCH
  5
27F
330
1F
100
AcDbEntity
  8
\U+30EC\U+30A4\U+30E4\U+30FC 1
 62
     7
420
 16777215
100
AcDbHatch
 10
0.0
 20
0.0
 30
0.0
210
0.0
220
0.0
230
1.0
  2
SOLID
 70
     1
 71
     0
 91
        1
 92
        1
 93
        3
 72
     1
 10
76.21446938198805
 20
146.5333468600681
 11
76.68593069914449
 21
145.4667452978347
 72
     1
 10
76.68593069914449
 20
145.4667452978347
 11
75.61915688213688
 21
145.9380343602169
 72
     1
 10
75.61915688213688
 20
145.9380343602169
 11
76.21446938198805
 21
146.5333468600681
 97
        0
 75
     2
 76
     1
 98
        0
  0
MTEXT
  5
280
330
1F
100
AcDbEntity
  8
\U+30EC\U+30A4\U+30E4\U+30FC 1
 62
     7
420
 16777215
100
AcDbMText
 10
89.60348847586302
 20
133.7696125967659
 30
0.0
 40
2.158986044132054
 41
0.0
 71
     7
 72
     1
  1
\fMSGothic 90ms-RKSJ-H|b0|i0|c0|p34;\W1;Φ
 11
0.7071066786324686
 21
-0.7071068837406116
 31
0.0
 73
     1
 44
1.0
  0
MTEXT
  5
281
330
1F
100
AcDbEntity
  8
\U+30EC\U+30A4\U+30E4\U+30FC 1
 62
     7
420
 16777215
100
AcDbMText
 10
91.84848494882608
 20
131.5244438690286
 30
0.0
 40
2.158986044132054
 41
0.0
 71
     7
 72
     1
  1
\fMSGothic 90ms-RKSJ-H|b0|i0|c0|p34;\W1;2
 11
0.7071066786324686
 21
-0.7071068837406116
 31
0.0
 73
     1
 44
1.0
  0
MTEXT
  5
282
330
1F
100
AcDbEntity
  8
\U+30EC\U+30A4\U+30E4\U+30FC 1
 62
     7
420
 16777215
100
AcDbMText
 10
92.97106931269474
 20
130.4020317599342
 30
0.0
 40
2.158986044132054
 41
0.0
 71
     7
 72
     1
  1
\fMSGothic 90ms-RKSJ-H|b0|i0|c0|p34;\W1;.
 11
0.7071066786324686
 21
-0.7071068837406116
 31
0.0
 73
     1
 44
1.0
  0
MTEXT
  5
283
330
1F
100
AcDbEntity
  8
\U+30EC\U+30A4\U+30E4\U+30FC 1
 62
     7
420
 16777215
100
AcDbMText
 10
94.09382593133766
 20
129.2796196508398
 30
0.0
 40
2.158986044132054
 41
0.0
 71
     7
 72
     1
  1
\fMSGothic 90ms-RKSJ-H|b0|i0|c0|p34;\W1;7
 11
0.7071066786324686
 21
-0.7071068837406116
 31
0.0
 73
     1
 44
1.0
  0
MTEXT
  5
284
330
1F
100
AcDbEntity
  8
\U+30EC\U+30A4\U+30E4\U+30FC 1
 62
     7
420
 16777215
100
AcDbMText
 10
31.20481363152172
 20
285.4743922897425
 30
0.0
 40
2.15899999946025
 41
0.0
 71
     7
 72
     1
  1
\fMSGothic 90ms-RKSJ-H|b0|i0|c0|p34;\W1;498215
 11
-0.9999999999999886
 21
1.509957990978371E-7
 31
0.0
 73
     1
 44
1.0
  0
ENDSEC
  0
SECTION
  2
OBJECTS
  0
DICTIONARY
  5
C
330
0
100
AcDbDictionary
281
     1
  3
ACAD_GROUP
350
D
  3
ACAD_LAYOUT
350
1A
  3
ACAD_MLINESTYLE
350
17
  3
ACAD_PLOTSETTINGS
350
19
  3
ACAD_PLOTSTYLENAME
350
E
  3
ACAD_TABLESTYLE
350
285
  3
ACAD_VISUALSTYLE
350
2A
  0
DICTIONARY
  5
D
102
{ACAD_REACTORS
330
C
102
}
330
C
100
AcDbDictionary
281
     1
  0
DICTIONARY
  5
1A
102
{ACAD_REACTORS
330
C
102
}
330
C
100
AcDbDictionary
281
     1
  3
Layout1
350
1E
  3
Layout2
350
26
  3
Model
350
22
  0
DICTIONARY
  5
17
102
{ACAD_REACTORS
330
C
102
}
330
C
100
AcDbDictionary
281
     1
  3
Standard
350
18
  0
DICTIONARY
  5
19
102
{ACAD_REACTORS
330
C
102
}
330
C
100
AcDbDictionary
281
     1
  0
ACDBDICTIONARYWDFLT
  5
E
102
{ACAD_REACTORS
330
C
102
}
330
C
100
AcDbDictionary
281
     1
  3
Normal
350
F
100
AcDbDictionaryWithDefault
340
F
  0
DICTIONARY
  5
285
102
{ACAD_REACTORS
330
C
102
}
330
C
100
AcDbDictionary
281
     1
  0
DICTIONARY
  5
2A
102
{ACAD_REACTORS
330
C
102
}
330
C
100
AcDbDictionary
281
     1
  3
2dWireframe
350
2F
  3
3D Hidden
350
31
  3
3dWireframe
350
30
  3
Basic
350
32
  3
Brighten
350
36
  3
ColorChange
350
3A
  3
Conceptual
350
34
  3
Dim
350
35
  3
Facepattern
350
39
  3
Flat
350
2B
  3
FlatWithEdges
350
2C
  3
Gouraud
350
2D
  3
GouraudWithEdges
350
2E
  3
Linepattern
350
38
  3
Realistic
350
33
  3
Thicken
350
37
  0
LAYOUT
  5
1E
102
{ACAD_REACTORS
330
1A
102
}
330
1A
100
AcDbPlotSettings
  1

  2
none_device
  4

  6

 40
0.0
 41
0.0
 42
0.0
 43
0.0
 44
0.0
 45
0.0
 46
0.0
 47
0.0
 48
0.0
 49
0.0
140
0.0
141
0.0
142
1.0
143
1.0
 70
   688
 72
     0
 73
     0
 74
     5
  7

 75
    16
 76
     0
 77
     2
 78
   300
147
1.0
148
0.0
149
0.0
100
AcDbLayout
  1
Layout1
 70
     1
 71
     1
 10
0.0
 20
0.0
 11
12.0
 21
9.0
 12
0.0
 22
0.0
 32
0.0
 14
1.000000000000000E+20
 24
1.000000000000000E+20
 34
1.000000000000000E+20
 15
-1.000000000000000E+20
 25
-1.000000000000000E+20
 35
-1.000000000000000E+20
146
0.0
 13
0.0
 23
0.0
 33
0.0
 16
1.0
 26
0.0
 36
0.0
 17
0.0
 27
1.0
 37
0.0
 76
     0
330
1B
  0
LAYOUT
  5
26
102
{ACAD_REACTORS
330
1A
102
}
330
1A
100
AcDbPlotSettings
  1

  2
none_device
  4

  6

 40
0.0
 41
0.0
 42
0.0
 43
0.0
 44
0.0
 45
0.0
 46
0.0
 47
0.0
 48
0.0
 49
0.0
140
0.0
141
0.0
142
1.0
143
1.0
 70
   688
 72
     0
 73
     0
 74
     5
  7

 75
    16
 76
     0
 77
     2
 78
   300
147
1.0
148
0.0
149
0.0
100
AcDbLayout
  1
Layout2
 70
     1
 71
     2
 10
0.0
 20
0.0
 11
0.0
 21
0.0
 12
0.0
 22
0.0
 32
0.0
 14
0.0
 24
0.0
 34
0.0
 15
0.0
 25
0.0
 35
0.0
146
0.0
 13
0.0
 23
0.0
 33
0.0
 16
1.0
 26
0.0
 36
0.0
 17
0.0
 27
1.0
 37
0.0
 76
     0
330
23
  0
LAYOUT
  5
22
102
{ACAD_REACTORS
330
1A
102
}
330
1A
100
AcDbPlotSettings
  1

  2
none_device
  4

  6

 40
0.0
 41
0.0
 42
0.0
 43
0.0
 44
0.0
 45
0.0
 46
0.0
 47
0.0
 48
0.0
 49
0.0
140
0.0
141
0.0
142
1.0
143
1.0
 70
  1712
 72
     0
 73
     0
 74
     0
  7

 75
     0
 76
     0
 77
     2
 78
   300
147
1.0
148
0.0
149
0.0
100
AcDbLayout
  1
Model
 70
     1
 71
     0
 10
0.0
 20
0.0
 11
12.0
 21
9.0
 12
0.0
 22
0.0
 32
0.0
 14
1.000000000000000E+20
 24
1.000000000000000E+20
 34
1.000000000000000E+20
 15
-1.000000000000000E+20
 25
-1.000000000000000E+20
 35
-1.000000000000000E+20
146
0.0
 13
0.0
 23
0.0
 33
0.0
 16
1.0
 26
0.0
 36
0.0
 17
0.0
 27
1.0
 37
0.0
 76
     0
330
1F
331
29
  0
MLINESTYLE
  5
18
102
{ACAD_REACTORS
330
17
102
}
330
17
100
AcDbMlineStyle
  2
Standard
 70
     0
  3

 62
   256
 51
90.0
 52
90.0
 71
     2
 49
0.5
 62
   256
  6
BYLAYER
 49
-0.5
 62
   256
  6
BYLAYER
  0
ACDBPLACEHOLDER
  5
F
102
{ACAD_REACTORS
330
E
102
}
330
E
  0
VISUALSTYLE
  5
2F
102
{ACAD_REACTORS
330
2A
102
}
330
2A
100
AcDbVisualStyle
  2
2dWireframe
 70
     4
 71
     0
 72
     2
 73
     0
 90
        0
 40
-0.6
 41
-30.0
 62
     5
 63
     7
421
 16777215
 74
     1
 91
        4
 64
     7
 65
   257
 75
     1
175
     1
 42
1.0
 92
        0
 66
   257
 43
1.0
 76
     1
 77
     6
 78
     2
 67
     7
 79
     5
170
     0
171
     0
290
     0
174
     0
 93
        1
 44
0.0
173
     0
291
     0
 45
0.0
1001
ACAD
1000
AcDbSavedByObjectVersion
1070
     0
  0
VISUALSTYLE
  5
31
102
{ACAD_REACTORS
330
2A
102
}
330
2A
100
AcDbVisualStyle
  2
3D Hidden
 70
     6
 71
     1
 72
     2
 73
     2
 90
        0
 40
-0.6
 41
-30.0
 62
     5
 63
     7
421
 16777215
 74
     2
 91
        2
 64
     7
 65
   257
 75
     2
175
     1
 42
40.0
 92
        0
 66
   257
 43
1.0
 76
     1
 77
     6
 78
     2
 67
     7
 79
     3
170
     0
171
     0
290
     0
174
     0
 93
        1
 44
0.0
173
     0
291
     0
 45
0.0
1001
ACAD
1000
AcDbSavedByObjectVersion
1070
     0
  0
VISUALSTYLE
  5
30
102
{ACAD_REACTORS
330
2A
102
}
330
2A
100
AcDbVisualStyle
  2
3dWireframe
 70
     5
 71
     0
 72
     2
 73
     0
 90
        0
 40
-0.6
 41
-30.0
 62
     5
 63
     7
421
 16777215
 74
     1
 91
        4
 64
     7
 65
   257
 75
     1
175
     1
 42
1.0
 92
        0
 66
   257
 43
1.0
 76
     1
 77
     6
 78
     2
 67
     7
 79
     5
170
     0
171
     0
290
     0
174
     0
 93
        1
 44
0.0
173
     0
291
     0
 45
0.0
1001
ACAD
1000
AcDbSavedByObjectVersion
1070
     0
  0
VISUALSTYLE
  5
32
102
{ACAD_REACTORS
330
2A
102
}
330
2A
100
AcDbVisualStyle
  2
Basic
 70
     7
 71
     1
 72
     0
 73
     1
 90
        0
 40
-0.6
 41
-30.0
 62
     5
 63
     7
421
 16777215
 74
     0
 91
        4
 64
     7
 65
   257
 75
     1
175
     1
 42
1.0
 92
        8
 66
     7
 43
1.0
 76
     1
 77
     6
 78
     2
 67
     7
 79
     5
170
     0
171
     0
290
     0
174
     0
 93
        1
 44
0.0
173
     0
291
     1
 45
0.0
1001
ACAD
1000
AcDbSavedByObjectVersion
1070
     0
  0
VISUALSTYLE
  5
36
102
{ACAD_REACTORS
330
2A
102
}
330
2A
100
AcDbVisualStyle
  2
Brighten
 70
    12
 71
     2
 72
     2
 73
     0
 90
        0
 40
-0.6
 41
-30.0
 62
     5
 63
     7
421
 16777215
 74
     1
 91
        4
 64
     7
 65
   257
 75
     1
175
     1
 42
1.0
 92
        8
 66
     7
 43
1.0
 76
     1
 77
     6
 78
     2
 67
     7
 79
     5
170
     0
171
     0
290
     0
174
     0
 93
        1
 44
50.0
173
     0
291
     1
 45
0.0
1001
ACAD
1000
AcDbSavedByObjectVersion
1070
     0
  0
VISUALSTYLE
  5
3A
102
{ACAD_REACTORS
330
2A
102
}
330
2A
100
AcDbVisualStyle
  2
ColorChange
 70
    16
 71
     2
 72
     2
 73
     3
 90
        0
 40
-0.6
 41
-30.0
 62
     5
 63
     8
421
  8421504
 74
     1
 91
        4
 64
     7
 65
   257
 75
     1
175
     1
 42
1.0
 92
        8
 66
     8
424
  8421504
 43
1.0
 76
     1
 77
     6
 78
     2
 67
     7
 79
     5
170
     0
171
     0
290
     0
174
     0
 93
        1
 44
0.0
173
     0
291
     1
 45
0.0
1001
ACAD
1000
AcDbSavedByObjectVersion
1070
     0
  0
VISUALSTYLE
  5
34
102
{ACAD_REACTORS
330
2A
102
}
330
2A
100
AcDbVisualStyle
  2
Conceptual
 70
     9
 71
     3
 72
     2
 73
     0
 90
        0
 40
-0.6
 41
-30.0
 62
     5
 63
     7
421
 16777215
 74
     2
 91
        2
 64
     7
 65
   257
 75
     1
175
     1
 42
40.0
 92
        8
 66
     7
 43
1.0
 76
     1
 77
     6
 78
     2
 67
     7
 79
     3
170
     0
171
     0
290
     0
174
     0
 93
        1
 44
0.0
173
     0
291
     0
 45
0.0
1001
ACAD
1000
AcDbSavedByObjectVersion
1070
     0
  0
VISUALSTYLE
  5
35
102
{ACAD_REACTORS
330
2A
102
}
330
2A
100
AcDbVisualStyle
  2
Dim
 70
    11
 71
     2
 72
     2
 73
     0
 90
        0
 40
-0.6
 41
-30.0
 62
     5
 63
     7
421
 16777215
 74
     1
 91
        4
 64
     7
 65
   257
 75
     1
175
     1
 42
1.0
 92
        8
 66
     7
 43
1.0
 76
     1
 77
     6
 78
     2
 67
     7
 79
     5
170
     0
171
     0
290
     0
174
     0
 93
        1
 44
-50.0
173
     0
291
     1
 45
0.0
1001
ACAD
1000
AcDbSavedByObjectVersion
1070
     0
  0
VISUALSTYLE
  5
39
102
{ACAD_REACTORS
330
2A
102
}
330
2A
100
AcDbVisualStyle
  2
Facepattern
 70
    15
 71
     2
 72
     2
 73
     0
 90
        0
 40
-0.6
 41
-30.0
 62
     5
 63
     7
421
 16777215
 74
     1
 91
        4
 64
     7
 65
   257
 75
     1
175
     1
 42
1.0
 92
        8
 66
     7
 43
1.0
 76
     1
 77
     6
 78
     2
 67
     7
 79
     5
170
     0
171
     0
290
     0
174
     0
 93
        1
 44
0.0
173
     0
291
     1
 45
0.0
1001
ACAD
1000
AcDbSavedByObjectVersion
1070
     0
  0
VISUALSTYLE
  5
2B
102
{ACAD_REACTORS
330
2A
102
}
330
2A
100
AcDbVisualStyle
  2
Flat
 70
     0
 71
     2
 72
     1
 73
     1
 90
        2
 40
-0.6
 41
30.0
 62
     5
 63
     7
421
 16777215
 74
     0
 91
        4
 64
     7
 65
   257
 75
     1
175
     1
 42
1.0
 92
        8
 66
     7
 43
1.0
 76
     1
 77
     6
 78
     2
 67
     7
 79
     5
170
     0
171
     0
290
     0
174
     0
 93
       13
 44
0.0
173
     0
291
     1
 45
0.0
1001
ACAD
1000
AcDbSavedByObjectVersion
1070
     0
  0
VISUALSTYLE
  5
2C
102
{ACAD_REACTORS
330
2A
102
}
330
2A
100
AcDbVisualStyle
  2
FlatWithEdges
 70
     1
 71
     2
 72
     1
 73
     1
 90
        2
 40
-0.6
 41
30.0
 62
     5
 63
     7
421
 16777215
 74
     1
 91
        4
 64
     7
 65
   257
 75
     1
175
     1
 42
1.0
 92
        0
 66
   257
 43
1.0
 76
     1
 77
     6
 78
     2
 67
     7
 79
     5
170
     0
171
     0
290
     0
174
     0
 93
       13
 44
0.0
173
     0
291
     1
 45
0.0
1001
ACAD
1000
AcDbSavedByObjectVersion
1070
     0
  0
VISUALSTYLE
  5
2D
102
{ACAD_REACTORS
330
2A
102
}
330
2A
100
AcDbVisualStyle
  2
Gouraud
 70
     2
 71
     2
 72
     2
 73
     1
 90
        2
 40
-0.6
 41
30.0
 62
     5
 63
     7
421
 16777215
 74
     0
 91
        4
 64
     7
 65
   257
 75
     1
175
     1
 42
1.0
 92
        0
 66
     7
 43
1.0
 76
     1
 77
     6
 78
     2
 67
     7
 79
     5
170
     0
171
     0
290
     0
174
     0
 93
       13
 44
0.0
173
     0
291
     1
 45
0.0
1001
ACAD
1000
AcDbSavedByObjectVersion
1070
     0
  0
VISUALSTYLE
  5
2E
102
{ACAD_REACTORS
330
2A
102
}
330
2A
100
AcDbVisualStyle
  2
GouraudWithEdges
 70
     3
 71
     2
 72
     2
 73
     1
 90
        2
 40
-0.6
 41
30.0
 62
     5
 63
     7
421
 16777215
 74
     1
 91
        4
 64
     7
 65
   257
 75
     1
175
     1
 42
1.0
 92
        0
 66
   257
 43
1.0
 76
     1
 77
     6
 78
     2
 67
     7
 79
     5
170
     0
171
     0
290
     0
174
     0
 93
       13
 44
0.0
173
     0
291
     1
 45
0.0
1001
ACAD
1000
AcDbSavedByObjectVersion
1070
     0
  0
VISUALSTYLE
  5
38
102
{ACAD_REACTORS
330
2A
102
}
330
2A
100
AcDbVisualStyle
  2
Linepattern
 70
    14
 71
     2
 72
     2
 73
     0
 90
        0
 40
-0.6
 41
-30.0
 62
     5
 63
     7
421
 16777215
 74
     1
 91
        4
 64
     7
 65
   257
 75
     7
175
     7
 42
1.0
 92
        8
 66
     7
 43
1.0
 76
     1
 77
     6
 78
     2
 67
     7
 79
     5
170
     0
171
     0
290
     0
174
     0
 93
        1
 44
0.0
173
     0
291
     1
 45
0.0
1001
ACAD
1000
AcDbSavedByObjectVersion
1070
     0
  0
VISUALSTYLE
  5
33
102
{ACAD_REACTORS
330
2A
102
}
330
2A
100
AcDbVisualStyle
  2
Realistic
 70
     8
 71
     2
 72
     2
 73
     0
 90
        0
 40
-0.6
 41
-30.0
 62
     5
 63
     7
421
 16777215
 74
     1
 91
        0
 64
     7
 65
   257
 75
     1
175
     1
 42
1.0
 92
        8
 66
     8
424
  7895160
 43
1.0
 76
     1
 77
     6
 78
     2
 67
     7
 79
     5
170
     0
171
     0
290
     0
174
     0
 93
       13
 44
0.0
173
     0
291
     0
 45
0.0
1001
ACAD
1000
AcDbSavedByObjectVersion
1070
     0
  0
VISUALSTYLE
  5
37
102
{ACAD_REACTORS
330
2A
102
}
330
2A
100
AcDbVisualStyle
  2
Thicken
 70
    13
 71
     2
 72
     2
 73
     0
 90
        0
 40
-0.6
 41
-30.0
 62
     5
 63
     7
421
 16777215
 74
     1
 91
        4
 64
     7
 65
   257
 75
     1
175
     1
 42
1.0
 92
       12
 66
     7
 43
1.0
 76
     1
 77
     6
 78
     2
 67
     7
 79
     5
170
     0
171
     0
290
     0
174
     0
 93
        1
 44
0.0
173
     0
291
     1
 45
0.0
1001
ACAD
1000
AcDbSavedByObjectVersion
1070
     0
  0
ENDSEC
  0
EOF
