  0
SECTION
  2
HEADER
  9
$ACADVER
  1
AC1015
  9
$ACADMAINTVER
 70
     6
  9
$DWGCODEPAGE
  3
ANSI_932
  9
$INSBASE
 10
0.0
 20
0.0
 30
0.0
  9
$EXTMIN
 10
1.000000000000000E+20
 20
1.000000000000000E+20
 30
1.000000000000000E+20
  9
$EXTMAX
 10
-1.000000000000000E+20
 20
-1.000000000000000E+20
 30
-1.000000000000000E+20
  9
$LIMMIN
 10
0.0
 20
0.0
  9
$LIMMAX
 10
12.0
 20
9.0
  9
$ORTHOMODE
 70
     0
  9
$REGENMODE
 70
     1
  9
$FILLMODE
 70
     1
  9
$QTEXTMODE
 70
     0
  9
$MIRRTEXT
 70
     1
  9
$LTSCALE
 40
1.0
  9
$ATTMODE
 70
     1
  9
$TEXTSIZE
 40
0.2
  9
$TRACEWID
 40
0.05
  9
$TEXTSTYLE
  7
Standard
  9
$CLAYER
  8
0
  9
$CELTYPE
  6
ByLayer
  9
$CECOLOR
 62
   256
  9
$CELTSCALE
 40
1.0
  9
$DISPSILH
 70
     0
  9
$DIMSCALE
 40
1.0
  9
$DIMASZ
 40
0.18
  9
$DIMEXO
 40
0.0625
  9
$DIMDLI
 40
0.38
  9
$DIMRND
 40
0.0
  9
$DIMDLE
 40
0.0
  9
$DIMEXE
 40
0.18
  9
$DIMTP
 40
0.0
  9
$DIMTM
 40
0.0
  9
$DIMTXT
 40
0.18
  9
$DIMCEN
 40
0.09
  9
$DIMTSZ
 40
0.0
  9
$DIMTOL
 70
     0
  9
$DIMLIM
 70
     0
  9
$DIMTIH
 70
     1
  9
$DIMTOH
 70
     1
  9
$DIMSE1
 70
     0
  9
$DIMSE2
 70
     0
  9
$DIMTAD
 70
     0
  9
$DIMZIN
 70
     0
  9
$DIMBLK
  1

  9
$DIMASO
 70
     1
  9
$DIMSHO
 70
     1
  9
$DIMPOST
  1

  9
$DIMAPOST
  1

  9
$DIMALT
 70
     0
  9
$DIMALTD
 70
     2
  9
$DIMALTF
 40
25.4
  9
$DIMLFAC
 40
1.0
  9
$DIMTOFL
 70
     0
  9
$DIMTVP
 40
0.0
  9
$DIMTIX
 70
     0
  9
$DIMSOXD
 70
     0
  9
$DIMSAH
 70
     0
  9
$DIMBLK1
  1

  9
$DIMBLK2
  1

  9
$DIMSTYLE
  2
Standard
  9
$DIMCLRD
 70
     0
  9
$DIMCLRE
 70
     0
  9
$DIMCLRT
 70
     0
  9
$DIMTFAC
 40
1.0
  9
$DIMGAP
 40
0.09
  9
$DIMJUST
 70
     0
  9
$DIMSD1
 70
     0
  9
$DIMSD2
 70
     0
  9
$DIMTOLJ
 70
     1
  9
$DIMTZIN
 70
     0
  9
$DIMALTZ
 70
     0
  9
$DIMALTTZ
 70
     0
  9
$DIMUPT
 70
     0
  9
$DIMDEC
 70
     4
  9
$DIMTDEC
 70
     4
  9
$DIMALTU
 70
     2
  9
$DIMALTTD
 70
     2
  9
$DIMTXSTY
  7
Standard
  9
$DIMAUNIT
 70
     0
  9
$DIMADEC
 70
     0
  9
$DIMALTRND
 40
0.0
  9
$DIMAZIN
 70
     0
  9
$DIMDSEP
 70
    46
  9
$DIMATFIT
 70
     3
  9
$DIMFRAC
 70
     0
  9
$DIMLDRBLK
  1

  9
$DIMLUNIT
 70
     2
  9
$DIMLWD
 70
    -2
  9
$DIMLWE
 70
    -2
  9
$DIMTMOVE
 70
     0
  9
$LUNITS
 70
     2
  9
$LUPREC
 70
     4
  9
$SKETCHINC
 40
0.1
  9
$FILLETRAD
 40
0.5
  9
$AUNITS
 70
     0
  9
$AUPREC
 70
     0
  9
$MENU
  1
.
  9
$ELEVATION
 40
0.0
  9
$PELEVATION
 40
0.0
  9
$THICKNESS
 40
0.0
  9
$LIMCHECK
 70
     0
  9
$CHAMFERA
 40
0.5
  9
$CHAMFERB
 40
0.5
  9
$CHAMFERC
 40
1.0
  9
$CHAMFERD
 40
0.0
  9
$SKPOLY
 70
     0
  9
$TDCREATE
 40
2456821.718259896
  9
$TDUCREATE
 40
2456821.343259896
  9
$TDUPDATE
 40
2456821.718259907
  9
$TDUUPDATE
 40
2456821.343259907
  9
$TDINDWG
 40
0.0000000116
  9
$TDUSRTIMER
 40
0.0000000116
  9
$USRTIMER
 70
     1
  9
$ANGBASE
 50
0.0
  9
$ANGDIR
 70
     0
  9
$PDMODE
 70
     0
  9
$PDSIZE
 40
0.0
  9
$PLINEWID
 40
0.0
  9
$SPLFRAME
 70
     0
  9
$SPLINETYPE
 70
     6
  9
$SPLINESEGS
 70
     8
  9
$HANDSEED
  5
3CA
  9
$SURFTAB1
 70
     6
  9
$SURFTAB2
 70
     6
  9
$SURFTYPE
 70
     6
  9
$SURFU
 70
     6
  9
$SURFV
 70
     6
  9
$UCSBASE
  2

  9
$UCSNAME
  2

  9
$UCSORG
 10
0.0
 20
0.0
 30
0.0
  9
$UCSXDIR
 10
1.0
 20
0.0
 30
0.0
  9
$UCSYDIR
 10
0.0
 20
1.0
 30
0.0
  9
$UCSORTHOREF
  2

  9
$UCSORTHOVIEW
 70
     0
  9
$UCSORGTOP
 10
0.0
 20
0.0
 30
0.0
  9
$UCSORGBOTTOM
 10
0.0
 20
0.0
 30
0.0
  9
$UCSORGLEFT
 10
0.0
 20
0.0
 30
0.0
  9
$UCSORGRIGHT
 10
0.0
 20
0.0
 30
0.0
  9
$UCSORGFRONT
 10
0.0
 20
0.0
 30
0.0
  9
$UCSORGBACK
 10
0.0
 20
0.0
 30
0.0
  9
$PUCSBASE
  2

  9
$PUCSNAME
  2

  9
$PUCSORG
 10
0.0
 20
0.0
 30
0.0
  9
$PUCSXDIR
 10
1.0
 20
0.0
 30
0.0
  9
$PUCSYDIR
 10
0.0
 20
1.0
 30
0.0
  9
$PUCSORTHOREF
  2

  9
$PUCSORTHOVIEW
 70
     0
  9
$PUCSORGTOP
 10
0.0
 20
0.0
 30
0.0
  9
$PUCSORGBOTTOM
 10
0.0
 20
0.0
 30
0.0
  9
$PUCSORGLEFT
 10
0.0
 20
0.0
 30
0.0
  9
$PUCSORGRIGHT
 10
0.0
 20
0.0
 30
0.0
  9
$PUCSORGFRONT
 10
0.0
 20
0.0
 30
0.0
  9
$PUCSORGBACK
 10
0.0
 20
0.0
 30
0.0
  9
$USERI1
 70
     0
  9
$USERI2
 70
     0
  9
$USERI3
 70
     0
  9
$USERI4
 70
     0
  9
$USERI5
 70
     0
  9
$USERR1
 40
0.0
  9
$USERR2
 40
0.0
  9
$USERR3
 40
0.0
  9
$USERR4
 40
0.0
  9
$USERR5
 40
0.0
  9
$WORLDVIEW
 70
     1
  9
$SHADEDGE
 70
     3
  9
$SHADEDIF
 70
    70
  9
$TILEMODE
 70
     1
  9
$MAXACTVP
 70
    64
  9
$PINSBASE
 10
0.0
 20
0.0
 30
0.0
  9
$PLIMCHECK
 70
     0
  9
$PEXTMIN
 10
1.000000000000000E+20
 20
1.000000000000000E+20
 30
1.000000000000000E+20
  9
$PEXTMAX
 10
-1.000000000000000E+20
 20
-1.000000000000000E+20
 30
-1.000000000000000E+20
  9
$PLIMMIN
 10
0.0
 20
0.0
  9
$PLIMMAX
 10
12.0
 20
9.0
  9
$UNITMODE
 70
     0
  9
$VISRETAIN
 70
     1
  9
$PLINEGEN
 70
     0
  9
$PSLTSCALE
 70
     1
  9
$TREEDEPTH
 70
  3020
  9
$CMLSTYLE
  2
Standard
  9
$CMLJUST
 70
     0
  9
$CMLSCALE
 40
1.0
  9
$PROXYGRAPHICS
 70
     1
  9
$MEASUREMENT
 70
     0
  9
$CELWEIGHT
370
    -1
  9
$ENDCAPS
280
     0
  9
$JOINSTYLE
280
     0
  9
$LWDISPLAY
290
     1
  9
$INSUNITS
 70
     1
  9
$HYPERLINKBASE
  1

  9
$STYLESHEET
  1

  9
$XEDIT
290
     1
  9
$CEPSNTYPE
380
     0
  9
$PSTYLEMODE
290
     1
  9
$FINGERPRINTGUID
  2
{2B2670CA-8E10-4C30-9C35-FFD4E3E12BA7}
  9
$VERSIONGUID
  2
{FAEB1C32-E019-11D5-929B-00C0DF256EC4}
  9
$EXTNAMES
290
     1
  9
$PSVPSCALE
 40
0.0
  9
$OLESTARTUP
290
     0
  0
ENDSEC
  0
SECTION
  2
CLASSES
  0
CLASS
  1
ACDBDICTIONARYWDFLT
  2
AcDbDictionaryWithDefault
  3
ObjectDBX Classes
 90
        0
280
     0
281
     0
  0
CLASS
  1
VISUALSTYLE
  2
AcDbVisualStyle
  3
ObjectDBX Classes
 90
     4095
280
     0
281
     0
  0
CLASS
  1
ACDBPLACEHOLDER
  2
AcDbPlaceHolder
  3
ObjectDBX Classes
 90
        0
280
     0
281
     0
  0
CLASS
  1
LAYOUT
  2
AcDbLayout
  3
ObjectDBX Classes
 90
        0
280
     0
281
     0
  0
ENDSEC
  0
SECTION
  2
TABLES
  0
TABLE
  2
VPORT
  5
8
330
0
100
AcDbSymbolTable
 70
     1
  0
VPORT
  5
29
330
8
100
AcDbSymbolTableRecord
100
AcDbViewportTableRecord
  2
*Active
 70
     0
 10
0.0
 20
0.0
 11
1.0
 21
1.0
 12
0.0
 22
0.0
 13
0.0
 23
0.0
 14
0.5
 24
0.5
 15
0.5
 25
0.5
 16
0.0
 26
0.0
 36
1.0
 17
148.6165960999986
 27
104.891616455982
 37
0.0
 40
296.9999592356459
 41
1.414141132937785
 42
50.0
 43
0.0
 44
0.0
 50
0.0
 51
0.0
 71
     0
 72
   100
 73
     1
 74
     3
 75
     0
 76
     0
 77
     0
 78
     0
281
     0
 65
     1
110
0.0
120
0.0
130
0.0
111
1.0
121
0.0
131
0.0
112
0.0
122
1.0
132
0.0
 79
     0
146
0.0
  0
ENDTAB
  0
TABLE
  2
LTYPE
  5
5
330
0
100
AcDbSymbolTable
 70
     1
  0
LTYPE
  5
14
330
5
100
AcDbSymbolTableRecord
100
AcDbLinetypeTableRecord
  2
ByBlock
 70
     0
  3

 72
    65
 73
     0
 40
0.0
  0
LTYPE
  5
15
330
5
100
AcDbSymbolTableRecord
100
AcDbLinetypeTableRecord
  2
ByLayer
 70
     0
  3

 72
    65
 73
     0
 40
0.0
  0
LTYPE
  5
16
330
5
100
AcDbSymbolTableRecord
100
AcDbLinetypeTableRecord
  2
Continuous
 70
     0
  3
Solid line
 72
    65
 73
     0
 40
0.0
  0
ENDTAB
  0
TABLE
  2
LAYER
  5
2
330
0
100
AcDbSymbolTable
 70
     3
  0
LAYER
  5
10
330
2
100
AcDbSymbolTableRecord
100
AcDbLayerTableRecord
  2
0
 70
     0
 62
     7
  6
Continuous
370
    -3
390
F
  0
LAYER
  5
3B
330
2
100
AcDbSymbolTableRecord
100
AcDbLayerTableRecord
  2
\U+30D5\U+30A9\U+30FC\U+30DE\U+30C3\U+30C8
 70
     4
 62
     7
  6
Continuous
370
    -3
390
F
  0
LAYER
  5
2ED
330
2
100
AcDbSymbolTableRecord
100
AcDbLayerTableRecord
  2
\U+30EC\U+30A4\U+30E4\U+30FC 1
 70
     0
 62
     7
  6
Continuous
370
    -3
390
F
  0
ENDTAB
  0
TABLE
  2
STYLE
  5
3
330
0
100
AcDbSymbolTable
 70
     1
  0
STYLE
  5
11
330
3
100
AcDbSymbolTableRecord
100
AcDbTextStyleTableRecord
  2
Standard
 70
     0
 40
0.0
 41
1.0
 50
0.0
 71
     0
 42
0.2
  3
txt
  4

  0
ENDTAB
  0
TABLE
  2
VIEW
  5
6
330
0
100
AcDbSymbolTable
 70
     0
  0
ENDTAB
  0
TABLE
  2
UCS
  5
7
330
0
100
AcDbSymbolTable
 70
     0
  0
ENDTAB
  0
TABLE
  2
APPID
  5
9
330
0
100
AcDbSymbolTable
 70
     1
  0
APPID
  5
12
330
9
100
AcDbSymbolTableRecord
100
AcDbRegAppTableRecord
  2
ACAD
 70
     0
  0
ENDTAB
  0
TABLE
  2
DIMSTYLE
  5
A
330
0
100
AcDbSymbolTable
 70
     1
100
AcDbDimStyleTable
  0
DIMSTYLE
105
27
330
A
100
AcDbSymbolTableRecord
100
AcDbDimStyleTableRecord
  2
Standard
 70
     0
340
11
  0
ENDTAB
  0
TABLE
  2
BLOCK_RECORD
  5
1
330
0
100
AcDbSymbolTable
 70
   110
  0
BLOCK_RECORD
  5
1F
330
1
100
AcDbSymbolTableRecord
100
AcDbBlockTableRecord
  2
*Model_Space
340
22
  0
BLOCK_RECORD
  5
1B
330
1
100
AcDbSymbolTableRecord
100
AcDbBlockTableRecord
  2
*Paper_Space
340
1E
  0
BLOCK_RECORD
  5
23
330
1
100
AcDbSymbolTableRecord
100
AcDbBlockTableRecord
  2
*Paper_Space0
340
26
  0
BLOCK_RECORD
  5
3C
330
1
100
AcDbSymbolTableRecord
100
AcDbBlockTableRecord
  2
block 2
340
0
102
{BLKREFS
331
3D
102
}
  0
BLOCK_RECORD
  5
40
330
1
100
AcDbSymbolTableRecord
100
AcDbBlockTableRecord
  2
block 3
340
0
102
{BLKREFS
331
41
102
}
  0
BLOCK_RECORD
  5
44
330
1
100
AcDbSymbolTableRecord
100
AcDbBlockTableRecord
  2
block 4
340
0
102
{BLKREFS
331
45
102
}
  0
BLOCK_RECORD
  5
49
330
1
100
AcDbSymbolTableRecord
100
AcDbBlockTableRecord
  2
block 5
340
0
102
{BLKREFS
331
4A
102
}
  0
BLOCK_RECORD
  5
4D
330
1
100
AcDbSymbolTableRecord
100
AcDbBlockTableRecord
  2
block 6
340
0
102
{BLKREFS
331
4E
102
}
  0
BLOCK_RECORD
  5
51
330
1
100
AcDbSymbolTableRecord
100
AcDbBlockTableRecord
  2
block 7
340
0
102
{BLKREFS
331
52
102
}
  0
BLOCK_RECORD
  5
56
330
1
100
AcDbSymbolTableRecord
100
AcDbBlockTableRecord
  2
block 8
340
0
102
{BLKREFS
331
57
102
}
  0
BLOCK_RECORD
  5
5A
330
1
100
AcDbSymbolTableRecord
100
AcDbBlockTableRecord
  2
block 9
340
0
102
{BLKREFS
331
5B
102
}
  0
BLOCK_RECORD
  5
5E
330
1
100
AcDbSymbolTableRecord
100
AcDbBlockTableRecord
  2
block 10
340
0
102
{BLKREFS
331
5F
102
}
  0
BLOCK_RECORD
  5
63
330
1
100
AcDbSymbolTableRecord
100
AcDbBlockTableRecord
  2
block 11
340
0
102
{BLKREFS
331
64
102
}
  0
BLOCK_RECORD
  5
67
330
1
100
AcDbSymbolTableRecord
100
AcDbBlockTableRecord
  2
block 12
340
0
102
{BLKREFS
331
68
102
}
  0
BLOCK_RECORD
  5
6B
330
1
100
AcDbSymbolTableRecord
100
AcDbBlockTableRecord
  2
block 13
340
0
102
{BLKREFS
331
6C
102
}
  0
BLOCK_RECORD
  5
70
330
1
100
AcDbSymbolTableRecord
100
AcDbBlockTableRecord
  2
block 14
340
0
102
{BLKREFS
331
71
102
}
  0
BLOCK_RECORD
  5
74
330
1
100
AcDbSymbolTableRecord
100
AcDbBlockTableRecord
  2
block 15
340
0
102
{BLKREFS
331
75
102
}
  0
BLOCK_RECORD
  5
78
330
1
100
AcDbSymbolTableRecord
100
AcDbBlockTableRecord
  2
block 16
340
0
102
{BLKREFS
331
79
102
}
  0
BLOCK_RECORD
  5
7D
330
1
100
AcDbSymbolTableRecord
100
AcDbBlockTableRecord
  2
block 17
340
0
102
{BLKREFS
331
7E
102
}
  0
BLOCK_RECORD
  5
81
330
1
100
AcDbSymbolTableRecord
100
AcDbBlockTableRecord
  2
block 18
340
0
102
{BLKREFS
331
82
102
}
  0
BLOCK_RECORD
  5
85
330
1
100
AcDbSymbolTableRecord
100
AcDbBlockTableRecord
  2
block 19
340
0
102
{BLKREFS
331
86
102
}
  0
BLOCK_RECORD
  5
8A
330
1
100
AcDbSymbolTableRecord
100
AcDbBlockTableRecord
  2
block 20
340
0
102
{BLKREFS
331
8B
102
}
  0
BLOCK_RECORD
  5
8E
330
1
100
AcDbSymbolTableRecord
100
AcDbBlockTableRecord
  2
block 21
340
0
102
{BLKREFS
331
8F
102
}
  0
BLOCK_RECORD
  5
92
330
1
100
AcDbSymbolTableRecord
100
AcDbBlockTableRecord
  2
block 22
340
0
102
{BLKREFS
331
93
102
}
  0
BLOCK_RECORD
  5
97
330
1
100
AcDbSymbolTableRecord
100
AcDbBlockTableRecord
  2
block 23
340
0
102
{BLKREFS
331
98
102
}
  0
BLOCK_RECORD
  5
9B
330
1
100
AcDbSymbolTableRecord
100
AcDbBlockTableRecord
  2
block 24
340
0
102
{BLKREFS
331
9C
102
}
  0
BLOCK_RECORD
  5
9F
330
1
100
AcDbSymbolTableRecord
100
AcDbBlockTableRecord
  2
block 25
340
0
102
{BLKREFS
331
A0
102
}
  0
BLOCK_RECORD
  5
A4
330
1
100
AcDbSymbolTableRecord
100
AcDbBlockTableRecord
  2
block 26
340
0
102
{BLKREFS
331
A5
102
}
  0
BLOCK_RECORD
  5
A8
330
1
100
AcDbSymbolTableRecord
100
AcDbBlockTableRecord
  2
block 27
340
0
102
{BLKREFS
331
A9
102
}
  0
BLOCK_RECORD
  5
AC
330
1
100
AcDbSymbolTableRecord
100
AcDbBlockTableRecord
  2
block 28
340
0
102
{BLKREFS
331
AD
102
}
  0
BLOCK_RECORD
  5
B5
330
1
100
AcDbSymbolTableRecord
100
AcDbBlockTableRecord
  2
block 29
340
0
102
{BLKREFS
331
B6
102
}
  0
BLOCK_RECORD
  5
B9
330
1
100
AcDbSymbolTableRecord
100
AcDbBlockTableRecord
  2
block 30
340
0
102
{BLKREFS
331
BA
102
}
  0
BLOCK_RECORD
  5
BD
330
1
100
AcDbSymbolTableRecord
100
AcDbBlockTableRecord
  2
block 31
340
0
102
{BLKREFS
331
BE
102
}
  0
BLOCK_RECORD
  5
CD
330
1
100
AcDbSymbolTableRecord
100
AcDbBlockTableRecord
  2
block 32
340
0
102
{BLKREFS
331
CE
102
}
  0
BLOCK_RECORD
  5
D1
330
1
100
AcDbSymbolTableRecord
100
AcDbBlockTableRecord
  2
block 33
340
0
102
{BLKREFS
331
D2
102
}
  0
BLOCK_RECORD
  5
D5
330
1
100
AcDbSymbolTableRecord
100
AcDbBlockTableRecord
  2
block 34
340
0
102
{BLKREFS
331
D6
102
}
  0
BLOCK_RECORD
  5
DA
330
1
100
AcDbSymbolTableRecord
100
AcDbBlockTableRecord
  2
block 35
340
0
102
{BLKREFS
331
DB
102
}
  0
BLOCK_RECORD
  5
DE
330
1
100
AcDbSymbolTableRecord
100
AcDbBlockTableRecord
  2
block 36
340
0
102
{BLKREFS
331
DF
102
}
  0
BLOCK_RECORD
  5
E2
330
1
100
AcDbSymbolTableRecord
100
AcDbBlockTableRecord
  2
block 37
340
0
102
{BLKREFS
331
E3
102
}
  0
BLOCK_RECORD
  5
E7
330
1
100
AcDbSymbolTableRecord
100
AcDbBlockTableRecord
  2
block 38
340
0
102
{BLKREFS
331
E8
102
}
  0
BLOCK_RECORD
  5
EB
330
1
100
AcDbSymbolTableRecord
100
AcDbBlockTableRecord
  2
block 39
340
0
102
{BLKREFS
331
EC
102
}
  0
BLOCK_RECORD
  5
EF
330
1
100
AcDbSymbolTableRecord
100
AcDbBlockTableRecord
  2
block 40
340
0
102
{BLKREFS
331
F0
102
}
  0
BLOCK_RECORD
  5
F4
330
1
100
AcDbSymbolTableRecord
100
AcDbBlockTableRecord
  2
block 41
340
0
102
{BLKREFS
331
F5
102
}
  0
BLOCK_RECORD
  5
F8
330
1
100
AcDbSymbolTableRecord
100
AcDbBlockTableRecord
  2
block 42
340
0
102
{BLKREFS
331
F9
102
}
  0
BLOCK_RECORD
  5
FC
330
1
100
AcDbSymbolTableRecord
100
AcDbBlockTableRecord
  2
block 43
340
0
102
{BLKREFS
331
FD
102
}
  0
BLOCK_RECORD
  5
105
330
1
100
AcDbSymbolTableRecord
100
AcDbBlockTableRecord
  2
block 44
340
0
102
{BLKREFS
331
106
102
}
  0
BLOCK_RECORD
  5
109
330
1
100
AcDbSymbolTableRecord
100
AcDbBlockTableRecord
  2
block 45
340
0
102
{BLKREFS
331
10A
102
}
  0
BLOCK_RECORD
  5
10D
330
1
100
AcDbSymbolTableRecord
100
AcDbBlockTableRecord
  2
block 46
340
0
102
{BLKREFS
331
10E
102
}
  0
BLOCK_RECORD
  5
111
330
1
100
AcDbSymbolTableRecord
100
AcDbBlockTableRecord
  2
block 47
340
0
102
{BLKREFS
331
112
102
}
  0
BLOCK_RECORD
  5
116
330
1
100
AcDbSymbolTableRecord
100
AcDbBlockTableRecord
  2
block 48
340
0
102
{BLKREFS
331
117
102
}
  0
BLOCK_RECORD
  5
11A
330
1
100
AcDbSymbolTableRecord
100
AcDbBlockTableRecord
  2
block 49
340
0
102
{BLKREFS
331
11B
102
}
  0
BLOCK_RECORD
  5
11E
330
1
100
AcDbSymbolTableRecord
100
AcDbBlockTableRecord
  2
block 50
340
0
102
{BLKREFS
331
11F
102
}
  0
BLOCK_RECORD
  5
123
330
1
100
AcDbSymbolTableRecord
100
AcDbBlockTableRecord
  2
block 51
340
0
102
{BLKREFS
331
124
102
}
  0
BLOCK_RECORD
  5
127
330
1
100
AcDbSymbolTableRecord
100
AcDbBlockTableRecord
  2
block 52
340
0
102
{BLKREFS
331
128
102
}
  0
BLOCK_RECORD
  5
12B
330
1
100
AcDbSymbolTableRecord
100
AcDbBlockTableRecord
  2
block 53
340
0
102
{BLKREFS
331
12C
102
}
  0
BLOCK_RECORD
  5
12F
330
1
100
AcDbSymbolTableRecord
100
AcDbBlockTableRecord
  2
block 54
340
0
102
{BLKREFS
331
130
102
}
  0
BLOCK_RECORD
  5
134
330
1
100
AcDbSymbolTableRecord
100
AcDbBlockTableRecord
  2
block 55
340
0
102
{BLKREFS
331
135
102
}
  0
BLOCK_RECORD
  5
138
330
1
100
AcDbSymbolTableRecord
100
AcDbBlockTableRecord
  2
block 56
340
0
102
{BLKREFS
331
139
102
}
  0
BLOCK_RECORD
  5
13C
330
1
100
AcDbSymbolTableRecord
100
AcDbBlockTableRecord
  2
block 57
340
0
102
{BLKREFS
331
13D
102
}
  0
BLOCK_RECORD
  5
141
330
1
100
AcDbSymbolTableRecord
100
AcDbBlockTableRecord
  2
block 58
340
0
102
{BLKREFS
331
142
102
}
  0
BLOCK_RECORD
  5
145
330
1
100
AcDbSymbolTableRecord
100
AcDbBlockTableRecord
  2
block 59
340
0
102
{BLKREFS
331
146
102
}
  0
BLOCK_RECORD
  5
149
330
1
100
AcDbSymbolTableRecord
100
AcDbBlockTableRecord
  2
block 60
340
0
102
{BLKREFS
331
14A
102
}
  0
BLOCK_RECORD
  5
14D
330
1
100
AcDbSymbolTableRecord
100
AcDbBlockTableRecord
  2
block 61
340
0
102
{BLKREFS
331
14E
102
}
  0
BLOCK_RECORD
  5
152
330
1
100
AcDbSymbolTableRecord
100
AcDbBlockTableRecord
  2
block 62
340
0
102
{BLKREFS
331
153
102
}
  0
BLOCK_RECORD
  5
156
330
1
100
AcDbSymbolTableRecord
100
AcDbBlockTableRecord
  2
block 63
340
0
102
{BLKREFS
331
157
102
}
  0
BLOCK_RECORD
  5
15A
330
1
100
AcDbSymbolTableRecord
100
AcDbBlockTableRecord
  2
block 64
340
0
102
{BLKREFS
331
15B
102
}
  0
BLOCK_RECORD
  5
15F
330
1
100
AcDbSymbolTableRecord
100
AcDbBlockTableRecord
  2
block 65
340
0
102
{BLKREFS
331
160
102
}
  0
BLOCK_RECORD
  5
163
330
1
100
AcDbSymbolTableRecord
100
AcDbBlockTableRecord
  2
block 66
340
0
102
{BLKREFS
331
164
102
}
  0
BLOCK_RECORD
  5
167
330
1
100
AcDbSymbolTableRecord
100
AcDbBlockTableRecord
  2
block 67
340
0
102
{BLKREFS
331
168
102
}
  0
BLOCK_RECORD
  5
16C
330
1
100
AcDbSymbolTableRecord
100
AcDbBlockTableRecord
  2
block 68
340
0
102
{BLKREFS
331
16D
102
}
  0
BLOCK_RECORD
  5
170
330
1
100
AcDbSymbolTableRecord
100
AcDbBlockTableRecord
  2
block 69
340
0
102
{BLKREFS
331
171
102
}
  0
BLOCK_RECORD
  5
174
330
1
100
AcDbSymbolTableRecord
100
AcDbBlockTableRecord
  2
block 70
340
0
102
{BLKREFS
331
175
102
}
  0
BLOCK_RECORD
  5
179
330
1
100
AcDbSymbolTableRecord
100
AcDbBlockTableRecord
  2
block 71
340
0
102
{BLKREFS
331
17A
102
}
  0
BLOCK_RECORD
  5
17D
330
1
100
AcDbSymbolTableRecord
100
AcDbBlockTableRecord
  2
block 72
340
0
102
{BLKREFS
331
17E
102
}
  0
BLOCK_RECORD
  5
181
330
1
100
AcDbSymbolTableRecord
100
AcDbBlockTableRecord
  2
block 73
340
0
102
{BLKREFS
331
182
102
}
  0
BLOCK_RECORD
  5
186
330
1
100
AcDbSymbolTableRecord
100
AcDbBlockTableRecord
  2
block 74
340
0
102
{BLKREFS
331
187
102
}
  0
BLOCK_RECORD
  5
18A
330
1
100
AcDbSymbolTableRecord
100
AcDbBlockTableRecord
  2
block 75
340
0
102
{BLKREFS
331
18B
102
}
  0
BLOCK_RECORD
  5
18E
330
1
100
AcDbSymbolTableRecord
100
AcDbBlockTableRecord
  2
block 76
340
0
102
{BLKREFS
331
18F
102
}
  0
BLOCK_RECORD
  5
193
330
1
100
AcDbSymbolTableRecord
100
AcDbBlockTableRecord
  2
block 77
340
0
102
{BLKREFS
331
194
102
}
  0
BLOCK_RECORD
  5
197
330
1
100
AcDbSymbolTableRecord
100
AcDbBlockTableRecord
  2
block 78
340
0
102
{BLKREFS
331
198
102
}
  0
BLOCK_RECORD
  5
19B
330
1
100
AcDbSymbolTableRecord
100
AcDbBlockTableRecord
  2
block 79
340
0
102
{BLKREFS
331
19C
102
}
  0
BLOCK_RECORD
  5
1A0
330
1
100
AcDbSymbolTableRecord
100
AcDbBlockTableRecord
  2
block 80
340
0
102
{BLKREFS
331
1A1
102
}
  0
BLOCK_RECORD
  5
1A4
330
1
100
AcDbSymbolTableRecord
100
AcDbBlockTableRecord
  2
block 81
340
0
102
{BLKREFS
331
1A5
102
}
  0
BLOCK_RECORD
  5
1A8
330
1
100
AcDbSymbolTableRecord
100
AcDbBlockTableRecord
  2
block 82
340
0
102
{BLKREFS
331
1A9
102
}
  0
BLOCK_RECORD
  5
1AD
330
1
100
AcDbSymbolTableRecord
100
AcDbBlockTableRecord
  2
block 83
340
0
102
{BLKREFS
331
1AE
102
}
  0
BLOCK_RECORD
  5
1B1
330
1
100
AcDbSymbolTableRecord
100
AcDbBlockTableRecord
  2
block 84
340
0
102
{BLKREFS
331
1B2
102
}
  0
BLOCK_RECORD
  5
1B5
330
1
100
AcDbSymbolTableRecord
100
AcDbBlockTableRecord
  2
block 85
340
0
102
{BLKREFS
331
1B6
102
}
  0
BLOCK_RECORD
  5
1BA
330
1
100
AcDbSymbolTableRecord
100
AcDbBlockTableRecord
  2
block 86
340
0
102
{BLKREFS
331
1BB
102
}
  0
BLOCK_RECORD
  5
1BE
330
1
100
AcDbSymbolTableRecord
100
AcDbBlockTableRecord
  2
block 87
340
0
102
{BLKREFS
331
1BF
102
}
  0
BLOCK_RECORD
  5
1C2
330
1
100
AcDbSymbolTableRecord
100
AcDbBlockTableRecord
  2
block 88
340
0
102
{BLKREFS
331
1C3
102
}
  0
BLOCK_RECORD
  5
2BD
330
1
100
AcDbSymbolTableRecord
100
AcDbBlockTableRecord
  2
block 89
340
0
102
{BLKREFS
331
2BE
102
}
  0
BLOCK_RECORD
  5
2C1
330
1
100
AcDbSymbolTableRecord
100
AcDbBlockTableRecord
  2
block 90
340
0
102
{BLKREFS
331
2C2
102
}
  0
BLOCK_RECORD
  5
2C5
330
1
100
AcDbSymbolTableRecord
100
AcDbBlockTableRecord
  2
block 91
340
0
102
{BLKREFS
331
2C6
102
}
  0
BLOCK_RECORD
  5
2C9
330
1
100
AcDbSymbolTableRecord
100
AcDbBlockTableRecord
  2
block 92
340
0
102
{BLKREFS
331
2CA
102
}
  0
BLOCK_RECORD
  5
2CE
330
1
100
AcDbSymbolTableRecord
100
AcDbBlockTableRecord
  2
block 93
340
0
102
{BLKREFS
331
2CF
102
}
  0
BLOCK_RECORD
  5
2D2
330
1
100
AcDbSymbolTableRecord
100
AcDbBlockTableRecord
  2
block 94
340
0
102
{BLKREFS
331
2D3
102
}
  0
BLOCK_RECORD
  5
2D6
330
1
100
AcDbSymbolTableRecord
100
AcDbBlockTableRecord
  2
block 95
340
0
102
{BLKREFS
331
2D7
102
}
  0
BLOCK_RECORD
  5
2DB
330
1
100
AcDbSymbolTableRecord
100
AcDbBlockTableRecord
  2
block 96
340
0
102
{BLKREFS
331
2DC
102
}
  0
BLOCK_RECORD
  5
2DF
330
1
100
AcDbSymbolTableRecord
100
AcDbBlockTableRecord
  2
block 97
340
0
102
{BLKREFS
331
2E0
102
}
  0
BLOCK_RECORD
  5
2E3
330
1
100
AcDbSymbolTableRecord
100
AcDbBlockTableRecord
  2
block 98
340
0
102
{BLKREFS
331
2E4
102
}
  0
BLOCK_RECORD
  5
320
330
1
100
AcDbSymbolTableRecord
100
AcDbBlockTableRecord
  2
block 99
340
0
102
{BLKREFS
331
321
102
}
  0
BLOCK_RECORD
  5
324
330
1
100
AcDbSymbolTableRecord
100
AcDbBlockTableRecord
  2
block 100
340
0
102
{BLKREFS
331
325
102
}
  0
BLOCK_RECORD
  5
329
330
1
100
AcDbSymbolTableRecord
100
AcDbBlockTableRecord
  2
block 101
340
0
102
{BLKREFS
331
32A
102
}
  0
BLOCK_RECORD
  5
32D
330
1
100
AcDbSymbolTableRecord
100
AcDbBlockTableRecord
  2
block 102
340
0
102
{BLKREFS
331
32E
102
}
  0
BLOCK_RECORD
  5
334
330
1
100
AcDbSymbolTableRecord
100
AcDbBlockTableRecord
  2
block 103
340
0
102
{BLKREFS
331
335
102
}
  0
BLOCK_RECORD
  5
3A6
330
1
100
AcDbSymbolTableRecord
100
AcDbBlockTableRecord
  2
block 104
340
0
102
{BLKREFS
331
3A7
102
}
  0
BLOCK_RECORD
  5
3AA
330
1
100
AcDbSymbolTableRecord
100
AcDbBlockTableRecord
  2
block 105
340
0
102
{BLKREFS
331
3AB
102
}
  0
BLOCK_RECORD
  5
3AF
330
1
100
AcDbSymbolTableRecord
100
AcDbBlockTableRecord
  2
block 106
340
0
102
{BLKREFS
331
3B0
102
}
  0
BLOCK_RECORD
  5
3B3
330
1
100
AcDbSymbolTableRecord
100
AcDbBlockTableRecord
  2
block 107
340
0
102
{BLKREFS
331
3B4
102
}
  0
BLOCK_RECORD
  5
3B8
330
1
100
AcDbSymbolTableRecord
100
AcDbBlockTableRecord
  2
block 108
340
0
102
{BLKREFS
331
3B9
102
}
  0
BLOCK_RECORD
  5
3BF
330
1
100
AcDbSymbolTableRecord
100
AcDbBlockTableRecord
  2
block 109
340
0
102
{BLKREFS
331
3C0
102
}
  0
BLOCK_RECORD
  5
3C3
330
1
100
AcDbSymbolTableRecord
100
AcDbBlockTableRecord
  2
block 110
340
0
102
{BLKREFS
331
3C4
102
}
  0
ENDTAB
  0
ENDSEC
  0
SECTION
  2
BLOCKS
  0
BLOCK
  5
20
330
1F
100
AcDbEntity
  8
0
100
AcDbBlockBegin
  2
*Model_Space
 70
     0
 71
     0
 10
0.0
 20
0.0
 30
0.0
  3
*Model_Space
  1

  0
ENDBLK
  5
21
330
1F
100
AcDbEntity
  8
0
100
AcDbBlockEnd
  0
BLOCK
  5
1C
330
1B
100
AcDbEntity
 67
     1
  8
0
100
AcDbBlockBegin
  2
*Paper_Space
 70
     0
 71
     0
 10
0.0
 20
0.0
 30
0.0
  3
*Paper_Space
  1

  0
ENDBLK
  5
1D
330
1B
100
AcDbEntity
 67
     1
  8
0
100
AcDbBlockEnd
  0
BLOCK
  5
24
330
23
100
AcDbEntity
  8
0
100
AcDbBlockBegin
  2
*Paper_Space0
 70
     0
 71
     0
 10
0.0
 20
0.0
 30
0.0
  3
*Paper_Space0
  1

  0
ENDBLK
  5
25
330
23
100
AcDbEntity
  8
0
100
AcDbBlockEnd
  0
BLOCK
  5
3E
330
3C
100
AcDbEntity
  8
0
100
AcDbBlockBegin
  2
block 2
 70
     0
 71
     0
 10
0.0
 20
0.0
 30
0.0
  3
block 2
  1

  0
INSERT
  5
41
330
3C
100
AcDbEntity
  8
\U+30D5\U+30A9\U+30FC\U+30DE\U+30C3\U+30C8
100
AcDbBlockReference
  2
block 3
 10
0.0
 20
0.0
 30
0.0
  0
ENDBLK
  5
3F
330
3C
100
AcDbEntity
  8
0
100
AcDbBlockEnd
  0
BLOCK
  5
42
330
40
100
AcDbEntity
  8
0
100
AcDbBlockBegin
  2
block 3
 70
     0
 71
     0
 10
0.0
 20
0.0
 30
0.0
  3
block 3
  1

  0
INSERT
  5
45
330
40
100
AcDbEntity
  8
\U+30D5\U+30A9\U+30FC\U+30DE\U+30C3\U+30C8
100
AcDbBlockReference
  2
block 4
 10
0.0
 20
0.0
 30
0.0
  0
ENDBLK
  5
43
330
40
100
AcDbEntity
  8
0
100
AcDbBlockEnd
  0
BLOCK
  5
46
330
44
100
AcDbEntity
  8
0
100
AcDbBlockBegin
  2
block 4
 70
     0
 71
     0
 10
0.0
 20
0.0
 30
0.0
  3
block 4
  1

  0
MTEXT
  5
48
330
44
100
AcDbEntity
  8
\U+30D5\U+30A9\U+30FC\U+30DE\U+30C3\U+30C8
 62
     7
100
AcDbMText
 10
-11.59929198928768
 20
241.2951768059957
 30
0.0
 40
2.187786638666616
 41
0.0
 71
     7
 72
     1
  1
\fMS Gothic|b0|i0|c0|p34;\W1;図
 11
-0.9999999999999886
 21
1.509957990978371E-7
 31
0.0
 73
     1
 44
1.0
  0
ENDBLK
  5
47
330
44
100
AcDbEntity
  8
0
100
AcDbBlockEnd
  0
BLOCK
  5
4B
330
49
100
AcDbEntity
  8
0
100
AcDbBlockBegin
  2
block 5
 70
     0
 71
     0
 10
0.0
 20
0.0
 30
0.0
  3
block 5
  1

  0
INSERT
  5
4E
330
49
100
AcDbEntity
  8
\U+30D5\U+30A9\U+30FC\U+30DE\U+30C3\U+30C8
100
AcDbBlockReference
  2
block 6
 10
0.0
 20
0.0
 30
0.0
  0
ENDBLK
  5
4C
330
49
100
AcDbEntity
  8
0
100
AcDbBlockEnd
  0
BLOCK
  5
4F
330
4D
100
AcDbEntity
  8
0
100
AcDbBlockBegin
  2
block 6
 70
     0
 71
     0
 10
0.0
 20
0.0
 30
0.0
  3
block 6
  1

  0
INSERT
  5
52
330
4D
100
AcDbEntity
  8
\U+30D5\U+30A9\U+30FC\U+30DE\U+30C3\U+30C8
100
AcDbBlockReference
  2
block 7
 10
0.0
 20
0.0
 30
0.0
  0
ENDBLK
  5
50
330
4D
100
AcDbEntity
  8
0
100
AcDbBlockEnd
  0
BLOCK
  5
53
330
51
100
AcDbEntity
  8
0
100
AcDbBlockBegin
  2
block 7
 70
     0
 71
     0
 10
0.0
 20
0.0
 30
0.0
  3
block 7
  1

  0
MTEXT
  5
55
330
51
100
AcDbEntity
  8
\U+30D5\U+30A9\U+30FC\U+30DE\U+30C3\U+30C8
 62
     7
100
AcDbMText
 10
-18.03404133663732
 20
241.2951768059957
 30
0.0
 40
2.187786638666616
 41
0.0
 71
     7
 72
     1
  1
\fMS Gothic|b0|i0|c0|p34;\W1;番
 11
-0.9999999999999886
 21
1.509957990978371E-7
 31
0.0
 73
     1
 44
1.0
  0
ENDBLK
  5
54
330
51
100
AcDbEntity
  8
0
100
AcDbBlockEnd
  0
BLOCK
  5
58
330
56
100
AcDbEntity
  8
0
100
AcDbBlockBegin
  2
block 8
 70
     0
 71
     0
 10
0.0
 20
0.0
 30
0.0
  3
block 8
  1

  0
INSERT
  5
5B
330
56
100
AcDbEntity
  8
\U+30D5\U+30A9\U+30FC\U+30DE\U+30C3\U+30C8
100
AcDbBlockReference
  2
block 9
 10
0.0
 20
0.0
 30
0.0
  0
ENDBLK
  5
59
330
56
100
AcDbEntity
  8
0
100
AcDbBlockEnd
  0
BLOCK
  5
5C
330
5A
100
AcDbEntity
  8
0
100
AcDbBlockBegin
  2
block 9
 70
     0
 71
     0
 10
0.0
 20
0.0
 30
0.0
  3
block 9
  1

  0
INSERT
  5
5F
330
5A
100
AcDbEntity
  8
\U+30D5\U+30A9\U+30FC\U+30DE\U+30C3\U+30C8
100
AcDbBlockReference
  2
block 10
 10
0.0
 20
0.0
 30
0.0
  0
ENDBLK
  5
5D
330
5A
100
AcDbEntity
  8
0
100
AcDbBlockEnd
  0
BLOCK
  5
60
330
5E
100
AcDbEntity
  8
0
100
AcDbBlockBegin
  2
block 10
 70
     0
 71
     0
 10
0.0
 20
0.0
 30
0.0
  3
block 10
  1

  0
MTEXT
  5
62
330
5E
100
AcDbEntity
  8
\U+30D5\U+30A9\U+30FC\U+30DE\U+30C3\U+30C8
 62
     7
100
AcDbMText
 10
-35.30602755193738
 20
-32.51687824707911
 30
0.0
 40
2.187786638666616
 41
0.0
 71
     7
 72
     1
  1
\fMS Gothic|b0|i0|c0|p34;\W1;符
 73
     1
 44
1.0
  0
ENDBLK
  5
61
330
5E
100
AcDbEntity
  8
0
100
AcDbBlockEnd
  0
BLOCK
  5
65
330
63
100
AcDbEntity
  8
0
100
AcDbBlockBegin
  2
block 11
 70
     0
 71
     0
 10
0.0
 20
0.0
 30
0.0
  3
block 11
  1

  0
INSERT
  5
68
330
63
100
AcDbEntity
  8
\U+30D5\U+30A9\U+30FC\U+30DE\U+30C3\U+30C8
100
AcDbBlockReference
  2
block 12
 10
0.0
 20
0.0
 30
0.0
  0
ENDBLK
  5
66
330
63
100
AcDbEntity
  8
0
100
AcDbBlockEnd
  0
BLOCK
  5
69
330
67
100
AcDbEntity
  8
0
100
AcDbBlockBegin
  2
block 12
 70
     0
 71
     0
 10
0.0
 20
0.0
 30
0.0
  3
block 12
  1

  0
INSERT
  5
6C
330
67
100
AcDbEntity
  8
\U+30D5\U+30A9\U+30FC\U+30DE\U+30C3\U+30C8
100
AcDbBlockReference
  2
block 13
 10
0.0
 20
0.0
 30
0.0
  0
ENDBLK
  5
6A
330
67
100
AcDbEntity
  8
0
100
AcDbBlockEnd
  0
BLOCK
  5
6D
330
6B
100
AcDbEntity
  8
0
100
AcDbBlockBegin
  2
block 13
 70
     0
 71
     0
 10
0.0
 20
0.0
 30
0.0
  3
block 13
  1

  0
MTEXT
  5
6F
330
6B
100
AcDbEntity
  8
\U+30D5\U+30A9\U+30FC\U+30DE\U+30C3\U+30C8
 62
     7
100
AcDbMText
 10
-30.47996554142515
 20
-32.51687824707911
 30
0.0
 40
2.187786638666616
 41
0.0
 71
     7
 72
     1
  1
\fMS Gothic|b0|i0|c0|p34;\W1;号
 73
     1
 44
1.0
  0
ENDBLK
  5
6E
330
6B
100
AcDbEntity
  8
0
100
AcDbBlockEnd
  0
BLOCK
  5
72
330
70
100
AcDbEntity
  8
0
100
AcDbBlockBegin
  2
block 14
 70
     0
 71
     0
 10
0.0
 20
0.0
 30
0.0
  3
block 14
  1

  0
INSERT
  5
75
330
70
100
AcDbEntity
  8
\U+30D5\U+30A9\U+30FC\U+30DE\U+30C3\U+30C8
100
AcDbBlockReference
  2
block 15
 10
0.0
 20
0.0
 30
0.0
  0
ENDBLK
  5
73
330
70
100
AcDbEntity
  8
0
100
AcDbBlockEnd
  0
BLOCK
  5
76
330
74
100
AcDbEntity
  8
0
100
AcDbBlockBegin
  2
block 15
 70
     0
 71
     0
 10
0.0
 20
0.0
 30
0.0
  3
block 15
  1

  0
INSERT
  5
79
330
74
100
AcDbEntity
  8
\U+30D5\U+30A9\U+30FC\U+30DE\U+30C3\U+30C8
100
AcDbBlockReference
  2
block 16
 10
0.0
 20
0.0
 30
0.0
  0
ENDBLK
  5
77
330
74
100
AcDbEntity
  8
0
100
AcDbBlockEnd
  0
BLOCK
  5
7A
330
78
100
AcDbEntity
  8
0
100
AcDbBlockBegin
  2
block 16
 70
     0
 71
     0
 10
0.0
 20
0.0
 30
0.0
  3
block 16
  1

  0
MTEXT
  5
7C
330
78
100
AcDbEntity
  8
\U+30D5\U+30A9\U+30FC\U+30DE\U+30C3\U+30C8
 62
     7
100
AcDbMText
 10
-43.2647148871873
 20
-12.95907117731579
 30
0.0
 40
2.187786638666616
 41
0.0
 71
     7
 72
     1
  1
\fMS Gothic|b0|i0|c0|p34;\W1;備
 73
     1
 44
1.0
  0
ENDBLK
  5
7B
330
78
100
AcDbEntity
  8
0
100
AcDbBlockEnd
  0
BLOCK
  5
7F
330
7D
100
AcDbEntity
  8
0
100
AcDbBlockBegin
  2
block 17
 70
     0
 71
     0
 10
0.0
 20
0.0
 30
0.0
  3
block 17
  1

  0
INSERT
  5
82
330
7D
100
AcDbEntity
  8
\U+30D5\U+30A9\U+30FC\U+30DE\U+30C3\U+30C8
100
AcDbBlockReference
  2
block 18
 10
0.0
 20
0.0
 30
0.0
  0
ENDBLK
  5
80
330
7D
100
AcDbEntity
  8
0
100
AcDbBlockEnd
  0
BLOCK
  5
83
330
81
100
AcDbEntity
  8
0
100
AcDbBlockBegin
  2
block 18
 70
     0
 71
     0
 10
0.0
 20
0.0
 30
0.0
  3
block 18
  1

  0
INSERT
  5
86
330
81
100
AcDbEntity
  8
\U+30D5\U+30A9\U+30FC\U+30DE\U+30C3\U+30C8
100
AcDbBlockReference
  2
block 19
 10
0.0
 20
0.0
 30
0.0
  0
ENDBLK
  5
84
330
81
100
AcDbEntity
  8
0
100
AcDbBlockEnd
  0
BLOCK
  5
87
330
85
100
AcDbEntity
  8
0
100
AcDbBlockBegin
  2
block 19
 70
     0
 71
     0
 10
0.0
 20
0.0
 30
0.0
  3
block 19
  1

  0
MTEXT
  5
89
330
85
100
AcDbEntity
  8
\U+30D5\U+30A9\U+30FC\U+30DE\U+30C3\U+30C8
 62
     7
100
AcDbMText
 10
-43.2647148871873
 20
-21.51048719080293
 30
0.0
 40
2.187786638666616
 41
0.0
 71
     7
 72
     1
  1
\fMS Gothic|b0|i0|c0|p34;\W1;考
 73
     1
 44
1.0
  0
ENDBLK
  5
88
330
85
100
AcDbEntity
  8
0
100
AcDbBlockEnd
  0
BLOCK
  5
8C
330
8A
100
AcDbEntity
  8
0
100
AcDbBlockBegin
  2
block 20
 70
     0
 71
     0
 10
0.0
 20
0.0
 30
0.0
  3
block 20
  1

  0
INSERT
  5
8F
330
8A
100
AcDbEntity
  8
\U+30D5\U+30A9\U+30FC\U+30DE\U+30C3\U+30C8
100
AcDbBlockReference
  2
block 21
 10
0.0
 20
0.0
 30
0.0
  0
ENDBLK
  5
8D
330
8A
100
AcDbEntity
  8
0
100
AcDbBlockEnd
  0
BLOCK
  5
90
330
8E
100
AcDbEntity
  8
0
100
AcDbBlockBegin
  2
block 21
 70
     0
 71
     0
 10
0.0
 20
0.0
 30
0.0
  3
block 21
  1

  0
INSERT
  5
93
330
8E
100
AcDbEntity
  8
\U+30D5\U+30A9\U+30FC\U+30DE\U+30C3\U+30C8
100
AcDbBlockReference
  2
block 22
 10
0.0
 20
0.0
 30
0.0
  0
ENDBLK
  5
91
330
8E
100
AcDbEntity
  8
0
100
AcDbBlockEnd
  0
BLOCK
  5
94
330
92
100
AcDbEntity
  8
0
100
AcDbBlockBegin
  2
block 22
 70
     0
 71
     0
 10
0.0
 20
0.0
 30
0.0
  3
block 22
  1

  0
MTEXT
  5
96
330
92
100
AcDbEntity
  8
\U+30D5\U+30A9\U+30FC\U+30DE\U+30C3\U+30C8
 62
     7
100
AcDbMText
 10
-43.2647148871873
 20
-29.89240450641579
 30
0.0
 40
2.187786638666616
 41
0.0
 71
     7
 72
     1
  1
\fMS Gothic|b0|i0|c0|p34;\W1;欄
 73
     1
 44
1.0
  0
ENDBLK
  5
95
330
92
100
AcDbEntity
  8
0
100
AcDbBlockEnd
  0
BLOCK
  5
99
330
97
100
AcDbEntity
  8
0
100
AcDbBlockBegin
  2
block 23
 70
     0
 71
     0
 10
0.0
 20
0.0
 30
0.0
  3
block 23
  1

  0
INSERT
  5
9C
330
97
100
AcDbEntity
  8
\U+30D5\U+30A9\U+30FC\U+30DE\U+30C3\U+30C8
100
AcDbBlockReference
  2
block 24
 10
0.0
 20
0.0
 30
0.0
  0
ENDBLK
  5
9A
330
97
100
AcDbEntity
  8
0
100
AcDbBlockEnd
  0
BLOCK
  5
9D
330
9B
100
AcDbEntity
  8
0
100
AcDbBlockBegin
  2
block 24
 70
     0
 71
     0
 10
0.0
 20
0.0
 30
0.0
  3
block 24
  1

  0
INSERT
  5
A0
330
9B
100
AcDbEntity
  8
\U+30D5\U+30A9\U+30FC\U+30DE\U+30C3\U+30C8
100
AcDbBlockReference
  2
block 25
 10
0.0
 20
0.0
 30
0.0
  0
ENDBLK
  5
9E
330
9B
100
AcDbEntity
  8
0
100
AcDbBlockEnd
  0
BLOCK
  5
A1
330
9F
100
AcDbEntity
  8
0
100
AcDbBlockBegin
  2
block 25
 70
     0
 71
     0
 10
0.0
 20
0.0
 30
0.0
  3
block 25
  1

  0
MTEXT
  5
A3
330
9F
100
AcDbEntity
  8
\U+30D5\U+30A9\U+30FC\U+30DE\U+30C3\U+30C8
 62
     7
100
AcDbMText
 10
-33.27393797996277
 20
-20.24028048539132
 30
0.0
 40
2.187786638666616
 41
0.0
 71
     7
 72
     1
  1
\fMS Gothic|b0|i0|c0|p34;\W1;②
 73
     1
 44
1.0
  0
ENDBLK
  5
A2
330
9F
100
AcDbEntity
  8
0
100
AcDbBlockEnd
  0
BLOCK
  5
A6
330
A4
100
AcDbEntity
  8
0
100
AcDbBlockBegin
  2
block 26
 70
     0
 71
     0
 10
0.0
 20
0.0
 30
0.0
  3
block 26
  1

  0
INSERT
  5
A9
330
A4
100
AcDbEntity
  8
\U+30D5\U+30A9\U+30FC\U+30DE\U+30C3\U+30C8
100
AcDbBlockReference
  2
block 27
 10
0.0
 20
0.0
 30
0.0
  0
ENDBLK
  5
A7
330
A4
100
AcDbEntity
  8
0
100
AcDbBlockEnd
  0
BLOCK
  5
AA
330
A8
100
AcDbEntity
  8
0
100
AcDbBlockBegin
  2
block 27
 70
     0
 71
     0
 10
0.0
 20
0.0
 30
0.0
  3
block 27
  1

  0
INSERT
  5
AD
330
A8
100
AcDbEntity
  8
\U+30D5\U+30A9\U+30FC\U+30DE\U+30C3\U+30C8
100
AcDbBlockReference
  2
block 28
 10
0.0
 20
0.0
 30
0.0
  0
ENDBLK
  5
AB
330
A8
100
AcDbEntity
  8
0
100
AcDbBlockEnd
  0
BLOCK
  5
AE
330
AC
100
AcDbEntity
  8
0
100
AcDbBlockBegin
  2
block 28
 70
     0
 71
     0
 10
0.0
 20
0.0
 30
0.0
  3
block 28
  1

  0
MTEXT
  5
B0
330
AC
100
AcDbEntity
  8
\U+30D5\U+30A9\U+30FC\U+30DE\U+30C3\U+30C8
 62
     7
100
AcDbMText
 10
-33.27393797996277
 20
-27.09843206787817
 30
0.0
 40
2.187786638666616
 41
0.0
 71
     7
 72
     1
  1
\fMS Gothic|b0|i0|c0|p34;\W1;①
 73
     1
 44
1.0
  0
ENDBLK
  5
AF
330
AC
100
AcDbEntity
  8
0
100
AcDbBlockEnd
  0
BLOCK
  5
B7
330
B5
100
AcDbEntity
  8
0
100
AcDbBlockBegin
  2
block 29
 70
     0
 71
     0
 10
0.0
 20
0.0
 30
0.0
  3
block 29
  1

  0
INSERT
  5
BA
330
B5
100
AcDbEntity
  8
\U+30D5\U+30A9\U+30FC\U+30DE\U+30C3\U+30C8
100
AcDbBlockReference
  2
block 30
 10
0.0
 20
0.0
 30
0.0
  0
ENDBLK
  5
B8
330
B5
100
AcDbEntity
  8
0
100
AcDbBlockEnd
  0
BLOCK
  5
BB
330
B9
100
AcDbEntity
  8
0
100
AcDbBlockBegin
  2
block 30
 70
     0
 71
     0
 10
0.0
 20
0.0
 30
0.0
  3
block 30
  1

  0
INSERT
  5
BE
330
B9
100
AcDbEntity
  8
\U+30D5\U+30A9\U+30FC\U+30DE\U+30C3\U+30C8
100
AcDbBlockReference
  2
block 31
 10
0.0
 20
0.0
 30
0.0
  0
ENDBLK
  5
BC
330
B9
100
AcDbEntity
  8
0
100
AcDbBlockEnd
  0
BLOCK
  5
BF
330
BD
100
AcDbEntity
  8
0
100
AcDbBlockBegin
  2
block 31
 70
     0
 71
     0
 10
0.0
 20
0.0
 30
0.0
  3
block 31
  1

  0
MTEXT
  5
C1
330
BD
100
AcDbEntity
  8
\U+30D5\U+30A9\U+30FC\U+30DE\U+30C3\U+30C8
 62
     7
100
AcDbMText
 10
-33.27393797996277
 20
-13.29772406351585
 30
0.0
 40
2.187786638666616
 41
0.0
 71
     7
 72
     1
  1
\fMS Gothic|b0|i0|c0|p34;\W1;③
 73
     1
 44
1.0
  0
ENDBLK
  5
C0
330
BD
100
AcDbEntity
  8
0
100
AcDbBlockEnd
  0
BLOCK
  5
CF
330
CD
100
AcDbEntity
  8
0
100
AcDbBlockBegin
  2
block 32
 70
     0
 71
     0
 10
0.0
 20
0.0
 30
0.0
  3
block 32
  1

  0
INSERT
  5
D2
330
CD
100
AcDbEntity
  8
\U+30D5\U+30A9\U+30FC\U+30DE\U+30C3\U+30C8
100
AcDbBlockReference
  2
block 33
 10
0.0
 20
0.0
 30
0.0
  0
ENDBLK
  5
D0
330
CD
100
AcDbEntity
  8
0
100
AcDbBlockEnd
  0
BLOCK
  5
D3
330
D1
100
AcDbEntity
  8
0
100
AcDbBlockBegin
  2
block 33
 70
     0
 71
     0
 10
0.0
 20
0.0
 30
0.0
  3
block 33
  1

  0
INSERT
  5
D6
330
D1
100
AcDbEntity
  8
\U+30D5\U+30A9\U+30FC\U+30DE\U+30C3\U+30C8
100
AcDbBlockReference
  2
block 34
 10
0.0
 20
0.0
 30
0.0
  0
ENDBLK
  5
D4
330
D1
100
AcDbEntity
  8
0
100
AcDbBlockEnd
  0
BLOCK
  5
D7
330
D5
100
AcDbEntity
  8
0
100
AcDbBlockBegin
  2
block 34
 70
     0
 71
     0
 10
0.0
 20
0.0
 30
0.0
  3
block 34
  1

  0
MTEXT
  5
D9
330
D5
100
AcDbEntity
  8
\U+30D5\U+30A9\U+30FC\U+30DE\U+30C3\U+30C8
 62
     7
100
AcDbMText
 10
37.16861842603771
 20
-32.77112629389055
 30
0.0
 40
2.187786638666616
 41
0.0
 71
     7
 72
     1
  1
\fMS Gothic|b0|i0|c0|p34;\W1;記
 73
     1
 44
1.0
  0
ENDBLK
  5
D8
330
D5
100
AcDbEntity
  8
0
100
AcDbBlockEnd
  0
BLOCK
  5
DC
330
DA
100
AcDbEntity
  8
0
100
AcDbBlockBegin
  2
block 35
 70
     0
 71
     0
 10
0.0
 20
0.0
 30
0.0
  3
block 35
  1

  0
INSERT
  5
DF
330
DA
100
AcDbEntity
  8
\U+30D5\U+30A9\U+30FC\U+30DE\U+30C3\U+30C8
100
AcDbBlockReference
  2
block 36
 10
0.0
 20
0.0
 30
0.0
  0
ENDBLK
  5
DD
330
DA
100
AcDbEntity
  8
0
100
AcDbBlockEnd
  0
BLOCK
  5
E0
330
DE
100
AcDbEntity
  8
0
100
AcDbBlockBegin
  2
block 36
 70
     0
 71
     0
 10
0.0
 20
0.0
 30
0.0
  3
block 36
  1

  0
INSERT
  5
E3
330
DE
100
AcDbEntity
  8
\U+30D5\U+30A9\U+30FC\U+30DE\U+30C3\U+30C8
100
AcDbBlockReference
  2
block 37
 10
0.0
 20
0.0
 30
0.0
  0
ENDBLK
  5
E1
330
DE
100
AcDbEntity
  8
0
100
AcDbBlockEnd
  0
BLOCK
  5
E4
330
E2
100
AcDbEntity
  8
0
100
AcDbBlockBegin
  2
block 37
 70
     0
 71
     0
 10
0.0
 20
0.0
 30
0.0
  3
block 37
  1

  0
MTEXT
  5
E6
330
E2
100
AcDbEntity
  8
\U+30D5\U+30A9\U+30FC\U+30DE\U+30C3\U+30C8
 62
     7
100
AcDbMText
 10
43.60336777338735
 20
-32.77112629389055
 30
0.0
 40
2.187786638666616
 41
0.0
 71
     7
 72
     1
  1
\fMS Gothic|b0|i0|c0|p34;\W1;事
 73
     1
 44
1.0
  0
ENDBLK
  5
E5
330
E2
100
AcDbEntity
  8
0
100
AcDbBlockEnd
  0
BLOCK
  5
E9
330
E7
100
AcDbEntity
  8
0
100
AcDbBlockBegin
  2
block 38
 70
     0
 71
     0
 10
0.0
 20
0.0
 30
0.0
  3
block 38
  1

  0
INSERT
  5
EC
330
E7
100
AcDbEntity
  8
\U+30D5\U+30A9\U+30FC\U+30DE\U+30C3\U+30C8
100
AcDbBlockReference
  2
block 39
 10
0.0
 20
0.0
 30
0.0
  0
ENDBLK
  5
EA
330
E7
100
AcDbEntity
  8
0
100
AcDbBlockEnd
  0
BLOCK
  5
ED
330
EB
100
AcDbEntity
  8
0
100
AcDbBlockBegin
  2
block 39
 70
     0
 71
     0
 10
0.0
 20
0.0
 30
0.0
  3
block 39
  1

  0
INSERT
  5
F0
330
EB
100
AcDbEntity
  8
\U+30D5\U+30A9\U+30FC\U+30DE\U+30C3\U+30C8
100
AcDbBlockReference
  2
block 40
 10
0.0
 20
0.0
 30
0.0
  0
ENDBLK
  5
EE
330
EB
100
AcDbEntity
  8
0
100
AcDbBlockEnd
  0
BLOCK
  5
F1
330
EF
100
AcDbEntity
  8
0
100
AcDbBlockBegin
  2
block 40
 70
     0
 71
     0
 10
0.0
 20
0.0
 30
0.0
  3
block 40
  1

  0
MTEXT
  5
F3
330
EF
100
AcDbEntity
  8
\U+30D5\U+30A9\U+30FC\U+30DE\U+30C3\U+30C8
 62
     7
100
AcDbMText
 10
-20.32003444587485
 20
-32.60162759601626
 30
0.0
 40
2.187786638666616
 41
0.0
 71
     7
 72
     1
  1
\fMS Gothic|b0|i0|c0|p34;\W1;日
 73
     1
 44
1.0
  0
ENDBLK
  5
F2
330
EF
100
AcDbEntity
  8
0
100
AcDbBlockEnd
  0
BLOCK
  5
F6
330
F4
100
AcDbEntity
  8
0
100
AcDbBlockBegin
  2
block 41
 70
     0
 71
     0
 10
0.0
 20
0.0
 30
0.0
  3
block 41
  1

  0
INSERT
  5
F9
330
F4
100
AcDbEntity
  8
\U+30D5\U+30A9\U+30FC\U+30DE\U+30C3\U+30C8
100
AcDbBlockReference
  2
block 42
 10
0.0
 20
0.0
 30
0.0
  0
ENDBLK
  5
F7
330
F4
100
AcDbEntity
  8
0
100
AcDbBlockEnd
  0
BLOCK
  5
FA
330
F8
100
AcDbEntity
  8
0
100
AcDbBlockBegin
  2
block 42
 70
     0
 71
     0
 10
0.0
 20
0.0
 30
0.0
  3
block 42
  1

  0
INSERT
  5
FD
330
F8
100
AcDbEntity
  8
\U+30D5\U+30A9\U+30FC\U+30DE\U+30C3\U+30C8
100
AcDbBlockReference
  2
block 43
 10
0.0
 20
0.0
 30
0.0
  0
ENDBLK
  5
FB
330
F8
100
AcDbEntity
  8
0
100
AcDbBlockEnd
  0
BLOCK
  5
FE
330
FC
100
AcDbEntity
  8
0
100
AcDbBlockBegin
  2
block 43
 70
     0
 71
     0
 10
0.0
 20
0.0
 30
0.0
  3
block 43
  1

  0
MTEXT
  5
100
330
FC
100
AcDbEntity
  8
\U+30D5\U+30A9\U+30FC\U+30DE\U+30C3\U+30C8
 62
     7
100
AcDbMText
 10
-13.88528509852521
 20
-32.60162759601626
 30
0.0
 40
2.187786638666616
 41
0.0
 71
     7
 72
     1
  1
\fMS Gothic|b0|i0|c0|p34;\W1;付
 73
     1
 44
1.0
  0
ENDBLK
  5
FF
330
FC
100
AcDbEntity
  8
0
100
AcDbBlockEnd
  0
BLOCK
  5
107
330
105
100
AcDbEntity
  8
0
100
AcDbBlockBegin
  2
block 44
 70
     0
 71
     0
 10
0.0
 20
0.0
 30
0.0
  3
block 44
  1

  0
INSERT
  5
10A
330
105
100
AcDbEntity
  8
\U+30D5\U+30A9\U+30FC\U+30DE\U+30C3\U+30C8
100
AcDbBlockReference
  2
block 45
 10
0.0
 20
0.0
 30
0.0
  0
INSERT
  5
117
330
105
100
AcDbEntity
  8
\U+30D5\U+30A9\U+30FC\U+30DE\U+30C3\U+30C8
100
AcDbBlockReference
  2
block 48
 10
0.0
 20
0.0
 30
0.0
  0
ENDBLK
  5
108
330
105
100
AcDbEntity
  8
0
100
AcDbBlockEnd
  0
BLOCK
  5
10B
330
109
100
AcDbEntity
  8
0
100
AcDbBlockBegin
  2
block 45
 70
     0
 71
     0
 10
0.0
 20
0.0
 30
0.0
  3
block 45
  1

  0
INSERT
  5
10E
330
109
100
AcDbEntity
  8
\U+30D5\U+30A9\U+30FC\U+30DE\U+30C3\U+30C8
100
AcDbBlockReference
  2
block 46
 10
0.0
 20
0.0
 30
0.0
  0
ENDBLK
  5
10C
330
109
100
AcDbEntity
  8
0
100
AcDbBlockEnd
  0
BLOCK
  5
10F
330
10D
100
AcDbEntity
  8
0
100
AcDbBlockBegin
  2
block 46
 70
     0
 71
     0
 10
0.0
 20
0.0
 30
0.0
  3
block 46
  1

  0
INSERT
  5
112
330
10D
100
AcDbEntity
  8
\U+30D5\U+30A9\U+30FC\U+30DE\U+30C3\U+30C8
100
AcDbBlockReference
  2
block 47
 10
0.0
 20
0.0
 30
0.0
  0
ENDBLK
  5
110
330
10D
100
AcDbEntity
  8
0
100
AcDbBlockEnd
  0
BLOCK
  5
113
330
111
100
AcDbEntity
  8
0
100
AcDbBlockBegin
  2
block 47
 70
     0
 71
     0
 10
0.0
 20
0.0
 30
0.0
  3
block 47
  1

  0
MTEXT
  5
115
330
111
100
AcDbEntity
  8
\U+30D5\U+30A9\U+30FC\U+30DE\U+30C3\U+30C8
 62
     7
100
AcDbMText
 10
88.89999997777501
 20
-20.83318141840282
 30
0.0
 40
2.187786638666616
 41
0.0
 71
     7
 72
     1
  1
\fMS Gothic|b0|i0|c0|p34;\W1;製
 73
     1
 44
1.0
  0
ENDBLK
  5
114
330
111
100
AcDbEntity
  8
0
100
AcDbBlockEnd
  0
BLOCK
  5
118
330
116
100
AcDbEntity
  8
0
100
AcDbBlockBegin
  2
block 48
 70
     0
 71
     0
 10
0.0
 20
0.0
 30
0.0
  3
block 48
  1

  0
INSERT
  5
11B
330
116
100
AcDbEntity
  8
\U+30D5\U+30A9\U+30FC\U+30DE\U+30C3\U+30C8
100
AcDbBlockReference
  2
block 49
 10
0.0
 20
0.0
 30
0.0
  0
ENDBLK
  5
119
330
116
100
AcDbEntity
  8
0
100
AcDbBlockEnd
  0
BLOCK
  5
11C
330
11A
100
AcDbEntity
  8
0
100
AcDbBlockBegin
  2
block 49
 70
     0
 71
     0
 10
0.0
 20
0.0
 30
0.0
  3
block 49
  1

  0
INSERT
  5
11F
330
11A
100
AcDbEntity
  8
\U+30D5\U+30A9\U+30FC\U+30DE\U+30C3\U+30C8
100
AcDbBlockReference
  2
block 50
 10
0.0
 20
0.0
 30
0.0
  0
ENDBLK
  5
11D
330
11A
100
AcDbEntity
  8
0
100
AcDbBlockEnd
  0
BLOCK
  5
120
330
11E
100
AcDbEntity
  8
0
100
AcDbBlockBegin
  2
block 50
 70
     0
 71
     0
 10
0.0
 20
0.0
 30
0.0
  3
block 50
  1

  0
MTEXT
  5
122
330
11E
100
AcDbEntity
  8
\U+30D5\U+30A9\U+30FC\U+30DE\U+30C3\U+30C8
 62
     7
100
AcDbMText
 10
93.72606198828724
 20
-20.83318141840282
 30
0.0
 40
2.187786638666616
 41
0.0
 71
     7
 72
     1
  1
\fMS Gothic|b0|i0|c0|p34;\W1;図
 73
     1
 44
1.0
  0
ENDBLK
  5
121
330
11E
100
AcDbEntity
  8
0
100
AcDbBlockEnd
  0
BLOCK
  5
125
330
123
100
AcDbEntity
  8
0
100
AcDbBlockBegin
  2
block 51
 70
     0
 71
     0
 10
0.0
 20
0.0
 30
0.0
  3
block 51
  1

  0
INSERT
  5
128
330
123
100
AcDbEntity
  8
\U+30D5\U+30A9\U+30FC\U+30DE\U+30C3\U+30C8
100
AcDbBlockReference
  2
block 52
 10
0.0
 20
0.0
 30
0.0
  0
INSERT
  5
135
330
123
100
AcDbEntity
  8
\U+30D5\U+30A9\U+30FC\U+30DE\U+30C3\U+30C8
100
AcDbBlockReference
  2
block 55
 10
0.0
 20
0.0
 30
0.0
  0
ENDBLK
  5
126
330
123
100
AcDbEntity
  8
0
100
AcDbBlockEnd
  0
BLOCK
  5
129
330
127
100
AcDbEntity
  8
0
100
AcDbBlockBegin
  2
block 52
 70
     0
 71
     0
 10
0.0
 20
0.0
 30
0.0
  3
block 52
  1

  0
INSERT
  5
12C
330
127
100
AcDbEntity
  8
\U+30D5\U+30A9\U+30FC\U+30DE\U+30C3\U+30C8
100
AcDbBlockReference
  2
block 53
 10
0.0
 20
0.0
 30
0.0
  0
ENDBLK
  5
12A
330
127
100
AcDbEntity
  8
0
100
AcDbBlockEnd
  0
BLOCK
  5
12D
330
12B
100
AcDbEntity
  8
0
100
AcDbBlockBegin
  2
block 53
 70
     0
 71
     0
 10
0.0
 20
0.0
 30
0.0
  3
block 53
  1

  0
INSERT
  5
130
330
12B
100
AcDbEntity
  8
\U+30D5\U+30A9\U+30FC\U+30DE\U+30C3\U+30C8
100
AcDbBlockReference
  2
block 54
 10
0.0
 20
0.0
 30
0.0
  0
ENDBLK
  5
12E
330
12B
100
AcDbEntity
  8
0
100
AcDbBlockEnd
  0
BLOCK
  5
131
330
12F
100
AcDbEntity
  8
0
100
AcDbBlockBegin
  2
block 54
 70
     0
 71
     0
 10
0.0
 20
0.0
 30
0.0
  3
block 54
  1

  0
MTEXT
  5
133
330
12F
100
AcDbEntity
  8
\U+30D5\U+30A9\U+30FC\U+30DE\U+30C3\U+30C8
 62
     7
100
AcDbMText
 10
99.90673554359971
 20
-20.83318141840282
 30
0.0
 40
2.187786638666616
 41
0.0
 71
     7
 72
     1
  1
\fMS Gothic|b0|i0|c0|p34;\W1;検
 73
     1
 44
1.0
  0
ENDBLK
  5
132
330
12F
100
AcDbEntity
  8
0
100
AcDbBlockEnd
  0
BLOCK
  5
136
330
134
100
AcDbEntity
  8
0
100
AcDbBlockBegin
  2
block 55
 70
     0
 71
     0
 10
0.0
 20
0.0
 30
0.0
  3
block 55
  1

  0
INSERT
  5
139
330
134
100
AcDbEntity
  8
\U+30D5\U+30A9\U+30FC\U+30DE\U+30C3\U+30C8
100
AcDbBlockReference
  2
block 56
 10
0.0
 20
0.0
 30
0.0
  0
ENDBLK
  5
137
330
134
100
AcDbEntity
  8
0
100
AcDbBlockEnd
  0
BLOCK
  5
13A
330
138
100
AcDbEntity
  8
0
100
AcDbBlockBegin
  2
block 56
 70
     0
 71
     0
 10
0.0
 20
0.0
 30
0.0
  3
block 56
  1

  0
INSERT
  5
13D
330
138
100
AcDbEntity
  8
\U+30D5\U+30A9\U+30FC\U+30DE\U+30C3\U+30C8
100
AcDbBlockReference
  2
block 57
 10
0.0
 20
0.0
 30
0.0
  0
ENDBLK
  5
13B
330
138
100
AcDbEntity
  8
0
100
AcDbBlockEnd
  0
BLOCK
  5
13E
330
13C
100
AcDbEntity
  8
0
100
AcDbBlockBegin
  2
block 57
 70
     0
 71
     0
 10
0.0
 20
0.0
 30
0.0
  3
block 57
  1

  0
MTEXT
  5
140
330
13C
100
AcDbEntity
  8
\U+30D5\U+30A9\U+30FC\U+30DE\U+30C3\U+30C8
 62
     7
100
AcDbMText
 10
104.7327975541119
 20
-20.83318141840282
 30
0.0
 40
2.187786638666616
 41
0.0
 71
     7
 72
     1
  1
\fMS Gothic|b0|i0|c0|p34;\W1;図
 73
     1
 44
1.0
  0
ENDBLK
  5
13F
330
13C
100
AcDbEntity
  8
0
100
AcDbBlockEnd
  0
BLOCK
  5
143
330
141
100
AcDbEntity
  8
0
100
AcDbBlockBegin
  2
block 58
 70
     0
 71
     0
 10
0.0
 20
0.0
 30
0.0
  3
block 58
  1

  0
INSERT
  5
146
330
141
100
AcDbEntity
  8
\U+30D5\U+30A9\U+30FC\U+30DE\U+30C3\U+30C8
100
AcDbBlockReference
  2
block 59
 10
0.0
 20
0.0
 30
0.0
  0
INSERT
  5
153
330
141
100
AcDbEntity
  8
\U+30D5\U+30A9\U+30FC\U+30DE\U+30C3\U+30C8
100
AcDbBlockReference
  2
block 62
 10
0.0
 20
0.0
 30
0.0
  0
ENDBLK
  5
144
330
141
100
AcDbEntity
  8
0
100
AcDbBlockEnd
  0
BLOCK
  5
147
330
145
100
AcDbEntity
  8
0
100
AcDbBlockBegin
  2
block 59
 70
     0
 71
     0
 10
0.0
 20
0.0
 30
0.0
  3
block 59
  1

  0
INSERT
  5
14A
330
145
100
AcDbEntity
  8
\U+30D5\U+30A9\U+30FC\U+30DE\U+30C3\U+30C8
100
AcDbBlockReference
  2
block 60
 10
0.0
 20
0.0
 30
0.0
  0
ENDBLK
  5
148
330
145
100
AcDbEntity
  8
0
100
AcDbBlockEnd
  0
BLOCK
  5
14B
330
149
100
AcDbEntity
  8
0
100
AcDbBlockBegin
  2
block 60
 70
     0
 71
     0
 10
0.0
 20
0.0
 30
0.0
  3
block 60
  1

  0
INSERT
  5
14E
330
149
100
AcDbEntity
  8
\U+30D5\U+30A9\U+30FC\U+30DE\U+30C3\U+30C8
100
AcDbBlockReference
  2
block 61
 10
0.0
 20
0.0
 30
0.0
  0
ENDBLK
  5
14C
330
149
100
AcDbEntity
  8
0
100
AcDbBlockEnd
  0
BLOCK
  5
14F
330
14D
100
AcDbEntity
  8
0
100
AcDbBlockBegin
  2
block 61
 70
     0
 71
     0
 10
0.0
 20
0.0
 30
0.0
  3
block 61
  1

  0
MTEXT
  5
151
330
14D
100
AcDbEntity
  8
\U+30D5\U+30A9\U+30FC\U+30DE\U+30C3\U+30C8
 62
     7
100
AcDbMText
 10
110.8287217604873
 20
-20.74843206946567
 30
0.0
 40
2.187786638666616
 41
0.0
 71
     7
 72
     1
  1
\fMS Gothic|b0|i0|c0|p34;\W1;承
 73
     1
 44
1.0
  0
ENDBLK
  5
150
330
14D
100
AcDbEntity
  8
0
100
AcDbBlockEnd
  0
BLOCK
  5
154
330
152
100
AcDbEntity
  8
0
100
AcDbBlockBegin
  2
block 62
 70
     0
 71
     0
 10
0.0
 20
0.0
 30
0.0
  3
block 62
  1

  0
INSERT
  5
157
330
152
100
AcDbEntity
  8
\U+30D5\U+30A9\U+30FC\U+30DE\U+30C3\U+30C8
100
AcDbBlockReference
  2
block 63
 10
0.0
 20
0.0
 30
0.0
  0
ENDBLK
  5
155
330
152
100
AcDbEntity
  8
0
100
AcDbBlockEnd
  0
BLOCK
  5
158
330
156
100
AcDbEntity
  8
0
100
AcDbBlockBegin
  2
block 63
 70
     0
 71
     0
 10
0.0
 20
0.0
 30
0.0
  3
block 63
  1

  0
INSERT
  5
15B
330
156
100
AcDbEntity
  8
\U+30D5\U+30A9\U+30FC\U+30DE\U+30C3\U+30C8
100
AcDbBlockReference
  2
block 64
 10
0.0
 20
0.0
 30
0.0
  0
ENDBLK
  5
159
330
156
100
AcDbEntity
  8
0
100
AcDbBlockEnd
  0
BLOCK
  5
15C
330
15A
100
AcDbEntity
  8
0
100
AcDbBlockBegin
  2
block 64
 70
     0
 71
     0
 10
0.0
 20
0.0
 30
0.0
  3
block 64
  1

  0
MTEXT
  5
15E
330
15A
100
AcDbEntity
  8
\U+30D5\U+30A9\U+30FC\U+30DE\U+30C3\U+30C8
 62
     7
100
AcDbMText
 10
115.6547837709995
 20
-20.74843206946567
 30
0.0
 40
2.187786638666616
 41
0.0
 71
     7
 72
     1
  1
\fMS Gothic|b0|i0|c0|p34;\W1;認
 73
     1
 44
1.0
  0
ENDBLK
  5
15D
330
15A
100
AcDbEntity
  8
0
100
AcDbBlockEnd
  0
BLOCK
  5
161
330
15F
100
AcDbEntity
  8
0
100
AcDbBlockBegin
  2
block 65
 70
     0
 71
     0
 10
0.0
 20
0.0
 30
0.0
  3
block 65
  1

  0
INSERT
  5
164
330
15F
100
AcDbEntity
  8
\U+30D5\U+30A9\U+30FC\U+30DE\U+30C3\U+30C8
100
AcDbBlockReference
  2
block 66
 10
0.0
 20
0.0
 30
0.0
  0
ENDBLK
  5
162
330
15F
100
AcDbEntity
  8
0
100
AcDbBlockEnd
  0
BLOCK
  5
165
330
163
100
AcDbEntity
  8
0
100
AcDbBlockBegin
  2
block 66
 70
     0
 71
     0
 10
0.0
 20
0.0
 30
0.0
  3
block 66
  1

  0
INSERT
  5
168
330
163
100
AcDbEntity
  8
\U+30D5\U+30A9\U+30FC\U+30DE\U+30C3\U+30C8
100
AcDbBlockReference
  2
block 67
 10
0.0
 20
0.0
 30
0.0
  0
ENDBLK
  5
166
330
163
100
AcDbEntity
  8
0
100
AcDbBlockEnd
  0
BLOCK
  5
169
330
167
100
AcDbEntity
  8
0
100
AcDbBlockBegin
  2
block 67
 70
     0
 71
     0
 10
0.0
 20
0.0
 30
0.0
  3
block 67
  1

  0
MTEXT
  5
16B
330
167
100
AcDbEntity
  8
\U+30D5\U+30A9\U+30FC\U+30DE\U+30C3\U+30C8
 62
     7
100
AcDbMText
 10
121.4120550911748
 20
-28.11439072647835
 30
0.0
 40
2.187786638666616
 41
0.0
 71
     7
 72
     1
  1
\fMS Gothic|b0|i0|c0|p34;\W1;尺
 73
     1
 44
1.0
  0
ENDBLK
  5
16A
330
167
100
AcDbEntity
  8
0
100
AcDbBlockEnd
  0
BLOCK
  5
16E
330
16C
100
AcDbEntity
  8
0
100
AcDbBlockBegin
  2
block 68
 70
     0
 71
     0
 10
0.0
 20
0.0
 30
0.0
  3
block 68
  1

  0
INSERT
  5
171
330
16C
100
AcDbEntity
  8
\U+30D5\U+30A9\U+30FC\U+30DE\U+30C3\U+30C8
100
AcDbBlockReference
  2
block 69
 10
0.0
 20
0.0
 30
0.0
  0
ENDBLK
  5
16F
330
16C
100
AcDbEntity
  8
0
100
AcDbBlockEnd
  0
BLOCK
  5
172
330
170
100
AcDbEntity
  8
0
100
AcDbBlockBegin
  2
block 69
 70
     0
 71
     0
 10
0.0
 20
0.0
 30
0.0
  3
block 69
  1

  0
INSERT
  5
175
330
170
100
AcDbEntity
  8
\U+30D5\U+30A9\U+30FC\U+30DE\U+30C3\U+30C8
100
AcDbBlockReference
  2
block 70
 10
0.0
 20
0.0
 30
0.0
  0
ENDBLK
  5
173
330
170
100
AcDbEntity
  8
0
100
AcDbBlockEnd
  0
BLOCK
  5
176
330
174
100
AcDbEntity
  8
0
100
AcDbBlockBegin
  2
block 70
 70
     0
 71
     0
 10
0.0
 20
0.0
 30
0.0
  3
block 70
  1

  0
MTEXT
  5
178
330
174
100
AcDbEntity
  8
\U+30D5\U+30A9\U+30FC\U+30DE\U+30C3\U+30C8
 62
     7
100
AcDbMText
 10
121.4120550911748
 20
-32.34772405875335
 30
0.0
 40
2.187786638666616
 41
0.0
 71
     7
 72
     1
  1
\fMS Gothic|b0|i0|c0|p34;\W1;度
 73
     1
 44
1.0
  0
ENDBLK
  5
177
330
174
100
AcDbEntity
  8
0
100
AcDbBlockEnd
  0
BLOCK
  5
17B
330
179
100
AcDbEntity
  8
0
100
AcDbBlockBegin
  2
block 71
 70
     0
 71
     0
 10
0.0
 20
0.0
 30
0.0
  3
block 71
  1

  0
INSERT
  5
17E
330
179
100
AcDbEntity
  8
\U+30D5\U+30A9\U+30FC\U+30DE\U+30C3\U+30C8
100
AcDbBlockReference
  2
block 72
 10
0.0
 20
0.0
 30
0.0
  0
ENDBLK
  5
17C
330
179
100
AcDbEntity
  8
0
100
AcDbBlockEnd
  0
BLOCK
  5
17F
330
17D
100
AcDbEntity
  8
0
100
AcDbBlockBegin
  2
block 72
 70
     0
 71
     0
 10
0.0
 20
0.0
 30
0.0
  3
block 72
  1

  0
INSERT
  5
182
330
17D
100
AcDbEntity
  8
\U+30D5\U+30A9\U+30FC\U+30DE\U+30C3\U+30C8
100
AcDbBlockReference
  2
block 73
 10
0.0
 20
0.0
 30
0.0
  0
ENDBLK
  5
180
330
17D
100
AcDbEntity
  8
0
100
AcDbBlockEnd
  0
BLOCK
  5
183
330
181
100
AcDbEntity
  8
0
100
AcDbBlockBegin
  2
block 73
 70
     0
 71
     0
 10
0.0
 20
0.0
 30
0.0
  3
block 73
  1

  0
MTEXT
  5
185
330
181
100
AcDbEntity
  8
\U+30D5\U+30A9\U+30FC\U+30DE\U+30C3\U+30C8
 62
     7
100
AcDbMText
 10
121.3273057422376
 20
-19.90162759919126
 30
0.0
 40
2.187786638666616
 41
0.0
 71
     7
 72
     1
  1
\fMS Gothic|b0|i0|c0|p34;\W1;図
 73
     1
 44
1.0
  0
ENDBLK
  5
184
330
181
100
AcDbEntity
  8
0
100
AcDbBlockEnd
  0
BLOCK
  5
188
330
186
100
AcDbEntity
  8
0
100
AcDbBlockBegin
  2
block 74
 70
     0
 71
     0
 10
0.0
 20
0.0
 30
0.0
  3
block 74
  1

  0
INSERT
  5
18B
330
186
100
AcDbEntity
  8
\U+30D5\U+30A9\U+30FC\U+30DE\U+30C3\U+30C8
100
AcDbBlockReference
  2
block 75
 10
0.0
 20
0.0
 30
0.0
  0
ENDBLK
  5
189
330
186
100
AcDbEntity
  8
0
100
AcDbBlockEnd
  0
BLOCK
  5
18C
330
18A
100
AcDbEntity
  8
0
100
AcDbBlockBegin
  2
block 75
 70
     0
 71
     0
 10
0.0
 20
0.0
 30
0.0
  3
block 75
  1

  0
INSERT
  5
18F
330
18A
100
AcDbEntity
  8
\U+30D5\U+30A9\U+30FC\U+30DE\U+30C3\U+30C8
100
AcDbBlockReference
  2
block 76
 10
0.0
 20
0.0
 30
0.0
  0
ENDBLK
  5
18D
330
18A
100
AcDbEntity
  8
0
100
AcDbBlockEnd
  0
BLOCK
  5
190
330
18E
100
AcDbEntity
  8
0
100
AcDbBlockBegin
  2
block 76
 70
     0
 71
     0
 10
0.0
 20
0.0
 30
0.0
  3
block 76
  1

  0
MTEXT
  5
192
330
18E
100
AcDbEntity
  8
\U+30D5\U+30A9\U+30FC\U+30DE\U+30C3\U+30C8
 62
     7
100
AcDbMText
 10
121.4966321853377
 20
-24.13496093146626
 30
0.0
 40
2.187786638666616
 41
0.0
 71
     7
 72
     1
  1
\fMS Gothic|b0|i0|c0|p34;\W1;番
 73
     1
 44
1.0
  0
ENDBLK
  5
191
330
18E
100
AcDbEntity
  8
0
100
AcDbBlockEnd
  0
BLOCK
  5
195
330
193
100
AcDbEntity
  8
0
100
AcDbBlockBegin
  2
block 77
 70
     0
 71
     0
 10
0.0
 20
0.0
 30
0.0
  3
block 77
  1

  0
INSERT
  5
198
330
193
100
AcDbEntity
  8
\U+30D5\U+30A9\U+30FC\U+30DE\U+30C3\U+30C8
100
AcDbBlockReference
  2
block 78
 10
0.0
 20
0.0
 30
0.0
  0
ENDBLK
  5
196
330
193
100
AcDbEntity
  8
0
100
AcDbBlockEnd
  0
BLOCK
  5
199
330
197
100
AcDbEntity
  8
0
100
AcDbBlockBegin
  2
block 78
 70
     0
 71
     0
 10
0.0
 20
0.0
 30
0.0
  3
block 78
  1

  0
INSERT
  5
19C
330
197
100
AcDbEntity
  8
\U+30D5\U+30A9\U+30FC\U+30DE\U+30C3\U+30C8
100
AcDbBlockReference
  2
block 79
 10
0.0
 20
0.0
 30
0.0
  0
ENDBLK
  5
19A
330
197
100
AcDbEntity
  8
0
100
AcDbBlockEnd
  0
BLOCK
  5
19D
330
19B
100
AcDbEntity
  8
0
100
AcDbBlockBegin
  2
block 79
 70
     0
 71
     0
 10
0.0
 20
0.0
 30
0.0
  3
block 79
  1

  0
MTEXT
  5
19F
330
19B
100
AcDbEntity
  8
\U+30D5\U+30A9\U+30FC\U+30DE\U+30C3\U+30C8
 62
     7
100
AcDbMText
 10
156.2946804079749
 20
-21.84914007700299
 30
0.0
 40
2.187786638666616
 41
0.0
 71
     7
 72
     1
  1
\fMS Gothic|b0|i0|c0|p34;\W1;品
 73
     1
 44
1.0
  0
ENDBLK
  5
19E
330
19B
100
AcDbEntity
  8
0
100
AcDbBlockEnd
  0
BLOCK
  5
1A2
330
1A0
100
AcDbEntity
  8
0
100
AcDbBlockBegin
  2
block 80
 70
     0
 71
     0
 10
0.0
 20
0.0
 30
0.0
  3
block 80
  1

  0
INSERT
  5
1A5
330
1A0
100
AcDbEntity
  8
\U+30D5\U+30A9\U+30FC\U+30DE\U+30C3\U+30C8
100
AcDbBlockReference
  2
block 81
 10
0.0
 20
0.0
 30
0.0
  0
ENDBLK
  5
1A3
330
1A0
100
AcDbEntity
  8
0
100
AcDbBlockEnd
  0
BLOCK
  5
1A6
330
1A4
100
AcDbEntity
  8
0
100
AcDbBlockBegin
  2
block 81
 70
     0
 71
     0
 10
0.0
 20
0.0
 30
0.0
  3
block 81
  1

  0
INSERT
  5
1A9
330
1A4
100
AcDbEntity
  8
\U+30D5\U+30A9\U+30FC\U+30DE\U+30C3\U+30C8
100
AcDbBlockReference
  2
block 82
 10
0.0
 20
0.0
 30
0.0
  0
ENDBLK
  5
1A7
330
1A4
100
AcDbEntity
  8
0
100
AcDbBlockEnd
  0
BLOCK
  5
1AA
330
1A8
100
AcDbEntity
  8
0
100
AcDbBlockBegin
  2
block 82
 70
     0
 71
     0
 10
0.0
 20
0.0
 30
0.0
  3
block 82
  1

  0
MTEXT
  5
1AC
330
1A8
100
AcDbEntity
  8
\U+30D5\U+30A9\U+30FC\U+30DE\U+30C3\U+30C8
 62
     7
100
AcDbMText
 10
156.4638345963007
 20
-30.23105739261585
 30
0.0
 40
2.187786638666616
 41
0.0
 71
     7
 72
     1
  1
\fMS Gothic|b0|i0|c0|p34;\W1;名
 73
     1
 44
1.0
  0
ENDBLK
  5
1AB
330
1A8
100
AcDbEntity
  8
0
100
AcDbBlockEnd
  0
BLOCK
  5
1AF
330
1AD
100
AcDbEntity
  8
0
100
AcDbBlockBegin
  2
block 83
 70
     0
 71
     0
 10
0.0
 20
0.0
 30
0.0
  3
block 83
  1

  0
INSERT
  5
1B2
330
1AD
100
AcDbEntity
  8
\U+30D5\U+30A9\U+30FC\U+30DE\U+30C3\U+30C8
100
AcDbBlockReference
  2
block 84
 10
0.0
 20
0.0
 30
0.0
  0
ENDBLK
  5
1B0
330
1AD
100
AcDbEntity
  8
0
100
AcDbBlockEnd
  0
BLOCK
  5
1B3
330
1B1
100
AcDbEntity
  8
0
100
AcDbBlockBegin
  2
block 84
 70
     0
 71
     0
 10
0.0
 20
0.0
 30
0.0
  3
block 84
  1

  0
INSERT
  5
1B6
330
1B1
100
AcDbEntity
  8
\U+30D5\U+30A9\U+30FC\U+30DE\U+30C3\U+30C8
100
AcDbBlockReference
  2
block 85
 10
0.0
 20
0.0
 30
0.0
  0
ENDBLK
  5
1B4
330
1B1
100
AcDbEntity
  8
0
100
AcDbBlockEnd
  0
BLOCK
  5
1B7
330
1B5
100
AcDbEntity
  8
0
100
AcDbBlockBegin
  2
block 85
 70
     0
 71
     0
 10
0.0
 20
0.0
 30
0.0
  3
block 85
  1

  0
MTEXT
  5
1B9
330
1B5
100
AcDbEntity
  8
\U+30D5\U+30A9\U+30FC\U+30DE\U+30C3\U+30C8
 62
     7
100
AcDbMText
 10
156.4638345963007
 20
-11.60445963251555
 30
0.0
 40
2.187786638666616
 41
0.0
 71
     7
 72
     1
  1
\fMS Gothic|b0|i0|c0|p34;\W1;品
 73
     1
 44
1.0
  0
ENDBLK
  5
1B8
330
1B5
100
AcDbEntity
  8
0
100
AcDbBlockEnd
  0
BLOCK
  5
1BC
330
1BA
100
AcDbEntity
  8
0
100
AcDbBlockBegin
  2
block 86
 70
     0
 71
     0
 10
0.0
 20
0.0
 30
0.0
  3
block 86
  1

  0
INSERT
  5
1BF
330
1BA
100
AcDbEntity
  8
\U+30D5\U+30A9\U+30FC\U+30DE\U+30C3\U+30C8
100
AcDbBlockReference
  2
block 87
 10
0.0
 20
0.0
 30
0.0
  0
ENDBLK
  5
1BD
330
1BA
100
AcDbEntity
  8
0
100
AcDbBlockEnd
  0
BLOCK
  5
1C0
330
1BE
100
AcDbEntity
  8
0
100
AcDbBlockBegin
  2
block 87
 70
     0
 71
     0
 10
0.0
 20
0.0
 30
0.0
  3
block 87
  1

  0
INSERT
  5
1C3
330
1BE
100
AcDbEntity
  8
\U+30D5\U+30A9\U+30FC\U+30DE\U+30C3\U+30C8
100
AcDbBlockReference
  2
block 88
 10
0.0
 20
0.0
 30
0.0
  0
ENDBLK
  5
1C1
330
1BE
100
AcDbEntity
  8
0
100
AcDbBlockEnd
  0
BLOCK
  5
1C4
330
1C2
100
AcDbEntity
  8
0
100
AcDbBlockBegin
  2
block 88
 70
     0
 71
     0
 10
0.0
 20
0.0
 30
0.0
  3
block 88
  1

  0
MTEXT
  5
1C6
330
1C2
100
AcDbEntity
  8
\U+30D5\U+30A9\U+30FC\U+30DE\U+30C3\U+30C8
 62
     7
100
AcDbMText
 10
156.633333294175
 20
-15.83779296479055
 30
0.0
 40
2.187786638666616
 41
0.0
 71
     7
 72
     1
  1
\fMS Gothic|b0|i0|c0|p34;\W1;番
 73
     1
 44
1.0
  0
ENDBLK
  5
1C5
330
1C2
100
AcDbEntity
  8
0
100
AcDbBlockEnd
  0
BLOCK
  5
2BF
330
2BD
100
AcDbEntity
  8
0
100
AcDbBlockBegin
  2
block 89
 70
     0
 71
     0
 10
0.0
 20
0.0
 30
0.0
  3
block 89
  1

  0
INSERT
  5
2C2
330
2BD
100
AcDbEntity
  8
\U+30D5\U+30A9\U+30FC\U+30DE\U+30C3\U+30C8
100
AcDbBlockReference
  2
block 90
 10
0.0
 20
0.0
 30
0.0
  0
INSERT
  5
2CF
330
2BD
100
AcDbEntity
  8
\U+30D5\U+30A9\U+30FC\U+30DE\U+30C3\U+30C8
100
AcDbBlockReference
  2
block 93
 10
0.0
 20
0.0
 30
0.0
  0
INSERT
  5
2DC
330
2BD
100
AcDbEntity
  8
\U+30D5\U+30A9\U+30FC\U+30DE\U+30C3\U+30C8
100
AcDbBlockReference
  2
block 96
 10
0.0
 20
0.0
 30
0.0
  0
ENDBLK
  5
2C0
330
2BD
100
AcDbEntity
  8
0
100
AcDbBlockEnd
  0
BLOCK
  5
2C3
330
2C1
100
AcDbEntity
  8
0
100
AcDbBlockBegin
  2
block 90
 70
     0
 71
     0
 10
0.0
 20
0.0
 30
0.0
  3
block 90
  1

  0
INSERT
  5
2C6
330
2C1
100
AcDbEntity
  8
\U+30D5\U+30A9\U+30FC\U+30DE\U+30C3\U+30C8
100
AcDbBlockReference
  2
block 91
 10
0.0
 20
0.0
 30
0.0
  0
ENDBLK
  5
2C4
330
2C1
100
AcDbEntity
  8
0
100
AcDbBlockEnd
  0
BLOCK
  5
2C7
330
2C5
100
AcDbEntity
  8
0
100
AcDbBlockBegin
  2
block 91
 70
     0
 71
     0
 10
0.0
 20
0.0
 30
0.0
  3
block 91
  1

  0
INSERT
  5
2CA
330
2C5
100
AcDbEntity
  8
\U+30D5\U+30A9\U+30FC\U+30DE\U+30C3\U+30C8
100
AcDbBlockReference
  2
block 92
 10
0.0
 20
0.0
 30
0.0
  0
ENDBLK
  5
2C8
330
2C5
100
AcDbEntity
  8
0
100
AcDbBlockEnd
  0
BLOCK
  5
2CB
330
2C9
100
AcDbEntity
  8
0
100
AcDbBlockBegin
  2
block 92
 70
     0
 71
     0
 10
0.0
 20
0.0
 30
0.0
  3
block 92
  1

  0
MTEXT
  5
2CD
330
2C9
100
AcDbEntity
  8
\U+30D5\U+30A9\U+30FC\U+30DE\U+30C3\U+30C8
 62
     7
100
AcDbMText
 10
88.73067353467498
 20
-13.63637694971591
 30
0.0
 40
2.187786638666616
 41
0.0
 71
     7
 72
     1
  1
\fMS Gothic|b0|i0|c0|p34;\W1;日
 73
     1
 44
1.0
  0
ENDBLK
  5
2CC
330
2C9
100
AcDbEntity
  8
0
100
AcDbBlockEnd
  0
BLOCK
  5
2D0
330
2CE
100
AcDbEntity
  8
0
100
AcDbBlockBegin
  2
block 93
 70
     0
 71
     0
 10
0.0
 20
0.0
 30
0.0
  3
block 93
  1

  0
INSERT
  5
2D3
330
2CE
100
AcDbEntity
  8
\U+30D5\U+30A9\U+30FC\U+30DE\U+30C3\U+30C8
100
AcDbBlockReference
  2
block 94
 10
0.0
 20
0.0
 30
0.0
  0
ENDBLK
  5
2D1
330
2CE
100
AcDbEntity
  8
0
100
AcDbBlockEnd
  0
BLOCK
  5
2D4
330
2D2
100
AcDbEntity
  8
0
100
AcDbBlockBegin
  2
block 94
 70
     0
 71
     0
 10
0.0
 20
0.0
 30
0.0
  3
block 94
  1

  0
INSERT
  5
2D7
330
2D2
100
AcDbEntity
  8
\U+30D5\U+30A9\U+30FC\U+30DE\U+30C3\U+30C8
100
AcDbBlockReference
  2
block 95
 10
0.0
 20
0.0
 30
0.0
  0
ENDBLK
  5
2D5
330
2D2
100
AcDbEntity
  8
0
100
AcDbBlockEnd
  0
BLOCK
  5
2D8
330
2D6
100
AcDbEntity
  8
0
100
AcDbBlockBegin
  2
block 95
 70
     0
 71
     0
 10
0.0
 20
0.0
 30
0.0
  3
block 95
  1

  0
MTEXT
  5
2DA
330
2D6
100
AcDbEntity
  8
\U+30D5\U+30A9\U+30FC\U+30DE\U+30C3\U+30C8
 62
     7
100
AcDbMText
 10
91.9480482083498
 20
-13.63637694971591
 30
0.0
 40
2.187786638666616
 41
0.0
 71
     7
 72
     1
  1
\fMS Gothic|b0|i0|c0|p34;\W1; 
 73
     1
 44
1.0
  0
ENDBLK
  5
2D9
330
2D6
100
AcDbEntity
  8
0
100
AcDbBlockEnd
  0
BLOCK
  5
2DD
330
2DB
100
AcDbEntity
  8
0
100
AcDbBlockBegin
  2
block 96
 70
     0
 71
     0
 10
0.0
 20
0.0
 30
0.0
  3
block 96
  1

  0
INSERT
  5
2E0
330
2DB
100
AcDbEntity
  8
\U+30D5\U+30A9\U+30FC\U+30DE\U+30C3\U+30C8
100
AcDbBlockReference
  2
block 97
 10
0.0
 20
0.0
 30
0.0
  0
ENDBLK
  5
2DE
330
2DB
100
AcDbEntity
  8
0
100
AcDbBlockEnd
  0
BLOCK
  5
2E1
330
2DF
100
AcDbEntity
  8
0
100
AcDbBlockBegin
  2
block 97
 70
     0
 71
     0
 10
0.0
 20
0.0
 30
0.0
  3
block 97
  1

  0
INSERT
  5
2E4
330
2DF
100
AcDbEntity
  8
\U+30D5\U+30A9\U+30FC\U+30DE\U+30C3\U+30C8
100
AcDbBlockReference
  2
block 98
 10
0.0
 20
0.0
 30
0.0
  0
ENDBLK
  5
2E2
330
2DF
100
AcDbEntity
  8
0
100
AcDbBlockEnd
  0
BLOCK
  5
2E5
330
2E3
100
AcDbEntity
  8
0
100
AcDbBlockBegin
  2
block 98
 70
     0
 71
     0
 10
0.0
 20
0.0
 30
0.0
  3
block 98
  1

  0
MTEXT
  5
2E7
330
2E3
100
AcDbEntity
  8
\U+30D5\U+30A9\U+30FC\U+30DE\U+30C3\U+30C8
 62
     7
100
AcDbMText
 10
93.55673554518721
 20
-13.63637694971591
 30
0.0
 40
2.187786638666616
 41
0.0
 71
     7
 72
     1
  1
\fMS Gothic|b0|i0|c0|p34;\W1;付
 73
     1
 44
1.0
  0
ENDBLK
  5
2E6
330
2E3
100
AcDbEntity
  8
0
100
AcDbBlockEnd
  0
BLOCK
  5
322
330
320
100
AcDbEntity
  8
0
100
AcDbBlockBegin
  2
block 99
 70
     0
 71
     0
 10
0.0
 20
0.0
 30
0.0
  3
block 99
  1

  0
INSERT
  5
325
330
320
100
AcDbEntity
  8
\U+30EC\U+30A4\U+30E4\U+30FC 1
100
AcDbBlockReference
  2
block 100
 10
0.0
 20
0.0
 30
0.0
  0
ENDBLK
  5
323
330
320
100
AcDbEntity
  8
0
100
AcDbBlockEnd
  0
BLOCK
  5
326
330
324
100
AcDbEntity
  8
0
100
AcDbBlockBegin
  2
block 100
 70
     0
 71
     0
 10
0.0
 20
0.0
 30
0.0
  3
block 100
  1

  0
MTEXT
  5
328
330
324
100
AcDbEntity
  8
\U+30EC\U+30A4\U+30E4\U+30FC 1
 62
     7
100
AcDbMText
 10
15.4605550091557
 20
150.0345974017275
 30
0.0
 40
2.878666665947001
 41
0.0
 71
     7
 72
     1
  1
\fMS Gothic|b0|i0|c0|p34;\W1;【上面図】
 73
     1
 44
1.0
  0
ENDBLK
  5
327
330
324
100
AcDbEntity
  8
0
100
AcDbBlockEnd
  0
BLOCK
  5
32B
330
329
100
AcDbEntity
  8
0
100
AcDbBlockBegin
  2
block 101
 70
     0
 71
     0
 10
0.0
 20
0.0
 30
0.0
  3
block 101
  1

  0
INSERT
  5
32E
330
329
100
AcDbEntity
  8
\U+30EC\U+30A4\U+30E4\U+30FC 1
100
AcDbBlockReference
  2
block 102
 10
0.0
 20
0.0
 30
0.0
  0
ENDBLK
  5
32C
330
329
100
AcDbEntity
  8
0
100
AcDbBlockEnd
  0
BLOCK
  5
32F
330
32D
100
AcDbEntity
  8
0
100
AcDbBlockBegin
  2
block 102
 70
     0
 71
     0
 10
0.0
 20
0.0
 30
0.0
  3
block 102
  1

  0
MTEXT
  5
331
330
32D
100
AcDbEntity
  8
\U+30EC\U+30A4\U+30E4\U+30FC 1
 62
     7
100
AcDbMText
 10
144.2590670754804
 20
70.28442652322751
 30
0.0
 40
2.878666665947001
 41
0.0
 71
     7
 72
     1
  1
\fMS Gothic|b0|i0|c0|p34;\W1;【正面図】
 73
     1
 44
1.0
  0
ENDBLK
  5
330
330
32D
100
AcDbEntity
  8
0
100
AcDbBlockEnd
  0
BLOCK
  5
336
330
334
100
AcDbEntity
  8
0
100
AcDbBlockBegin
  2
block 103
 70
     0
 71
     0
 10
0.0
 20
0.0
 30
0.0
  3
block 103
  1

  0
POLYLINE
  5
338
330
334
100
AcDbEntity
  8
\U+30EC\U+30A4\U+30E4\U+30FC 1
 62
     7
370
    18
100
AcDb2dPolyline
 66
     1
 10
0.0
 20
0.0
 30
0.0
  0
VERTEX
  5
339
330
338
100
AcDbEntity
  8
\U+30EC\U+30A4\U+30E4\U+30FC 1
 62
     7
370
    18
100
AcDbVertex
100
AcDb2dVertex
 10
310.742789635856
 20
102.4991698962502
 30
0.0
  0
VERTEX
  5
33A
330
338
100
AcDbEntity
  8
\U+30EC\U+30A4\U+30E4\U+30FC 1
 62
     7
370
    18
100
AcDbVertex
100
AcDb2dVertex
 10
310.742789635856
 20
80.4994791465418
 30
0.0
  0
VERTEX
  5
33B
330
338
100
AcDbEntity
  8
\U+30EC\U+30A4\U+30E4\U+30FC 1
 62
     7
370
    18
100
AcDbVertex
100
AcDb2dVertex
 10
10.74318576120309
 20
80.4994791465418
 30
0.0
  0
VERTEX
  5
33C
330
338
100
AcDbEntity
  8
\U+30EC\U+30A4\U+30E4\U+30FC 1
 62
     7
370
    18
100
AcDbVertex
100
AcDb2dVertex
 10
10.74318576120309
 20
102.4991698962502
 30
0.0
  0
VERTEX
  5
33D
330
338
100
AcDbEntity
  8
\U+30EC\U+30A4\U+30E4\U+30FC 1
 62
     7
370
    18
100
AcDbVertex
100
AcDb2dVertex
 10
310.742789635856
 20
102.4991698962502
 30
0.0
  0
SEQEND
  5
33E
330
338
100
AcDbEntity
  8
\U+30EC\U+30A4\U+30E4\U+30FC 1
370
    18
  0
POLYLINE
  5
33F
330
334
100
AcDbEntity
  8
\U+30EC\U+30A4\U+30E4\U+30FC 1
 62
     7
370
     9
100
AcDb2dPolyline
 66
     1
 10
0.0
 20
0.0
 30
0.0
  0
VERTEX
  5
340
330
33F
100
AcDbEntity
  8
\U+30EC\U+30A4\U+30E4\U+30FC 1
 62
     7
370
     9
100
AcDbVertex
100
AcDb2dVertex
 10
311.7473794793548
 20
81.4992458563613
 30
0.0
  0
VERTEX
  5
341
330
33F
100
AcDbEntity
  8
\U+30EC\U+30A4\U+30E4\U+30FC 1
 62
     7
370
     9
100
AcDbVertex
100
AcDb2dVertex
 10
310.6918022226743
 20
81.4992458563613
 30
0.0
  0
VERTEX
  5
342
330
33F
100
AcDbEntity
  8
\U+30EC\U+30A4\U+30E4\U+30FC 1
 62
     7
370
     9
100
AcDbVertex
100
AcDb2dVertex
 10
310.6918022226743
 20
101.4987141673337
 30
0.0
  0
VERTEX
  5
343
330
33F
100
AcDbEntity
  8
\U+30EC\U+30A4\U+30E4\U+30FC 1
 62
     7
370
     9
100
AcDbVertex
100
AcDb2dVertex
 10
311.7425563456755
 20
101.4987141673337
 30
0.0
  0
SEQEND
  5
344
330
33F
100
AcDbEntity
  8
\U+30EC\U+30A4\U+30E4\U+30FC 1
370
     9
  0
POLYLINE
  5
345
330
334
100
AcDbEntity
  8
\U+30EC\U+30A4\U+30E4\U+30FC 1
 62
     7
370
     9
100
AcDb2dPolyline
 66
     1
 10
0.0
 20
0.0
 30
0.0
  0
VERTEX
  5
346
330
345
100
AcDbEntity
  8
\U+30EC\U+30A4\U+30E4\U+30FC 1
 62
     7
370
     9
100
AcDbVertex
100
AcDb2dVertex
 10
313.7317544788588
 20
81.4992458563613
 30
0.0
  0
VERTEX
  5
347
330
345
100
AcDbEntity
  8
\U+30EC\U+30A4\U+30E4\U+30FC 1
 62
     7
370
     9
100
AcDbVertex
100
AcDb2dVertex
 10
312.7616155902124
 20
81.4992458563613
 30
0.0
  0
SEQEND
  5
348
330
345
100
AcDbEntity
  8
\U+30EC\U+30A4\U+30E4\U+30FC 1
370
     9
  0
POLYLINE
  5
349
330
334
100
AcDbEntity
  8
\U+30EC\U+30A4\U+30E4\U+30FC 1
 62
     7
370
     9
100
AcDb2dPolyline
 66
     1
 10
0.0
 20
0.0
 30
0.0
  0
VERTEX
  5
34A
330
349
100
AcDbEntity
  8
\U+30EC\U+30A4\U+30E4\U+30FC 1
 62
     7
370
     9
100
AcDbVertex
100
AcDb2dVertex
 10
315.7602267005739
 20
81.4992458563613
 30
0.0
  0
VERTEX
  5
34B
330
349
100
AcDbEntity
  8
\U+30EC\U+30A4\U+30E4\U+30FC 1
 62
     7
370
     9
100
AcDbVertex
100
AcDb2dVertex
 10
314.7459905897163
 20
81.4992458563613
 30
0.0
  0
SEQEND
  5
34C
330
349
100
AcDbEntity
  8
\U+30EC\U+30A4\U+30E4\U+30FC 1
370
     9
  0
POLYLINE
  5
34D
330
334
100
AcDbEntity
  8
\U+30EC\U+30A4\U+30E4\U+30FC 1
 62
     7
370
     9
100
AcDb2dPolyline
 66
     1
 10
0.0
 20
0.0
 30
0.0
  0
VERTEX
  5
34E
330
34D
100
AcDbEntity
  8
\U+30EC\U+30A4\U+30E4\U+30FC 1
 62
     7
370
     9
100
AcDbVertex
100
AcDb2dVertex
 10
316.74207891387
 20
101.4987141673337
 30
0.0
  0
VERTEX
  5
34F
330
34D
100
AcDbEntity
  8
\U+30EC\U+30A4\U+30E4\U+30FC 1
 62
     7
370
     9
100
AcDbVertex
100
AcDb2dVertex
 10
317.6908582105079
 20
101.4987141673337
 30
0.0
  0
VERTEX
  5
350
330
34D
100
AcDbEntity
  8
\U+30EC\U+30A4\U+30E4\U+30FC 1
 62
     7
370
     9
100
AcDbVertex
100
AcDb2dVertex
 10
317.6908582105079
 20
81.4992458563613
 30
0.0
  0
VERTEX
  5
351
330
34D
100
AcDbEntity
  8
\U+30EC\U+30A4\U+30E4\U+30FC 1
 62
     7
370
     9
100
AcDbVertex
100
AcDb2dVertex
 10
316.7193412836674
 20
81.4992458563613
 30
0.0
  0
SEQEND
  5
352
330
34D
100
AcDbEntity
  8
\U+30EC\U+30A4\U+30E4\U+30FC 1
370
     9
  0
POLYLINE
  5
353
330
334
100
AcDbEntity
  8
\U+30EC\U+30A4\U+30E4\U+30FC 1
 62
     7
370
     9
100
AcDb2dPolyline
 66
     1
 10
0.0
 20
0.0
 30
0.0
  0
VERTEX
  5
354
330
353
100
AcDbEntity
  8
\U+30EC\U+30A4\U+30E4\U+30FC 1
 62
     7
370
     9
100
AcDbVertex
100
AcDb2dVertex
 10
314.741856475134
 20
101.4987141673337
 30
0.0
  0
VERTEX
  5
355
330
353
100
AcDbEntity
  8
\U+30EC\U+30A4\U+30E4\U+30FC 1
 62
     7
370
     9
100
AcDbVertex
100
AcDb2dVertex
 10
315.7423122040506
 20
101.4987141673337
 30
0.0
  0
SEQEND
  5
356
330
353
100
AcDbEntity
  8
\U+30EC\U+30A4\U+30E4\U+30FC 1
370
     9
  0
POLYLINE
  5
357
330
334
100
AcDbEntity
  8
\U+30EC\U+30A4\U+30E4\U+30FC 1
 62
     7
370
     9
100
AcDb2dPolyline
 66
     1
 10
0.0
 20
0.0
 30
0.0
  0
VERTEX
  5
358
330
357
100
AcDbEntity
  8
\U+30EC\U+30A4\U+30E4\U+30FC 1
 62
     7
370
     9
100
AcDbVertex
100
AcDb2dVertex
 10
312.742323055495
 20
101.4987141673337
 30
0.0
  0
VERTEX
  5
359
330
357
100
AcDbEntity
  8
\U+30EC\U+30A4\U+30E4\U+30FC 1
 62
     7
370
     9
100
AcDbVertex
100
AcDb2dVertex
 10
313.7420897653145
 20
101.4987141673337
 30
0.0
  0
SEQEND
  5
35A
330
357
100
AcDbEntity
  8
\U+30EC\U+30A4\U+30E4\U+30FC 1
370
     9
  0
POLYLINE
  5
35B
330
334
100
AcDbEntity
  8
\U+30EC\U+30A4\U+30E4\U+30FC 1
 62
     7
370
     9
100
AcDb2dPolyline
 66
     1
 10
0.0
 20
0.0
 30
0.0
  0
VERTEX
  5
35C
330
35B
100
AcDbEntity
  8
\U+30EC\U+30A4\U+30E4\U+30FC 1
 62
     7
370
     9
100
AcDbVertex
100
AcDb2dVertex
 10
312.742323055495
 20
101.4994031864307
 30
0.0
  0
VERTEX
  5
35D
330
35B
100
AcDbEntity
  8
\U+30EC\U+30A4\U+30E4\U+30FC 1
 62
     7
370
     9
100
AcDbVertex
100
AcDb2dVertex
 10
312.742323055495
 20
81.4992458563613
 30
0.0
  0
SEQEND
  5
35E
330
35B
100
AcDbEntity
  8
\U+30EC\U+30A4\U+30E4\U+30FC 1
370
     9
  0
POLYLINE
  5
35F
330
334
100
AcDbEntity
  8
\U+30EC\U+30A4\U+30E4\U+30FC 1
 62
     7
370
     9
100
AcDb2dPolyline
 66
     1
 10
0.0
 20
0.0
 30
0.0
  0
VERTEX
  5
360
330
35F
100
AcDbEntity
  8
\U+30EC\U+30A4\U+30E4\U+30FC 1
 62
     7
370
     9
100
AcDbVertex
100
AcDb2dVertex
 10
311.7425563456755
 20
81.4992458563613
 30
0.0
  0
VERTEX
  5
361
330
35F
100
AcDbEntity
  8
\U+30EC\U+30A4\U+30E4\U+30FC 1
 62
     7
370
     9
100
AcDbVertex
100
AcDb2dVertex
 10
311.7425563456755
 20
101.4994031864307
 30
0.0
  0
SEQEND
  5
362
330
35F
100
AcDbEntity
  8
\U+30EC\U+30A4\U+30E4\U+30FC 1
370
     9
  0
POLYLINE
  5
363
330
334
100
AcDbEntity
  8
\U+30EC\U+30A4\U+30E4\U+30FC 1
 62
     7
370
     9
100
AcDb2dPolyline
 66
     1
 10
0.0
 20
0.0
 30
0.0
  0
VERTEX
  5
364
330
363
100
AcDbEntity
  8
\U+30EC\U+30A4\U+30E4\U+30FC 1
 62
     7
370
     9
100
AcDbVertex
100
AcDb2dVertex
 10
314.741856475134
 20
101.4994031864307
 30
0.0
  0
VERTEX
  5
365
330
363
100
AcDbEntity
  8
\U+30EC\U+30A4\U+30E4\U+30FC 1
 62
     7
370
     9
100
AcDbVertex
100
AcDb2dVertex
 10
314.741856475134
 20
81.4992458563613
 30
0.0
  0
SEQEND
  5
366
330
363
100
AcDbEntity
  8
\U+30EC\U+30A4\U+30E4\U+30FC 1
370
     9
  0
POLYLINE
  5
367
330
334
100
AcDbEntity
  8
\U+30EC\U+30A4\U+30E4\U+30FC 1
 62
     7
370
     9
100
AcDb2dPolyline
 66
     1
 10
0.0
 20
0.0
 30
0.0
  0
VERTEX
  5
368
330
367
100
AcDbEntity
  8
\U+30EC\U+30A4\U+30E4\U+30FC 1
 62
     7
370
     9
100
AcDbVertex
100
AcDb2dVertex
 10
313.7420897653145
 20
81.4992458563613
 30
0.0
  0
VERTEX
  5
369
330
367
100
AcDbEntity
  8
\U+30EC\U+30A4\U+30E4\U+30FC 1
 62
     7
370
     9
100
AcDbVertex
100
AcDb2dVertex
 10
313.7420897653145
 20
101.4994031864307
 30
0.0
  0
SEQEND
  5
36A
330
367
100
AcDbEntity
  8
\U+30EC\U+30A4\U+30E4\U+30FC 1
370
     9
  0
POLYLINE
  5
36B
330
334
100
AcDbEntity
  8
\U+30EC\U+30A4\U+30E4\U+30FC 1
 62
     7
370
     9
100
AcDb2dPolyline
 66
     1
 10
0.0
 20
0.0
 30
0.0
  0
VERTEX
  5
36C
330
36B
100
AcDbEntity
  8
\U+30EC\U+30A4\U+30E4\U+30FC 1
 62
     7
370
     9
100
AcDbVertex
100
AcDb2dVertex
 10
312.742323055495
 20
81.4992458563613
 30
0.0
  0
VERTEX
  5
36D
330
36B
100
AcDbEntity
  8
\U+30EC\U+30A4\U+30E4\U+30FC 1
 62
     7
370
     9
100
AcDbVertex
100
AcDb2dVertex
 10
312.4308864236284
 20
81.16231551790386
 30
0.0
  0
VERTEX
  5
36E
330
36B
100
AcDbEntity
  8
\U+30EC\U+30A4\U+30E4\U+30FC 1
 62
     7
370
     9
100
AcDbVertex
100
AcDb2dVertex
 10
312.0009385070692
 20
81.16231551790386
 30
0.0
  0
VERTEX
  5
36F
330
36B
100
AcDbEntity
  8
\U+30EC\U+30A4\U+30E4\U+30FC 1
 62
     7
370
     9
100
AcDbVertex
100
AcDb2dVertex
 10
311.7425563456755
 20
81.4992458563613
 30
0.0
  0
SEQEND
  5
370
330
36B
100
AcDbEntity
  8
\U+30EC\U+30A4\U+30E4\U+30FC 1
370
     9
  0
POLYLINE
  5
371
330
334
100
AcDbEntity
  8
\U+30EC\U+30A4\U+30E4\U+30FC 1
 62
     7
370
     9
100
AcDb2dPolyline
 66
     1
 10
0.0
 20
0.0
 30
0.0
  0
VERTEX
  5
372
330
371
100
AcDbEntity
  8
\U+30EC\U+30A4\U+30E4\U+30FC 1
 62
     7
370
     9
100
AcDbVertex
100
AcDb2dVertex
 10
311.7425563456755
 20
101.4994031864307
 30
0.0
  0
VERTEX
  5
373
330
371
100
AcDbEntity
  8
\U+30EC\U+30A4\U+30E4\U+30FC 1
 62
     7
370
     9
100
AcDbVertex
100
AcDb2dVertex
 10
312.0539929775421
 20
101.8363335248881
 30
0.0
  0
VERTEX
  5
374
330
371
100
AcDbEntity
  8
\U+30EC\U+30A4\U+30E4\U+30FC 1
 62
     7
370
     9
100
AcDbVertex
100
AcDb2dVertex
 10
312.4839408941012
 20
101.8363335248881
 30
0.0
  0
VERTEX
  5
375
330
371
100
AcDbEntity
  8
\U+30EC\U+30A4\U+30E4\U+30FC 1
 62
     7
370
     9
100
AcDbVertex
100
AcDb2dVertex
 10
312.742323055495
 20
101.4994031864307
 30
0.0
  0
SEQEND
  5
376
330
371
100
AcDbEntity
  8
\U+30EC\U+30A4\U+30E4\U+30FC 1
370
     9
  0
POLYLINE
  5
377
330
334
100
AcDbEntity
  8
\U+30EC\U+30A4\U+30E4\U+30FC 1
 62
     7
370
     9
100
AcDb2dPolyline
 66
     1
 10
0.0
 20
0.0
 30
0.0
  0
VERTEX
  5
378
330
377
100
AcDbEntity
  8
\U+30EC\U+30A4\U+30E4\U+30FC 1
 62
     7
370
     9
100
AcDbVertex
100
AcDb2dVertex
 10
314.741856475134
 20
81.4992458563613
 30
0.0
  0
VERTEX
  5
379
330
377
100
AcDbEntity
  8
\U+30EC\U+30A4\U+30E4\U+30FC 1
 62
     7
370
     9
100
AcDbVertex
100
AcDb2dVertex
 10
314.4304198432674
 20
81.16231551790386
 30
0.0
  0
VERTEX
  5
37A
330
377
100
AcDbEntity
  8
\U+30EC\U+30A4\U+30E4\U+30FC 1
 62
     7
370
     9
100
AcDbVertex
100
AcDb2dVertex
 10
314.0004719267083
 20
81.16231551790386
 30
0.0
  0
VERTEX
  5
37B
330
377
100
AcDbEntity
  8
\U+30EC\U+30A4\U+30E4\U+30FC 1
 62
     7
370
     9
100
AcDbVertex
100
AcDb2dVertex
 10
313.7420897653145
 20
81.4992458563613
 30
0.0
  0
SEQEND
  5
37C
330
377
100
AcDbEntity
  8
\U+30EC\U+30A4\U+30E4\U+30FC 1
370
     9
  0
POLYLINE
  5
37D
330
334
100
AcDbEntity
  8
\U+30EC\U+30A4\U+30E4\U+30FC 1
 62
     7
370
     9
100
AcDb2dPolyline
 66
     1
 10
0.0
 20
0.0
 30
0.0
  0
VERTEX
  5
37E
330
37D
100
AcDbEntity
  8
\U+30EC\U+30A4\U+30E4\U+30FC 1
 62
     7
370
     9
100
AcDbVertex
100
AcDb2dVertex
 10
313.7420897653145
 20
101.4994031864307
 30
0.0
  0
VERTEX
  5
37F
330
37D
100
AcDbEntity
  8
\U+30EC\U+30A4\U+30E4\U+30FC 1
 62
     7
370
     9
100
AcDbVertex
100
AcDb2dVertex
 10
314.0535263971811
 20
101.8363335248881
 30
0.0
  0
VERTEX
  5
380
330
37D
100
AcDbEntity
  8
\U+30EC\U+30A4\U+30E4\U+30FC 1
 62
     7
370
     9
100
AcDbVertex
100
AcDb2dVertex
 10
314.4834743137403
 20
101.8363335248881
 30
0.0
  0
VERTEX
  5
381
330
37D
100
AcDbEntity
  8
\U+30EC\U+30A4\U+30E4\U+30FC 1
 62
     7
370
     9
100
AcDbVertex
100
AcDb2dVertex
 10
314.741856475134
 20
101.4994031864307
 30
0.0
  0
SEQEND
  5
382
330
37D
100
AcDbEntity
  8
\U+30EC\U+30A4\U+30E4\U+30FC 1
370
     9
  0
POLYLINE
  5
383
330
334
100
AcDbEntity
  8
\U+30EC\U+30A4\U+30E4\U+30FC 1
 62
     7
370
     9
100
AcDb2dPolyline
 66
     1
 10
0.0
 20
0.0
 30
0.0
  0
VERTEX
  5
384
330
383
100
AcDbEntity
  8
\U+30EC\U+30A4\U+30E4\U+30FC 1
 62
     7
370
     9
100
AcDbVertex
100
AcDb2dVertex
 10
316.74207891387
 20
101.4994031864307
 30
0.0
  0
VERTEX
  5
385
330
383
100
AcDbEntity
  8
\U+30EC\U+30A4\U+30E4\U+30FC 1
 62
     7
370
     9
100
AcDbVertex
100
AcDb2dVertex
 10
316.74207891387
 20
81.4992458563613
 30
0.0
  0
SEQEND
  5
386
330
383
100
AcDbEntity
  8
\U+30EC\U+30A4\U+30E4\U+30FC 1
370
     9
  0
POLYLINE
  5
387
330
334
100
AcDbEntity
  8
\U+30EC\U+30A4\U+30E4\U+30FC 1
 62
     7
370
     9
100
AcDb2dPolyline
 66
     1
 10
0.0
 20
0.0
 30
0.0
  0
VERTEX
  5
388
330
387
100
AcDbEntity
  8
\U+30EC\U+30A4\U+30E4\U+30FC 1
 62
     7
370
     9
100
AcDbVertex
100
AcDb2dVertex
 10
315.7423122040506
 20
81.4992458563613
 30
0.0
  0
VERTEX
  5
389
330
387
100
AcDbEntity
  8
\U+30EC\U+30A4\U+30E4\U+30FC 1
 62
     7
370
     9
100
AcDbVertex
100
AcDb2dVertex
 10
315.7423122040506
 20
101.4994031864307
 30
0.0
  0
SEQEND
  5
38A
330
387
100
AcDbEntity
  8
\U+30EC\U+30A4\U+30E4\U+30FC 1
370
     9
  0
POLYLINE
  5
38B
330
334
100
AcDbEntity
  8
\U+30EC\U+30A4\U+30E4\U+30FC 1
 62
     7
370
     9
100
AcDb2dPolyline
 66
     1
 10
0.0
 20
0.0
 30
0.0
  0
VERTEX
  5
38C
330
38B
100
AcDbEntity
  8
\U+30EC\U+30A4\U+30E4\U+30FC 1
 62
     7
370
     9
100
AcDbVertex
100
AcDb2dVertex
 10
316.74207891387
 20
81.4992458563613
 30
0.0
  0
VERTEX
  5
38D
330
38B
100
AcDbEntity
  8
\U+30EC\U+30A4\U+30E4\U+30FC 1
 62
     7
370
     9
100
AcDbVertex
100
AcDb2dVertex
 10
316.4306422820035
 20
81.16231551790386
 30
0.0
  0
VERTEX
  5
38E
330
38B
100
AcDbEntity
  8
\U+30EC\U+30A4\U+30E4\U+30FC 1
 62
     7
370
     9
100
AcDbVertex
100
AcDb2dVertex
 10
316.0006943654443
 20
81.16231551790386
 30
0.0
  0
VERTEX
  5
38F
330
38B
100
AcDbEntity
  8
\U+30EC\U+30A4\U+30E4\U+30FC 1
 62
     7
370
     9
100
AcDbVertex
100
AcDb2dVertex
 10
315.7423122040506
 20
81.4992458563613
 30
0.0
  0
SEQEND
  5
390
330
38B
100
AcDbEntity
  8
\U+30EC\U+30A4\U+30E4\U+30FC 1
370
     9
  0
POLYLINE
  5
391
330
334
100
AcDbEntity
  8
\U+30EC\U+30A4\U+30E4\U+30FC 1
 62
     7
370
     9
100
AcDb2dPolyline
 66
     1
 10
0.0
 20
0.0
 30
0.0
  0
VERTEX
  5
392
330
391
100
AcDbEntity
  8
\U+30EC\U+30A4\U+30E4\U+30FC 1
 62
     7
370
     9
100
AcDbVertex
100
AcDb2dVertex
 10
315.7423122040506
 20
101.4994031864307
 30
0.0
  0
VERTEX
  5
393
330
391
100
AcDbEntity
  8
\U+30EC\U+30A4\U+30E4\U+30FC 1
 62
     7
370
     9
100
AcDbVertex
100
AcDb2dVertex
 10
316.0537488359171
 20
101.8363335248881
 30
0.0
  0
VERTEX
  5
394
330
391
100
AcDbEntity
  8
\U+30EC\U+30A4\U+30E4\U+30FC 1
 62
     7
370
     9
100
AcDbVertex
100
AcDb2dVertex
 10
316.4836967524763
 20
101.8363335248881
 30
0.0
  0
VERTEX
  5
395
330
391
100
AcDbEntity
  8
\U+30EC\U+30A4\U+30E4\U+30FC 1
 62
     7
370
     9
100
AcDbVertex
100
AcDb2dVertex
 10
316.74207891387
 20
101.4994031864307
 30
0.0
  0
SEQEND
  5
396
330
391
100
AcDbEntity
  8
\U+30EC\U+30A4\U+30E4\U+30FC 1
370
     9
  0
ENDBLK
  5
337
330
334
100
AcDbEntity
  8
0
100
AcDbBlockEnd
  0
BLOCK
  5
3A8
330
3A6
100
AcDbEntity
  8
0
100
AcDbBlockBegin
  2
block 104
 70
     0
 71
     0
 10
0.0
 20
0.0
 30
0.0
  3
block 104
  1

  0
INSERT
  5
3AB
330
3A6
100
AcDbEntity
  8
\U+30EC\U+30A4\U+30E4\U+30FC 1
100
AcDbBlockReference
  2
block 105
 10
0.0
 20
0.0
 30
0.0
  0
ENDBLK
  5
3A9
330
3A6
100
AcDbEntity
  8
0
100
AcDbBlockEnd
  0
BLOCK
  5
3AC
330
3AA
100
AcDbEntity
  8
0
100
AcDbBlockBegin
  2
block 105
 70
     0
 71
     0
 10
0.0
 20
0.0
 30
0.0
  3
block 105
  1

  0
MTEXT
  5
3AE
330
3AA
100
AcDbEntity
  8
\U+30EC\U+30A4\U+30E4\U+30FC 1
 62
     7
100
AcDbMText
 10
184.7139620848979
 20
-13.64154459294378
 30
0.0
 40
2.187786638666616
 41
0.0
 71
     7
 72
     1
  1
\fMS Gothic|b0|i0|c0|p34;\W1;HCE-0011
 73
     1
 44
1.0
  0
ENDBLK
  5
3AD
330
3AA
100
AcDbEntity
  8
0
100
AcDbBlockEnd
  0
BLOCK
  5
3B1
330
3AF
100
AcDbEntity
  8
0
100
AcDbBlockBegin
  2
block 106
 70
     0
 71
     0
 10
0.0
 20
0.0
 30
0.0
  3
block 106
  1

  0
INSERT
  5
3B4
330
3AF
100
AcDbEntity
  8
\U+30EC\U+30A4\U+30E4\U+30FC 1
100
AcDbBlockReference
  2
block 107
 10
0.0
 20
0.0
 30
0.0
  0
ENDBLK
  5
3B2
330
3AF
100
AcDbEntity
  8
0
100
AcDbBlockEnd
  0
BLOCK
  5
3B5
330
3B3
100
AcDbEntity
  8
0
100
AcDbBlockBegin
  2
block 107
 70
     0
 71
     0
 10
0.0
 20
0.0
 30
0.0
  3
block 107
  1

  0
MTEXT
  5
3B7
330
3B3
100
AcDbEntity
  8
\U+30EC\U+30A4\U+30E4\U+30FC 1
 62
     7
100
AcDbMText
 10
133.7375732087531
 20
-22.46098903518336
 30
0.0
 40
2.187786638666616
 41
0.0
 71
     7
 72
     1
  1
\fMS Gothic|b0|i0|c0|p34;\W1;49954000
 73
     1
 44
1.0
  0
ENDBLK
  5
3B6
330
3B3
100
AcDbEntity
  8
0
100
AcDbBlockEnd
  0
BLOCK
  5
3BA
330
3B8
100
AcDbEntity
  8
0
100
AcDbBlockBegin
  2
block 108
 70
     0
 71
     0
 10
0.0
 20
0.0
 30
0.0
  3
block 108
  1

  0
MTEXT
  5
3BC
330
3B8
100
AcDbEntity
  8
\U+30EC\U+30A4\U+30E4\U+30FC 1
 62
     7
100
AcDbMText
 10
0.9313815644372936
 20
-27.57488877348822
 30
0.0
 40
2.187786638666616
 41
0.0
 71
     7
 72
     1
  1
\fMS Gothic|b0|i0|c0|p34;\W1;重量
 73
     1
 44
1.0
  0
MTEXT
  5
3BD
330
3B8
100
AcDbEntity
  8
\U+30EC\U+30A4\U+30E4\U+30FC 1
 62
     7
100
AcDbMText
 10
7.365958657012677
 20
-27.57488877348822
 30
0.0
 40
2.187786638666616
 41
0.0
 71
     7
 72
     1
  1
\fMS Gothic|b0|i0|c0|p34;\W1;／
 73
     1
 44
1.0
  0
MTEXT
  5
3BE
330
3B8
100
AcDbEntity
  8
\U+30EC\U+30A4\U+30E4\U+30FC 1
 62
     7
100
AcDbMText
 10
10.5833333306875
 20
-27.57488877348822
 30
0.0
 40
2.187786638666616
 41
0.0
 71
     7
 72
     1
  1
\fMS Gothic|b0|i0|c0|p34;\W1;約0.35ｋｇ
 73
     1
 44
1.0
  0
ENDBLK
  5
3BB
330
3B8
100
AcDbEntity
  8
0
100
AcDbBlockEnd
  0
BLOCK
  5
3C1
330
3BF
100
AcDbEntity
  8
0
100
AcDbBlockBegin
  2
block 109
 70
     0
 71
     0
 10
0.0
 20
0.0
 30
0.0
  3
block 109
  1

  0
INSERT
  5
3C4
330
3BF
100
AcDbEntity
  8
\U+30EC\U+30A4\U+30E4\U+30FC 1
100
AcDbBlockReference
  2
block 110
 10
0.0
 20
0.0
 30
0.0
  0
ENDBLK
  5
3C2
330
3BF
100
AcDbEntity
  8
0
100
AcDbBlockEnd
  0
BLOCK
  5
3C5
330
3C3
100
AcDbEntity
  8
0
100
AcDbBlockBegin
  2
block 110
 70
     0
 71
     0
 10
0.0
 20
0.0
 30
0.0
  3
block 110
  1

  0
MTEXT
  5
3C7
330
3C3
100
AcDbEntity
  8
\U+30EC\U+30A4\U+30E4\U+30FC 1
 62
     7
100
AcDbMText
 10
-28.24995523382293
 20
241.3909504604856
 30
0.0
 40
2.187786638666616
 41
0.0
 71
     7
 72
     1
  1
\fMS Gothic|b0|i0|c0|p34;\W1;49954000
 11
-0.9999999999999886
 21
1.509957990978371E-7
 31
0.0
 73
     1
 44
1.0
  0
ENDBLK
  5
3C6
330
3C3
100
AcDbEntity
  8
0
100
AcDbBlockEnd
  0
ENDSEC
  0
SECTION
  2
ENTITIES
  0
INSERT
  5
3D
330
1F
100
AcDbEntity
  8
\U+30D5\U+30A9\U+30FC\U+30DE\U+30C3\U+30C8
100
AcDbBlockReference
  2
block 2
 10
0.0
 20
0.0
 30
0.0
  0
INSERT
  5
4A
330
1F
100
AcDbEntity
  8
\U+30D5\U+30A9\U+30FC\U+30DE\U+30C3\U+30C8
100
AcDbBlockReference
  2
block 5
 10
0.0
 20
0.0
 30
0.0
  0
INSERT
  5
57
330
1F
100
AcDbEntity
  8
\U+30D5\U+30A9\U+30FC\U+30DE\U+30C3\U+30C8
100
AcDbBlockReference
  2
block 8
 10
0.0
 20
0.0
 30
0.0
  0
INSERT
  5
64
330
1F
100
AcDbEntity
  8
\U+30D5\U+30A9\U+30FC\U+30DE\U+30C3\U+30C8
100
AcDbBlockReference
  2
block 11
 10
0.0
 20
0.0
 30
0.0
  0
INSERT
  5
71
330
1F
100
AcDbEntity
  8
\U+30D5\U+30A9\U+30FC\U+30DE\U+30C3\U+30C8
100
AcDbBlockReference
  2
block 14
 10
0.0
 20
0.0
 30
0.0
  0
INSERT
  5
7E
330
1F
100
AcDbEntity
  8
\U+30D5\U+30A9\U+30FC\U+30DE\U+30C3\U+30C8
100
AcDbBlockReference
  2
block 17
 10
0.0
 20
0.0
 30
0.0
  0
INSERT
  5
8B
330
1F
100
AcDbEntity
  8
\U+30D5\U+30A9\U+30FC\U+30DE\U+30C3\U+30C8
100
AcDbBlockReference
  2
block 20
 10
0.0
 20
0.0
 30
0.0
  0
INSERT
  5
98
330
1F
100
AcDbEntity
  8
\U+30D5\U+30A9\U+30FC\U+30DE\U+30C3\U+30C8
100
AcDbBlockReference
  2
block 23
 10
0.0
 20
0.0
 30
0.0
  0
INSERT
  5
A5
330
1F
100
AcDbEntity
  8
\U+30D5\U+30A9\U+30FC\U+30DE\U+30C3\U+30C8
100
AcDbBlockReference
  2
block 26
 10
0.0
 20
0.0
 30
0.0
  0
POLYLINE
  5
B1
330
1F
100
AcDbEntity
  8
\U+30D5\U+30A9\U+30FC\U+30DE\U+30C3\U+30C8
 62
     7
370
    35
100
AcDb2dPolyline
 66
     1
 10
0.0
 20
0.0
 30
0.0
  0
VERTEX
  5
B2
330
B1
100
AcDbEntity
  8
\U+30D5\U+30A9\U+30FC\U+30DE\U+30C3\U+30C8
 62
     7
370
    35
100
AcDbVertex
100
AcDb2dVertex
 10
-36.37504068101041
 20
-8.440139429313577
 30
0.0
  0
VERTEX
  5
B3
330
B1
100
AcDbEntity
  8
\U+30D5\U+30A9\U+30FC\U+30DE\U+30C3\U+30C8
 62
     7
370
    35
100
AcDbVertex
100
AcDb2dVertex
 10
-36.37504068101041
 20
-33.41673718782637
 30
0.0
  0
SEQEND
  5
B4
330
B1
100
AcDbEntity
  8
\U+30D5\U+30A9\U+30FC\U+30DE\U+30C3\U+30C8
370
    35
  0
INSERT
  5
B6
330
1F
100
AcDbEntity
  8
\U+30D5\U+30A9\U+30FC\U+30DE\U+30C3\U+30C8
100
AcDbBlockReference
  2
block 29
 10
0.0
 20
0.0
 30
0.0
  0
POLYLINE
  5
C2
330
1F
100
AcDbEntity
  8
\U+30D5\U+30A9\U+30FC\U+30DE\U+30C3\U+30C8
 62
     7
370
    35
100
AcDb2dPolyline
 66
     1
 10
0.0
 20
0.0
 30
0.0
  0
VERTEX
  5
C3
330
C2
100
AcDbEntity
  8
\U+30D5\U+30A9\U+30FC\U+30DE\U+30C3\U+30C8
 62
     7
370
    35
100
AcDbVertex
100
AcDb2dVertex
 10
-26.38443602856014
 20
-8.440139429313577
 30
0.0
  0
VERTEX
  5
C4
330
C2
100
AcDbEntity
  8
\U+30D5\U+30A9\U+30FC\U+30DE\U+30C3\U+30C8
 62
     7
370
    35
100
AcDbVertex
100
AcDb2dVertex
 10
-26.38443602856014
 20
-33.41673718782637
 30
0.0
  0
SEQEND
  5
C5
330
C2
100
AcDbEntity
  8
\U+30D5\U+30A9\U+30FC\U+30DE\U+30C3\U+30C8
370
    35
  0
POLYLINE
  5
C6
330
1F
100
AcDbEntity
  8
\U+30D5\U+30A9\U+30FC\U+30DE\U+30C3\U+30C8
 62
     7
370
    35
100
AcDb2dPolyline
 66
     1
 10
0.0
 20
0.0
 30
0.0
  0
VERTEX
  5
C7
330
C6
100
AcDbEntity
  8
\U+30D5\U+30A9\U+30FC\U+30DE\U+30C3\U+30C8
 62
     7
370
    35
100
AcDbVertex
100
AcDb2dVertex
 10
-46.36581758823494
 20
-33.41673718782637
 30
0.0
  0
VERTEX
  5
C8
330
C6
100
AcDbEntity
  8
\U+30D5\U+30A9\U+30FC\U+30DE\U+30C3\U+30C8
 62
     7
370
    35
100
AcDbVertex
100
AcDb2dVertex
 10
-46.36581758823494
 20
-8.440139429313577
 30
0.0
  0
SEQEND
  5
C9
330
C6
100
AcDbEntity
  8
\U+30D5\U+30A9\U+30FC\U+30DE\U+30C3\U+30C8
370
    35
  0
POLYLINE
  5
CA
330
1F
100
AcDbEntity
  8
\U+30D5\U+30A9\U+30FC\U+30DE\U+30C3\U+30C8
 62
     7
370
    35
100
AcDb2dPolyline
 66
     1
 10
0.0
 20
0.0
 30
0.0
  0
VERTEX
  5
CB
330
CA
100
AcDbEntity
  8
\U+30D5\U+30A9\U+30FC\U+30DE\U+30C3\U+30C8
 62
     7
370
    35
100
AcDbVertex
100
AcDb2dVertex
 10
-46.36581758823494
 20
-33.41673718782637
 30
0.0
  0
VERTEX
  5
3C8
330
CA
100
AcDbEntity
  8
0
100
AcDbVertex
100
AcDb2dVertex
 10
-46.36581758823494
 20
-33.41673718782637
 30
0.0
  0
SEQEND
  5
CC
330
CA
100
AcDbEntity
  8
\U+30D5\U+30A9\U+30FC\U+30DE\U+30C3\U+30C8
370
    35
  0
INSERT
  5
CE
330
1F
100
AcDbEntity
  8
\U+30D5\U+30A9\U+30FC\U+30DE\U+30C3\U+30C8
100
AcDbBlockReference
  2
block 32
 10
0.0
 20
0.0
 30
0.0
  0
INSERT
  5
DB
330
1F
100
AcDbEntity
  8
\U+30D5\U+30A9\U+30FC\U+30DE\U+30C3\U+30C8
100
AcDbBlockReference
  2
block 35
 10
0.0
 20
0.0
 30
0.0
  0
INSERT
  5
E8
330
1F
100
AcDbEntity
  8
\U+30D5\U+30A9\U+30FC\U+30DE\U+30C3\U+30C8
100
AcDbBlockReference
  2
block 38
 10
0.0
 20
0.0
 30
0.0
  0
INSERT
  5
F5
330
1F
100
AcDbEntity
  8
\U+30D5\U+30A9\U+30FC\U+30DE\U+30C3\U+30C8
100
AcDbBlockReference
  2
block 41
 10
0.0
 20
0.0
 30
0.0
  0
POLYLINE
  5
101
330
1F
100
AcDbEntity
  8
\U+30D5\U+30A9\U+30FC\U+30DE\U+30C3\U+30C8
 62
     7
370
    35
100
AcDb2dPolyline
 66
     1
 10
0.0
 20
0.0
 30
0.0
  0
VERTEX
  5
102
330
101
100
AcDbEntity
  8
\U+30D5\U+30A9\U+30FC\U+30DE\U+30C3\U+30C8
 62
     7
370
    35
100
AcDbVertex
100
AcDb2dVertex
 10
-36.37504068101041
 20
-29.43730739281429
 30
0.0
  0
VERTEX
  5
103
330
101
100
AcDbEntity
  8
\U+30D5\U+30A9\U+30FC\U+30DE\U+30C3\U+30C8
 62
     7
370
    35
100
AcDbVertex
100
AcDb2dVertex
 10
87.5769110566648
 20
-29.43730739281429
 30
0.0
  0
SEQEND
  5
104
330
101
100
AcDbEntity
  8
\U+30D5\U+30A9\U+30FC\U+30DE\U+30C3\U+30C8
370
    35
  0
INSERT
  5
106
330
1F
100
AcDbEntity
  8
\U+30D5\U+30A9\U+30FC\U+30DE\U+30C3\U+30C8
100
AcDbBlockReference
  2
block 44
 10
0.0
 20
0.0
 30
0.0
  0
INSERT
  5
124
330
1F
100
AcDbEntity
  8
\U+30D5\U+30A9\U+30FC\U+30DE\U+30C3\U+30C8
100
AcDbBlockReference
  2
block 51
 10
0.0
 20
0.0
 30
0.0
  0
INSERT
  5
142
330
1F
100
AcDbEntity
  8
\U+30D5\U+30A9\U+30FC\U+30DE\U+30C3\U+30C8
100
AcDbBlockReference
  2
block 58
 10
0.0
 20
0.0
 30
0.0
  0
INSERT
  5
160
330
1F
100
AcDbEntity
  8
\U+30D5\U+30A9\U+30FC\U+30DE\U+30C3\U+30C8
100
AcDbBlockReference
  2
block 65
 10
0.0
 20
0.0
 30
0.0
  0
INSERT
  5
16D
330
1F
100
AcDbEntity
  8
\U+30D5\U+30A9\U+30FC\U+30DE\U+30C3\U+30C8
100
AcDbBlockReference
  2
block 68
 10
0.0
 20
0.0
 30
0.0
  0
INSERT
  5
17A
330
1F
100
AcDbEntity
  8
\U+30D5\U+30A9\U+30FC\U+30DE\U+30C3\U+30C8
100
AcDbBlockReference
  2
block 71
 10
0.0
 20
0.0
 30
0.0
  0
INSERT
  5
187
330
1F
100
AcDbEntity
  8
\U+30D5\U+30A9\U+30FC\U+30DE\U+30C3\U+30C8
100
AcDbBlockReference
  2
block 74
 10
0.0
 20
0.0
 30
0.0
  0
INSERT
  5
194
330
1F
100
AcDbEntity
  8
\U+30D5\U+30A9\U+30FC\U+30DE\U+30C3\U+30C8
100
AcDbBlockReference
  2
block 77
 10
0.0
 20
0.0
 30
0.0
  0
INSERT
  5
1A1
330
1F
100
AcDbEntity
  8
\U+30D5\U+30A9\U+30FC\U+30DE\U+30C3\U+30C8
100
AcDbBlockReference
  2
block 80
 10
0.0
 20
0.0
 30
0.0
  0
INSERT
  5
1AE
330
1F
100
AcDbEntity
  8
\U+30D5\U+30A9\U+30FC\U+30DE\U+30C3\U+30C8
100
AcDbBlockReference
  2
block 83
 10
0.0
 20
0.0
 30
0.0
  0
INSERT
  5
1BB
330
1F
100
AcDbEntity
  8
\U+30D5\U+30A9\U+30FC\U+30DE\U+30C3\U+30C8
100
AcDbBlockReference
  2
block 86
 10
0.0
 20
0.0
 30
0.0
  0
POLYLINE
  5
1C7
330
1F
100
AcDbEntity
  8
\U+30D5\U+30A9\U+30FC\U+30DE\U+30C3\U+30C8
 62
     7
370
    35
100
AcDb2dPolyline
 66
     1
 10
0.0
 20
0.0
 30
0.0
  0
VERTEX
  5
1C8
330
1C7
100
AcDbEntity
  8
\U+30D5\U+30A9\U+30FC\U+30DE\U+30C3\U+30C8
 62
     7
370
    35
100
AcDbVertex
100
AcDb2dVertex
 10
109.59020993354
 20
-16.48340385872637
 30
0.0
  0
VERTEX
  5
1C9
330
1C7
100
AcDbEntity
  8
\U+30D5\U+30A9\U+30FC\U+30DE\U+30C3\U+30C8
 62
     7
370
    35
100
AcDbVertex
100
AcDb2dVertex
 10
109.59020993354
 20
-33.41673718782637
 30
0.0
  0
SEQEND
  5
1CA
330
1C7
100
AcDbEntity
  8
\U+30D5\U+30A9\U+30FC\U+30DE\U+30C3\U+30C8
370
    35
  0
POLYLINE
  5
1CB
330
1F
100
AcDbEntity
  8
\U+30D5\U+30A9\U+30FC\U+30DE\U+30C3\U+30C8
 62
     7
370
    35
100
AcDb2dPolyline
 66
     1
 10
0.0
 20
0.0
 30
0.0
  0
VERTEX
  5
1CC
330
1CB
100
AcDbEntity
  8
\U+30D5\U+30A9\U+30FC\U+30DE\U+30C3\U+30C8
 62
     7
370
    35
100
AcDbVertex
100
AcDb2dVertex
 10
120.5969454993647
 20
-16.48340385872637
 30
0.0
  0
VERTEX
  5
1CD
330
1CB
100
AcDbEntity
  8
\U+30D5\U+30A9\U+30FC\U+30DE\U+30C3\U+30C8
 62
     7
370
    35
100
AcDbVertex
100
AcDb2dVertex
 10
120.5969454993647
 20
-33.41673718782637
 30
0.0
  0
SEQEND
  5
1CE
330
1CB
100
AcDbEntity
  8
\U+30D5\U+30A9\U+30FC\U+30DE\U+30C3\U+30C8
370
    35
  0
POLYLINE
  5
1CF
330
1F
100
AcDbEntity
  8
\U+30D5\U+30A9\U+30FC\U+30DE\U+30C3\U+30C8
 62
     7
370
    35
100
AcDb2dPolyline
 66
     1
 10
0.0
 20
0.0
 30
0.0
  0
VERTEX
  5
1D0
330
1CF
100
AcDbEntity
  8
\U+30D5\U+30A9\U+30FC\U+30DE\U+30C3\U+30C8
 62
     7
370
    35
100
AcDbVertex
100
AcDb2dVertex
 10
125.5923339529769
 20
-16.48340385872637
 30
0.0
  0
VERTEX
  5
1D1
330
1CF
100
AcDbEntity
  8
\U+30D5\U+30A9\U+30FC\U+30DE\U+30C3\U+30C8
 62
     7
370
    35
100
AcDbVertex
100
AcDb2dVertex
 10
125.5923339529769
 20
-33.41673718782637
 30
0.0
  0
SEQEND
  5
1D2
330
1CF
100
AcDbEntity
  8
\U+30D5\U+30A9\U+30FC\U+30DE\U+30C3\U+30C8
370
    35
  0
POLYLINE
  5
1D3
330
1F
100
AcDbEntity
  8
\U+30D5\U+30A9\U+30FC\U+30DE\U+30C3\U+30C8
 62
     7
370
    35
100
AcDb2dPolyline
 66
     1
 10
0.0
 20
0.0
 30
0.0
  0
VERTEX
  5
1D4
330
1D3
100
AcDbEntity
  8
\U+30D5\U+30A9\U+30FC\U+30DE\U+30C3\U+30C8
 62
     7
370
    35
100
AcDbVertex
100
AcDb2dVertex
 10
87.5769110566648
 20
-8.440139429313577
 30
0.0
  0
VERTEX
  5
1D5
330
1D3
100
AcDbEntity
  8
\U+30D5\U+30A9\U+30FC\U+30DE\U+30C3\U+30C8
 62
     7
370
    35
100
AcDbVertex
100
AcDb2dVertex
 10
87.5769110566648
 20
-33.41673718782637
 30
0.0
  0
SEQEND
  5
1D6
330
1D3
100
AcDbEntity
  8
\U+30D5\U+30A9\U+30FC\U+30DE\U+30C3\U+30C8
370
    35
  0
POLYLINE
  5
1D7
330
1F
100
AcDbEntity
  8
\U+30D5\U+30A9\U+30FC\U+30DE\U+30C3\U+30C8
 62
     7
370
    35
100
AcDb2dPolyline
 66
     1
 10
0.0
 20
0.0
 30
0.0
  0
VERTEX
  5
1D8
330
1D7
100
AcDbEntity
  8
\U+30D5\U+30A9\U+30FC\U+30DE\U+30C3\U+30C8
 62
     7
370
    35
100
AcDbVertex
100
AcDb2dVertex
 10
87.5769110566648
 20
-22.49475097093881
 30
0.0
  0
VERTEX
  5
1D9
330
1D7
100
AcDbEntity
  8
\U+30D5\U+30A9\U+30FC\U+30DE\U+30C3\U+30C8
 62
     7
370
    35
100
AcDbVertex
100
AcDb2dVertex
 10
120.5969454993647
 20
-22.49475097093881
 30
0.0
  0
SEQEND
  5
1DA
330
1D7
100
AcDbEntity
  8
\U+30D5\U+30A9\U+30FC\U+30DE\U+30C3\U+30C8
370
    35
  0
POLYLINE
  5
1DB
330
1F
100
AcDbEntity
  8
\U+30D5\U+30A9\U+30FC\U+30DE\U+30C3\U+30C8
 62
     7
370
    35
100
AcDb2dPolyline
 66
     1
 10
0.0
 20
0.0
 30
0.0
  0
VERTEX
  5
1DC
330
1DB
100
AcDbEntity
  8
\U+30D5\U+30A9\U+30FC\U+30DE\U+30C3\U+30C8
 62
     7
370
    35
100
AcDbVertex
100
AcDb2dVertex
 10
98.58364662248951
 20
-8.440139429313577
 30
0.0
  0
VERTEX
  5
1DD
330
1DB
100
AcDbEntity
  8
\U+30D5\U+30A9\U+30FC\U+30DE\U+30C3\U+30C8
 62
     7
370
    35
100
AcDbVertex
100
AcDb2dVertex
 10
98.58364662248951
 20
-33.41673718782637
 30
0.0
  0
SEQEND
  5
1DE
330
1DB
100
AcDbEntity
  8
\U+30D5\U+30A9\U+30FC\U+30DE\U+30C3\U+30C8
370
    35
  0
POLYLINE
  5
1DF
330
1F
100
AcDbEntity
  8
\U+30D5\U+30A9\U+30FC\U+30DE\U+30C3\U+30C8
 62
     7
370
    35
100
AcDb2dPolyline
 66
     1
 10
0.0
 20
0.0
 30
0.0
  0
VERTEX
  5
1E0
330
1DF
100
AcDbEntity
  8
\U+30D5\U+30A9\U+30FC\U+30DE\U+30C3\U+30C8
 62
     7
370
    35
100
AcDbVertex
100
AcDb2dVertex
 10
120.5969454993647
 20
-24.95007052327637
 30
0.0
  0
VERTEX
  5
1E1
330
1DF
100
AcDbEntity
  8
\U+30D5\U+30A9\U+30FC\U+30DE\U+30C3\U+30C8
 62
     7
370
    35
100
AcDbVertex
100
AcDb2dVertex
 10
155.564320165102
 20
-24.95007052327637
 30
0.0
  0
SEQEND
  5
1E2
330
1DF
100
AcDbEntity
  8
\U+30D5\U+30A9\U+30FC\U+30DE\U+30C3\U+30C8
370
    35
  0
POLYLINE
  5
1E3
330
1F
100
AcDbEntity
  8
\U+30D5\U+30A9\U+30FC\U+30DE\U+30C3\U+30C8
 62
     7
370
    35
100
AcDb2dPolyline
 66
     1
 10
0.0
 20
0.0
 30
0.0
  0
VERTEX
  5
1E4
330
1E3
100
AcDbEntity
  8
\U+30D5\U+30A9\U+30FC\U+30DE\U+30C3\U+30C8
 62
     7
370
    35
100
AcDbVertex
100
AcDb2dVertex
 10
87.5769110566648
 20
-16.48340385872637
 30
0.0
  0
VERTEX
  5
1E5
330
1E3
100
AcDbEntity
  8
\U+30D5\U+30A9\U+30FC\U+30DE\U+30C3\U+30C8
 62
     7
370
    35
100
AcDbVertex
100
AcDb2dVertex
 10
220.588085882353
 20
-16.48340385872637
 30
0.0
  0
SEQEND
  5
1E6
330
1E3
100
AcDbEntity
  8
\U+30D5\U+30A9\U+30FC\U+30DE\U+30C3\U+30C8
370
    35
  0
POLYLINE
  5
1E7
330
1F
100
AcDbEntity
  8
\U+30D5\U+30A9\U+30FC\U+30DE\U+30C3\U+30C8
 62
     7
370
    35
100
AcDb2dPolyline
 66
     1
 10
0.0
 20
0.0
 30
0.0
  0
VERTEX
  5
1E8
330
1E7
100
AcDbEntity
  8
\U+30D5\U+30A9\U+30FC\U+30DE\U+30C3\U+30C8
 62
     7
370
    35
100
AcDbVertex
100
AcDb2dVertex
 10
155.564320165102
 20
-8.440139429313577
 30
0.0
  0
VERTEX
  5
1E9
330
1E7
100
AcDbEntity
  8
\U+30D5\U+30A9\U+30FC\U+30DE\U+30C3\U+30C8
 62
     7
370
    35
100
AcDbVertex
100
AcDb2dVertex
 10
155.564320165102
 20
-33.41673718782637
 30
0.0
  0
SEQEND
  5
1EA
330
1E7
100
AcDbEntity
  8
\U+30D5\U+30A9\U+30FC\U+30DE\U+30C3\U+30C8
370
    35
  0
POLYLINE
  5
1EB
330
1F
100
AcDbEntity
  8
\U+30D5\U+30A9\U+30FC\U+30DE\U+30C3\U+30C8
 62
     7
370
    35
100
AcDb2dPolyline
 66
     1
 10
0.0
 20
0.0
 30
0.0
  0
VERTEX
  5
1EC
330
1EB
100
AcDbEntity
  8
\U+30D5\U+30A9\U+30FC\U+30DE\U+30C3\U+30C8
 62
     7
370
    35
100
AcDbVertex
100
AcDb2dVertex
 10
160.5597086187142
 20
-8.440139429313577
 30
0.0
  0
VERTEX
  5
1ED
330
1EB
100
AcDbEntity
  8
\U+30D5\U+30A9\U+30FC\U+30DE\U+30C3\U+30C8
 62
     7
370
    35
100
AcDbVertex
100
AcDb2dVertex
 10
160.5597086187142
 20
-33.41673718782637
 30
0.0
  0
SEQEND
  5
1EE
330
1EB
100
AcDbEntity
  8
\U+30D5\U+30A9\U+30FC\U+30DE\U+30C3\U+30C8
370
    35
  0
POLYLINE
  5
1EF
330
1F
100
AcDbEntity
  8
\U+30D5\U+30A9\U+30FC\U+30DE\U+30C3\U+30C8
 62
     7
370
    35
100
AcDb2dPolyline
 66
     1
 10
0.0
 20
0.0
 30
0.0
  0
VERTEX
  5
1F0
330
1EF
100
AcDbEntity
  8
\U+30D5\U+30A9\U+30FC\U+30DE\U+30C3\U+30C8
 62
     7
370
    35
100
AcDbVertex
100
AcDb2dVertex
 10
220.588085882353
 20
-8.440139429313577
 30
0.0
  0
VERTEX
  5
1F1
330
1EF
100
AcDbEntity
  8
\U+30D5\U+30A9\U+30FC\U+30DE\U+30C3\U+30C8
 62
     7
370
    35
100
AcDbVertex
100
AcDb2dVertex
 10
220.588085882353
 20
-33.41673718782637
 30
0.0
  0
SEQEND
  5
1F2
330
1EF
100
AcDbEntity
  8
\U+30D5\U+30A9\U+30FC\U+30DE\U+30C3\U+30C8
370
    35
  0
SPLINE
  5
1F3
330
1F
100
AcDbEntity
  8
\U+30D5\U+30A9\U+30FC\U+30DE\U+30C3\U+30C8
370
     0
100
AcDbSpline
210
0.0
220
0.0
230
1.0
 70
    11
 71
     3
 72
    68
 73
    64
 74
     0
 42
0.0000000001
 43
0.0000000001
 40
0.0
 40
0.0
 40
0.0
 40
0.0
 40
1.0
 40
1.0
 40
1.0
 40
2.0
 40
2.0
 40
2.0
 40
3.0
 40
3.0
 40
3.0
 40
4.0
 40
4.0
 40
4.0
 40
5.0
 40
5.0
 40
5.0
 40
6.0
 40
6.0
 40
6.0
 40
7.0
 40
7.0
 40
7.0
 40
8.0
 40
8.0
 40
8.0
 40
9.0
 40
9.0
 40
9.0
 40
10.0
 40
10.0
 40
10.0
 40
11.0
 40
11.0
 40
11.0
 40
12.0
 40
12.0
 40
12.0
 40
13.0
 40
13.0
 40
13.0
 40
14.0
 40
14.0
 40
14.0
 40
15.0
 40
15.0
 40
15.0
 40
16.0
 40
16.0
 40
16.0
 40
17.0
 40
17.0
 40
17.0
 40
18.0
 40
18.0
 40
18.0
 40
19.0
 40
19.0
 40
19.0
 40
20.0
 40
20.0
 40
20.0
 40
21.0
 40
21.0
 40
21.0
 40
21.0
 10
250.6847845510441
 20
-23.09281954717818
 30
0.0
 10
250.6847845510441
 20
-23.15483126591268
 30
0.0
 10
250.6358641951535
 20
-23.20271809315765
 30
0.0
 10
250.5766085528072
 20
-23.20271809315765
 30
0.0
 10
250.5766085528072
 20
-23.20271809315765
 30
0.0
 10
247.5766194042517
 20
-23.20271809315765
 30
0.0
 10
247.5766194042517
 20
-23.20271809315765
 30
0.0
 10
246.6512667569136
 20
-23.20271809315765
 30
0.0
 10
245.9002359411291
 20
-22.45237629647024
 30
0.0
 10
245.9002359411291
 20
-21.52633463003508
 30
0.0
 10
245.9002359411291
 20
-20.60098198269698
 30
0.0
 10
246.6512667569136
 20
-19.85029567646104
 30
0.0
 10
247.5766194042517
 20
-19.85029567646104
 30
0.0
 10
247.5766194042517
 20
-19.85029567646104
 30
0.0
 10
248.7458848119455
 20
-19.85029567646104
 30
0.0
 10
248.7458848119455
 20
-19.85029567646104
 30
0.0
 10
248.8072075115829
 20
-19.85029567646104
 30
0.0
 10
248.8554388483764
 20
-19.89921603235159
 30
0.0
 10
248.8554388483764
 20
-19.96053873198903
 30
0.0
 10
248.8554388483764
 20
-19.96053873198903
 30
0.0
 10
248.8554388483764
 20
-21.02472872738271
 30
0.0
 10
248.8554388483764
 20
-21.02472872738271
 30
0.0
 10
248.8554388483764
 20
-21.08467338882605
 30
0.0
 10
248.8072075115829
 20
-21.1335937447166
 30
0.0
 10
248.7458848119455
 20
-21.1335937447166
 30
0.0
 10
248.7458848119455
 20
-21.1335937447166
 30
0.0
 10
247.6613687531888
 20
-21.13462727336218
 30
0.0
 10
247.6613687531888
 20
-21.13462727336218
 30
0.0
 10
247.4470838140063
 20
-21.13462727336218
 30
0.0
 10
247.2720729633556
 20
-21.30929361446434
 30
0.0
 10
247.2720729633556
 20
-21.52392306319541
 30
0.0
 10
247.2720729633556
 20
-21.73958604057205
 30
0.0
 10
247.4470838140063
 20
-21.91528591031979
 30
0.0
 10
247.6613687531888
 20
-21.91528591031979
 30
0.0
 10
247.6613687531888
 20
-21.91528591031979
 30
0.0
 10
249.179966843087
 20
-21.91321885302864
 30
0.0
 10
249.179966843087
 20
-21.91321885302864
 30
0.0
 10
249.179966843087
 20
-21.91321885302864
 30
0.0
 10
249.179966843087
 20
-19.66529404890312
 30
0.0
 10
249.179966843087
 20
-19.66529404890312
 30
0.0
 10
249.179966843087
 20
-19.33628743006176
 30
0.0
 10
248.9140054716257
 20
-19.06998154905195
 30
0.0
 10
248.5832763050417
 20
-19.06998154905195
 30
0.0
 10
248.5832763050417
 20
-19.06998154905195
 30
0.0
 10
246.450073180575
 20
-19.06998154905195
 30
0.0
 10
246.450073180575
 20
-19.06998154905195
 30
0.0
 10
246.3880614618405
 20
-19.06998154905195
 30
0.0
 10
246.339830125047
 20
-19.02140570270993
 30
0.0
 10
246.339830125047
 20
-18.96042751262101
 30
0.0
 10
246.339830125047
 20
-18.96042751262101
 30
0.0
 10
246.339830125047
 20
-17.8917588930965
 30
0.0
 10
246.339830125047
 20
-17.8917588930965
 30
0.0
 10
246.339830125047
 20
-17.83181423165316
 30
0.0
 10
246.3880614618405
 20
-17.78186034711704
 30
0.0
 10
246.450073180575
 20
-17.78186034711704
 30
0.0
 10
246.450073180575
 20
-17.78186034711704
 30
0.0
 10
249.0042669733392
 20
-17.78186034711704
 30
0.0
 10
249.0042669733392
 20
-17.78186034711704
 30
0.0
 10
249.9358207925508
 20
-17.78186034711704
 30
0.0
 10
250.6847845510441
 20
-18.53530272974118
 30
0.0
 10
250.6847845510441
 20
-19.46651203940421
 30
0.0
 10
250.6847845510441
 20
-19.46651203940421
 30
0.0
 10
250.6847845510441
 20
-23.09281954717818
 30
0.0
 10
250.6847845510441
 20
-23.09281954717818
 30
0.0
  0
HATCH
  5
1F4
330
1F
100
AcDbEntity
  8
\U+30D5\U+30A9\U+30FC\U+30DE\U+30C3\U+30C8
 62
     7
100
AcDbHatch
 10
0.0
 20
0.0
 30
0.0
210
0.0
220
0.0
230
1.0
  2
SOLID
 70
     1
 71
     0
 91
        1
 92
        1
 93
        1
 72
     4
 94
        3
 73
     0
 74
     1
 95
       68
 96
       64
 40
0.0
 40
0.0
 40
0.0
 40
0.0
 40
1.0
 40
1.0
 40
1.0
 40
2.0
 40
2.0
 40
2.0
 40
3.0
 40
3.0
 40
3.0
 40
4.0
 40
4.0
 40
4.0
 40
5.0
 40
5.0
 40
5.0
 40
6.0
 40
6.0
 40
6.0
 40
7.0
 40
7.0
 40
7.0
 40
8.0
 40
8.0
 40
8.0
 40
9.0
 40
9.0
 40
9.0
 40
10.0
 40
10.0
 40
10.0
 40
11.0
 40
11.0
 40
11.0
 40
12.0
 40
12.0
 40
12.0
 40
13.0
 40
13.0
 40
13.0
 40
14.0
 40
14.0
 40
14.0
 40
15.0
 40
15.0
 40
15.0
 40
16.0
 40
16.0
 40
16.0
 40
17.0
 40
17.0
 40
17.0
 40
18.0
 40
18.0
 40
18.0
 40
19.0
 40
19.0
 40
19.0
 40
20.0
 40
20.0
 40
20.0
 40
21.0
 40
21.0
 40
21.0
 40
21.0
 10
250.6847845510441
 20
-23.09281954717818
 10
250.6847845510441
 20
-23.15483126591268
 10
250.6358641951535
 20
-23.20271809315765
 10
250.5766085528072
 20
-23.20271809315765
 10
250.5766085528072
 20
-23.20271809315765
 10
247.5766194042517
 20
-23.20271809315765
 10
247.5766194042517
 20
-23.20271809315765
 10
246.6512667569136
 20
-23.20271809315765
 10
245.9002359411291
 20
-22.45237629647024
 10
245.9002359411291
 20
-21.52633463003508
 10
245.9002359411291
 20
-20.60098198269698
 10
246.6512667569136
 20
-19.85029567646104
 10
247.5766194042517
 20
-19.85029567646104
 10
247.5766194042517
 20
-19.85029567646104
 10
248.7458848119455
 20
-19.85029567646104
 10
248.7458848119455
 20
-19.85029567646104
 10
248.8072075115829
 20
-19.85029567646104
 10
248.8554388483764
 20
-19.89921603235159
 10
248.8554388483764
 20
-19.96053873198903
 10
248.8554388483764
 20
-19.96053873198903
 10
248.8554388483764
 20
-21.02472872738271
 10
248.8554388483764
 20
-21.02472872738271
 10
248.8554388483764
 20
-21.08467338882605
 10
248.8072075115829
 20
-21.1335937447166
 10
248.7458848119455
 20
-21.1335937447166
 10
248.7458848119455
 20
-21.1335937447166
 10
247.6613687531888
 20
-21.13462727336218
 10
247.6613687531888
 20
-21.13462727336218
 10
247.4470838140063
 20
-21.13462727336218
 10
247.2720729633556
 20
-21.30929361446434
 10
247.2720729633556
 20
-21.52392306319541
 10
247.2720729633556
 20
-21.73958604057205
 10
247.4470838140063
 20
-21.91528591031979
 10
247.6613687531888
 20
-21.91528591031979
 10
247.6613687531888
 20
-21.91528591031979
 10
249.179966843087
 20
-21.91321885302864
 10
249.179966843087
 20
-21.91321885302864
 10
249.179966843087
 20
-21.91321885302864
 10
249.179966843087
 20
-19.66529404890312
 10
249.179966843087
 20
-19.66529404890312
 10
249.179966843087
 20
-19.33628743006176
 10
248.9140054716257
 20
-19.06998154905195
 10
248.5832763050417
 20
-19.06998154905195
 10
248.5832763050417
 20
-19.06998154905195
 10
246.450073180575
 20
-19.06998154905195
 10
246.450073180575
 20
-19.06998154905195
 10
246.3880614618405
 20
-19.06998154905195
 10
246.339830125047
 20
-19.02140570270993
 10
246.339830125047
 20
-18.96042751262101
 10
246.339830125047
 20
-18.96042751262101
 10
246.339830125047
 20
-17.8917588930965
 10
246.339830125047
 20
-17.8917588930965
 10
246.339830125047
 20
-17.83181423165316
 10
246.3880614618405
 20
-17.78186034711704
 10
246.450073180575
 20
-17.78186034711704
 10
246.450073180575
 20
-17.78186034711704
 10
249.0042669733392
 20
-17.78186034711704
 10
249.0042669733392
 20
-17.78186034711704
 10
249.9358207925508
 20
-17.78186034711704
 10
250.6847845510441
 20
-18.53530272974118
 10
250.6847845510441
 20
-19.46651203940421
 10
250.6847845510441
 20
-19.46651203940421
 10
250.6847845510441
 20
-23.09281954717818
 10
250.6847845510441
 20
-23.09281954717818
 97
        0
 75
     2
 76
     1
 98
        0
  0
SPLINE
  5
1F5
330
1F
100
AcDbEntity
  8
\U+30D5\U+30A9\U+30FC\U+30DE\U+30C3\U+30C8
370
     0
100
AcDbSpline
210
0.0
220
0.0
230
1.0
 70
    11
 71
     3
 72
    68
 73
    64
 74
     0
 42
0.0000000001
 43
0.0000000001
 40
0.0
 40
0.0
 40
0.0
 40
0.0
 40
1.0
 40
1.0
 40
1.0
 40
2.0
 40
2.0
 40
2.0
 40
3.0
 40
3.0
 40
3.0
 40
4.0
 40
4.0
 40
4.0
 40
5.0
 40
5.0
 40
5.0
 40
6.0
 40
6.0
 40
6.0
 40
7.0
 40
7.0
 40
7.0
 40
8.0
 40
8.0
 40
8.0
 40
9.0
 40
9.0
 40
9.0
 40
10.0
 40
10.0
 40
10.0
 40
11.0
 40
11.0
 40
11.0
 40
12.0
 40
12.0
 40
12.0
 40
13.0
 40
13.0
 40
13.0
 40
14.0
 40
14.0
 40
14.0
 40
15.0
 40
15.0
 40
15.0
 40
16.0
 40
16.0
 40
16.0
 40
17.0
 40
17.0
 40
17.0
 40
18.0
 40
18.0
 40
18.0
 40
19.0
 40
19.0
 40
19.0
 40
20.0
 40
20.0
 40
20.0
 40
21.0
 40
21.0
 40
21.0
 40
21.0
 10
260.7789143228261
 20
-23.09281954717818
 30
0.0
 10
260.7789143228261
 20
-23.15483126591268
 30
0.0
 10
260.7299939669356
 20
-23.20271809315765
 30
0.0
 10
260.6686712672981
 20
-23.20271809315765
 30
0.0
 10
260.6686712672981
 20
-23.20271809315765
 30
0.0
 10
257.6686821187425
 20
-23.20271809315765
 30
0.0
 10
257.6686821187425
 20
-23.20271809315765
 30
0.0
 10
256.7440184905015
 20
-23.20271809315765
 30
0.0
 10
255.9929876747171
 20
-22.45237629647024
 30
0.0
 10
255.9929876747171
 20
-21.52633463003508
 30
0.0
 10
255.9929876747171
 20
-20.60098198269698
 30
0.0
 10
256.7440184905015
 20
-19.85029567646104
 30
0.0
 10
257.6686821187425
 20
-19.85029567646104
 30
0.0
 10
257.6686821187425
 20
-19.85029567646104
 30
0.0
 10
258.8379475264364
 20
-19.85029567646104
 30
0.0
 10
258.8379475264364
 20
-19.85029567646104
 30
0.0
 10
258.8985812069768
 20
-19.85029567646104
 30
0.0
 10
258.9481905819644
 20
-19.89921603235159
 30
0.0
 10
258.9481905819644
 20
-19.96053873198903
 30
0.0
 10
258.9481905819644
 20
-19.96053873198903
 30
0.0
 10
258.9481905819644
 20
-21.02472872738271
 30
0.0
 10
258.9481905819644
 20
-21.02472872738271
 30
0.0
 10
258.9481905819644
 20
-21.08467338882605
 30
0.0
 10
258.8985812069768
 20
-21.1335937447166
 30
0.0
 10
258.8379475264364
 20
-21.1335937447166
 30
0.0
 10
258.8379475264364
 20
-21.1335937447166
 30
0.0
 10
257.7541204867767
 20
-21.13462727336218
 30
0.0
 10
257.7541204867767
 20
-21.13462727336218
 30
0.0
 10
257.5391465284972
 20
-21.13462727336218
 30
0.0
 10
257.3648246969435
 20
-21.30929361446434
 30
0.0
 10
257.3648246969435
 20
-21.52392306319541
 30
0.0
 10
257.3648246969435
 20
-21.73958604057205
 30
0.0
 10
257.5391465284972
 20
-21.91528591031979
 30
0.0
 10
257.7541204867767
 20
-21.91528591031979
 30
0.0
 10
257.7541204867767
 20
-21.91528591031979
 30
0.0
 10
259.2727185766749
 20
-21.91321885302864
 30
0.0
 10
259.2727185766749
 20
-21.91321885302864
 30
0.0
 10
259.2727185766749
 20
-21.91321885302864
 30
0.0
 10
259.2727185766749
 20
-19.66529404890312
 30
0.0
 10
259.2727185766749
 20
-19.66529404890312
 30
0.0
 10
259.2727185766749
 20
-19.33628743006176
 30
0.0
 10
259.0060681861165
 20
-19.06998154905195
 30
0.0
 10
258.6767170577266
 20
-19.06998154905195
 30
0.0
 10
258.6767170577266
 20
-19.06998154905195
 30
0.0
 10
256.5407578568718
 20
-19.06998154905195
 30
0.0
 10
256.5407578568718
 20
-19.06998154905195
 30
0.0
 10
256.4808131954284
 20
-19.06998154905195
 30
0.0
 10
256.4318928395379
 20
-19.02140570270993
 30
0.0
 10
256.4318928395379
 20
-18.96042751262101
 30
0.0
 10
256.4318928395379
 20
-18.96042751262101
 30
0.0
 10
256.4318928395379
 20
-17.8917588930965
 30
0.0
 10
256.4318928395379
 20
-17.8917588930965
 30
0.0
 10
256.4318928395379
 20
-17.83181423165316
 30
0.0
 10
256.4808131954284
 20
-17.78186034711704
 30
0.0
 10
256.5407578568718
 20
-17.78186034711704
 30
0.0
 10
256.5407578568718
 20
-17.78186034711704
 30
0.0
 10
259.0963296878301
 20
-17.78186034711704
 30
0.0
 10
259.0963296878301
 20
-17.78186034711704
 30
0.0
 10
260.0271944879446
 20
-17.78186034711704
 30
0.0
 10
260.7789143228261
 20
-18.53530272974118
 30
0.0
 10
260.7789143228261
 20
-19.46651203940421
 30
0.0
 10
260.7789143228261
 20
-19.46651203940421
 30
0.0
 10
260.7789143228261
 20
-23.09281954717818
 30
0.0
 10
260.7789143228261
 20
-23.09281954717818
 30
0.0
  0
HATCH
  5
1F6
330
1F
100
AcDbEntity
  8
\U+30D5\U+30A9\U+30FC\U+30DE\U+30C3\U+30C8
 62
     7
100
AcDbHatch
 10
0.0
 20
0.0
 30
0.0
210
0.0
220
0.0
230
1.0
  2
SOLID
 70
     1
 71
     0
 91
        1
 92
        1
 93
        1
 72
     4
 94
        3
 73
     0
 74
     1
 95
       68
 96
       64
 40
0.0
 40
0.0
 40
0.0
 40
0.0
 40
1.0
 40
1.0
 40
1.0
 40
2.0
 40
2.0
 40
2.0
 40
3.0
 40
3.0
 40
3.0
 40
4.0
 40
4.0
 40
4.0
 40
5.0
 40
5.0
 40
5.0
 40
6.0
 40
6.0
 40
6.0
 40
7.0
 40
7.0
 40
7.0
 40
8.0
 40
8.0
 40
8.0
 40
9.0
 40
9.0
 40
9.0
 40
10.0
 40
10.0
 40
10.0
 40
11.0
 40
11.0
 40
11.0
 40
12.0
 40
12.0
 40
12.0
 40
13.0
 40
13.0
 40
13.0
 40
14.0
 40
14.0
 40
14.0
 40
15.0
 40
15.0
 40
15.0
 40
16.0
 40
16.0
 40
16.0
 40
17.0
 40
17.0
 40
17.0
 40
18.0
 40
18.0
 40
18.0
 40
19.0
 40
19.0
 40
19.0
 40
20.0
 40
20.0
 40
20.0
 40
21.0
 40
21.0
 40
21.0
 40
21.0
 10
260.7789143228261
 20
-23.09281954717818
 10
260.7789143228261
 20
-23.15483126591268
 10
260.7299939669356
 20
-23.20271809315765
 10
260.6686712672981
 20
-23.20271809315765
 10
260.6686712672981
 20
-23.20271809315765
 10
257.6686821187425
 20
-23.20271809315765
 10
257.6686821187425
 20
-23.20271809315765
 10
256.7440184905015
 20
-23.20271809315765
 10
255.9929876747171
 20
-22.45237629647024
 10
255.9929876747171
 20
-21.52633463003508
 10
255.9929876747171
 20
-20.60098198269698
 10
256.7440184905015
 20
-19.85029567646104
 10
257.6686821187425
 20
-19.85029567646104
 10
257.6686821187425
 20
-19.85029567646104
 10
258.8379475264364
 20
-19.85029567646104
 10
258.8379475264364
 20
-19.85029567646104
 10
258.8985812069768
 20
-19.85029567646104
 10
258.9481905819644
 20
-19.89921603235159
 10
258.9481905819644
 20
-19.96053873198903
 10
258.9481905819644
 20
-19.96053873198903
 10
258.9481905819644
 20
-21.02472872738271
 10
258.9481905819644
 20
-21.02472872738271
 10
258.9481905819644
 20
-21.08467338882605
 10
258.8985812069768
 20
-21.1335937447166
 10
258.8379475264364
 20
-21.1335937447166
 10
258.8379475264364
 20
-21.1335937447166
 10
257.7541204867767
 20
-21.13462727336218
 10
257.7541204867767
 20
-21.13462727336218
 10
257.5391465284972
 20
-21.13462727336218
 10
257.3648246969435
 20
-21.30929361446434
 10
257.3648246969435
 20
-21.52392306319541
 10
257.3648246969435
 20
-21.73958604057205
 10
257.5391465284972
 20
-21.91528591031979
 10
257.7541204867767
 20
-21.91528591031979
 10
257.7541204867767
 20
-21.91528591031979
 10
259.2727185766749
 20
-21.91321885302864
 10
259.2727185766749
 20
-21.91321885302864
 10
259.2727185766749
 20
-21.91321885302864
 10
259.2727185766749
 20
-19.66529404890312
 10
259.2727185766749
 20
-19.66529404890312
 10
259.2727185766749
 20
-19.33628743006176
 10
259.0060681861165
 20
-19.06998154905195
 10
258.6767170577266
 20
-19.06998154905195
 10
258.6767170577266
 20
-19.06998154905195
 10
256.5407578568718
 20
-19.06998154905195
 10
256.5407578568718
 20
-19.06998154905195
 10
256.4808131954284
 20
-19.06998154905195
 10
256.4318928395379
 20
-19.02140570270993
 10
256.4318928395379
 20
-18.96042751262101
 10
256.4318928395379
 20
-18.96042751262101
 10
256.4318928395379
 20
-17.8917588930965
 10
256.4318928395379
 20
-17.8917588930965
 10
256.4318928395379
 20
-17.83181423165316
 10
256.4808131954284
 20
-17.78186034711704
 10
256.5407578568718
 20
-17.78186034711704
 10
256.5407578568718
 20
-17.78186034711704
 10
259.0963296878301
 20
-17.78186034711704
 10
259.0963296878301
 20
-17.78186034711704
 10
260.0271944879446
 20
-17.78186034711704
 10
260.7789143228261
 20
-18.53530272974118
 10
260.7789143228261
 20
-19.46651203940421
 10
260.7789143228261
 20
-19.46651203940421
 10
260.7789143228261
 20
-23.09281954717818
 10
260.7789143228261
 20
-23.09281954717818
 97
        0
 75
     2
 76
     1
 98
        0
  0
SPLINE
  5
1F7
330
1F
100
AcDbEntity
  8
\U+30D5\U+30A9\U+30FC\U+30DE\U+30C3\U+30C8
370
     0
100
AcDbSpline
210
0.0
220
0.0
230
1.0
 70
    11
 71
     3
 72
    65
 73
    61
 74
     0
 42
0.0000000001
 43
0.0000000001
 40
0.0
 40
0.0
 40
0.0
 40
0.0
 40
1.0
 40
1.0
 40
1.0
 40
2.0
 40
2.0
 40
2.0
 40
3.0
 40
3.0
 40
3.0
 40
4.0
 40
4.0
 40
4.0
 40
5.0
 40
5.0
 40
5.0
 40
6.0
 40
6.0
 40
6.0
 40
7.0
 40
7.0
 40
7.0
 40
8.0
 40
8.0
 40
8.0
 40
9.0
 40
9.0
 40
9.0
 40
10.0
 40
10.0
 40
10.0
 40
11.0
 40
11.0
 40
11.0
 40
12.0
 40
12.0
 40
12.0
 40
13.0
 40
13.0
 40
13.0
 40
14.0
 40
14.0
 40
14.0
 40
15.0
 40
15.0
 40
15.0
 40
16.0
 40
16.0
 40
16.0
 40
17.0
 40
17.0
 40
17.0
 40
18.0
 40
18.0
 40
18.0
 40
19.0
 40
19.0
 40
19.0
 40
20.0
 40
20.0
 40
20.0
 40
20.0
 10
261.4155679685003
 20
-23.20823024593405
 30
0.0
 10
261.3556233070569
 20
-23.20823024593405
 30
0.0
 10
261.3073919702634
 20
-23.16103243778613
 30
0.0
 10
261.3073919702634
 20
-23.10143228589131
 30
0.0
 10
261.3073919702634
 20
-23.10143228589131
 30
0.0
 10
261.3073919702634
 20
-22.03104111862418
 30
0.0
 10
261.3073919702634
 20
-22.03104111862418
 30
0.0
 10
261.3073919702634
 20
-21.97109645718084
 30
0.0
 10
261.3556233070569
 20
-21.91976453445061
 30
0.0
 10
261.4155679685003
 20
-21.91976453445061
 30
0.0
 10
261.4155679685003
 20
-21.91976453445061
 30
0.0
 10
263.9649386275852
 20
-21.91976453445061
 30
0.0
 10
263.9649386275852
 20
-21.91976453445061
 30
0.0
 10
264.1799125858648
 20
-21.91976453445061
 30
0.0
 10
264.3542344174184
 20
-21.74234211696025
 30
0.0
 10
264.3542344174184
 20
-21.52530110138951
 30
0.0
 10
264.3542344174184
 20
-21.31170518130402
 30
0.0
 10
264.1799125858648
 20
-21.13462727336218
 30
0.0
 10
263.9649386275852
 20
-21.13462727336218
 30
0.0
 10
263.9649386275852
 20
-21.13462727336218
 30
0.0
 10
262.8342582893262
 20
-21.10362141399493
 30
0.0
 10
262.8342582893262
 20
-21.10362141399493
 30
0.0
 10
261.9137287756674
 20
-21.10362141399493
 30
0.0
 10
261.1668320744653
 20
-20.36189235602064
 30
0.0
 10
261.1668320744653
 20
-19.44687499513828
 30
0.0
 10
261.1668320744653
 20
-18.53220214380445
 30
0.0
 10
261.9137287756674
 20
-17.78909504763606
 30
0.0
 10
262.8342582893262
 20
-17.78909504763606
 30
0.0
 10
262.8342582893262
 20
-17.78909504763606
 30
0.0
 10
265.4015434449344
 20
-17.78909504763606
 30
0.0
 10
265.4015434449344
 20
-17.78909504763606
 30
0.0
 10
265.4621771254747
 20
-17.78909504763606
 30
0.0
 10
265.5104084622682
 20
-17.83698187488103
 30
0.0
 10
265.5104084622682
 20
-17.89623751722733
 30
0.0
 10
265.5104084622682
 20
-17.89623751722733
 30
0.0
 10
265.5104084622682
 20
-18.95457085029608
 30
0.0
 10
265.5104084622682
 20
-18.95457085029608
 30
0.0
 10
265.5104084622682
 20
-19.01589354993353
 30
0.0
 10
265.4621771254747
 20
-19.06722547266375
 30
0.0
 10
265.4015434449344
 20
-19.06722547266375
 30
0.0
 10
265.4015434449344
 20
-19.06722547266375
 30
0.0
 10
262.9927326816477
 20
-19.06722547266375
 30
0.0
 10
262.9927326816477
 20
-19.06722547266375
 30
0.0
 10
262.7784477424651
 20
-19.06722547266375
 30
0.0
 10
262.6027478727174
 20
-19.24499239970264
 30
0.0
 10
262.6027478727174
 20
-19.45927733888518
 30
0.0
 10
262.6027478727174
 20
-19.67528482581035
 30
0.0
 10
262.7784477424651
 20
-19.84926214781546
 30
0.0
 10
262.9927326816477
 20
-19.84926214781546
 30
0.0
 10
262.9927326816477
 20
-19.84926214781546
 30
0.0
 10
264.1371934018476
 20
-19.88405761221649
 30
0.0
 10
264.1371934018476
 20
-19.88405761221649
 30
0.0
 10
265.0584119346034
 20
-19.88405761221649
 30
0.0
 10
265.8066866739997
 20
-20.62682019883635
 30
0.0
 10
265.8066866739997
 20
-21.54218206926723
 30
0.0
 10
265.8066866739997
 20
-22.45926648744074
 30
0.0
 10
265.0584119346034
 20
-23.20823024593405
 30
0.0
 10
264.1371934018476
 20
-23.20823024593405
 30
0.0
 10
264.1371934018476
 20
-23.20823024593405
 30
0.0
 10
261.4155679685003
 20
-23.20823024593405
 30
0.0
 10
261.4155679685003
 20
-23.20823024593405
 30
0.0
  0
HATCH
  5
1F8
330
1F
100
AcDbEntity
  8
\U+30D5\U+30A9\U+30FC\U+30DE\U+30C3\U+30C8
 62
     7
100
AcDbHatch
 10
0.0
 20
0.0
 30
0.0
210
0.0
220
0.0
230
1.0
  2
SOLID
 70
     1
 71
     0
 91
        1
 92
        1
 93
        1
 72
     4
 94
        3
 73
     0
 74
     1
 95
       65
 96
       61
 40
0.0
 40
0.0
 40
0.0
 40
0.0
 40
1.0
 40
1.0
 40
1.0
 40
2.0
 40
2.0
 40
2.0
 40
3.0
 40
3.0
 40
3.0
 40
4.0
 40
4.0
 40
4.0
 40
5.0
 40
5.0
 40
5.0
 40
6.0
 40
6.0
 40
6.0
 40
7.0
 40
7.0
 40
7.0
 40
8.0
 40
8.0
 40
8.0
 40
9.0
 40
9.0
 40
9.0
 40
10.0
 40
10.0
 40
10.0
 40
11.0
 40
11.0
 40
11.0
 40
12.0
 40
12.0
 40
12.0
 40
13.0
 40
13.0
 40
13.0
 40
14.0
 40
14.0
 40
14.0
 40
15.0
 40
15.0
 40
15.0
 40
16.0
 40
16.0
 40
16.0
 40
17.0
 40
17.0
 40
17.0
 40
18.0
 40
18.0
 40
18.0
 40
19.0
 40
19.0
 40
19.0
 40
20.0
 40
20.0
 40
20.0
 40
20.0
 10
261.4155679685003
 20
-23.20823024593405
 10
261.3556233070569
 20
-23.20823024593405
 10
261.3073919702634
 20
-23.16103243778613
 10
261.3073919702634
 20
-23.10143228589131
 10
261.3073919702634
 20
-23.10143228589131
 10
261.3073919702634
 20
-22.03104111862418
 10
261.3073919702634
 20
-22.03104111862418
 10
261.3073919702634
 20
-21.97109645718084
 10
261.3556233070569
 20
-21.91976453445061
 10
261.4155679685003
 20
-21.91976453445061
 10
261.4155679685003
 20
-21.91976453445061
 10
263.9649386275852
 20
-21.91976453445061
 10
263.9649386275852
 20
-21.91976453445061
 10
264.1799125858648
 20
-21.91976453445061
 10
264.3542344174184
 20
-21.74234211696025
 10
264.3542344174184
 20
-21.52530110138951
 10
264.3542344174184
 20
-21.31170518130402
 10
264.1799125858648
 20
-21.13462727336218
 10
263.9649386275852
 20
-21.13462727336218
 10
263.9649386275852
 20
-21.13462727336218
 10
262.8342582893262
 20
-21.10362141399493
 10
262.8342582893262
 20
-21.10362141399493
 10
261.9137287756674
 20
-21.10362141399493
 10
261.1668320744653
 20
-20.36189235602064
 10
261.1668320744653
 20
-19.44687499513828
 10
261.1668320744653
 20
-18.53220214380445
 10
261.9137287756674
 20
-17.78909504763606
 10
262.8342582893262
 20
-17.78909504763606
 10
262.8342582893262
 20
-17.78909504763606
 10
265.4015434449344
 20
-17.78909504763606
 10
265.4015434449344
 20
-17.78909504763606
 10
265.4621771254747
 20
-17.78909504763606
 10
265.5104084622682
 20
-17.83698187488103
 10
265.5104084622682
 20
-17.89623751722733
 10
265.5104084622682
 20
-17.89623751722733
 10
265.5104084622682
 20
-18.95457085029608
 10
265.5104084622682
 20
-18.95457085029608
 10
265.5104084622682
 20
-19.01589354993353
 10
265.4621771254747
 20
-19.06722547266375
 10
265.4015434449344
 20
-19.06722547266375
 10
265.4015434449344
 20
-19.06722547266375
 10
262.9927326816477
 20
-19.06722547266375
 10
262.9927326816477
 20
-19.06722547266375
 10
262.7784477424651
 20
-19.06722547266375
 10
262.6027478727174
 20
-19.24499239970264
 10
262.6027478727174
 20
-19.45927733888518
 10
262.6027478727174
 20
-19.67528482581035
 10
262.7784477424651
 20
-19.84926214781546
 10
262.9927326816477
 20
-19.84926214781546
 10
262.9927326816477
 20
-19.84926214781546
 10
264.1371934018476
 20
-19.88405761221649
 10
264.1371934018476
 20
-19.88405761221649
 10
265.0584119346034
 20
-19.88405761221649
 10
265.8066866739997
 20
-20.62682019883635
 10
265.8066866739997
 20
-21.54218206926723
 10
265.8066866739997
 20
-22.45926648744074
 10
265.0584119346034
 20
-23.20823024593405
 10
264.1371934018476
 20
-23.20823024593405
 10
264.1371934018476
 20
-23.20823024593405
 10
261.4155679685003
 20
-23.20823024593405
 10
261.4155679685003
 20
-23.20823024593405
 97
        0
 75
     2
 76
     1
 98
        0
  0
SPLINE
  5
1F9
330
1F
100
AcDbEntity
  8
\U+30D5\U+30A9\U+30FC\U+30DE\U+30C3\U+30C8
370
     0
100
AcDbSpline
210
0.0
220
0.0
230
1.0
 70
    11
 71
     3
 72
    65
 73
    61
 74
     0
 42
0.0000000001
 43
0.0000000001
 40
0.0
 40
0.0
 40
0.0
 40
0.0
 40
1.0
 40
1.0
 40
1.0
 40
2.0
 40
2.0
 40
2.0
 40
3.0
 40
3.0
 40
3.0
 40
4.0
 40
4.0
 40
4.0
 40
5.0
 40
5.0
 40
5.0
 40
6.0
 40
6.0
 40
6.0
 40
7.0
 40
7.0
 40
7.0
 40
8.0
 40
8.0
 40
8.0
 40
9.0
 40
9.0
 40
9.0
 40
10.0
 40
10.0
 40
10.0
 40
11.0
 40
11.0
 40
11.0
 40
12.0
 40
12.0
 40
12.0
 40
13.0
 40
13.0
 40
13.0
 40
14.0
 40
14.0
 40
14.0
 40
15.0
 40
15.0
 40
15.0
 40
16.0
 40
16.0
 40
16.0
 40
17.0
 40
17.0
 40
17.0
 40
18.0
 40
18.0
 40
18.0
 40
19.0
 40
19.0
 40
19.0
 40
20.0
 40
20.0
 40
20.0
 40
20.0
 10
270.554028252674
 20
-17.78358289485966
 30
0.0
 10
270.554028252674
 20
-17.78358289485966
 30
0.0
 10
269.3496228710306
 20
-17.78358289485966
 30
0.0
 10
269.3496228710306
 20
-17.78358289485966
 30
0.0
 10
269.2889891904903
 20
-17.78358289485966
 30
0.0
 10
269.1628986957301
 20
-17.83284776029873
 30
0.0
 10
269.1628986957301
 20
-17.89244791219356
 30
0.0
 10
269.1628986957301
 20
-17.89244791219356
 30
0.0
 10
269.1628986957301
 20
-19.84374999503906
 30
0.0
 10
269.1628986957301
 20
-19.84374999503906
 30
0.0
 10
269.1628986957301
 20
-19.84374999503906
 30
0.0
 10
267.6532578540936
 20
-19.84374999503906
 30
0.0
 10
267.6532578540936
 20
-19.84374999503906
 30
0.0
 10
267.6532578540936
 20
-19.84374999503906
 30
0.0
 10
267.6532578540936
 20
-17.89244791219356
 30
0.0
 10
267.6532578540936
 20
-17.89244791219356
 30
0.0
 10
267.6532578540936
 20
-17.83284776029873
 30
0.0
 10
267.603648479106
 20
-17.78358289485966
 30
0.0
 10
267.5443928367598
 20
-17.78358289485966
 30
0.0
 10
267.5443928367598
 20
-17.78358289485966
 30
0.0
 10
266.2614392780527
 20
-17.78358289485966
 30
0.0
 10
266.2614392780527
 20
-17.78358289485966
 30
0.0
 10
266.2014946166094
 20
-17.78358289485966
 30
0.0
 10
266.1525742607188
 20
-17.83284776029873
 30
0.0
 10
266.1525742607188
 20
-17.89244791219356
 30
0.0
 10
266.1525742607188
 20
-17.89244791219356
 30
0.0
 10
266.1525742607188
 20
-23.09281954717818
 30
0.0
 10
266.1525742607188
 20
-23.09281954717818
 30
0.0
 10
266.1525742607188
 20
-23.15483126591268
 30
0.0
 10
266.2014946166094
 20
-23.20271809315765
 30
0.0
 10
266.2614392780527
 20
-23.20271809315765
 30
0.0
 10
266.2614392780527
 20
-23.20271809315765
 30
0.0
 10
267.5443928367598
 20
-23.20271809315765
 30
0.0
 10
267.5443928367598
 20
-23.20271809315765
 30
0.0
 10
267.603648479106
 20
-23.20271809315765
 30
0.0
 10
267.6532578540936
 20
-23.15483126591268
 30
0.0
 10
267.6532578540936
 20
-23.09281954717818
 30
0.0
 10
267.6532578540936
 20
-23.09281954717818
 30
0.0
 10
267.6532578540936
 20
-21.13049315877988
 30
0.0
 10
267.6532578540936
 20
-21.13049315877988
 30
0.0
 10
267.6532578540936
 20
-21.13049315877988
 30
0.0
 10
269.1628986957301
 20
-21.13049315877988
 30
0.0
 10
269.1628986957301
 20
-21.13049315877988
 30
0.0
 10
269.1628986957301
 20
-21.13049315877988
 30
0.0
 10
269.1628986957301
 20
-23.09281954717818
 30
0.0
 10
269.1628986957301
 20
-23.09281954717818
 30
0.0
 10
269.1628986957301
 20
-23.15483126591268
 30
0.0
 10
269.2118190516207
 20
-23.20271809315765
 30
0.0
 10
269.271763713064
 20
-23.20271809315765
 30
0.0
 10
269.271763713064
 20
-23.20271809315765
 30
0.0
 10
270.554028252674
 20
-23.20271809315765
 30
0.0
 10
270.554028252674
 20
-23.20271809315765
 30
0.0
 10
270.6139729141174
 20
-23.20271809315765
 30
0.0
 10
270.6628932700079
 20
-23.15483126591268
 30
0.0
 10
270.6628932700079
 20
-23.09281954717818
 30
0.0
 10
270.6628932700079
 20
-23.09281954717818
 30
0.0
 10
270.6628932700079
 20
-17.89244791219356
 30
0.0
 10
270.6628932700079
 20
-17.89244791219356
 30
0.0
 10
270.6628932700079
 20
-17.83284776029873
 30
0.0
 10
270.6139729141174
 20
-17.78358289485966
 30
0.0
 10
270.554028252674
 20
-17.78358289485966
 30
0.0
  0
HATCH
  5
1FA
330
1F
100
AcDbEntity
  8
\U+30D5\U+30A9\U+30FC\U+30DE\U+30C3\U+30C8
 62
     7
100
AcDbHatch
 10
0.0
 20
0.0
 30
0.0
210
0.0
220
0.0
230
1.0
  2
SOLID
 70
     1
 71
     0
 91
        1
 92
        1
 93
        1
 72
     4
 94
        3
 73
     0
 74
     1
 95
       65
 96
       61
 40
0.0
 40
0.0
 40
0.0
 40
0.0
 40
1.0
 40
1.0
 40
1.0
 40
2.0
 40
2.0
 40
2.0
 40
3.0
 40
3.0
 40
3.0
 40
4.0
 40
4.0
 40
4.0
 40
5.0
 40
5.0
 40
5.0
 40
6.0
 40
6.0
 40
6.0
 40
7.0
 40
7.0
 40
7.0
 40
8.0
 40
8.0
 40
8.0
 40
9.0
 40
9.0
 40
9.0
 40
10.0
 40
10.0
 40
10.0
 40
11.0
 40
11.0
 40
11.0
 40
12.0
 40
12.0
 40
12.0
 40
13.0
 40
13.0
 40
13.0
 40
14.0
 40
14.0
 40
14.0
 40
15.0
 40
15.0
 40
15.0
 40
16.0
 40
16.0
 40
16.0
 40
17.0
 40
17.0
 40
17.0
 40
18.0
 40
18.0
 40
18.0
 40
19.0
 40
19.0
 40
19.0
 40
20.0
 40
20.0
 40
20.0
 40
20.0
 10
270.554028252674
 20
-17.78358289485966
 10
270.554028252674
 20
-17.78358289485966
 10
269.3496228710306
 20
-17.78358289485966
 10
269.3496228710306
 20
-17.78358289485966
 10
269.2889891904903
 20
-17.78358289485966
 10
269.1628986957301
 20
-17.83284776029873
 10
269.1628986957301
 20
-17.89244791219356
 10
269.1628986957301
 20
-17.89244791219356
 10
269.1628986957301
 20
-19.84374999503906
 10
269.1628986957301
 20
-19.84374999503906
 10
269.1628986957301
 20
-19.84374999503906
 10
267.6532578540936
 20
-19.84374999503906
 10
267.6532578540936
 20
-19.84374999503906
 10
267.6532578540936
 20
-19.84374999503906
 10
267.6532578540936
 20
-17.89244791219356
 10
267.6532578540936
 20
-17.89244791219356
 10
267.6532578540936
 20
-17.83284776029873
 10
267.603648479106
 20
-17.78358289485966
 10
267.5443928367598
 20
-17.78358289485966
 10
267.5443928367598
 20
-17.78358289485966
 10
266.2614392780527
 20
-17.78358289485966
 10
266.2614392780527
 20
-17.78358289485966
 10
266.2014946166094
 20
-17.78358289485966
 10
266.1525742607188
 20
-17.83284776029873
 10
266.1525742607188
 20
-17.89244791219356
 10
266.1525742607188
 20
-17.89244791219356
 10
266.1525742607188
 20
-23.09281954717818
 10
266.1525742607188
 20
-23.09281954717818
 10
266.1525742607188
 20
-23.15483126591268
 10
266.2014946166094
 20
-23.20271809315765
 10
266.2614392780527
 20
-23.20271809315765
 10
266.2614392780527
 20
-23.20271809315765
 10
267.5443928367598
 20
-23.20271809315765
 10
267.5443928367598
 20
-23.20271809315765
 10
267.603648479106
 20
-23.20271809315765
 10
267.6532578540936
 20
-23.15483126591268
 10
267.6532578540936
 20
-23.09281954717818
 10
267.6532578540936
 20
-23.09281954717818
 10
267.6532578540936
 20
-21.13049315877988
 10
267.6532578540936
 20
-21.13049315877988
 10
267.6532578540936
 20
-21.13049315877988
 10
269.1628986957301
 20
-21.13049315877988
 10
269.1628986957301
 20
-21.13049315877988
 10
269.1628986957301
 20
-21.13049315877988
 10
269.1628986957301
 20
-23.09281954717818
 10
269.1628986957301
 20
-23.09281954717818
 10
269.1628986957301
 20
-23.15483126591268
 10
269.2118190516207
 20
-23.20271809315765
 10
269.271763713064
 20
-23.20271809315765
 10
269.271763713064
 20
-23.20271809315765
 10
270.554028252674
 20
-23.20271809315765
 10
270.554028252674
 20
-23.20271809315765
 10
270.6139729141174
 20
-23.20271809315765
 10
270.6628932700079
 20
-23.15483126591268
 10
270.6628932700079
 20
-23.09281954717818
 10
270.6628932700079
 20
-23.09281954717818
 10
270.6628932700079
 20
-17.89244791219356
 10
270.6628932700079
 20
-17.89244791219356
 10
270.6628932700079
 20
-17.83284776029873
 10
270.6139729141174
 20
-17.78358289485966
 10
270.554028252674
 20
-17.78358289485966
 97
        0
 75
     2
 76
     1
 98
        0
  0
SPLINE
  5
1FB
330
1F
100
AcDbEntity
  8
\U+30D5\U+30A9\U+30FC\U+30DE\U+30C3\U+30C8
370
     0
100
AcDbSpline
210
0.0
220
0.0
230
1.0
 70
    11
 71
     3
 72
    29
 73
    25
 74
     0
 42
0.0000000001
 43
0.0000000001
 40
0.0
 40
0.0
 40
0.0
 40
0.0
 40
1.0
 40
1.0
 40
1.0
 40
2.0
 40
2.0
 40
2.0
 40
3.0
 40
3.0
 40
3.0
 40
4.0
 40
4.0
 40
4.0
 40
5.0
 40
5.0
 40
5.0
 40
6.0
 40
6.0
 40
6.0
 40
7.0
 40
7.0
 40
7.0
 40
8.0
 40
8.0
 40
8.0
 40
8.0
 10
274.6461126700538
 20
-17.78289387576261
 30
0.0
 10
274.6461126700538
 20
-17.78289387576261
 30
0.0
 10
272.6341769066678
 20
-17.78289387576261
 30
0.0
 10
272.6341769066678
 20
-17.78289387576261
 30
0.0
 10
271.7853053791023
 20
-17.78289387576261
 30
0.0
 10
271.0949082438582
 20
-18.47191297281258
 30
0.0
 10
271.0949082438582
 20
-19.32181802902371
 30
0.0
 10
271.0949082438582
 20
-19.32181802902371
 30
0.0
 10
271.0949082438582
 20
-21.6589708062172
 30
0.0
 10
271.0949082438582
 20
-21.6589708062172
 30
0.0
 10
271.0949082438582
 20
-22.50853135287981
 30
0.0
 10
271.7853053791023
 20
-23.19720594038126
 30
0.0
 10
272.6341769066678
 20
-23.19720594038126
 30
0.0
 10
272.6341769066678
 20
-23.19720594038126
 30
0.0
 10
274.6461126700538
 20
-23.19720594038126
 30
0.0
 10
274.6461126700538
 20
-23.19720594038126
 30
0.0
 10
275.4956732167164
 20
-23.19720594038126
 30
0.0
 10
276.1840032946693
 20
-22.50853135287981
 30
0.0
 10
276.1840032946693
 20
-21.6589708062172
 30
0.0
 10
276.1840032946693
 20
-21.6589708062172
 30
0.0
 10
276.1840032946693
 20
-19.32181802902371
 30
0.0
 10
276.1840032946693
 20
-19.32181802902371
 30
0.0
 10
276.1840032946693
 20
-18.47191297281258
 30
0.0
 10
275.4956732167164
 20
-17.78289387576261
 30
0.0
 10
274.6461126700538
 20
-17.78289387576261
 30
0.0
  0
SPLINE
  5
1FC
330
1F
100
AcDbEntity
  8
\U+30D5\U+30A9\U+30FC\U+30DE\U+30C3\U+30C8
370
     0
100
AcDbSpline
210
0.0
220
0.0
230
1.0
 70
    11
 71
     3
 72
    29
 73
    25
 74
     0
 42
0.0000000001
 43
0.0000000001
 40
0.0
 40
0.0
 40
0.0
 40
0.0
 40
1.0
 40
1.0
 40
1.0
 40
2.0
 40
2.0
 40
2.0
 40
3.0
 40
3.0
 40
3.0
 40
4.0
 40
4.0
 40
4.0
 40
5.0
 40
5.0
 40
5.0
 40
6.0
 40
6.0
 40
6.0
 40
7.0
 40
7.0
 40
7.0
 40
8.0
 40
8.0
 40
8.0
 40
8.0
 10
274.6812526440033
 20
-21.35614691306374
 30
0.0
 10
274.6812526440033
 20
-21.6589708062172
 30
0.0
 10
274.4352728263565
 20
-21.90460611431552
 30
0.0
 10
274.1327934427516
 20
-21.90460611431552
 30
0.0
 10
274.1327934427516
 20
-21.90460611431552
 30
0.0
 10
273.1474961339701
 20
-21.90460611431552
 30
0.0
 10
273.1474961339701
 20
-21.90460611431552
 30
0.0
 10
272.8436387121711
 20
-21.90460611431552
 30
0.0
 10
272.5983479136212
 20
-21.6589708062172
 30
0.0
 10
272.5983479136212
 20
-21.35614691306374
 30
0.0
 10
272.5983479136212
 20
-21.35614691306374
 30
0.0
 10
272.5983479136212
 20
-19.62429741262865
 30
0.0
 10
272.5983479136212
 20
-19.62429741262865
 30
0.0
 10
272.5983479136212
 20
-19.32181802902371
 30
0.0
 10
272.8436387121711
 20
-19.07652723047392
 30
0.0
 10
273.1474961339701
 20
-19.07652723047392
 30
0.0
 10
273.1474961339701
 20
-19.07652723047392
 30
0.0
 10
274.1327934427516
 20
-19.07652723047392
 30
0.0
 10
274.1327934427516
 20
-19.07652723047392
 30
0.0
 10
274.4352728263565
 20
-19.07652723047392
 30
0.0
 10
274.6812526440033
 20
-19.32181802902371
 30
0.0
 10
274.6812526440033
 20
-19.62429741262865
 30
0.0
 10
274.6812526440033
 20
-19.62429741262865
 30
0.0
 10
274.6812526440033
 20
-21.35614691306374
 30
0.0
 10
274.6812526440033
 20
-21.35614691306374
 30
0.0
  0
HATCH
  5
1FD
330
1F
100
AcDbEntity
  8
\U+30D5\U+30A9\U+30FC\U+30DE\U+30C3\U+30C8
 62
     7
100
AcDbHatch
 10
0.0
 20
0.0
 30
0.0
210
0.0
220
0.0
230
1.0
  2
SOLID
 70
     1
 71
     0
 91
        2
 92
        1
 93
        1
 72
     4
 94
        3
 73
     0
 74
     1
 95
       29
 96
       25
 40
0.0
 40
0.0
 40
0.0
 40
0.0
 40
1.0
 40
1.0
 40
1.0
 40
2.0
 40
2.0
 40
2.0
 40
3.0
 40
3.0
 40
3.0
 40
4.0
 40
4.0
 40
4.0
 40
5.0
 40
5.0
 40
5.0
 40
6.0
 40
6.0
 40
6.0
 40
7.0
 40
7.0
 40
7.0
 40
8.0
 40
8.0
 40
8.0
 40
8.0
 10
274.6812526440033
 20
-21.35614691306374
 10
274.6812526440033
 20
-21.6589708062172
 10
274.4352728263565
 20
-21.90460611431552
 10
274.1327934427516
 20
-21.90460611431552
 10
274.1327934427516
 20
-21.90460611431552
 10
273.1474961339701
 20
-21.90460611431552
 10
273.1474961339701
 20
-21.90460611431552
 10
272.8436387121711
 20
-21.90460611431552
 10
272.5983479136212
 20
-21.6589708062172
 10
272.5983479136212
 20
-21.35614691306374
 10
272.5983479136212
 20
-21.35614691306374
 10
272.5983479136212
 20
-19.62429741262865
 10
272.5983479136212
 20
-19.62429741262865
 10
272.5983479136212
 20
-19.32181802902371
 10
272.8436387121711
 20
-19.07652723047392
 10
273.1474961339701
 20
-19.07652723047392
 10
273.1474961339701
 20
-19.07652723047392
 10
274.1327934427516
 20
-19.07652723047392
 10
274.1327934427516
 20
-19.07652723047392
 10
274.4352728263565
 20
-19.07652723047392
 10
274.6812526440033
 20
-19.32181802902371
 10
274.6812526440033
 20
-19.62429741262865
 10
274.6812526440033
 20
-19.62429741262865
 10
274.6812526440033
 20
-21.35614691306374
 10
274.6812526440033
 20
-21.35614691306374
 97
        0
 92
        1
 93
        2
 72
     4
 94
        3
 73
     0
 74
     0
 95
       29
 96
       25
 40
0.0
 40
0.0
 40
0.0
 40
0.0
 40
0.3527777776895833
 40
0.3527777776895833
 40
0.3527777776895833
 40
0.7055555553791667
 40
0.7055555553791667
 40
0.7055555553791667
 40
1.05833333306875
 40
1.05833333306875
 40
1.05833333306875
 40
1.411111110758333
 40
1.411111110758333
 40
1.411111110758333
 40
1.763888888447917
 40
1.763888888447917
 40
1.763888888447917
 40
2.1166666661375
 40
2.1166666661375
 40
2.1166666661375
 40
2.469444443827083
 40
2.469444443827083
 40
2.469444443827083
 40
2.822222221516667
 40
2.822222221516667
 40
2.822222221516667
 40
2.822222221516667
 10
274.6461126700538
 20
-17.78289387576261
 10
274.6461126700538
 20
-17.78289387576261
 10
272.6341769066678
 20
-17.78289387576261
 10
272.6341769066678
 20
-17.78289387576261
 10
271.7853053791023
 20
-17.78289387576261
 10
271.0949082438582
 20
-18.47191297281258
 10
271.0949082438582
 20
-19.32181802902371
 10
271.0949082438582
 20
-19.32181802902371
 10
271.0949082438582
 20
-21.6589708062172
 10
271.0949082438582
 20
-21.6589708062172
 10
271.0949082438582
 20
-22.50853135287981
 10
271.7853053791023
 20
-23.19720594038126
 10
272.6341769066678
 20
-23.19720594038126
 10
272.6341769066678
 20
-23.19720594038126
 10
274.6461126700538
 20
-23.19720594038126
 10
274.6461126700538
 20
-23.19720594038126
 10
275.4956732167164
 20
-23.19720594038126
 10
276.1840032946693
 20
-22.50853135287981
 10
276.1840032946693
 20
-21.6589708062172
 10
276.1840032946693
 20
-21.6589708062172
 10
276.1840032946693
 20
-19.32181802902371
 10
276.1840032946693
 20
-19.32181802902371
 10
276.1840032946693
 20
-18.47191297281258
 10
275.4956732167164
 20
-17.78289387576261
 10
274.6461126700538
 20
-17.78289387576261
 72
     1
 10
274.6461126700538
 20
-17.78289387576261
 11
274.6461126700538
 21
-17.78289387576261
 97
        0
 75
     2
 76
     1
 98
        0
  0
SPLINE
  5
1FE
330
1F
100
AcDbEntity
  8
\U+30D5\U+30A9\U+30FC\U+30DE\U+30C3\U+30C8
370
     0
100
AcDbSpline
210
0.0
220
0.0
230
1.0
 70
    11
 71
     3
 72
    47
 73
    43
 74
     0
 42
0.0000000001
 43
0.0000000001
 40
0.0
 40
0.0
 40
0.0
 40
0.0
 40
1.0
 40
1.0
 40
1.0
 40
2.0
 40
2.0
 40
2.0
 40
3.0
 40
3.0
 40
3.0
 40
4.0
 40
4.0
 40
4.0
 40
5.0
 40
5.0
 40
5.0
 40
6.0
 40
6.0
 40
6.0
 40
7.0
 40
7.0
 40
7.0
 40
8.0
 40
8.0
 40
8.0
 40
9.0
 40
9.0
 40
9.0
 40
10.0
 40
10.0
 40
10.0
 40
11.0
 40
11.0
 40
11.0
 40
12.0
 40
12.0
 40
12.0
 40
13.0
 40
13.0
 40
13.0
 40
14.0
 40
14.0
 40
14.0
 40
14.0
 10
247.374736808816
 20
-15.69619954034678
 30
0.0
 10
247.374736808816
 20
-15.69619954034678
 30
0.0
 10
241.5104952738238
 20
-15.69619954034678
 30
0.0
 10
241.5104952738238
 20
-15.69619954034678
 30
0.0
 10
241.4567517842539
 20
-15.69619954034678
 30
0.0
 10
241.4126545620427
 20
-15.74029676255798
 30
0.0
 10
241.4126545620427
 20
-15.79472927122493
 30
0.0
 10
241.4126545620427
 20
-15.79472927122493
 30
0.0
 10
241.4126545620427
 20
-17.09008517367887
 30
0.0
 10
241.4126545620427
 20
-17.09008517367887
 30
0.0
 10
241.4126545620427
 20
-17.14486219189434
 30
0.0
 10
241.4567517842539
 20
-17.18895941410554
 30
0.0
 10
241.5104952738238
 20
-17.18895941410554
 30
0.0
 10
241.5104952738238
 20
-17.18895941410554
 30
0.0
 10
243.5747964885855
 20
-17.18895941410554
 30
0.0
 10
243.5747964885855
 20
-17.18895941410554
 30
0.0
 10
243.5747964885855
 20
-17.18895941410554
 30
0.0
 10
243.5747964885855
 20
-23.09281954717818
 30
0.0
 10
243.5747964885855
 20
-23.09281954717818
 30
0.0
 10
243.5747964885855
 20
-23.15483126591268
 30
0.0
 10
243.623027825379
 20
-23.20271809315765
 30
0.0
 10
243.6836615059194
 20
-23.20271809315765
 30
0.0
 10
243.6836615059194
 20
-23.20271809315765
 30
0.0
 10
245.2008815576234
 20
-23.20271809315765
 30
0.0
 10
245.2008815576234
 20
-23.20271809315765
 30
0.0
 10
245.2622042572609
 20
-23.20271809315765
 30
0.0
 10
245.3090575558602
 20
-23.15483126591268
 30
0.0
 10
245.3090575558602
 20
-23.09281954717818
 30
0.0
 10
245.3090575558602
 20
-23.09281954717818
 30
0.0
 10
245.3090575558602
 20
-17.18895941410554
 30
0.0
 10
245.3090575558602
 20
-17.18895941410554
 30
0.0
 10
245.3090575558602
 20
-17.18895941410554
 30
0.0
 10
247.374736808816
 20
-17.18895941410554
 30
0.0
 10
247.374736808816
 20
-17.18895941410554
 30
0.0
 10
247.429169317483
 20
-17.18895941410554
 30
0.0
 10
247.4718885015001
 20
-17.14486219189434
 30
0.0
 10
247.4718885015001
 20
-17.09008517367887
 30
0.0
 10
247.4718885015001
 20
-17.09008517367887
 30
0.0
 10
247.4718885015001
 20
-15.79472927122493
 30
0.0
 10
247.4718885015001
 20
-15.79472927122493
 30
0.0
 10
247.4718885015001
 20
-15.74029676255798
 30
0.0
 10
247.429169317483
 20
-15.69619954034678
 30
0.0
 10
247.374736808816
 20
-15.69619954034678
 30
0.0
  0
HATCH
  5
1FF
330
1F
100
AcDbEntity
  8
\U+30D5\U+30A9\U+30FC\U+30DE\U+30C3\U+30C8
 62
     7
100
AcDbHatch
 10
0.0
 20
0.0
 30
0.0
210
0.0
220
0.0
230
1.0
  2
SOLID
 70
     1
 71
     0
 91
        1
 92
        1
 93
        1
 72
     4
 94
        3
 73
     0
 74
     1
 95
       47
 96
       43
 40
0.0
 40
0.0
 40
0.0
 40
0.0
 40
1.0
 40
1.0
 40
1.0
 40
2.0
 40
2.0
 40
2.0
 40
3.0
 40
3.0
 40
3.0
 40
4.0
 40
4.0
 40
4.0
 40
5.0
 40
5.0
 40
5.0
 40
6.0
 40
6.0
 40
6.0
 40
7.0
 40
7.0
 40
7.0
 40
8.0
 40
8.0
 40
8.0
 40
9.0
 40
9.0
 40
9.0
 40
10.0
 40
10.0
 40
10.0
 40
11.0
 40
11.0
 40
11.0
 40
12.0
 40
12.0
 40
12.0
 40
13.0
 40
13.0
 40
13.0
 40
14.0
 40
14.0
 40
14.0
 40
14.0
 10
247.374736808816
 20
-15.69619954034678
 10
247.374736808816
 20
-15.69619954034678
 10
241.5104952738238
 20
-15.69619954034678
 10
241.5104952738238
 20
-15.69619954034678
 10
241.4567517842539
 20
-15.69619954034678
 10
241.4126545620427
 20
-15.74029676255798
 10
241.4126545620427
 20
-15.79472927122493
 10
241.4126545620427
 20
-15.79472927122493
 10
241.4126545620427
 20
-17.09008517367887
 10
241.4126545620427
 20
-17.09008517367887
 10
241.4126545620427
 20
-17.14486219189434
 10
241.4567517842539
 20
-17.18895941410554
 10
241.5104952738238
 20
-17.18895941410554
 10
241.5104952738238
 20
-17.18895941410554
 10
243.5747964885855
 20
-17.18895941410554
 10
243.5747964885855
 20
-17.18895941410554
 10
243.5747964885855
 20
-17.18895941410554
 10
243.5747964885855
 20
-23.09281954717818
 10
243.5747964885855
 20
-23.09281954717818
 10
243.5747964885855
 20
-23.15483126591268
 10
243.623027825379
 20
-23.20271809315765
 10
243.6836615059194
 20
-23.20271809315765
 10
243.6836615059194
 20
-23.20271809315765
 10
245.2008815576234
 20
-23.20271809315765
 10
245.2008815576234
 20
-23.20271809315765
 10
245.2622042572609
 20
-23.20271809315765
 10
245.3090575558602
 20
-23.15483126591268
 10
245.3090575558602
 20
-23.09281954717818
 10
245.3090575558602
 20
-23.09281954717818
 10
245.3090575558602
 20
-17.18895941410554
 10
245.3090575558602
 20
-17.18895941410554
 10
245.3090575558602
 20
-17.18895941410554
 10
247.374736808816
 20
-17.18895941410554
 10
247.374736808816
 20
-17.18895941410554
 10
247.429169317483
 20
-17.18895941410554
 10
247.4718885015001
 20
-17.14486219189434
 10
247.4718885015001
 20
-17.09008517367887
 10
247.4718885015001
 20
-17.09008517367887
 10
247.4718885015001
 20
-15.79472927122493
 10
247.4718885015001
 20
-15.79472927122493
 10
247.4718885015001
 20
-15.74029676255798
 10
247.429169317483
 20
-15.69619954034678
 10
247.374736808816
 20
-15.69619954034678
 97
        0
 75
     2
 76
     1
 98
        0
  0
SPLINE
  5
200
330
1F
100
AcDbEntity
  8
\U+30D5\U+30A9\U+30FC\U+30DE\U+30C3\U+30C8
370
     0
100
AcDbSpline
210
0.0
220
0.0
230
1.0
 70
    11
 71
     3
 72
    29
 73
    25
 74
     0
 42
0.0000000001
 43
0.0000000001
 40
0.0
 40
0.0
 40
0.0
 40
0.0
 40
1.0
 40
1.0
 40
1.0
 40
2.0
 40
2.0
 40
2.0
 40
3.0
 40
3.0
 40
3.0
 40
4.0
 40
4.0
 40
4.0
 40
5.0
 40
5.0
 40
5.0
 40
6.0
 40
6.0
 40
6.0
 40
7.0
 40
7.0
 40
7.0
 40
8.0
 40
8.0
 40
8.0
 40
8.0
 10
252.5320447502351
 20
-23.20271809315765
 30
0.0
 10
252.5919894116784
 20
-23.20271809315765
 30
0.0
 10
252.6422878057631
 20
-23.15483126591268
 30
0.0
 10
252.6422878057631
 20
-23.09178601853261
 30
0.0
 10
252.6422878057631
 20
-23.09178601853261
 30
0.0
 10
252.6422878057631
 20
-17.88452419257748
 30
0.0
 10
252.6422878057631
 20
-17.88452419257748
 30
0.0
 10
252.6422878057631
 20
-17.82423502158561
 30
0.0
 10
252.5919894116784
 20
-17.77565917524359
 30
0.0
 10
252.5320447502351
 20
-17.77565917524359
 30
0.0
 10
252.5320447502351
 20
-17.77565917524359
 30
0.0
 10
251.2449570769457
 20
-17.77565917524359
 30
0.0
 10
251.2449570769457
 20
-17.77565917524359
 30
0.0
 10
251.1836343773083
 20
-17.77565917524359
 30
0.0
 10
251.1347140214177
 20
-17.82423502158561
 30
0.0
 10
251.1347140214177
 20
-17.88452419257748
 30
0.0
 10
251.1347140214177
 20
-17.88452419257748
 30
0.0
 10
251.1347140214177
 20
-23.09178601853261
 30
0.0
 10
251.1347140214177
 20
-23.09178601853261
 30
0.0
 10
251.1347140214177
 20
-23.15483126591268
 30
0.0
 10
251.1836343773083
 20
-23.20271809315765
 30
0.0
 10
251.2449570769457
 20
-23.20271809315765
 30
0.0
 10
251.2449570769457
 20
-23.20271809315765
 30
0.0
 10
252.5320447502351
 20
-23.20271809315765
 30
0.0
 10
252.5320447502351
 20
-23.20271809315765
 30
0.0
  0
HATCH
  5
201
330
1F
100
AcDbEntity
  8
\U+30D5\U+30A9\U+30FC\U+30DE\U+30C3\U+30C8
 62
     7
100
AcDbHatch
 10
0.0
 20
0.0
 30
0.0
210
0.0
220
0.0
230
1.0
  2
SOLID
 70
     1
 71
     0
 91
        1
 92
        1
 93
        1
 72
     4
 94
        3
 73
     0
 74
     1
 95
       29
 96
       25
 40
0.0
 40
0.0
 40
0.0
 40
0.0
 40
1.0
 40
1.0
 40
1.0
 40
2.0
 40
2.0
 40
2.0
 40
3.0
 40
3.0
 40
3.0
 40
4.0
 40
4.0
 40
4.0
 40
5.0
 40
5.0
 40
5.0
 40
6.0
 40
6.0
 40
6.0
 40
7.0
 40
7.0
 40
7.0
 40
8.0
 40
8.0
 40
8.0
 40
8.0
 10
252.5320447502351
 20
-23.20271809315765
 10
252.5919894116784
 20
-23.20271809315765
 10
252.6422878057631
 20
-23.15483126591268
 10
252.6422878057631
 20
-23.09178601853261
 10
252.6422878057631
 20
-23.09178601853261
 10
252.6422878057631
 20
-17.88452419257748
 10
252.6422878057631
 20
-17.88452419257748
 10
252.6422878057631
 20
-17.82423502158561
 10
252.5919894116784
 20
-17.77565917524359
 10
252.5320447502351
 20
-17.77565917524359
 10
252.5320447502351
 20
-17.77565917524359
 10
251.2449570769457
 20
-17.77565917524359
 10
251.2449570769457
 20
-17.77565917524359
 10
251.1836343773083
 20
-17.77565917524359
 10
251.1347140214177
 20
-17.82423502158561
 10
251.1347140214177
 20
-17.88452419257748
 10
251.1347140214177
 20
-17.88452419257748
 10
251.1347140214177
 20
-23.09178601853261
 10
251.1347140214177
 20
-23.09178601853261
 10
251.1347140214177
 20
-23.15483126591268
 10
251.1836343773083
 20
-23.20271809315765
 10
251.2449570769457
 20
-23.20271809315765
 10
251.2449570769457
 20
-23.20271809315765
 10
252.5320447502351
 20
-23.20271809315765
 10
252.5320447502351
 20
-23.20271809315765
 97
        0
 75
     2
 76
     1
 98
        0
  0
SPLINE
  5
202
330
1F
100
AcDbEntity
  8
\U+30D5\U+30A9\U+30FC\U+30DE\U+30C3\U+30C8
370
     0
100
AcDbSpline
210
0.0
220
0.0
230
1.0
 70
    11
 71
     3
 72
    29
 73
    25
 74
     0
 42
0.0000000001
 43
0.0000000001
 40
0.0
 40
0.0
 40
0.0
 40
0.0
 40
1.0
 40
1.0
 40
1.0
 40
2.0
 40
2.0
 40
2.0
 40
3.0
 40
3.0
 40
3.0
 40
4.0
 40
4.0
 40
4.0
 40
5.0
 40
5.0
 40
5.0
 40
6.0
 40
6.0
 40
6.0
 40
7.0
 40
7.0
 40
7.0
 40
8.0
 40
8.0
 40
8.0
 40
8.0
 10
254.6562906264401
 20
-17.77910427072884
 30
0.0
 10
254.5536267809797
 20
-17.77910427072884
 30
0.0
 10
254.461987241072
 20
-17.83043619345906
 30
0.0
 10
254.406865713308
 20
-17.90863986097423
 30
0.0
 10
254.406865713308
 20
-17.90863986097423
 30
0.0
 10
252.6422878057631
 20
-20.49280598446013
 30
0.0
 10
252.6422878057631
 20
-20.49280598446013
 30
0.0
 10
252.6422878057631
 20
-20.49280598446013
 30
0.0
 10
254.3951523886582
 20
-23.19720594038126
 30
0.0
 10
254.3951523886582
 20
-23.19720594038126
 30
0.0
 10
254.3951523886582
 20
-23.19720594038126
 30
0.0
 10
256.2389674923639
 20
-23.19720594038126
 30
0.0
 10
256.2389674923639
 20
-23.19720594038126
 30
0.0
 10
256.2389674923639
 20
-23.19720594038126
 30
0.0
 10
254.2318548626573
 20
-20.49280598446013
 30
0.0
 10
254.2318548626573
 20
-20.49280598446013
 30
0.0
 10
254.2318548626573
 20
-20.49280598446013
 30
0.0
 10
256.2375894541698
 20
-17.78082681847146
 30
0.0
 10
256.2375894541698
 20
-17.78082681847146
 30
0.0
 10
256.2375894541698
 20
-17.78082681847146
 30
0.0
 10
254.655601607343
 20
-17.78082681847146
 30
0.0
 10
254.655601607343
 20
-17.78082681847146
 30
0.0
 10
254.655601607343
 20
-17.78082681847146
 30
0.0
 10
254.6562906264401
 20
-17.77910427072884
 30
0.0
 10
254.6562906264401
 20
-17.77910427072884
 30
0.0
  0
HATCH
  5
203
330
1F
100
AcDbEntity
  8
\U+30D5\U+30A9\U+30FC\U+30DE\U+30C3\U+30C8
 62
     7
100
AcDbHatch
 10
0.0
 20
0.0
 30
0.0
210
0.0
220
0.0
230
1.0
  2
SOLID
 70
     1
 71
     0
 91
        1
 92
        1
 93
        1
 72
     4
 94
        3
 73
     0
 74
     1
 95
       29
 96
       25
 40
0.0
 40
0.0
 40
0.0
 40
0.0
 40
1.0
 40
1.0
 40
1.0
 40
2.0
 40
2.0
 40
2.0
 40
3.0
 40
3.0
 40
3.0
 40
4.0
 40
4.0
 40
4.0
 40
5.0
 40
5.0
 40
5.0
 40
6.0
 40
6.0
 40
6.0
 40
7.0
 40
7.0
 40
7.0
 40
8.0
 40
8.0
 40
8.0
 40
8.0
 10
254.6562906264401
 20
-17.77910427072884
 10
254.5536267809797
 20
-17.77910427072884
 10
254.461987241072
 20
-17.83043619345906
 10
254.406865713308
 20
-17.90863986097423
 10
254.406865713308
 20
-17.90863986097423
 10
252.6422878057631
 20
-20.49280598446013
 10
252.6422878057631
 20
-20.49280598446013
 10
252.6422878057631
 20
-20.49280598446013
 10
254.3951523886582
 20
-23.19720594038126
 10
254.3951523886582
 20
-23.19720594038126
 10
254.3951523886582
 20
-23.19720594038126
 10
256.2389674923639
 20
-23.19720594038126
 10
256.2389674923639
 20
-23.19720594038126
 10
256.2389674923639
 20
-23.19720594038126
 10
254.2318548626573
 20
-20.49280598446013
 10
254.2318548626573
 20
-20.49280598446013
 10
254.2318548626573
 20
-20.49280598446013
 10
256.2375894541698
 20
-17.78082681847146
 10
256.2375894541698
 20
-17.78082681847146
 10
256.2375894541698
 20
-17.78082681847146
 10
254.655601607343
 20
-17.78082681847146
 10
254.655601607343
 20
-17.78082681847146
 10
254.655601607343
 20
-17.78082681847146
 10
254.6562906264401
 20
-17.77910427072884
 10
254.6562906264401
 20
-17.77910427072884
 97
        0
 75
     2
 76
     1
 98
        0
  0
SPLINE
  5
204
330
1F
100
AcDbEntity
  8
\U+30D5\U+30A9\U+30FC\U+30DE\U+30C3\U+30C8
370
     0
100
AcDbSpline
210
0.0
220
0.0
230
1.0
 70
    11
 71
     3
 72
    29
 73
    25
 74
     0
 42
0.0000000001
 43
0.0000000001
 40
0.0
 40
0.0
 40
0.0
 40
0.0
 40
1.0
 40
1.0
 40
1.0
 40
2.0
 40
2.0
 40
2.0
 40
3.0
 40
3.0
 40
3.0
 40
4.0
 40
4.0
 40
4.0
 40
5.0
 40
5.0
 40
5.0
 40
6.0
 40
6.0
 40
6.0
 40
7.0
 40
7.0
 40
7.0
 40
8.0
 40
8.0
 40
8.0
 40
8.0
 10
231.6761257016296
 20
-19.44653048558976
 30
0.0
 10
231.8139295210396
 20
-19.44653048558976
 30
0.0
 10
231.9248615956646
 20
-19.33422037277061
 30
0.0
 10
231.9248615956646
 20
-19.19710557245767
 30
0.0
 10
231.9248615956646
 20
-19.19710557245767
 30
0.0
 10
231.9248615956646
 20
-15.94838052986707
 30
0.0
 10
231.9248615956646
 20
-15.94838052986707
 30
0.0
 10
231.9248615956646
 20
-15.80988769136003
 30
0.0
 10
231.8139295210396
 20
-15.69895561673498
 30
0.0
 10
231.6761257016296
 20
-15.69895561673498
 30
0.0
 10
231.6761257016296
 20
-15.69895561673498
 30
0.0
 10
228.427400659039
 20
-15.69895561673498
 30
0.0
 10
228.427400659039
 20
-15.69895561673498
 30
0.0
 10
228.2882188014349
 20
-15.69895561673498
 30
0.0
 10
228.1772867268099
 20
-15.80988769136003
 30
0.0
 10
228.1772867268099
 20
-15.94838052986707
 30
0.0
 10
228.1772867268099
 20
-15.94838052986707
 30
0.0
 10
228.1772867268099
 20
-19.19710557245767
 30
0.0
 10
228.1772867268099
 20
-19.19710557245767
 30
0.0
 10
228.1772867268099
 20
-19.33422037277061
 30
0.0
 10
228.2882188014349
 20
-19.44653048558976
 30
0.0
 10
228.427400659039
 20
-19.44653048558976
 30
0.0
 10
228.427400659039
 20
-19.44653048558976
 30
0.0
 10
231.6761257016296
 20
-19.44653048558976
 30
0.0
 10
231.6761257016296
 20
-19.44653048558976
 30
0.0
  0
HATCH
  5
205
330
1F
100
AcDbEntity
  8
\U+30D5\U+30A9\U+30FC\U+30DE\U+30C3\U+30C8
 62
     7
100
AcDbHatch
 10
0.0
 20
0.0
 30
0.0
210
0.0
220
0.0
230
1.0
  2
SOLID
 70
     1
 71
     0
 91
        1
 92
        1
 93
        1
 72
     4
 94
        3
 73
     0
 74
     1
 95
       29
 96
       25
 40
0.0
 40
0.0
 40
0.0
 40
0.0
 40
1.0
 40
1.0
 40
1.0
 40
2.0
 40
2.0
 40
2.0
 40
3.0
 40
3.0
 40
3.0
 40
4.0
 40
4.0
 40
4.0
 40
5.0
 40
5.0
 40
5.0
 40
6.0
 40
6.0
 40
6.0
 40
7.0
 40
7.0
 40
7.0
 40
8.0
 40
8.0
 40
8.0
 40
8.0
 10
231.6761257016296
 20
-19.44653048558976
 10
231.8139295210396
 20
-19.44653048558976
 10
231.9248615956646
 20
-19.33422037277061
 10
231.9248615956646
 20
-19.19710557245767
 10
231.9248615956646
 20
-19.19710557245767
 10
231.9248615956646
 20
-15.94838052986707
 10
231.9248615956646
 20
-15.94838052986707
 10
231.9248615956646
 20
-15.80988769136003
 10
231.8139295210396
 20
-15.69895561673498
 10
231.6761257016296
 20
-15.69895561673498
 10
231.6761257016296
 20
-15.69895561673498
 10
228.427400659039
 20
-15.69895561673498
 10
228.427400659039
 20
-15.69895561673498
 10
228.2882188014349
 20
-15.69895561673498
 10
228.1772867268099
 20
-15.80988769136003
 10
228.1772867268099
 20
-15.94838052986707
 10
228.1772867268099
 20
-15.94838052986707
 10
228.1772867268099
 20
-19.19710557245767
 10
228.1772867268099
 20
-19.19710557245767
 10
228.1772867268099
 20
-19.33422037277061
 10
228.2882188014349
 20
-19.44653048558976
 10
228.427400659039
 20
-19.44653048558976
 10
228.427400659039
 20
-19.44653048558976
 10
231.6761257016296
 20
-19.44653048558976
 10
231.6761257016296
 20
-19.44653048558976
 97
        0
 75
     2
 76
     1
 98
        0
  0
SPLINE
  5
206
330
1F
100
AcDbEntity
  8
\U+30D5\U+30A9\U+30FC\U+30DE\U+30C3\U+30C8
370
     0
100
AcDbSpline
210
0.0
220
0.0
230
1.0
 70
    11
 71
     3
 72
    29
 73
    25
 74
     0
 42
0.0000000001
 43
0.0000000001
 40
0.0
 40
0.0
 40
0.0
 40
0.0
 40
1.0
 40
1.0
 40
1.0
 40
2.0
 40
2.0
 40
2.0
 40
3.0
 40
3.0
 40
3.0
 40
4.0
 40
4.0
 40
4.0
 40
5.0
 40
5.0
 40
5.0
 40
6.0
 40
6.0
 40
6.0
 40
7.0
 40
7.0
 40
7.0
 40
8.0
 40
8.0
 40
8.0
 40
8.0
 10
235.4257676277755
 20
-23.19582790218715
 30
0.0
 10
235.5628824280884
 20
-23.19582790218715
 30
0.0
 10
235.6738145027135
 20
-23.08420680846506
 30
0.0
 10
235.6738145027135
 20
-22.94536946040949
 30
0.0
 10
235.6738145027135
 20
-22.94536946040949
 30
0.0
 10
235.6738145027135
 20
-19.69767794646447
 30
0.0
 10
235.6738145027135
 20
-19.69767794646447
 30
0.0
 10
235.6738145027135
 20
-19.560218636603
 30
0.0
 10
235.5628824280884
 20
-19.44894205242943
 30
0.0
 10
235.4257676277755
 20
-19.44894205242943
 30
0.0
 10
235.4257676277755
 20
-19.44894205242943
 30
0.0
 10
232.1770425851849
 20
-19.44894205242943
 30
0.0
 10
232.1770425851849
 20
-19.44894205242943
 30
0.0
 10
232.0392387657749
 20
-19.44894205242943
 30
0.0
 10
231.9255506147617
 20
-19.560218636603
 30
0.0
 10
231.9255506147617
 20
-19.69767794646447
 30
0.0
 10
231.9255506147617
 20
-19.69767794646447
 30
0.0
 10
231.9255506147617
 20
-22.94536946040949
 30
0.0
 10
231.9255506147617
 20
-22.94536946040949
 30
0.0
 10
231.9255506147617
 20
-23.08420680846506
 30
0.0
 10
232.0392387657749
 20
-23.19582790218715
 30
0.0
 10
232.1770425851849
 20
-23.19582790218715
 30
0.0
 10
232.1770425851849
 20
-23.19582790218715
 30
0.0
 10
235.4257676277755
 20
-23.19582790218715
 30
0.0
 10
235.4257676277755
 20
-23.19582790218715
 30
0.0
  0
HATCH
  5
207
330
1F
100
AcDbEntity
  8
\U+30D5\U+30A9\U+30FC\U+30DE\U+30C3\U+30C8
 62
     7
100
AcDbHatch
 10
0.0
 20
0.0
 30
0.0
210
0.0
220
0.0
230
1.0
  2
SOLID
 70
     1
 71
     0
 91
        1
 92
        1
 93
        1
 72
     4
 94
        3
 73
     0
 74
     1
 95
       29
 96
       25
 40
0.0
 40
0.0
 40
0.0
 40
0.0
 40
1.0
 40
1.0
 40
1.0
 40
2.0
 40
2.0
 40
2.0
 40
3.0
 40
3.0
 40
3.0
 40
4.0
 40
4.0
 40
4.0
 40
5.0
 40
5.0
 40
5.0
 40
6.0
 40
6.0
 40
6.0
 40
7.0
 40
7.0
 40
7.0
 40
8.0
 40
8.0
 40
8.0
 40
8.0
 10
235.4257676277755
 20
-23.19582790218715
 10
235.5628824280884
 20
-23.19582790218715
 10
235.6738145027135
 20
-23.08420680846506
 10
235.6738145027135
 20
-22.94536946040949
 10
235.6738145027135
 20
-22.94536946040949
 10
235.6738145027135
 20
-19.69767794646447
 10
235.6738145027135
 20
-19.69767794646447
 10
235.6738145027135
 20
-19.560218636603
 10
235.5628824280884
 20
-19.44894205242943
 10
235.4257676277755
 20
-19.44894205242943
 10
235.4257676277755
 20
-19.44894205242943
 10
232.1770425851849
 20
-19.44894205242943
 10
232.1770425851849
 20
-19.44894205242943
 10
232.0392387657749
 20
-19.44894205242943
 10
231.9255506147617
 20
-19.560218636603
 10
231.9255506147617
 20
-19.69767794646447
 10
231.9255506147617
 20
-19.69767794646447
 10
231.9255506147617
 20
-22.94536946040949
 10
231.9255506147617
 20
-22.94536946040949
 10
231.9255506147617
 20
-23.08420680846506
 10
232.0392387657749
 20
-23.19582790218715
 10
232.1770425851849
 20
-23.19582790218715
 10
232.1770425851849
 20
-23.19582790218715
 10
235.4257676277755
 20
-23.19582790218715
 10
235.4257676277755
 20
-23.19582790218715
 97
        0
 75
     2
 76
     1
 98
        0
  0
SPLINE
  5
208
330
1F
100
AcDbEntity
  8
\U+30D5\U+30A9\U+30FC\U+30DE\U+30C3\U+30C8
370
     0
100
AcDbSpline
210
0.0
220
0.0
230
1.0
 70
    11
 71
     3
 72
    29
 73
    25
 74
     0
 42
0.0000000001
 43
0.0000000001
 40
0.0
 40
0.0
 40
0.0
 40
0.0
 40
1.0
 40
1.0
 40
1.0
 40
2.0
 40
2.0
 40
2.0
 40
3.0
 40
3.0
 40
3.0
 40
4.0
 40
4.0
 40
4.0
 40
5.0
 40
5.0
 40
5.0
 40
6.0
 40
6.0
 40
6.0
 40
7.0
 40
7.0
 40
7.0
 40
8.0
 40
8.0
 40
8.0
 40
8.0
 10
239.1754095539214
 20
-19.44653048558976
 30
0.0
 10
239.3125243542344
 20
-19.44653048558976
 30
0.0
 10
239.4248344670535
 20
-19.33422037277061
 30
0.0
 10
239.4248344670535
 20
-19.19710557245767
 30
0.0
 10
239.4248344670535
 20
-19.19710557245767
 30
0.0
 10
239.4248344670535
 20
-15.94838052986707
 30
0.0
 10
239.4248344670535
 20
-15.94838052986707
 30
0.0
 10
239.4248344670535
 20
-15.80988769136003
 30
0.0
 10
239.3125243542344
 20
-15.69895561673498
 30
0.0
 10
239.1754095539214
 20
-15.69895561673498
 30
0.0
 10
239.1754095539214
 20
-15.69895561673498
 30
0.0
 10
235.9259954922338
 20
-15.69895561673498
 30
0.0
 10
235.9259954922338
 20
-15.69895561673498
 30
0.0
 10
235.7881916728238
 20
-15.69895561673498
 30
0.0
 10
235.6772595981988
 20
-15.80988769136003
 30
0.0
 10
235.6772595981988
 20
-15.94838052986707
 30
0.0
 10
235.6772595981988
 20
-15.94838052986707
 30
0.0
 10
235.6772595981988
 20
-19.19710557245767
 30
0.0
 10
235.6772595981988
 20
-19.19710557245767
 30
0.0
 10
235.6772595981988
 20
-19.33422037277061
 30
0.0
 10
235.7881916728238
 20
-19.44653048558976
 30
0.0
 10
235.9259954922338
 20
-19.44653048558976
 30
0.0
 10
235.9259954922338
 20
-19.44653048558976
 30
0.0
 10
239.1754095539214
 20
-19.44653048558976
 30
0.0
 10
239.1754095539214
 20
-19.44653048558976
 30
0.0
  0
HATCH
  5
209
330
1F
100
AcDbEntity
  8
\U+30D5\U+30A9\U+30FC\U+30DE\U+30C3\U+30C8
 62
     7
100
AcDbHatch
 10
0.0
 20
0.0
 30
0.0
210
0.0
220
0.0
230
1.0
  2
SOLID
 70
     1
 71
     0
 91
        1
 92
        1
 93
        1
 72
     4
 94
        3
 73
     0
 74
     1
 95
       29
 96
       25
 40
0.0
 40
0.0
 40
0.0
 40
0.0
 40
1.0
 40
1.0
 40
1.0
 40
2.0
 40
2.0
 40
2.0
 40
3.0
 40
3.0
 40
3.0
 40
4.0
 40
4.0
 40
4.0
 40
5.0
 40
5.0
 40
5.0
 40
6.0
 40
6.0
 40
6.0
 40
7.0
 40
7.0
 40
7.0
 40
8.0
 40
8.0
 40
8.0
 40
8.0
 10
239.1754095539214
 20
-19.44653048558976
 10
239.3125243542344
 20
-19.44653048558976
 10
239.4248344670535
 20
-19.33422037277061
 10
239.4248344670535
 20
-19.19710557245767
 10
239.4248344670535
 20
-19.19710557245767
 10
239.4248344670535
 20
-15.94838052986707
 10
239.4248344670535
 20
-15.94838052986707
 10
239.4248344670535
 20
-15.80988769136003
 10
239.3125243542344
 20
-15.69895561673498
 10
239.1754095539214
 20
-15.69895561673498
 10
239.1754095539214
 20
-15.69895561673498
 10
235.9259954922338
 20
-15.69895561673498
 10
235.9259954922338
 20
-15.69895561673498
 10
235.7881916728238
 20
-15.69895561673498
 10
235.6772595981988
 20
-15.80988769136003
 10
235.6772595981988
 20
-15.94838052986707
 10
235.6772595981988
 20
-15.94838052986707
 10
235.6772595981988
 20
-19.19710557245767
 10
235.6772595981988
 20
-19.19710557245767
 10
235.6772595981988
 20
-19.33422037277061
 10
235.7881916728238
 20
-19.44653048558976
 10
235.9259954922338
 20
-19.44653048558976
 10
235.9259954922338
 20
-19.44653048558976
 10
239.1754095539214
 20
-19.44653048558976
 10
239.1754095539214
 20
-19.44653048558976
 97
        0
 75
     2
 76
     1
 98
        0
  0
SPLINE
  5
20A
330
1F
100
AcDbEntity
  8
\U+30D5\U+30A9\U+30FC\U+30DE\U+30C3\U+30C8
370
     0
100
AcDbSpline
210
0.0
220
0.0
230
1.0
 70
    11
 71
     3
 72
    29
 73
    25
 74
     0
 42
0.0000000001
 43
0.0000000001
 40
0.0
 40
0.0
 40
0.0
 40
0.0
 40
1.0
 40
1.0
 40
1.0
 40
2.0
 40
2.0
 40
2.0
 40
3.0
 40
3.0
 40
3.0
 40
4.0
 40
4.0
 40
4.0
 40
5.0
 40
5.0
 40
5.0
 40
6.0
 40
6.0
 40
6.0
 40
7.0
 40
7.0
 40
7.0
 40
8.0
 40
8.0
 40
8.0
 40
8.0
 10
231.6761257016296
 20
-26.9458143378816
 30
0.0
 10
231.8139295210396
 20
-26.9458143378816
 30
0.0
 10
231.9248615956646
 20
-26.83384873461099
 30
0.0
 10
231.9248615956646
 20
-26.69570040565247
 30
0.0
 10
231.9248615956646
 20
-26.69570040565247
 30
0.0
 10
231.9248615956646
 20
-23.44731987261039
 30
0.0
 10
231.9248615956646
 20
-23.44731987261039
 30
0.0
 10
231.9248615956646
 20
-23.31020507229745
 30
0.0
 10
231.8139295210396
 20
-23.19823946902683
 30
0.0
 10
231.6761257016296
 20
-23.19823946902683
 30
0.0
 10
231.6761257016296
 20
-23.19823946902683
 30
0.0
 10
228.427400659039
 20
-23.19823946902683
 30
0.0
 10
228.427400659039
 20
-23.19823946902683
 30
0.0
 10
228.2882188014349
 20
-23.19823946902683
 30
0.0
 10
228.1772867268099
 20
-23.31020507229745
 30
0.0
 10
228.1772867268099
 20
-23.44731987261039
 30
0.0
 10
228.1772867268099
 20
-23.44731987261039
 30
0.0
 10
228.1772867268099
 20
-26.69570040565247
 30
0.0
 10
228.1772867268099
 20
-26.69570040565247
 30
0.0
 10
228.1772867268099
 20
-26.83384873461099
 30
0.0
 10
228.2882188014349
 20
-26.9458143378816
 30
0.0
 10
228.427400659039
 20
-26.9458143378816
 30
0.0
 10
228.427400659039
 20
-26.9458143378816
 30
0.0
 10
231.6761257016296
 20
-26.9458143378816
 30
0.0
 10
231.6761257016296
 20
-26.9458143378816
 30
0.0
  0
HATCH
  5
20B
330
1F
100
AcDbEntity
  8
\U+30D5\U+30A9\U+30FC\U+30DE\U+30C3\U+30C8
 62
     7
100
AcDbHatch
 10
0.0
 20
0.0
 30
0.0
210
0.0
220
0.0
230
1.0
  2
SOLID
 70
     1
 71
     0
 91
        1
 92
        1
 93
        1
 72
     4
 94
        3
 73
     0
 74
     1
 95
       29
 96
       25
 40
0.0
 40
0.0
 40
0.0
 40
0.0
 40
1.0
 40
1.0
 40
1.0
 40
2.0
 40
2.0
 40
2.0
 40
3.0
 40
3.0
 40
3.0
 40
4.0
 40
4.0
 40
4.0
 40
5.0
 40
5.0
 40
5.0
 40
6.0
 40
6.0
 40
6.0
 40
7.0
 40
7.0
 40
7.0
 40
8.0
 40
8.0
 40
8.0
 40
8.0
 10
231.6761257016296
 20
-26.9458143378816
 10
231.8139295210396
 20
-26.9458143378816
 10
231.9248615956646
 20
-26.83384873461099
 10
231.9248615956646
 20
-26.69570040565247
 10
231.9248615956646
 20
-26.69570040565247
 10
231.9248615956646
 20
-23.44731987261039
 10
231.9248615956646
 20
-23.44731987261039
 10
231.9248615956646
 20
-23.31020507229745
 10
231.8139295210396
 20
-23.19823946902683
 10
231.6761257016296
 20
-23.19823946902683
 10
231.6761257016296
 20
-23.19823946902683
 10
228.427400659039
 20
-23.19823946902683
 10
228.427400659039
 20
-23.19823946902683
 10
228.2882188014349
 20
-23.19823946902683
 10
228.1772867268099
 20
-23.31020507229745
 10
228.1772867268099
 20
-23.44731987261039
 10
228.1772867268099
 20
-23.44731987261039
 10
228.1772867268099
 20
-26.69570040565247
 10
228.1772867268099
 20
-26.69570040565247
 10
228.1772867268099
 20
-26.83384873461099
 10
228.2882188014349
 20
-26.9458143378816
 10
228.427400659039
 20
-26.9458143378816
 10
228.427400659039
 20
-26.9458143378816
 10
231.6761257016296
 20
-26.9458143378816
 10
231.6761257016296
 20
-26.9458143378816
 97
        0
 75
     2
 76
     1
 98
        0
  0
MTEXT
  5
20C
330
1F
100
AcDbEntity
  8
\U+30D5\U+30A9\U+30FC\U+30DE\U+30C3\U+30C8
 62
     7
100
AcDbMText
 10
284.5107990825181
 20
-21.23729111882262
 30
0.0
 40
2.604209742848704
 41
0.0
 71
     7
 72
     1
  1
\fHGPGothicE|b0|i0|c0|p34;\W1;和歌山県海南市南赤坂２０-１
 73
     1
 44
1.0
  0
MTEXT
  5
20D
330
1F
100
AcDbEntity
  8
\U+30D5\U+30A9\U+30FC\U+30DE\U+30C3\U+30C8
 62
     7
100
AcDbMText
 10
285.0106824374279
 20
-25.77241481560551
 30
0.0
 40
2.604209742848704
 41
0.0
 71
     7
 72
     1
  1
\fHGPGothicE|b0|i0|c0|p34;\W1;ＴＥＬ.  
 73
     1
 44
1.0
  0
MTEXT
  5
20E
330
1F
100
AcDbEntity
  8
\U+30D5\U+30A9\U+30FC\U+30DE\U+30C3\U+30C8
 62
     7
100
AcDbMText
 10
285.5105657923377
 20
-30.30753851238839
 30
0.0
 40
2.604209742848704
 41
0.0
 71
     7
 72
     1
  1
\fHGPGothicE|b0|i0|c0|p34;\W0.99;ＦＡＸ\W1;. 
 73
     1
 44
1.0
  0
MTEXT
  5
20F
330
1F
100
AcDbEntity
  8
\U+30D5\U+30A9\U+30FC\U+30DE\U+30C3\U+30C8
 62
     7
100
AcDbMText
 10
297.0826415272919
 20
-26.24645995437589
 30
0.0
 40
2.604209742848704
 41
0.0
 71
     7
 72
     1
  1
\fHGPGothicE|b0|i0|c0|p34;\W1;０７３-４８２-４１２８
 73
     1
 44
1.0
  0
MTEXT
  5
210
330
1F
100
AcDbEntity
  8
\U+30D5\U+30A9\U+30FC\U+30DE\U+30C3\U+30C8
 62
     7
100
AcDbMText
 10
327.5417642410312
 20
-26.24645995437589
 30
0.0
 40
2.604209742848704
 41
0.0
 71
     7
 72
     1
  1
\fHGPGothicE|b0|i0|c0|p34;\W1;（代）
 73
     1
 44
1.0
  0
MTEXT
  5
211
330
1F
100
AcDbEntity
  8
\U+30D5\U+30A9\U+30FC\U+30DE\U+30C3\U+30C8
 62
     7
100
AcDbMText
 10
327.5417642410312
 20
-30.78158365115877
 30
0.0
 40
2.604209742848704
 41
0.0
 71
     7
 72
     1
  1
\fHGPGothicE|b0|i0|c0|p34;\W1;（代）
 73
     1
 44
1.0
  0
MTEXT
  5
212
330
1F
100
AcDbEntity
  8
\U+30D5\U+30A9\U+30FC\U+30DE\U+30C3\U+30C8
 62
     7
100
AcDbMText
 10
297.0826415272919
 20
-30.78158365115877
 30
0.0
 40
2.604209742848704
 41
0.0
 71
     7
 72
     1
  1
\fHGPGothicE|b0|i0|c0|p34;\W1;０７３-４８６-２５６０
 73
     1
 44
1.0
  0
SPLINE
  5
213
330
1F
100
AcDbEntity
  8
\U+30D5\U+30A9\U+30FC\U+30DE\U+30C3\U+30C8
370
     0
100
AcDbSpline
210
0.0
220
0.0
230
1.0
 70
    11
 71
     3
 72
    23
 73
    19
 74
     0
 42
0.0000000001
 43
0.0000000001
 40
0.0
 40
0.0
 40
0.0
 40
0.0
 40
1.0
 40
1.0
 40
1.0
 40
2.0
 40
2.0
 40
2.0
 40
3.0
 40
3.0
 40
3.0
 40
4.0
 40
4.0
 40
4.0
 40
5.0
 40
5.0
 40
5.0
 40
6.0
 40
6.0
 40
6.0
 40
6.0
 10
286.7308186132132
 20
-13.58263346014601
 30
0.0
 10
286.7308186132132
 20
-13.58263346014601
 30
0.0
 10
286.7308186132132
 20
-14.40807833841187
 30
0.0
 10
286.7308186132132
 20
-14.40807833841187
 30
0.0
 10
286.6302218250439
 20
-14.27785372906943
 30
0.0
 10
286.3208522504684
 20
-13.86788736632469
 30
0.0
 10
286.1665119727292
 20
-13.48823784385016
 30
0.0
 10
286.1665119727292
 20
-13.48823784385016
 30
0.0
 10
286.1665119727292
 20
-13.22709960606823
 30
0.0
 10
286.1665119727292
 20
-13.22709960606823
 30
0.0
 10
286.1665119727292
 20
-13.22709960606823
 30
0.0
 10
286.7122150975928
 20
-13.22709960606823
 30
0.0
 10
286.7122150975928
 20
-13.22709960606823
 30
0.0
 10
286.7122150975928
 20
-13.22709960606823
 30
0.0
 10
287.169723778034
 20
-13.58263346014601
 30
0.0
 10
287.169723778034
 20
-13.58263346014601
 30
0.0
 10
287.169723778034
 20
-13.58263346014601
 30
0.0
 10
286.7308186132132
 20
-13.58263346014601
 30
0.0
 10
286.7308186132132
 20
-13.58263346014601
 30
0.0
  0
SPLINE
  5
214
330
1F
100
AcDbEntity
  8
\U+30D5\U+30A9\U+30FC\U+30DE\U+30C3\U+30C8
370
     0
100
AcDbSpline
210
0.0
220
0.0
230
1.0
 70
    11
 71
     3
 72
   128
 73
   124
 74
     0
 42
0.0000000001
 43
0.0000000001
 40
0.0
 40
0.0
 40
0.0
 40
0.0
 40
1.0
 40
1.0
 40
1.0
 40
2.0
 40
2.0
 40
2.0
 40
3.0
 40
3.0
 40
3.0
 40
4.0
 40
4.0
 40
4.0
 40
5.0
 40
5.0
 40
5.0
 40
6.0
 40
6.0
 40
6.0
 40
7.0
 40
7.0
 40
7.0
 40
8.0
 40
8.0
 40
8.0
 40
9.0
 40
9.0
 40
9.0
 40
10.0
 40
10.0
 40
10.0
 40
11.0
 40
11.0
 40
11.0
 40
12.0
 40
12.0
 40
12.0
 40
13.0
 40
13.0
 40
13.0
 40
14.0
 40
14.0
 40
14.0
 40
15.0
 40
15.0
 40
15.0
 40
16.0
 40
16.0
 40
16.0
 40
17.0
 40
17.0
 40
17.0
 40
18.0
 40
18.0
 40
18.0
 40
19.0
 40
19.0
 40
19.0
 40
20.0
 40
20.0
 40
20.0
 40
21.0
 40
21.0
 40
21.0
 40
22.0
 40
22.0
 40
22.0
 40
23.0
 40
23.0
 40
23.0
 40
24.0
 40
24.0
 40
24.0
 40
25.0
 40
25.0
 40
25.0
 40
26.0
 40
26.0
 40
26.0
 40
27.0
 40
27.0
 40
27.0
 40
28.0
 40
28.0
 40
28.0
 40
29.0
 40
29.0
 40
29.0
 40
30.0
 40
30.0
 40
30.0
 40
31.0
 40
31.0
 40
31.0
 40
32.0
 40
32.0
 40
32.0
 40
33.0
 40
33.0
 40
33.0
 40
34.0
 40
34.0
 40
34.0
 40
35.0
 40
35.0
 40
35.0
 40
36.0
 40
36.0
 40
36.0
 40
37.0
 40
37.0
 40
37.0
 40
38.0
 40
38.0
 40
38.0
 40
39.0
 40
39.0
 40
39.0
 40
40.0
 40
40.0
 40
40.0
 40
41.0
 40
41.0
 40
41.0
 40
41.0
 10
287.7925970417671
 20
-12.17634548306703
 30
0.0
 10
287.8532307223076
 20
-11.90900607341164
 30
0.0
 10
287.8821695243836
 20
-11.76155598664294
 30
0.0
 10
287.9117973455568
 20
-11.6120388425831
 30
0.0
 10
287.9117973455568
 20
-11.6120388425831
 30
0.0
 10
287.1104681356877
 20
-11.54106987558696
 30
0.0
 10
287.1104681356877
 20
-11.54106987558696
 30
0.0
 10
287.0277858440417
 20
-12.15291883376733
 30
0.0
 10
286.8431287260323
 20
-12.56219617741501
 30
0.0
 10
286.7308186132132
 20
-12.77648111659755
 30
0.0
 10
286.7308186132132
 20
-12.77648111659755
 30
0.0
 10
286.7308186132132
 20
-12.40785589967581
 30
0.0
 10
286.7308186132132
 20
-12.40785589967581
 30
0.0
 10
286.7308186132132
 20
-12.40785589967581
 30
0.0
 10
286.1665119727292
 20
-12.40785589967581
 30
0.0
 10
286.1665119727292
 20
-12.40785589967581
 30
0.0
 10
286.1665119727292
 20
-12.40785589967581
 30
0.0
 10
286.1665119727292
 20
-11.42875976276781
 30
0.0
 10
286.1665119727292
 20
-11.42875976276781
 30
0.0
 10
286.1665119727292
 20
-11.42875976276781
 30
0.0
 10
285.3479572854338
 20
-11.42875976276781
 30
0.0
 10
285.3479572854338
 20
-11.42875976276781
 30
0.0
 10
285.3479572854338
 20
-11.42875976276781
 30
0.0
 10
285.3479572854338
 20
-12.40785589967581
 30
0.0
 10
285.3479572854338
 20
-12.40785589967581
 30
0.0
 10
285.3479572854338
 20
-12.40785589967581
 30
0.0
 10
284.6231091953373
 20
-12.40785589967581
 30
0.0
 10
284.6231091953373
 20
-12.40785589967581
 30
0.0
 10
284.6231091953373
 20
-12.40785589967581
 30
0.0
 10
284.6231091953373
 20
-13.22709960606823
 30
0.0
 10
284.6231091953373
 20
-13.22709960606823
 30
0.0
 10
284.6231091953373
 20
-13.22709960606823
 30
0.0
 10
285.2825004712141
 20
-13.22709960606823
 30
0.0
 10
285.2825004712141
 20
-13.22709960606823
 30
0.0
 10
285.0151610615587
 20
-14.15865342527978
 30
0.0
 10
284.7540228237768
 20
-14.55001627240416
 30
0.0
 10
284.5107990825181
 20
-14.85318467510615
 30
0.0
 10
284.5107990825181
 20
-14.85318467510615
 30
0.0
 10
284.7898518168234
 20
-16.02176106370289
 30
0.0
 10
284.7898518168234
 20
-16.02176106370289
 30
0.0
 10
284.9324787699127
 20
-15.8150553345879
 30
0.0
 10
285.1515868427746
 20
-15.47674695793637
 30
0.0
 10
285.3479572854338
 20
-14.8001302046333
 30
0.0
 10
285.3479572854338
 20
-14.8001302046333
 30
0.0
 10
285.3479572854338
 20
-17.04977755650145
 30
0.0
 10
285.3479572854338
 20
-17.04977755650145
 30
0.0
 10
285.3479572854338
 20
-17.04977755650145
 30
0.0
 10
286.1665119727292
 20
-17.04977755650145
 30
0.0
 10
286.1665119727292
 20
-17.04977755650145
 30
0.0
 10
286.1665119727292
 20
-17.04977755650145
 30
0.0
 10
286.1665119727292
 20
-14.57413194080091
 30
0.0
 10
286.1665119727292
 20
-14.57413194080091
 30
0.0
 10
286.2257676150755
 20
-14.8166666629625
 30
0.0
 10
286.2560844553457
 20
-14.9420681386256
 30
0.0
 10
286.5048203493807
 20
-15.40508897184317
 30
0.0
 10
286.5048203493807
 20
-15.40508897184317
 30
0.0
 10
287.0160725193919
 20
-14.72847221854011
 30
0.0
 10
287.0160725193919
 20
-14.72847221854011
 30
0.0
 10
286.9265000367753
 20
-14.64578992689411
 30
0.0
 10
286.8617322416526
 20
-14.57964409357731
 30
0.0
 10
286.742531937863
 20
-14.43219400680862
 30
0.0
 10
286.742531937863
 20
-14.43219400680862
 30
0.0
 10
287.7925970417671
 20
-14.43219400680862
 30
0.0
 10
287.7925970417671
 20
-14.43219400680862
 30
0.0
 10
287.3068385783469
 20
-15.31689452742078
 30
0.0
 10
286.70119079204
 20
-15.72617187106846
 30
0.0
 10
286.4572780316843
 20
-15.88051214880765
 30
0.0
 10
286.4572780316843
 20
-15.88051214880765
 30
0.0
 10
286.9795545072482
 20
-16.71698133262631
 30
0.0
 10
286.9795545072482
 20
-16.71698133262631
 30
0.0
 10
287.4542886651156
 20
-16.28358832058188
 30
0.0
 10
287.8291150539108
 20
-15.7792263415413
 30
0.0
 10
288.1012775972455
 20
-15.19149305175768
 30
0.0
 10
288.1012775972455
 20
-15.19149305175768
 30
0.0
 10
288.1012775972455
 20
-17.04977755650145
 30
0.0
 10
288.1012775972455
 20
-17.04977755650145
 30
0.0
 10
288.1012775972455
 20
-17.04977755650145
 30
0.0
 10
288.9501491248111
 20
-17.04977755650145
 30
0.0
 10
288.9501491248111
 20
-17.04977755650145
 30
0.0
 10
288.9501491248111
 20
-17.04977755650145
 30
0.0
 10
288.9501491248111
 20
-15.32722981387653
 30
0.0
 10
288.9501491248111
 20
-15.32722981387653
 30
0.0
 10
289.1995740379432
 20
-15.85570746131385
 30
0.0
 10
289.5385714336917
 20
-16.34353298202523
 30
0.0
 10
290.0015922669093
 20
-16.70595702707351
 30
0.0
 10
290.0015922669093
 20
-16.70595702707351
 30
0.0
 10
290.3509249491137
 20
-15.70205620267171
 30
0.0
 10
290.3509249491137
 20
-15.70205620267171
 30
0.0
 10
290.0897867113317
 20
-15.52428927563282
 30
0.0
 10
289.6267658781142
 20
-15.19149305175768
 30
0.0
 10
289.1940618851668
 20
-14.43219400680862
 30
0.0
 10
289.1940618851668
 20
-14.43219400680862
 30
0.0
 10
290.2441269890709
 20
-14.43219400680862
 30
0.0
 10
290.2441269890709
 20
-14.43219400680862
 30
0.0
 10
290.2441269890709
 20
-14.43219400680862
 30
0.0
 10
290.2441269890709
 20
-13.58263346014601
 30
0.0
 10
290.2441269890709
 20
-13.58263346014601
 30
0.0
 10
290.2441269890709
 20
-13.58263346014601
 30
0.0
 10
288.9501491248111
 20
-13.58263346014601
 30
0.0
 10
288.9501491248111
 20
-13.58263346014601
 30
0.0
 10
288.9501491248111
 20
-13.58263346014601
 30
0.0
 10
288.9501491248111
 20
-13.01901583875914
 30
0.0
 10
288.9501491248111
 20
-13.01901583875914
 30
0.0
 10
288.9501491248111
 20
-13.01901583875914
 30
0.0
 10
290.1552435255515
 20
-13.01901583875914
 30
0.0
 10
290.1552435255515
 20
-13.01901583875914
 30
0.0
 10
290.1552435255515
 20
-13.01901583875914
 30
0.0
 10
290.1552435255515
 20
-12.17634548306703
 30
0.0
 10
290.1552435255515
 20
-12.17634548306703
 30
0.0
 10
290.1552435255515
 20
-12.17634548306703
 30
0.0
 10
288.9501491248111
 20
-12.17634548306703
 30
0.0
 10
288.9501491248111
 20
-12.17634548306703
 30
0.0
 10
288.9501491248111
 20
-12.17634548306703
 30
0.0
 10
288.9501491248111
 20
-11.42875976276781
 30
0.0
 10
288.9501491248111
 20
-11.42875976276781
 30
0.0
 10
288.9501491248111
 20
-11.42875976276781
 30
0.0
 10
288.1012775972455
 20
-11.42875976276781
 30
0.0
 10
288.1012775972455
 20
-11.42875976276781
 30
0.0
 10
288.1012775972455
 20
-11.42875976276781
 30
0.0
 10
288.1012775972455
 20
-12.17634548306703
 30
0.0
 10
288.1012775972455
 20
-12.17634548306703
 30
0.0
 10
288.1012775972455
 20
-12.17634548306703
 30
0.0
 10
287.7925970417671
 20
-12.17634548306703
 30
0.0
 10
287.7925970417671
 20
-12.17634548306703
 30
0.0
  0
SPLINE
  5
215
330
1F
100
AcDbEntity
  8
\U+30D5\U+30A9\U+30FC\U+30DE\U+30C3\U+30C8
370
     0
100
AcDbSpline
210
0.0
220
0.0
230
1.0
 70
    11
 71
     3
 72
    17
 73
    13
 74
     0
 42
0.0000000001
 43
0.0000000001
 40
0.0
 40
0.0
 40
0.0
 40
0.0
 40
1.0
 40
1.0
 40
1.0
 40
2.0
 40
2.0
 40
2.0
 40
3.0
 40
3.0
 40
3.0
 40
4.0
 40
4.0
 40
4.0
 40
4.0
 10
287.2406927450301
 20
-13.58263346014601
 30
0.0
 10
287.3302652276466
 20
-13.45240885080356
 30
0.0
 10
287.4370631876894
 20
-13.26223958001777
 30
0.0
 10
287.5383489949557
 20
-13.01901583875914
 30
0.0
 10
287.5383489949557
 20
-13.01901583875914
 30
0.0
 10
288.1012775972455
 20
-13.01901583875914
 30
0.0
 10
288.1012775972455
 20
-13.01901583875914
 30
0.0
 10
288.1012775972455
 20
-13.01901583875914
 30
0.0
 10
288.1012775972455
 20
-13.58263346014601
 30
0.0
 10
288.1012775972455
 20
-13.58263346014601
 30
0.0
 10
288.1012775972455
 20
-13.58263346014601
 30
0.0
 10
287.2406927450301
 20
-13.58263346014601
 30
0.0
 10
287.2406927450301
 20
-13.58263346014601
 30
0.0
  0
HATCH
  5
216
330
1F
100
AcDbEntity
  8
\U+30D5\U+30A9\U+30FC\U+30DE\U+30C3\U+30C8
 62
     7
100
AcDbHatch
 10
0.0
 20
0.0
 30
0.0
210
0.0
220
0.0
230
1.0
  2
SOLID
 70
     1
 71
     0
 91
        3
 92
        1
 93
        1
 72
     4
 94
        3
 73
     0
 74
     1
 95
       17
 96
       13
 40
0.0
 40
0.0
 40
0.0
 40
0.0
 40
1.0
 40
1.0
 40
1.0
 40
2.0
 40
2.0
 40
2.0
 40
3.0
 40
3.0
 40
3.0
 40
4.0
 40
4.0
 40
4.0
 40
4.0
 10
287.2406927450301
 20
-13.58263346014601
 10
287.3302652276466
 20
-13.45240885080356
 10
287.4370631876894
 20
-13.26223958001777
 10
287.5383489949557
 20
-13.01901583875914
 10
287.5383489949557
 20
-13.01901583875914
 10
288.1012775972455
 20
-13.01901583875914
 10
288.1012775972455
 20
-13.01901583875914
 10
288.1012775972455
 20
-13.01901583875914
 10
288.1012775972455
 20
-13.58263346014601
 10
288.1012775972455
 20
-13.58263346014601
 10
288.1012775972455
 20
-13.58263346014601
 10
287.2406927450301
 20
-13.58263346014601
 10
287.2406927450301
 20
-13.58263346014601
 97
        0
 92
        1
 93
        2
 72
     4
 94
        3
 73
     0
 74
     0
 95
       23
 96
       19
 40
0.0
 40
0.0
 40
0.0
 40
0.0
 40
0.3527777776895833
 40
0.3527777776895833
 40
0.3527777776895833
 40
0.7055555553791667
 40
0.7055555553791667
 40
0.7055555553791667
 40
1.05833333306875
 40
1.05833333306875
 40
1.05833333306875
 40
1.411111110758333
 40
1.411111110758333
 40
1.411111110758333
 40
1.763888888447917
 40
1.763888888447917
 40
1.763888888447917
 40
2.1166666661375
 40
2.1166666661375
 40
2.1166666661375
 40
2.1166666661375
 10
286.7308186132132
 20
-13.58263346014601
 10
286.7308186132132
 20
-13.58263346014601
 10
286.7308186132132
 20
-14.40807833841187
 10
286.7308186132132
 20
-14.40807833841187
 10
286.6302218250439
 20
-14.27785372906943
 10
286.3208522504684
 20
-13.86788736632469
 10
286.1665119727292
 20
-13.48823784385016
 10
286.1665119727292
 20
-13.48823784385016
 10
286.1665119727292
 20
-13.22709960606823
 10
286.1665119727292
 20
-13.22709960606823
 10
286.1665119727292
 20
-13.22709960606823
 10
286.7122150975928
 20
-13.22709960606823
 10
286.7122150975928
 20
-13.22709960606823
 10
286.7122150975928
 20
-13.22709960606823
 10
287.169723778034
 20
-13.58263346014601
 10
287.169723778034
 20
-13.58263346014601
 10
287.169723778034
 20
-13.58263346014601
 10
286.7308186132132
 20
-13.58263346014601
 10
286.7308186132132
 20
-13.58263346014601
 72
     1
 10
286.7308186132132
 20
-13.58263346014601
 11
286.7308186132132
 21
-13.58263346014601
 97
        0
 92
        1
 93
        2
 72
     4
 94
        3
 73
     0
 74
     0
 95
      128
 96
      124
 40
0.0
 40
0.0
 40
0.0
 40
0.0
 40
0.3527777776895833
 40
0.3527777776895833
 40
0.3527777776895833
 40
0.7055555553791667
 40
0.7055555553791667
 40
0.7055555553791667
 40
1.05833333306875
 40
1.05833333306875
 40
1.05833333306875
 40
1.411111110758333
 40
1.411111110758333
 40
1.411111110758333
 40
1.763888888447917
 40
1.763888888447917
 40
1.763888888447917
 40
2.1166666661375
 40
2.1166666661375
 40
2.1166666661375
 40
2.469444443827083
 40
2.469444443827083
 40
2.469444443827083
 40
2.822222221516667
 40
2.822222221516667
 40
2.822222221516667
 40
3.17499999920625
 40
3.17499999920625
 40
3.17499999920625
 40
3.527777776895833
 40
3.527777776895833
 40
3.527777776895833
 40
3.880555554585417
 40
3.880555554585417
 40
3.880555554585417
 40
4.233333332275
 40
4.233333332275
 40
4.233333332275
 40
4.586111109964584
 40
4.586111109964584
 40
4.586111109964584
 40
4.938888887654167
 40
4.938888887654167
 40
4.938888887654167
 40
5.29166666534375
 40
5.29166666534375
 40
5.29166666534375
 40
5.644444443033334
 40
5.644444443033334
 40
5.644444443033334
 40
5.997222220722917
 40
5.997222220722917
 40
5.997222220722917
 40
6.349999998412501
 40
6.349999998412501
 40
6.349999998412501
 40
6.702777776102083
 40
6.702777776102083
 40
6.702777776102083
 40
7.055555553791667
 40
7.055555553791667
 40
7.055555553791667
 40
7.40833333148125
 40
7.40833333148125
 40
7.40833333148125
 40
7.761111109170834
 40
7.761111109170834
 40
7.761111109170834
 40
8.113888886860417
 40
8.113888886860417
 40
8.113888886860417
 40
8.46666666455
 40
8.46666666455
 40
8.46666666455
 40
8.819444442239584
 40
8.819444442239584
 40
8.819444442239584
 40
9.172222219929168
 40
9.172222219929168
 40
9.172222219929168
 40
9.52499999761875
 40
9.52499999761875
 40
9.52499999761875
 40
9.877777775308333
 40
9.877777775308333
 40
9.877777775308333
 40
10.23055555299792
 40
10.23055555299792
 40
10.23055555299792
 40
10.5833333306875
 40
10.5833333306875
 40
10.5833333306875
 40
10.93611110837708
 40
10.93611110837708
 40
10.93611110837708
 40
11.28888888606667
 40
11.28888888606667
 40
11.28888888606667
 40
11.64166666375625
 40
11.64166666375625
 40
11.64166666375625
 40
11.99444444144583
 40
11.99444444144583
 40
11.99444444144583
 40
12.34722221913542
 40
12.34722221913542
 40
12.34722221913542
 40
12.699999996825
 40
12.699999996825
 40
12.699999996825
 40
13.05277777451458
 40
13.05277777451458
 40
13.05277777451458
 40
13.40555555220417
 40
13.40555555220417
 40
13.40555555220417
 40
13.75833332989375
 40
13.75833332989375
 40
13.75833332989375
 40
14.11111110758333
 40
14.11111110758333
 40
14.11111110758333
 40
14.46388888527292
 40
14.46388888527292
 40
14.46388888527292
 40
14.46388888527292
 10
287.7925970417671
 20
-12.17634548306703
 10
287.8532307223076
 20
-11.90900607341164
 10
287.8821695243836
 20
-11.76155598664294
 10
287.9117973455568
 20
-11.6120388425831
 10
287.9117973455568
 20
-11.6120388425831
 10
287.1104681356877
 20
-11.54106987558696
 10
287.1104681356877
 20
-11.54106987558696
 10
287.0277858440417
 20
-12.15291883376733
 10
286.8431287260323
 20
-12.56219617741501
 10
286.7308186132132
 20
-12.77648111659755
 10
286.7308186132132
 20
-12.77648111659755
 10
286.7308186132132
 20
-12.40785589967581
 10
286.7308186132132
 20
-12.40785589967581
 10
286.7308186132132
 20
-12.40785589967581
 10
286.1665119727292
 20
-12.40785589967581
 10
286.1665119727292
 20
-12.40785589967581
 10
286.1665119727292
 20
-12.40785589967581
 10
286.1665119727292
 20
-11.42875976276781
 10
286.1665119727292
 20
-11.42875976276781
 10
286.1665119727292
 20
-11.42875976276781
 10
285.3479572854338
 20
-11.42875976276781
 10
285.3479572854338
 20
-11.42875976276781
 10
285.3479572854338
 20
-11.42875976276781
 10
285.3479572854338
 20
-12.40785589967581
 10
285.3479572854338
 20
-12.40785589967581
 10
285.3479572854338
 20
-12.40785589967581
 10
284.6231091953373
 20
-12.40785589967581
 10
284.6231091953373
 20
-12.40785589967581
 10
284.6231091953373
 20
-12.40785589967581
 10
284.6231091953373
 20
-13.22709960606823
 10
284.6231091953373
 20
-13.22709960606823
 10
284.6231091953373
 20
-13.22709960606823
 10
285.2825004712141
 20
-13.22709960606823
 10
285.2825004712141
 20
-13.22709960606823
 10
285.0151610615587
 20
-14.15865342527978
 10
284.7540228237768
 20
-14.55001627240416
 10
284.5107990825181
 20
-14.85318467510615
 10
284.5107990825181
 20
-14.85318467510615
 10
284.7898518168234
 20
-16.02176106370289
 10
284.7898518168234
 20
-16.02176106370289
 10
284.9324787699127
 20
-15.8150553345879
 10
285.1515868427746
 20
-15.47674695793637
 10
285.3479572854338
 20
-14.8001302046333
 10
285.3479572854338
 20
-14.8001302046333
 10
285.3479572854338
 20
-17.04977755650145
 10
285.3479572854338
 20
-17.04977755650145
 10
285.3479572854338
 20
-17.04977755650145
 10
286.1665119727292
 20
-17.04977755650145
 10
286.1665119727292
 20
-17.04977755650145
 10
286.1665119727292
 20
-17.04977755650145
 10
286.1665119727292
 20
-14.57413194080091
 10
286.1665119727292
 20
-14.57413194080091
 10
286.2257676150755
 20
-14.8166666629625
 10
286.2560844553457
 20
-14.9420681386256
 10
286.5048203493807
 20
-15.40508897184317
 10
286.5048203493807
 20
-15.40508897184317
 10
287.0160725193919
 20
-14.72847221854011
 10
287.0160725193919
 20
-14.72847221854011
 10
286.9265000367753
 20
-14.64578992689411
 10
286.8617322416526
 20
-14.57964409357731
 10
286.742531937863
 20
-14.43219400680862
 10
286.742531937863
 20
-14.43219400680862
 10
287.7925970417671
 20
-14.43219400680862
 10
287.7925970417671
 20
-14.43219400680862
 10
287.3068385783469
 20
-15.31689452742078
 10
286.70119079204
 20
-15.72617187106846
 10
286.4572780316843
 20
-15.88051214880765
 10
286.4572780316843
 20
-15.88051214880765
 10
286.9795545072482
 20
-16.71698133262631
 10
286.9795545072482
 20
-16.71698133262631
 10
287.4542886651156
 20
-16.28358832058188
 10
287.8291150539108
 20
-15.7792263415413
 10
288.1012775972455
 20
-15.19149305175768
 10
288.1012775972455
 20
-15.19149305175768
 10
288.1012775972455
 20
-17.04977755650145
 10
288.1012775972455
 20
-17.04977755650145
 10
288.1012775972455
 20
-17.04977755650145
 10
288.9501491248111
 20
-17.04977755650145
 10
288.9501491248111
 20
-17.04977755650145
 10
288.9501491248111
 20
-17.04977755650145
 10
288.9501491248111
 20
-15.32722981387653
 10
288.9501491248111
 20
-15.32722981387653
 10
289.1995740379432
 20
-15.85570746131385
 10
289.5385714336917
 20
-16.34353298202523
 10
290.0015922669093
 20
-16.70595702707351
 10
290.0015922669093
 20
-16.70595702707351
 10
290.3509249491137
 20
-15.70205620267171
 10
290.3509249491137
 20
-15.70205620267171
 10
290.0897867113317
 20
-15.52428927563282
 10
289.6267658781142
 20
-15.19149305175768
 10
289.1940618851668
 20
-14.43219400680862
 10
289.1940618851668
 20
-14.43219400680862
 10
290.2441269890709
 20
-14.43219400680862
 10
290.2441269890709
 20
-14.43219400680862
 10
290.2441269890709
 20
-14.43219400680862
 10
290.2441269890709
 20
-13.58263346014601
 10
290.2441269890709
 20
-13.58263346014601
 10
290.2441269890709
 20
-13.58263346014601
 10
288.9501491248111
 20
-13.58263346014601
 10
288.9501491248111
 20
-13.58263346014601
 10
288.9501491248111
 20
-13.58263346014601
 10
288.9501491248111
 20
-13.01901583875914
 10
288.9501491248111
 20
-13.01901583875914
 10
288.9501491248111
 20
-13.01901583875914
 10
290.1552435255515
 20
-13.01901583875914
 10
290.1552435255515
 20
-13.01901583875914
 10
290.1552435255515
 20
-13.01901583875914
 10
290.1552435255515
 20
-12.17634548306703
 10
290.1552435255515
 20
-12.17634548306703
 10
290.1552435255515
 20
-12.17634548306703
 10
288.9501491248111
 20
-12.17634548306703
 10
288.9501491248111
 20
-12.17634548306703
 10
288.9501491248111
 20
-12.17634548306703
 10
288.9501491248111
 20
-11.42875976276781
 10
288.9501491248111
 20
-11.42875976276781
 10
288.9501491248111
 20
-11.42875976276781
 10
288.1012775972455
 20
-11.42875976276781
 10
288.1012775972455
 20
-11.42875976276781
 10
288.1012775972455
 20
-11.42875976276781
 10
288.1012775972455
 20
-12.17634548306703
 10
288.1012775972455
 20
-12.17634548306703
 10
288.1012775972455
 20
-12.17634548306703
 10
287.7925970417671
 20
-12.17634548306703
 10
287.7925970417671
 20
-12.17634548306703
 72
     1
 10
287.7925970417671
 20
-12.17634548306703
 11
287.7925970417671
 21
-12.17634548306703
 97
        0
 75
     2
 76
     1
 98
        0
  0
SPLINE
  5
217
330
1F
100
AcDbEntity
  8
\U+30D5\U+30A9\U+30FC\U+30DE\U+30C3\U+30C8
370
     0
100
AcDbSpline
210
0.0
220
0.0
230
1.0
 70
    11
 71
     3
 72
    71
 73
    67
 74
     0
 42
0.0000000001
 43
0.0000000001
 40
0.0
 40
0.0
 40
0.0
 40
0.0
 40
1.0
 40
1.0
 40
1.0
 40
2.0
 40
2.0
 40
2.0
 40
3.0
 40
3.0
 40
3.0
 40
4.0
 40
4.0
 40
4.0
 40
5.0
 40
5.0
 40
5.0
 40
6.0
 40
6.0
 40
6.0
 40
7.0
 40
7.0
 40
7.0
 40
8.0
 40
8.0
 40
8.0
 40
9.0
 40
9.0
 40
9.0
 40
10.0
 40
10.0
 40
10.0
 40
11.0
 40
11.0
 40
11.0
 40
12.0
 40
12.0
 40
12.0
 40
13.0
 40
13.0
 40
13.0
 40
14.0
 40
14.0
 40
14.0
 40
15.0
 40
15.0
 40
15.0
 40
16.0
 40
16.0
 40
16.0
 40
17.0
 40
17.0
 40
17.0
 40
18.0
 40
18.0
 40
18.0
 40
19.0
 40
19.0
 40
19.0
 40
20.0
 40
20.0
 40
20.0
 40
21.0
 40
21.0
 40
21.0
 40
22.0
 40
22.0
 40
22.0
 40
22.0
 10
295.6164088887695
 20
-12.24111327818972
 30
0.0
 10
295.6164088887695
 20
-12.24111327818972
 30
0.0
 10
296.1738253382829
 20
-12.24111327818972
 30
0.0
 10
296.1738253382829
 20
-12.24111327818972
 30
0.0
 10
296.1738253382829
 20
-12.24111327818972
 30
0.0
 10
296.1738253382829
 20
-13.10238714950218
 30
0.0
 10
296.1738253382829
 20
-13.10238714950218
 30
0.0
 10
296.1738253382829
 20
-13.10238714950218
 30
0.0
 10
294.5236246008483
 20
-13.10238714950218
 30
0.0
 10
294.5236246008483
 20
-13.10238714950218
 30
0.0
 10
294.5601426129919
 20
-13.85066188889845
 30
0.0
 10
294.6428249046379
 20
-14.59824760919766
 30
0.0
 10
294.8798474740231
 20
-15.31000433645028
 30
0.0
 10
294.9397921354665
 20
-15.48777126348917
 30
0.0
 10
295.098955546885
 20
-15.90945095088375
 30
0.0
 10
295.2718993402445
 20
-15.90945095088375
 30
0.0
 10
295.4379529426336
 20
-15.90945095088375
 30
0.0
 10
295.7576578036648
 20
-15.50017360723607
 30
0.0
 10
295.8954616230748
 20
-15.10260958823824
 30
0.0
 10
295.8954616230748
 20
-15.10260958823824
 30
0.0
 10
296.2751111455493
 20
-16.05207790397309
 30
0.0
 10
296.2751111455493
 20
-16.05207790397309
 30
0.0
 10
296.1503986889833
 20
-16.39658745249807
 30
0.0
 10
295.8472302862813
 20
-17.06080186205424
 30
0.0
 10
295.2960150086413
 20
-17.06080186205424
 30
0.0
 10
295.016962274336
 20
-17.06080186205424
 30
0.0
 10
294.7317083681573
 20
-16.9071506034121
 30
0.0
 10
294.5711669185447
 20
-16.72800563817911
 30
0.0
 10
293.7105820663293
 20
-15.7792263415413
 30
0.0
 10
293.651326423983
 20
-14.05736761801344
 30
0.0
 10
293.6161864500335
 20
-13.10238714950218
 30
0.0
 10
293.6161864500335
 20
-13.10238714950218
 30
0.0
 10
290.576923212946
 20
-13.10238714950218
 30
0.0
 10
290.576923212946
 20
-13.10238714950218
 30
0.0
 10
290.576923212946
 20
-13.10238714950218
 30
0.0
 10
290.576923212946
 20
-12.24111327818972
 30
0.0
 10
290.576923212946
 20
-12.24111327818972
 30
0.0
 10
290.576923212946
 20
-12.24111327818972
 30
0.0
 10
293.5865586288603
 20
-12.24111327818972
 30
0.0
 10
293.5865586288603
 20
-12.24111327818972
 30
0.0
 10
293.5803574569869
 20
-12.15291883376733
 30
0.0
 10
293.568644132337
 20
-11.71883680262585
 30
0.0
 10
293.5624429604636
 20
-11.62444118633
 30
0.0
 10
293.5624429604636
 20
-11.5706976967601
 30
0.0
 10
293.5624429604636
 20
-11.52384439816071
 30
0.0
 10
293.5562417885901
 20
-11.41704643811796
 30
0.0
 10
293.5562417885901
 20
-11.41704643811796
 30
0.0
 10
294.506399123422
 20
-11.41704643811796
 30
0.0
 10
294.506399123422
 20
-11.41704643811796
 30
0.0
 10
294.5001979515486
 20
-11.88489040501489
 30
0.0
 10
294.5001979515486
 20
-12.02200520532783
 30
0.0
 10
294.506399123422
 20
-12.24111327818972
 30
0.0
 10
294.506399123422
 20
-12.24111327818972
 30
0.0
 10
295.0879312413322
 20
-12.24111327818972
 30
0.0
 10
295.0879312413322
 20
-12.24111327818972
 30
0.0
 10
294.933590963593
 20
-12.01580403345438
 30
0.0
 10
294.8026773351535
 20
-11.82563476266859
 30
0.0
 10
294.6545382292878
 20
-11.68989800054975
 30
0.0
 10
294.6545382292878
 20
-11.68989800054975
 30
0.0
 10
295.4207274652073
 20
-11.38052842597431
 30
0.0
 10
295.4207274652073
 20
-11.38052842597431
 30
0.0
 10
295.5089219096297
 20
-11.44667425929111
 30
0.0
 10
295.5860920484993
 20
-11.50041774886101
 30
0.0
 10
295.9967474303411
 20
-12.07505967580068
 30
0.0
 10
295.9967474303411
 20
-12.07505967580068
 30
0.0
 10
295.6164088887695
 20
-12.24111327818972
 30
0.0
 10
295.6164088887695
 20
-12.24111327818972
 30
0.0
  0
SPLINE
  5
218
330
1F
100
AcDbEntity
  8
\U+30D5\U+30A9\U+30FC\U+30DE\U+30C3\U+30C8
370
     0
100
AcDbSpline
210
0.0
220
0.0
230
1.0
 70
    11
 71
     3
 72
    44
 73
    40
 74
     0
 42
0.0000000001
 43
0.0000000001
 40
0.0
 40
0.0
 40
0.0
 40
0.0
 40
1.0
 40
1.0
 40
1.0
 40
2.0
 40
2.0
 40
2.0
 40
3.0
 40
3.0
 40
3.0
 40
4.0
 40
4.0
 40
4.0
 40
5.0
 40
5.0
 40
5.0
 40
6.0
 40
6.0
 40
6.0
 40
7.0
 40
7.0
 40
7.0
 40
8.0
 40
8.0
 40
8.0
 40
9.0
 40
9.0
 40
9.0
 40
10.0
 40
10.0
 40
10.0
 40
11.0
 40
11.0
 40
11.0
 40
12.0
 40
12.0
 40
12.0
 40
13.0
 40
13.0
 40
13.0
 40
13.0
 10
290.5238687424732
 20
-15.9873101088504
 30
0.0
 10
290.6361788552924
 20
-15.98110893697695
 30
0.0
 10
290.6954344976386
 20
-15.98110893697695
 30
0.0
 10
290.7726046365083
 20
-15.9749077651035
 30
0.0
 10
290.8973170930743
 20
-15.96870659323005
 30
0.0
 10
291.4967637075077
 20
-15.9156521227572
 30
0.0
 10
291.6338785078207
 20
-15.90945095088375
 30
0.0
 10
291.6338785078207
 20
-15.90945095088375
 30
0.0
 10
291.6338785078207
 20
-14.47973632450507
 30
0.0
 10
291.6338785078207
 20
-14.47973632450507
 30
0.0
 10
291.6338785078207
 20
-14.47973632450507
 30
0.0
 10
290.6892333257652
 20
-14.47973632450507
 30
0.0
 10
290.6892333257652
 20
-14.47973632450507
 30
0.0
 10
290.6892333257652
 20
-14.47973632450507
 30
0.0
 10
290.6892333257652
 20
-13.61915147228966
 30
0.0
 10
290.6892333257652
 20
-13.61915147228966
 30
0.0
 10
290.6892333257652
 20
-13.61915147228966
 30
0.0
 10
293.4673583250707
 20
-13.61915147228966
 30
0.0
 10
293.4673583250707
 20
-13.61915147228966
 30
0.0
 10
293.4673583250707
 20
-13.61915147228966
 30
0.0
 10
293.4673583250707
 20
-14.47973632450507
 30
0.0
 10
293.4673583250707
 20
-14.47973632450507
 30
0.0
 10
293.4673583250707
 20
-14.47973632450507
 30
0.0
 10
292.5413166586355
 20
-14.47973632450507
 30
0.0
 10
292.5413166586355
 20
-14.47973632450507
 30
0.0
 10
292.5413166586355
 20
-14.47973632450507
 30
0.0
 10
292.5413166586355
 20
-15.83228081201415
 30
0.0
 10
292.5413166586355
 20
-15.83228081201415
 30
0.0
 10
293.2117322400651
 20
-15.76751301689146
 30
0.0
 10
293.4556450004208
 20
-15.71997069919501
 30
0.0
 10
293.6754420923797
 20
-15.67862955337201
 30
0.0
 10
293.6754420923797
 20
-15.67862955337201
 30
0.0
 10
293.6864663979326
 20
-16.52129990906412
 30
0.0
 10
293.6864663979326
 20
-16.52129990906412
 30
0.0
 10
293.0105386637265
 20
-16.66392686215346
 30
0.0
 10
292.6364012940284
 20
-16.70595702707351
 30
0.0
 10
290.6244655306425
 20
-16.91886392806195
 30
0.0
 10
290.6244655306425
 20
-16.91886392806195
 30
0.0
 10
290.5238687424732
 20
-15.9873101088504
 30
0.0
 10
290.5238687424732
 20
-15.9873101088504
 30
0.0
  0
HATCH
  5
219
330
1F
100
AcDbEntity
  8
\U+30D5\U+30A9\U+30FC\U+30DE\U+30C3\U+30C8
 62
     7
100
AcDbHatch
 10
0.0
 20
0.0
 30
0.0
210
0.0
220
0.0
230
1.0
  2
SOLID
 70
     1
 71
     0
 91
        2
 92
        1
 93
        1
 72
     4
 94
        3
 73
     0
 74
     1
 95
       44
 96
       40
 40
0.0
 40
0.0
 40
0.0
 40
0.0
 40
1.0
 40
1.0
 40
1.0
 40
2.0
 40
2.0
 40
2.0
 40
3.0
 40
3.0
 40
3.0
 40
4.0
 40
4.0
 40
4.0
 40
5.0
 40
5.0
 40
5.0
 40
6.0
 40
6.0
 40
6.0
 40
7.0
 40
7.0
 40
7.0
 40
8.0
 40
8.0
 40
8.0
 40
9.0
 40
9.0
 40
9.0
 40
10.0
 40
10.0
 40
10.0
 40
11.0
 40
11.0
 40
11.0
 40
12.0
 40
12.0
 40
12.0
 40
13.0
 40
13.0
 40
13.0
 40
13.0
 10
290.5238687424732
 20
-15.9873101088504
 10
290.6361788552924
 20
-15.98110893697695
 10
290.6954344976386
 20
-15.98110893697695
 10
290.7726046365083
 20
-15.9749077651035
 10
290.8973170930743
 20
-15.96870659323005
 10
291.4967637075077
 20
-15.9156521227572
 10
291.6338785078207
 20
-15.90945095088375
 10
291.6338785078207
 20
-15.90945095088375
 10
291.6338785078207
 20
-14.47973632450507
 10
291.6338785078207
 20
-14.47973632450507
 10
291.6338785078207
 20
-14.47973632450507
 10
290.6892333257652
 20
-14.47973632450507
 10
290.6892333257652
 20
-14.47973632450507
 10
290.6892333257652
 20
-14.47973632450507
 10
290.6892333257652
 20
-13.61915147228966
 10
290.6892333257652
 20
-13.61915147228966
 10
290.6892333257652
 20
-13.61915147228966
 10
293.4673583250707
 20
-13.61915147228966
 10
293.4673583250707
 20
-13.61915147228966
 10
293.4673583250707
 20
-13.61915147228966
 10
293.4673583250707
 20
-14.47973632450507
 10
293.4673583250707
 20
-14.47973632450507
 10
293.4673583250707
 20
-14.47973632450507
 10
292.5413166586355
 20
-14.47973632450507
 10
292.5413166586355
 20
-14.47973632450507
 10
292.5413166586355
 20
-14.47973632450507
 10
292.5413166586355
 20
-15.83228081201415
 10
292.5413166586355
 20
-15.83228081201415
 10
293.2117322400651
 20
-15.76751301689146
 10
293.4556450004208
 20
-15.71997069919501
 10
293.6754420923797
 20
-15.67862955337201
 10
293.6754420923797
 20
-15.67862955337201
 10
293.6864663979326
 20
-16.52129990906412
 10
293.6864663979326
 20
-16.52129990906412
 10
293.0105386637265
 20
-16.66392686215346
 10
292.6364012940284
 20
-16.70595702707351
 10
290.6244655306425
 20
-16.91886392806195
 10
290.6244655306425
 20
-16.91886392806195
 10
290.5238687424732
 20
-15.9873101088504
 10
290.5238687424732
 20
-15.9873101088504
 97
        0
 92
        1
 93
        2
 72
     4
 94
        3
 73
     0
 74
     0
 95
       71
 96
       67
 40
0.0
 40
0.0
 40
0.0
 40
0.0
 40
0.3527777776895833
 40
0.3527777776895833
 40
0.3527777776895833
 40
0.7055555553791667
 40
0.7055555553791667
 40
0.7055555553791667
 40
1.05833333306875
 40
1.05833333306875
 40
1.05833333306875
 40
1.411111110758333
 40
1.411111110758333
 40
1.411111110758333
 40
1.763888888447917
 40
1.763888888447917
 40
1.763888888447917
 40
2.1166666661375
 40
2.1166666661375
 40
2.1166666661375
 40
2.469444443827083
 40
2.469444443827083
 40
2.469444443827083
 40
2.822222221516667
 40
2.822222221516667
 40
2.822222221516667
 40
3.17499999920625
 40
3.17499999920625
 40
3.17499999920625
 40
3.527777776895833
 40
3.527777776895833
 40
3.527777776895833
 40
3.880555554585417
 40
3.880555554585417
 40
3.880555554585417
 40
4.233333332275
 40
4.233333332275
 40
4.233333332275
 40
4.586111109964584
 40
4.586111109964584
 40
4.586111109964584
 40
4.938888887654167
 40
4.938888887654167
 40
4.938888887654167
 40
5.29166666534375
 40
5.29166666534375
 40
5.29166666534375
 40
5.644444443033334
 40
5.644444443033334
 40
5.644444443033334
 40
5.997222220722917
 40
5.997222220722917
 40
5.997222220722917
 40
6.349999998412501
 40
6.349999998412501
 40
6.349999998412501
 40
6.702777776102083
 40
6.702777776102083
 40
6.702777776102083
 40
7.055555553791667
 40
7.055555553791667
 40
7.055555553791667
 40
7.40833333148125
 40
7.40833333148125
 40
7.40833333148125
 40
7.761111109170834
 40
7.761111109170834
 40
7.761111109170834
 40
7.761111109170834
 10
295.6164088887695
 20
-12.24111327818972
 10
295.6164088887695
 20
-12.24111327818972
 10
296.1738253382829
 20
-12.24111327818972
 10
296.1738253382829
 20
-12.24111327818972
 10
296.1738253382829
 20
-12.24111327818972
 10
296.1738253382829
 20
-13.10238714950218
 10
296.1738253382829
 20
-13.10238714950218
 10
296.1738253382829
 20
-13.10238714950218
 10
294.5236246008483
 20
-13.10238714950218
 10
294.5236246008483
 20
-13.10238714950218
 10
294.5601426129919
 20
-13.85066188889845
 10
294.6428249046379
 20
-14.59824760919766
 10
294.8798474740231
 20
-15.31000433645028
 10
294.9397921354665
 20
-15.48777126348917
 10
295.098955546885
 20
-15.90945095088375
 10
295.2718993402445
 20
-15.90945095088375
 10
295.4379529426336
 20
-15.90945095088375
 10
295.7576578036648
 20
-15.50017360723607
 10
295.8954616230748
 20
-15.10260958823824
 10
295.8954616230748
 20
-15.10260958823824
 10
296.2751111455493
 20
-16.05207790397309
 10
296.2751111455493
 20
-16.05207790397309
 10
296.1503986889833
 20
-16.39658745249807
 10
295.8472302862813
 20
-17.06080186205424
 10
295.2960150086413
 20
-17.06080186205424
 10
295.016962274336
 20
-17.06080186205424
 10
294.7317083681573
 20
-16.9071506034121
 10
294.5711669185447
 20
-16.72800563817911
 10
293.7105820663293
 20
-15.7792263415413
 10
293.651326423983
 20
-14.05736761801344
 10
293.6161864500335
 20
-13.10238714950218
 10
293.6161864500335
 20
-13.10238714950218
 10
290.576923212946
 20
-13.10238714950218
 10
290.576923212946
 20
-13.10238714950218
 10
290.576923212946
 20
-13.10238714950218
 10
290.576923212946
 20
-12.24111327818972
 10
290.576923212946
 20
-12.24111327818972
 10
290.576923212946
 20
-12.24111327818972
 10
293.5865586288603
 20
-12.24111327818972
 10
293.5865586288603
 20
-12.24111327818972
 10
293.5803574569869
 20
-12.15291883376733
 10
293.568644132337
 20
-11.71883680262585
 10
293.5624429604636
 20
-11.62444118633
 10
293.5624429604636
 20
-11.5706976967601
 10
293.5624429604636
 20
-11.52384439816071
 10
293.5562417885901
 20
-11.41704643811796
 10
293.5562417885901
 20
-11.41704643811796
 10
294.506399123422
 20
-11.41704643811796
 10
294.506399123422
 20
-11.41704643811796
 10
294.5001979515486
 20
-11.88489040501489
 10
294.5001979515486
 20
-12.02200520532783
 10
294.506399123422
 20
-12.24111327818972
 10
294.506399123422
 20
-12.24111327818972
 10
295.0879312413322
 20
-12.24111327818972
 10
295.0879312413322
 20
-12.24111327818972
 10
294.933590963593
 20
-12.01580403345438
 10
294.8026773351535
 20
-11.82563476266859
 10
294.6545382292878
 20
-11.68989800054975
 10
294.6545382292878
 20
-11.68989800054975
 10
295.4207274652073
 20
-11.38052842597431
 10
295.4207274652073
 20
-11.38052842597431
 10
295.5089219096297
 20
-11.44667425929111
 10
295.5860920484993
 20
-11.50041774886101
 10
295.9967474303411
 20
-12.07505967580068
 10
295.9967474303411
 20
-12.07505967580068
 10
295.6164088887695
 20
-12.24111327818972
 10
295.6164088887695
 20
-12.24111327818972
 72
     1
 10
295.6164088887695
 20
-12.24111327818972
 11
295.6164088887695
 21
-12.24111327818972
 97
        0
 75
     2
 76
     1
 98
        0
  0
SPLINE
  5
21A
330
1F
100
AcDbEntity
  8
\U+30D5\U+30A9\U+30FC\U+30DE\U+30C3\U+30C8
370
     0
100
AcDbSpline
210
0.0
220
0.0
230
1.0
 70
    11
 71
     3
 72
    23
 73
    19
 74
     0
 42
0.0000000001
 43
0.0000000001
 40
0.0
 40
0.0
 40
0.0
 40
0.0
 40
1.0
 40
1.0
 40
1.0
 40
2.0
 40
2.0
 40
2.0
 40
3.0
 40
3.0
 40
3.0
 40
4.0
 40
4.0
 40
4.0
 40
5.0
 40
5.0
 40
5.0
 40
6.0
 40
6.0
 40
6.0
 40
6.0
 10
299.9131319779731
 20
-15.33343098574998
 30
0.0
 10
300.0557589310625
 20
-15.50637477910952
 30
0.0
 10
300.1632459102022
 20
-15.63659938845196
 30
0.0
 10
300.4002684795875
 20
-15.9514811158038
 30
0.0
 10
300.2094101897046
 20
-15.9569932685802
 30
0.0
 10
299.2730332368137
 20
-15.99902343350024
 30
0.0
 10
299.0642604504076
 20
-16.0107367581501
 30
0.0
 10
298.9581515094619
 20
-16.01624891092649
 30
0.0
 10
298.9106091917654
 20
-16.01624891092649
 30
0.0
 10
298.4827283324974
 20
-16.01624891092649
 30
0.0
 10
298.6604952595363
 20
-15.66071505684871
 30
0.0
 10
298.7796955633259
 20
-15.39268662809627
 30
0.0
 10
298.945749165715
 20
-15.00201280006894
 30
0.0
 10
298.945749165715
 20
-15.00201280006894
 30
0.0
 10
300.6138643996729
 20
-15.00201280006894
 30
0.0
 10
300.6138643996729
 20
-15.00201280006894
 30
0.0
 10
300.6138643996729
 20
-15.00201280006894
 30
0.0
 10
299.9131319779731
 20
-15.33343098574998
 30
0.0
 10
299.9131319779731
 20
-15.33343098574998
 30
0.0
  0
SPLINE
  5
21B
330
1F
100
AcDbEntity
  8
\U+30D5\U+30A9\U+30FC\U+30DE\U+30C3\U+30C8
370
     0
100
AcDbSpline
210
0.0
220
0.0
230
1.0
 70
    11
 71
     3
 72
    44
 73
    40
 74
     0
 42
0.0000000001
 43
0.0000000001
 40
0.0
 40
0.0
 40
0.0
 40
0.0
 40
1.0
 40
1.0
 40
1.0
 40
2.0
 40
2.0
 40
2.0
 40
3.0
 40
3.0
 40
3.0
 40
4.0
 40
4.0
 40
4.0
 40
5.0
 40
5.0
 40
5.0
 40
6.0
 40
6.0
 40
6.0
 40
7.0
 40
7.0
 40
7.0
 40
8.0
 40
8.0
 40
8.0
 40
9.0
 40
9.0
 40
9.0
 40
10.0
 40
10.0
 40
10.0
 40
11.0
 40
11.0
 40
11.0
 40
12.0
 40
12.0
 40
12.0
 40
13.0
 40
13.0
 40
13.0
 40
13.0
 10
302.0029268993256
 20
-16.65221353750361
 30
0.0
 10
301.6467040261508
 20
-16.08790689701969
 30
0.0
 10
301.2725666564527
 20
-15.55942924958237
 30
0.0
 10
300.7558023336653
 20
-15.00201280006894
 30
0.0
 10
300.7558023336653
 20
-15.00201280006894
 30
0.0
 10
301.9843233837053
 20
-15.00201280006894
 30
0.0
 10
301.9843233837053
 20
-15.00201280006894
 30
0.0
 10
301.9843233837053
 20
-15.00201280006894
 30
0.0
 10
301.9843233837053
 20
-14.14694010062993
 30
0.0
 10
301.9843233837053
 20
-14.14694010062993
 30
0.0
 10
301.9843233837053
 20
-14.14694010062993
 30
0.0
 10
296.6313340187241
 20
-14.14694010062993
 30
0.0
 10
296.6313340187241
 20
-14.14694010062993
 30
0.0
 10
296.6313340187241
 20
-14.14694010062993
 30
0.0
 10
296.6313340187241
 20
-15.00201280006894
 30
0.0
 10
296.6313340187241
 20
-15.00201280006894
 30
0.0
 10
296.6313340187241
 20
-15.00201280006894
 30
0.0
 10
297.9542506850601
 20
-15.00201280006894
 30
0.0
 10
297.9542506850601
 20
-15.00201280006894
 30
0.0
 10
297.830227247591
 20
-15.38717447531987
 30
0.0
 10
297.6931124472781
 20
-15.70756835544811
 30
0.0
 10
297.5456623605094
 20
-16.02176106370289
 30
0.0
 10
297.4388644004667
 20
-16.02176106370289
 30
0.0
 10
296.975154548152
 20
-16.0286512546734
 30
0.0
 10
296.8800699127592
 20
-16.0286512546734
 30
0.0
 10
296.8332166141598
 20
-16.0286512546734
 30
0.0
 10
296.7911864492397
 20
-16.0286512546734
 30
0.0
 10
296.6719861454501
 20
-16.02176106370289
 30
0.0
 10
296.6719861454501
 20
-16.02176106370289
 30
0.0
 10
296.8153021176365
 20
-16.94229057736165
 30
0.0
 10
296.8153021176365
 20
-16.94229057736165
 30
0.0
 10
298.1623344523692
 20
-16.90094943153865
 30
0.0
 10
298.3704182196782
 20
-16.88303493501535
 30
0.0
 10
300.904630458628
 20
-16.68115233957971
 30
0.0
 10
301.0169405714472
 20
-16.8658094575891
 30
0.0
 10
301.0706840610171
 20
-16.95469292110855
 30
0.0
 10
301.1478541998866
 20
-17.10283202697429
 30
0.0
 10
301.1478541998866
 20
-17.10283202697429
 30
0.0
 10
302.0029268993256
 20
-16.65221353750361
 30
0.0
 10
302.0029268993256
 20
-16.65221353750361
 30
0.0
  0
SPLINE
  5
21C
330
1F
100
AcDbEntity
  8
\U+30D5\U+30A9\U+30FC\U+30DE\U+30C3\U+30C8
370
     0
100
AcDbSpline
210
0.0
220
0.0
230
1.0
 70
    11
 71
     3
 72
    35
 73
    31
 74
     0
 42
0.0000000001
 43
0.0000000001
 40
0.0
 40
0.0
 40
0.0
 40
0.0
 40
1.0
 40
1.0
 40
1.0
 40
2.0
 40
2.0
 40
2.0
 40
3.0
 40
3.0
 40
3.0
 40
4.0
 40
4.0
 40
4.0
 40
5.0
 40
5.0
 40
5.0
 40
6.0
 40
6.0
 40
6.0
 40
7.0
 40
7.0
 40
7.0
 40
8.0
 40
8.0
 40
8.0
 40
9.0
 40
9.0
 40
9.0
 40
10.0
 40
10.0
 40
10.0
 40
10.0
 10
297.7351426121982
 20
-13.73077256601175
 30
0.0
 10
297.7351426121982
 20
-13.73077256601175
 30
0.0
 10
300.8929171339782
 20
-13.73077256601175
 30
0.0
 10
300.8929171339782
 20
-13.73077256601175
 30
0.0
 10
300.8929171339782
 20
-13.73077256601175
 30
0.0
 10
300.8929171339782
 20
-13.36903754006052
 30
0.0
 10
300.8929171339782
 20
-13.36903754006052
 30
0.0
 10
301.3145968213727
 20
-13.62397460596901
 30
0.0
 10
301.5695338872812
 20
-13.7369737378852
 30
0.0
 10
301.7769286354933
 20
-13.82723523959875
 30
0.0
 10
301.7769286354933
 20
-13.82723523959875
 30
0.0
 10
302.2406384878079
 20
-12.93013237523969
 30
0.0
 10
302.2406384878079
 20
-12.93013237523969
 30
0.0
 10
301.3387124897695
 20
-12.59113497949111
 30
0.0
 10
300.4836397903305
 20
-12.11157768794433
 30
0.0
 10
299.8545653547239
 20
-11.38052842597431
 30
0.0
 10
299.8545653547239
 20
-11.38052842597431
 30
0.0
 10
298.7976100598492
 20
-11.38052842597431
 30
0.0
 10
298.7976100598492
 20
-11.38052842597431
 30
0.0
 10
298.4179605373747
 20
-11.91589626438214
 30
0.0
 10
297.7592582805949
 20
-12.40165472780236
 30
0.0
 10
296.3819091055921
 20
-12.94253471898659
 30
0.0
 10
296.3819091055921
 20
-12.94253471898659
 30
0.0
 10
296.8332166141598
 20
-13.84377169792795
 30
0.0
 10
296.8332166141598
 20
-13.84377169792795
 30
0.0
 10
297.0109835411986
 20
-13.77349175002885
 30
0.0
 10
297.2714327598836
 20
-13.6722059427625
 30
0.0
 10
297.7351426121982
 20
-13.39315320845727
 30
0.0
 10
297.7351426121982
 20
-13.39315320845727
 30
0.0
 10
297.7351426121982
 20
-13.73077256601175
 30
0.0
 10
297.7351426121982
 20
-13.73077256601175
 30
0.0
  0
SPLINE
  5
21D
330
1F
100
AcDbEntity
  8
\U+30D5\U+30A9\U+30FC\U+30DE\U+30C3\U+30C8
370
     0
100
AcDbSpline
210
0.0
220
0.0
230
1.0
 70
    11
 71
     3
 72
    14
 73
    10
 74
     0
 42
0.0000000001
 43
0.0000000001
 40
0.0
 40
0.0
 40
0.0
 40
0.0
 40
1.0
 40
1.0
 40
1.0
 40
2.0
 40
2.0
 40
2.0
 40
3.0
 40
3.0
 40
3.0
 40
3.0
 10
298.4055581936278
 20
-12.93633354711314
 30
0.0
 10
298.9691758150146
 20
-12.50845268784511
 30
0.0
 10
299.1717474295473
 20
-12.28314344310977
 30
0.0
 10
299.3205755545101
 20
-12.09986436329448
 30
0.0
 10
299.497653462452
 20
-12.29485676775962
 30
0.0
 10
299.7291638790608
 20
-12.54428168089171
 30
0.0
 10
300.2459282018482
 20
-12.93633354711314
 30
0.0
 10
300.2459282018482
 20
-12.93633354711314
 30
0.0
 10
298.4055581936278
 20
-12.93633354711314
 30
0.0
 10
298.4055581936278
 20
-12.93633354711314
 30
0.0
  0
HATCH
  5
21E
330
1F
100
AcDbEntity
  8
\U+30D5\U+30A9\U+30FC\U+30DE\U+30C3\U+30C8
 62
     7
100
AcDbHatch
 10
0.0
 20
0.0
 30
0.0
210
0.0
220
0.0
230
1.0
  2
SOLID
 70
     1
 71
     0
 91
        4
 92
        1
 93
        1
 72
     4
 94
        3
 73
     0
 74
     1
 95
       14
 96
       10
 40
0.0
 40
0.0
 40
0.0
 40
0.0
 40
1.0
 40
1.0
 40
1.0
 40
2.0
 40
2.0
 40
2.0
 40
3.0
 40
3.0
 40
3.0
 40
3.0
 10
298.4055581936278
 20
-12.93633354711314
 10
298.9691758150146
 20
-12.50845268784511
 10
299.1717474295473
 20
-12.28314344310977
 10
299.3205755545101
 20
-12.09986436329448
 10
299.497653462452
 20
-12.29485676775962
 10
299.7291638790608
 20
-12.54428168089171
 10
300.2459282018482
 20
-12.93633354711314
 10
300.2459282018482
 20
-12.93633354711314
 10
298.4055581936278
 20
-12.93633354711314
 10
298.4055581936278
 20
-12.93633354711314
 97
        0
 92
        1
 93
        2
 72
     4
 94
        3
 73
     0
 74
     0
 95
       23
 96
       19
 40
0.0
 40
0.0
 40
0.0
 40
0.0
 40
0.3527777776895833
 40
0.3527777776895833
 40
0.3527777776895833
 40
0.7055555553791667
 40
0.7055555553791667
 40
0.7055555553791667
 40
1.05833333306875
 40
1.05833333306875
 40
1.05833333306875
 40
1.411111110758333
 40
1.411111110758333
 40
1.411111110758333
 40
1.763888888447917
 40
1.763888888447917
 40
1.763888888447917
 40
2.1166666661375
 40
2.1166666661375
 40
2.1166666661375
 40
2.1166666661375
 10
299.9131319779731
 20
-15.33343098574998
 10
300.0557589310625
 20
-15.50637477910952
 10
300.1632459102022
 20
-15.63659938845196
 10
300.4002684795875
 20
-15.9514811158038
 10
300.2094101897046
 20
-15.9569932685802
 10
299.2730332368137
 20
-15.99902343350024
 10
299.0642604504076
 20
-16.0107367581501
 10
298.9581515094619
 20
-16.01624891092649
 10
298.9106091917654
 20
-16.01624891092649
 10
298.4827283324974
 20
-16.01624891092649
 10
298.6604952595363
 20
-15.66071505684871
 10
298.7796955633259
 20
-15.39268662809627
 10
298.945749165715
 20
-15.00201280006894
 10
298.945749165715
 20
-15.00201280006894
 10
300.6138643996729
 20
-15.00201280006894
 10
300.6138643996729
 20
-15.00201280006894
 10
300.6138643996729
 20
-15.00201280006894
 10
299.9131319779731
 20
-15.33343098574998
 10
299.9131319779731
 20
-15.33343098574998
 72
     1
 10
299.9131319779731
 20
-15.33343098574998
 11
299.9131319779731
 21
-15.33343098574998
 97
        0
 92
        1
 93
        2
 72
     4
 94
        3
 73
     0
 74
     0
 95
       44
 96
       40
 40
0.0
 40
0.0
 40
0.0
 40
0.0
 40
0.3527777776895833
 40
0.3527777776895833
 40
0.3527777776895833
 40
0.7055555553791667
 40
0.7055555553791667
 40
0.7055555553791667
 40
1.05833333306875
 40
1.05833333306875
 40
1.05833333306875
 40
1.411111110758333
 40
1.411111110758333
 40
1.411111110758333
 40
1.763888888447917
 40
1.763888888447917
 40
1.763888888447917
 40
2.1166666661375
 40
2.1166666661375
 40
2.1166666661375
 40
2.469444443827083
 40
2.469444443827083
 40
2.469444443827083
 40
2.822222221516667
 40
2.822222221516667
 40
2.822222221516667
 40
3.17499999920625
 40
3.17499999920625
 40
3.17499999920625
 40
3.527777776895833
 40
3.527777776895833
 40
3.527777776895833
 40
3.880555554585417
 40
3.880555554585417
 40
3.880555554585417
 40
4.233333332275
 40
4.233333332275
 40
4.233333332275
 40
4.586111109964584
 40
4.586111109964584
 40
4.586111109964584
 40
4.586111109964584
 10
302.0029268993256
 20
-16.65221353750361
 10
301.6467040261508
 20
-16.08790689701969
 10
301.2725666564527
 20
-15.55942924958237
 10
300.7558023336653
 20
-15.00201280006894
 10
300.7558023336653
 20
-15.00201280006894
 10
301.9843233837053
 20
-15.00201280006894
 10
301.9843233837053
 20
-15.00201280006894
 10
301.9843233837053
 20
-15.00201280006894
 10
301.9843233837053
 20
-14.14694010062993
 10
301.9843233837053
 20
-14.14694010062993
 10
301.9843233837053
 20
-14.14694010062993
 10
296.6313340187241
 20
-14.14694010062993
 10
296.6313340187241
 20
-14.14694010062993
 10
296.6313340187241
 20
-14.14694010062993
 10
296.6313340187241
 20
-15.00201280006894
 10
296.6313340187241
 20
-15.00201280006894
 10
296.6313340187241
 20
-15.00201280006894
 10
297.9542506850601
 20
-15.00201280006894
 10
297.9542506850601
 20
-15.00201280006894
 10
297.830227247591
 20
-15.38717447531987
 10
297.6931124472781
 20
-15.70756835544811
 10
297.5456623605094
 20
-16.02176106370289
 10
297.4388644004667
 20
-16.02176106370289
 10
296.975154548152
 20
-16.0286512546734
 10
296.8800699127592
 20
-16.0286512546734
 10
296.8332166141598
 20
-16.0286512546734
 10
296.7911864492397
 20
-16.0286512546734
 10
296.6719861454501
 20
-16.02176106370289
 10
296.6719861454501
 20
-16.02176106370289
 10
296.8153021176365
 20
-16.94229057736165
 10
296.8153021176365
 20
-16.94229057736165
 10
298.1623344523692
 20
-16.90094943153865
 10
298.3704182196782
 20
-16.88303493501535
 10
300.904630458628
 20
-16.68115233957971
 10
301.0169405714472
 20
-16.8658094575891
 10
301.0706840610171
 20
-16.95469292110855
 10
301.1478541998866
 20
-17.10283202697429
 10
301.1478541998866
 20
-17.10283202697429
 10
302.0029268993256
 20
-16.65221353750361
 10
302.0029268993256
 20
-16.65221353750361
 72
     1
 10
302.0029268993256
 20
-16.65221353750361
 11
302.0029268993256
 21
-16.65221353750361
 97
        0
 92
        1
 93
        2
 72
     4
 94
        3
 73
     0
 74
     0
 95
       35
 96
       31
 40
0.0
 40
0.0
 40
0.0
 40
0.0
 40
0.3527777776895833
 40
0.3527777776895833
 40
0.3527777776895833
 40
0.7055555553791667
 40
0.7055555553791667
 40
0.7055555553791667
 40
1.05833333306875
 40
1.05833333306875
 40
1.05833333306875
 40
1.411111110758333
 40
1.411111110758333
 40
1.411111110758333
 40
1.763888888447917
 40
1.763888888447917
 40
1.763888888447917
 40
2.1166666661375
 40
2.1166666661375
 40
2.1166666661375
 40
2.469444443827083
 40
2.469444443827083
 40
2.469444443827083
 40
2.822222221516667
 40
2.822222221516667
 40
2.822222221516667
 40
3.17499999920625
 40
3.17499999920625
 40
3.17499999920625
 40
3.527777776895833
 40
3.527777776895833
 40
3.527777776895833
 40
3.527777776895833
 10
297.7351426121982
 20
-13.73077256601175
 10
297.7351426121982
 20
-13.73077256601175
 10
300.8929171339782
 20
-13.73077256601175
 10
300.8929171339782
 20
-13.73077256601175
 10
300.8929171339782
 20
-13.73077256601175
 10
300.8929171339782
 20
-13.36903754006052
 10
300.8929171339782
 20
-13.36903754006052
 10
301.3145968213727
 20
-13.62397460596901
 10
301.5695338872812
 20
-13.7369737378852
 10
301.7769286354933
 20
-13.82723523959875
 10
301.7769286354933
 20
-13.82723523959875
 10
302.2406384878079
 20
-12.93013237523969
 10
302.2406384878079
 20
-12.93013237523969
 10
301.3387124897695
 20
-12.59113497949111
 10
300.4836397903305
 20
-12.11157768794433
 10
299.8545653547239
 20
-11.38052842597431
 10
299.8545653547239
 20
-11.38052842597431
 10
298.7976100598492
 20
-11.38052842597431
 10
298.7976100598492
 20
-11.38052842597431
 10
298.4179605373747
 20
-11.91589626438214
 10
297.7592582805949
 20
-12.40165472780236
 10
296.3819091055921
 20
-12.94253471898659
 10
296.3819091055921
 20
-12.94253471898659
 10
296.8332166141598
 20
-13.84377169792795
 10
296.8332166141598
 20
-13.84377169792795
 10
297.0109835411986
 20
-13.77349175002885
 10
297.2714327598836
 20
-13.6722059427625
 10
297.7351426121982
 20
-13.39315320845727
 10
297.7351426121982
 20
-13.39315320845727
 10
297.7351426121982
 20
-13.73077256601175
 10
297.7351426121982
 20
-13.73077256601175
 72
     1
 10
297.7351426121982
 20
-13.73077256601175
 11
297.7351426121982
 21
-13.73077256601175
 97
        0
 75
     2
 76
     1
 98
        0
  0
SPLINE
  5
21F
330
1F
100
AcDbEntity
  8
\U+30D5\U+30A9\U+30FC\U+30DE\U+30C3\U+30C8
370
     0
100
AcDbSpline
210
0.0
220
0.0
230
1.0
 70
    11
 71
     3
 72
    59
 73
    55
 74
     0
 42
0.0000000001
 43
0.0000000001
 40
0.0
 40
0.0
 40
0.0
 40
0.0
 40
1.0
 40
1.0
 40
1.0
 40
2.0
 40
2.0
 40
2.0
 40
3.0
 40
3.0
 40
3.0
 40
4.0
 40
4.0
 40
4.0
 40
5.0
 40
5.0
 40
5.0
 40
6.0
 40
6.0
 40
6.0
 40
7.0
 40
7.0
 40
7.0
 40
8.0
 40
8.0
 40
8.0
 40
9.0
 40
9.0
 40
9.0
 40
10.0
 40
10.0
 40
10.0
 40
11.0
 40
11.0
 40
11.0
 40
12.0
 40
12.0
 40
12.0
 40
13.0
 40
13.0
 40
13.0
 40
14.0
 40
14.0
 40
14.0
 40
15.0
 40
15.0
 40
15.0
 40
16.0
 40
16.0
 40
16.0
 40
17.0
 40
17.0
 40
17.0
 40
18.0
 40
18.0
 40
18.0
 40
18.0
 10
304.0975449543575
 20
-17.05528970927784
 30
0.0
 10
304.0975449543575
 20
-17.05528970927784
 30
0.0
 10
303.1963079754162
 20
-17.05528970927784
 30
0.0
 10
303.1963079754162
 20
-17.05528970927784
 30
0.0
 10
303.1963079754162
 20
-17.05528970927784
 30
0.0
 10
303.1963079754162
 20
-15.07229274796804
 30
0.0
 10
303.1963079754162
 20
-15.07229274796804
 30
0.0
 10
302.9523952150605
 20
-15.28037651527713
 30
0.0
 10
302.7863416126715
 20
-15.39957681906677
 30
0.0
 10
302.5658555016155
 20
-15.54702690583547
 30
0.0
 10
302.5658555016155
 20
-15.54702690583547
 30
0.0
 10
302.3412352759772
 20
-14.49696180193131
 30
0.0
 10
302.3412352759772
 20
-14.49696180193131
 30
0.0
 10
303.0054496855334
 20
-14.09939778293348
 30
0.0
 10
303.551841829494
 20
-13.46481119455046
 30
0.0
 10
303.7475232530562
 20
-13.07275932832903
 30
0.0
 10
303.7475232530562
 20
-13.07275932832903
 30
0.0
 10
302.44803323602
 20
-13.07275932832903
 30
0.0
 10
302.44803323602
 20
-13.07275932832903
 30
0.0
 10
302.44803323602
 20
-13.07275932832903
 30
0.0
 10
302.44803323602
 20
-12.24111327818972
 30
0.0
 10
302.44803323602
 20
-12.24111327818972
 30
0.0
 10
302.44803323602
 20
-12.24111327818972
 30
0.0
 10
303.1963079754162
 20
-12.24111327818972
 30
0.0
 10
303.1963079754162
 20
-12.24111327818972
 30
0.0
 10
303.1963079754162
 20
-12.24111327818972
 30
0.0
 10
303.1963079754162
 20
-11.42255859089436
 30
0.0
 10
303.1963079754162
 20
-11.42255859089436
 30
0.0
 10
303.1963079754162
 20
-11.42255859089436
 30
0.0
 10
304.0975449543575
 20
-11.42255859089436
 30
0.0
 10
304.0975449543575
 20
-11.42255859089436
 30
0.0
 10
304.0975449543575
 20
-11.42255859089436
 30
0.0
 10
304.0975449543575
 20
-12.24111327818972
 30
0.0
 10
304.0975449543575
 20
-12.24111327818972
 30
0.0
 10
304.0975449543575
 20
-12.24111327818972
 30
0.0
 10
304.7031927406645
 20
-12.24111327818972
 30
0.0
 10
304.7031927406645
 20
-12.24111327818972
 30
0.0
 10
304.7031927406645
 20
-12.24111327818972
 30
0.0
 10
304.7031927406645
 20
-13.07827148110543
 30
0.0
 10
304.7031927406645
 20
-13.07827148110543
 30
0.0
 10
304.6149982962421
 20
-13.29186740119092
 30
0.0
 10
304.5013101452288
 20
-13.54749348619646
 30
0.0
 10
304.2346597546705
 20
-13.93334418054444
 30
0.0
 10
304.5612548066722
 20
-14.29507920649568
 30
0.0
 10
304.8520208656273
 20
-14.46733398075817
 30
0.0
 10
305.041501117316
 20
-14.57413194080091
 30
0.0
 10
305.041501117316
 20
-14.57413194080091
 30
0.0
 10
304.5963947806217
 20
-15.41680229649302
 30
0.0
 10
304.5963947806217
 20
-15.41680229649302
 30
0.0
 10
304.4241400063593
 20
-15.25694986597743
 30
0.0
 10
304.2877142251434
 20
-15.11432291288809
 30
0.0
 10
304.0975449543575
 20
-14.84767252232975
 30
0.0
 10
304.0975449543575
 20
-14.84767252232975
 30
0.0
 10
304.0975449543575
 20
-17.05528970927784
 30
0.0
 10
304.0975449543575
 20
-17.05528970927784
 30
0.0
  0
POLYLINE
  5
220
330
1F
100
AcDbEntity
  8
\U+30D5\U+30A9\U+30FC\U+30DE\U+30C3\U+30C8
370
     0
100
AcDb2dPolyline
 66
     1
 10
0.0
 20
0.0
 30
0.0
  0
VERTEX
  5
221
330
220
100
AcDbEntity
  8
\U+30D5\U+30A9\U+30FC\U+30DE\U+30C3\U+30C8
370
     0
100
AcDbVertex
100
AcDb2dVertex
 10
305.8607448237084
 20
-11.42875976276781
 30
0.0
  0
VERTEX
  5
222
330
220
100
AcDbEntity
  8
\U+30D5\U+30A9\U+30FC\U+30DE\U+30C3\U+30C8
370
     0
100
AcDbVertex
100
AcDb2dVertex
 10
306.7874755092407
 20
-11.42875976276781
 30
0.0
  0
VERTEX
  5
223
330
220
100
AcDbEntity
  8
\U+30D5\U+30A9\U+30FC\U+30DE\U+30C3\U+30C8
370
     0
100
AcDbVertex
100
AcDb2dVertex
 10
306.7874755092407
 20
-12.89981553496949
 30
0.0
  0
VERTEX
  5
224
330
220
100
AcDbEntity
  8
\U+30D5\U+30A9\U+30FC\U+30DE\U+30C3\U+30C8
370
     0
100
AcDbVertex
100
AcDb2dVertex
 10
307.9381374013141
 20
-12.89981553496949
 30
0.0
  0
VERTEX
  5
225
330
220
100
AcDbEntity
  8
\U+30D5\U+30A9\U+30FC\U+30DE\U+30C3\U+30C8
370
     0
100
AcDbVertex
100
AcDb2dVertex
 10
307.9381374013141
 20
-13.81483289585185
 30
0.0
  0
VERTEX
  5
226
330
220
100
AcDbEntity
  8
\U+30D5\U+30A9\U+30FC\U+30DE\U+30C3\U+30C8
370
     0
100
AcDbVertex
100
AcDb2dVertex
 10
306.7874755092407
 20
-13.81483289585185
 30
0.0
  0
VERTEX
  5
227
330
220
100
AcDbEntity
  8
\U+30D5\U+30A9\U+30FC\U+30DE\U+30C3\U+30C8
370
     0
100
AcDbVertex
100
AcDb2dVertex
 10
306.7874755092407
 20
-15.9873101088504
 30
0.0
  0
VERTEX
  5
228
330
220
100
AcDbEntity
  8
\U+30D5\U+30A9\U+30FC\U+30DE\U+30C3\U+30C8
370
     0
100
AcDbVertex
100
AcDb2dVertex
 10
308.0270208648336
 20
-15.9873101088504
 30
0.0
  0
VERTEX
  5
229
330
220
100
AcDbEntity
  8
\U+30D5\U+30A9\U+30FC\U+30DE\U+30C3\U+30C8
370
     0
100
AcDbVertex
100
AcDb2dVertex
 10
308.0270208648336
 20
-16.8892361068888
 30
0.0
  0
VERTEX
  5
22A
330
220
100
AcDbEntity
  8
\U+30D5\U+30A9\U+30FC\U+30DE\U+30C3\U+30C8
370
     0
100
AcDbVertex
100
AcDb2dVertex
 10
304.5013101452288
 20
-16.8892361068888
 30
0.0
  0
VERTEX
  5
22B
330
220
100
AcDbEntity
  8
\U+30D5\U+30A9\U+30FC\U+30DE\U+30C3\U+30C8
370
     0
100
AcDbVertex
100
AcDb2dVertex
 10
304.5013101452288
 20
-15.9873101088504
 30
0.0
  0
VERTEX
  5
22C
330
220
100
AcDbEntity
  8
\U+30D5\U+30A9\U+30FC\U+30DE\U+30C3\U+30C8
370
     0
100
AcDbVertex
100
AcDb2dVertex
 10
305.8607448237084
 20
-15.9873101088504
 30
0.0
  0
VERTEX
  5
22D
330
220
100
AcDbEntity
  8
\U+30D5\U+30A9\U+30FC\U+30DE\U+30C3\U+30C8
370
     0
100
AcDbVertex
100
AcDb2dVertex
 10
305.8607448237084
 20
-13.81483289585185
 30
0.0
  0
VERTEX
  5
22E
330
220
100
AcDbEntity
  8
\U+30D5\U+30A9\U+30FC\U+30DE\U+30C3\U+30C8
370
     0
100
AcDbVertex
100
AcDb2dVertex
 10
304.7913871850869
 20
-13.81483289585185
 30
0.0
  0
VERTEX
  5
22F
330
220
100
AcDbEntity
  8
\U+30D5\U+30A9\U+30FC\U+30DE\U+30C3\U+30C8
370
     0
100
AcDbVertex
100
AcDb2dVertex
 10
304.7913871850869
 20
-12.89981553496949
 30
0.0
  0
VERTEX
  5
230
330
220
100
AcDbEntity
  8
\U+30D5\U+30A9\U+30FC\U+30DE\U+30C3\U+30C8
370
     0
100
AcDbVertex
100
AcDb2dVertex
 10
305.8607448237084
 20
-12.89981553496949
 30
0.0
  0
VERTEX
  5
231
330
220
100
AcDbEntity
  8
\U+30D5\U+30A9\U+30FC\U+30DE\U+30C3\U+30C8
370
     0
100
AcDbVertex
100
AcDb2dVertex
 10
305.8607448237084
 20
-11.42875976276781
 30
0.0
  0
SEQEND
  5
232
330
220
100
AcDbEntity
  8
\U+30D5\U+30A9\U+30FC\U+30DE\U+30C3\U+30C8
370
     0
  0
HATCH
  5
233
330
1F
100
AcDbEntity
  8
\U+30D5\U+30A9\U+30FC\U+30DE\U+30C3\U+30C8
 62
     7
100
AcDbHatch
 10
0.0
 20
0.0
 30
0.0
210
0.0
220
0.0
230
1.0
  2
SOLID
 70
     1
 71
     0
 91
        2
 92
        1
 93
       16
 72
     1
 10
305.8607448237084
 20
-11.42875976276781
 11
306.7874755092407
 21
-11.42875976276781
 72
     1
 10
306.7874755092407
 20
-11.42875976276781
 11
306.7874755092407
 21
-12.89981553496949
 72
     1
 10
306.7874755092407
 20
-12.89981553496949
 11
307.9381374013141
 21
-12.89981553496949
 72
     1
 10
307.9381374013141
 20
-12.89981553496949
 11
307.9381374013141
 21
-13.81483289585185
 72
     1
 10
307.9381374013141
 20
-13.81483289585185
 11
306.7874755092407
 21
-13.81483289585185
 72
     1
 10
306.7874755092407
 20
-13.81483289585185
 11
306.7874755092407
 21
-15.9873101088504
 72
     1
 10
306.7874755092407
 20
-15.9873101088504
 11
308.0270208648336
 21
-15.9873101088504
 72
     1
 10
308.0270208648336
 20
-15.9873101088504
 11
308.0270208648336
 21
-16.8892361068888
 72
     1
 10
308.0270208648336
 20
-16.8892361068888
 11
304.5013101452288
 21
-16.8892361068888
 72
     1
 10
304.5013101452288
 20
-16.8892361068888
 11
304.5013101452288
 21
-15.9873101088504
 72
     1
 10
304.5013101452288
 20
-15.9873101088504
 11
305.8607448237084
 21
-15.9873101088504
 72
     1
 10
305.8607448237084
 20
-15.9873101088504
 11
305.8607448237084
 21
-13.81483289585185
 72
     1
 10
305.8607448237084
 20
-13.81483289585185
 11
304.7913871850869
 21
-13.81483289585185
 72
     1
 10
304.7913871850869
 20
-13.81483289585185
 11
304.7913871850869
 21
-12.89981553496949
 72
     1
 10
304.7913871850869
 20
-12.89981553496949
 11
305.8607448237084
 21
-12.89981553496949
 72
     1
 10
305.8607448237084
 20
-12.89981553496949
 11
305.8607448237084
 21
-11.42875976276781
 97
        0
 92
        1
 93
        2
 72
     4
 94
        3
 73
     0
 74
     0
 95
       59
 96
       55
 40
0.0
 40
0.0
 40
0.0
 40
0.0
 40
0.3527777776895833
 40
0.3527777776895833
 40
0.3527777776895833
 40
0.7055555553791667
 40
0.7055555553791667
 40
0.7055555553791667
 40
1.05833333306875
 40
1.05833333306875
 40
1.05833333306875
 40
1.411111110758333
 40
1.411111110758333
 40
1.411111110758333
 40
1.763888888447917
 40
1.763888888447917
 40
1.763888888447917
 40
2.1166666661375
 40
2.1166666661375
 40
2.1166666661375
 40
2.469444443827083
 40
2.469444443827083
 40
2.469444443827083
 40
2.822222221516667
 40
2.822222221516667
 40
2.822222221516667
 40
3.17499999920625
 40
3.17499999920625
 40
3.17499999920625
 40
3.527777776895833
 40
3.527777776895833
 40
3.527777776895833
 40
3.880555554585417
 40
3.880555554585417
 40
3.880555554585417
 40
4.233333332275
 40
4.233333332275
 40
4.233333332275
 40
4.586111109964584
 40
4.586111109964584
 40
4.586111109964584
 40
4.938888887654167
 40
4.938888887654167
 40
4.938888887654167
 40
5.29166666534375
 40
5.29166666534375
 40
5.29166666534375
 40
5.644444443033334
 40
5.644444443033334
 40
5.644444443033334
 40
5.997222220722917
 40
5.997222220722917
 40
5.997222220722917
 40
6.349999998412501
 40
6.349999998412501
 40
6.349999998412501
 40
6.349999998412501
 10
304.0975449543575
 20
-17.05528970927784
 10
304.0975449543575
 20
-17.05528970927784
 10
303.1963079754162
 20
-17.05528970927784
 10
303.1963079754162
 20
-17.05528970927784
 10
303.1963079754162
 20
-17.05528970927784
 10
303.1963079754162
 20
-15.07229274796804
 10
303.1963079754162
 20
-15.07229274796804
 10
302.9523952150605
 20
-15.28037651527713
 10
302.7863416126715
 20
-15.39957681906677
 10
302.5658555016155
 20
-15.54702690583547
 10
302.5658555016155
 20
-15.54702690583547
 10
302.3412352759772
 20
-14.49696180193131
 10
302.3412352759772
 20
-14.49696180193131
 10
303.0054496855334
 20
-14.09939778293348
 10
303.551841829494
 20
-13.46481119455046
 10
303.7475232530562
 20
-13.07275932832903
 10
303.7475232530562
 20
-13.07275932832903
 10
302.44803323602
 20
-13.07275932832903
 10
302.44803323602
 20
-13.07275932832903
 10
302.44803323602
 20
-13.07275932832903
 10
302.44803323602
 20
-12.24111327818972
 10
302.44803323602
 20
-12.24111327818972
 10
302.44803323602
 20
-12.24111327818972
 10
303.1963079754162
 20
-12.24111327818972
 10
303.1963079754162
 20
-12.24111327818972
 10
303.1963079754162
 20
-12.24111327818972
 10
303.1963079754162
 20
-11.42255859089436
 10
303.1963079754162
 20
-11.42255859089436
 10
303.1963079754162
 20
-11.42255859089436
 10
304.0975449543575
 20
-11.42255859089436
 10
304.0975449543575
 20
-11.42255859089436
 10
304.0975449543575
 20
-11.42255859089436
 10
304.0975449543575
 20
-12.24111327818972
 10
304.0975449543575
 20
-12.24111327818972
 10
304.0975449543575
 20
-12.24111327818972
 10
304.7031927406645
 20
-12.24111327818972
 10
304.7031927406645
 20
-12.24111327818972
 10
304.7031927406645
 20
-12.24111327818972
 10
304.7031927406645
 20
-13.07827148110543
 10
304.7031927406645
 20
-13.07827148110543
 10
304.6149982962421
 20
-13.29186740119092
 10
304.5013101452288
 20
-13.54749348619646
 10
304.2346597546705
 20
-13.93334418054444
 10
304.5612548066722
 20
-14.29507920649568
 10
304.8520208656273
 20
-14.46733398075817
 10
305.041501117316
 20
-14.57413194080091
 10
305.041501117316
 20
-14.57413194080091
 10
304.5963947806217
 20
-15.41680229649302
 10
304.5963947806217
 20
-15.41680229649302
 10
304.4241400063593
 20
-15.25694986597743
 10
304.2877142251434
 20
-15.11432291288809
 10
304.0975449543575
 20
-14.84767252232975
 10
304.0975449543575
 20
-14.84767252232975
 10
304.0975449543575
 20
-17.05528970927784
 10
304.0975449543575
 20
-17.05528970927784
 72
     1
 10
304.0975449543575
 20
-17.05528970927784
 11
304.0975449543575
 21
-17.05528970927784
 97
        0
 75
     2
 76
     1
 98
        0
  0
SPLINE
  5
234
330
1F
100
AcDbEntity
  8
\U+30D5\U+30A9\U+30FC\U+30DE\U+30C3\U+30C8
370
     0
100
AcDbSpline
210
0.0
220
0.0
230
1.0
 70
    11
 71
     3
 72
    47
 73
    43
 74
     0
 42
0.0000000001
 43
0.0000000001
 40
0.0
 40
0.0
 40
0.0
 40
0.0
 40
1.0
 40
1.0
 40
1.0
 40
2.0
 40
2.0
 40
2.0
 40
3.0
 40
3.0
 40
3.0
 40
4.0
 40
4.0
 40
4.0
 40
5.0
 40
5.0
 40
5.0
 40
6.0
 40
6.0
 40
6.0
 40
7.0
 40
7.0
 40
7.0
 40
8.0
 40
8.0
 40
8.0
 40
9.0
 40
9.0
 40
9.0
 40
10.0
 40
10.0
 40
10.0
 40
11.0
 40
11.0
 40
11.0
 40
12.0
 40
12.0
 40
12.0
 40
13.0
 40
13.0
 40
13.0
 40
14.0
 40
14.0
 40
14.0
 40
14.0
 10
310.5378064544836
 20
-13.64257812158936
 30
0.0
 10
311.0015163067982
 20
-13.8320583732781
 30
0.0
 10
311.3453368362262
 20
-14.00431314754059
 30
0.0
 10
311.7718396573001
 20
-14.32539604676587
 30
0.0
 10
312.0219535895292
 20
-13.97468532636744
 30
0.0
 10
312.1824950391419
 20
-13.63637694971591
 30
0.0
 10
312.3299451259106
 20
-13.11410047415203
 30
0.0
 10
312.3299451259106
 20
-13.11410047415203
 30
0.0
 10
310.6149765933532
 20
-13.11410047415203
 30
0.0
 10
310.6149765933532
 20
-13.11410047415203
 30
0.0
 10
310.1409314545828
 20
-13.7135470885855
 30
0.0
 10
309.6234781126983
 20
-14.16485459715323
 30
0.0
 10
309.0130071927121
 20
-14.51487629845461
 30
0.0
 10
309.0130071927121
 20
-14.51487629845461
 30
0.0
 10
308.4073594064051
 20
-13.82723523959875
 30
0.0
 10
308.4073594064051
 20
-13.82723523959875
 30
0.0
 10
309.5056558471028
 20
-13.23881293071807
 30
0.0
 10
310.0341334945401
 20
-12.51534287881561
 30
0.0
 10
310.419295169791
 20
-11.52384439816071
 30
0.0
 10
310.419295169791
 20
-11.52384439816071
 30
0.0
 10
311.4342202997456
 20
-11.6547580266002
 30
0.0
 10
311.4342202997456
 20
-11.6547580266002
 30
0.0
 10
311.3625623136524
 20
-11.86766492758864
 30
0.0
 10
311.315709015053
 20
-11.98066405950483
 30
0.0
 10
311.1847953866135
 20
-12.24731445006317
 30
0.0
 10
311.1847953866135
 20
-12.24731445006317
 30
0.0
 10
313.4998995527014
 20
-12.24731445006317
 30
0.0
 10
313.4998995527014
 20
-12.24731445006317
 30
0.0
 10
313.0961343618301
 20
-14.80633137650675
 30
0.0
 10
311.7546141798738
 20
-16.28978949245533
 30
0.0
 10
309.2796575832704
 20
-16.87201062946255
 30
0.0
 10
309.2796575832704
 20
-16.87201062946255
 30
0.0
 10
308.7752956042298
 20
-16.02176106370289
 30
0.0
 10
308.7752956042298
 20
-16.02176106370289
 30
0.0
 10
309.1549451267043
 20
-15.9569932685802
 30
0.0
 10
310.087187965013
 20
-15.802652990841
 30
0.0
 10
311.0841985984442
 20
-15.03164062124209
 30
0.0
 10
310.5674342756568
 20
-14.61547308662391
 30
0.0
 10
310.1519557601356
 20
-14.40807833841187
 30
0.0
 10
309.908732018877
 20
-14.28405490094288
 30
0.0
 10
309.908732018877
 20
-14.28405490094288
 30
0.0
 10
310.5378064544836
 20
-13.64257812158936
 30
0.0
 10
310.5378064544836
 20
-13.64257812158936
 30
0.0
  0
HATCH
  5
235
330
1F
100
AcDbEntity
  8
\U+30D5\U+30A9\U+30FC\U+30DE\U+30C3\U+30C8
 62
     7
100
AcDbHatch
 10
0.0
 20
0.0
 30
0.0
210
0.0
220
0.0
230
1.0
  2
SOLID
 70
     1
 71
     0
 91
        1
 92
        1
 93
        1
 72
     4
 94
        3
 73
     0
 74
     1
 95
       47
 96
       43
 40
0.0
 40
0.0
 40
0.0
 40
0.0
 40
1.0
 40
1.0
 40
1.0
 40
2.0
 40
2.0
 40
2.0
 40
3.0
 40
3.0
 40
3.0
 40
4.0
 40
4.0
 40
4.0
 40
5.0
 40
5.0
 40
5.0
 40
6.0
 40
6.0
 40
6.0
 40
7.0
 40
7.0
 40
7.0
 40
8.0
 40
8.0
 40
8.0
 40
9.0
 40
9.0
 40
9.0
 40
10.0
 40
10.0
 40
10.0
 40
11.0
 40
11.0
 40
11.0
 40
12.0
 40
12.0
 40
12.0
 40
13.0
 40
13.0
 40
13.0
 40
14.0
 40
14.0
 40
14.0
 40
14.0
 10
310.5378064544836
 20
-13.64257812158936
 10
311.0015163067982
 20
-13.8320583732781
 10
311.3453368362262
 20
-14.00431314754059
 10
311.7718396573001
 20
-14.32539604676587
 10
312.0219535895292
 20
-13.97468532636744
 10
312.1824950391419
 20
-13.63637694971591
 10
312.3299451259106
 20
-13.11410047415203
 10
312.3299451259106
 20
-13.11410047415203
 10
310.6149765933532
 20
-13.11410047415203
 10
310.6149765933532
 20
-13.11410047415203
 10
310.1409314545828
 20
-13.7135470885855
 10
309.6234781126983
 20
-14.16485459715323
 10
309.0130071927121
 20
-14.51487629845461
 10
309.0130071927121
 20
-14.51487629845461
 10
308.4073594064051
 20
-13.82723523959875
 10
308.4073594064051
 20
-13.82723523959875
 10
309.5056558471028
 20
-13.23881293071807
 10
310.0341334945401
 20
-12.51534287881561
 10
310.419295169791
 20
-11.52384439816071
 10
310.419295169791
 20
-11.52384439816071
 10
311.4342202997456
 20
-11.6547580266002
 10
311.4342202997456
 20
-11.6547580266002
 10
311.3625623136524
 20
-11.86766492758864
 10
311.315709015053
 20
-11.98066405950483
 10
311.1847953866135
 20
-12.24731445006317
 10
311.1847953866135
 20
-12.24731445006317
 10
313.4998995527014
 20
-12.24731445006317
 10
313.4998995527014
 20
-12.24731445006317
 10
313.0961343618301
 20
-14.80633137650675
 10
311.7546141798738
 20
-16.28978949245533
 10
309.2796575832704
 20
-16.87201062946255
 10
309.2796575832704
 20
-16.87201062946255
 10
308.7752956042298
 20
-16.02176106370289
 10
308.7752956042298
 20
-16.02176106370289
 10
309.1549451267043
 20
-15.9569932685802
 10
310.087187965013
 20
-15.802652990841
 10
311.0841985984442
 20
-15.03164062124209
 10
310.5674342756568
 20
-14.61547308662391
 10
310.1519557601356
 20
-14.40807833841187
 10
309.908732018877
 20
-14.28405490094288
 10
309.908732018877
 20
-14.28405490094288
 10
310.5378064544836
 20
-13.64257812158936
 10
310.5378064544836
 20
-13.64257812158936
 97
        0
 75
     2
 76
     1
 98
        0
  0
SPLINE
  5
236
330
1F
100
AcDbEntity
  8
\U+30D5\U+30A9\U+30FC\U+30DE\U+30C3\U+30C8
370
     0
100
AcDbSpline
210
0.0
220
0.0
230
1.0
 70
    11
 71
     3
 72
    68
 73
    64
 74
     0
 42
0.0000000001
 43
0.0000000001
 40
0.0
 40
0.0
 40
0.0
 40
0.0
 40
1.0
 40
1.0
 40
1.0
 40
2.0
 40
2.0
 40
2.0
 40
3.0
 40
3.0
 40
3.0
 40
4.0
 40
4.0
 40
4.0
 40
5.0
 40
5.0
 40
5.0
 40
6.0
 40
6.0
 40
6.0
 40
7.0
 40
7.0
 40
7.0
 40
8.0
 40
8.0
 40
8.0
 40
9.0
 40
9.0
 40
9.0
 40
10.0
 40
10.0
 40
10.0
 40
11.0
 40
11.0
 40
11.0
 40
12.0
 40
12.0
 40
12.0
 40
13.0
 40
13.0
 40
13.0
 40
14.0
 40
14.0
 40
14.0
 40
15.0
 40
15.0
 40
15.0
 40
16.0
 40
16.0
 40
16.0
 40
17.0
 40
17.0
 40
17.0
 40
18.0
 40
18.0
 40
18.0
 40
19.0
 40
19.0
 40
19.0
 40
20.0
 40
20.0
 40
20.0
 40
21.0
 40
21.0
 40
21.0
 40
21.0
 10
319.0382350547891
 20
-12.63867729718755
 30
0.0
 10
319.0382350547891
 20
-12.63867729718755
 30
0.0
 10
319.0382350547891
 20
-13.54749348619646
 30
0.0
 10
319.0382350547891
 20
-13.54749348619646
 30
0.0
 10
319.0382350547891
 20
-14.17656792180308
 30
0.0
 10
318.9844915652192
 20
-15.38717447531987
 30
0.0
 10
318.8770045860794
 20
-15.8619086331873
 30
0.0
 10
318.6820121816143
 20
-16.72249348540271
 30
0.0
 10
318.1831623553501
 20
-16.79966362427231
 30
0.0
 10
317.6546847079127
 20
-16.79966362427231
 30
0.0
 10
317.0731525900026
 20
-16.79966362427231
 30
0.0
 10
316.7816975119504
 20
-16.73489582914961
 30
0.0
 10
316.6280462533083
 20
-16.69906683610301
 30
0.0
 10
316.6280462533083
 20
-16.69906683610301
 30
0.0
 10
316.5749917828354
 20
-15.76751301689146
 30
0.0
 10
316.5749917828354
 20
-15.76751301689146
 30
0.0
 10
316.7940998556973
 20
-15.8081651436174
 30
0.0
 10
317.1268960795725
 20
-15.86810980506075
 30
0.0
 10
317.4824299336502
 20
-15.86810980506075
 30
0.0
 10
317.7669948207319
 20
-15.86810980506075
 30
0.0
 10
317.8799939526481
 20
-15.802652990841
 30
0.0
 10
317.9399386140914
 20
-15.64280056032541
 30
0.0
 10
318.0398463831636
 20
-15.32240668019718
 30
0.0
 10
318.0873887008601
 20
-13.98157551733794
 30
0.0
 10
318.0873887008601
 20
-13.83825954515155
 30
0.0
 10
318.0873887008601
 20
-13.83825954515155
 30
0.0
 10
318.0873887008601
 20
-13.52888997057611
 30
0.0
 10
318.0873887008601
 20
-13.52888997057611
 30
0.0
 10
318.0873887008601
 20
-13.52888997057611
 30
0.0
 10
316.7940998556973
 20
-13.52888997057611
 30
0.0
 10
316.7940998556973
 20
-13.52888997057611
 30
0.0
 10
316.6693873991313
 20
-14.25373806067268
 30
0.0
 10
316.4737059755691
 20
-14.77601453623655
 30
0.0
 10
316.2477077117367
 20
-15.19149305175768
 30
0.0
 10
315.7020045868731
 20
-16.20090602893589
 30
0.0
 10
314.9778455158736
 20
-16.65221353750361
 30
0.0
 10
314.6808782850451
 20
-16.83618163641595
 30
0.0
 10
314.6808782850451
 20
-16.83618163641595
 30
0.0
 10
314.0276881810417
 20
-16.11753471819284
 30
0.0
 10
314.0276881810417
 20
-16.11753471819284
 30
0.0
 10
315.2272704290057
 20
-15.45332030863667
 30
0.0
 10
315.5945176077333
 20
-14.70435655014336
 30
0.0
 10
315.8081135278188
 20
-13.52888997057611
 30
0.0
 10
315.8081135278188
 20
-13.52888997057611
 30
0.0
 10
314.3067409153469
 20
-13.52888997057611
 30
0.0
 10
314.3067409153469
 20
-13.52888997057611
 30
0.0
 10
314.3067409153469
 20
-13.52888997057611
 30
0.0
 10
314.3067409153469
 20
-12.63867729718755
 30
0.0
 10
314.3067409153469
 20
-12.63867729718755
 30
0.0
 10
314.3067409153469
 20
-12.63867729718755
 30
0.0
 10
315.9156005069586
 20
-12.63867729718755
 30
0.0
 10
315.9156005069586
 20
-12.63867729718755
 30
0.0
 10
315.9445393090347
 20
-12.24111327818972
 30
0.0
 10
315.9514295000052
 20
-11.99237738415468
 30
0.0
 10
315.9514295000052
 20
-11.6120388425831
 30
0.0
 10
315.9514295000052
 20
-11.6120388425831
 30
0.0
 10
316.9539522862129
 20
-11.62444118633
 30
0.0
 10
316.9539522862129
 20
-11.62444118633
 30
0.0
 10
316.9360377896896
 20
-12.13500433724403
 30
0.0
 10
316.9188123122634
 20
-12.34239908545607
 30
0.0
 10
316.8953856629637
 20
-12.63867729718755
 30
0.0
 10
316.8953856629637
 20
-12.63867729718755
 30
0.0
 10
319.0382350547891
 20
-12.63867729718755
 30
0.0
 10
319.0382350547891
 20
-12.63867729718755
 30
0.0
  0
HATCH
  5
237
330
1F
100
AcDbEntity
  8
\U+30D5\U+30A9\U+30FC\U+30DE\U+30C3\U+30C8
 62
     7
100
AcDbHatch
 10
0.0
 20
0.0
 30
0.0
210
0.0
220
0.0
230
1.0
  2
SOLID
 70
     1
 71
     0
 91
        1
 92
        1
 93
        1
 72
     4
 94
        3
 73
     0
 74
     1
 95
       68
 96
       64
 40
0.0
 40
0.0
 40
0.0
 40
0.0
 40
1.0
 40
1.0
 40
1.0
 40
2.0
 40
2.0
 40
2.0
 40
3.0
 40
3.0
 40
3.0
 40
4.0
 40
4.0
 40
4.0
 40
5.0
 40
5.0
 40
5.0
 40
6.0
 40
6.0
 40
6.0
 40
7.0
 40
7.0
 40
7.0
 40
8.0
 40
8.0
 40
8.0
 40
9.0
 40
9.0
 40
9.0
 40
10.0
 40
10.0
 40
10.0
 40
11.0
 40
11.0
 40
11.0
 40
12.0
 40
12.0
 40
12.0
 40
13.0
 40
13.0
 40
13.0
 40
14.0
 40
14.0
 40
14.0
 40
15.0
 40
15.0
 40
15.0
 40
16.0
 40
16.0
 40
16.0
 40
17.0
 40
17.0
 40
17.0
 40
18.0
 40
18.0
 40
18.0
 40
19.0
 40
19.0
 40
19.0
 40
20.0
 40
20.0
 40
20.0
 40
21.0
 40
21.0
 40
21.0
 40
21.0
 10
319.0382350547891
 20
-12.63867729718755
 10
319.0382350547891
 20
-12.63867729718755
 10
319.0382350547891
 20
-13.54749348619646
 10
319.0382350547891
 20
-13.54749348619646
 10
319.0382350547891
 20
-14.17656792180308
 10
318.9844915652192
 20
-15.38717447531987
 10
318.8770045860794
 20
-15.8619086331873
 10
318.6820121816143
 20
-16.72249348540271
 10
318.1831623553501
 20
-16.79966362427231
 10
317.6546847079127
 20
-16.79966362427231
 10
317.0731525900026
 20
-16.79966362427231
 10
316.7816975119504
 20
-16.73489582914961
 10
316.6280462533083
 20
-16.69906683610301
 10
316.6280462533083
 20
-16.69906683610301
 10
316.5749917828354
 20
-15.76751301689146
 10
316.5749917828354
 20
-15.76751301689146
 10
316.7940998556973
 20
-15.8081651436174
 10
317.1268960795725
 20
-15.86810980506075
 10
317.4824299336502
 20
-15.86810980506075
 10
317.7669948207319
 20
-15.86810980506075
 10
317.8799939526481
 20
-15.802652990841
 10
317.9399386140914
 20
-15.64280056032541
 10
318.0398463831636
 20
-15.32240668019718
 10
318.0873887008601
 20
-13.98157551733794
 10
318.0873887008601
 20
-13.83825954515155
 10
318.0873887008601
 20
-13.83825954515155
 10
318.0873887008601
 20
-13.52888997057611
 10
318.0873887008601
 20
-13.52888997057611
 10
318.0873887008601
 20
-13.52888997057611
 10
316.7940998556973
 20
-13.52888997057611
 10
316.7940998556973
 20
-13.52888997057611
 10
316.6693873991313
 20
-14.25373806067268
 10
316.4737059755691
 20
-14.77601453623655
 10
316.2477077117367
 20
-15.19149305175768
 10
315.7020045868731
 20
-16.20090602893589
 10
314.9778455158736
 20
-16.65221353750361
 10
314.6808782850451
 20
-16.83618163641595
 10
314.6808782850451
 20
-16.83618163641595
 10
314.0276881810417
 20
-16.11753471819284
 10
314.0276881810417
 20
-16.11753471819284
 10
315.2272704290057
 20
-15.45332030863667
 10
315.5945176077333
 20
-14.70435655014336
 10
315.8081135278188
 20
-13.52888997057611
 10
315.8081135278188
 20
-13.52888997057611
 10
314.3067409153469
 20
-13.52888997057611
 10
314.3067409153469
 20
-13.52888997057611
 10
314.3067409153469
 20
-13.52888997057611
 10
314.3067409153469
 20
-12.63867729718755
 10
314.3067409153469
 20
-12.63867729718755
 10
314.3067409153469
 20
-12.63867729718755
 10
315.9156005069586
 20
-12.63867729718755
 10
315.9156005069586
 20
-12.63867729718755
 10
315.9445393090347
 20
-12.24111327818972
 10
315.9514295000052
 20
-11.99237738415468
 10
315.9514295000052
 20
-11.6120388425831
 10
315.9514295000052
 20
-11.6120388425831
 10
316.9539522862129
 20
-11.62444118633
 10
316.9539522862129
 20
-11.62444118633
 10
316.9360377896896
 20
-12.13500433724403
 10
316.9188123122634
 20
-12.34239908545607
 10
316.8953856629637
 20
-12.63867729718755
 10
316.8953856629637
 20
-12.63867729718755
 10
319.0382350547891
 20
-12.63867729718755
 10
319.0382350547891
 20
-12.63867729718755
 97
        0
 75
     2
 76
     1
 98
        0
  0
SPLINE
  5
238
330
1F
100
AcDbEntity
  8
\U+30D5\U+30A9\U+30FC\U+30DE\U+30C3\U+30C8
370
     0
100
AcDbSpline
210
0.0
220
0.0
230
1.0
 70
    11
 71
     3
 72
    17
 73
    13
 74
     0
 42
0.0000000001
 43
0.0000000001
 40
0.0
 40
0.0
 40
0.0
 40
0.0
 40
1.0
 40
1.0
 40
1.0
 40
2.0
 40
2.0
 40
2.0
 40
3.0
 40
3.0
 40
3.0
 40
4.0
 40
4.0
 40
4.0
 40
4.0
 10
322.1181504186024
 20
-13.20367295676853
 30
0.0
 10
321.5421304534686
 20
-12.90601670684294
 30
0.0
 10
320.9254583616089
 20
-12.70482313050435
 30
0.0
 10
320.3018960787787
 20
-12.55048285276516
 30
0.0
 10
320.3018960787787
 20
-12.55048285276516
 30
0.0
 10
320.6402044554303
 20
-11.76155598664294
 30
0.0
 10
320.6402044554303
 20
-11.76155598664294
 30
0.0
 10
321.2038220768171
 20
-11.86766492758864
 30
0.0
 10
321.9162678231668
 20
-12.08126084767413
 30
0.0
 10
322.4922877883005
 20
-12.36031358197937
 30
0.0
 10
322.4922877883005
 20
-12.36031358197937
 30
0.0
 10
322.1181504186024
 20
-13.20367295676853
 30
0.0
 10
322.1181504186024
 20
-13.20367295676853
 30
0.0
  0
SPLINE
  5
239
330
1F
100
AcDbEntity
  8
\U+30D5\U+30A9\U+30FC\U+30DE\U+30C3\U+30C8
370
     0
100
AcDbSpline
210
0.0
220
0.0
230
1.0
 70
    11
 71
     3
 72
    17
 73
    13
 74
     0
 42
0.0000000001
 43
0.0000000001
 40
0.0
 40
0.0
 40
0.0
 40
0.0
 40
1.0
 40
1.0
 40
1.0
 40
2.0
 40
2.0
 40
2.0
 40
3.0
 40
3.0
 40
3.0
 40
4.0
 40
4.0
 40
4.0
 40
4.0
 10
321.5958739430386
 20
-14.63338758314721
 30
0.0
 10
321.0853107921245
 20
-14.34882269606557
 30
0.0
 10
320.4734618339442
 20
-14.11180012668038
 30
0.0
 10
319.8450764174346
 20
-13.93885633332084
 30
0.0
 10
319.8450764174346
 20
-13.93885633332084
 30
0.0
 10
320.1771836222127
 20
-13.14441731442223
 30
0.0
 10
320.1771836222127
 20
-13.14441731442223
 30
0.0
 10
320.6402044554303
 20
-13.23881293071807
 30
0.0
 10
321.3939913476029
 20
-13.47583550010326
 30
0.0
 10
321.9582979880868
 20
-13.78451605558165
 30
0.0
 10
321.9582979880868
 20
-13.78451605558165
 30
0.0
 10
321.5958739430386
 20
-14.63338758314721
 30
0.0
 10
321.5958739430386
 20
-14.63338758314721
 30
0.0
  0
SPLINE
  5
23A
330
1F
100
AcDbEntity
  8
\U+30D5\U+30A9\U+30FC\U+30DE\U+30C3\U+30C8
370
     0
100
AcDbSpline
210
0.0
220
0.0
230
1.0
 70
    11
 71
     3
 72
    17
 73
    13
 74
     0
 42
0.0000000001
 43
0.0000000001
 40
0.0
 40
0.0
 40
0.0
 40
0.0
 40
1.0
 40
1.0
 40
1.0
 40
2.0
 40
2.0
 40
2.0
 40
3.0
 40
3.0
 40
3.0
 40
4.0
 40
4.0
 40
4.0
 40
4.0
 10
320.1592691256894
 20
-15.76200086411506
 30
0.0
 10
322.0285779359859
 20
-15.59456922353191
 30
0.0
 10
323.3349581439927
 20
-15.25143771320103
 30
0.0
 10
324.1424885257352
 20
-12.54428168089171
 30
0.0
 10
324.1424885257352
 20
-12.54428168089171
 30
0.0
 10
325.0382133519002
 20
-12.97147352106269
 30
0.0
 10
325.0382133519002
 20
-12.97147352106269
 30
0.0
 10
324.0770317115155
 20
-15.82676865923775
 30
0.0
 10
322.6163112257696
 20
-16.51509873719067
 30
0.0
 10
320.4197183443742
 20
-16.78243814684606
 30
0.0
 10
320.4197183443742
 20
-16.78243814684606
 30
0.0
 10
320.1592691256894
 20
-15.76200086411506
 30
0.0
 10
320.1592691256894
 20
-15.76200086411506
 30
0.0
  0
HATCH
  5
23B
330
1F
100
AcDbEntity
  8
\U+30D5\U+30A9\U+30FC\U+30DE\U+30C3\U+30C8
 62
     7
100
AcDbHatch
 10
0.0
 20
0.0
 30
0.0
210
0.0
220
0.0
230
1.0
  2
SOLID
 70
     1
 71
     0
 91
        3
 92
        1
 93
        1
 72
     4
 94
        3
 73
     0
 74
     1
 95
       17
 96
       13
 40
0.0
 40
0.0
 40
0.0
 40
0.0
 40
1.0
 40
1.0
 40
1.0
 40
2.0
 40
2.0
 40
2.0
 40
3.0
 40
3.0
 40
3.0
 40
4.0
 40
4.0
 40
4.0
 40
4.0
 10
320.1592691256894
 20
-15.76200086411506
 10
322.0285779359859
 20
-15.59456922353191
 10
323.3349581439927
 20
-15.25143771320103
 10
324.1424885257352
 20
-12.54428168089171
 10
324.1424885257352
 20
-12.54428168089171
 10
325.0382133519002
 20
-12.97147352106269
 10
325.0382133519002
 20
-12.97147352106269
 10
324.0770317115155
 20
-15.82676865923775
 10
322.6163112257696
 20
-16.51509873719067
 10
320.4197183443742
 20
-16.78243814684606
 10
320.4197183443742
 20
-16.78243814684606
 10
320.1592691256894
 20
-15.76200086411506
 10
320.1592691256894
 20
-15.76200086411506
 97
        0
 92
        1
 93
        2
 72
     4
 94
        3
 73
     0
 74
     0
 95
       17
 96
       13
 40
0.0
 40
0.0
 40
0.0
 40
0.0
 40
0.3527777776895833
 40
0.3527777776895833
 40
0.3527777776895833
 40
0.7055555553791667
 40
0.7055555553791667
 40
0.7055555553791667
 40
1.05833333306875
 40
1.05833333306875
 40
1.05833333306875
 40
1.411111110758333
 40
1.411111110758333
 40
1.411111110758333
 40
1.411111110758333
 10
322.1181504186024
 20
-13.20367295676853
 10
321.5421304534686
 20
-12.90601670684294
 10
320.9254583616089
 20
-12.70482313050435
 10
320.3018960787787
 20
-12.55048285276516
 10
320.3018960787787
 20
-12.55048285276516
 10
320.6402044554303
 20
-11.76155598664294
 10
320.6402044554303
 20
-11.76155598664294
 10
321.2038220768171
 20
-11.86766492758864
 10
321.9162678231668
 20
-12.08126084767413
 10
322.4922877883005
 20
-12.36031358197937
 10
322.4922877883005
 20
-12.36031358197937
 10
322.1181504186024
 20
-13.20367295676853
 10
322.1181504186024
 20
-13.20367295676853
 72
     1
 10
322.1181504186024
 20
-13.20367295676853
 11
322.1181504186024
 21
-13.20367295676853
 97
        0
 92
        1
 93
        2
 72
     4
 94
        3
 73
     0
 74
     0
 95
       17
 96
       13
 40
0.0
 40
0.0
 40
0.0
 40
0.0
 40
0.3527777776895833
 40
0.3527777776895833
 40
0.3527777776895833
 40
0.7055555553791667
 40
0.7055555553791667
 40
0.7055555553791667
 40
1.05833333306875
 40
1.05833333306875
 40
1.05833333306875
 40
1.411111110758333
 40
1.411111110758333
 40
1.411111110758333
 40
1.411111110758333
 10
321.5958739430386
 20
-14.63338758314721
 10
321.0853107921245
 20
-14.34882269606557
 10
320.4734618339442
 20
-14.11180012668038
 10
319.8450764174346
 20
-13.93885633332084
 10
319.8450764174346
 20
-13.93885633332084
 10
320.1771836222127
 20
-13.14441731442223
 10
320.1771836222127
 20
-13.14441731442223
 10
320.6402044554303
 20
-13.23881293071807
 10
321.3939913476029
 20
-13.47583550010326
 10
321.9582979880868
 20
-13.78451605558165
 10
321.9582979880868
 20
-13.78451605558165
 10
321.5958739430386
 20
-14.63338758314721
 10
321.5958739430386
 20
-14.63338758314721
 72
     1
 10
321.5958739430386
 20
-14.63338758314721
 11
321.5958739430386
 21
-14.63338758314721
 97
        0
 75
     2
 76
     1
 98
        0
  0
POLYLINE
  5
23C
330
1F
100
AcDbEntity
  8
\U+30D5\U+30A9\U+30FC\U+30DE\U+30C3\U+30C8
370
     0
100
AcDb2dPolyline
 66
     1
 10
0.0
 20
0.0
 30
0.0
  0
VERTEX
  5
23D
330
23C
100
AcDbEntity
  8
\U+30D5\U+30A9\U+30FC\U+30DE\U+30C3\U+30C8
370
     0
100
AcDbVertex
100
AcDb2dVertex
 10
329.2770588369516
 20
-12.82333441519694
 30
0.0
  0
VERTEX
  5
23E
330
23C
100
AcDbEntity
  8
\U+30D5\U+30A9\U+30FC\U+30DE\U+30C3\U+30C8
370
     0
100
AcDbVertex
100
AcDb2dVertex
 10
329.2770588369516
 20
-16.68115233957971
 30
0.0
  0
VERTEX
  5
23F
330
23C
100
AcDbEntity
  8
\U+30D5\U+30A9\U+30FC\U+30DE\U+30C3\U+30C8
370
     0
100
AcDbVertex
100
AcDb2dVertex
 10
325.6438611382071
 20
-16.68115233957971
 30
0.0
  0
VERTEX
  5
240
330
23C
100
AcDbEntity
  8
\U+30D5\U+30A9\U+30FC\U+30DE\U+30C3\U+30C8
370
     0
100
AcDbVertex
100
AcDb2dVertex
 10
325.6438611382071
 20
-15.8619086331873
 30
0.0
  0
VERTEX
  5
241
330
23C
100
AcDbEntity
  8
\U+30D5\U+30A9\U+30FC\U+30DE\U+30C3\U+30C8
370
     0
100
AcDbVertex
100
AcDb2dVertex
 10
328.3737548007191
 20
-15.8619086331873
 30
0.0
  0
VERTEX
  5
242
330
23C
100
AcDbEntity
  8
\U+30D5\U+30A9\U+30FC\U+30DE\U+30C3\U+30C8
370
     0
100
AcDbVertex
100
AcDb2dVertex
 10
328.3737548007191
 20
-15.11432291288809
 30
0.0
  0
VERTEX
  5
243
330
23C
100
AcDbEntity
  8
\U+30D5\U+30A9\U+30FC\U+30DE\U+30C3\U+30C8
370
     0
100
AcDbVertex
100
AcDb2dVertex
 10
325.7982014159463
 20
-15.11432291288809
 30
0.0
  0
VERTEX
  5
244
330
23C
100
AcDbEntity
  8
\U+30D5\U+30A9\U+30FC\U+30DE\U+30C3\U+30C8
370
     0
100
AcDbVertex
100
AcDb2dVertex
 10
325.7982014159463
 20
-14.33090819954227
 30
0.0
  0
VERTEX
  5
245
330
23C
100
AcDbEntity
  8
\U+30D5\U+30A9\U+30FC\U+30DE\U+30C3\U+30C8
370
     0
100
AcDbVertex
100
AcDb2dVertex
 10
328.3737548007191
 20
-14.33090819954227
 30
0.0
  0
VERTEX
  5
246
330
23C
100
AcDbEntity
  8
\U+30D5\U+30A9\U+30FC\U+30DE\U+30C3\U+30C8
370
     0
100
AcDbVertex
100
AcDb2dVertex
 10
328.3737548007191
 20
-13.62397460596901
 30
0.0
  0
VERTEX
  5
247
330
23C
100
AcDbEntity
  8
\U+30D5\U+30A9\U+30FC\U+30DE\U+30C3\U+30C8
370
     0
100
AcDbVertex
100
AcDb2dVertex
 10
325.7031167805534
 20
-13.62397460596901
 30
0.0
  0
VERTEX
  5
248
330
23C
100
AcDbEntity
  8
\U+30D5\U+30A9\U+30FC\U+30DE\U+30C3\U+30C8
370
     0
100
AcDbVertex
100
AcDb2dVertex
 10
325.7031167805534
 20
-12.82333441519694
 30
0.0
  0
VERTEX
  5
249
330
23C
100
AcDbEntity
  8
\U+30D5\U+30A9\U+30FC\U+30DE\U+30C3\U+30C8
370
     0
100
AcDbVertex
100
AcDb2dVertex
 10
329.2770588369516
 20
-12.82333441519694
 30
0.0
  0
SEQEND
  5
24A
330
23C
100
AcDbEntity
  8
\U+30D5\U+30A9\U+30FC\U+30DE\U+30C3\U+30C8
370
     0
  0
HATCH
  5
24B
330
1F
100
AcDbEntity
  8
\U+30D5\U+30A9\U+30FC\U+30DE\U+30C3\U+30C8
 62
     7
100
AcDbHatch
 10
0.0
 20
0.0
 30
0.0
210
0.0
220
0.0
230
1.0
  2
SOLID
 70
     1
 71
     0
 91
        1
 92
        1
 93
       12
 72
     1
 10
329.2770588369516
 20
-12.82333441519694
 11
329.2770588369516
 21
-16.68115233957971
 72
     1
 10
329.2770588369516
 20
-16.68115233957971
 11
325.6438611382071
 21
-16.68115233957971
 72
     1
 10
325.6438611382071
 20
-16.68115233957971
 11
325.6438611382071
 21
-15.8619086331873
 72
     1
 10
325.6438611382071
 20
-15.8619086331873
 11
328.3737548007191
 21
-15.8619086331873
 72
     1
 10
328.3737548007191
 20
-15.8619086331873
 11
328.3737548007191
 21
-15.11432291288809
 72
     1
 10
328.3737548007191
 20
-15.11432291288809
 11
325.7982014159463
 21
-15.11432291288809
 72
     1
 10
325.7982014159463
 20
-15.11432291288809
 11
325.7982014159463
 21
-14.33090819954227
 72
     1
 10
325.7982014159463
 20
-14.33090819954227
 11
328.3737548007191
 21
-14.33090819954227
 72
     1
 10
328.3737548007191
 20
-14.33090819954227
 11
328.3737548007191
 21
-13.62397460596901
 72
     1
 10
328.3737548007191
 20
-13.62397460596901
 11
325.7031167805534
 21
-13.62397460596901
 72
     1
 10
325.7031167805534
 20
-13.62397460596901
 11
325.7031167805534
 21
-12.82333441519694
 72
     1
 10
325.7031167805534
 20
-12.82333441519694
 11
329.2770588369516
 21
-12.82333441519694
 97
        0
 75
     2
 76
     1
 98
        0
  0
POLYLINE
  5
24C
330
1F
100
AcDbEntity
  8
\U+30D5\U+30A9\U+30FC\U+30DE\U+30C3\U+30C8
370
     0
100
AcDb2dPolyline
 66
     1
 10
0.0
 20
0.0
 30
0.0
  0
VERTEX
  5
24D
330
24C
100
AcDbEntity
  8
\U+30D5\U+30A9\U+30FC\U+30DE\U+30C3\U+30C8
370
     0
100
AcDbVertex
100
AcDb2dVertex
 10
334.5287623946664
 20
-13.85617404167485
 30
0.0
  0
VERTEX
  5
24E
330
24C
100
AcDbEntity
  8
\U+30D5\U+30A9\U+30FC\U+30DE\U+30C3\U+30C8
370
     0
100
AcDbVertex
100
AcDb2dVertex
 10
334.5287623946664
 20
-14.60375976197406
 30
0.0
  0
VERTEX
  5
24F
330
24C
100
AcDbEntity
  8
\U+30D5\U+30A9\U+30FC\U+30DE\U+30C3\U+30C8
370
     0
100
AcDbVertex
100
AcDb2dVertex
 10
330.1245523263231
 20
-14.60375976197406
 30
0.0
  0
VERTEX
  5
250
330
24C
100
AcDbEntity
  8
\U+30D5\U+30A9\U+30FC\U+30DE\U+30C3\U+30C8
370
     0
100
AcDbVertex
100
AcDb2dVertex
 10
330.1245523263231
 20
-13.85617404167485
 30
0.0
  0
VERTEX
  5
251
330
24C
100
AcDbEntity
  8
\U+30D5\U+30A9\U+30FC\U+30DE\U+30C3\U+30C8
370
     0
100
AcDbVertex
100
AcDb2dVertex
 10
334.5287623946664
 20
-13.85617404167485
 30
0.0
  0
SEQEND
  5
252
330
24C
100
AcDbEntity
  8
\U+30D5\U+30A9\U+30FC\U+30DE\U+30C3\U+30C8
370
     0
  0
HATCH
  5
253
330
1F
100
AcDbEntity
  8
\U+30D5\U+30A9\U+30FC\U+30DE\U+30C3\U+30C8
 62
     7
100
AcDbHatch
 10
0.0
 20
0.0
 30
0.0
210
0.0
220
0.0
230
1.0
  2
SOLID
 70
     1
 71
     0
 91
        1
 92
        1
 93
        4
 72
     1
 10
334.5287623946664
 20
-13.85617404167485
 11
334.5287623946664
 21
-14.60375976197406
 72
     1
 10
334.5287623946664
 20
-14.60375976197406
 11
330.1245523263231
 21
-14.60375976197406
 72
     1
 10
330.1245523263231
 20
-14.60375976197406
 11
330.1245523263231
 21
-13.85617404167485
 72
     1
 10
330.1245523263231
 20
-13.85617404167485
 11
334.5287623946664
 21
-13.85617404167485
 97
        0
 75
     2
 76
     1
 98
        0
  0
POLYLINE
  5
254
330
1F
100
AcDbEntity
  8
\U+30D5\U+30A9\U+30FC\U+30DE\U+30C3\U+30C8
 62
     7
370
    35
100
AcDb2dPolyline
 66
     1
 10
0.0
 20
0.0
 30
0.0
  0
VERTEX
  5
255
330
254
100
AcDbEntity
  8
\U+30D5\U+30A9\U+30FC\U+30DE\U+30C3\U+30C8
 62
     7
370
    35
100
AcDbVertex
100
AcDb2dVertex
 10
-23.42113714692249
 20
243.4431938410489
 30
0.0
  0
VERTEX
  5
256
330
254
100
AcDbEntity
  8
\U+30D5\U+30A9\U+30FC\U+30DE\U+30C3\U+30C8
 62
     7
370
    35
100
AcDbVertex
100
AcDb2dVertex
 10
-23.42113714692249
 20
236.5006374191735
 30
0.0
  0
SEQEND
  5
257
330
254
100
AcDbEntity
  8
\U+30D5\U+30A9\U+30FC\U+30DE\U+30C3\U+30C8
370
    35
  0
POLYLINE
  5
258
330
1F
100
AcDbEntity
  8
\U+30D5\U+30A9\U+30FC\U+30DE\U+30C3\U+30C8
 62
     7
370
    35
100
AcDb2dPolyline
 66
     1
 10
0.0
 20
0.0
 30
0.0
  0
VERTEX
  5
259
330
258
100
AcDbEntity
  8
\U+30D5\U+30A9\U+30FC\U+30DE\U+30C3\U+30C8
 62
     7
370
    35
100
AcDbVertex
100
AcDb2dVertex
 10
-8.435144040859964
 20
236.5006374191735
 30
0.0
  0
VERTEX
  5
25A
330
258
100
AcDbEntity
  8
\U+30D5\U+30A9\U+30FC\U+30DE\U+30C3\U+30C8
 62
     7
370
    35
100
AcDbVertex
100
AcDb2dVertex
 10
-8.435144040859964
 20
243.4431938410489
 30
0.0
  0
SEQEND
  5
25B
330
258
100
AcDbEntity
  8
\U+30D5\U+30A9\U+30FC\U+30DE\U+30C3\U+30C8
370
    35
  0
POLYLINE
  5
25C
330
1F
100
AcDbEntity
  8
\U+30D5\U+30A9\U+30FC\U+30DE\U+30C3\U+30C8
 62
     7
370
    35
100
AcDb2dPolyline
 66
     1
 10
0.0
 20
0.0
 30
0.0
  0
VERTEX
  5
25D
330
25C
100
AcDbEntity
  8
\U+30D5\U+30A9\U+30FC\U+30DE\U+30C3\U+30C8
 62
     7
370
    35
100
AcDbVertex
100
AcDb2dVertex
 10
-23.42113714692249
 20
243.4431938410489
 30
0.0
  0
VERTEX
  5
25E
330
25C
100
AcDbEntity
  8
\U+30D5\U+30A9\U+30FC\U+30DE\U+30C3\U+30C8
 62
     7
370
    35
100
AcDbVertex
100
AcDb2dVertex
 10
-23.42113714692249
 20
236.5006374191735
 30
0.0
  0
SEQEND
  5
25F
330
25C
100
AcDbEntity
  8
\U+30D5\U+30A9\U+30FC\U+30DE\U+30C3\U+30C8
370
    35
  0
POLYLINE
  5
260
330
1F
100
AcDbEntity
  8
\U+30D5\U+30A9\U+30FC\U+30DE\U+30C3\U+30C8
 62
     7
370
    35
100
AcDb2dPolyline
 66
     1
 10
0.0
 20
0.0
 30
0.0
  0
VERTEX
  5
261
330
260
100
AcDbEntity
  8
\U+30D5\U+30A9\U+30FC\U+30DE\U+30C3\U+30C8
 62
     7
370
    35
100
AcDbVertex
100
AcDb2dVertex
 10
-46.36581758823494
 20
236.5006374191735
 30
0.0
  0
VERTEX
  5
262
330
260
100
AcDbEntity
  8
\U+30D5\U+30A9\U+30FC\U+30DE\U+30C3\U+30C8
 62
     7
370
    35
100
AcDbVertex
100
AcDb2dVertex
 10
-8.435144040859964
 20
236.5006374191735
 30
0.0
  0
SEQEND
  5
263
330
260
100
AcDbEntity
  8
\U+30D5\U+30A9\U+30FC\U+30DE\U+30C3\U+30C8
370
    35
  0
POLYLINE
  5
264
330
1F
100
AcDbEntity
  8
\U+30D5\U+30A9\U+30FC\U+30DE\U+30C3\U+30C8
 62
     7
370
    35
100
AcDb2dPolyline
 66
     1
 10
0.0
 20
0.0
 30
0.0
  0
VERTEX
  5
265
330
264
100
AcDbEntity
  8
\U+30D5\U+30A9\U+30FC\U+30DE\U+30C3\U+30C8
 62
     7
370
    35
100
AcDbVertex
100
AcDb2dVertex
 10
-46.36581758823494
 20
-33.41673718782637
 30
0.0
  0
VERTEX
  5
266
330
264
100
AcDbEntity
  8
\U+30D5\U+30A9\U+30FC\U+30DE\U+30C3\U+30C8
 62
     7
370
    35
100
AcDbVertex
100
AcDb2dVertex
 10
-46.36581758823494
 20
243.4431938410489
 30
0.0
  0
SEQEND
  5
267
330
264
100
AcDbEntity
  8
\U+30D5\U+30A9\U+30FC\U+30DE\U+30C3\U+30C8
370
    35
  0
POLYLINE
  5
268
330
1F
100
AcDbEntity
  8
\U+30D5\U+30A9\U+30FC\U+30DE\U+30C3\U+30C8
 62
     7
370
    35
100
AcDb2dPolyline
 66
     1
 10
0.0
 20
0.0
 30
0.0
  0
VERTEX
  5
269
330
268
100
AcDbEntity
  8
\U+30D5\U+30A9\U+30FC\U+30DE\U+30C3\U+30C8
 62
     7
370
    35
100
AcDbVertex
100
AcDb2dVertex
 10
343.5242512162023
 20
-33.41673718782637
 30
0.0
  0
VERTEX
  5
26A
330
268
100
AcDbEntity
  8
\U+30D5\U+30A9\U+30FC\U+30DE\U+30C3\U+30C8
 62
     7
370
    35
100
AcDbVertex
100
AcDb2dVertex
 10
343.5242512162023
 20
243.4431938410489
 30
0.0
  0
VERTEX
  5
26B
330
268
100
AcDbEntity
  8
\U+30D5\U+30A9\U+30FC\U+30DE\U+30C3\U+30C8
 62
     7
370
    35
100
AcDbVertex
100
AcDb2dVertex
 10
-46.36581758823494
 20
243.4431938410489
 30
0.0
  0
SEQEND
  5
26C
330
268
100
AcDbEntity
  8
\U+30D5\U+30A9\U+30FC\U+30DE\U+30C3\U+30C8
370
    35
  0
POLYLINE
  5
26D
330
1F
100
AcDbEntity
  8
\U+30D5\U+30A9\U+30FC\U+30DE\U+30C3\U+30C8
 62
     7
370
    35
100
AcDb2dPolyline
 66
     1
 10
0.0
 20
0.0
 30
0.0
  0
VERTEX
  5
26E
330
26D
100
AcDbEntity
  8
\U+30D5\U+30A9\U+30FC\U+30DE\U+30C3\U+30C8
 62
     7
370
    35
100
AcDbVertex
100
AcDb2dVertex
 10
-36.37504068101041
 20
-8.440139429313577
 30
0.0
  0
VERTEX
  5
26F
330
26D
100
AcDbEntity
  8
\U+30D5\U+30A9\U+30FC\U+30DE\U+30C3\U+30C8
 62
     7
370
    35
100
AcDbVertex
100
AcDb2dVertex
 10
-36.37504068101041
 20
-33.41673718782637
 30
0.0
  0
SEQEND
  5
270
330
26D
100
AcDbEntity
  8
\U+30D5\U+30A9\U+30FC\U+30DE\U+30C3\U+30C8
370
    35
  0
POLYLINE
  5
271
330
1F
100
AcDbEntity
  8
\U+30D5\U+30A9\U+30FC\U+30DE\U+30C3\U+30C8
 62
     7
370
    35
100
AcDb2dPolyline
 66
     1
 10
0.0
 20
0.0
 30
0.0
  0
VERTEX
  5
272
330
271
100
AcDbEntity
  8
\U+30D5\U+30A9\U+30FC\U+30DE\U+30C3\U+30C8
 62
     7
370
    35
100
AcDbVertex
100
AcDb2dVertex
 10
-26.38443602856014
 20
-8.440139429313577
 30
0.0
  0
VERTEX
  5
273
330
271
100
AcDbEntity
  8
\U+30D5\U+30A9\U+30FC\U+30DE\U+30C3\U+30C8
 62
     7
370
    35
100
AcDbVertex
100
AcDb2dVertex
 10
-26.38443602856014
 20
-33.41673718782637
 30
0.0
  0
SEQEND
  5
274
330
271
100
AcDbEntity
  8
\U+30D5\U+30A9\U+30FC\U+30DE\U+30C3\U+30C8
370
    35
  0
POLYLINE
  5
275
330
1F
100
AcDbEntity
  8
\U+30D5\U+30A9\U+30FC\U+30DE\U+30C3\U+30C8
 62
     7
370
    35
100
AcDb2dPolyline
 66
     1
 10
0.0
 20
0.0
 30
0.0
  0
VERTEX
  5
276
330
275
100
AcDbEntity
  8
\U+30D5\U+30A9\U+30FC\U+30DE\U+30C3\U+30C8
 62
     7
370
    35
100
AcDbVertex
100
AcDb2dVertex
 10
-46.36581758823494
 20
-8.440139429313577
 30
0.0
  0
VERTEX
  5
277
330
275
100
AcDbEntity
  8
\U+30D5\U+30A9\U+30FC\U+30DE\U+30C3\U+30C8
 62
     7
370
    35
100
AcDbVertex
100
AcDb2dVertex
 10
343.5242512162023
 20
-8.440139429313577
 30
0.0
  0
SEQEND
  5
278
330
275
100
AcDbEntity
  8
\U+30D5\U+30A9\U+30FC\U+30DE\U+30C3\U+30C8
370
    35
  0
POLYLINE
  5
279
330
1F
100
AcDbEntity
  8
\U+30D5\U+30A9\U+30FC\U+30DE\U+30C3\U+30C8
 62
     7
370
    35
100
AcDb2dPolyline
 66
     1
 10
0.0
 20
0.0
 30
0.0
  0
VERTEX
  5
27A
330
279
100
AcDbEntity
  8
\U+30D5\U+30A9\U+30FC\U+30DE\U+30C3\U+30C8
 62
     7
370
    35
100
AcDbVertex
100
AcDb2dVertex
 10
-46.36581758823494
 20
-33.41673718782637
 30
0.0
  0
VERTEX
  5
27B
330
279
100
AcDbEntity
  8
\U+30D5\U+30A9\U+30FC\U+30DE\U+30C3\U+30C8
 62
     7
370
    35
100
AcDbVertex
100
AcDb2dVertex
 10
-46.36581758823494
 20
-8.440139429313577
 30
0.0
  0
SEQEND
  5
27C
330
279
100
AcDbEntity
  8
\U+30D5\U+30A9\U+30FC\U+30DE\U+30C3\U+30C8
370
    35
  0
POLYLINE
  5
27D
330
1F
100
AcDbEntity
  8
\U+30D5\U+30A9\U+30FC\U+30DE\U+30C3\U+30C8
 62
     7
370
    35
100
AcDb2dPolyline
 66
     1
 10
0.0
 20
0.0
 30
0.0
  0
VERTEX
  5
27E
330
27D
100
AcDbEntity
  8
\U+30D5\U+30A9\U+30FC\U+30DE\U+30C3\U+30C8
 62
     7
370
    35
100
AcDbVertex
100
AcDb2dVertex
 10
-36.37504068101041
 20
-15.46744520012619
 30
0.0
  0
VERTEX
  5
27F
330
27D
100
AcDbEntity
  8
\U+30D5\U+30A9\U+30FC\U+30DE\U+30C3\U+30C8
 62
     7
370
    35
100
AcDbVertex
100
AcDb2dVertex
 10
87.5769110566648
 20
-15.46744520012619
 30
0.0
  0
SEQEND
  5
280
330
27D
100
AcDbEntity
  8
\U+30D5\U+30A9\U+30FC\U+30DE\U+30C3\U+30C8
370
    35
  0
POLYLINE
  5
281
330
1F
100
AcDbEntity
  8
\U+30D5\U+30A9\U+30FC\U+30DE\U+30C3\U+30C8
 62
     7
370
    35
100
AcDb2dPolyline
 66
     1
 10
0.0
 20
0.0
 30
0.0
  0
VERTEX
  5
282
330
281
100
AcDbEntity
  8
\U+30D5\U+30A9\U+30FC\U+30DE\U+30C3\U+30C8
 62
     7
370
    35
100
AcDbVertex
100
AcDb2dVertex
 10
-36.37504068101041
 20
-22.49475097093881
 30
0.0
  0
VERTEX
  5
283
330
281
100
AcDbEntity
  8
\U+30D5\U+30A9\U+30FC\U+30DE\U+30C3\U+30C8
 62
     7
370
    35
100
AcDbVertex
100
AcDb2dVertex
 10
87.5769110566648
 20
-22.49475097093881
 30
0.0
  0
SEQEND
  5
284
330
281
100
AcDbEntity
  8
\U+30D5\U+30A9\U+30FC\U+30DE\U+30C3\U+30C8
370
    35
  0
POLYLINE
  5
285
330
1F
100
AcDbEntity
  8
\U+30D5\U+30A9\U+30FC\U+30DE\U+30C3\U+30C8
 62
     7
370
    35
100
AcDb2dPolyline
 66
     1
 10
0.0
 20
0.0
 30
0.0
  0
VERTEX
  5
286
330
285
100
AcDbEntity
  8
\U+30D5\U+30A9\U+30FC\U+30DE\U+30C3\U+30C8
 62
     7
370
    35
100
AcDbVertex
100
AcDb2dVertex
 10
343.5242512162023
 20
-33.41673718782637
 30
0.0
  0
VERTEX
  5
287
330
285
100
AcDbEntity
  8
\U+30D5\U+30A9\U+30FC\U+30DE\U+30C3\U+30C8
 62
     7
370
    35
100
AcDbVertex
100
AcDb2dVertex
 10
-46.36581758823494
 20
-33.41673718782637
 30
0.0
  0
SEQEND
  5
288
330
285
100
AcDbEntity
  8
\U+30D5\U+30A9\U+30FC\U+30DE\U+30C3\U+30C8
370
    35
  0
POLYLINE
  5
289
330
1F
100
AcDbEntity
  8
\U+30D5\U+30A9\U+30FC\U+30DE\U+30C3\U+30C8
 62
     7
370
    35
100
AcDb2dPolyline
 66
     1
 10
0.0
 20
0.0
 30
0.0
  0
VERTEX
  5
28A
330
289
100
AcDbEntity
  8
\U+30D5\U+30A9\U+30FC\U+30DE\U+30C3\U+30C8
 62
     7
370
    35
100
AcDbVertex
100
AcDb2dVertex
 10
-36.37504068101041
 20
-29.43730739281429
 30
0.0
  0
VERTEX
  5
28B
330
289
100
AcDbEntity
  8
\U+30D5\U+30A9\U+30FC\U+30DE\U+30C3\U+30C8
 62
     7
370
    35
100
AcDbVertex
100
AcDb2dVertex
 10
87.5769110566648
 20
-29.43730739281429
 30
0.0
  0
SEQEND
  5
28C
330
289
100
AcDbEntity
  8
\U+30D5\U+30A9\U+30FC\U+30DE\U+30C3\U+30C8
370
    35
  0
POLYLINE
  5
28D
330
1F
100
AcDbEntity
  8
\U+30D5\U+30A9\U+30FC\U+30DE\U+30C3\U+30C8
 62
     7
370
    35
100
AcDb2dPolyline
 66
     1
 10
0.0
 20
0.0
 30
0.0
  0
VERTEX
  5
28E
330
28D
100
AcDbEntity
  8
\U+30D5\U+30A9\U+30FC\U+30DE\U+30C3\U+30C8
 62
     7
370
    35
100
AcDbVertex
100
AcDb2dVertex
 10
-2.423796928647523
 20
-8.440139429313577
 30
0.0
  0
VERTEX
  5
28F
330
28D
100
AcDbEntity
  8
\U+30D5\U+30A9\U+30FC\U+30DE\U+30C3\U+30C8
 62
     7
370
    35
100
AcDbVertex
100
AcDb2dVertex
 10
-2.423796928647523
 20
-33.41673718782637
 30
0.0
  0
SEQEND
  5
290
330
28D
100
AcDbEntity
  8
\U+30D5\U+30A9\U+30FC\U+30DE\U+30C3\U+30C8
370
    35
  0
POLYLINE
  5
291
330
1F
100
AcDbEntity
  8
\U+30D5\U+30A9\U+30FC\U+30DE\U+30C3\U+30C8
 62
     7
370
    35
100
AcDb2dPolyline
 66
     1
 10
0.0
 20
0.0
 30
0.0
  0
VERTEX
  5
292
330
291
100
AcDbEntity
  8
\U+30D5\U+30A9\U+30FC\U+30DE\U+30C3\U+30C8
 62
     7
370
    35
100
AcDbVertex
100
AcDb2dVertex
 10
109.59020993354
 20
-16.48340385872637
 30
0.0
  0
VERTEX
  5
293
330
291
100
AcDbEntity
  8
\U+30D5\U+30A9\U+30FC\U+30DE\U+30C3\U+30C8
 62
     7
370
    35
100
AcDbVertex
100
AcDb2dVertex
 10
109.59020993354
 20
-33.41673718782637
 30
0.0
  0
SEQEND
  5
294
330
291
100
AcDbEntity
  8
\U+30D5\U+30A9\U+30FC\U+30DE\U+30C3\U+30C8
370
    35
  0
POLYLINE
  5
295
330
1F
100
AcDbEntity
  8
\U+30D5\U+30A9\U+30FC\U+30DE\U+30C3\U+30C8
 62
     7
370
    35
100
AcDb2dPolyline
 66
     1
 10
0.0
 20
0.0
 30
0.0
  0
VERTEX
  5
296
330
295
100
AcDbEntity
  8
\U+30D5\U+30A9\U+30FC\U+30DE\U+30C3\U+30C8
 62
     7
370
    35
100
AcDbVertex
100
AcDb2dVertex
 10
120.5969454993647
 20
-16.48340385872637
 30
0.0
  0
VERTEX
  5
297
330
295
100
AcDbEntity
  8
\U+30D5\U+30A9\U+30FC\U+30DE\U+30C3\U+30C8
 62
     7
370
    35
100
AcDbVertex
100
AcDb2dVertex
 10
120.5969454993647
 20
-33.41673718782637
 30
0.0
  0
SEQEND
  5
298
330
295
100
AcDbEntity
  8
\U+30D5\U+30A9\U+30FC\U+30DE\U+30C3\U+30C8
370
    35
  0
POLYLINE
  5
299
330
1F
100
AcDbEntity
  8
\U+30D5\U+30A9\U+30FC\U+30DE\U+30C3\U+30C8
 62
     7
370
    35
100
AcDb2dPolyline
 66
     1
 10
0.0
 20
0.0
 30
0.0
  0
VERTEX
  5
29A
330
299
100
AcDbEntity
  8
\U+30D5\U+30A9\U+30FC\U+30DE\U+30C3\U+30C8
 62
     7
370
    35
100
AcDbVertex
100
AcDb2dVertex
 10
125.5923339529769
 20
-16.48340385872637
 30
0.0
  0
VERTEX
  5
29B
330
299
100
AcDbEntity
  8
\U+30D5\U+30A9\U+30FC\U+30DE\U+30C3\U+30C8
 62
     7
370
    35
100
AcDbVertex
100
AcDb2dVertex
 10
125.5923339529769
 20
-33.41673718782637
 30
0.0
  0
SEQEND
  5
29C
330
299
100
AcDbEntity
  8
\U+30D5\U+30A9\U+30FC\U+30DE\U+30C3\U+30C8
370
    35
  0
POLYLINE
  5
29D
330
1F
100
AcDbEntity
  8
\U+30D5\U+30A9\U+30FC\U+30DE\U+30C3\U+30C8
 62
     7
370
    35
100
AcDb2dPolyline
 66
     1
 10
0.0
 20
0.0
 30
0.0
  0
VERTEX
  5
29E
330
29D
100
AcDbEntity
  8
\U+30D5\U+30A9\U+30FC\U+30DE\U+30C3\U+30C8
 62
     7
370
    35
100
AcDbVertex
100
AcDb2dVertex
 10
120.5969454993647
 20
-24.95007052327637
 30
0.0
  0
VERTEX
  5
29F
330
29D
100
AcDbEntity
  8
\U+30D5\U+30A9\U+30FC\U+30DE\U+30C3\U+30C8
 62
     7
370
    35
100
AcDbVertex
100
AcDb2dVertex
 10
155.564320165102
 20
-24.95007052327637
 30
0.0
  0
SEQEND
  5
2A0
330
29D
100
AcDbEntity
  8
\U+30D5\U+30A9\U+30FC\U+30DE\U+30C3\U+30C8
370
    35
  0
POLYLINE
  5
2A1
330
1F
100
AcDbEntity
  8
\U+30D5\U+30A9\U+30FC\U+30DE\U+30C3\U+30C8
 62
     7
370
    35
100
AcDb2dPolyline
 66
     1
 10
0.0
 20
0.0
 30
0.0
  0
VERTEX
  5
2A2
330
2A1
100
AcDbEntity
  8
\U+30D5\U+30A9\U+30FC\U+30DE\U+30C3\U+30C8
 62
     7
370
    35
100
AcDbVertex
100
AcDb2dVertex
 10
87.5769110566648
 20
-16.48340385872637
 30
0.0
  0
VERTEX
  5
2A3
330
2A1
100
AcDbEntity
  8
\U+30D5\U+30A9\U+30FC\U+30DE\U+30C3\U+30C8
 62
     7
370
    35
100
AcDbVertex
100
AcDb2dVertex
 10
220.588085882353
 20
-16.48340385872637
 30
0.0
  0
SEQEND
  5
2A4
330
2A1
100
AcDbEntity
  8
\U+30D5\U+30A9\U+30FC\U+30DE\U+30C3\U+30C8
370
    35
  0
POLYLINE
  5
2A5
330
1F
100
AcDbEntity
  8
\U+30D5\U+30A9\U+30FC\U+30DE\U+30C3\U+30C8
 62
     7
370
    35
100
AcDb2dPolyline
 66
     1
 10
0.0
 20
0.0
 30
0.0
  0
VERTEX
  5
2A6
330
2A5
100
AcDbEntity
  8
\U+30D5\U+30A9\U+30FC\U+30DE\U+30C3\U+30C8
 62
     7
370
    35
100
AcDbVertex
100
AcDb2dVertex
 10
220.588085882353
 20
-8.440139429313577
 30
0.0
  0
VERTEX
  5
2A7
330
2A5
100
AcDbEntity
  8
\U+30D5\U+30A9\U+30FC\U+30DE\U+30C3\U+30C8
 62
     7
370
    35
100
AcDbVertex
100
AcDb2dVertex
 10
220.588085882353
 20
-33.41673718782637
 30
0.0
  0
SEQEND
  5
2A8
330
2A5
100
AcDbEntity
  8
\U+30D5\U+30A9\U+30FC\U+30DE\U+30C3\U+30C8
370
    35
  0
POLYLINE
  5
2A9
330
1F
100
AcDbEntity
  8
\U+30D5\U+30A9\U+30FC\U+30DE\U+30C3\U+30C8
 62
     7
370
    35
100
AcDb2dPolyline
 66
     1
 10
0.0
 20
0.0
 30
0.0
  0
VERTEX
  5
2AA
330
2A9
100
AcDbEntity
  8
\U+30D5\U+30A9\U+30FC\U+30DE\U+30C3\U+30C8
 62
     7
370
    35
100
AcDbVertex
100
AcDb2dVertex
 10
87.5769110566648
 20
-8.440139429313577
 30
0.0
  0
VERTEX
  5
2AB
330
2A9
100
AcDbEntity
  8
\U+30D5\U+30A9\U+30FC\U+30DE\U+30C3\U+30C8
 62
     7
370
    35
100
AcDbVertex
100
AcDb2dVertex
 10
87.5769110566648
 20
-33.41673718782637
 30
0.0
  0
SEQEND
  5
2AC
330
2A9
100
AcDbEntity
  8
\U+30D5\U+30A9\U+30FC\U+30DE\U+30C3\U+30C8
370
    35
  0
POLYLINE
  5
2AD
330
1F
100
AcDbEntity
  8
\U+30D5\U+30A9\U+30FC\U+30DE\U+30C3\U+30C8
 62
     7
370
    35
100
AcDb2dPolyline
 66
     1
 10
0.0
 20
0.0
 30
0.0
  0
VERTEX
  5
2AE
330
2AD
100
AcDbEntity
  8
\U+30D5\U+30A9\U+30FC\U+30DE\U+30C3\U+30C8
 62
     7
370
    35
100
AcDbVertex
100
AcDb2dVertex
 10
87.5769110566648
 20
-22.49475097093881
 30
0.0
  0
VERTEX
  5
2AF
330
2AD
100
AcDbEntity
  8
\U+30D5\U+30A9\U+30FC\U+30DE\U+30C3\U+30C8
 62
     7
370
    35
100
AcDbVertex
100
AcDb2dVertex
 10
120.5969454993647
 20
-22.49475097093881
 30
0.0
  0
SEQEND
  5
2B0
330
2AD
100
AcDbEntity
  8
\U+30D5\U+30A9\U+30FC\U+30DE\U+30C3\U+30C8
370
    35
  0
POLYLINE
  5
2B1
330
1F
100
AcDbEntity
  8
\U+30D5\U+30A9\U+30FC\U+30DE\U+30C3\U+30C8
 62
     7
370
    35
100
AcDb2dPolyline
 66
     1
 10
0.0
 20
0.0
 30
0.0
  0
VERTEX
  5
2B2
330
2B1
100
AcDbEntity
  8
\U+30D5\U+30A9\U+30FC\U+30DE\U+30C3\U+30C8
 62
     7
370
    35
100
AcDbVertex
100
AcDb2dVertex
 10
98.58364662248951
 20
-8.440139429313577
 30
0.0
  0
VERTEX
  5
2B3
330
2B1
100
AcDbEntity
  8
\U+30D5\U+30A9\U+30FC\U+30DE\U+30C3\U+30C8
 62
     7
370
    35
100
AcDbVertex
100
AcDb2dVertex
 10
98.58364662248951
 20
-33.41673718782637
 30
0.0
  0
SEQEND
  5
2B4
330
2B1
100
AcDbEntity
  8
\U+30D5\U+30A9\U+30FC\U+30DE\U+30C3\U+30C8
370
    35
  0
POLYLINE
  5
2B5
330
1F
100
AcDbEntity
  8
\U+30D5\U+30A9\U+30FC\U+30DE\U+30C3\U+30C8
 62
     7
370
    35
100
AcDb2dPolyline
 66
     1
 10
0.0
 20
0.0
 30
0.0
  0
VERTEX
  5
2B6
330
2B5
100
AcDbEntity
  8
\U+30D5\U+30A9\U+30FC\U+30DE\U+30C3\U+30C8
 62
     7
370
    35
100
AcDbVertex
100
AcDb2dVertex
 10
155.564320165102
 20
-8.440139429313577
 30
0.0
  0
VERTEX
  5
2B7
330
2B5
100
AcDbEntity
  8
\U+30D5\U+30A9\U+30FC\U+30DE\U+30C3\U+30C8
 62
     7
370
    35
100
AcDbVertex
100
AcDb2dVertex
 10
155.564320165102
 20
-33.41673718782637
 30
0.0
  0
SEQEND
  5
2B8
330
2B5
100
AcDbEntity
  8
\U+30D5\U+30A9\U+30FC\U+30DE\U+30C3\U+30C8
370
    35
  0
POLYLINE
  5
2B9
330
1F
100
AcDbEntity
  8
\U+30D5\U+30A9\U+30FC\U+30DE\U+30C3\U+30C8
 62
     7
370
    35
100
AcDb2dPolyline
 66
     1
 10
0.0
 20
0.0
 30
0.0
  0
VERTEX
  5
2BA
330
2B9
100
AcDbEntity
  8
\U+30D5\U+30A9\U+30FC\U+30DE\U+30C3\U+30C8
 62
     7
370
    35
100
AcDbVertex
100
AcDb2dVertex
 10
160.5597086187142
 20
-8.440139429313577
 30
0.0
  0
VERTEX
  5
2BB
330
2B9
100
AcDbEntity
  8
\U+30D5\U+30A9\U+30FC\U+30DE\U+30C3\U+30C8
 62
     7
370
    35
100
AcDbVertex
100
AcDb2dVertex
 10
160.5597086187142
 20
-33.41673718782637
 30
0.0
  0
SEQEND
  5
2BC
330
2B9
100
AcDbEntity
  8
\U+30D5\U+30A9\U+30FC\U+30DE\U+30C3\U+30C8
370
    35
  0
INSERT
  5
2BE
330
1F
100
AcDbEntity
  8
\U+30D5\U+30A9\U+30FC\U+30DE\U+30C3\U+30C8
100
AcDbBlockReference
  2
block 89
 10
0.0
 20
0.0
 30
0.0
  0
MTEXT
  5
2E8
330
1F
100
AcDbEntity
  8
\U+30D5\U+30A9\U+30FC\U+30DE\U+30C3\U+30C8
 62
     7
100
AcDbMText
 10
118.4485839547629
 20
-13.89028048697882
 30
0.0
 40
2.187786638666616
 41
0.0
 71
     7
 72
     1
  1
\fMS Gothic|b0|i0|c0|p34;\W1;年
 73
     1
 44
1.0
  0
MTEXT
  5
2E9
330
1F
100
AcDbEntity
  8
\U+30D5\U+30A9\U+30FC\U+30DE\U+30C3\U+30C8
 62
     7
100
AcDbMText
 10
131.3179103946879
 20
-13.89028048697882
 30
0.0
 40
2.187786638666616
 41
0.0
 71
     7
 72
     1
  1
\fMS Gothic|b0|i0|c0|p34;\W1;月
 73
     1
 44
1.0
  0
MTEXT
  5
2EA
330
1F
100
AcDbEntity
  8
\U+30D5\U+30A9\U+30FC\U+30DE\U+30C3\U+30C8
 62
     7
100
AcDbMText
 10
144.1872368346129
 20
-13.89028048697882
 30
0.0
 40
2.187786638666616
 41
0.0
 71
     7
 72
     1
  1
\fMS Gothic|b0|i0|c0|p34;\W1;日
 73
     1
 44
1.0
  0
MTEXT
  5
2EB
330
1F
100
AcDbEntity
  8
\U+30D5\U+30A9\U+30FC\U+30DE\U+30C3\U+30C8
 62
     7
100
AcDbMText
 10
313.2032768314214
 20
-1.47381184858988
 30
0.0
 40
2.15899999946025
 41
0.0
 71
     7
 72
     1
  1
\fMS Gothic|b0|i0|c0|p34;\W1;寸法数値：mm表記
 73
     1
 44
1.0
  0
MTEXT
  5
2EC
330
1F
100
AcDbEntity
  8
\U+30D5\U+30A9\U+30FC\U+30DE\U+30C3\U+30C8
 62
     7
100
AcDbMText
 10
313.2032768314214
 20
-5.283742945727676
 30
0.0
 40
2.15899999946025
 41
0.0
 71
     7
 72
     1
  1
\fMS Gothic|b0|i0|c0|p34;\W1;寸法公差：±0.5mm
 73
     1
 44
1.0
  0
POLYLINE
  5
2EE
330
1F
100
AcDbEntity
  8
\U+30EC\U+30A4\U+30E4\U+30FC 1
 62
     7
370
     5
100
AcDb2dPolyline
 66
     1
 10
0.0
 20
0.0
 30
0.0
  0
VERTEX
  5
2EF
330
2EE
100
AcDbEntity
  8
\U+30EC\U+30A4\U+30E4\U+30FC 1
 62
     7
370
     5
100
AcDbVertex
100
AcDb2dVertex
 10
15.23955213377692
 20
192.3887735521632
 30
0.0
  0
VERTEX
  5
2F0
330
2EE
100
AcDbEntity
  8
\U+30EC\U+30A4\U+30E4\U+30FC 1
 62
     7
370
     5
100
AcDbVertex
100
AcDb2dVertex
 10
15.24024115287397
 20
175.2911091684168
 30
0.0
  0
SEQEND
  5
2F1
330
2EE
100
AcDbEntity
  8
\U+30EC\U+30A4\U+30E4\U+30FC 1
370
     5
  0
POLYLINE
  5
2F2
330
1F
100
AcDbEntity
  8
\U+30EC\U+30A4\U+30E4\U+30FC 1
 62
     7
370
     5
100
AcDb2dPolyline
 66
     1
 10
0.0
 20
0.0
 30
0.0
  0
VERTEX
  5
2F3
330
2F2
100
AcDbEntity
  8
\U+30EC\U+30A4\U+30E4\U+30FC 1
 62
     7
370
     5
100
AcDbVertex
100
AcDb2dVertex
 10
37.23924288348533
 20
192.3887735521632
 30
0.0
  0
VERTEX
  5
2F4
330
2F2
100
AcDbEntity
  8
\U+30EC\U+30A4\U+30E4\U+30FC 1
 62
     7
370
     5
100
AcDbVertex
100
AcDb2dVertex
 10
37.23993190258238
 20
175.2911091684168
 30
0.0
  0
SEQEND
  5
2F5
330
2F2
100
AcDbEntity
  8
\U+30EC\U+30A4\U+30E4\U+30FC 1
370
     5
  0
MTEXT
  5
2F6
330
1F
100
AcDbEntity
  8
\U+30EC\U+30A4\U+30E4\U+30FC 1
 62
     7
100
AcDbMText
 10
22.06411403528258
 20
190.8470933225139
 30
0.0
 40
2.398888888289167
 41
0.0
 71
     7
 72
     1
  1
\fMS PGothic|b0|i0|c0|p34;\W1;Φ22
 73
     1
 44
1.0
  0
POLYLINE
  5
2F7
330
1F
100
AcDbEntity
  8
\U+30EC\U+30A4\U+30E4\U+30FC 1
 62
     7
370
     5
100
AcDb2dPolyline
 66
     1
 10
0.0
 20
0.0
 30
0.0
  0
VERTEX
  5
2F8
330
2F7
100
AcDbEntity
  8
\U+30EC\U+30A4\U+30E4\U+30FC 1
 62
     7
370
     5
100
AcDbVertex
100
AcDb2dVertex
 10
15.24006889809971
 20
190.3623683877393
 30
0.0
  0
VERTEX
  5
2F9
330
2F7
100
AcDbEntity
  8
\U+30EC\U+30A4\U+30E4\U+30FC 1
 62
     7
370
     5
100
AcDbVertex
100
AcDb2dVertex
 10
37.23975964780811
 20
190.3623683877393
 30
0.0
  0
SEQEND
  5
2FA
330
2F7
100
AcDbEntity
  8
\U+30EC\U+30A4\U+30E4\U+30FC 1
370
     5
  0
POLYLINE
  5
2FB
330
1F
100
AcDbEntity
  8
\U+30EC\U+30A4\U+30E4\U+30FC 1
370
     0
100
AcDb2dPolyline
 66
     1
 10
0.0
 20
0.0
 30
0.0
  0
VERTEX
  5
2FC
330
2FB
100
AcDbEntity
  8
\U+30EC\U+30A4\U+30E4\U+30FC 1
370
     0
100
AcDbVertex
100
AcDb2dVertex
 10
16.32441270208209
 20
189.9985663044969
 30
0.0
  0
VERTEX
  5
2FD
330
2FB
100
AcDbEntity
  8
\U+30EC\U+30A4\U+30E4\U+30FC 1
370
     0
100
AcDbVertex
100
AcDb2dVertex
 10
15.23972438855118
 20
190.3623683877393
 30
0.0
  0
VERTEX
  5
2FE
330
2FB
100
AcDbEntity
  8
\U+30EC\U+30A4\U+30E4\U+30FC 1
370
     0
100
AcDbVertex
100
AcDb2dVertex
 10
16.32441270208209
 20
190.7261704709817
 30
0.0
  0
SEQEND
  5
2FF
330
2FB
100
AcDbEntity
  8
\U+30EC\U+30A4\U+30E4\U+30FC 1
370
     0
  0
HATCH
  5
300
330
1F
100
AcDbEntity
  8
\U+30EC\U+30A4\U+30E4\U+30FC 1
 62
     7
100
AcDbHatch
 10
0.0
 20
0.0
 30
0.0
210
0.0
220
0.0
230
1.0
  2
SOLID
 70
     1
 71
     0
 91
        1
 92
        1
 93
        3
 72
     1
 10
16.32441270208209
 20
189.9985663044969
 11
15.23972438855118
 21
190.3623683877393
 72
     1
 10
15.23972438855118
 20
190.3623683877393
 11
16.32441270208209
 21
190.7261704709817
 72
     1
 10
16.32441270208209
 20
190.7261704709817
 11
16.32441270208209
 21
189.9985663044969
 97
        0
 75
     2
 76
     1
 98
        0
  0
POLYLINE
  5
301
330
1F
100
AcDbEntity
  8
\U+30EC\U+30A4\U+30E4\U+30FC 1
370
     0
100
AcDb2dPolyline
 66
     1
 10
0.0
 20
0.0
 30
0.0
  0
VERTEX
  5
302
330
301
100
AcDbEntity
  8
\U+30EC\U+30A4\U+30E4\U+30FC 1
370
     0
100
AcDbVertex
100
AcDb2dVertex
 10
36.24567734553928
 20
190.6956813759372
 30
0.0
  0
VERTEX
  5
303
330
301
100
AcDbEntity
  8
\U+30EC\U+30A4\U+30E4\U+30FC 1
370
     0
100
AcDbVertex
100
AcDb2dVertex
 10
37.33036565907019
 20
190.3318792926948
 30
0.0
  0
VERTEX
  5
304
330
301
100
AcDbEntity
  8
\U+30EC\U+30A4\U+30E4\U+30FC 1
370
     0
100
AcDbVertex
100
AcDb2dVertex
 10
36.24567734553928
 20
189.9680772094524
 30
0.0
  0
SEQEND
  5
305
330
301
100
AcDbEntity
  8
\U+30EC\U+30A4\U+30E4\U+30FC 1
370
     0
  0
HATCH
  5
306
330
1F
100
AcDbEntity
  8
\U+30EC\U+30A4\U+30E4\U+30FC 1
 62
     7
100
AcDbHatch
 10
0.0
 20
0.0
 30
0.0
210
0.0
220
0.0
230
1.0
  2
SOLID
 70
     1
 71
     0
 91
        1
 92
        1
 93
        3
 72
     1
 10
36.24567734553928
 20
190.6956813759372
 11
37.33036565907019
 21
190.3318792926948
 72
     1
 10
37.33036565907019
 20
190.3318792926948
 11
36.24567734553928
 21
189.9680772094524
 72
     1
 10
36.24567734553928
 20
189.9680772094524
 11
36.24567734553928
 21
190.6956813759372
 97
        0
 75
     2
 76
     1
 98
        0
  0
POLYLINE
  5
307
330
1F
100
AcDbEntity
  8
\U+30EC\U+30A4\U+30E4\U+30FC 1
 62
     7
370
     5
100
AcDb2dPolyline
 66
     1
 10
0.0
 20
0.0
 30
0.0
  0
VERTEX
  5
308
330
307
100
AcDbEntity
  8
\U+30EC\U+30A4\U+30E4\U+30FC 1
 62
     7
370
     5
100
AcDbVertex
100
AcDb2dVertex
 10
10.74249674210604
 20
114.5943833806396
 30
0.0
  0
VERTEX
  5
309
330
307
100
AcDbEntity
  8
\U+30EC\U+30A4\U+30E4\U+30FC 1
 62
     7
370
     5
100
AcDbVertex
100
AcDb2dVertex
 10
10.74318576120309
 20
106.0560587299964
 30
0.0
  0
SEQEND
  5
30A
330
307
100
AcDbEntity
  8
\U+30EC\U+30A4\U+30E4\U+30FC 1
370
     5
  0
POLYLINE
  5
30B
330
1F
100
AcDbEntity
  8
\U+30EC\U+30A4\U+30E4\U+30FC 1
 62
     7
370
     5
100
AcDb2dPolyline
 66
     1
 10
0.0
 20
0.0
 30
0.0
  0
VERTEX
  5
30C
330
30B
100
AcDbEntity
  8
\U+30EC\U+30A4\U+30E4\U+30FC 1
 62
     7
370
     5
100
AcDbVertex
100
AcDb2dVertex
 10
310.6918022226743
 20
114.5945556354139
 30
0.0
  0
VERTEX
  5
30D
330
30B
100
AcDbEntity
  8
\U+30EC\U+30A4\U+30E4\U+30FC 1
 62
     7
370
     5
100
AcDbVertex
100
AcDb2dVertex
 10
310.6924912417713
 20
106.0560587299964
 30
0.0
  0
SEQEND
  5
30E
330
30B
100
AcDbEntity
  8
\U+30EC\U+30A4\U+30E4\U+30FC 1
370
     5
  0
MTEXT
  5
30F
330
1F
100
AcDbEntity
  8
\U+30EC\U+30A4\U+30E4\U+30FC 1
 62
     7
100
AcDbMText
 10
151.9876220323156
 20
114.2986219332309
 30
0.0
 40
2.398888888289167
 41
0.0
 71
     7
 72
     1
  1
\fMS PGothic|b0|i0|c0|p34;\W1;300
 73
     1
 44
1.0
  0
POLYLINE
  5
310
330
1F
100
AcDbEntity
  8
\U+30EC\U+30A4\U+30E4\U+30FC 1
 62
     7
370
     5
100
AcDb2dPolyline
 66
     1
 10
0.0
 20
0.0
 30
0.0
  0
VERTEX
  5
311
330
310
100
AcDbEntity
  8
\U+30EC\U+30A4\U+30E4\U+30FC 1
 62
     7
370
     5
100
AcDbVertex
100
AcDb2dVertex
 10
10.74284125165457
 20
112.5679782162156
 30
0.0
  0
VERTEX
  5
312
330
310
100
AcDbEntity
  8
\U+30EC\U+30A4\U+30E4\U+30FC 1
 62
     7
370
     5
100
AcDbVertex
100
AcDb2dVertex
 10
310.6918022226743
 20
112.5681504709899
 30
0.0
  0
SEQEND
  5
313
330
310
100
AcDbEntity
  8
\U+30EC\U+30A4\U+30E4\U+30FC 1
370
     5
  0
POLYLINE
  5
314
330
1F
100
AcDbEntity
  8
\U+30EC\U+30A4\U+30E4\U+30FC 1
370
     0
100
AcDb2dPolyline
 66
     1
 10
0.0
 20
0.0
 30
0.0
  0
VERTEX
  5
315
330
314
100
AcDbEntity
  8
\U+30EC\U+30A4\U+30E4\U+30FC 1
370
     0
100
AcDbVertex
100
AcDb2dVertex
 10
11.82735731041122
 20
112.2041761329733
 30
0.0
  0
VERTEX
  5
316
330
314
100
AcDbEntity
  8
\U+30EC\U+30A4\U+30E4\U+30FC 1
370
     0
100
AcDbVertex
100
AcDb2dVertex
 10
10.7426689968803
 20
112.5679782162156
 30
0.0
  0
VERTEX
  5
317
330
314
100
AcDbEntity
  8
\U+30EC\U+30A4\U+30E4\U+30FC 1
370
     0
100
AcDbVertex
100
AcDb2dVertex
 10
11.82735731041122
 20
112.931780299458
 30
0.0
  0
SEQEND
  5
318
330
314
100
AcDbEntity
  8
\U+30EC\U+30A4\U+30E4\U+30FC 1
370
     0
  0
HATCH
  5
319
330
1F
100
AcDbEntity
  8
\U+30EC\U+30A4\U+30E4\U+30FC 1
 62
     7
100
AcDbHatch
 10
0.0
 20
0.0
 30
0.0
210
0.0
220
0.0
230
1.0
  2
SOLID
 70
     1
 71
     0
 91
        1
 92
        1
 93
        3
 72
     1
 10
11.82735731041122
 20
112.2041761329733
 11
10.7426689968803
 21
112.5679782162156
 72
     1
 10
10.7426689968803
 20
112.5679782162156
 11
11.82735731041122
 21
112.931780299458
 72
     1
 10
11.82735731041122
 20
112.931780299458
 11
11.82735731041122
 21
112.2041761329733
 97
        0
 75
     2
 76
     1
 98
        0
  0
POLYLINE
  5
31A
330
1F
100
AcDbEntity
  8
\U+30EC\U+30A4\U+30E4\U+30FC 1
370
     0
100
AcDb2dPolyline
 66
     1
 10
0.0
 20
0.0
 30
0.0
  0
VERTEX
  5
31B
330
31A
100
AcDbEntity
  8
\U+30EC\U+30A4\U+30E4\U+30FC 1
370
     0
100
AcDbVertex
100
AcDb2dVertex
 10
309.6072861639176
 20
112.9319525542323
 30
0.0
  0
VERTEX
  5
31C
330
31A
100
AcDbEntity
  8
\U+30EC\U+30A4\U+30E4\U+30FC 1
370
     0
100
AcDbVertex
100
AcDb2dVertex
 10
310.6918022226743
 20
112.5681504709899
 30
0.0
  0
VERTEX
  5
31D
330
31A
100
AcDbEntity
  8
\U+30EC\U+30A4\U+30E4\U+30FC 1
370
     0
100
AcDbVertex
100
AcDb2dVertex
 10
309.6072861639176
 20
112.2043483877475
 30
0.0
  0
SEQEND
  5
31E
330
31A
100
AcDbEntity
  8
\U+30EC\U+30A4\U+30E4\U+30FC 1
370
     0
  0
HATCH
  5
31F
330
1F
100
AcDbEntity
  8
\U+30EC\U+30A4\U+30E4\U+30FC 1
 62
     7
100
AcDbHatch
 10
0.0
 20
0.0
 30
0.0
210
0.0
220
0.0
230
1.0
  2
SOLID
 70
     1
 71
     0
 91
        1
 92
        1
 93
        3
 72
     1
 10
309.6072861639176
 20
112.9319525542323
 11
310.6918022226743
 21
112.5681504709899
 72
     1
 10
310.6918022226743
 20
112.5681504709899
 11
309.6072861639176
 21
112.2043483877475
 72
     1
 10
309.6072861639176
 20
112.2043483877475
 11
309.6072861639176
 21
112.9319525542323
 97
        0
 75
     2
 76
     1
 98
        0
  0
INSERT
  5
321
330
1F
100
AcDbEntity
  8
\U+30EC\U+30A4\U+30E4\U+30FC 1
100
AcDbBlockReference
  2
block 99
 10
0.0
 20
0.0
 30
0.0
  0
INSERT
  5
32A
330
1F
100
AcDbEntity
  8
\U+30EC\U+30A4\U+30E4\U+30FC 1
100
AcDbBlockReference
  2
block 101
 10
0.0
 20
0.0
 30
0.0
  0
SPLINE
  5
332
330
1F
100
AcDbEntity
  8
\U+30EC\U+30A4\U+30E4\U+30FC 1
 62
     7
370
    18
100
AcDbSpline
210
0.0
220
0.0
230
1.0
 70
    11
 71
     3
 72
    17
 73
    13
 74
     0
 42
0.0000000001
 43
0.0000000001
 40
0.0
 40
0.0
 40
0.0
 40
0.0
 40
1.0
 40
1.0
 40
1.0
 40
2.0
 40
2.0
 40
2.0
 40
3.0
 40
3.0
 40
3.0
 40
4.0
 40
4.0
 40
4.0
 40
4.0
 10
37.23975964780811
 20
170.3224202048152
 30
0.0
 10
37.23975964780811
 20
164.2473388261257
 30
0.0
 10
32.31499565164347
 20
159.3229193395096
 30
0.0
 10
26.23991427295391
 20
159.3229193395096
 30
0.0
 10
20.16483289426435
 20
159.3229193395096
 30
0.0
 10
15.24006889809971
 20
164.2473388261257
 30
0.0
 10
15.24006889809971
 20
170.3224202048152
 30
0.0
 10
15.24006889809971
 20
176.3975015835048
 30
0.0
 10
20.16483289426435
 20
181.322610089218
 30
0.0
 10
26.23991427295391
 20
181.322610089218
 30
0.0
 10
32.31499565164347
 20
181.322610089218
 30
0.0
 10
37.23975964780811
 20
176.3975015835048
 30
0.0
 10
37.23975964780811
 20
170.3224202048152
 30
0.0
  0
SPLINE
  5
333
330
1F
100
AcDbEntity
  8
\U+30EC\U+30A4\U+30E4\U+30FC 1
 62
     7
370
    18
100
AcDbSpline
210
0.0
220
0.0
230
1.0
 70
    11
 71
     3
 72
    17
 73
    13
 74
     0
 42
0.0000000001
 43
0.0000000001
 40
0.0
 40
0.0
 40
0.0
 40
0.0
 40
1.0
 40
1.0
 40
1.0
 40
2.0
 40
2.0
 40
2.0
 40
3.0
 40
3.0
 40
3.0
 40
4.0
 40
4.0
 40
4.0
 40
4.0
 10
16.23983560791921
 20
170.3224202048152
 30
0.0
 10
16.23983560791921
 20
164.8088893902214
 30
0.0
 10
20.72603894881155
 20
160.3226860493291
 30
0.0
 10
26.23991427295391
 20
160.3226860493291
 30
0.0
 10
31.75378959709628
 20
160.3226860493291
 30
0.0
 10
36.23999293798862
 20
164.8088893902214
 30
0.0
 10
36.23999293798862
 20
170.3224202048152
 30
0.0
 10
36.23999293798862
 20
175.8366400385061
 30
0.0
 10
31.75378959709628
 20
180.3221543603014
 30
0.0
 10
26.23991427295391
 20
180.3221543603014
 30
0.0
 10
20.72603894881155
 20
180.3221543603014
 30
0.0
 10
16.23983560791921
 20
175.8366400385061
 30
0.0
 10
16.23983560791921
 20
170.3224202048152
 30
0.0
  0
INSERT
  5
335
330
1F
100
AcDbEntity
  8
\U+30EC\U+30A4\U+30E4\U+30FC 1
100
AcDbBlockReference
  2
block 103
 10
0.0
 20
0.0
 30
0.0
  0
MTEXT
  5
397
330
1F
100
AcDbEntity
  8
\U+30EC\U+30A4\U+30E4\U+30FC 1
 62
     7
100
AcDbMText
 10
134.7046115114627
 20
-30.10048827372488
 30
0.0
 40
2.187786638666616
 41
0.0
 71
     7
 72
     1
  1
\fMS Gothic|b0|i0|c0|p34;\W1;１
 73
     1
 44
1.0
  0
MTEXT
  5
398
330
1F
100
AcDbEntity
  8
\U+30EC\U+30A4\U+30E4\U+30FC 1
 62
     7
100
AcDbMText
 10
137.9219861851376
 20
-30.10048827372488
 30
0.0
 40
2.187786638666616
 41
0.0
 71
     7
 72
     1
  1
\fMS Gothic|b0|i0|c0|p34;\W1;：
 73
     1
 44
1.0
  0
MTEXT
  5
399
330
1F
100
AcDbEntity
  8
\U+30EC\U+30A4\U+30E4\U+30FC 1
 62
     7
100
AcDbMText
 10
141.1393608588124
 20
-30.10048827372488
 30
0.0
 40
2.187786638666616
 41
0.0
 71
     7
 72
     1
  1
\fMS Gothic|b0|i0|c0|p34;\W1;１
 73
     1
 44
1.0
  0
MTEXT
  5
39A
330
1F
100
AcDbEntity
  8
\U+30EC\U+30A4\U+30E4\U+30FC 1
 62
     7
100
AcDbMText
 10
168.6274332260723
 20
-26.33775498473501
 30
0.0
 40
2.187786638666616
 41
0.0
 71
     7
 72
     1
  1
\fMS Gothic|b0|i0|c0|p34;\W1;ガーデンアップライト用ポール
 73
     1
 44
1.0
  0
MTEXT
  5
39B
330
1F
100
AcDbEntity
  8
\U+30EC\U+30A4\U+30E4\U+30FC 1
 62
     7
100
AcDbMText
 10
108.7966321885126
 20
-13.92921006596214
 30
0.0
 40
2.187786638666616
 41
0.0
 71
     7
 72
     1
  1
\fMS Gothic|b0|i0|c0|p34;\W1;2011
 73
     1
 44
1.0
  0
MTEXT
  5
39C
330
1F
100
AcDbEntity
  8
\U+30EC\U+30A4\U+30E4\U+30FC 1
 62
     7
100
AcDbMText
 10
124.8833333021125
 20
-13.92921006596214
 30
0.0
 40
2.187786638666616
 41
0.0
 71
     7
 72
     1
  1
\fMS Gothic|b0|i0|c0|p34;\W1;　4
 73
     1
 44
1.0
  0
MTEXT
  5
39D
330
1F
100
AcDbEntity
  8
\U+30EC\U+30A4\U+30E4\U+30FC 1
 62
     7
100
AcDbMText
 10
140.9891546956555
 20
-13.92921006596214
 30
0.0
 40
2.187786638666616
 41
0.0
 71
     7
 72
     1
  1
\fMS Gothic|b0|i0|c0|p34;\W1;4
 73
     1
 44
1.0
  0
MTEXT
  5
39E
330
1F
100
AcDbEntity
  8
\U+30EC\U+30A4\U+30E4\U+30FC 1
 62
     7
100
AcDbMText
 10
110.9980482035873
 20
-28.88712564381989
 30
0.0
 40
2.187786638666616
 41
0.0
 71
     7
 72
     1
  1
\fMS Gothic|b0|i0|c0|p34;\W1;古 澤
 73
     1
 44
1.0
  0
MTEXT
  5
39F
330
1F
100
AcDbEntity
  8
\U+30EC\U+30A4\U+30E4\U+30FC 1
 62
     7
100
AcDbMText
 10
88.98474932671215
 20
-28.88712564381989
 30
0.0
 40
2.187786638666616
 41
0.0
 71
     7
 72
     1
  1
\fMS Gothic|b0|i0|c0|p34;\W1;木 谷
 73
     1
 44
1.0
  0
MTEXT
  5
3A0
330
1F
100
AcDbEntity
  8
\U+30EC\U+30A4\U+30E4\U+30FC 1
 62
     7
100
AcDbMText
 10
100.1127522536176
 20
-28.88712564381989
 30
0.0
 40
2.187786638666616
 41
0.0
 71
     7
 72
     1
  1
\fMS Gothic|b0|i0|c0|p34;\W1;花 田
 73
     1
 44
1.0
  0
MTEXT
  5
3A1
330
1F
100
AcDbEntity
  8
\U+30EC\U+30A4\U+30E4\U+30FC 1
 62
     7
100
AcDbMText
 10
0.9313815644372936
 20
-20.16655544200697
 30
0.0
 40
2.187786638666616
 41
0.0
 71
     7
 72
     1
  1
\fMS Gothic|b0|i0|c0|p34;\W1;材質
 73
     1
 44
1.0
  0
MTEXT
  5
3A2
330
1F
100
AcDbEntity
  8
\U+30EC\U+30A4\U+30E4\U+30FC 1
 62
     7
100
AcDbMText
 10
7.895125323547052
 20
-20.16655544200697
 30
0.0
 40
2.187786638666616
 41
0.0
 71
     7
 72
     1
  1
\fMS Gothic|b0|i0|c0|p34;\W1;／
 73
     1
 44
1.0
  0
MTEXT
  5
3A3
330
1F
100
AcDbEntity
  8
\U+30EC\U+30A4\U+30E4\U+30FC 1
 62
     7
100
AcDbMText
 10
11.11249999722188
 20
-20.16655544200697
 30
0.0
 40
2.187786638666616
 41
0.0
 71
     7
 72
     1
  1
\fMS Gothic|b0|i0|c0|p34;\W1;アルミ
 73
     1
 44
1.0
  0
MTEXT
  5
3A4
330
1F
100
AcDbEntity
  8
\U+30EC\U+30A4\U+30E4\U+30FC 1
 62
     7
100
AcDbMText
 10
-21.3452948622852
 20
-20.33364257304159
 30
0.0
 40
2.187786638666616
 41
0.0
 71
     7
 72
     1
  1
\fMS Gothic|b0|i0|c0|p34;\W1;2011.4.4
 73
     1
 44
1.0
  0
MTEXT
  5
3A5
330
1F
100
AcDbEntity
  8
\U+30EC\U+30A4\U+30E4\U+30FC 1
 62
     7
100
AcDbMText
 10
-21.3452948622852
 20
-27.21280923798847
 30
0.0
 40
2.187786638666616
 41
0.0
 71
     7
 72
     1
  1
\fMS Gothic|b0|i0|c0|p34;\W1;2011.4.4
 73
     1
 44
1.0
  0
INSERT
  5
3A7
330
1F
100
AcDbEntity
  8
\U+30EC\U+30A4\U+30E4\U+30FC 1
100
AcDbBlockReference
  2
block 104
 10
0.0
 20
0.0
 30
0.0
  0
INSERT
  5
3B0
330
1F
100
AcDbEntity
  8
\U+30EC\U+30A4\U+30E4\U+30FC 1
100
AcDbBlockReference
  2
block 106
 10
0.0
 20
0.0
 30
0.0
  0
INSERT
  5
3B9
330
1F
100
AcDbEntity
  8
\U+30EC\U+30A4\U+30E4\U+30FC 1
100
AcDbBlockReference
  2
block 108
 10
0.0
 20
0.0
 30
0.0
  0
INSERT
  5
3C0
330
1F
100
AcDbEntity
  8
\U+30EC\U+30A4\U+30E4\U+30FC 1
100
AcDbBlockReference
  2
block 109
 10
0.0
 20
0.0
 30
0.0
  0
ENDSEC
  0
SECTION
  2
OBJECTS
  0
DICTIONARY
  5
C
330
0
100
AcDbDictionary
281
     1
  3
ACAD_GROUP
350
D
  3
ACAD_LAYOUT
350
1A
  3
ACAD_MLINESTYLE
350
17
  3
ACAD_PLOTSETTINGS
350
19
  3
ACAD_PLOTSTYLENAME
350
E
  3
ACAD_TABLESTYLE
350
3C9
  3
ACAD_VISUALSTYLE
350
2A
  0
DICTIONARY
  5
D
102
{ACAD_REACTORS
330
C
102
}
330
C
100
AcDbDictionary
281
     1
  0
DICTIONARY
  5
1A
102
{ACAD_REACTORS
330
C
102
}
330
C
100
AcDbDictionary
281
     1
  3
Layout1
350
1E
  3
Layout2
350
26
  3
Model
350
22
  0
DICTIONARY
  5
17
102
{ACAD_REACTORS
330
C
102
}
330
C
100
AcDbDictionary
281
     1
  3
Standard
350
18
  0
DICTIONARY
  5
19
102
{ACAD_REACTORS
330
C
102
}
330
C
100
AcDbDictionary
281
     1
  0
ACDBDICTIONARYWDFLT
  5
E
102
{ACAD_REACTORS
330
C
102
}
330
C
100
AcDbDictionary
281
     1
  3
Normal
350
F
100
AcDbDictionaryWithDefault
340
F
  0
DICTIONARY
  5
3C9
102
{ACAD_REACTORS
330
C
102
}
330
C
100
AcDbDictionary
281
     1
  0
DICTIONARY
  5
2A
102
{ACAD_REACTORS
330
C
102
}
330
C
100
AcDbDictionary
281
     1
  3
2dWireframe
350
2F
  3
3D Hidden
350
31
  3
3dWireframe
350
30
  3
Basic
350
32
  3
Brighten
350
36
  3
ColorChange
350
3A
  3
Conceptual
350
34
  3
Dim
350
35
  3
Facepattern
350
39
  3
Flat
350
2B
  3
FlatWithEdges
350
2C
  3
Gouraud
350
2D
  3
GouraudWithEdges
350
2E
  3
Linepattern
350
38
  3
Realistic
350
33
  3
Thicken
350
37
  0
LAYOUT
  5
1E
102
{ACAD_REACTORS
330
1A
102
}
330
1A
100
AcDbPlotSettings
  1

  2
none_device
  4

  6

 40
0.0
 41
0.0
 42
0.0
 43
0.0
 44
0.0
 45
0.0
 46
0.0
 47
0.0
 48
0.0
 49
0.0
140
0.0
141
0.0
142
1.0
143
1.0
 70
   688
 72
     0
 73
     0
 74
     5
  7

 75
    16
147
1.0
148
0.0
149
0.0
100
AcDbLayout
  1
Layout1
 70
     1
 71
     1
 10
0.0
 20
0.0
 11
12.0
 21
9.0
 12
0.0
 22
0.0
 32
0.0
 14
1.000000000000000E+20
 24
1.000000000000000E+20
 34
1.000000000000000E+20
 15
-1.000000000000000E+20
 25
-1.000000000000000E+20
 35
-1.000000000000000E+20
146
0.0
 13
0.0
 23
0.0
 33
0.0
 16
1.0
 26
0.0
 36
0.0
 17
0.0
 27
1.0
 37
0.0
 76
     0
330
1B
  0
LAYOUT
  5
26
102
{ACAD_REACTORS
330
1A
102
}
330
1A
100
AcDbPlotSettings
  1

  2
none_device
  4

  6

 40
0.0
 41
0.0
 42
0.0
 43
0.0
 44
0.0
 45
0.0
 46
0.0
 47
0.0
 48
0.0
 49
0.0
140
0.0
141
0.0
142
1.0
143
1.0
 70
   688
 72
     0
 73
     0
 74
     5
  7

 75
    16
147
1.0
148
0.0
149
0.0
100
AcDbLayout
  1
Layout2
 70
     1
 71
     2
 10
0.0
 20
0.0
 11
0.0
 21
0.0
 12
0.0
 22
0.0
 32
0.0
 14
0.0
 24
0.0
 34
0.0
 15
0.0
 25
0.0
 35
0.0
146
0.0
 13
0.0
 23
0.0
 33
0.0
 16
1.0
 26
0.0
 36
0.0
 17
0.0
 27
1.0
 37
0.0
 76
     0
330
23
  0
LAYOUT
  5
22
102
{ACAD_REACTORS
330
1A
102
}
330
1A
100
AcDbPlotSettings
  1

  2
none_device
  4

  6

 40
0.0
 41
0.0
 42
0.0
 43
0.0
 44
0.0
 45
0.0
 46
0.0
 47
0.0
 48
0.0
 49
0.0
140
0.0
141
0.0
142
1.0
143
1.0
 70
  1712
 72
     0
 73
     0
 74
     0
  7

 75
     0
147
1.0
148
0.0
149
0.0
100
AcDbLayout
  1
Model
 70
     1
 71
     0
 10
0.0
 20
0.0
 11
12.0
 21
9.0
 12
0.0
 22
0.0
 32
0.0
 14
1.000000000000000E+20
 24
1.000000000000000E+20
 34
1.000000000000000E+20
 15
-1.000000000000000E+20
 25
-1.000000000000000E+20
 35
-1.000000000000000E+20
146
0.0
 13
0.0
 23
0.0
 33
0.0
 16
1.0
 26
0.0
 36
0.0
 17
0.0
 27
1.0
 37
0.0
 76
     0
330
1F
331
29
  0
MLINESTYLE
  5
18
102
{ACAD_REACTORS
330
17
102
}
330
17
100
AcDbMlineStyle
  2
Standard
 70
     0
  3

 62
   256
 51
90.0
 52
90.0
 71
     2
 49
0.5
 62
   256
  6
BYLAYER
 49
-0.5
 62
   256
  6
BYLAYER
  0
ACDBPLACEHOLDER
  5
F
102
{ACAD_REACTORS
330
E
102
}
330
E
  0
VISUALSTYLE
  5
2F
102
{ACAD_REACTORS
330
2A
102
}
330
2A
100
AcDbVisualStyle
  2
2dWireframe
 70
     4
 71
     0
 72
     2
 73
     0
 90
        0
 40
-0.6
 41
-30.0
 62
     5
 63
     7
 74
     1
 91
        4
 64
     7
 65
   257
 75
     1
175
     1
 42
1.0
 92
        0
 66
   257
 43
1.0
 76
     1
 77
     6
 78
     2
 67
     7
 79
     5
170
     0
171
     0
290
     0
174
     0
 93
        1
 44
0.0
173
     0
291
     0
 45
0.0
1001
ACAD
1000
AcDbSavedByObjectVersion
1070
     0
  0
VISUALSTYLE
  5
31
102
{ACAD_REACTORS
330
2A
102
}
330
2A
100
AcDbVisualStyle
  2
3D Hidden
 70
     6
 71
     1
 72
     2
 73
     2
 90
        0
 40
-0.6
 41
-30.0
 62
     5
 63
     7
 74
     2
 91
        2
 64
     7
 65
   257
 75
     2
175
     1
 42
40.0
 92
        0
 66
   257
 43
1.0
 76
     1
 77
     6
 78
     2
 67
     7
 79
     3
170
     0
171
     0
290
     0
174
     0
 93
        1
 44
0.0
173
     0
291
     0
 45
0.0
1001
ACAD
1000
AcDbSavedByObjectVersion
1070
     0
  0
VISUALSTYLE
  5
30
102
{ACAD_REACTORS
330
2A
102
}
330
2A
100
AcDbVisualStyle
  2
3dWireframe
 70
     5
 71
     0
 72
     2
 73
     0
 90
        0
 40
-0.6
 41
-30.0
 62
     5
 63
     7
 74
     1
 91
        4
 64
     7
 65
   257
 75
     1
175
     1
 42
1.0
 92
        0
 66
   257
 43
1.0
 76
     1
 77
     6
 78
     2
 67
     7
 79
     5
170
     0
171
     0
290
     0
174
     0
 93
        1
 44
0.0
173
     0
291
     0
 45
0.0
1001
ACAD
1000
AcDbSavedByObjectVersion
1070
     0
  0
VISUALSTYLE
  5
32
102
{ACAD_REACTORS
330
2A
102
}
330
2A
100
AcDbVisualStyle
  2
Basic
 70
     7
 71
     1
 72
     0
 73
     1
 90
        0
 40
-0.6
 41
-30.0
 62
     5
 63
     7
 74
     0
 91
        4
 64
     7
 65
   257
 75
     1
175
     1
 42
1.0
 92
        8
 66
     7
 43
1.0
 76
     1
 77
     6
 78
     2
 67
     7
 79
     5
170
     0
171
     0
290
     0
174
     0
 93
        1
 44
0.0
173
     0
291
     1
 45
0.0
1001
ACAD
1000
AcDbSavedByObjectVersion
1070
     0
  0
VISUALSTYLE
  5
36
102
{ACAD_REACTORS
330
2A
102
}
330
2A
100
AcDbVisualStyle
  2
Brighten
 70
    12
 71
     2
 72
     2
 73
     0
 90
        0
 40
-0.6
 41
-30.0
 62
     5
 63
     7
 74
     1
 91
        4
 64
     7
 65
   257
 75
     1
175
     1
 42
1.0
 92
        8
 66
     7
 43
1.0
 76
     1
 77
     6
 78
     2
 67
     7
 79
     5
170
     0
171
     0
290
     0
174
     0
 93
        1
 44
50.0
173
     0
291
     1
 45
0.0
1001
ACAD
1000
AcDbSavedByObjectVersion
1070
     0
  0
VISUALSTYLE
  5
3A
102
{ACAD_REACTORS
330
2A
102
}
330
2A
100
AcDbVisualStyle
  2
ColorChange
 70
    16
 71
     2
 72
     2
 73
     3
 90
        0
 40
-0.6
 41
-30.0
 62
     5
 63
     8
 74
     1
 91
        4
 64
     7
 65
   257
 75
     1
175
     1
 42
1.0
 92
        8
 66
     8
 43
1.0
 76
     1
 77
     6
 78
     2
 67
     7
 79
     5
170
     0
171
     0
290
     0
174
     0
 93
        1
 44
0.0
173
     0
291
     1
 45
0.0
1001
ACAD
1000
AcDbSavedByObjectVersion
1070
     0
  0
VISUALSTYLE
  5
34
102
{ACAD_REACTORS
330
2A
102
}
330
2A
100
AcDbVisualStyle
  2
Conceptual
 70
     9
 71
     3
 72
     2
 73
     0
 90
        0
 40
-0.6
 41
-30.0
 62
     5
 63
     7
 74
     2
 91
        2
 64
     7
 65
   257
 75
     1
175
     1
 42
40.0
 92
        8
 66
     7
 43
1.0
 76
     1
 77
     6
 78
     2
 67
     7
 79
     3
170
     0
171
     0
290
     0
174
     0
 93
        1
 44
0.0
173
     0
291
     0
 45
0.0
1001
ACAD
1000
AcDbSavedByObjectVersion
1070
     0
  0
VISUALSTYLE
  5
35
102
{ACAD_REACTORS
330
2A
102
}
330
2A
100
AcDbVisualStyle
  2
Dim
 70
    11
 71
     2
 72
     2
 73
     0
 90
        0
 40
-0.6
 41
-30.0
 62
     5
 63
     7
 74
     1
 91
        4
 64
     7
 65
   257
 75
     1
175
     1
 42
1.0
 92
        8
 66
     7
 43
1.0
 76
     1
 77
     6
 78
     2
 67
     7
 79
     5
170
     0
171
     0
290
     0
174
     0
 93
        1
 44
-50.0
173
     0
291
     1
 45
0.0
1001
ACAD
1000
AcDbSavedByObjectVersion
1070
     0
  0
VISUALSTYLE
  5
39
102
{ACAD_REACTORS
330
2A
102
}
330
2A
100
AcDbVisualStyle
  2
Facepattern
 70
    15
 71
     2
 72
     2
 73
     0
 90
        0
 40
-0.6
 41
-30.0
 62
     5
 63
     7
 74
     1
 91
        4
 64
     7
 65
   257
 75
     1
175
     1
 42
1.0
 92
        8
 66
     7
 43
1.0
 76
     1
 77
     6
 78
     2
 67
     7
 79
     5
170
     0
171
     0
290
     0
174
     0
 93
        1
 44
0.0
173
     0
291
     1
 45
0.0
1001
ACAD
1000
AcDbSavedByObjectVersion
1070
     0
  0
VISUALSTYLE
  5
2B
102
{ACAD_REACTORS
330
2A
102
}
330
2A
100
AcDbVisualStyle
  2
Flat
 70
     0
 71
     2
 72
     1
 73
     1
 90
        2
 40
-0.6
 41
30.0
 62
     5
 63
     7
 74
     0
 91
        4
 64
     7
 65
   257
 75
     1
175
     1
 42
1.0
 92
        8
 66
     7
 43
1.0
 76
     1
 77
     6
 78
     2
 67
     7
 79
     5
170
     0
171
     0
290
     0
174
     0
 93
       13
 44
0.0
173
     0
291
     1
 45
0.0
1001
ACAD
1000
AcDbSavedByObjectVersion
1070
     0
  0
VISUALSTYLE
  5
2C
102
{ACAD_REACTORS
330
2A
102
}
330
2A
100
AcDbVisualStyle
  2
FlatWithEdges
 70
     1
 71
     2
 72
     1
 73
     1
 90
        2
 40
-0.6
 41
30.0
 62
     5
 63
     7
 74
     1
 91
        4
 64
     7
 65
   257
 75
     1
175
     1
 42
1.0
 92
        0
 66
   257
 43
1.0
 76
     1
 77
     6
 78
     2
 67
     7
 79
     5
170
     0
171
     0
290
     0
174
     0
 93
       13
 44
0.0
173
     0
291
     1
 45
0.0
1001
ACAD
1000
AcDbSavedByObjectVersion
1070
     0
  0
VISUALSTYLE
  5
2D
102
{ACAD_REACTORS
330
2A
102
}
330
2A
100
AcDbVisualStyle
  2
Gouraud
 70
     2
 71
     2
 72
     2
 73
     1
 90
        2
 40
-0.6
 41
30.0
 62
     5
 63
     7
 74
     0
 91
        4
 64
     7
 65
   257
 75
     1
175
     1
 42
1.0
 92
        0
 66
     7
 43
1.0
 76
     1
 77
     6
 78
     2
 67
     7
 79
     5
170
     0
171
     0
290
     0
174
     0
 93
       13
 44
0.0
173
     0
291
     1
 45
0.0
1001
ACAD
1000
AcDbSavedByObjectVersion
1070
     0
  0
VISUALSTYLE
  5
2E
102
{ACAD_REACTORS
330
2A
102
}
330
2A
100
AcDbVisualStyle
  2
GouraudWithEdges
 70
     3
 71
     2
 72
     2
 73
     1
 90
        2
 40
-0.6
 41
30.0
 62
     5
 63
     7
 74
     1
 91
        4
 64
     7
 65
   257
 75
     1
175
     1
 42
1.0
 92
        0
 66
   257
 43
1.0
 76
     1
 77
     6
 78
     2
 67
     7
 79
     5
170
     0
171
     0
290
     0
174
     0
 93
       13
 44
0.0
173
     0
291
     1
 45
0.0
1001
ACAD
1000
AcDbSavedByObjectVersion
1070
     0
  0
VISUALSTYLE
  5
38
102
{ACAD_REACTORS
330
2A
102
}
330
2A
100
AcDbVisualStyle
  2
Linepattern
 70
    14
 71
     2
 72
     2
 73
     0
 90
        0
 40
-0.6
 41
-30.0
 62
     5
 63
     7
 74
     1
 91
        4
 64
     7
 65
   257
 75
     7
175
     7
 42
1.0
 92
        8
 66
     7
 43
1.0
 76
     1
 77
     6
 78
     2
 67
     7
 79
     5
170
     0
171
     0
290
     0
174
     0
 93
        1
 44
0.0
173
     0
291
     1
 45
0.0
1001
ACAD
1000
AcDbSavedByObjectVersion
1070
     0
  0
VISUALSTYLE
  5
33
102
{ACAD_REACTORS
330
2A
102
}
330
2A
100
AcDbVisualStyle
  2
Realistic
 70
     8
 71
     2
 72
     2
 73
     0
 90
        0
 40
-0.6
 41
-30.0
 62
     5
 63
     7
 74
     1
 91
        0
 64
     7
 65
   257
 75
     1
175
     1
 42
1.0
 92
        8
 66
     8
 43
1.0
 76
     1
 77
     6
 78
     2
 67
     7
 79
     5
170
     0
171
     0
290
     0
174
     0
 93
       13
 44
0.0
173
     0
291
     0
 45
0.0
1001
ACAD
1000
AcDbSavedByObjectVersion
1070
     0
  0
VISUALSTYLE
  5
37
102
{ACAD_REACTORS
330
2A
102
}
330
2A
100
AcDbVisualStyle
  2
Thicken
 70
    13
 71
     2
 72
     2
 73
     0
 90
        0
 40
-0.6
 41
-30.0
 62
     5
 63
     7
 74
     1
 91
        4
 64
     7
 65
   257
 75
     1
175
     1
 42
1.0
 92
       12
 66
     7
 43
1.0
 76
     1
 77
     6
 78
     2
 67
     7
 79
     5
170
     0
171
     0
290
     0
174
     0
 93
        1
 44
0.0
173
     0
291
     1
 45
0.0
1001
ACAD
1000
AcDbSavedByObjectVersion
1070
     0
  0
ENDSEC
  0
EOF
