  0
SECTION
  2
HEADER
  9
$ACADVER
  1
AC1015
  9
$ACADMAINTVER
 70
     6
  9
$DWGCODEPAGE
  3
ANSI_932
  9
$INSBASE
 10
0.0
 20
0.0
 30
0.0
  9
$EXTMIN
 10
1.000000000000000E+20
 20
1.000000000000000E+20
 30
1.000000000000000E+20
  9
$EXTMAX
 10
-1.000000000000000E+20
 20
-1.000000000000000E+20
 30
-1.000000000000000E+20
  9
$LIMMIN
 10
0.0
 20
0.0
  9
$LIMMAX
 10
12.0
 20
9.0
  9
$ORTHOMODE
 70
     0
  9
$REGENMODE
 70
     1
  9
$FILLMODE
 70
     1
  9
$QTEXTMODE
 70
     0
  9
$MIRRTEXT
 70
     1
  9
$LTSCALE
 40
1.0
  9
$ATTMODE
 70
     1
  9
$TEXTSIZE
 40
0.2
  9
$TRACEWID
 40
0.05
  9
$TEXTSTYLE
  7
Standard
  9
$CLAYER
  8
0
  9
$CELTYPE
  6
ByLayer
  9
$CECOLOR
 62
   256
  9
$CELTSCALE
 40
1.0
  9
$DISPSILH
 70
     0
  9
$DIMSCALE
 40
1.0
  9
$DIMASZ
 40
0.18
  9
$DIMEXO
 40
0.0625
  9
$DIMDLI
 40
0.38
  9
$DIMRND
 40
0.0
  9
$DIMDLE
 40
0.0
  9
$DIMEXE
 40
0.18
  9
$DIMTP
 40
0.0
  9
$DIMTM
 40
0.0
  9
$DIMTXT
 40
0.18
  9
$DIMCEN
 40
0.09
  9
$DIMTSZ
 40
0.0
  9
$DIMTOL
 70
     0
  9
$DIMLIM
 70
     0
  9
$DIMTIH
 70
     1
  9
$DIMTOH
 70
     1
  9
$DIMSE1
 70
     0
  9
$DIMSE2
 70
     0
  9
$DIMTAD
 70
     0
  9
$DIMZIN
 70
     0
  9
$DIMBLK
  1

  9
$DIMASO
 70
     1
  9
$DIMSHO
 70
     1
  9
$DIMPOST
  1

  9
$DIMAPOST
  1

  9
$DIMALT
 70
     0
  9
$DIMALTD
 70
     2
  9
$DIMALTF
 40
25.4
  9
$DIMLFAC
 40
1.0
  9
$DIMTOFL
 70
     0
  9
$DIMTVP
 40
0.0
  9
$DIMTIX
 70
     0
  9
$DIMSOXD
 70
     0
  9
$DIMSAH
 70
     0
  9
$DIMBLK1
  1

  9
$DIMBLK2
  1

  9
$DIMSTYLE
  2
Standard
  9
$DIMCLRD
 70
     0
  9
$DIMCLRE
 70
     0
  9
$DIMCLRT
 70
     0
  9
$DIMTFAC
 40
1.0
  9
$DIMGAP
 40
0.09
  9
$DIMJUST
 70
     0
  9
$DIMSD1
 70
     0
  9
$DIMSD2
 70
     0
  9
$DIMTOLJ
 70
     1
  9
$DIMTZIN
 70
     0
  9
$DIMALTZ
 70
     0
  9
$DIMALTTZ
 70
     0
  9
$DIMUPT
 70
     0
  9
$DIMDEC
 70
     4
  9
$DIMTDEC
 70
     4
  9
$DIMALTU
 70
     2
  9
$DIMALTTD
 70
     2
  9
$DIMTXSTY
  7
Standard
  9
$DIMAUNIT
 70
     0
  9
$DIMADEC
 70
     0
  9
$DIMALTRND
 40
0.0
  9
$DIMAZIN
 70
     0
  9
$DIMDSEP
 70
    46
  9
$DIMATFIT
 70
     3
  9
$DIMFRAC
 70
     0
  9
$DIMLDRBLK
  1

  9
$DIMLUNIT
 70
     2
  9
$DIMLWD
 70
    -2
  9
$DIMLWE
 70
    -2
  9
$DIMTMOVE
 70
     0
  9
$LUNITS
 70
     2
  9
$LUPREC
 70
     4
  9
$SKETCHINC
 40
0.1
  9
$FILLETRAD
 40
0.5
  9
$AUNITS
 70
     0
  9
$AUPREC
 70
     0
  9
$MENU
  1
.
  9
$ELEVATION
 40
0.0
  9
$PELEVATION
 40
0.0
  9
$THICKNESS
 40
0.0
  9
$LIMCHECK
 70
     0
  9
$CHAMFERA
 40
0.5
  9
$CHAMFERB
 40
0.5
  9
$CHAMFERC
 40
1.0
  9
$CHAMFERD
 40
0.0
  9
$SKPOLY
 70
     0
  9
$TDCREATE
 40
2456666.521910093
  9
$TDUCREATE
 40
2456666.146910093
  9
$TDUPDATE
 40
2456666.521910104
  9
$TDUUPDATE
 40
2456666.146910104
  9
$TDINDWG
 40
0.0000000116
  9
$TDUSRTIMER
 40
0.0000000116
  9
$USRTIMER
 70
     1
  9
$ANGBASE
 50
0.0
  9
$ANGDIR
 70
     0
  9
$PDMODE
 70
     0
  9
$PDSIZE
 40
0.0
  9
$PLINEWID
 40
0.0
  9
$SPLFRAME
 70
     0
  9
$SPLINETYPE
 70
     6
  9
$SPLINESEGS
 70
     8
  9
$HANDSEED
  5
319
  9
$SURFTAB1
 70
     6
  9
$SURFTAB2
 70
     6
  9
$SURFTYPE
 70
     6
  9
$SURFU
 70
     6
  9
$SURFV
 70
     6
  9
$UCSBASE
  2

  9
$UCSNAME
  2

  9
$UCSORG
 10
0.0
 20
0.0
 30
0.0
  9
$UCSXDIR
 10
1.0
 20
0.0
 30
0.0
  9
$UCSYDIR
 10
0.0
 20
1.0
 30
0.0
  9
$UCSORTHOREF
  2

  9
$UCSORTHOVIEW
 70
     0
  9
$UCSORGTOP
 10
0.0
 20
0.0
 30
0.0
  9
$UCSORGBOTTOM
 10
0.0
 20
0.0
 30
0.0
  9
$UCSORGLEFT
 10
0.0
 20
0.0
 30
0.0
  9
$UCSORGRIGHT
 10
0.0
 20
0.0
 30
0.0
  9
$UCSORGFRONT
 10
0.0
 20
0.0
 30
0.0
  9
$UCSORGBACK
 10
0.0
 20
0.0
 30
0.0
  9
$PUCSBASE
  2

  9
$PUCSNAME
  2

  9
$PUCSORG
 10
0.0
 20
0.0
 30
0.0
  9
$PUCSXDIR
 10
1.0
 20
0.0
 30
0.0
  9
$PUCSYDIR
 10
0.0
 20
1.0
 30
0.0
  9
$PUCSORTHOREF
  2

  9
$PUCSORTHOVIEW
 70
     0
  9
$PUCSORGTOP
 10
0.0
 20
0.0
 30
0.0
  9
$PUCSORGBOTTOM
 10
0.0
 20
0.0
 30
0.0
  9
$PUCSORGLEFT
 10
0.0
 20
0.0
 30
0.0
  9
$PUCSORGRIGHT
 10
0.0
 20
0.0
 30
0.0
  9
$PUCSORGFRONT
 10
0.0
 20
0.0
 30
0.0
  9
$PUCSORGBACK
 10
0.0
 20
0.0
 30
0.0
  9
$USERI1
 70
     0
  9
$USERI2
 70
     0
  9
$USERI3
 70
     0
  9
$USERI4
 70
     0
  9
$USERI5
 70
     0
  9
$USERR1
 40
0.0
  9
$USERR2
 40
0.0
  9
$USERR3
 40
0.0
  9
$USERR4
 40
0.0
  9
$USERR5
 40
0.0
  9
$WORLDVIEW
 70
     1
  9
$SHADEDGE
 70
     3
  9
$SHADEDIF
 70
    70
  9
$TILEMODE
 70
     1
  9
$MAXACTVP
 70
    64
  9
$PINSBASE
 10
0.0
 20
0.0
 30
0.0
  9
$PLIMCHECK
 70
     0
  9
$PEXTMIN
 10
1.000000000000000E+20
 20
1.000000000000000E+20
 30
1.000000000000000E+20
  9
$PEXTMAX
 10
-1.000000000000000E+20
 20
-1.000000000000000E+20
 30
-1.000000000000000E+20
  9
$PLIMMIN
 10
0.0
 20
0.0
  9
$PLIMMAX
 10
12.0
 20
9.0
  9
$UNITMODE
 70
     0
  9
$VISRETAIN
 70
     1
  9
$PLINEGEN
 70
     0
  9
$PSLTSCALE
 70
     1
  9
$TREEDEPTH
 70
  3020
  9
$CMLSTYLE
  2
Standard
  9
$CMLJUST
 70
     0
  9
$CMLSCALE
 40
1.0
  9
$PROXYGRAPHICS
 70
     1
  9
$MEASUREMENT
 70
     0
  9
$CELWEIGHT
370
    -1
  9
$ENDCAPS
280
     0
  9
$JOINSTYLE
280
     0
  9
$LWDISPLAY
290
     1
  9
$INSUNITS
 70
     1
  9
$HYPERLINKBASE
  1

  9
$STYLESHEET
  1

  9
$XEDIT
290
     1
  9
$CEPSNTYPE
380
     0
  9
$PSTYLEMODE
290
     1
  9
$FINGERPRINTGUID
  2
{B985B30E-B98B-429D-AEDE-7D8B9EED35A9}
  9
$VERSIONGUID
  2
{FAEB1C32-E019-11D5-929B-00C0DF256EC4}
  9
$EXTNAMES
290
     1
  9
$PSVPSCALE
 40
0.0
  9
$OLESTARTUP
290
     0
  0
ENDSEC
  0
SECTION
  2
CLASSES
  0
CLASS
  1
ACDBDICTIONARYWDFLT
  2
AcDbDictionaryWithDefault
  3
ObjectDBX Classes
 90
        0
280
     0
281
     0
  0
CLASS
  1
VISUALSTYLE
  2
AcDbVisualStyle
  3
ObjectDBX Classes
 90
     4095
280
     0
281
     0
  0
CLASS
  1
ACDBPLACEHOLDER
  2
AcDbPlaceHolder
  3
ObjectDBX Classes
 90
        0
280
     0
281
     0
  0
CLASS
  1
LAYOUT
  2
AcDbLayout
  3
ObjectDBX Classes
 90
        0
280
     0
281
     0
  0
ENDSEC
  0
SECTION
  2
TABLES
  0
TABLE
  2
VPORT
  5
8
330
0
100
AcDbSymbolTable
 70
     1
  0
VPORT
  5
29
330
8
100
AcDbSymbolTableRecord
100
AcDbViewportTableRecord
  2
*Active
 70
     0
 10
0.0
 20
0.0
 11
1.0
 21
1.0
 12
0.0
 22
0.0
 13
0.0
 23
0.0
 14
0.5
 24
0.5
 15
0.5
 25
0.5
 16
0.0
 26
0.0
 36
1.0
 17
210.0791666141469
 27
148.5194444073146
 37
0.0
 40
297.0388888146292
 41
1.414489311163896
 42
50.0
 43
0.0
 44
0.0
 50
0.0
 51
0.0
 71
     0
 72
   100
 73
     1
 74
     3
 75
     0
 76
     0
 77
     0
 78
     0
281
     0
 65
     1
110
0.0
120
0.0
130
0.0
111
1.0
121
0.0
131
0.0
112
0.0
122
1.0
132
0.0
 79
     0
146
0.0
  0
ENDTAB
  0
TABLE
  2
LTYPE
  5
5
330
0
100
AcDbSymbolTable
 70
     3
  0
LTYPE
  5
14
330
5
100
AcDbSymbolTableRecord
100
AcDbLinetypeTableRecord
  2
ByBlock
 70
     0
  3

 72
    65
 73
     0
 40
0.0
  0
LTYPE
  5
15
330
5
100
AcDbSymbolTableRecord
100
AcDbLinetypeTableRecord
  2
ByLayer
 70
     0
  3

 72
    65
 73
     0
 40
0.0
  0
LTYPE
  5
16
330
5
100
AcDbSymbolTableRecord
100
AcDbLinetypeTableRecord
  2
Continuous
 70
     0
  3
Solid line
 72
    65
 73
     0
 40
0.0
  0
LTYPE
  5
24F
330
5
100
AcDbSymbolTableRecord
100
AcDbLinetypeTableRecord
  2
AI-Linetype-1
 70
     0
  3
Adobe Illustrator Linetype No. 1
 72
    65
 73
     4
 40
3.17499999920625
 49
1.763888888447917
 74
     0
 49
-0.3527777776895833
 74
     0
 49
0.3527777776895833
 74
     0
 49
-0.7055555553791667
 74
     0
  0
LTYPE
  5
254
330
5
100
AcDbSymbolTableRecord
100
AcDbLinetypeTableRecord
  2
AI-Linetype-2
 70
     0
  3
Adobe Illustrator Linetype No. 2
 72
    65
 73
     4
 40
3.17499999920625
 49
1.763888888447917
 74
     0
 49
-0.3527777776895833
 74
     0
 49
0.3527777776895833
 74
     0
 49
-0.7055555553791667
 74
     0
  0
ENDTAB
  0
TABLE
  2
LAYER
  5
2
330
0
100
AcDbSymbolTable
 70
     4
  0
LAYER
  5
10
330
2
100
AcDbSymbolTableRecord
100
AcDbLayerTableRecord
  2
0
 70
     0
 62
     7
  6
Continuous
370
    -3
390
F
  0
LAYER
  5
3B
330
2
100
AcDbSymbolTableRecord
100
AcDbLayerTableRecord
  2
\U+30D5\U+30A9\U+30FC\U+30DE\U+30C3\U+30C8
 70
     0
 62
     7
  6
Continuous
370
    -3
390
F
  0
LAYER
  5
1F3
330
2
100
AcDbSymbolTableRecord
100
AcDbLayerTableRecord
  2
\U+56F3pt
 70
     0
 62
     7
  6
Continuous
370
    -3
390
F
  0
LAYER
  5
261
330
2
100
AcDbSymbolTableRecord
100
AcDbLayerTableRecord
  2
Dimension Layer
 70
     0
 62
     7
  6
Continuous
370
    -3
390
F
  0
ENDTAB
  0
TABLE
  2
STYLE
  5
3
330
0
100
AcDbSymbolTable
 70
     1
  0
STYLE
  5
11
330
3
100
AcDbSymbolTableRecord
100
AcDbTextStyleTableRecord
  2
Standard
 70
     0
 40
0.0
 41
1.0
 50
0.0
 71
     0
 42
0.2
  3
txt
  4

  0
ENDTAB
  0
TABLE
  2
VIEW
  5
6
330
0
100
AcDbSymbolTable
 70
     0
  0
ENDTAB
  0
TABLE
  2
UCS
  5
7
330
0
100
AcDbSymbolTable
 70
     0
  0
ENDTAB
  0
TABLE
  2
APPID
  5
9
330
0
100
AcDbSymbolTable
 70
     1
  0
APPID
  5
12
330
9
100
AcDbSymbolTableRecord
100
AcDbRegAppTableRecord
  2
ACAD
 70
     0
  0
ENDTAB
  0
TABLE
  2
DIMSTYLE
  5
A
330
0
100
AcDbSymbolTable
 70
     1
100
AcDbDimStyleTable
  0
DIMSTYLE
105
27
330
A
100
AcDbSymbolTableRecord
100
AcDbDimStyleTableRecord
  2
Standard
 70
     0
340
11
  0
ENDTAB
  0
TABLE
  2
BLOCK_RECORD
  5
1
330
0
100
AcDbSymbolTable
 70
    25
  0
BLOCK_RECORD
  5
1F
330
1
100
AcDbSymbolTableRecord
100
AcDbBlockTableRecord
  2
*Model_Space
340
22
  0
BLOCK_RECORD
  5
1B
330
1
100
AcDbSymbolTableRecord
100
AcDbBlockTableRecord
  2
*Paper_Space
340
1E
  0
BLOCK_RECORD
  5
23
330
1
100
AcDbSymbolTableRecord
100
AcDbBlockTableRecord
  2
*Paper_Space0
340
26
  0
BLOCK_RECORD
  5
62
330
1
100
AcDbSymbolTableRecord
100
AcDbBlockTableRecord
  2
block 2
340
0
102
{BLKREFS
331
63
102
}
  0
BLOCK_RECORD
  5
A5
330
1
100
AcDbSymbolTableRecord
100
AcDbBlockTableRecord
  2
block 3
340
0
102
{BLKREFS
331
A6
102
}
  0
BLOCK_RECORD
  5
AA
330
1
100
AcDbSymbolTableRecord
100
AcDbBlockTableRecord
  2
block 4
340
0
102
{BLKREFS
331
AB
102
}
  0
BLOCK_RECORD
  5
B6
330
1
100
AcDbSymbolTableRecord
100
AcDbBlockTableRecord
  2
block 5
340
0
102
{BLKREFS
331
B7
102
}
  0
BLOCK_RECORD
  5
BB
330
1
100
AcDbSymbolTableRecord
100
AcDbBlockTableRecord
  2
block 6
340
0
102
{BLKREFS
331
BC
102
}
  0
BLOCK_RECORD
  5
C7
330
1
100
AcDbSymbolTableRecord
100
AcDbBlockTableRecord
  2
block 7
340
0
102
{BLKREFS
331
C8
102
}
  0
BLOCK_RECORD
  5
D3
330
1
100
AcDbSymbolTableRecord
100
AcDbBlockTableRecord
  2
block 8
340
0
102
{BLKREFS
331
D4
102
}
  0
BLOCK_RECORD
  5
154
330
1
100
AcDbSymbolTableRecord
100
AcDbBlockTableRecord
  2
block 9
340
0
102
{BLKREFS
331
155
102
}
  0
BLOCK_RECORD
  5
165
330
1
100
AcDbSymbolTableRecord
100
AcDbBlockTableRecord
  2
block 10
340
0
102
{BLKREFS
331
166
102
}
  0
BLOCK_RECORD
  5
169
330
1
100
AcDbSymbolTableRecord
100
AcDbBlockTableRecord
  2
block 11
340
0
102
{BLKREFS
331
16A
102
}
  0
BLOCK_RECORD
  5
16F
330
1
100
AcDbSymbolTableRecord
100
AcDbBlockTableRecord
  2
block 12
340
0
102
{BLKREFS
331
170
102
}
  0
BLOCK_RECORD
  5
182
330
1
100
AcDbSymbolTableRecord
100
AcDbBlockTableRecord
  2
block 13
340
0
102
{BLKREFS
331
183
102
}
  0
BLOCK_RECORD
  5
18B
330
1
100
AcDbSymbolTableRecord
100
AcDbBlockTableRecord
  2
block 14
340
0
102
{BLKREFS
331
18C
102
}
  0
BLOCK_RECORD
  5
194
330
1
100
AcDbSymbolTableRecord
100
AcDbBlockTableRecord
  2
block 15
340
0
102
{BLKREFS
331
195
102
}
  0
BLOCK_RECORD
  5
19D
330
1
100
AcDbSymbolTableRecord
100
AcDbBlockTableRecord
  2
block 16
340
0
102
{BLKREFS
331
19E
102
}
  0
BLOCK_RECORD
  5
1AE
330
1
100
AcDbSymbolTableRecord
100
AcDbBlockTableRecord
  2
block 17
340
0
102
{BLKREFS
331
1AF
102
}
  0
BLOCK_RECORD
  5
216
330
1
100
AcDbSymbolTableRecord
100
AcDbBlockTableRecord
  2
block 18
340
0
102
{BLKREFS
331
217
102
}
  0
BLOCK_RECORD
  5
229
330
1
100
AcDbSymbolTableRecord
100
AcDbBlockTableRecord
  2
block 19
340
0
102
{BLKREFS
331
22A
102
}
  0
BLOCK_RECORD
  5
259
330
1
100
AcDbSymbolTableRecord
100
AcDbBlockTableRecord
  2
block 20
340
0
102
{BLKREFS
331
25A
102
}
  0
BLOCK_RECORD
  5
262
330
1
100
AcDbSymbolTableRecord
100
AcDbBlockTableRecord
  2
block 21
340
0
102
{BLKREFS
331
263
102
}
  0
BLOCK_RECORD
  5
281
330
1
100
AcDbSymbolTableRecord
100
AcDbBlockTableRecord
  2
block 22
340
0
102
{BLKREFS
331
282
102
}
  0
BLOCK_RECORD
  5
2A0
330
1
100
AcDbSymbolTableRecord
100
AcDbBlockTableRecord
  2
block 23
340
0
102
{BLKREFS
331
2A1
102
}
  0
BLOCK_RECORD
  5
2BF
330
1
100
AcDbSymbolTableRecord
100
AcDbBlockTableRecord
  2
block 24
340
0
102
{BLKREFS
331
2C0
102
}
  0
BLOCK_RECORD
  5
2F5
330
1
100
AcDbSymbolTableRecord
100
AcDbBlockTableRecord
  2
block 25
340
0
102
{BLKREFS
331
2F6
102
}
  0
ENDTAB
  0
ENDSEC
  0
SECTION
  2
BLOCKS
  0
BLOCK
  5
20
330
1F
100
AcDbEntity
  8
0
100
AcDbBlockBegin
  2
*Model_Space
 70
     0
 71
     0
 10
0.0
 20
0.0
 30
0.0
  3
*Model_Space
  1

  0
ENDBLK
  5
21
330
1F
100
AcDbEntity
  8
0
100
AcDbBlockEnd
  0
BLOCK
  5
1C
330
1B
100
AcDbEntity
 67
     1
  8
0
100
AcDbBlockBegin
  2
*Paper_Space
 70
     0
 71
     0
 10
0.0
 20
0.0
 30
0.0
  3
*Paper_Space
  1

  0
ENDBLK
  5
1D
330
1B
100
AcDbEntity
 67
     1
  8
0
100
AcDbBlockEnd
  0
BLOCK
  5
24
330
23
100
AcDbEntity
  8
0
100
AcDbBlockBegin
  2
*Paper_Space0
 70
     0
 71
     0
 10
0.0
 20
0.0
 30
0.0
  3
*Paper_Space0
  1

  0
ENDBLK
  5
25
330
23
100
AcDbEntity
  8
0
100
AcDbBlockEnd
  0
BLOCK
  5
64
330
62
100
AcDbEntity
  8
0
100
AcDbBlockBegin
  2
block 2
 70
     0
 71
     0
 10
0.0
 20
0.0
 30
0.0
  3
block 2
  1

  0
MTEXT
  5
66
330
62
100
AcDbEntity
  8
\U+30D5\U+30A9\U+30FC\U+30DE\U+30C3\U+30C8
 62
    29
100
AcDbMText
 10
26.07730576605012
 20
11.09148491476185
 30
0.0
 40
2.187786638666616
 41
0.0
 71
     7
 72
     1
  1
\fMS Gothic|b0|i0|c0|p34;\W1;符 号
 73
     1
 44
1.0
  0
POLYLINE
  5
67
330
62
100
AcDbEntity
  8
\U+30D5\U+30A9\U+30FC\U+30DE\U+30C3\U+30C8
370
     0
100
AcDb2dPolyline
 66
     1
 10
0.0
 20
0.0
 30
0.0
  0
VERTEX
  5
68
330
67
100
AcDbEntity
  8
\U+30D5\U+30A9\U+30FC\U+30DE\U+30C3\U+30C8
370
     0
100
AcDbVertex
100
AcDb2dVertex
 10
26.10882838974015
 20
10.86893174641471
 30
0.0
  0
VERTEX
  5
69
330
67
100
AcDbEntity
  8
\U+30D5\U+30A9\U+30FC\U+30DE\U+30C3\U+30C8
370
     0
100
AcDbVertex
100
AcDb2dVertex
 10
34.15226507392721
 20
10.86893174641471
 30
0.0
  0
VERTEX
  5
6A
330
67
100
AcDbEntity
  8
\U+30D5\U+30A9\U+30FC\U+30DE\U+30C3\U+30C8
370
     0
100
AcDbVertex
100
AcDb2dVertex
 10
34.15226507392721
 20
13.91680772221524
 30
0.0
  0
VERTEX
  5
6B
330
67
100
AcDbEntity
  8
\U+30D5\U+30A9\U+30FC\U+30DE\U+30C3\U+30C8
370
     0
100
AcDbVertex
100
AcDb2dVertex
 10
26.10882838974015
 20
13.91680772221524
 30
0.0
  0
VERTEX
  5
6C
330
67
100
AcDbEntity
  8
\U+30D5\U+30A9\U+30FC\U+30DE\U+30C3\U+30C8
370
     0
100
AcDbVertex
100
AcDb2dVertex
 10
26.10882838974015
 20
10.86893174641471
 30
0.0
  0
SEQEND
  5
6D
330
67
100
AcDbEntity
  8
\U+30D5\U+30A9\U+30FC\U+30DE\U+30C3\U+30C8
370
     0
  0
ENDBLK
  5
65
330
62
100
AcDbEntity
  8
0
100
AcDbBlockEnd
  0
BLOCK
  5
A7
330
A5
100
AcDbEntity
  8
0
100
AcDbBlockBegin
  2
block 3
 70
     0
 71
     0
 10
0.0
 20
0.0
 30
0.0
  3
block 3
  1

  0
MTEXT
  5
A9
330
A5
100
AcDbEntity
  8
\U+30D5\U+30A9\U+30FC\U+30DE\U+30C3\U+30C8
 62
    29
100
AcDbMText
 10
98.55195174402522
 20
10.83723686795041
 30
0.0
 40
2.187786638666616
 41
0.0
 71
     7
 72
     1
  1
\fMS Gothic|b0|i0|c0|p34;\W1;記
 73
     1
 44
1.0
  0
ENDBLK
  5
A8
330
A5
100
AcDbEntity
  8
0
100
AcDbBlockEnd
  0
BLOCK
  5
AC
330
AA
100
AcDbEntity
  8
0
100
AcDbBlockBegin
  2
block 4
 70
     0
 71
     0
 10
0.0
 20
0.0
 30
0.0
  3
block 4
  1

  0
MTEXT
  5
AE
330
AA
100
AcDbEntity
  8
\U+30D5\U+30A9\U+30FC\U+30DE\U+30C3\U+30C8
 62
    29
100
AcDbMText
 10
101.7693264177
 20
10.83723686795041
 30
0.0
 40
2.187786638666616
 41
0.0
 71
     7
 72
     1
  1
\fMS Gothic|b0|i0|c0|p34;\W1;　
 73
     1
 44
1.0
  0
POLYLINE
  5
AF
330
AA
100
AcDbEntity
  8
\U+30D5\U+30A9\U+30FC\U+30DE\U+30C3\U+30C8
370
     0
100
AcDb2dPolyline
 66
     1
 10
0.0
 20
0.0
 30
0.0
  0
VERTEX
  5
B0
330
AF
100
AcDbEntity
  8
\U+30D5\U+30A9\U+30FC\U+30DE\U+30C3\U+30C8
370
     0
100
AcDbVertex
100
AcDb2dVertex
 10
101.8008490413901
 20
10.86893174641471
 30
0.0
  0
VERTEX
  5
B1
330
AF
100
AcDbEntity
  8
\U+30D5\U+30A9\U+30FC\U+30DE\U+30C3\U+30C8
370
     0
100
AcDbVertex
100
AcDb2dVertex
 10
105.0182237150649
 20
10.86893174641471
 30
0.0
  0
VERTEX
  5
B2
330
AF
100
AcDbEntity
  8
\U+30D5\U+30A9\U+30FC\U+30DE\U+30C3\U+30C8
370
     0
100
AcDbVertex
100
AcDb2dVertex
 10
105.0182237150649
 20
13.66290418495233
 30
0.0
  0
VERTEX
  5
B3
330
AF
100
AcDbEntity
  8
\U+30D5\U+30A9\U+30FC\U+30DE\U+30C3\U+30C8
370
     0
100
AcDbVertex
100
AcDb2dVertex
 10
101.8008490413901
 20
13.66290418495233
 30
0.0
  0
VERTEX
  5
B4
330
AF
100
AcDbEntity
  8
\U+30D5\U+30A9\U+30FC\U+30DE\U+30C3\U+30C8
370
     0
100
AcDbVertex
100
AcDb2dVertex
 10
101.8008490413901
 20
10.86893174641471
 30
0.0
  0
SEQEND
  5
B5
330
AF
100
AcDbEntity
  8
\U+30D5\U+30A9\U+30FC\U+30DE\U+30C3\U+30C8
370
     0
  0
ENDBLK
  5
AD
330
AA
100
AcDbEntity
  8
0
100
AcDbBlockEnd
  0
BLOCK
  5
B8
330
B6
100
AcDbEntity
  8
0
100
AcDbBlockBegin
  2
block 5
 70
     0
 71
     0
 10
0.0
 20
0.0
 30
0.0
  3
block 5
  1

  0
MTEXT
  5
BA
330
B6
100
AcDbEntity
  8
\U+30D5\U+30A9\U+30FC\U+30DE\U+30C3\U+30C8
 62
    29
100
AcDbMText
 10
104.9867010913749
 20
10.83723686795041
 30
0.0
 40
2.187786638666616
 41
0.0
 71
     7
 72
     1
  1
\fMS Gothic|b0|i0|c0|p34;\W1;事
 73
     1
 44
1.0
  0
ENDBLK
  5
B9
330
B6
100
AcDbEntity
  8
0
100
AcDbBlockEnd
  0
BLOCK
  5
BD
330
BB
100
AcDbEntity
  8
0
100
AcDbBlockBegin
  2
block 6
 70
     0
 71
     0
 10
0.0
 20
0.0
 30
0.0
  3
block 6
  1

  0
MTEXT
  5
BF
330
BB
100
AcDbEntity
  8
\U+30D5\U+30A9\U+30FC\U+30DE\U+30C3\U+30C8
 62
    29
100
AcDbMText
 10
41.06329887211265
 20
11.00673556582471
 30
0.0
 40
2.187786638666616
 41
0.0
 71
     7
 72
     1
  1
\fMS Gothic|b0|i0|c0|p34;\W1;日
 73
     1
 44
1.0
  0
POLYLINE
  5
C0
330
BB
100
AcDbEntity
  8
\U+30D5\U+30A9\U+30FC\U+30DE\U+30C3\U+30C8
370
     0
100
AcDb2dPolyline
 66
     1
 10
0.0
 20
0.0
 30
0.0
  0
VERTEX
  5
C1
330
C0
100
AcDbEntity
  8
\U+30D5\U+30A9\U+30FC\U+30DE\U+30C3\U+30C8
370
     0
100
AcDbVertex
100
AcDb2dVertex
 10
41.09482149580268
 20
10.86893174641471
 30
0.0
  0
VERTEX
  5
C2
330
C0
100
AcDbEntity
  8
\U+30D5\U+30A9\U+30FC\U+30DE\U+30C3\U+30C8
370
     0
100
AcDbVertex
100
AcDb2dVertex
 10
44.31219616947751
 20
10.86893174641471
 30
0.0
  0
VERTEX
  5
C3
330
C0
100
AcDbEntity
  8
\U+30D5\U+30A9\U+30FC\U+30DE\U+30C3\U+30C8
370
     0
100
AcDbVertex
100
AcDb2dVertex
 10
44.31219616947751
 20
13.83240288282662
 30
0.0
  0
VERTEX
  5
C4
330
C0
100
AcDbEntity
  8
\U+30D5\U+30A9\U+30FC\U+30DE\U+30C3\U+30C8
370
     0
100
AcDbVertex
100
AcDb2dVertex
 10
41.09482149580268
 20
13.83240288282662
 30
0.0
  0
VERTEX
  5
C5
330
C0
100
AcDbEntity
  8
\U+30D5\U+30A9\U+30FC\U+30DE\U+30C3\U+30C8
370
     0
100
AcDbVertex
100
AcDb2dVertex
 10
41.09482149580268
 20
10.86893174641471
 30
0.0
  0
SEQEND
  5
C6
330
C0
100
AcDbEntity
  8
\U+30D5\U+30A9\U+30FC\U+30DE\U+30C3\U+30C8
370
     0
  0
ENDBLK
  5
BE
330
BB
100
AcDbEntity
  8
0
100
AcDbBlockEnd
  0
BLOCK
  5
C9
330
C7
100
AcDbEntity
  8
0
100
AcDbBlockBegin
  2
block 7
 70
     0
 71
     0
 10
0.0
 20
0.0
 30
0.0
  3
block 7
  1

  0
MTEXT
  5
CB
330
C7
100
AcDbEntity
  8
\U+30D5\U+30A9\U+30FC\U+30DE\U+30C3\U+30C8
 62
    29
100
AcDbMText
 10
44.28067354578747
 20
11.00673556582471
 30
0.0
 40
2.187786638666616
 41
0.0
 71
     7
 72
     1
  1
\fMS Gothic|b0|i0|c0|p34;\W1;　
 73
     1
 44
1.0
  0
POLYLINE
  5
CC
330
C7
100
AcDbEntity
  8
\U+30D5\U+30A9\U+30FC\U+30DE\U+30C3\U+30C8
370
     0
100
AcDb2dPolyline
 66
     1
 10
0.0
 20
0.0
 30
0.0
  0
VERTEX
  5
CD
330
CC
100
AcDbEntity
  8
\U+30D5\U+30A9\U+30FC\U+30DE\U+30C3\U+30C8
370
     0
100
AcDbVertex
100
AcDb2dVertex
 10
44.31219616947751
 20
10.86893174641471
 30
0.0
  0
VERTEX
  5
CE
330
CC
100
AcDbEntity
  8
\U+30D5\U+30A9\U+30FC\U+30DE\U+30C3\U+30C8
370
     0
100
AcDbVertex
100
AcDb2dVertex
 10
47.52957084315234
 20
10.86893174641471
 30
0.0
  0
VERTEX
  5
CF
330
CC
100
AcDbEntity
  8
\U+30D5\U+30A9\U+30FC\U+30DE\U+30C3\U+30C8
370
     0
100
AcDbVertex
100
AcDb2dVertex
 10
47.52957084315234
 20
13.83240288282662
 30
0.0
  0
VERTEX
  5
D0
330
CC
100
AcDbEntity
  8
\U+30D5\U+30A9\U+30FC\U+30DE\U+30C3\U+30C8
370
     0
100
AcDbVertex
100
AcDb2dVertex
 10
44.31219616947751
 20
13.83240288282662
 30
0.0
  0
VERTEX
  5
D1
330
CC
100
AcDbEntity
  8
\U+30D5\U+30A9\U+30FC\U+30DE\U+30C3\U+30C8
370
     0
100
AcDbVertex
100
AcDb2dVertex
 10
44.31219616947751
 20
10.86893174641471
 30
0.0
  0
SEQEND
  5
D2
330
CC
100
AcDbEntity
  8
\U+30D5\U+30A9\U+30FC\U+30DE\U+30C3\U+30C8
370
     0
  0
ENDBLK
  5
CA
330
C7
100
AcDbEntity
  8
0
100
AcDbBlockEnd
  0
BLOCK
  5
D5
330
D3
100
AcDbEntity
  8
0
100
AcDbBlockBegin
  2
block 8
 70
     0
 71
     0
 10
0.0
 20
0.0
 30
0.0
  3
block 8
  1

  0
MTEXT
  5
D7
330
D3
100
AcDbEntity
  8
\U+30D5\U+30A9\U+30FC\U+30DE\U+30C3\U+30C8
 62
    29
100
AcDbMText
 10
47.4980482194623
 20
11.00673556582471
 30
0.0
 40
2.187786638666616
 41
0.0
 71
     7
 72
     1
  1
\fMS Gothic|b0|i0|c0|p34;\W1;付
 73
     1
 44
1.0
  0
POLYLINE
  5
D8
330
D3
100
AcDbEntity
  8
\U+30D5\U+30A9\U+30FC\U+30DE\U+30C3\U+30C8
370
     0
100
AcDb2dPolyline
 66
     1
 10
0.0
 20
0.0
 30
0.0
  0
VERTEX
  5
D9
330
D8
100
AcDbEntity
  8
\U+30D5\U+30A9\U+30FC\U+30DE\U+30C3\U+30C8
370
     0
100
AcDbVertex
100
AcDb2dVertex
 10
47.52957084315234
 20
10.86893174641471
 30
0.0
  0
VERTEX
  5
DA
330
D8
100
AcDbEntity
  8
\U+30D5\U+30A9\U+30FC\U+30DE\U+30C3\U+30C8
370
     0
100
AcDbVertex
100
AcDb2dVertex
 10
50.74694551682715
 20
10.86893174641471
 30
0.0
  0
VERTEX
  5
DB
330
D8
100
AcDbEntity
  8
\U+30D5\U+30A9\U+30FC\U+30DE\U+30C3\U+30C8
370
     0
100
AcDbVertex
100
AcDb2dVertex
 10
50.74694551682715
 20
13.83240288282662
 30
0.0
  0
VERTEX
  5
DC
330
D8
100
AcDbEntity
  8
\U+30D5\U+30A9\U+30FC\U+30DE\U+30C3\U+30C8
370
     0
100
AcDbVertex
100
AcDb2dVertex
 10
47.52957084315234
 20
13.83240288282662
 30
0.0
  0
VERTEX
  5
DD
330
D8
100
AcDbEntity
  8
\U+30D5\U+30A9\U+30FC\U+30DE\U+30C3\U+30C8
370
     0
100
AcDbVertex
100
AcDb2dVertex
 10
47.52957084315234
 20
10.86893174641471
 30
0.0
  0
SEQEND
  5
DE
330
D8
100
AcDbEntity
  8
\U+30D5\U+30A9\U+30FC\U+30DE\U+30C3\U+30C8
370
     0
  0
ENDBLK
  5
D6
330
D3
100
AcDbEntity
  8
0
100
AcDbBlockEnd
  0
BLOCK
  5
156
330
154
100
AcDbEntity
  8
0
100
AcDbBlockBegin
  2
block 9
 70
     0
 71
     0
 10
0.0
 20
0.0
 30
0.0
  3
block 9
  1

  0
MTEXT
  5
158
330
154
100
AcDbEntity
  8
\U+30D5\U+30A9\U+30FC\U+30DE\U+30C3\U+30C8
 62
    29
100
AcDbMText
 10
62.31471488242479
 20
16.07240396733607
 30
0.0
 40
2.187786638666616
 41
0.0
 71
     7
 72
     1
  1
\fMS Gothic|b0|i0|c0|p34;\W1;重量
 73
     1
 44
1.0
  0
MTEXT
  5
159
330
154
100
AcDbEntity
  8
\U+30D5\U+30A9\U+30FC\U+30DE\U+30C3\U+30C8
 62
    29
100
AcDbMText
 10
68.74929197500018
 20
16.07240396733607
 30
0.0
 40
2.187786638666616
 41
0.0
 71
     7
 72
     1
  1
\fMS Gothic|b0|i0|c0|p34;\W1;／
 73
     1
 44
1.0
  0
MTEXT
  5
15A
330
154
100
AcDbEntity
  8
\U+30D5\U+30A9\U+30FC\U+30DE\U+30C3\U+30C8
 62
    29
100
AcDbMText
 10
71.966666648675
 20
16.07240396733607
 30
0.0
 40
2.187786638666616
 41
0.0
 71
     7
 72
     1
  1
\fMS Gothic|b0|i0|c0|p34;\W1;約8g
 73
     1
 44
1.0
  0
ENDBLK
  5
157
330
154
100
AcDbEntity
  8
0
100
AcDbBlockEnd
  0
BLOCK
  5
167
330
165
100
AcDbEntity
  8
0
100
AcDbBlockBegin
  2
block 10
 70
     0
 71
     0
 10
0.0
 20
0.0
 30
0.0
  3
block 10
  1

  0
INSERT
  5
16A
330
165
100
AcDbEntity
  8
\U+30D5\U+30A9\U+30FC\U+30DE\U+30C3\U+30C8
100
AcDbBlockReference
  2
block 11
 10
0.0
 20
0.0
 30
0.0
  0
INSERT
  5
183
330
165
100
AcDbEntity
  8
\U+30D5\U+30A9\U+30FC\U+30DE\U+30C3\U+30C8
100
AcDbBlockReference
  2
block 13
 10
0.0
 20
0.0
 30
0.0
  0
INSERT
  5
18C
330
165
100
AcDbEntity
  8
\U+30D5\U+30A9\U+30FC\U+30DE\U+30C3\U+30C8
100
AcDbBlockReference
  2
block 14
 10
0.0
 20
0.0
 30
0.0
  0
INSERT
  5
195
330
165
100
AcDbEntity
  8
\U+30D5\U+30A9\U+30FC\U+30DE\U+30C3\U+30C8
100
AcDbBlockReference
  2
block 15
 10
0.0
 20
0.0
 30
0.0
  0
INSERT
  5
19E
330
165
100
AcDbEntity
  8
\U+30D5\U+30A9\U+30FC\U+30DE\U+30C3\U+30C8
100
AcDbBlockReference
  2
block 16
 10
0.0
 20
0.0
 30
0.0
  0
ENDBLK
  5
168
330
165
100
AcDbEntity
  8
0
100
AcDbBlockEnd
  0
BLOCK
  5
16B
330
169
100
AcDbEntity
  8
0
100
AcDbBlockBegin
  2
block 11
 70
     0
 71
     0
 10
0.0
 20
0.0
 30
0.0
  3
block 11
  1

  0
SPLINE
  5
16D
330
169
100
AcDbEntity
  8
\U+30D5\U+30A9\U+30FC\U+30DE\U+30C3\U+30C8
370
     0
100
AcDbSpline
210
0.0
220
0.0
230
1.0
 70
    11
 71
     3
 72
    68
 73
    64
 74
     0
 42
0.0000000001
 43
0.0000000001
 40
0.0
 40
0.0
 40
0.0
 40
0.0
 40
1.0
 40
1.0
 40
1.0
 40
2.0
 40
2.0
 40
2.0
 40
3.0
 40
3.0
 40
3.0
 40
4.0
 40
4.0
 40
4.0
 40
5.0
 40
5.0
 40
5.0
 40
6.0
 40
6.0
 40
6.0
 40
7.0
 40
7.0
 40
7.0
 40
8.0
 40
8.0
 40
8.0
 40
9.0
 40
9.0
 40
9.0
 40
10.0
 40
10.0
 40
10.0
 40
11.0
 40
11.0
 40
11.0
 40
12.0
 40
12.0
 40
12.0
 40
13.0
 40
13.0
 40
13.0
 40
14.0
 40
14.0
 40
14.0
 40
15.0
 40
15.0
 40
15.0
 40
16.0
 40
16.0
 40
16.0
 40
17.0
 40
17.0
 40
17.0
 40
18.0
 40
18.0
 40
18.0
 40
19.0
 40
19.0
 40
19.0
 40
20.0
 40
20.0
 40
20.0
 40
21.0
 40
21.0
 40
21.0
 40
21.0
 10
312.0681178690316
 20
20.51554361466278
 30
0.0
 10
312.0681178690316
 20
20.45353189592829
 30
0.0
 10
312.019197513141
 20
20.40564506868331
 30
0.0
 10
311.9599418707948
 20
20.40564506868331
 30
0.0
 10
311.9599418707948
 20
20.40564506868331
 30
0.0
 10
308.9599527222392
 20
20.40564506868331
 30
0.0
 10
308.9599527222392
 20
20.40564506868331
 30
0.0
 10
308.0346000749011
 20
20.40564506868331
 30
0.0
 10
307.2835692591166
 20
21.15598686537072
 30
0.0
 10
307.2835692591166
 20
22.08202853180588
 30
0.0
 10
307.2835692591166
 20
23.00738117914399
 30
0.0
 10
308.0346000749011
 20
23.75806748537993
 30
0.0
 10
308.9599527222392
 20
23.75806748537993
 30
0.0
 10
308.9599527222392
 20
23.75806748537993
 30
0.0
 10
310.129218129933
 20
23.75806748537993
 30
0.0
 10
310.129218129933
 20
23.75806748537993
 30
0.0
 10
310.1905408295704
 20
23.75806748537993
 30
0.0
 10
310.238772166364
 20
23.70914712948938
 30
0.0
 10
310.238772166364
 20
23.64782442985193
 30
0.0
 10
310.238772166364
 20
23.64782442985193
 30
0.0
 10
310.238772166364
 20
22.58363443445826
 30
0.0
 10
310.238772166364
 20
22.58363443445826
 30
0.0
 10
310.238772166364
 20
22.52368977301491
 30
0.0
 10
310.1905408295704
 20
22.47476941712436
 30
0.0
 10
310.129218129933
 20
22.47476941712436
 30
0.0
 10
310.129218129933
 20
22.47476941712436
 30
0.0
 10
309.0447020711763
 20
22.47373588847879
 30
0.0
 10
309.0447020711763
 20
22.47373588847879
 30
0.0
 10
308.8304171319938
 20
22.47373588847879
 30
0.0
 10
308.6554062813431
 20
22.29906954737662
 30
0.0
 10
308.6554062813431
 20
22.08444009864556
 30
0.0
 10
308.6554062813431
 20
21.86877712126892
 30
0.0
 10
308.8304171319938
 20
21.69307725152118
 30
0.0
 10
309.0447020711763
 20
21.69307725152118
 30
0.0
 10
309.0447020711763
 20
21.69307725152118
 30
0.0
 10
310.5633001610745
 20
21.69514430881233
 30
0.0
 10
310.5633001610745
 20
21.69514430881233
 30
0.0
 10
310.5633001610745
 20
21.69514430881233
 30
0.0
 10
310.5633001610745
 20
23.94306911293785
 30
0.0
 10
310.5633001610745
 20
23.94306911293785
 30
0.0
 10
310.5633001610745
 20
24.2720757317792
 30
0.0
 10
310.2973387896132
 20
24.53838161278902
 30
0.0
 10
309.9666096230292
 20
24.53838161278902
 30
0.0
 10
309.9666096230292
 20
24.53838161278902
 30
0.0
 10
307.8334064985625
 20
24.53838161278902
 30
0.0
 10
307.8334064985625
 20
24.53838161278902
 30
0.0
 10
307.771394779828
 20
24.53838161278902
 30
0.0
 10
307.7231634430345
 20
24.58695745913104
 30
0.0
 10
307.7231634430345
 20
24.64793564921996
 30
0.0
 10
307.7231634430345
 20
24.64793564921996
 30
0.0
 10
307.7231634430345
 20
25.71660426874446
 30
0.0
 10
307.7231634430345
 20
25.71660426874446
 30
0.0
 10
307.7231634430345
 20
25.77654893018781
 30
0.0
 10
307.771394779828
 20
25.82650281472393
 30
0.0
 10
307.8334064985625
 20
25.82650281472393
 30
0.0
 10
307.8334064985625
 20
25.82650281472393
 30
0.0
 10
310.3876002913267
 20
25.82650281472393
 30
0.0
 10
310.3876002913267
 20
25.82650281472393
 30
0.0
 10
311.3191541105383
 20
25.82650281472393
 30
0.0
 10
312.0681178690316
 20
25.07306043209979
 30
0.0
 10
312.0681178690316
 20
24.14185112243676
 30
0.0
 10
312.0681178690316
 20
24.14185112243676
 30
0.0
 10
312.0681178690316
 20
20.51554361466278
 30
0.0
 10
312.0681178690316
 20
20.51554361466278
 30
0.0
  0
HATCH
  5
16E
330
169
100
AcDbEntity
  8
\U+30D5\U+30A9\U+30FC\U+30DE\U+30C3\U+30C8
 62
    29
100
AcDbHatch
 10
0.0
 20
0.0
 30
0.0
210
0.0
220
0.0
230
1.0
  2
SOLID
 70
     1
 71
     0
 91
        1
 92
        1
 93
        1
 72
     4
 94
        3
 73
     0
 74
     1
 95
       68
 96
       64
 40
0.0
 40
0.0
 40
0.0
 40
0.0
 40
1.0
 40
1.0
 40
1.0
 40
2.0
 40
2.0
 40
2.0
 40
3.0
 40
3.0
 40
3.0
 40
4.0
 40
4.0
 40
4.0
 40
5.0
 40
5.0
 40
5.0
 40
6.0
 40
6.0
 40
6.0
 40
7.0
 40
7.0
 40
7.0
 40
8.0
 40
8.0
 40
8.0
 40
9.0
 40
9.0
 40
9.0
 40
10.0
 40
10.0
 40
10.0
 40
11.0
 40
11.0
 40
11.0
 40
12.0
 40
12.0
 40
12.0
 40
13.0
 40
13.0
 40
13.0
 40
14.0
 40
14.0
 40
14.0
 40
15.0
 40
15.0
 40
15.0
 40
16.0
 40
16.0
 40
16.0
 40
17.0
 40
17.0
 40
17.0
 40
18.0
 40
18.0
 40
18.0
 40
19.0
 40
19.0
 40
19.0
 40
20.0
 40
20.0
 40
20.0
 40
21.0
 40
21.0
 40
21.0
 40
21.0
 10
312.0681178690316
 20
20.51554361466278
 10
312.0681178690316
 20
20.45353189592829
 10
312.019197513141
 20
20.40564506868331
 10
311.9599418707948
 20
20.40564506868331
 10
311.9599418707948
 20
20.40564506868331
 10
308.9599527222392
 20
20.40564506868331
 10
308.9599527222392
 20
20.40564506868331
 10
308.0346000749011
 20
20.40564506868331
 10
307.2835692591166
 20
21.15598686537072
 10
307.2835692591166
 20
22.08202853180588
 10
307.2835692591166
 20
23.00738117914399
 10
308.0346000749011
 20
23.75806748537993
 10
308.9599527222392
 20
23.75806748537993
 10
308.9599527222392
 20
23.75806748537993
 10
310.129218129933
 20
23.75806748537993
 10
310.129218129933
 20
23.75806748537993
 10
310.1905408295704
 20
23.75806748537993
 10
310.238772166364
 20
23.70914712948938
 10
310.238772166364
 20
23.64782442985193
 10
310.238772166364
 20
23.64782442985193
 10
310.238772166364
 20
22.58363443445826
 10
310.238772166364
 20
22.58363443445826
 10
310.238772166364
 20
22.52368977301491
 10
310.1905408295704
 20
22.47476941712436
 10
310.129218129933
 20
22.47476941712436
 10
310.129218129933
 20
22.47476941712436
 10
309.0447020711763
 20
22.47373588847879
 10
309.0447020711763
 20
22.47373588847879
 10
308.8304171319938
 20
22.47373588847879
 10
308.6554062813431
 20
22.29906954737662
 10
308.6554062813431
 20
22.08444009864556
 10
308.6554062813431
 20
21.86877712126892
 10
308.8304171319938
 20
21.69307725152118
 10
309.0447020711763
 20
21.69307725152118
 10
309.0447020711763
 20
21.69307725152118
 10
310.5633001610745
 20
21.69514430881233
 10
310.5633001610745
 20
21.69514430881233
 10
310.5633001610745
 20
21.69514430881233
 10
310.5633001610745
 20
23.94306911293785
 10
310.5633001610745
 20
23.94306911293785
 10
310.5633001610745
 20
24.2720757317792
 10
310.2973387896132
 20
24.53838161278902
 10
309.9666096230292
 20
24.53838161278902
 10
309.9666096230292
 20
24.53838161278902
 10
307.8334064985625
 20
24.53838161278902
 10
307.8334064985625
 20
24.53838161278902
 10
307.771394779828
 20
24.53838161278902
 10
307.7231634430345
 20
24.58695745913104
 10
307.7231634430345
 20
24.64793564921996
 10
307.7231634430345
 20
24.64793564921996
 10
307.7231634430345
 20
25.71660426874446
 10
307.7231634430345
 20
25.71660426874446
 10
307.7231634430345
 20
25.77654893018781
 10
307.771394779828
 20
25.82650281472393
 10
307.8334064985625
 20
25.82650281472393
 10
307.8334064985625
 20
25.82650281472393
 10
310.3876002913267
 20
25.82650281472393
 10
310.3876002913267
 20
25.82650281472393
 10
311.3191541105383
 20
25.82650281472393
 10
312.0681178690316
 20
25.07306043209979
 10
312.0681178690316
 20
24.14185112243676
 10
312.0681178690316
 20
24.14185112243676
 10
312.0681178690316
 20
20.51554361466278
 10
312.0681178690316
 20
20.51554361466278
 97
        0
 75
     2
 76
     1
 98
        0
  0
INSERT
  5
170
330
169
100
AcDbEntity
  8
\U+30D5\U+30A9\U+30FC\U+30DE\U+30C3\U+30C8
100
AcDbBlockReference
  2
block 12
 10
0.0
 20
0.0
 30
0.0
  0
SPLINE
  5
17C
330
169
100
AcDbEntity
  8
\U+30D5\U+30A9\U+30FC\U+30DE\U+30C3\U+30C8
370
     0
100
AcDbSpline
210
0.0
220
0.0
230
1.0
 70
    11
 71
     3
 72
    47
 73
    43
 74
     0
 42
0.0000000001
 43
0.0000000001
 40
0.0
 40
0.0
 40
0.0
 40
0.0
 40
1.0
 40
1.0
 40
1.0
 40
2.0
 40
2.0
 40
2.0
 40
3.0
 40
3.0
 40
3.0
 40
4.0
 40
4.0
 40
4.0
 40
5.0
 40
5.0
 40
5.0
 40
6.0
 40
6.0
 40
6.0
 40
7.0
 40
7.0
 40
7.0
 40
8.0
 40
8.0
 40
8.0
 40
9.0
 40
9.0
 40
9.0
 40
10.0
 40
10.0
 40
10.0
 40
11.0
 40
11.0
 40
11.0
 40
12.0
 40
12.0
 40
12.0
 40
13.0
 40
13.0
 40
13.0
 40
14.0
 40
14.0
 40
14.0
 40
14.0
 10
308.7580701268035
 20
27.91216362149418
 30
0.0
 10
308.7580701268035
 20
27.91216362149418
 30
0.0
 10
302.8938285918113
 20
27.91216362149418
 30
0.0
 10
302.8938285918113
 20
27.91216362149418
 30
0.0
 10
302.8400851022414
 20
27.91216362149418
 30
0.0
 10
302.7959878800302
 20
27.86806639928298
 30
0.0
 10
302.7959878800302
 20
27.81363389061604
 30
0.0
 10
302.7959878800302
 20
27.81363389061604
 30
0.0
 10
302.7959878800302
 20
26.5182779881621
 30
0.0
 10
302.7959878800302
 20
26.5182779881621
 30
0.0
 10
302.7959878800302
 20
26.46350096994663
 30
0.0
 10
302.8400851022414
 20
26.41940374773543
 30
0.0
 10
302.8938285918113
 20
26.41940374773543
 30
0.0
 10
302.8938285918113
 20
26.41940374773543
 30
0.0
 10
304.958129806573
 20
26.41940374773543
 30
0.0
 10
304.958129806573
 20
26.41940374773543
 30
0.0
 10
304.958129806573
 20
26.41940374773543
 30
0.0
 10
304.958129806573
 20
20.51554361466278
 30
0.0
 10
304.958129806573
 20
20.51554361466278
 30
0.0
 10
304.958129806573
 20
20.45353189592829
 30
0.0
 10
305.0063611433665
 20
20.40564506868331
 30
0.0
 10
305.0669948239069
 20
20.40564506868331
 30
0.0
 10
305.0669948239069
 20
20.40564506868331
 30
0.0
 10
306.5842148756109
 20
20.40564506868331
 30
0.0
 10
306.5842148756109
 20
20.40564506868331
 30
0.0
 10
306.6455375752483
 20
20.40564506868331
 30
0.0
 10
306.6923908738477
 20
20.45353189592829
 30
0.0
 10
306.6923908738477
 20
20.51554361466278
 30
0.0
 10
306.6923908738477
 20
20.51554361466278
 30
0.0
 10
306.6923908738477
 20
26.41940374773543
 30
0.0
 10
306.6923908738477
 20
26.41940374773543
 30
0.0
 10
306.6923908738477
 20
26.41940374773543
 30
0.0
 10
308.7580701268035
 20
26.41940374773543
 30
0.0
 10
308.7580701268035
 20
26.41940374773543
 30
0.0
 10
308.8125026354705
 20
26.41940374773543
 30
0.0
 10
308.8552218194876
 20
26.46350096994663
 30
0.0
 10
308.8552218194876
 20
26.5182779881621
 30
0.0
 10
308.8552218194876
 20
26.5182779881621
 30
0.0
 10
308.8552218194876
 20
27.81363389061604
 30
0.0
 10
308.8552218194876
 20
27.81363389061604
 30
0.0
 10
308.8552218194876
 20
27.86806639928298
 30
0.0
 10
308.8125026354705
 20
27.91216362149418
 30
0.0
 10
308.7580701268035
 20
27.91216362149418
 30
0.0
  0
HATCH
  5
17D
330
169
100
AcDbEntity
  8
\U+30D5\U+30A9\U+30FC\U+30DE\U+30C3\U+30C8
 62
    29
100
AcDbHatch
 10
0.0
 20
0.0
 30
0.0
210
0.0
220
0.0
230
1.0
  2
SOLID
 70
     1
 71
     0
 91
        1
 92
        1
 93
        1
 72
     4
 94
        3
 73
     0
 74
     1
 95
       47
 96
       43
 40
0.0
 40
0.0
 40
0.0
 40
0.0
 40
1.0
 40
1.0
 40
1.0
 40
2.0
 40
2.0
 40
2.0
 40
3.0
 40
3.0
 40
3.0
 40
4.0
 40
4.0
 40
4.0
 40
5.0
 40
5.0
 40
5.0
 40
6.0
 40
6.0
 40
6.0
 40
7.0
 40
7.0
 40
7.0
 40
8.0
 40
8.0
 40
8.0
 40
9.0
 40
9.0
 40
9.0
 40
10.0
 40
10.0
 40
10.0
 40
11.0
 40
11.0
 40
11.0
 40
12.0
 40
12.0
 40
12.0
 40
13.0
 40
13.0
 40
13.0
 40
14.0
 40
14.0
 40
14.0
 40
14.0
 10
308.7580701268035
 20
27.91216362149418
 10
308.7580701268035
 20
27.91216362149418
 10
302.8938285918113
 20
27.91216362149418
 10
302.8938285918113
 20
27.91216362149418
 10
302.8400851022414
 20
27.91216362149418
 10
302.7959878800302
 20
27.86806639928298
 10
302.7959878800302
 20
27.81363389061604
 10
302.7959878800302
 20
27.81363389061604
 10
302.7959878800302
 20
26.5182779881621
 10
302.7959878800302
 20
26.5182779881621
 10
302.7959878800302
 20
26.46350096994663
 10
302.8400851022414
 20
26.41940374773543
 10
302.8938285918113
 20
26.41940374773543
 10
302.8938285918113
 20
26.41940374773543
 10
304.958129806573
 20
26.41940374773543
 10
304.958129806573
 20
26.41940374773543
 10
304.958129806573
 20
26.41940374773543
 10
304.958129806573
 20
20.51554361466278
 10
304.958129806573
 20
20.51554361466278
 10
304.958129806573
 20
20.45353189592829
 10
305.0063611433665
 20
20.40564506868331
 10
305.0669948239069
 20
20.40564506868331
 10
305.0669948239069
 20
20.40564506868331
 10
306.5842148756109
 20
20.40564506868331
 10
306.5842148756109
 20
20.40564506868331
 10
306.6455375752483
 20
20.40564506868331
 10
306.6923908738477
 20
20.45353189592829
 10
306.6923908738477
 20
20.51554361466278
 10
306.6923908738477
 20
20.51554361466278
 10
306.6923908738477
 20
26.41940374773543
 10
306.6923908738477
 20
26.41940374773543
 10
306.6923908738477
 20
26.41940374773543
 10
308.7580701268035
 20
26.41940374773543
 10
308.7580701268035
 20
26.41940374773543
 10
308.8125026354705
 20
26.41940374773543
 10
308.8552218194876
 20
26.46350096994663
 10
308.8552218194876
 20
26.5182779881621
 10
308.8552218194876
 20
26.5182779881621
 10
308.8552218194876
 20
27.81363389061604
 10
308.8552218194876
 20
27.81363389061604
 10
308.8552218194876
 20
27.86806639928298
 10
308.8125026354705
 20
27.91216362149418
 10
308.7580701268035
 20
27.91216362149418
 97
        0
 75
     2
 76
     1
 98
        0
  0
SPLINE
  5
17E
330
169
100
AcDbEntity
  8
\U+30D5\U+30A9\U+30FC\U+30DE\U+30C3\U+30C8
370
     0
100
AcDbSpline
210
0.0
220
0.0
230
1.0
 70
    11
 71
     3
 72
    29
 73
    25
 74
     0
 42
0.0000000001
 43
0.0000000001
 40
0.0
 40
0.0
 40
0.0
 40
0.0
 40
1.0
 40
1.0
 40
1.0
 40
2.0
 40
2.0
 40
2.0
 40
3.0
 40
3.0
 40
3.0
 40
4.0
 40
4.0
 40
4.0
 40
5.0
 40
5.0
 40
5.0
 40
6.0
 40
6.0
 40
6.0
 40
7.0
 40
7.0
 40
7.0
 40
8.0
 40
8.0
 40
8.0
 40
8.0
 10
313.9153780682225
 20
20.40564506868331
 30
0.0
 10
313.9753227296659
 20
20.40564506868331
 30
0.0
 10
314.0256211237506
 20
20.45353189592829
 30
0.0
 10
314.0256211237506
 20
20.51657714330836
 30
0.0
 10
314.0256211237506
 20
20.51657714330836
 30
0.0
 10
314.0256211237506
 20
25.72383896926349
 30
0.0
 10
314.0256211237506
 20
25.72383896926349
 30
0.0
 10
314.0256211237506
 20
25.78412814025536
 30
0.0
 10
313.9753227296659
 20
25.83270398659738
 30
0.0
 10
313.9153780682225
 20
25.83270398659738
 30
0.0
 10
313.9153780682225
 20
25.83270398659738
 30
0.0
 10
312.6282903949332
 20
25.83270398659738
 30
0.0
 10
312.6282903949332
 20
25.83270398659738
 30
0.0
 10
312.5669676952958
 20
25.83270398659738
 30
0.0
 10
312.5180473394052
 20
25.78412814025536
 30
0.0
 10
312.5180473394052
 20
25.72383896926349
 30
0.0
 10
312.5180473394052
 20
25.72383896926349
 30
0.0
 10
312.5180473394052
 20
20.51657714330836
 30
0.0
 10
312.5180473394052
 20
20.51657714330836
 30
0.0
 10
312.5180473394052
 20
20.45353189592829
 30
0.0
 10
312.5669676952958
 20
20.40564506868331
 30
0.0
 10
312.6282903949332
 20
20.40564506868331
 30
0.0
 10
312.6282903949332
 20
20.40564506868331
 30
0.0
 10
313.9153780682225
 20
20.40564506868331
 30
0.0
 10
313.9153780682225
 20
20.40564506868331
 30
0.0
  0
HATCH
  5
17F
330
169
100
AcDbEntity
  8
\U+30D5\U+30A9\U+30FC\U+30DE\U+30C3\U+30C8
 62
    29
100
AcDbHatch
 10
0.0
 20
0.0
 30
0.0
210
0.0
220
0.0
230
1.0
  2
SOLID
 70
     1
 71
     0
 91
        1
 92
        1
 93
        1
 72
     4
 94
        3
 73
     0
 74
     1
 95
       29
 96
       25
 40
0.0
 40
0.0
 40
0.0
 40
0.0
 40
1.0
 40
1.0
 40
1.0
 40
2.0
 40
2.0
 40
2.0
 40
3.0
 40
3.0
 40
3.0
 40
4.0
 40
4.0
 40
4.0
 40
5.0
 40
5.0
 40
5.0
 40
6.0
 40
6.0
 40
6.0
 40
7.0
 40
7.0
 40
7.0
 40
8.0
 40
8.0
 40
8.0
 40
8.0
 10
313.9153780682225
 20
20.40564506868331
 10
313.9753227296659
 20
20.40564506868331
 10
314.0256211237506
 20
20.45353189592829
 10
314.0256211237506
 20
20.51657714330836
 10
314.0256211237506
 20
20.51657714330836
 10
314.0256211237506
 20
25.72383896926349
 10
314.0256211237506
 20
25.72383896926349
 10
314.0256211237506
 20
25.78412814025536
 10
313.9753227296659
 20
25.83270398659738
 10
313.9153780682225
 20
25.83270398659738
 10
313.9153780682225
 20
25.83270398659738
 10
312.6282903949332
 20
25.83270398659738
 10
312.6282903949332
 20
25.83270398659738
 10
312.5669676952958
 20
25.83270398659738
 10
312.5180473394052
 20
25.78412814025536
 10
312.5180473394052
 20
25.72383896926349
 10
312.5180473394052
 20
25.72383896926349
 10
312.5180473394052
 20
20.51657714330836
 10
312.5180473394052
 20
20.51657714330836
 10
312.5180473394052
 20
20.45353189592829
 10
312.5669676952958
 20
20.40564506868331
 10
312.6282903949332
 20
20.40564506868331
 10
312.6282903949332
 20
20.40564506868331
 10
313.9153780682225
 20
20.40564506868331
 10
313.9153780682225
 20
20.40564506868331
 97
        0
 75
     2
 76
     1
 98
        0
  0
SPLINE
  5
180
330
169
100
AcDbEntity
  8
\U+30D5\U+30A9\U+30FC\U+30DE\U+30C3\U+30C8
370
     0
100
AcDbSpline
210
0.0
220
0.0
230
1.0
 70
    11
 71
     3
 72
    29
 73
    25
 74
     0
 42
0.0000000001
 43
0.0000000001
 40
0.0
 40
0.0
 40
0.0
 40
0.0
 40
1.0
 40
1.0
 40
1.0
 40
2.0
 40
2.0
 40
2.0
 40
3.0
 40
3.0
 40
3.0
 40
4.0
 40
4.0
 40
4.0
 40
5.0
 40
5.0
 40
5.0
 40
6.0
 40
6.0
 40
6.0
 40
7.0
 40
7.0
 40
7.0
 40
8.0
 40
8.0
 40
8.0
 40
8.0
 10
316.0396239444276
 20
25.82925889111213
 30
0.0
 10
315.9369600989672
 20
25.82925889111213
 30
0.0
 10
315.8453205590595
 20
25.77792696838191
 30
0.0
 10
315.7901990312955
 20
25.69972330086674
 30
0.0
 10
315.7901990312955
 20
25.69972330086674
 30
0.0
 10
314.0256211237506
 20
23.11555717738083
 30
0.0
 10
314.0256211237506
 20
23.11555717738083
 30
0.0
 10
314.0256211237506
 20
23.11555717738083
 30
0.0
 10
315.7784857066457
 20
20.41115722145971
 30
0.0
 10
315.7784857066457
 20
20.41115722145971
 30
0.0
 10
315.7784857066457
 20
20.41115722145971
 30
0.0
 10
317.6223008103514
 20
20.41115722145971
 30
0.0
 10
317.6223008103514
 20
20.41115722145971
 30
0.0
 10
317.6223008103514
 20
20.41115722145971
 30
0.0
 10
315.6151881806449
 20
23.11555717738083
 30
0.0
 10
315.6151881806449
 20
23.11555717738083
 30
0.0
 10
315.6151881806449
 20
23.11555717738083
 30
0.0
 10
317.6209227721573
 20
25.82753634336951
 30
0.0
 10
317.6209227721573
 20
25.82753634336951
 30
0.0
 10
317.6209227721573
 20
25.82753634336951
 30
0.0
 10
316.0389349253306
 20
25.82753634336951
 30
0.0
 10
316.0389349253306
 20
25.82753634336951
 30
0.0
 10
316.0389349253306
 20
25.82753634336951
 30
0.0
 10
316.0396239444276
 20
25.82925889111213
 30
0.0
 10
316.0396239444276
 20
25.82925889111213
 30
0.0
  0
HATCH
  5
181
330
169
100
AcDbEntity
  8
\U+30D5\U+30A9\U+30FC\U+30DE\U+30C3\U+30C8
 62
    29
100
AcDbHatch
 10
0.0
 20
0.0
 30
0.0
210
0.0
220
0.0
230
1.0
  2
SOLID
 70
     1
 71
     0
 91
        1
 92
        1
 93
        1
 72
     4
 94
        3
 73
     0
 74
     1
 95
       29
 96
       25
 40
0.0
 40
0.0
 40
0.0
 40
0.0
 40
1.0
 40
1.0
 40
1.0
 40
2.0
 40
2.0
 40
2.0
 40
3.0
 40
3.0
 40
3.0
 40
4.0
 40
4.0
 40
4.0
 40
5.0
 40
5.0
 40
5.0
 40
6.0
 40
6.0
 40
6.0
 40
7.0
 40
7.0
 40
7.0
 40
8.0
 40
8.0
 40
8.0
 40
8.0
 10
316.0396239444276
 20
25.82925889111213
 10
315.9369600989672
 20
25.82925889111213
 10
315.8453205590595
 20
25.77792696838191
 10
315.7901990312955
 20
25.69972330086674
 10
315.7901990312955
 20
25.69972330086674
 10
314.0256211237506
 20
23.11555717738083
 10
314.0256211237506
 20
23.11555717738083
 10
314.0256211237506
 20
23.11555717738083
 10
315.7784857066457
 20
20.41115722145971
 10
315.7784857066457
 20
20.41115722145971
 10
315.7784857066457
 20
20.41115722145971
 10
317.6223008103514
 20
20.41115722145971
 10
317.6223008103514
 20
20.41115722145971
 10
317.6223008103514
 20
20.41115722145971
 10
315.6151881806449
 20
23.11555717738083
 10
315.6151881806449
 20
23.11555717738083
 10
315.6151881806449
 20
23.11555717738083
 10
317.6209227721573
 20
25.82753634336951
 10
317.6209227721573
 20
25.82753634336951
 10
317.6209227721573
 20
25.82753634336951
 10
316.0389349253306
 20
25.82753634336951
 10
316.0389349253306
 20
25.82753634336951
 10
316.0389349253306
 20
25.82753634336951
 10
316.0396239444276
 20
25.82925889111213
 10
316.0396239444276
 20
25.82925889111213
 97
        0
 75
     2
 76
     1
 98
        0
  0
ENDBLK
  5
16C
330
169
100
AcDbEntity
  8
0
100
AcDbBlockEnd
  0
BLOCK
  5
171
330
16F
100
AcDbEntity
  8
0
100
AcDbBlockBegin
  2
block 12
 70
     0
 71
     0
 10
0.0
 20
0.0
 30
0.0
  3
block 12
  1

  0
SPLINE
  5
173
330
16F
100
AcDbEntity
  8
\U+30D5\U+30A9\U+30FC\U+30DE\U+30C3\U+30C8
370
     0
100
AcDbSpline
210
0.0
220
0.0
230
1.0
 70
    11
 71
     3
 72
    68
 73
    64
 74
     0
 42
0.0000000001
 43
0.0000000001
 40
0.0
 40
0.0
 40
0.0
 40
0.0
 40
1.0
 40
1.0
 40
1.0
 40
2.0
 40
2.0
 40
2.0
 40
3.0
 40
3.0
 40
3.0
 40
4.0
 40
4.0
 40
4.0
 40
5.0
 40
5.0
 40
5.0
 40
6.0
 40
6.0
 40
6.0
 40
7.0
 40
7.0
 40
7.0
 40
8.0
 40
8.0
 40
8.0
 40
9.0
 40
9.0
 40
9.0
 40
10.0
 40
10.0
 40
10.0
 40
11.0
 40
11.0
 40
11.0
 40
12.0
 40
12.0
 40
12.0
 40
13.0
 40
13.0
 40
13.0
 40
14.0
 40
14.0
 40
14.0
 40
15.0
 40
15.0
 40
15.0
 40
16.0
 40
16.0
 40
16.0
 40
17.0
 40
17.0
 40
17.0
 40
18.0
 40
18.0
 40
18.0
 40
19.0
 40
19.0
 40
19.0
 40
20.0
 40
20.0
 40
20.0
 40
21.0
 40
21.0
 40
21.0
 40
21.0
 10
322.1622476408136
 20
20.51554361466278
 30
0.0
 10
322.1622476408136
 20
20.45353189592829
 30
0.0
 10
322.1133272849231
 20
20.40564506868331
 30
0.0
 10
322.0520045852856
 20
20.40564506868331
 30
0.0
 10
322.0520045852856
 20
20.40564506868331
 30
0.0
 10
319.0520154367301
 20
20.40564506868331
 30
0.0
 10
319.0520154367301
 20
20.40564506868331
 30
0.0
 10
318.127351808489
 20
20.40564506868331
 30
0.0
 10
317.3763209927046
 20
21.15598686537072
 30
0.0
 10
317.3763209927046
 20
22.08202853180588
 30
0.0
 10
317.3763209927046
 20
23.00738117914399
 30
0.0
 10
318.127351808489
 20
23.75806748537993
 30
0.0
 10
319.0520154367301
 20
23.75806748537993
 30
0.0
 10
319.0520154367301
 20
23.75806748537993
 30
0.0
 10
320.2212808444239
 20
23.75806748537993
 30
0.0
 10
320.2212808444239
 20
23.75806748537993
 30
0.0
 10
320.2819145249642
 20
23.75806748537993
 30
0.0
 10
320.3315238999518
 20
23.70914712948938
 30
0.0
 10
320.3315238999518
 20
23.64782442985193
 30
0.0
 10
320.3315238999518
 20
23.64782442985193
 30
0.0
 10
320.3315238999518
 20
22.58363443445826
 30
0.0
 10
320.3315238999518
 20
22.58363443445826
 30
0.0
 10
320.3315238999518
 20
22.52368977301491
 30
0.0
 10
320.2819145249642
 20
22.47476941712436
 30
0.0
 10
320.2212808444239
 20
22.47476941712436
 30
0.0
 10
320.2212808444239
 20
22.47476941712436
 30
0.0
 10
319.1374538047643
 20
22.47373588847879
 30
0.0
 10
319.1374538047643
 20
22.47373588847879
 30
0.0
 10
318.9224798464847
 20
22.47373588847879
 30
0.0
 10
318.7481580149311
 20
22.29906954737662
 30
0.0
 10
318.7481580149311
 20
22.08444009864556
 30
0.0
 10
318.7481580149311
 20
21.86877712126892
 30
0.0
 10
318.9224798464847
 20
21.69307725152118
 30
0.0
 10
319.1374538047643
 20
21.69307725152118
 30
0.0
 10
319.1374538047643
 20
21.69307725152118
 30
0.0
 10
320.6560518946624
 20
21.69514430881233
 30
0.0
 10
320.6560518946624
 20
21.69514430881233
 30
0.0
 10
320.6560518946624
 20
21.69514430881233
 30
0.0
 10
320.6560518946624
 20
23.94306911293785
 30
0.0
 10
320.6560518946624
 20
23.94306911293785
 30
0.0
 10
320.6560518946624
 20
24.2720757317792
 30
0.0
 10
320.3894015041041
 20
24.53838161278902
 30
0.0
 10
320.0600503757142
 20
24.53838161278902
 30
0.0
 10
320.0600503757142
 20
24.53838161278902
 30
0.0
 10
317.9240911748593
 20
24.53838161278902
 30
0.0
 10
317.9240911748593
 20
24.53838161278902
 30
0.0
 10
317.8641465134159
 20
24.53838161278902
 30
0.0
 10
317.8152261575254
 20
24.58695745913104
 30
0.0
 10
317.8152261575254
 20
24.64793564921996
 30
0.0
 10
317.8152261575254
 20
24.64793564921996
 30
0.0
 10
317.8152261575254
 20
25.71660426874446
 30
0.0
 10
317.8152261575254
 20
25.71660426874446
 30
0.0
 10
317.8152261575254
 20
25.77654893018781
 30
0.0
 10
317.8641465134159
 20
25.82650281472393
 30
0.0
 10
317.9240911748593
 20
25.82650281472393
 30
0.0
 10
317.9240911748593
 20
25.82650281472393
 30
0.0
 10
320.4796630058176
 20
25.82650281472393
 30
0.0
 10
320.4796630058176
 20
25.82650281472393
 30
0.0
 10
321.4105278059321
 20
25.82650281472393
 30
0.0
 10
322.1622476408136
 20
25.07306043209979
 30
0.0
 10
322.1622476408136
 20
24.14185112243676
 30
0.0
 10
322.1622476408136
 20
24.14185112243676
 30
0.0
 10
322.1622476408136
 20
20.51554361466278
 30
0.0
 10
322.1622476408136
 20
20.51554361466278
 30
0.0
  0
HATCH
  5
174
330
16F
100
AcDbEntity
  8
\U+30D5\U+30A9\U+30FC\U+30DE\U+30C3\U+30C8
 62
    29
100
AcDbHatch
 10
0.0
 20
0.0
 30
0.0
210
0.0
220
0.0
230
1.0
  2
SOLID
 70
     1
 71
     0
 91
        1
 92
        1
 93
        1
 72
     4
 94
        3
 73
     0
 74
     1
 95
       68
 96
       64
 40
0.0
 40
0.0
 40
0.0
 40
0.0
 40
1.0
 40
1.0
 40
1.0
 40
2.0
 40
2.0
 40
2.0
 40
3.0
 40
3.0
 40
3.0
 40
4.0
 40
4.0
 40
4.0
 40
5.0
 40
5.0
 40
5.0
 40
6.0
 40
6.0
 40
6.0
 40
7.0
 40
7.0
 40
7.0
 40
8.0
 40
8.0
 40
8.0
 40
9.0
 40
9.0
 40
9.0
 40
10.0
 40
10.0
 40
10.0
 40
11.0
 40
11.0
 40
11.0
 40
12.0
 40
12.0
 40
12.0
 40
13.0
 40
13.0
 40
13.0
 40
14.0
 40
14.0
 40
14.0
 40
15.0
 40
15.0
 40
15.0
 40
16.0
 40
16.0
 40
16.0
 40
17.0
 40
17.0
 40
17.0
 40
18.0
 40
18.0
 40
18.0
 40
19.0
 40
19.0
 40
19.0
 40
20.0
 40
20.0
 40
20.0
 40
21.0
 40
21.0
 40
21.0
 40
21.0
 10
322.1622476408136
 20
20.51554361466278
 10
322.1622476408136
 20
20.45353189592829
 10
322.1133272849231
 20
20.40564506868331
 10
322.0520045852856
 20
20.40564506868331
 10
322.0520045852856
 20
20.40564506868331
 10
319.0520154367301
 20
20.40564506868331
 10
319.0520154367301
 20
20.40564506868331
 10
318.127351808489
 20
20.40564506868331
 10
317.3763209927046
 20
21.15598686537072
 10
317.3763209927046
 20
22.08202853180588
 10
317.3763209927046
 20
23.00738117914399
 10
318.127351808489
 20
23.75806748537993
 10
319.0520154367301
 20
23.75806748537993
 10
319.0520154367301
 20
23.75806748537993
 10
320.2212808444239
 20
23.75806748537993
 10
320.2212808444239
 20
23.75806748537993
 10
320.2819145249642
 20
23.75806748537993
 10
320.3315238999518
 20
23.70914712948938
 10
320.3315238999518
 20
23.64782442985193
 10
320.3315238999518
 20
23.64782442985193
 10
320.3315238999518
 20
22.58363443445826
 10
320.3315238999518
 20
22.58363443445826
 10
320.3315238999518
 20
22.52368977301491
 10
320.2819145249642
 20
22.47476941712436
 10
320.2212808444239
 20
22.47476941712436
 10
320.2212808444239
 20
22.47476941712436
 10
319.1374538047643
 20
22.47373588847879
 10
319.1374538047643
 20
22.47373588847879
 10
318.9224798464847
 20
22.47373588847879
 10
318.7481580149311
 20
22.29906954737662
 10
318.7481580149311
 20
22.08444009864556
 10
318.7481580149311
 20
21.86877712126892
 10
318.9224798464847
 20
21.69307725152118
 10
319.1374538047643
 20
21.69307725152118
 10
319.1374538047643
 20
21.69307725152118
 10
320.6560518946624
 20
21.69514430881233
 10
320.6560518946624
 20
21.69514430881233
 10
320.6560518946624
 20
21.69514430881233
 10
320.6560518946624
 20
23.94306911293785
 10
320.6560518946624
 20
23.94306911293785
 10
320.6560518946624
 20
24.2720757317792
 10
320.3894015041041
 20
24.53838161278902
 10
320.0600503757142
 20
24.53838161278902
 10
320.0600503757142
 20
24.53838161278902
 10
317.9240911748593
 20
24.53838161278902
 10
317.9240911748593
 20
24.53838161278902
 10
317.8641465134159
 20
24.53838161278902
 10
317.8152261575254
 20
24.58695745913104
 10
317.8152261575254
 20
24.64793564921996
 10
317.8152261575254
 20
24.64793564921996
 10
317.8152261575254
 20
25.71660426874446
 10
317.8152261575254
 20
25.71660426874446
 10
317.8152261575254
 20
25.77654893018781
 10
317.8641465134159
 20
25.82650281472393
 10
317.9240911748593
 20
25.82650281472393
 10
317.9240911748593
 20
25.82650281472393
 10
320.4796630058176
 20
25.82650281472393
 10
320.4796630058176
 20
25.82650281472393
 10
321.4105278059321
 20
25.82650281472393
 10
322.1622476408136
 20
25.07306043209979
 10
322.1622476408136
 20
24.14185112243676
 10
322.1622476408136
 20
24.14185112243676
 10
322.1622476408136
 20
20.51554361466278
 10
322.1622476408136
 20
20.51554361466278
 97
        0
 75
     2
 76
     1
 98
        0
  0
SPLINE
  5
175
330
16F
100
AcDbEntity
  8
\U+30D5\U+30A9\U+30FC\U+30DE\U+30C3\U+30C8
370
     0
100
AcDbSpline
210
0.0
220
0.0
230
1.0
 70
    11
 71
     3
 72
    65
 73
    61
 74
     0
 42
0.0000000001
 43
0.0000000001
 40
0.0
 40
0.0
 40
0.0
 40
0.0
 40
1.0
 40
1.0
 40
1.0
 40
2.0
 40
2.0
 40
2.0
 40
3.0
 40
3.0
 40
3.0
 40
4.0
 40
4.0
 40
4.0
 40
5.0
 40
5.0
 40
5.0
 40
6.0
 40
6.0
 40
6.0
 40
7.0
 40
7.0
 40
7.0
 40
8.0
 40
8.0
 40
8.0
 40
9.0
 40
9.0
 40
9.0
 40
10.0
 40
10.0
 40
10.0
 40
11.0
 40
11.0
 40
11.0
 40
12.0
 40
12.0
 40
12.0
 40
13.0
 40
13.0
 40
13.0
 40
14.0
 40
14.0
 40
14.0
 40
15.0
 40
15.0
 40
15.0
 40
16.0
 40
16.0
 40
16.0
 40
17.0
 40
17.0
 40
17.0
 40
18.0
 40
18.0
 40
18.0
 40
19.0
 40
19.0
 40
19.0
 40
20.0
 40
20.0
 40
20.0
 40
20.0
 10
322.7989012864878
 20
20.40013291590691
 30
0.0
 10
322.7389566250445
 20
20.40013291590691
 30
0.0
 10
322.6907252882509
 20
20.44733072405484
 30
0.0
 10
322.6907252882509
 20
20.50693087594966
 30
0.0
 10
322.6907252882509
 20
20.50693087594966
 30
0.0
 10
322.6907252882509
 20
21.57732204321678
 30
0.0
 10
322.6907252882509
 20
21.57732204321678
 30
0.0
 10
322.6907252882509
 20
21.63726670466013
 30
0.0
 10
322.7389566250445
 20
21.68859862739035
 30
0.0
 10
322.7989012864878
 20
21.68859862739035
 30
0.0
 10
322.7989012864878
 20
21.68859862739035
 30
0.0
 10
325.3482719455727
 20
21.68859862739035
 30
0.0
 10
325.3482719455727
 20
21.68859862739035
 30
0.0
 10
325.5632459038522
 20
21.68859862739035
 30
0.0
 10
325.7375677354059
 20
21.86602104488072
 30
0.0
 10
325.7375677354059
 20
22.08306206045146
 30
0.0
 10
325.7375677354059
 20
22.29665798053695
 30
0.0
 10
325.5632459038522
 20
22.47373588847879
 30
0.0
 10
325.3482719455727
 20
22.47373588847879
 30
0.0
 10
325.3482719455727
 20
22.47373588847879
 30
0.0
 10
324.2175916073137
 20
22.50474174784604
 30
0.0
 10
324.2175916073137
 20
22.50474174784604
 30
0.0
 10
323.2970620936549
 20
22.50474174784604
 30
0.0
 10
322.5501653924528
 20
23.24647080582033
 30
0.0
 10
322.5501653924528
 20
24.16148816670269
 30
0.0
 10
322.5501653924528
 20
25.07616101803652
 30
0.0
 10
323.2970620936549
 20
25.81926811420491
 30
0.0
 10
324.2175916073137
 20
25.81926811420491
 30
0.0
 10
324.2175916073137
 20
25.81926811420491
 30
0.0
 10
326.7848767629218
 20
25.81926811420491
 30
0.0
 10
326.7848767629218
 20
25.81926811420491
 30
0.0
 10
326.8455104434623
 20
25.81926811420491
 30
0.0
 10
326.8937417802558
 20
25.77138128695993
 30
0.0
 10
326.8937417802558
 20
25.71212564461364
 30
0.0
 10
326.8937417802558
 20
25.71212564461364
 30
0.0
 10
326.8937417802558
 20
24.65379231154489
 30
0.0
 10
326.8937417802558
 20
24.65379231154489
 30
0.0
 10
326.8937417802558
 20
24.59246961190744
 30
0.0
 10
326.8455104434623
 20
24.54113768917722
 30
0.0
 10
326.7848767629218
 20
24.54113768917722
 30
0.0
 10
326.7848767629218
 20
24.54113768917722
 30
0.0
 10
324.3760659996352
 20
24.54113768917722
 30
0.0
 10
324.3760659996352
 20
24.54113768917722
 30
0.0
 10
324.1617810604526
 20
24.54113768917722
 30
0.0
 10
323.9860811907049
 20
24.36337076213832
 30
0.0
 10
323.9860811907049
 20
24.14908582295579
 30
0.0
 10
323.9860811907049
 20
23.93307833603062
 30
0.0
 10
324.1617810604526
 20
23.7591010140255
 30
0.0
 10
324.3760659996352
 20
23.7591010140255
 30
0.0
 10
324.3760659996352
 20
23.7591010140255
 30
0.0
 10
325.5205267198352
 20
23.72430554962448
 30
0.0
 10
325.5205267198352
 20
23.72430554962448
 30
0.0
 10
326.441745252591
 20
23.72430554962448
 30
0.0
 10
327.1900199919872
 20
22.98154296300461
 30
0.0
 10
327.1900199919872
 20
22.06618109257373
 30
0.0
 10
327.1900199919872
 20
21.14909667440023
 30
0.0
 10
326.441745252591
 20
20.40013291590691
 30
0.0
 10
325.5205267198352
 20
20.40013291590691
 30
0.0
 10
325.5205267198352
 20
20.40013291590691
 30
0.0
 10
322.7989012864878
 20
20.40013291590691
 30
0.0
 10
322.7989012864878
 20
20.40013291590691
 30
0.0
  0
HATCH
  5
176
330
16F
100
AcDbEntity
  8
\U+30D5\U+30A9\U+30FC\U+30DE\U+30C3\U+30C8
 62
    29
100
AcDbHatch
 10
0.0
 20
0.0
 30
0.0
210
0.0
220
0.0
230
1.0
  2
SOLID
 70
     1
 71
     0
 91
        1
 92
        1
 93
        1
 72
     4
 94
        3
 73
     0
 74
     1
 95
       65
 96
       61
 40
0.0
 40
0.0
 40
0.0
 40
0.0
 40
1.0
 40
1.0
 40
1.0
 40
2.0
 40
2.0
 40
2.0
 40
3.0
 40
3.0
 40
3.0
 40
4.0
 40
4.0
 40
4.0
 40
5.0
 40
5.0
 40
5.0
 40
6.0
 40
6.0
 40
6.0
 40
7.0
 40
7.0
 40
7.0
 40
8.0
 40
8.0
 40
8.0
 40
9.0
 40
9.0
 40
9.0
 40
10.0
 40
10.0
 40
10.0
 40
11.0
 40
11.0
 40
11.0
 40
12.0
 40
12.0
 40
12.0
 40
13.0
 40
13.0
 40
13.0
 40
14.0
 40
14.0
 40
14.0
 40
15.0
 40
15.0
 40
15.0
 40
16.0
 40
16.0
 40
16.0
 40
17.0
 40
17.0
 40
17.0
 40
18.0
 40
18.0
 40
18.0
 40
19.0
 40
19.0
 40
19.0
 40
20.0
 40
20.0
 40
20.0
 40
20.0
 10
322.7989012864878
 20
20.40013291590691
 10
322.7389566250445
 20
20.40013291590691
 10
322.6907252882509
 20
20.44733072405484
 10
322.6907252882509
 20
20.50693087594966
 10
322.6907252882509
 20
20.50693087594966
 10
322.6907252882509
 20
21.57732204321678
 10
322.6907252882509
 20
21.57732204321678
 10
322.6907252882509
 20
21.63726670466013
 10
322.7389566250445
 20
21.68859862739035
 10
322.7989012864878
 20
21.68859862739035
 10
322.7989012864878
 20
21.68859862739035
 10
325.3482719455727
 20
21.68859862739035
 10
325.3482719455727
 20
21.68859862739035
 10
325.5632459038522
 20
21.68859862739035
 10
325.7375677354059
 20
21.86602104488072
 10
325.7375677354059
 20
22.08306206045146
 10
325.7375677354059
 20
22.29665798053695
 10
325.5632459038522
 20
22.47373588847879
 10
325.3482719455727
 20
22.47373588847879
 10
325.3482719455727
 20
22.47373588847879
 10
324.2175916073137
 20
22.50474174784604
 10
324.2175916073137
 20
22.50474174784604
 10
323.2970620936549
 20
22.50474174784604
 10
322.5501653924528
 20
23.24647080582033
 10
322.5501653924528
 20
24.16148816670269
 10
322.5501653924528
 20
25.07616101803652
 10
323.2970620936549
 20
25.81926811420491
 10
324.2175916073137
 20
25.81926811420491
 10
324.2175916073137
 20
25.81926811420491
 10
326.7848767629218
 20
25.81926811420491
 10
326.7848767629218
 20
25.81926811420491
 10
326.8455104434623
 20
25.81926811420491
 10
326.8937417802558
 20
25.77138128695993
 10
326.8937417802558
 20
25.71212564461364
 10
326.8937417802558
 20
25.71212564461364
 10
326.8937417802558
 20
24.65379231154489
 10
326.8937417802558
 20
24.65379231154489
 10
326.8937417802558
 20
24.59246961190744
 10
326.8455104434623
 20
24.54113768917722
 10
326.7848767629218
 20
24.54113768917722
 10
326.7848767629218
 20
24.54113768917722
 10
324.3760659996352
 20
24.54113768917722
 10
324.3760659996352
 20
24.54113768917722
 10
324.1617810604526
 20
24.54113768917722
 10
323.9860811907049
 20
24.36337076213832
 10
323.9860811907049
 20
24.14908582295579
 10
323.9860811907049
 20
23.93307833603062
 10
324.1617810604526
 20
23.7591010140255
 10
324.3760659996352
 20
23.7591010140255
 10
324.3760659996352
 20
23.7591010140255
 10
325.5205267198352
 20
23.72430554962448
 10
325.5205267198352
 20
23.72430554962448
 10
326.441745252591
 20
23.72430554962448
 10
327.1900199919872
 20
22.98154296300461
 10
327.1900199919872
 20
22.06618109257373
 10
327.1900199919872
 20
21.14909667440023
 10
326.441745252591
 20
20.40013291590691
 10
325.5205267198352
 20
20.40013291590691
 10
325.5205267198352
 20
20.40013291590691
 10
322.7989012864878
 20
20.40013291590691
 10
322.7989012864878
 20
20.40013291590691
 97
        0
 75
     2
 76
     1
 98
        0
  0
SPLINE
  5
177
330
16F
100
AcDbEntity
  8
\U+30D5\U+30A9\U+30FC\U+30DE\U+30C3\U+30C8
370
     0
100
AcDbSpline
210
0.0
220
0.0
230
1.0
 70
    11
 71
     3
 72
    65
 73
    61
 74
     0
 42
0.0000000001
 43
0.0000000001
 40
0.0
 40
0.0
 40
0.0
 40
0.0
 40
1.0
 40
1.0
 40
1.0
 40
2.0
 40
2.0
 40
2.0
 40
3.0
 40
3.0
 40
3.0
 40
4.0
 40
4.0
 40
4.0
 40
5.0
 40
5.0
 40
5.0
 40
6.0
 40
6.0
 40
6.0
 40
7.0
 40
7.0
 40
7.0
 40
8.0
 40
8.0
 40
8.0
 40
9.0
 40
9.0
 40
9.0
 40
10.0
 40
10.0
 40
10.0
 40
11.0
 40
11.0
 40
11.0
 40
12.0
 40
12.0
 40
12.0
 40
13.0
 40
13.0
 40
13.0
 40
14.0
 40
14.0
 40
14.0
 40
15.0
 40
15.0
 40
15.0
 40
16.0
 40
16.0
 40
16.0
 40
17.0
 40
17.0
 40
17.0
 40
18.0
 40
18.0
 40
18.0
 40
19.0
 40
19.0
 40
19.0
 40
20.0
 40
20.0
 40
20.0
 40
20.0
 10
331.9373615706615
 20
25.82478026698131
 30
0.0
 10
331.9373615706615
 20
25.82478026698131
 30
0.0
 10
330.7329561890182
 20
25.82478026698131
 30
0.0
 10
330.7329561890182
 20
25.82478026698131
 30
0.0
 10
330.6723225084777
 20
25.82478026698131
 30
0.0
 10
330.5462320137176
 20
25.77551540154223
 30
0.0
 10
330.5462320137176
 20
25.71591524964741
 30
0.0
 10
330.5462320137176
 20
25.71591524964741
 30
0.0
 10
330.5462320137176
 20
23.7646131668019
 30
0.0
 10
330.5462320137176
 20
23.7646131668019
 30
0.0
 10
330.5462320137176
 20
23.7646131668019
 30
0.0
 10
329.0365911720812
 20
23.7646131668019
 30
0.0
 10
329.0365911720812
 20
23.7646131668019
 30
0.0
 10
329.0365911720812
 20
23.7646131668019
 30
0.0
 10
329.0365911720812
 20
25.71591524964741
 30
0.0
 10
329.0365911720812
 20
25.71591524964741
 30
0.0
 10
329.0365911720812
 20
25.77551540154223
 30
0.0
 10
328.9869817970936
 20
25.82478026698131
 30
0.0
 10
328.9277261547472
 20
25.82478026698131
 30
0.0
 10
328.9277261547472
 20
25.82478026698131
 30
0.0
 10
327.6447725960402
 20
25.82478026698131
 30
0.0
 10
327.6447725960402
 20
25.82478026698131
 30
0.0
 10
327.5848279345969
 20
25.82478026698131
 30
0.0
 10
327.5359075787063
 20
25.77551540154223
 30
0.0
 10
327.5359075787063
 20
25.71591524964741
 30
0.0
 10
327.5359075787063
 20
25.71591524964741
 30
0.0
 10
327.5359075787063
 20
20.51554361466278
 30
0.0
 10
327.5359075787063
 20
20.51554361466278
 30
0.0
 10
327.5359075787063
 20
20.45353189592829
 30
0.0
 10
327.5848279345969
 20
20.40564506868331
 30
0.0
 10
327.6447725960402
 20
20.40564506868331
 30
0.0
 10
327.6447725960402
 20
20.40564506868331
 30
0.0
 10
328.9277261547472
 20
20.40564506868331
 30
0.0
 10
328.9277261547472
 20
20.40564506868331
 30
0.0
 10
328.9869817970936
 20
20.40564506868331
 30
0.0
 10
329.0365911720812
 20
20.45353189592829
 30
0.0
 10
329.0365911720812
 20
20.51554361466278
 30
0.0
 10
329.0365911720812
 20
20.51554361466278
 30
0.0
 10
329.0365911720812
 20
22.47787000306109
 30
0.0
 10
329.0365911720812
 20
22.47787000306109
 30
0.0
 10
329.0365911720812
 20
22.47787000306109
 30
0.0
 10
330.5462320137176
 20
22.47787000306109
 30
0.0
 10
330.5462320137176
 20
22.47787000306109
 30
0.0
 10
330.5462320137176
 20
22.47787000306109
 30
0.0
 10
330.5462320137176
 20
20.51554361466278
 30
0.0
 10
330.5462320137176
 20
20.51554361466278
 30
0.0
 10
330.5462320137176
 20
20.45353189592829
 30
0.0
 10
330.5951523696082
 20
20.40564506868331
 30
0.0
 10
330.6550970310515
 20
20.40564506868331
 30
0.0
 10
330.6550970310515
 20
20.40564506868331
 30
0.0
 10
331.9373615706615
 20
20.40564506868331
 30
0.0
 10
331.9373615706615
 20
20.40564506868331
 30
0.0
 10
331.9973062321048
 20
20.40564506868331
 30
0.0
 10
332.0462265879954
 20
20.45353189592829
 30
0.0
 10
332.0462265879954
 20
20.51554361466278
 30
0.0
 10
332.0462265879954
 20
20.51554361466278
 30
0.0
 10
332.0462265879954
 20
25.71591524964741
 30
0.0
 10
332.0462265879954
 20
25.71591524964741
 30
0.0
 10
332.0462265879954
 20
25.77551540154223
 30
0.0
 10
331.9973062321048
 20
25.82478026698131
 30
0.0
 10
331.9373615706615
 20
25.82478026698131
 30
0.0
  0
HATCH
  5
178
330
16F
100
AcDbEntity
  8
\U+30D5\U+30A9\U+30FC\U+30DE\U+30C3\U+30C8
 62
    29
100
AcDbHatch
 10
0.0
 20
0.0
 30
0.0
210
0.0
220
0.0
230
1.0
  2
SOLID
 70
     1
 71
     0
 91
        1
 92
        1
 93
        1
 72
     4
 94
        3
 73
     0
 74
     1
 95
       65
 96
       61
 40
0.0
 40
0.0
 40
0.0
 40
0.0
 40
1.0
 40
1.0
 40
1.0
 40
2.0
 40
2.0
 40
2.0
 40
3.0
 40
3.0
 40
3.0
 40
4.0
 40
4.0
 40
4.0
 40
5.0
 40
5.0
 40
5.0
 40
6.0
 40
6.0
 40
6.0
 40
7.0
 40
7.0
 40
7.0
 40
8.0
 40
8.0
 40
8.0
 40
9.0
 40
9.0
 40
9.0
 40
10.0
 40
10.0
 40
10.0
 40
11.0
 40
11.0
 40
11.0
 40
12.0
 40
12.0
 40
12.0
 40
13.0
 40
13.0
 40
13.0
 40
14.0
 40
14.0
 40
14.0
 40
15.0
 40
15.0
 40
15.0
 40
16.0
 40
16.0
 40
16.0
 40
17.0
 40
17.0
 40
17.0
 40
18.0
 40
18.0
 40
18.0
 40
19.0
 40
19.0
 40
19.0
 40
20.0
 40
20.0
 40
20.0
 40
20.0
 10
331.9373615706615
 20
25.82478026698131
 10
331.9373615706615
 20
25.82478026698131
 10
330.7329561890182
 20
25.82478026698131
 10
330.7329561890182
 20
25.82478026698131
 10
330.6723225084777
 20
25.82478026698131
 10
330.5462320137176
 20
25.77551540154223
 10
330.5462320137176
 20
25.71591524964741
 10
330.5462320137176
 20
25.71591524964741
 10
330.5462320137176
 20
23.7646131668019
 10
330.5462320137176
 20
23.7646131668019
 10
330.5462320137176
 20
23.7646131668019
 10
329.0365911720812
 20
23.7646131668019
 10
329.0365911720812
 20
23.7646131668019
 10
329.0365911720812
 20
23.7646131668019
 10
329.0365911720812
 20
25.71591524964741
 10
329.0365911720812
 20
25.71591524964741
 10
329.0365911720812
 20
25.77551540154223
 10
328.9869817970936
 20
25.82478026698131
 10
328.9277261547472
 20
25.82478026698131
 10
328.9277261547472
 20
25.82478026698131
 10
327.6447725960402
 20
25.82478026698131
 10
327.6447725960402
 20
25.82478026698131
 10
327.5848279345969
 20
25.82478026698131
 10
327.5359075787063
 20
25.77551540154223
 10
327.5359075787063
 20
25.71591524964741
 10
327.5359075787063
 20
25.71591524964741
 10
327.5359075787063
 20
20.51554361466278
 10
327.5359075787063
 20
20.51554361466278
 10
327.5359075787063
 20
20.45353189592829
 10
327.5848279345969
 20
20.40564506868331
 10
327.6447725960402
 20
20.40564506868331
 10
327.6447725960402
 20
20.40564506868331
 10
328.9277261547472
 20
20.40564506868331
 10
328.9277261547472
 20
20.40564506868331
 10
328.9869817970936
 20
20.40564506868331
 10
329.0365911720812
 20
20.45353189592829
 10
329.0365911720812
 20
20.51554361466278
 10
329.0365911720812
 20
20.51554361466278
 10
329.0365911720812
 20
22.47787000306109
 10
329.0365911720812
 20
22.47787000306109
 10
329.0365911720812
 20
22.47787000306109
 10
330.5462320137176
 20
22.47787000306109
 10
330.5462320137176
 20
22.47787000306109
 10
330.5462320137176
 20
22.47787000306109
 10
330.5462320137176
 20
20.51554361466278
 10
330.5462320137176
 20
20.51554361466278
 10
330.5462320137176
 20
20.45353189592829
 10
330.5951523696082
 20
20.40564506868331
 10
330.6550970310515
 20
20.40564506868331
 10
330.6550970310515
 20
20.40564506868331
 10
331.9373615706615
 20
20.40564506868331
 10
331.9373615706615
 20
20.40564506868331
 10
331.9973062321048
 20
20.40564506868331
 10
332.0462265879954
 20
20.45353189592829
 10
332.0462265879954
 20
20.51554361466278
 10
332.0462265879954
 20
20.51554361466278
 10
332.0462265879954
 20
25.71591524964741
 10
332.0462265879954
 20
25.71591524964741
 10
332.0462265879954
 20
25.77551540154223
 10
331.9973062321048
 20
25.82478026698131
 10
331.9373615706615
 20
25.82478026698131
 97
        0
 75
     2
 76
     1
 98
        0
  0
SPLINE
  5
179
330
16F
100
AcDbEntity
  8
\U+30D5\U+30A9\U+30FC\U+30DE\U+30C3\U+30C8
370
     0
100
AcDbSpline
210
0.0
220
0.0
230
1.0
 70
    11
 71
     3
 72
    29
 73
    25
 74
     0
 42
0.0000000001
 43
0.0000000001
 40
0.0
 40
0.0
 40
0.0
 40
0.0
 40
1.0
 40
1.0
 40
1.0
 40
2.0
 40
2.0
 40
2.0
 40
3.0
 40
3.0
 40
3.0
 40
4.0
 40
4.0
 40
4.0
 40
5.0
 40
5.0
 40
5.0
 40
6.0
 40
6.0
 40
6.0
 40
7.0
 40
7.0
 40
7.0
 40
8.0
 40
8.0
 40
8.0
 40
8.0
 10
336.0294459880413
 20
25.82546928607836
 30
0.0
 10
336.0294459880413
 20
25.82546928607836
 30
0.0
 10
334.0175102246554
 20
25.82546928607836
 30
0.0
 10
334.0175102246554
 20
25.82546928607836
 30
0.0
 10
333.1686386970898
 20
25.82546928607836
 30
0.0
 10
332.4782415618457
 20
25.13645018902839
 30
0.0
 10
332.4782415618457
 20
24.28654513281725
 30
0.0
 10
332.4782415618457
 20
24.28654513281725
 30
0.0
 10
332.4782415618457
 20
21.94939235562376
 30
0.0
 10
332.4782415618457
 20
21.94939235562376
 30
0.0
 10
332.4782415618457
 20
21.09983180896116
 30
0.0
 10
333.1686386970898
 20
20.41115722145971
 30
0.0
 10
334.0175102246554
 20
20.41115722145971
 30
0.0
 10
334.0175102246554
 20
20.41115722145971
 30
0.0
 10
336.0294459880413
 20
20.41115722145971
 30
0.0
 10
336.0294459880413
 20
20.41115722145971
 30
0.0
 10
336.8790065347039
 20
20.41115722145971
 30
0.0
 10
337.5673366126568
 20
21.09983180896116
 30
0.0
 10
337.5673366126568
 20
21.94939235562376
 30
0.0
 10
337.5673366126568
 20
21.94939235562376
 30
0.0
 10
337.5673366126568
 20
24.28654513281725
 30
0.0
 10
337.5673366126568
 20
24.28654513281725
 30
0.0
 10
337.5673366126568
 20
25.13645018902839
 30
0.0
 10
336.8790065347039
 20
25.82546928607836
 30
0.0
 10
336.0294459880413
 20
25.82546928607836
 30
0.0
  0
SPLINE
  5
17A
330
16F
100
AcDbEntity
  8
\U+30D5\U+30A9\U+30FC\U+30DE\U+30C3\U+30C8
370
     0
100
AcDbSpline
210
0.0
220
0.0
230
1.0
 70
    11
 71
     3
 72
    29
 73
    25
 74
     0
 42
0.0000000001
 43
0.0000000001
 40
0.0
 40
0.0
 40
0.0
 40
0.0
 40
1.0
 40
1.0
 40
1.0
 40
2.0
 40
2.0
 40
2.0
 40
3.0
 40
3.0
 40
3.0
 40
4.0
 40
4.0
 40
4.0
 40
5.0
 40
5.0
 40
5.0
 40
6.0
 40
6.0
 40
6.0
 40
7.0
 40
7.0
 40
7.0
 40
8.0
 40
8.0
 40
8.0
 40
8.0
 10
336.0645859619908
 20
22.25221624877722
 30
0.0
 10
336.0645859619908
 20
21.94939235562376
 30
0.0
 10
335.818606144344
 20
21.70375704752545
 30
0.0
 10
335.516126760739
 20
21.70375704752545
 30
0.0
 10
335.516126760739
 20
21.70375704752545
 30
0.0
 10
334.5308294519576
 20
21.70375704752545
 30
0.0
 10
334.5308294519576
 20
21.70375704752545
 30
0.0
 10
334.2269720301585
 20
21.70375704752545
 30
0.0
 10
333.9816812316088
 20
21.94939235562376
 30
0.0
 10
333.9816812316088
 20
22.25221624877722
 30
0.0
 10
333.9816812316088
 20
22.25221624877722
 30
0.0
 10
333.9816812316088
 20
23.98406574921232
 30
0.0
 10
333.9816812316088
 20
23.98406574921232
 30
0.0
 10
333.9816812316088
 20
24.28654513281725
 30
0.0
 10
334.2269720301585
 20
24.53183593136704
 30
0.0
 10
334.5308294519576
 20
24.53183593136704
 30
0.0
 10
334.5308294519576
 20
24.53183593136704
 30
0.0
 10
335.516126760739
 20
24.53183593136704
 30
0.0
 10
335.516126760739
 20
24.53183593136704
 30
0.0
 10
335.818606144344
 20
24.53183593136704
 30
0.0
 10
336.0645859619908
 20
24.28654513281725
 30
0.0
 10
336.0645859619908
 20
23.98406574921232
 30
0.0
 10
336.0645859619908
 20
23.98406574921232
 30
0.0
 10
336.0645859619908
 20
22.25221624877722
 30
0.0
 10
336.0645859619908
 20
22.25221624877722
 30
0.0
  0
HATCH
  5
17B
330
16F
100
AcDbEntity
  8
\U+30D5\U+30A9\U+30FC\U+30DE\U+30C3\U+30C8
 62
    29
100
AcDbHatch
 10
0.0
 20
0.0
 30
0.0
210
0.0
220
0.0
230
1.0
  2
SOLID
 70
     1
 71
     0
 91
        2
 92
        1
 93
        1
 72
     4
 94
        3
 73
     0
 74
     1
 95
       29
 96
       25
 40
0.0
 40
0.0
 40
0.0
 40
0.0
 40
1.0
 40
1.0
 40
1.0
 40
2.0
 40
2.0
 40
2.0
 40
3.0
 40
3.0
 40
3.0
 40
4.0
 40
4.0
 40
4.0
 40
5.0
 40
5.0
 40
5.0
 40
6.0
 40
6.0
 40
6.0
 40
7.0
 40
7.0
 40
7.0
 40
8.0
 40
8.0
 40
8.0
 40
8.0
 10
336.0645859619908
 20
22.25221624877722
 10
336.0645859619908
 20
21.94939235562376
 10
335.818606144344
 20
21.70375704752545
 10
335.516126760739
 20
21.70375704752545
 10
335.516126760739
 20
21.70375704752545
 10
334.5308294519576
 20
21.70375704752545
 10
334.5308294519576
 20
21.70375704752545
 10
334.2269720301585
 20
21.70375704752545
 10
333.9816812316088
 20
21.94939235562376
 10
333.9816812316088
 20
22.25221624877722
 10
333.9816812316088
 20
22.25221624877722
 10
333.9816812316088
 20
23.98406574921232
 10
333.9816812316088
 20
23.98406574921232
 10
333.9816812316088
 20
24.28654513281725
 10
334.2269720301585
 20
24.53183593136704
 10
334.5308294519576
 20
24.53183593136704
 10
334.5308294519576
 20
24.53183593136704
 10
335.516126760739
 20
24.53183593136704
 10
335.516126760739
 20
24.53183593136704
 10
335.818606144344
 20
24.53183593136704
 10
336.0645859619908
 20
24.28654513281725
 10
336.0645859619908
 20
23.98406574921232
 10
336.0645859619908
 20
23.98406574921232
 10
336.0645859619908
 20
22.25221624877722
 10
336.0645859619908
 20
22.25221624877722
 97
        0
 92
        1
 93
        2
 72
     4
 94
        3
 73
     0
 74
     0
 95
       29
 96
       25
 40
0.0
 40
0.0
 40
0.0
 40
0.0
 40
0.3527777776895833
 40
0.3527777776895833
 40
0.3527777776895833
 40
0.7055555553791667
 40
0.7055555553791667
 40
0.7055555553791667
 40
1.05833333306875
 40
1.05833333306875
 40
1.05833333306875
 40
1.411111110758333
 40
1.411111110758333
 40
1.411111110758333
 40
1.763888888447917
 40
1.763888888447917
 40
1.763888888447917
 40
2.1166666661375
 40
2.1166666661375
 40
2.1166666661375
 40
2.469444443827083
 40
2.469444443827083
 40
2.469444443827083
 40
2.822222221516667
 40
2.822222221516667
 40
2.822222221516667
 40
2.822222221516667
 10
336.0294459880413
 20
25.82546928607836
 10
336.0294459880413
 20
25.82546928607836
 10
334.0175102246554
 20
25.82546928607836
 10
334.0175102246554
 20
25.82546928607836
 10
333.1686386970898
 20
25.82546928607836
 10
332.4782415618457
 20
25.13645018902839
 10
332.4782415618457
 20
24.28654513281725
 10
332.4782415618457
 20
24.28654513281725
 10
332.4782415618457
 20
21.94939235562376
 10
332.4782415618457
 20
21.94939235562376
 10
332.4782415618457
 20
21.09983180896116
 10
333.1686386970898
 20
20.41115722145971
 10
334.0175102246554
 20
20.41115722145971
 10
334.0175102246554
 20
20.41115722145971
 10
336.0294459880413
 20
20.41115722145971
 10
336.0294459880413
 20
20.41115722145971
 10
336.8790065347039
 20
20.41115722145971
 10
337.5673366126568
 20
21.09983180896116
 10
337.5673366126568
 20
21.94939235562376
 10
337.5673366126568
 20
21.94939235562376
 10
337.5673366126568
 20
24.28654513281725
 10
337.5673366126568
 20
24.28654513281725
 10
337.5673366126568
 20
25.13645018902839
 10
336.8790065347039
 20
25.82546928607836
 10
336.0294459880413
 20
25.82546928607836
 72
     1
 10
336.0294459880413
 20
25.82546928607836
 11
336.0294459880413
 21
25.82546928607836
 97
        0
 75
     2
 76
     1
 98
        0
  0
ENDBLK
  5
172
330
16F
100
AcDbEntity
  8
0
100
AcDbBlockEnd
  0
BLOCK
  5
184
330
182
100
AcDbEntity
  8
0
100
AcDbBlockBegin
  2
block 13
 70
     0
 71
     0
 10
0.0
 20
0.0
 30
0.0
  3
block 13
  1

  0
SPLINE
  5
186
330
182
100
AcDbEntity
  8
\U+30D5\U+30A9\U+30FC\U+30DE\U+30C3\U+30C8
370
     0
100
AcDbSpline
210
0.0
220
0.0
230
1.0
 70
    11
 71
     3
 72
    29
 73
    25
 74
     0
 42
0.0000000001
 43
0.0000000001
 40
0.0
 40
0.0
 40
0.0
 40
0.0
 40
1.0
 40
1.0
 40
1.0
 40
2.0
 40
2.0
 40
2.0
 40
3.0
 40
3.0
 40
3.0
 40
4.0
 40
4.0
 40
4.0
 40
5.0
 40
5.0
 40
5.0
 40
6.0
 40
6.0
 40
6.0
 40
7.0
 40
7.0
 40
7.0
 40
8.0
 40
8.0
 40
8.0
 40
8.0
 10
293.0594590196171
 20
24.16183267625121
 30
0.0
 10
293.1972628390271
 20
24.16183267625121
 30
0.0
 10
293.3081949136521
 20
24.27414278907035
 30
0.0
 10
293.3081949136521
 20
24.4112575893833
 30
0.0
 10
293.3081949136521
 20
24.4112575893833
 30
0.0
 10
293.3081949136521
 20
27.65998263197389
 30
0.0
 10
293.3081949136521
 20
27.65998263197389
 30
0.0
 10
293.3081949136521
 20
27.79847547048094
 30
0.0
 10
293.1972628390271
 20
27.90940754510598
 30
0.0
 10
293.0594590196171
 20
27.90940754510598
 30
0.0
 10
293.0594590196171
 20
27.90940754510598
 30
0.0
 10
289.8107339770265
 20
27.90940754510598
 30
0.0
 10
289.8107339770265
 20
27.90940754510598
 30
0.0
 10
289.6715521194224
 20
27.90940754510598
 30
0.0
 10
289.5606200447974
 20
27.79847547048094
 30
0.0
 10
289.5606200447974
 20
27.65998263197389
 30
0.0
 10
289.5606200447974
 20
27.65998263197389
 30
0.0
 10
289.5606200447974
 20
24.4112575893833
 30
0.0
 10
289.5606200447974
 20
24.4112575893833
 30
0.0
 10
289.5606200447974
 20
24.27414278907035
 30
0.0
 10
289.6715521194224
 20
24.16183267625121
 30
0.0
 10
289.8107339770265
 20
24.16183267625121
 30
0.0
 10
289.8107339770265
 20
24.16183267625121
 30
0.0
 10
293.0594590196171
 20
24.16183267625121
 30
0.0
 10
293.0594590196171
 20
24.16183267625121
 30
0.0
  0
HATCH
  5
187
330
182
100
AcDbEntity
  8
\U+30D5\U+30A9\U+30FC\U+30DE\U+30C3\U+30C8
 62
    29
100
AcDbHatch
 10
0.0
 20
0.0
 30
0.0
210
0.0
220
0.0
230
1.0
  2
SOLID
 70
     1
 71
     0
 91
        1
 92
        1
 93
        1
 72
     4
 94
        3
 73
     0
 74
     1
 95
       29
 96
       25
 40
0.0
 40
0.0
 40
0.0
 40
0.0
 40
1.0
 40
1.0
 40
1.0
 40
2.0
 40
2.0
 40
2.0
 40
3.0
 40
3.0
 40
3.0
 40
4.0
 40
4.0
 40
4.0
 40
5.0
 40
5.0
 40
5.0
 40
6.0
 40
6.0
 40
6.0
 40
7.0
 40
7.0
 40
7.0
 40
8.0
 40
8.0
 40
8.0
 40
8.0
 10
293.0594590196171
 20
24.16183267625121
 10
293.1972628390271
 20
24.16183267625121
 10
293.3081949136521
 20
24.27414278907035
 10
293.3081949136521
 20
24.4112575893833
 10
293.3081949136521
 20
24.4112575893833
 10
293.3081949136521
 20
27.65998263197389
 10
293.3081949136521
 20
27.65998263197389
 10
293.3081949136521
 20
27.79847547048094
 10
293.1972628390271
 20
27.90940754510598
 10
293.0594590196171
 20
27.90940754510598
 10
293.0594590196171
 20
27.90940754510598
 10
289.8107339770265
 20
27.90940754510598
 10
289.8107339770265
 20
27.90940754510598
 10
289.6715521194224
 20
27.90940754510598
 10
289.5606200447974
 20
27.79847547048094
 10
289.5606200447974
 20
27.65998263197389
 10
289.5606200447974
 20
27.65998263197389
 10
289.5606200447974
 20
24.4112575893833
 10
289.5606200447974
 20
24.4112575893833
 10
289.5606200447974
 20
24.27414278907035
 10
289.6715521194224
 20
24.16183267625121
 10
289.8107339770265
 20
24.16183267625121
 10
289.8107339770265
 20
24.16183267625121
 10
293.0594590196171
 20
24.16183267625121
 10
293.0594590196171
 20
24.16183267625121
 97
        0
 75
     2
 76
     1
 98
        0
  0
POLYLINE
  5
188
330
182
100
AcDbEntity
  8
\U+30D5\U+30A9\U+30FC\U+30DE\U+30C3\U+30C8
370
     0
100
AcDb2dPolyline
 66
     1
 10
0.0
 20
0.0
 30
0.0
  0
VERTEX
  5
189
330
188
100
AcDbEntity
  8
\U+30D5\U+30A9\U+30FC\U+30DE\U+30C3\U+30C8
370
     0
100
AcDbVertex
100
AcDb2dVertex
 10
291.4340629696762
 20
26.03596462022712
 30
0.0
  0
VERTEX
  5
314
330
188
100
AcDbEntity
  8
0
100
AcDbVertex
100
AcDb2dVertex
 10
291.4340629696762
 20
26.03596462022712
 30
0.0
  0
SEQEND
  5
18A
330
188
100
AcDbEntity
  8
\U+30D5\U+30A9\U+30FC\U+30DE\U+30C3\U+30C8
370
     0
  0
ENDBLK
  5
185
330
182
100
AcDbEntity
  8
0
100
AcDbBlockEnd
  0
BLOCK
  5
18D
330
18B
100
AcDbEntity
  8
0
100
AcDbBlockBegin
  2
block 14
 70
     0
 71
     0
 10
0.0
 20
0.0
 30
0.0
  3
block 14
  1

  0
SPLINE
  5
18F
330
18B
100
AcDbEntity
  8
\U+30D5\U+30A9\U+30FC\U+30DE\U+30C3\U+30C8
370
     0
100
AcDbSpline
210
0.0
220
0.0
230
1.0
 70
    11
 71
     3
 72
    29
 73
    25
 74
     0
 42
0.0000000001
 43
0.0000000001
 40
0.0
 40
0.0
 40
0.0
 40
0.0
 40
1.0
 40
1.0
 40
1.0
 40
2.0
 40
2.0
 40
2.0
 40
3.0
 40
3.0
 40
3.0
 40
4.0
 40
4.0
 40
4.0
 40
5.0
 40
5.0
 40
5.0
 40
6.0
 40
6.0
 40
6.0
 40
7.0
 40
7.0
 40
7.0
 40
8.0
 40
8.0
 40
8.0
 40
8.0
 10
296.809100945763
 20
20.41253525965381
 30
0.0
 10
296.9462157460759
 20
20.41253525965381
 30
0.0
 10
297.057147820701
 20
20.52415635337591
 30
0.0
 10
297.057147820701
 20
20.66299370143147
 30
0.0
 10
297.057147820701
 20
20.66299370143147
 30
0.0
 10
297.057147820701
 20
23.9106852153765
 30
0.0
 10
297.057147820701
 20
23.9106852153765
 30
0.0
 10
297.057147820701
 20
24.04814452523797
 30
0.0
 10
296.9462157460759
 20
24.15942110941154
 30
0.0
 10
296.809100945763
 20
24.15942110941154
 30
0.0
 10
296.809100945763
 20
24.15942110941154
 30
0.0
 10
293.5603759031724
 20
24.15942110941154
 30
0.0
 10
293.5603759031724
 20
24.15942110941154
 30
0.0
 10
293.4225720837624
 20
24.15942110941154
 30
0.0
 10
293.3088839327492
 20
24.04814452523797
 30
0.0
 10
293.3088839327492
 20
23.9106852153765
 30
0.0
 10
293.3088839327492
 20
23.9106852153765
 30
0.0
 10
293.3088839327492
 20
20.66299370143147
 30
0.0
 10
293.3088839327492
 20
20.66299370143147
 30
0.0
 10
293.3088839327492
 20
20.52415635337591
 30
0.0
 10
293.4225720837624
 20
20.41253525965381
 30
0.0
 10
293.5603759031724
 20
20.41253525965381
 30
0.0
 10
293.5603759031724
 20
20.41253525965381
 30
0.0
 10
296.809100945763
 20
20.41253525965381
 30
0.0
 10
296.809100945763
 20
20.41253525965381
 30
0.0
  0
HATCH
  5
190
330
18B
100
AcDbEntity
  8
\U+30D5\U+30A9\U+30FC\U+30DE\U+30C3\U+30C8
 62
    29
100
AcDbHatch
 10
0.0
 20
0.0
 30
0.0
210
0.0
220
0.0
230
1.0
  2
SOLID
 70
     1
 71
     0
 91
        1
 92
        1
 93
        1
 72
     4
 94
        3
 73
     0
 74
     1
 95
       29
 96
       25
 40
0.0
 40
0.0
 40
0.0
 40
0.0
 40
1.0
 40
1.0
 40
1.0
 40
2.0
 40
2.0
 40
2.0
 40
3.0
 40
3.0
 40
3.0
 40
4.0
 40
4.0
 40
4.0
 40
5.0
 40
5.0
 40
5.0
 40
6.0
 40
6.0
 40
6.0
 40
7.0
 40
7.0
 40
7.0
 40
8.0
 40
8.0
 40
8.0
 40
8.0
 10
296.809100945763
 20
20.41253525965381
 10
296.9462157460759
 20
20.41253525965381
 10
297.057147820701
 20
20.52415635337591
 10
297.057147820701
 20
20.66299370143147
 10
297.057147820701
 20
20.66299370143147
 10
297.057147820701
 20
23.9106852153765
 10
297.057147820701
 20
23.9106852153765
 10
297.057147820701
 20
24.04814452523797
 10
296.9462157460759
 20
24.15942110941154
 10
296.809100945763
 20
24.15942110941154
 10
296.809100945763
 20
24.15942110941154
 10
293.5603759031724
 20
24.15942110941154
 10
293.5603759031724
 20
24.15942110941154
 10
293.4225720837624
 20
24.15942110941154
 10
293.3088839327492
 20
24.04814452523797
 10
293.3088839327492
 20
23.9106852153765
 10
293.3088839327492
 20
23.9106852153765
 10
293.3088839327492
 20
20.66299370143147
 10
293.3088839327492
 20
20.66299370143147
 10
293.3088839327492
 20
20.52415635337591
 10
293.4225720837624
 20
20.41253525965381
 10
293.5603759031724
 20
20.41253525965381
 10
293.5603759031724
 20
20.41253525965381
 10
296.809100945763
 20
20.41253525965381
 10
296.809100945763
 20
20.41253525965381
 97
        0
 75
     2
 76
     1
 98
        0
  0
POLYLINE
  5
191
330
18B
100
AcDbEntity
  8
\U+30D5\U+30A9\U+30FC\U+30DE\U+30C3\U+30C8
370
     0
100
AcDb2dPolyline
 66
     1
 10
0.0
 20
0.0
 30
0.0
  0
VERTEX
  5
192
330
191
100
AcDbEntity
  8
\U+30D5\U+30A9\U+30FC\U+30DE\U+30C3\U+30C8
370
     0
100
AcDbVertex
100
AcDb2dVertex
 10
295.1843939149192
 20
22.28563367498415
 30
0.0
  0
VERTEX
  5
315
330
191
100
AcDbEntity
  8
0
100
AcDbVertex
100
AcDb2dVertex
 10
295.1843939149192
 20
22.28563367498415
 30
0.0
  0
SEQEND
  5
193
330
191
100
AcDbEntity
  8
\U+30D5\U+30A9\U+30FC\U+30DE\U+30C3\U+30C8
370
     0
  0
ENDBLK
  5
18E
330
18B
100
AcDbEntity
  8
0
100
AcDbBlockEnd
  0
BLOCK
  5
196
330
194
100
AcDbEntity
  8
0
100
AcDbBlockBegin
  2
block 15
 70
     0
 71
     0
 10
0.0
 20
0.0
 30
0.0
  3
block 15
  1

  0
SPLINE
  5
198
330
194
100
AcDbEntity
  8
\U+30D5\U+30A9\U+30FC\U+30DE\U+30C3\U+30C8
370
     0
100
AcDbSpline
210
0.0
220
0.0
230
1.0
 70
    11
 71
     3
 72
    29
 73
    25
 74
     0
 42
0.0000000001
 43
0.0000000001
 40
0.0
 40
0.0
 40
0.0
 40
0.0
 40
1.0
 40
1.0
 40
1.0
 40
2.0
 40
2.0
 40
2.0
 40
3.0
 40
3.0
 40
3.0
 40
4.0
 40
4.0
 40
4.0
 40
5.0
 40
5.0
 40
5.0
 40
6.0
 40
6.0
 40
6.0
 40
7.0
 40
7.0
 40
7.0
 40
8.0
 40
8.0
 40
8.0
 40
8.0
 10
300.5587428719089
 20
24.16183267625121
 30
0.0
 10
300.6958576722219
 20
24.16183267625121
 30
0.0
 10
300.808167785041
 20
24.27414278907035
 30
0.0
 10
300.808167785041
 20
24.4112575893833
 30
0.0
 10
300.808167785041
 20
24.4112575893833
 30
0.0
 10
300.808167785041
 20
27.65998263197389
 30
0.0
 10
300.808167785041
 20
27.65998263197389
 30
0.0
 10
300.808167785041
 20
27.79847547048094
 30
0.0
 10
300.6958576722219
 20
27.90940754510598
 30
0.0
 10
300.5587428719089
 20
27.90940754510598
 30
0.0
 10
300.5587428719089
 20
27.90940754510598
 30
0.0
 10
297.3093288102213
 20
27.90940754510598
 30
0.0
 10
297.3093288102213
 20
27.90940754510598
 30
0.0
 10
297.1715249908113
 20
27.90940754510598
 30
0.0
 10
297.0605929161862
 20
27.79847547048094
 30
0.0
 10
297.0605929161862
 20
27.65998263197389
 30
0.0
 10
297.0605929161862
 20
27.65998263197389
 30
0.0
 10
297.0605929161862
 20
24.4112575893833
 30
0.0
 10
297.0605929161862
 20
24.4112575893833
 30
0.0
 10
297.0605929161862
 20
24.27414278907035
 30
0.0
 10
297.1715249908113
 20
24.16183267625121
 30
0.0
 10
297.3093288102213
 20
24.16183267625121
 30
0.0
 10
297.3093288102213
 20
24.16183267625121
 30
0.0
 10
300.5587428719089
 20
24.16183267625121
 30
0.0
 10
300.5587428719089
 20
24.16183267625121
 30
0.0
  0
HATCH
  5
199
330
194
100
AcDbEntity
  8
\U+30D5\U+30A9\U+30FC\U+30DE\U+30C3\U+30C8
 62
    29
100
AcDbHatch
 10
0.0
 20
0.0
 30
0.0
210
0.0
220
0.0
230
1.0
  2
SOLID
 70
     1
 71
     0
 91
        1
 92
        1
 93
        1
 72
     4
 94
        3
 73
     0
 74
     1
 95
       29
 96
       25
 40
0.0
 40
0.0
 40
0.0
 40
0.0
 40
1.0
 40
1.0
 40
1.0
 40
2.0
 40
2.0
 40
2.0
 40
3.0
 40
3.0
 40
3.0
 40
4.0
 40
4.0
 40
4.0
 40
5.0
 40
5.0
 40
5.0
 40
6.0
 40
6.0
 40
6.0
 40
7.0
 40
7.0
 40
7.0
 40
8.0
 40
8.0
 40
8.0
 40
8.0
 10
300.5587428719089
 20
24.16183267625121
 10
300.6958576722219
 20
24.16183267625121
 10
300.808167785041
 20
24.27414278907035
 10
300.808167785041
 20
24.4112575893833
 10
300.808167785041
 20
24.4112575893833
 10
300.808167785041
 20
27.65998263197389
 10
300.808167785041
 20
27.65998263197389
 10
300.808167785041
 20
27.79847547048094
 10
300.6958576722219
 20
27.90940754510598
 10
300.5587428719089
 20
27.90940754510598
 10
300.5587428719089
 20
27.90940754510598
 10
297.3093288102213
 20
27.90940754510598
 10
297.3093288102213
 20
27.90940754510598
 10
297.1715249908113
 20
27.90940754510598
 10
297.0605929161862
 20
27.79847547048094
 10
297.0605929161862
 20
27.65998263197389
 10
297.0605929161862
 20
27.65998263197389
 10
297.0605929161862
 20
24.4112575893833
 10
297.0605929161862
 20
24.4112575893833
 10
297.0605929161862
 20
24.27414278907035
 10
297.1715249908113
 20
24.16183267625121
 10
297.3093288102213
 20
24.16183267625121
 10
297.3093288102213
 20
24.16183267625121
 10
300.5587428719089
 20
24.16183267625121
 10
300.5587428719089
 20
24.16183267625121
 97
        0
 75
     2
 76
     1
 98
        0
  0
POLYLINE
  5
19A
330
194
100
AcDbEntity
  8
\U+30D5\U+30A9\U+30FC\U+30DE\U+30C3\U+30C8
370
     0
100
AcDb2dPolyline
 66
     1
 10
0.0
 20
0.0
 30
0.0
  0
VERTEX
  5
19B
330
19A
100
AcDbEntity
  8
\U+30D5\U+30A9\U+30FC\U+30DE\U+30C3\U+30C8
370
     0
100
AcDbVertex
100
AcDb2dVertex
 10
298.9340358410651
 20
26.03596462022712
 30
0.0
  0
VERTEX
  5
316
330
19A
100
AcDbEntity
  8
0
100
AcDbVertex
100
AcDb2dVertex
 10
298.9340358410651
 20
26.03596462022712
 30
0.0
  0
SEQEND
  5
19C
330
19A
100
AcDbEntity
  8
\U+30D5\U+30A9\U+30FC\U+30DE\U+30C3\U+30C8
370
     0
  0
ENDBLK
  5
197
330
194
100
AcDbEntity
  8
0
100
AcDbBlockEnd
  0
BLOCK
  5
19F
330
19D
100
AcDbEntity
  8
0
100
AcDbBlockBegin
  2
block 16
 70
     0
 71
     0
 10
0.0
 20
0.0
 30
0.0
  3
block 16
  1

  0
SPLINE
  5
1A1
330
19D
100
AcDbEntity
  8
\U+30D5\U+30A9\U+30FC\U+30DE\U+30C3\U+30C8
370
     0
100
AcDbSpline
210
0.0
220
0.0
230
1.0
 70
    11
 71
     3
 72
    29
 73
    25
 74
     0
 42
0.0000000001
 43
0.0000000001
 40
0.0
 40
0.0
 40
0.0
 40
0.0
 40
1.0
 40
1.0
 40
1.0
 40
2.0
 40
2.0
 40
2.0
 40
3.0
 40
3.0
 40
3.0
 40
4.0
 40
4.0
 40
4.0
 40
5.0
 40
5.0
 40
5.0
 40
6.0
 40
6.0
 40
6.0
 40
7.0
 40
7.0
 40
7.0
 40
8.0
 40
8.0
 40
8.0
 40
8.0
 10
293.0594590196171
 20
16.66254882395936
 30
0.0
 10
293.1972628390271
 20
16.66254882395936
 30
0.0
 10
293.3081949136521
 20
16.77451442722998
 30
0.0
 10
293.3081949136521
 20
16.9126627561885
 30
0.0
 10
293.3081949136521
 20
16.9126627561885
 30
0.0
 10
293.3081949136521
 20
20.16104328923057
 30
0.0
 10
293.3081949136521
 20
20.16104328923057
 30
0.0
 10
293.3081949136521
 20
20.29815808954352
 30
0.0
 10
293.1972628390271
 20
20.41012369281414
 30
0.0
 10
293.0594590196171
 20
20.41012369281414
 30
0.0
 10
293.0594590196171
 20
20.41012369281414
 30
0.0
 10
289.8107339770265
 20
20.41012369281414
 30
0.0
 10
289.8107339770265
 20
20.41012369281414
 30
0.0
 10
289.6715521194224
 20
20.41012369281414
 30
0.0
 10
289.5606200447974
 20
20.29815808954352
 30
0.0
 10
289.5606200447974
 20
20.16104328923057
 30
0.0
 10
289.5606200447974
 20
20.16104328923057
 30
0.0
 10
289.5606200447974
 20
16.9126627561885
 30
0.0
 10
289.5606200447974
 20
16.9126627561885
 30
0.0
 10
289.5606200447974
 20
16.77451442722998
 30
0.0
 10
289.6715521194224
 20
16.66254882395936
 30
0.0
 10
289.8107339770265
 20
16.66254882395936
 30
0.0
 10
289.8107339770265
 20
16.66254882395936
 30
0.0
 10
293.0594590196171
 20
16.66254882395936
 30
0.0
 10
293.0594590196171
 20
16.66254882395936
 30
0.0
  0
HATCH
  5
1A2
330
19D
100
AcDbEntity
  8
\U+30D5\U+30A9\U+30FC\U+30DE\U+30C3\U+30C8
 62
    29
100
AcDbHatch
 10
0.0
 20
0.0
 30
0.0
210
0.0
220
0.0
230
1.0
  2
SOLID
 70
     1
 71
     0
 91
        1
 92
        1
 93
        1
 72
     4
 94
        3
 73
     0
 74
     1
 95
       29
 96
       25
 40
0.0
 40
0.0
 40
0.0
 40
0.0
 40
1.0
 40
1.0
 40
1.0
 40
2.0
 40
2.0
 40
2.0
 40
3.0
 40
3.0
 40
3.0
 40
4.0
 40
4.0
 40
4.0
 40
5.0
 40
5.0
 40
5.0
 40
6.0
 40
6.0
 40
6.0
 40
7.0
 40
7.0
 40
7.0
 40
8.0
 40
8.0
 40
8.0
 40
8.0
 10
293.0594590196171
 20
16.66254882395936
 10
293.1972628390271
 20
16.66254882395936
 10
293.3081949136521
 20
16.77451442722998
 10
293.3081949136521
 20
16.9126627561885
 10
293.3081949136521
 20
16.9126627561885
 10
293.3081949136521
 20
20.16104328923057
 10
293.3081949136521
 20
20.16104328923057
 10
293.3081949136521
 20
20.29815808954352
 10
293.1972628390271
 20
20.41012369281414
 10
293.0594590196171
 20
20.41012369281414
 10
293.0594590196171
 20
20.41012369281414
 10
289.8107339770265
 20
20.41012369281414
 10
289.8107339770265
 20
20.41012369281414
 10
289.6715521194224
 20
20.41012369281414
 10
289.5606200447974
 20
20.29815808954352
 10
289.5606200447974
 20
20.16104328923057
 10
289.5606200447974
 20
20.16104328923057
 10
289.5606200447974
 20
16.9126627561885
 10
289.5606200447974
 20
16.9126627561885
 10
289.5606200447974
 20
16.77451442722998
 10
289.6715521194224
 20
16.66254882395936
 10
289.8107339770265
 20
16.66254882395936
 10
289.8107339770265
 20
16.66254882395936
 10
293.0594590196171
 20
16.66254882395936
 10
293.0594590196171
 20
16.66254882395936
 97
        0
 75
     2
 76
     1
 98
        0
  0
POLYLINE
  5
1A3
330
19D
100
AcDbEntity
  8
\U+30D5\U+30A9\U+30FC\U+30DE\U+30C3\U+30C8
370
     0
100
AcDb2dPolyline
 66
     1
 10
0.0
 20
0.0
 30
0.0
  0
VERTEX
  5
1A4
330
1A3
100
AcDbEntity
  8
\U+30D5\U+30A9\U+30FC\U+30DE\U+30C3\U+30C8
370
     0
100
AcDbVertex
100
AcDb2dVertex
 10
291.4340629696762
 20
18.53633625838675
 30
0.0
  0
VERTEX
  5
317
330
1A3
100
AcDbEntity
  8
0
100
AcDbVertex
100
AcDb2dVertex
 10
291.4340629696762
 20
18.53633625838675
 30
0.0
  0
SEQEND
  5
1A5
330
1A3
100
AcDbEntity
  8
\U+30D5\U+30A9\U+30FC\U+30DE\U+30C3\U+30C8
370
     0
  0
ENDBLK
  5
1A0
330
19D
100
AcDbEntity
  8
0
100
AcDbBlockEnd
  0
BLOCK
  5
1B0
330
1AE
100
AcDbEntity
  8
0
100
AcDbBlockBegin
  2
block 17
 70
     0
 71
     0
 10
0.0
 20
0.0
 30
0.0
  3
block 17
  1

  0
SPLINE
  5
1B2
330
1AE
100
AcDbEntity
  8
\U+30D5\U+30A9\U+30FC\U+30DE\U+30C3\U+30C8
370
     0
100
AcDbSpline
210
0.0
220
0.0
230
1.0
 70
    11
 71
     3
 72
    23
 73
    19
 74
     0
 42
0.0000000001
 43
0.0000000001
 40
0.0
 40
0.0
 40
0.0
 40
0.0
 40
1.0
 40
1.0
 40
1.0
 40
2.0
 40
2.0
 40
2.0
 40
3.0
 40
3.0
 40
3.0
 40
4.0
 40
4.0
 40
4.0
 40
5.0
 40
5.0
 40
5.0
 40
6.0
 40
6.0
 40
6.0
 40
6.0
 10
348.1141519312006
 20
30.02572970169496
 30
0.0
 10
348.1141519312006
 20
30.02572970169496
 30
0.0
 10
348.1141519312006
 20
29.2002848234291
 30
0.0
 10
348.1141519312006
 20
29.2002848234291
 30
0.0
 10
348.0135551430313
 20
29.33050943277154
 30
0.0
 10
347.7041855684559
 20
29.74047579551627
 30
0.0
 10
347.5498452907167
 20
30.12012531799081
 30
0.0
 10
347.5498452907167
 20
30.12012531799081
 30
0.0
 10
347.5498452907167
 20
30.38126355577274
 30
0.0
 10
347.5498452907167
 20
30.38126355577274
 30
0.0
 10
347.5498452907167
 20
30.38126355577274
 30
0.0
 10
348.0955484155803
 20
30.38126355577274
 30
0.0
 10
348.0955484155803
 20
30.38126355577274
 30
0.0
 10
348.0955484155803
 20
30.38126355577274
 30
0.0
 10
348.5530570960215
 20
30.02572970169496
 30
0.0
 10
348.5530570960215
 20
30.02572970169496
 30
0.0
 10
348.5530570960215
 20
30.02572970169496
 30
0.0
 10
348.1141519312006
 20
30.02572970169496
 30
0.0
 10
348.1141519312006
 20
30.02572970169496
 30
0.0
  0
SPLINE
  5
1B3
330
1AE
100
AcDbEntity
  8
\U+30D5\U+30A9\U+30FC\U+30DE\U+30C3\U+30C8
370
     0
100
AcDbSpline
210
0.0
220
0.0
230
1.0
 70
    11
 71
     3
 72
   128
 73
   124
 74
     0
 42
0.0000000001
 43
0.0000000001
 40
0.0
 40
0.0
 40
0.0
 40
0.0
 40
1.0
 40
1.0
 40
1.0
 40
2.0
 40
2.0
 40
2.0
 40
3.0
 40
3.0
 40
3.0
 40
4.0
 40
4.0
 40
4.0
 40
5.0
 40
5.0
 40
5.0
 40
6.0
 40
6.0
 40
6.0
 40
7.0
 40
7.0
 40
7.0
 40
8.0
 40
8.0
 40
8.0
 40
9.0
 40
9.0
 40
9.0
 40
10.0
 40
10.0
 40
10.0
 40
11.0
 40
11.0
 40
11.0
 40
12.0
 40
12.0
 40
12.0
 40
13.0
 40
13.0
 40
13.0
 40
14.0
 40
14.0
 40
14.0
 40
15.0
 40
15.0
 40
15.0
 40
16.0
 40
16.0
 40
16.0
 40
17.0
 40
17.0
 40
17.0
 40
18.0
 40
18.0
 40
18.0
 40
19.0
 40
19.0
 40
19.0
 40
20.0
 40
20.0
 40
20.0
 40
21.0
 40
21.0
 40
21.0
 40
22.0
 40
22.0
 40
22.0
 40
23.0
 40
23.0
 40
23.0
 40
24.0
 40
24.0
 40
24.0
 40
25.0
 40
25.0
 40
25.0
 40
26.0
 40
26.0
 40
26.0
 40
27.0
 40
27.0
 40
27.0
 40
28.0
 40
28.0
 40
28.0
 40
29.0
 40
29.0
 40
29.0
 40
30.0
 40
30.0
 40
30.0
 40
31.0
 40
31.0
 40
31.0
 40
32.0
 40
32.0
 40
32.0
 40
33.0
 40
33.0
 40
33.0
 40
34.0
 40
34.0
 40
34.0
 40
35.0
 40
35.0
 40
35.0
 40
36.0
 40
36.0
 40
36.0
 40
37.0
 40
37.0
 40
37.0
 40
38.0
 40
38.0
 40
38.0
 40
39.0
 40
39.0
 40
39.0
 40
40.0
 40
40.0
 40
40.0
 40
41.0
 40
41.0
 40
41.0
 40
41.0
 10
349.1759303597547
 20
31.43201767877394
 30
0.0
 10
349.236564040295
 20
31.69935708842933
 30
0.0
 10
349.2655028423711
 20
31.84680717519802
 30
0.0
 10
349.2951306635443
 20
31.99632431925787
 30
0.0
 10
349.2951306635443
 20
31.99632431925787
 30
0.0
 10
348.4938014536752
 20
32.06729328625401
 30
0.0
 10
348.4938014536752
 20
32.06729328625401
 30
0.0
 10
348.4111191620292
 20
31.45544432807364
 30
0.0
 10
348.2264620440198
 20
31.04616698442596
 30
0.0
 10
348.1141519312006
 20
30.83188204524342
 30
0.0
 10
348.1141519312006
 20
30.83188204524342
 30
0.0
 10
348.1141519312006
 20
31.20050726216515
 30
0.0
 10
348.1141519312006
 20
31.20050726216515
 30
0.0
 10
348.1141519312006
 20
31.20050726216515
 30
0.0
 10
347.5498452907167
 20
31.20050726216515
 30
0.0
 10
347.5498452907167
 20
31.20050726216515
 30
0.0
 10
347.5498452907167
 20
31.20050726216515
 30
0.0
 10
347.5498452907167
 20
32.17960339907316
 30
0.0
 10
347.5498452907167
 20
32.17960339907316
 30
0.0
 10
347.5498452907167
 20
32.17960339907316
 30
0.0
 10
346.7312906034214
 20
32.17960339907316
 30
0.0
 10
346.7312906034214
 20
32.17960339907316
 30
0.0
 10
346.7312906034214
 20
32.17960339907316
 30
0.0
 10
346.7312906034214
 20
31.20050726216515
 30
0.0
 10
346.7312906034214
 20
31.20050726216515
 30
0.0
 10
346.7312906034214
 20
31.20050726216515
 30
0.0
 10
346.0064425133248
 20
31.20050726216515
 30
0.0
 10
346.0064425133248
 20
31.20050726216515
 30
0.0
 10
346.0064425133248
 20
31.20050726216515
 30
0.0
 10
346.0064425133248
 20
30.38126355577274
 30
0.0
 10
346.0064425133248
 20
30.38126355577274
 30
0.0
 10
346.0064425133248
 20
30.38126355577274
 30
0.0
 10
346.6658337892016
 20
30.38126355577274
 30
0.0
 10
346.6658337892016
 20
30.38126355577274
 30
0.0
 10
346.3984943795462
 20
29.44970973656119
 30
0.0
 10
346.1373561417643
 20
29.0583468894368
 30
0.0
 10
345.8941324005057
 20
28.75517848673482
 30
0.0
 10
345.8941324005057
 20
28.75517848673482
 30
0.0
 10
346.1731851348109
 20
27.58660209813807
 30
0.0
 10
346.1731851348109
 20
27.58660209813807
 30
0.0
 10
346.3158120879002
 20
27.79330782725306
 30
0.0
 10
346.5349201607621
 20
28.1316162039046
 30
0.0
 10
346.7312906034214
 20
28.80823295720766
 30
0.0
 10
346.7312906034214
 20
28.80823295720766
 30
0.0
 10
346.7312906034214
 20
26.55858560533952
 30
0.0
 10
346.7312906034214
 20
26.55858560533952
 30
0.0
 10
346.7312906034214
 20
26.55858560533952
 30
0.0
 10
347.5498452907167
 20
26.55858560533952
 30
0.0
 10
347.5498452907167
 20
26.55858560533952
 30
0.0
 10
347.5498452907167
 20
26.55858560533952
 30
0.0
 10
347.5498452907167
 20
29.03423122104006
 30
0.0
 10
347.5498452907167
 20
29.03423122104006
 30
0.0
 10
347.609100933063
 20
28.79169649887847
 30
0.0
 10
347.6394177733332
 20
28.66629502321537
 30
0.0
 10
347.8881536673683
 20
28.20327418999779
 30
0.0
 10
347.8881536673683
 20
28.20327418999779
 30
0.0
 10
348.3994058373793
 20
28.87989094330086
 30
0.0
 10
348.3994058373793
 20
28.87989094330086
 30
0.0
 10
348.3098333547628
 20
28.96257323494686
 30
0.0
 10
348.2450655596401
 20
29.02871906826365
 30
0.0
 10
348.1258652558505
 20
29.17616915503235
 30
0.0
 10
348.1258652558505
 20
29.17616915503235
 30
0.0
 10
349.1759303597547
 20
29.17616915503235
 30
0.0
 10
349.1759303597547
 20
29.17616915503235
 30
0.0
 10
348.6901718963344
 20
28.29146863442019
 30
0.0
 10
348.0845241100275
 20
27.88219129077251
 30
0.0
 10
347.8406113496718
 20
27.72785101303332
 30
0.0
 10
347.8406113496718
 20
27.72785101303332
 30
0.0
 10
348.3628878252357
 20
26.89138182921466
 30
0.0
 10
348.3628878252357
 20
26.89138182921466
 30
0.0
 10
348.8376219831031
 20
27.32477484125909
 30
0.0
 10
349.2124483718983
 20
27.82913682029966
 30
0.0
 10
349.484610915233
 20
28.41687011008328
 30
0.0
 10
349.484610915233
 20
28.41687011008328
 30
0.0
 10
349.484610915233
 20
26.55858560533952
 30
0.0
 10
349.484610915233
 20
26.55858560533952
 30
0.0
 10
349.484610915233
 20
26.55858560533952
 30
0.0
 10
350.3334824427986
 20
26.55858560533952
 30
0.0
 10
350.3334824427986
 20
26.55858560533952
 30
0.0
 10
350.3334824427986
 20
26.55858560533952
 30
0.0
 10
350.3334824427986
 20
28.28113334796444
 30
0.0
 10
350.3334824427986
 20
28.28113334796444
 30
0.0
 10
350.5829073559307
 20
27.75265570052711
 30
0.0
 10
350.9219047516793
 20
27.26483017981574
 30
0.0
 10
351.3849255848968
 20
26.90240613476746
 30
0.0
 10
351.3849255848968
 20
26.90240613476746
 30
0.0
 10
351.7342582671012
 20
27.90630695916926
 30
0.0
 10
351.7342582671012
 20
27.90630695916926
 30
0.0
 10
351.4731200293193
 20
28.08407388620815
 30
0.0
 10
351.0100991961016
 20
28.41687011008328
 30
0.0
 10
350.5773952031543
 20
29.17616915503235
 30
0.0
 10
350.5773952031543
 20
29.17616915503235
 30
0.0
 10
351.6274603070584
 20
29.17616915503235
 30
0.0
 10
351.6274603070584
 20
29.17616915503235
 30
0.0
 10
351.6274603070584
 20
29.17616915503235
 30
0.0
 10
351.6274603070584
 20
30.02572970169496
 30
0.0
 10
351.6274603070584
 20
30.02572970169496
 30
0.0
 10
351.6274603070584
 20
30.02572970169496
 30
0.0
 10
350.3334824427986
 20
30.02572970169496
 30
0.0
 10
350.3334824427986
 20
30.02572970169496
 30
0.0
 10
350.3334824427986
 20
30.02572970169496
 30
0.0
 10
350.3334824427986
 20
30.58934732308183
 30
0.0
 10
350.3334824427986
 20
30.58934732308183
 30
0.0
 10
350.3334824427986
 20
30.58934732308183
 30
0.0
 10
351.538576843539
 20
30.58934732308183
 30
0.0
 10
351.538576843539
 20
30.58934732308183
 30
0.0
 10
351.538576843539
 20
30.58934732308183
 30
0.0
 10
351.538576843539
 20
31.43201767877394
 30
0.0
 10
351.538576843539
 20
31.43201767877394
 30
0.0
 10
351.538576843539
 20
31.43201767877394
 30
0.0
 10
350.3334824427986
 20
31.43201767877394
 30
0.0
 10
350.3334824427986
 20
31.43201767877394
 30
0.0
 10
350.3334824427986
 20
31.43201767877394
 30
0.0
 10
350.3334824427986
 20
32.17960339907316
 30
0.0
 10
350.3334824427986
 20
32.17960339907316
 30
0.0
 10
350.3334824427986
 20
32.17960339907316
 30
0.0
 10
349.484610915233
 20
32.17960339907316
 30
0.0
 10
349.484610915233
 20
32.17960339907316
 30
0.0
 10
349.484610915233
 20
32.17960339907316
 30
0.0
 10
349.484610915233
 20
31.43201767877394
 30
0.0
 10
349.484610915233
 20
31.43201767877394
 30
0.0
 10
349.484610915233
 20
31.43201767877394
 30
0.0
 10
349.1759303597547
 20
31.43201767877394
 30
0.0
 10
349.1759303597547
 20
31.43201767877394
 30
0.0
  0
SPLINE
  5
1B4
330
1AE
100
AcDbEntity
  8
\U+30D5\U+30A9\U+30FC\U+30DE\U+30C3\U+30C8
370
     0
100
AcDbSpline
210
0.0
220
0.0
230
1.0
 70
    11
 71
     3
 72
    17
 73
    13
 74
     0
 42
0.0000000001
 43
0.0000000001
 40
0.0
 40
0.0
 40
0.0
 40
0.0
 40
1.0
 40
1.0
 40
1.0
 40
2.0
 40
2.0
 40
2.0
 40
3.0
 40
3.0
 40
3.0
 40
4.0
 40
4.0
 40
4.0
 40
4.0
 10
348.6240260630176
 20
30.02572970169496
 30
0.0
 10
348.7135985456341
 20
30.1559543110374
 30
0.0
 10
348.8203965056769
 20
30.34612358182319
 30
0.0
 10
348.9216823129432
 20
30.58934732308183
 30
0.0
 10
348.9216823129432
 20
30.58934732308183
 30
0.0
 10
349.484610915233
 20
30.58934732308183
 30
0.0
 10
349.484610915233
 20
30.58934732308183
 30
0.0
 10
349.484610915233
 20
30.58934732308183
 30
0.0
 10
349.484610915233
 20
30.02572970169496
 30
0.0
 10
349.484610915233
 20
30.02572970169496
 30
0.0
 10
349.484610915233
 20
30.02572970169496
 30
0.0
 10
348.6240260630176
 20
30.02572970169496
 30
0.0
 10
348.6240260630176
 20
30.02572970169496
 30
0.0
  0
HATCH
  5
1B5
330
1AE
100
AcDbEntity
  8
\U+30D5\U+30A9\U+30FC\U+30DE\U+30C3\U+30C8
 62
    29
100
AcDbHatch
 10
0.0
 20
0.0
 30
0.0
210
0.0
220
0.0
230
1.0
  2
SOLID
 70
     1
 71
     0
 91
        3
 92
        1
 93
        1
 72
     4
 94
        3
 73
     0
 74
     1
 95
       17
 96
       13
 40
0.0
 40
0.0
 40
0.0
 40
0.0
 40
1.0
 40
1.0
 40
1.0
 40
2.0
 40
2.0
 40
2.0
 40
3.0
 40
3.0
 40
3.0
 40
4.0
 40
4.0
 40
4.0
 40
4.0
 10
348.6240260630176
 20
30.02572970169496
 10
348.7135985456341
 20
30.1559543110374
 10
348.8203965056769
 20
30.34612358182319
 10
348.9216823129432
 20
30.58934732308183
 10
348.9216823129432
 20
30.58934732308183
 10
349.484610915233
 20
30.58934732308183
 10
349.484610915233
 20
30.58934732308183
 10
349.484610915233
 20
30.58934732308183
 10
349.484610915233
 20
30.02572970169496
 10
349.484610915233
 20
30.02572970169496
 10
349.484610915233
 20
30.02572970169496
 10
348.6240260630176
 20
30.02572970169496
 10
348.6240260630176
 20
30.02572970169496
 97
        0
 92
        1
 93
        2
 72
     4
 94
        3
 73
     0
 74
     0
 95
       23
 96
       19
 40
0.0
 40
0.0
 40
0.0
 40
0.0
 40
0.3527777776895833
 40
0.3527777776895833
 40
0.3527777776895833
 40
0.7055555553791667
 40
0.7055555553791667
 40
0.7055555553791667
 40
1.05833333306875
 40
1.05833333306875
 40
1.05833333306875
 40
1.411111110758333
 40
1.411111110758333
 40
1.411111110758333
 40
1.763888888447917
 40
1.763888888447917
 40
1.763888888447917
 40
2.1166666661375
 40
2.1166666661375
 40
2.1166666661375
 40
2.1166666661375
 10
348.1141519312006
 20
30.02572970169496
 10
348.1141519312006
 20
30.02572970169496
 10
348.1141519312006
 20
29.2002848234291
 10
348.1141519312006
 20
29.2002848234291
 10
348.0135551430313
 20
29.33050943277154
 10
347.7041855684559
 20
29.74047579551627
 10
347.5498452907167
 20
30.12012531799081
 10
347.5498452907167
 20
30.12012531799081
 10
347.5498452907167
 20
30.38126355577274
 10
347.5498452907167
 20
30.38126355577274
 10
347.5498452907167
 20
30.38126355577274
 10
348.0955484155803
 20
30.38126355577274
 10
348.0955484155803
 20
30.38126355577274
 10
348.0955484155803
 20
30.38126355577274
 10
348.5530570960215
 20
30.02572970169496
 10
348.5530570960215
 20
30.02572970169496
 10
348.5530570960215
 20
30.02572970169496
 10
348.1141519312006
 20
30.02572970169496
 10
348.1141519312006
 20
30.02572970169496
 72
     1
 10
348.1141519312006
 20
30.02572970169496
 11
348.1141519312006
 21
30.02572970169496
 97
        0
 92
        1
 93
        2
 72
     4
 94
        3
 73
     0
 74
     0
 95
      128
 96
      124
 40
0.0
 40
0.0
 40
0.0
 40
0.0
 40
0.3527777776895833
 40
0.3527777776895833
 40
0.3527777776895833
 40
0.7055555553791667
 40
0.7055555553791667
 40
0.7055555553791667
 40
1.05833333306875
 40
1.05833333306875
 40
1.05833333306875
 40
1.411111110758333
 40
1.411111110758333
 40
1.411111110758333
 40
1.763888888447917
 40
1.763888888447917
 40
1.763888888447917
 40
2.1166666661375
 40
2.1166666661375
 40
2.1166666661375
 40
2.469444443827083
 40
2.469444443827083
 40
2.469444443827083
 40
2.822222221516667
 40
2.822222221516667
 40
2.822222221516667
 40
3.17499999920625
 40
3.17499999920625
 40
3.17499999920625
 40
3.527777776895833
 40
3.527777776895833
 40
3.527777776895833
 40
3.880555554585417
 40
3.880555554585417
 40
3.880555554585417
 40
4.233333332275
 40
4.233333332275
 40
4.233333332275
 40
4.586111109964584
 40
4.586111109964584
 40
4.586111109964584
 40
4.938888887654167
 40
4.938888887654167
 40
4.938888887654167
 40
5.29166666534375
 40
5.29166666534375
 40
5.29166666534375
 40
5.644444443033334
 40
5.644444443033334
 40
5.644444443033334
 40
5.997222220722917
 40
5.997222220722917
 40
5.997222220722917
 40
6.349999998412501
 40
6.349999998412501
 40
6.349999998412501
 40
6.702777776102083
 40
6.702777776102083
 40
6.702777776102083
 40
7.055555553791667
 40
7.055555553791667
 40
7.055555553791667
 40
7.40833333148125
 40
7.40833333148125
 40
7.40833333148125
 40
7.761111109170834
 40
7.761111109170834
 40
7.761111109170834
 40
8.113888886860417
 40
8.113888886860417
 40
8.113888886860417
 40
8.46666666455
 40
8.46666666455
 40
8.46666666455
 40
8.819444442239584
 40
8.819444442239584
 40
8.819444442239584
 40
9.172222219929168
 40
9.172222219929168
 40
9.172222219929168
 40
9.52499999761875
 40
9.52499999761875
 40
9.52499999761875
 40
9.877777775308333
 40
9.877777775308333
 40
9.877777775308333
 40
10.23055555299792
 40
10.23055555299792
 40
10.23055555299792
 40
10.5833333306875
 40
10.5833333306875
 40
10.5833333306875
 40
10.93611110837708
 40
10.93611110837708
 40
10.93611110837708
 40
11.28888888606667
 40
11.28888888606667
 40
11.28888888606667
 40
11.64166666375625
 40
11.64166666375625
 40
11.64166666375625
 40
11.99444444144583
 40
11.99444444144583
 40
11.99444444144583
 40
12.34722221913542
 40
12.34722221913542
 40
12.34722221913542
 40
12.699999996825
 40
12.699999996825
 40
12.699999996825
 40
13.05277777451458
 40
13.05277777451458
 40
13.05277777451458
 40
13.40555555220417
 40
13.40555555220417
 40
13.40555555220417
 40
13.75833332989375
 40
13.75833332989375
 40
13.75833332989375
 40
14.11111110758333
 40
14.11111110758333
 40
14.11111110758333
 40
14.46388888527292
 40
14.46388888527292
 40
14.46388888527292
 40
14.46388888527292
 10
349.1759303597547
 20
31.43201767877394
 10
349.236564040295
 20
31.69935708842933
 10
349.2655028423711
 20
31.84680717519802
 10
349.2951306635443
 20
31.99632431925787
 10
349.2951306635443
 20
31.99632431925787
 10
348.4938014536752
 20
32.06729328625401
 10
348.4938014536752
 20
32.06729328625401
 10
348.4111191620292
 20
31.45544432807364
 10
348.2264620440198
 20
31.04616698442596
 10
348.1141519312006
 20
30.83188204524342
 10
348.1141519312006
 20
30.83188204524342
 10
348.1141519312006
 20
31.20050726216515
 10
348.1141519312006
 20
31.20050726216515
 10
348.1141519312006
 20
31.20050726216515
 10
347.5498452907167
 20
31.20050726216515
 10
347.5498452907167
 20
31.20050726216515
 10
347.5498452907167
 20
31.20050726216515
 10
347.5498452907167
 20
32.17960339907316
 10
347.5498452907167
 20
32.17960339907316
 10
347.5498452907167
 20
32.17960339907316
 10
346.7312906034214
 20
32.17960339907316
 10
346.7312906034214
 20
32.17960339907316
 10
346.7312906034214
 20
32.17960339907316
 10
346.7312906034214
 20
31.20050726216515
 10
346.7312906034214
 20
31.20050726216515
 10
346.7312906034214
 20
31.20050726216515
 10
346.0064425133248
 20
31.20050726216515
 10
346.0064425133248
 20
31.20050726216515
 10
346.0064425133248
 20
31.20050726216515
 10
346.0064425133248
 20
30.38126355577274
 10
346.0064425133248
 20
30.38126355577274
 10
346.0064425133248
 20
30.38126355577274
 10
346.6658337892016
 20
30.38126355577274
 10
346.6658337892016
 20
30.38126355577274
 10
346.3984943795462
 20
29.44970973656119
 10
346.1373561417643
 20
29.0583468894368
 10
345.8941324005057
 20
28.75517848673482
 10
345.8941324005057
 20
28.75517848673482
 10
346.1731851348109
 20
27.58660209813807
 10
346.1731851348109
 20
27.58660209813807
 10
346.3158120879002
 20
27.79330782725306
 10
346.5349201607621
 20
28.1316162039046
 10
346.7312906034214
 20
28.80823295720766
 10
346.7312906034214
 20
28.80823295720766
 10
346.7312906034214
 20
26.55858560533952
 10
346.7312906034214
 20
26.55858560533952
 10
346.7312906034214
 20
26.55858560533952
 10
347.5498452907167
 20
26.55858560533952
 10
347.5498452907167
 20
26.55858560533952
 10
347.5498452907167
 20
26.55858560533952
 10
347.5498452907167
 20
29.03423122104006
 10
347.5498452907167
 20
29.03423122104006
 10
347.609100933063
 20
28.79169649887847
 10
347.6394177733332
 20
28.66629502321537
 10
347.8881536673683
 20
28.20327418999779
 10
347.8881536673683
 20
28.20327418999779
 10
348.3994058373793
 20
28.87989094330086
 10
348.3994058373793
 20
28.87989094330086
 10
348.3098333547628
 20
28.96257323494686
 10
348.2450655596401
 20
29.02871906826365
 10
348.1258652558505
 20
29.17616915503235
 10
348.1258652558505
 20
29.17616915503235
 10
349.1759303597547
 20
29.17616915503235
 10
349.1759303597547
 20
29.17616915503235
 10
348.6901718963344
 20
28.29146863442019
 10
348.0845241100275
 20
27.88219129077251
 10
347.8406113496718
 20
27.72785101303332
 10
347.8406113496718
 20
27.72785101303332
 10
348.3628878252357
 20
26.89138182921466
 10
348.3628878252357
 20
26.89138182921466
 10
348.8376219831031
 20
27.32477484125909
 10
349.2124483718983
 20
27.82913682029966
 10
349.484610915233
 20
28.41687011008328
 10
349.484610915233
 20
28.41687011008328
 10
349.484610915233
 20
26.55858560533952
 10
349.484610915233
 20
26.55858560533952
 10
349.484610915233
 20
26.55858560533952
 10
350.3334824427986
 20
26.55858560533952
 10
350.3334824427986
 20
26.55858560533952
 10
350.3334824427986
 20
26.55858560533952
 10
350.3334824427986
 20
28.28113334796444
 10
350.3334824427986
 20
28.28113334796444
 10
350.5829073559307
 20
27.75265570052711
 10
350.9219047516793
 20
27.26483017981574
 10
351.3849255848968
 20
26.90240613476746
 10
351.3849255848968
 20
26.90240613476746
 10
351.7342582671012
 20
27.90630695916926
 10
351.7342582671012
 20
27.90630695916926
 10
351.4731200293193
 20
28.08407388620815
 10
351.0100991961016
 20
28.41687011008328
 10
350.5773952031543
 20
29.17616915503235
 10
350.5773952031543
 20
29.17616915503235
 10
351.6274603070584
 20
29.17616915503235
 10
351.6274603070584
 20
29.17616915503235
 10
351.6274603070584
 20
29.17616915503235
 10
351.6274603070584
 20
30.02572970169496
 10
351.6274603070584
 20
30.02572970169496
 10
351.6274603070584
 20
30.02572970169496
 10
350.3334824427986
 20
30.02572970169496
 10
350.3334824427986
 20
30.02572970169496
 10
350.3334824427986
 20
30.02572970169496
 10
350.3334824427986
 20
30.58934732308183
 10
350.3334824427986
 20
30.58934732308183
 10
350.3334824427986
 20
30.58934732308183
 10
351.538576843539
 20
30.58934732308183
 10
351.538576843539
 20
30.58934732308183
 10
351.538576843539
 20
30.58934732308183
 10
351.538576843539
 20
31.43201767877394
 10
351.538576843539
 20
31.43201767877394
 10
351.538576843539
 20
31.43201767877394
 10
350.3334824427986
 20
31.43201767877394
 10
350.3334824427986
 20
31.43201767877394
 10
350.3334824427986
 20
31.43201767877394
 10
350.3334824427986
 20
32.17960339907316
 10
350.3334824427986
 20
32.17960339907316
 10
350.3334824427986
 20
32.17960339907316
 10
349.484610915233
 20
32.17960339907316
 10
349.484610915233
 20
32.17960339907316
 10
349.484610915233
 20
32.17960339907316
 10
349.484610915233
 20
31.43201767877394
 10
349.484610915233
 20
31.43201767877394
 10
349.484610915233
 20
31.43201767877394
 10
349.1759303597547
 20
31.43201767877394
 10
349.1759303597547
 20
31.43201767877394
 72
     1
 10
349.1759303597547
 20
31.43201767877394
 11
349.1759303597547
 21
31.43201767877394
 97
        0
 75
     2
 76
     1
 98
        0
  0
SPLINE
  5
1B6
330
1AE
100
AcDbEntity
  8
\U+30D5\U+30A9\U+30FC\U+30DE\U+30C3\U+30C8
370
     0
100
AcDbSpline
210
0.0
220
0.0
230
1.0
 70
    11
 71
     3
 72
    71
 73
    67
 74
     0
 42
0.0000000001
 43
0.0000000001
 40
0.0
 40
0.0
 40
0.0
 40
0.0
 40
1.0
 40
1.0
 40
1.0
 40
2.0
 40
2.0
 40
2.0
 40
3.0
 40
3.0
 40
3.0
 40
4.0
 40
4.0
 40
4.0
 40
5.0
 40
5.0
 40
5.0
 40
6.0
 40
6.0
 40
6.0
 40
7.0
 40
7.0
 40
7.0
 40
8.0
 40
8.0
 40
8.0
 40
9.0
 40
9.0
 40
9.0
 40
10.0
 40
10.0
 40
10.0
 40
11.0
 40
11.0
 40
11.0
 40
12.0
 40
12.0
 40
12.0
 40
13.0
 40
13.0
 40
13.0
 40
14.0
 40
14.0
 40
14.0
 40
15.0
 40
15.0
 40
15.0
 40
16.0
 40
16.0
 40
16.0
 40
17.0
 40
17.0
 40
17.0
 40
18.0
 40
18.0
 40
18.0
 40
19.0
 40
19.0
 40
19.0
 40
20.0
 40
20.0
 40
20.0
 40
21.0
 40
21.0
 40
21.0
 40
22.0
 40
22.0
 40
22.0
 40
22.0
 10
356.999742206757
 20
31.36724988365124
 30
0.0
 10
356.999742206757
 20
31.36724988365124
 30
0.0
 10
357.5571586562705
 20
31.36724988365124
 30
0.0
 10
357.5571586562705
 20
31.36724988365124
 30
0.0
 10
357.5571586562705
 20
31.36724988365124
 30
0.0
 10
357.5571586562705
 20
30.50597601233878
 30
0.0
 10
357.5571586562705
 20
30.50597601233878
 30
0.0
 10
357.5571586562705
 20
30.50597601233878
 30
0.0
 10
355.9069579188358
 20
30.50597601233878
 30
0.0
 10
355.9069579188358
 20
30.50597601233878
 30
0.0
 10
355.9434759309794
 20
29.75770127294252
 30
0.0
 10
356.0261582226254
 20
29.01011555264331
 30
0.0
 10
356.2631807920106
 20
28.29835882539069
 30
0.0
 10
356.3231254534539
 20
28.1205918983518
 30
0.0
 10
356.4822888648725
 20
27.69891221095722
 30
0.0
 10
356.655232658232
 20
27.69891221095722
 30
0.0
 10
356.8212862606211
 20
27.69891221095722
 30
0.0
 10
357.1409911216523
 20
28.1081895546049
 30
0.0
 10
357.2787949410622
 20
28.50575357360273
 30
0.0
 10
357.2787949410622
 20
28.50575357360273
 30
0.0
 10
357.6584444635368
 20
27.55628525786787
 30
0.0
 10
357.6584444635368
 20
27.55628525786787
 30
0.0
 10
357.5337320069708
 20
27.21177570934289
 30
0.0
 10
357.2305636042688
 20
26.54756129978672
 30
0.0
 10
356.6793483266288
 20
26.54756129978672
 30
0.0
 10
356.4002955923236
 20
26.54756129978672
 30
0.0
 10
356.1150416861449
 20
26.70121255842886
 30
0.0
 10
355.9545002365322
 20
26.88035752366186
 30
0.0
 10
355.0939153843168
 20
27.82913682029966
 30
0.0
 10
355.0346597419705
 20
29.55099554382753
 30
0.0
 10
354.9995197680209
 20
30.50597601233878
 30
0.0
 10
354.9995197680209
 20
30.50597601233878
 30
0.0
 10
351.9602565309336
 20
30.50597601233878
 30
0.0
 10
351.9602565309336
 20
30.50597601233878
 30
0.0
 10
351.9602565309336
 20
30.50597601233878
 30
0.0
 10
351.9602565309336
 20
31.36724988365124
 30
0.0
 10
351.9602565309336
 20
31.36724988365124
 30
0.0
 10
351.9602565309336
 20
31.36724988365124
 30
0.0
 10
354.9698919468478
 20
31.36724988365124
 30
0.0
 10
354.9698919468478
 20
31.36724988365124
 30
0.0
 10
354.9636907749744
 20
31.45544432807364
 30
0.0
 10
354.9519774503245
 20
31.88952635921512
 30
0.0
 10
354.9457762784511
 20
31.98392197551097
 30
0.0
 10
354.9457762784511
 20
32.03766546508086
 30
0.0
 10
354.9457762784511
 20
32.08451876368026
 30
0.0
 10
354.9395751065776
 20
32.19131672372301
 30
0.0
 10
354.9395751065776
 20
32.19131672372301
 30
0.0
 10
355.8897324414095
 20
32.19131672372301
 30
0.0
 10
355.8897324414095
 20
32.19131672372301
 30
0.0
 10
355.8835312695361
 20
31.72347275682608
 30
0.0
 10
355.8835312695361
 20
31.58635795651313
 30
0.0
 10
355.8897324414095
 20
31.36724988365124
 30
0.0
 10
355.8897324414095
 20
31.36724988365124
 30
0.0
 10
356.4712645593197
 20
31.36724988365124
 30
0.0
 10
356.4712645593197
 20
31.36724988365124
 30
0.0
 10
356.3169242815805
 20
31.59255912838658
 30
0.0
 10
356.186010653141
 20
31.78272839917237
 30
0.0
 10
356.0378715472752
 20
31.91846516129122
 30
0.0
 10
356.0378715472752
 20
31.91846516129122
 30
0.0
 10
356.8040607831948
 20
32.22783473586665
 30
0.0
 10
356.8040607831948
 20
32.22783473586665
 30
0.0
 10
356.8922552276172
 20
32.16168890254986
 30
0.0
 10
356.9694253664868
 20
32.10794541297996
 30
0.0
 10
357.3800807483286
 20
31.53330348604029
 30
0.0
 10
357.3800807483286
 20
31.53330348604029
 30
0.0
 10
356.999742206757
 20
31.36724988365124
 30
0.0
 10
356.999742206757
 20
31.36724988365124
 30
0.0
  0
SPLINE
  5
1B7
330
1AE
100
AcDbEntity
  8
\U+30D5\U+30A9\U+30FC\U+30DE\U+30C3\U+30C8
370
     0
100
AcDbSpline
210
0.0
220
0.0
230
1.0
 70
    11
 71
     3
 72
    44
 73
    40
 74
     0
 42
0.0000000001
 43
0.0000000001
 40
0.0
 40
0.0
 40
0.0
 40
0.0
 40
1.0
 40
1.0
 40
1.0
 40
2.0
 40
2.0
 40
2.0
 40
3.0
 40
3.0
 40
3.0
 40
4.0
 40
4.0
 40
4.0
 40
5.0
 40
5.0
 40
5.0
 40
6.0
 40
6.0
 40
6.0
 40
7.0
 40
7.0
 40
7.0
 40
8.0
 40
8.0
 40
8.0
 40
9.0
 40
9.0
 40
9.0
 40
10.0
 40
10.0
 40
10.0
 40
11.0
 40
11.0
 40
11.0
 40
12.0
 40
12.0
 40
12.0
 40
13.0
 40
13.0
 40
13.0
 40
13.0
 10
351.9072020604607
 20
27.62105305299057
 30
0.0
 10
352.0195121732798
 20
27.62725422486402
 30
0.0
 10
352.0787678156262
 20
27.62725422486402
 30
0.0
 10
352.1559379544958
 20
27.63345539673747
 30
0.0
 10
352.2806504110618
 20
27.63965656861092
 30
0.0
 10
352.8800970254953
 20
27.69271103908377
 30
0.0
 10
353.0172118258082
 20
27.69891221095722
 30
0.0
 10
353.0172118258082
 20
27.69891221095722
 30
0.0
 10
353.0172118258082
 20
29.1286268373359
 30
0.0
 10
353.0172118258082
 20
29.1286268373359
 30
0.0
 10
353.0172118258082
 20
29.1286268373359
 30
0.0
 10
352.0725666437527
 20
29.1286268373359
 30
0.0
 10
352.0725666437527
 20
29.1286268373359
 30
0.0
 10
352.0725666437527
 20
29.1286268373359
 30
0.0
 10
352.0725666437527
 20
29.98921168955131
 30
0.0
 10
352.0725666437527
 20
29.98921168955131
 30
0.0
 10
352.0725666437527
 20
29.98921168955131
 30
0.0
 10
354.8506916430582
 20
29.98921168955131
 30
0.0
 10
354.8506916430582
 20
29.98921168955131
 30
0.0
 10
354.8506916430582
 20
29.98921168955131
 30
0.0
 10
354.8506916430582
 20
29.1286268373359
 30
0.0
 10
354.8506916430582
 20
29.1286268373359
 30
0.0
 10
354.8506916430582
 20
29.1286268373359
 30
0.0
 10
353.924649976623
 20
29.1286268373359
 30
0.0
 10
353.924649976623
 20
29.1286268373359
 30
0.0
 10
353.924649976623
 20
29.1286268373359
 30
0.0
 10
353.924649976623
 20
27.77608234982682
 30
0.0
 10
353.924649976623
 20
27.77608234982682
 30
0.0
 10
354.5950655580526
 20
27.84085014494951
 30
0.0
 10
354.8389783184084
 20
27.88839246264596
 30
0.0
 10
355.0587754103673
 20
27.92973360846896
 30
0.0
 10
355.0587754103673
 20
27.92973360846896
 30
0.0
 10
355.0697997159201
 20
27.08706325277685
 30
0.0
 10
355.0697997159201
 20
27.08706325277685
 30
0.0
 10
354.393871981714
 20
26.9444362996875
 30
0.0
 10
354.0197346120159
 20
26.90240613476746
 30
0.0
 10
352.00779884863
 20
26.68949923377901
 30
0.0
 10
352.00779884863
 20
26.68949923377901
 30
0.0
 10
351.9072020604607
 20
27.62105305299057
 30
0.0
 10
351.9072020604607
 20
27.62105305299057
 30
0.0
  0
HATCH
  5
1B8
330
1AE
100
AcDbEntity
  8
\U+30D5\U+30A9\U+30FC\U+30DE\U+30C3\U+30C8
 62
    29
100
AcDbHatch
 10
0.0
 20
0.0
 30
0.0
210
0.0
220
0.0
230
1.0
  2
SOLID
 70
     1
 71
     0
 91
        2
 92
        1
 93
        1
 72
     4
 94
        3
 73
     0
 74
     1
 95
       44
 96
       40
 40
0.0
 40
0.0
 40
0.0
 40
0.0
 40
1.0
 40
1.0
 40
1.0
 40
2.0
 40
2.0
 40
2.0
 40
3.0
 40
3.0
 40
3.0
 40
4.0
 40
4.0
 40
4.0
 40
5.0
 40
5.0
 40
5.0
 40
6.0
 40
6.0
 40
6.0
 40
7.0
 40
7.0
 40
7.0
 40
8.0
 40
8.0
 40
8.0
 40
9.0
 40
9.0
 40
9.0
 40
10.0
 40
10.0
 40
10.0
 40
11.0
 40
11.0
 40
11.0
 40
12.0
 40
12.0
 40
12.0
 40
13.0
 40
13.0
 40
13.0
 40
13.0
 10
351.9072020604607
 20
27.62105305299057
 10
352.0195121732798
 20
27.62725422486402
 10
352.0787678156262
 20
27.62725422486402
 10
352.1559379544958
 20
27.63345539673747
 10
352.2806504110618
 20
27.63965656861092
 10
352.8800970254953
 20
27.69271103908377
 10
353.0172118258082
 20
27.69891221095722
 10
353.0172118258082
 20
27.69891221095722
 10
353.0172118258082
 20
29.1286268373359
 10
353.0172118258082
 20
29.1286268373359
 10
353.0172118258082
 20
29.1286268373359
 10
352.0725666437527
 20
29.1286268373359
 10
352.0725666437527
 20
29.1286268373359
 10
352.0725666437527
 20
29.1286268373359
 10
352.0725666437527
 20
29.98921168955131
 10
352.0725666437527
 20
29.98921168955131
 10
352.0725666437527
 20
29.98921168955131
 10
354.8506916430582
 20
29.98921168955131
 10
354.8506916430582
 20
29.98921168955131
 10
354.8506916430582
 20
29.98921168955131
 10
354.8506916430582
 20
29.1286268373359
 10
354.8506916430582
 20
29.1286268373359
 10
354.8506916430582
 20
29.1286268373359
 10
353.924649976623
 20
29.1286268373359
 10
353.924649976623
 20
29.1286268373359
 10
353.924649976623
 20
29.1286268373359
 10
353.924649976623
 20
27.77608234982682
 10
353.924649976623
 20
27.77608234982682
 10
354.5950655580526
 20
27.84085014494951
 10
354.8389783184084
 20
27.88839246264596
 10
355.0587754103673
 20
27.92973360846896
 10
355.0587754103673
 20
27.92973360846896
 10
355.0697997159201
 20
27.08706325277685
 10
355.0697997159201
 20
27.08706325277685
 10
354.393871981714
 20
26.9444362996875
 10
354.0197346120159
 20
26.90240613476746
 10
352.00779884863
 20
26.68949923377901
 10
352.00779884863
 20
26.68949923377901
 10
351.9072020604607
 20
27.62105305299057
 10
351.9072020604607
 20
27.62105305299057
 97
        0
 92
        1
 93
        2
 72
     4
 94
        3
 73
     0
 74
     0
 95
       71
 96
       67
 40
0.0
 40
0.0
 40
0.0
 40
0.0
 40
0.3527777776895833
 40
0.3527777776895833
 40
0.3527777776895833
 40
0.7055555553791667
 40
0.7055555553791667
 40
0.7055555553791667
 40
1.05833333306875
 40
1.05833333306875
 40
1.05833333306875
 40
1.411111110758333
 40
1.411111110758333
 40
1.411111110758333
 40
1.763888888447917
 40
1.763888888447917
 40
1.763888888447917
 40
2.1166666661375
 40
2.1166666661375
 40
2.1166666661375
 40
2.469444443827083
 40
2.469444443827083
 40
2.469444443827083
 40
2.822222221516667
 40
2.822222221516667
 40
2.822222221516667
 40
3.17499999920625
 40
3.17499999920625
 40
3.17499999920625
 40
3.527777776895833
 40
3.527777776895833
 40
3.527777776895833
 40
3.880555554585417
 40
3.880555554585417
 40
3.880555554585417
 40
4.233333332275
 40
4.233333332275
 40
4.233333332275
 40
4.586111109964584
 40
4.586111109964584
 40
4.586111109964584
 40
4.938888887654167
 40
4.938888887654167
 40
4.938888887654167
 40
5.29166666534375
 40
5.29166666534375
 40
5.29166666534375
 40
5.644444443033334
 40
5.644444443033334
 40
5.644444443033334
 40
5.997222220722917
 40
5.997222220722917
 40
5.997222220722917
 40
6.349999998412501
 40
6.349999998412501
 40
6.349999998412501
 40
6.702777776102083
 40
6.702777776102083
 40
6.702777776102083
 40
7.055555553791667
 40
7.055555553791667
 40
7.055555553791667
 40
7.40833333148125
 40
7.40833333148125
 40
7.40833333148125
 40
7.761111109170834
 40
7.761111109170834
 40
7.761111109170834
 40
7.761111109170834
 10
356.999742206757
 20
31.36724988365124
 10
356.999742206757
 20
31.36724988365124
 10
357.5571586562705
 20
31.36724988365124
 10
357.5571586562705
 20
31.36724988365124
 10
357.5571586562705
 20
31.36724988365124
 10
357.5571586562705
 20
30.50597601233878
 10
357.5571586562705
 20
30.50597601233878
 10
357.5571586562705
 20
30.50597601233878
 10
355.9069579188358
 20
30.50597601233878
 10
355.9069579188358
 20
30.50597601233878
 10
355.9434759309794
 20
29.75770127294252
 10
356.0261582226254
 20
29.01011555264331
 10
356.2631807920106
 20
28.29835882539069
 10
356.3231254534539
 20
28.1205918983518
 10
356.4822888648725
 20
27.69891221095722
 10
356.655232658232
 20
27.69891221095722
 10
356.8212862606211
 20
27.69891221095722
 10
357.1409911216523
 20
28.1081895546049
 10
357.2787949410622
 20
28.50575357360273
 10
357.2787949410622
 20
28.50575357360273
 10
357.6584444635368
 20
27.55628525786787
 10
357.6584444635368
 20
27.55628525786787
 10
357.5337320069708
 20
27.21177570934289
 10
357.2305636042688
 20
26.54756129978672
 10
356.6793483266288
 20
26.54756129978672
 10
356.4002955923236
 20
26.54756129978672
 10
356.1150416861449
 20
26.70121255842886
 10
355.9545002365322
 20
26.88035752366186
 10
355.0939153843168
 20
27.82913682029966
 10
355.0346597419705
 20
29.55099554382753
 10
354.9995197680209
 20
30.50597601233878
 10
354.9995197680209
 20
30.50597601233878
 10
351.9602565309336
 20
30.50597601233878
 10
351.9602565309336
 20
30.50597601233878
 10
351.9602565309336
 20
30.50597601233878
 10
351.9602565309336
 20
31.36724988365124
 10
351.9602565309336
 20
31.36724988365124
 10
351.9602565309336
 20
31.36724988365124
 10
354.9698919468478
 20
31.36724988365124
 10
354.9698919468478
 20
31.36724988365124
 10
354.9636907749744
 20
31.45544432807364
 10
354.9519774503245
 20
31.88952635921512
 10
354.9457762784511
 20
31.98392197551097
 10
354.9457762784511
 20
32.03766546508086
 10
354.9457762784511
 20
32.08451876368026
 10
354.9395751065776
 20
32.19131672372301
 10
354.9395751065776
 20
32.19131672372301
 10
355.8897324414095
 20
32.19131672372301
 10
355.8897324414095
 20
32.19131672372301
 10
355.8835312695361
 20
31.72347275682608
 10
355.8835312695361
 20
31.58635795651313
 10
355.8897324414095
 20
31.36724988365124
 10
355.8897324414095
 20
31.36724988365124
 10
356.4712645593197
 20
31.36724988365124
 10
356.4712645593197
 20
31.36724988365124
 10
356.3169242815805
 20
31.59255912838658
 10
356.186010653141
 20
31.78272839917237
 10
356.0378715472752
 20
31.91846516129122
 10
356.0378715472752
 20
31.91846516129122
 10
356.8040607831948
 20
32.22783473586665
 10
356.8040607831948
 20
32.22783473586665
 10
356.8922552276172
 20
32.16168890254986
 10
356.9694253664868
 20
32.10794541297996
 10
357.3800807483286
 20
31.53330348604029
 10
357.3800807483286
 20
31.53330348604029
 10
356.999742206757
 20
31.36724988365124
 10
356.999742206757
 20
31.36724988365124
 72
     1
 10
356.999742206757
 20
31.36724988365124
 11
356.999742206757
 21
31.36724988365124
 97
        0
 75
     2
 76
     1
 98
        0
  0
SPLINE
  5
1B9
330
1AE
100
AcDbEntity
  8
\U+30D5\U+30A9\U+30FC\U+30DE\U+30C3\U+30C8
370
     0
100
AcDbSpline
210
0.0
220
0.0
230
1.0
 70
    11
 71
     3
 72
    23
 73
    19
 74
     0
 42
0.0000000001
 43
0.0000000001
 40
0.0
 40
0.0
 40
0.0
 40
0.0
 40
1.0
 40
1.0
 40
1.0
 40
2.0
 40
2.0
 40
2.0
 40
3.0
 40
3.0
 40
3.0
 40
4.0
 40
4.0
 40
4.0
 40
5.0
 40
5.0
 40
5.0
 40
6.0
 40
6.0
 40
6.0
 40
6.0
 10
361.2964652959606
 20
28.27493217609099
 30
0.0
 10
361.43909224905
 20
28.10198838273145
 30
0.0
 10
361.5465792281898
 20
27.971763773389
 30
0.0
 10
361.7836017975749
 20
27.65688204603717
 30
0.0
 10
361.5927435076921
 20
27.65136989326077
 30
0.0
 10
360.6563665548012
 20
27.60933972834072
 30
0.0
 10
360.4475937683951
 20
27.59762640369087
 30
0.0
 10
360.3414848274494
 20
27.59211425091447
 30
0.0
 10
360.2939425097529
 20
27.59211425091447
 30
0.0
 10
359.8660616504849
 20
27.59211425091447
 30
0.0
 10
360.0438285775238
 20
27.94764810499226
 30
0.0
 10
360.1630288813134
 20
28.21567653374469
 30
0.0
 10
360.3290824837025
 20
28.60635036177203
 30
0.0
 10
360.3290824837025
 20
28.60635036177203
 30
0.0
 10
361.9971977176604
 20
28.60635036177203
 30
0.0
 10
361.9971977176604
 20
28.60635036177203
 30
0.0
 10
361.9971977176604
 20
28.60635036177203
 30
0.0
 10
361.2964652959606
 20
28.27493217609099
 30
0.0
 10
361.2964652959606
 20
28.27493217609099
 30
0.0
  0
SPLINE
  5
1BA
330
1AE
100
AcDbEntity
  8
\U+30D5\U+30A9\U+30FC\U+30DE\U+30C3\U+30C8
370
     0
100
AcDbSpline
210
0.0
220
0.0
230
1.0
 70
    11
 71
     3
 72
    44
 73
    40
 74
     0
 42
0.0000000001
 43
0.0000000001
 40
0.0
 40
0.0
 40
0.0
 40
0.0
 40
1.0
 40
1.0
 40
1.0
 40
2.0
 40
2.0
 40
2.0
 40
3.0
 40
3.0
 40
3.0
 40
4.0
 40
4.0
 40
4.0
 40
5.0
 40
5.0
 40
5.0
 40
6.0
 40
6.0
 40
6.0
 40
7.0
 40
7.0
 40
7.0
 40
8.0
 40
8.0
 40
8.0
 40
9.0
 40
9.0
 40
9.0
 40
10.0
 40
10.0
 40
10.0
 40
11.0
 40
11.0
 40
11.0
 40
12.0
 40
12.0
 40
12.0
 40
13.0
 40
13.0
 40
13.0
 40
13.0
 10
363.3862602173132
 20
26.95614962433735
 30
0.0
 10
363.0300373441383
 20
27.52045626482128
 30
0.0
 10
362.6558999744402
 20
28.0489339122586
 30
0.0
 10
362.1391356516527
 20
28.60635036177203
 30
0.0
 10
362.1391356516527
 20
28.60635036177203
 30
0.0
 10
363.3676567016929
 20
28.60635036177203
 30
0.0
 10
363.3676567016929
 20
28.60635036177203
 30
0.0
 10
363.3676567016929
 20
28.60635036177203
 30
0.0
 10
363.3676567016929
 20
29.46142306121104
 30
0.0
 10
363.3676567016929
 20
29.46142306121104
 30
0.0
 10
363.3676567016929
 20
29.46142306121104
 30
0.0
 10
358.0146673367116
 20
29.46142306121104
 30
0.0
 10
358.0146673367116
 20
29.46142306121104
 30
0.0
 10
358.0146673367116
 20
29.46142306121104
 30
0.0
 10
358.0146673367116
 20
28.60635036177203
 30
0.0
 10
358.0146673367116
 20
28.60635036177203
 30
0.0
 10
358.0146673367116
 20
28.60635036177203
 30
0.0
 10
359.3375840030475
 20
28.60635036177203
 30
0.0
 10
359.3375840030475
 20
28.60635036177203
 30
0.0
 10
359.2135605655786
 20
28.22118868652109
 30
0.0
 10
359.0764457652656
 20
27.90079480639286
 30
0.0
 10
358.928995678497
 20
27.58660209813807
 30
0.0
 10
358.8221977184542
 20
27.58660209813807
 30
0.0
 10
358.3584878661396
 20
27.57971190716757
 30
0.0
 10
358.2634032307467
 20
27.57971190716757
 30
0.0
 10
358.2165499321472
 20
27.57971190716757
 30
0.0
 10
358.1745197672272
 20
27.57971190716757
 30
0.0
 10
358.0553194634376
 20
27.58660209813807
 30
0.0
 10
358.0553194634376
 20
27.58660209813807
 30
0.0
 10
358.1986354356239
 20
26.66607258447932
 30
0.0
 10
358.1986354356239
 20
26.66607258447932
 30
0.0
 10
359.5456677703567
 20
26.70741373030231
 30
0.0
 10
359.7537515376657
 20
26.72532822682561
 30
0.0
 10
362.2879637766155
 20
26.92721082226126
 30
0.0
 10
362.4002738894347
 20
26.74255370425186
 30
0.0
 10
362.4540173790045
 20
26.65367024073242
 30
0.0
 10
362.5311875178742
 20
26.50553113486668
 30
0.0
 10
362.5311875178742
 20
26.50553113486668
 30
0.0
 10
363.3862602173132
 20
26.95614962433735
 30
0.0
 10
363.3862602173132
 20
26.95614962433735
 30
0.0
  0
SPLINE
  5
1BB
330
1AE
100
AcDbEntity
  8
\U+30D5\U+30A9\U+30FC\U+30DE\U+30C3\U+30C8
370
     0
100
AcDbSpline
210
0.0
220
0.0
230
1.0
 70
    11
 71
     3
 72
    35
 73
    31
 74
     0
 42
0.0000000001
 43
0.0000000001
 40
0.0
 40
0.0
 40
0.0
 40
0.0
 40
1.0
 40
1.0
 40
1.0
 40
2.0
 40
2.0
 40
2.0
 40
3.0
 40
3.0
 40
3.0
 40
4.0
 40
4.0
 40
4.0
 40
5.0
 40
5.0
 40
5.0
 40
6.0
 40
6.0
 40
6.0
 40
7.0
 40
7.0
 40
7.0
 40
8.0
 40
8.0
 40
8.0
 40
9.0
 40
9.0
 40
9.0
 40
10.0
 40
10.0
 40
10.0
 40
10.0
 10
359.1184759301857
 20
29.87759059582921
 30
0.0
 10
359.1184759301857
 20
29.87759059582921
 30
0.0
 10
362.2762504519657
 20
29.87759059582921
 30
0.0
 10
362.2762504519657
 20
29.87759059582921
 30
0.0
 10
362.2762504519657
 20
29.87759059582921
 30
0.0
 10
362.2762504519657
 20
30.23932562178045
 30
0.0
 10
362.2762504519657
 20
30.23932562178045
 30
0.0
 10
362.6979301393603
 20
29.98438855587196
 30
0.0
 10
362.9528672052687
 20
29.87138942395577
 30
0.0
 10
363.1602619534808
 20
29.78112792224222
 30
0.0
 10
363.1602619534808
 20
29.78112792224222
 30
0.0
 10
363.6239718057954
 20
30.67823078660128
 30
0.0
 10
363.6239718057954
 20
30.67823078660128
 30
0.0
 10
362.722045807757
 20
31.01722818234986
 30
0.0
 10
361.866973108318
 20
31.49678547389664
 30
0.0
 10
361.2378986727114
 20
32.22783473586665
 30
0.0
 10
361.2378986727114
 20
32.22783473586665
 30
0.0
 10
360.1809433778367
 20
32.22783473586665
 30
0.0
 10
360.1809433778367
 20
32.22783473586665
 30
0.0
 10
359.8012938553622
 20
31.69246689745883
 30
0.0
 10
359.1425915985824
 20
31.2067084340386
 30
0.0
 10
357.7652424235795
 20
30.66582844285438
 30
0.0
 10
357.7652424235795
 20
30.66582844285438
 30
0.0
 10
358.2165499321472
 20
29.76459146391302
 30
0.0
 10
358.2165499321472
 20
29.76459146391302
 30
0.0
 10
358.3943168591862
 20
29.83487141181212
 30
0.0
 10
358.654766077871
 20
29.93615721907846
 30
0.0
 10
359.1184759301857
 20
30.2152099533837
 30
0.0
 10
359.1184759301857
 20
30.2152099533837
 30
0.0
 10
359.1184759301857
 20
29.87759059582921
 30
0.0
 10
359.1184759301857
 20
29.87759059582921
 30
0.0
  0
SPLINE
  5
1BC
330
1AE
100
AcDbEntity
  8
\U+30D5\U+30A9\U+30FC\U+30DE\U+30C3\U+30C8
370
     0
100
AcDbSpline
210
0.0
220
0.0
230
1.0
 70
    11
 71
     3
 72
    14
 73
    10
 74
     0
 42
0.0000000001
 43
0.0000000001
 40
0.0
 40
0.0
 40
0.0
 40
0.0
 40
1.0
 40
1.0
 40
1.0
 40
2.0
 40
2.0
 40
2.0
 40
3.0
 40
3.0
 40
3.0
 40
3.0
 10
359.7888915116153
 20
30.67202961472783
 30
0.0
 10
360.3525091330022
 20
31.09991047399586
 30
0.0
 10
360.5550807475349
 20
31.3252197187312
 30
0.0
 10
360.7039088724977
 20
31.50849879854649
 30
0.0
 10
360.8809867804395
 20
31.31350639408135
 30
0.0
 10
361.1124971970483
 20
31.06408148094926
 30
0.0
 10
361.6292615198358
 20
30.67202961472783
 30
0.0
 10
361.6292615198358
 20
30.67202961472783
 30
0.0
 10
359.7888915116153
 20
30.67202961472783
 30
0.0
 10
359.7888915116153
 20
30.67202961472783
 30
0.0
  0
HATCH
  5
1BD
330
1AE
100
AcDbEntity
  8
\U+30D5\U+30A9\U+30FC\U+30DE\U+30C3\U+30C8
 62
    29
100
AcDbHatch
 10
0.0
 20
0.0
 30
0.0
210
0.0
220
0.0
230
1.0
  2
SOLID
 70
     1
 71
     0
 91
        4
 92
        1
 93
        1
 72
     4
 94
        3
 73
     0
 74
     1
 95
       14
 96
       10
 40
0.0
 40
0.0
 40
0.0
 40
0.0
 40
1.0
 40
1.0
 40
1.0
 40
2.0
 40
2.0
 40
2.0
 40
3.0
 40
3.0
 40
3.0
 40
3.0
 10
359.7888915116153
 20
30.67202961472783
 10
360.3525091330022
 20
31.09991047399586
 10
360.5550807475349
 20
31.3252197187312
 10
360.7039088724977
 20
31.50849879854649
 10
360.8809867804395
 20
31.31350639408135
 10
361.1124971970483
 20
31.06408148094926
 10
361.6292615198358
 20
30.67202961472783
 10
361.6292615198358
 20
30.67202961472783
 10
359.7888915116153
 20
30.67202961472783
 10
359.7888915116153
 20
30.67202961472783
 97
        0
 92
        1
 93
        2
 72
     4
 94
        3
 73
     0
 74
     0
 95
       23
 96
       19
 40
0.0
 40
0.0
 40
0.0
 40
0.0
 40
0.3527777776895833
 40
0.3527777776895833
 40
0.3527777776895833
 40
0.7055555553791667
 40
0.7055555553791667
 40
0.7055555553791667
 40
1.05833333306875
 40
1.05833333306875
 40
1.05833333306875
 40
1.411111110758333
 40
1.411111110758333
 40
1.411111110758333
 40
1.763888888447917
 40
1.763888888447917
 40
1.763888888447917
 40
2.1166666661375
 40
2.1166666661375
 40
2.1166666661375
 40
2.1166666661375
 10
361.2964652959606
 20
28.27493217609099
 10
361.43909224905
 20
28.10198838273145
 10
361.5465792281898
 20
27.971763773389
 10
361.7836017975749
 20
27.65688204603717
 10
361.5927435076921
 20
27.65136989326077
 10
360.6563665548012
 20
27.60933972834072
 10
360.4475937683951
 20
27.59762640369087
 10
360.3414848274494
 20
27.59211425091447
 10
360.2939425097529
 20
27.59211425091447
 10
359.8660616504849
 20
27.59211425091447
 10
360.0438285775238
 20
27.94764810499226
 10
360.1630288813134
 20
28.21567653374469
 10
360.3290824837025
 20
28.60635036177203
 10
360.3290824837025
 20
28.60635036177203
 10
361.9971977176604
 20
28.60635036177203
 10
361.9971977176604
 20
28.60635036177203
 10
361.9971977176604
 20
28.60635036177203
 10
361.2964652959606
 20
28.27493217609099
 10
361.2964652959606
 20
28.27493217609099
 72
     1
 10
361.2964652959606
 20
28.27493217609099
 11
361.2964652959606
 21
28.27493217609099
 97
        0
 92
        1
 93
        2
 72
     4
 94
        3
 73
     0
 74
     0
 95
       44
 96
       40
 40
0.0
 40
0.0
 40
0.0
 40
0.0
 40
0.3527777776895833
 40
0.3527777776895833
 40
0.3527777776895833
 40
0.7055555553791667
 40
0.7055555553791667
 40
0.7055555553791667
 40
1.05833333306875
 40
1.05833333306875
 40
1.05833333306875
 40
1.411111110758333
 40
1.411111110758333
 40
1.411111110758333
 40
1.763888888447917
 40
1.763888888447917
 40
1.763888888447917
 40
2.1166666661375
 40
2.1166666661375
 40
2.1166666661375
 40
2.469444443827083
 40
2.469444443827083
 40
2.469444443827083
 40
2.822222221516667
 40
2.822222221516667
 40
2.822222221516667
 40
3.17499999920625
 40
3.17499999920625
 40
3.17499999920625
 40
3.527777776895833
 40
3.527777776895833
 40
3.527777776895833
 40
3.880555554585417
 40
3.880555554585417
 40
3.880555554585417
 40
4.233333332275
 40
4.233333332275
 40
4.233333332275
 40
4.586111109964584
 40
4.586111109964584
 40
4.586111109964584
 40
4.586111109964584
 10
363.3862602173132
 20
26.95614962433735
 10
363.0300373441383
 20
27.52045626482128
 10
362.6558999744402
 20
28.0489339122586
 10
362.1391356516527
 20
28.60635036177203
 10
362.1391356516527
 20
28.60635036177203
 10
363.3676567016929
 20
28.60635036177203
 10
363.3676567016929
 20
28.60635036177203
 10
363.3676567016929
 20
28.60635036177203
 10
363.3676567016929
 20
29.46142306121104
 10
363.3676567016929
 20
29.46142306121104
 10
363.3676567016929
 20
29.46142306121104
 10
358.0146673367116
 20
29.46142306121104
 10
358.0146673367116
 20
29.46142306121104
 10
358.0146673367116
 20
29.46142306121104
 10
358.0146673367116
 20
28.60635036177203
 10
358.0146673367116
 20
28.60635036177203
 10
358.0146673367116
 20
28.60635036177203
 10
359.3375840030475
 20
28.60635036177203
 10
359.3375840030475
 20
28.60635036177203
 10
359.2135605655786
 20
28.22118868652109
 10
359.0764457652656
 20
27.90079480639286
 10
358.928995678497
 20
27.58660209813807
 10
358.8221977184542
 20
27.58660209813807
 10
358.3584878661396
 20
27.57971190716757
 10
358.2634032307467
 20
27.57971190716757
 10
358.2165499321472
 20
27.57971190716757
 10
358.1745197672272
 20
27.57971190716757
 10
358.0553194634376
 20
27.58660209813807
 10
358.0553194634376
 20
27.58660209813807
 10
358.1986354356239
 20
26.66607258447932
 10
358.1986354356239
 20
26.66607258447932
 10
359.5456677703567
 20
26.70741373030231
 10
359.7537515376657
 20
26.72532822682561
 10
362.2879637766155
 20
26.92721082226126
 10
362.4002738894347
 20
26.74255370425186
 10
362.4540173790045
 20
26.65367024073242
 10
362.5311875178742
 20
26.50553113486668
 10
362.5311875178742
 20
26.50553113486668
 10
363.3862602173132
 20
26.95614962433735
 10
363.3862602173132
 20
26.95614962433735
 72
     1
 10
363.3862602173132
 20
26.95614962433735
 11
363.3862602173132
 21
26.95614962433735
 97
        0
 92
        1
 93
        2
 72
     4
 94
        3
 73
     0
 74
     0
 95
       35
 96
       31
 40
0.0
 40
0.0
 40
0.0
 40
0.0
 40
0.3527777776895833
 40
0.3527777776895833
 40
0.3527777776895833
 40
0.7055555553791667
 40
0.7055555553791667
 40
0.7055555553791667
 40
1.05833333306875
 40
1.05833333306875
 40
1.05833333306875
 40
1.411111110758333
 40
1.411111110758333
 40
1.411111110758333
 40
1.763888888447917
 40
1.763888888447917
 40
1.763888888447917
 40
2.1166666661375
 40
2.1166666661375
 40
2.1166666661375
 40
2.469444443827083
 40
2.469444443827083
 40
2.469444443827083
 40
2.822222221516667
 40
2.822222221516667
 40
2.822222221516667
 40
3.17499999920625
 40
3.17499999920625
 40
3.17499999920625
 40
3.527777776895833
 40
3.527777776895833
 40
3.527777776895833
 40
3.527777776895833
 10
359.1184759301857
 20
29.87759059582921
 10
359.1184759301857
 20
29.87759059582921
 10
362.2762504519657
 20
29.87759059582921
 10
362.2762504519657
 20
29.87759059582921
 10
362.2762504519657
 20
29.87759059582921
 10
362.2762504519657
 20
30.23932562178045
 10
362.2762504519657
 20
30.23932562178045
 10
362.6979301393603
 20
29.98438855587196
 10
362.9528672052687
 20
29.87138942395577
 10
363.1602619534808
 20
29.78112792224222
 10
363.1602619534808
 20
29.78112792224222
 10
363.6239718057954
 20
30.67823078660128
 10
363.6239718057954
 20
30.67823078660128
 10
362.722045807757
 20
31.01722818234986
 10
361.866973108318
 20
31.49678547389664
 10
361.2378986727114
 20
32.22783473586665
 10
361.2378986727114
 20
32.22783473586665
 10
360.1809433778367
 20
32.22783473586665
 10
360.1809433778367
 20
32.22783473586665
 10
359.8012938553622
 20
31.69246689745883
 10
359.1425915985824
 20
31.2067084340386
 10
357.7652424235795
 20
30.66582844285438
 10
357.7652424235795
 20
30.66582844285438
 10
358.2165499321472
 20
29.76459146391302
 10
358.2165499321472
 20
29.76459146391302
 10
358.3943168591862
 20
29.83487141181212
 10
358.654766077871
 20
29.93615721907846
 10
359.1184759301857
 20
30.2152099533837
 10
359.1184759301857
 20
30.2152099533837
 10
359.1184759301857
 20
29.87759059582921
 10
359.1184759301857
 20
29.87759059582921
 72
     1
 10
359.1184759301857
 20
29.87759059582921
 11
359.1184759301857
 21
29.87759059582921
 97
        0
 75
     2
 76
     1
 98
        0
  0
SPLINE
  5
1BE
330
1AE
100
AcDbEntity
  8
\U+30D5\U+30A9\U+30FC\U+30DE\U+30C3\U+30C8
370
     0
100
AcDbSpline
210
0.0
220
0.0
230
1.0
 70
    11
 71
     3
 72
    59
 73
    55
 74
     0
 42
0.0000000001
 43
0.0000000001
 40
0.0
 40
0.0
 40
0.0
 40
0.0
 40
1.0
 40
1.0
 40
1.0
 40
2.0
 40
2.0
 40
2.0
 40
3.0
 40
3.0
 40
3.0
 40
4.0
 40
4.0
 40
4.0
 40
5.0
 40
5.0
 40
5.0
 40
6.0
 40
6.0
 40
6.0
 40
7.0
 40
7.0
 40
7.0
 40
8.0
 40
8.0
 40
8.0
 40
9.0
 40
9.0
 40
9.0
 40
10.0
 40
10.0
 40
10.0
 40
11.0
 40
11.0
 40
11.0
 40
12.0
 40
12.0
 40
12.0
 40
13.0
 40
13.0
 40
13.0
 40
14.0
 40
14.0
 40
14.0
 40
15.0
 40
15.0
 40
15.0
 40
16.0
 40
16.0
 40
16.0
 40
17.0
 40
17.0
 40
17.0
 40
18.0
 40
18.0
 40
18.0
 40
18.0
 10
365.4808782723451
 20
26.55307345256312
 30
0.0
 10
365.4808782723451
 20
26.55307345256312
 30
0.0
 10
364.5796412934037
 20
26.55307345256312
 30
0.0
 10
364.5796412934037
 20
26.55307345256312
 30
0.0
 10
364.5796412934037
 20
26.55307345256312
 30
0.0
 10
364.5796412934037
 20
28.53607041387293
 30
0.0
 10
364.5796412934037
 20
28.53607041387293
 30
0.0
 10
364.335728533048
 20
28.32798664656384
 30
0.0
 10
364.169674930659
 20
28.20878634277419
 30
0.0
 10
363.949188819603
 20
28.0613362560055
 30
0.0
 10
363.949188819603
 20
28.0613362560055
 30
0.0
 10
363.7245685939647
 20
29.11140135990965
 30
0.0
 10
363.7245685939647
 20
29.11140135990965
 30
0.0
 10
364.3887830035209
 20
29.50896537890748
 30
0.0
 10
364.9351751474815
 20
30.1435519672905
 30
0.0
 10
365.1308565710437
 20
30.53560383351194
 30
0.0
 10
365.1308565710437
 20
30.53560383351194
 30
0.0
 10
363.8313665540074
 20
30.53560383351194
 30
0.0
 10
363.8313665540074
 20
30.53560383351194
 30
0.0
 10
363.8313665540074
 20
30.53560383351194
 30
0.0
 10
363.8313665540074
 20
31.36724988365124
 30
0.0
 10
363.8313665540074
 20
31.36724988365124
 30
0.0
 10
363.8313665540074
 20
31.36724988365124
 30
0.0
 10
364.5796412934037
 20
31.36724988365124
 30
0.0
 10
364.5796412934037
 20
31.36724988365124
 30
0.0
 10
364.5796412934037
 20
31.36724988365124
 30
0.0
 10
364.5796412934037
 20
32.18580457094661
 30
0.0
 10
364.5796412934037
 20
32.18580457094661
 30
0.0
 10
364.5796412934037
 20
32.18580457094661
 30
0.0
 10
365.4808782723451
 20
32.18580457094661
 30
0.0
 10
365.4808782723451
 20
32.18580457094661
 30
0.0
 10
365.4808782723451
 20
32.18580457094661
 30
0.0
 10
365.4808782723451
 20
31.36724988365124
 30
0.0
 10
365.4808782723451
 20
31.36724988365124
 30
0.0
 10
365.4808782723451
 20
31.36724988365124
 30
0.0
 10
366.086526058652
 20
31.36724988365124
 30
0.0
 10
366.086526058652
 20
31.36724988365124
 30
0.0
 10
366.086526058652
 20
31.36724988365124
 30
0.0
 10
366.086526058652
 20
30.53009168073553
 30
0.0
 10
366.086526058652
 20
30.53009168073553
 30
0.0
 10
365.9983316142296
 20
30.31649576065005
 30
0.0
 10
365.8846434632164
 20
30.06086967564451
 30
0.0
 10
365.617993072658
 20
29.67501898129652
 30
0.0
 10
365.9445881246597
 20
29.31328395534529
 30
0.0
 10
366.2353541836148
 20
29.1410291810828
 30
0.0
 10
366.4248344353035
 20
29.03423122104006
 30
0.0
 10
366.4248344353035
 20
29.03423122104006
 30
0.0
 10
365.9797280986093
 20
28.19156086534795
 30
0.0
 10
365.9797280986093
 20
28.19156086534795
 30
0.0
 10
365.8074733243467
 20
28.35141329586354
 30
0.0
 10
365.6710475431308
 20
28.49404024895288
 30
0.0
 10
365.4808782723451
 20
28.76069063951122
 30
0.0
 10
365.4808782723451
 20
28.76069063951122
 30
0.0
 10
365.4808782723451
 20
26.55307345256312
 30
0.0
 10
365.4808782723451
 20
26.55307345256312
 30
0.0
  0
POLYLINE
  5
1BF
330
1AE
100
AcDbEntity
  8
\U+30D5\U+30A9\U+30FC\U+30DE\U+30C3\U+30C8
370
     0
100
AcDb2dPolyline
 66
     1
 10
0.0
 20
0.0
 30
0.0
  0
VERTEX
  5
1C0
330
1BF
100
AcDbEntity
  8
\U+30D5\U+30A9\U+30FC\U+30DE\U+30C3\U+30C8
370
     0
100
AcDbVertex
100
AcDb2dVertex
 10
367.2440781416959
 20
32.17960339907316
 30
0.0
  0
VERTEX
  5
1C1
330
1BF
100
AcDbEntity
  8
\U+30D5\U+30A9\U+30FC\U+30DE\U+30C3\U+30C8
370
     0
100
AcDbVertex
100
AcDb2dVertex
 10
368.1708088272281
 20
32.17960339907316
 30
0.0
  0
VERTEX
  5
1C2
330
1BF
100
AcDbEntity
  8
\U+30D5\U+30A9\U+30FC\U+30DE\U+30C3\U+30C8
370
     0
100
AcDbVertex
100
AcDb2dVertex
 10
368.1708088272281
 20
30.70854762687147
 30
0.0
  0
VERTEX
  5
1C3
330
1BF
100
AcDbEntity
  8
\U+30D5\U+30A9\U+30FC\U+30DE\U+30C3\U+30C8
370
     0
100
AcDbVertex
100
AcDb2dVertex
 10
369.3214707193016
 20
30.70854762687147
 30
0.0
  0
VERTEX
  5
1C4
330
1BF
100
AcDbEntity
  8
\U+30D5\U+30A9\U+30FC\U+30DE\U+30C3\U+30C8
370
     0
100
AcDbVertex
100
AcDb2dVertex
 10
369.3214707193016
 20
29.79353026598912
 30
0.0
  0
VERTEX
  5
1C5
330
1BF
100
AcDbEntity
  8
\U+30D5\U+30A9\U+30FC\U+30DE\U+30C3\U+30C8
370
     0
100
AcDbVertex
100
AcDb2dVertex
 10
368.1708088272281
 20
29.79353026598912
 30
0.0
  0
VERTEX
  5
1C6
330
1BF
100
AcDbEntity
  8
\U+30D5\U+30A9\U+30FC\U+30DE\U+30C3\U+30C8
370
     0
100
AcDbVertex
100
AcDb2dVertex
 10
368.1708088272281
 20
27.62105305299057
 30
0.0
  0
VERTEX
  5
1C7
330
1BF
100
AcDbEntity
  8
\U+30D5\U+30A9\U+30FC\U+30DE\U+30C3\U+30C8
370
     0
100
AcDbVertex
100
AcDb2dVertex
 10
369.410354182821
 20
27.62105305299057
 30
0.0
  0
VERTEX
  5
1C8
330
1BF
100
AcDbEntity
  8
\U+30D5\U+30A9\U+30FC\U+30DE\U+30C3\U+30C8
370
     0
100
AcDbVertex
100
AcDb2dVertex
 10
369.410354182821
 20
26.71912705495216
 30
0.0
  0
VERTEX
  5
1C9
330
1BF
100
AcDbEntity
  8
\U+30D5\U+30A9\U+30FC\U+30DE\U+30C3\U+30C8
370
     0
100
AcDbVertex
100
AcDb2dVertex
 10
365.8846434632164
 20
26.71912705495216
 30
0.0
  0
VERTEX
  5
1CA
330
1BF
100
AcDbEntity
  8
\U+30D5\U+30A9\U+30FC\U+30DE\U+30C3\U+30C8
370
     0
100
AcDbVertex
100
AcDb2dVertex
 10
365.8846434632164
 20
27.62105305299057
 30
0.0
  0
VERTEX
  5
1CB
330
1BF
100
AcDbEntity
  8
\U+30D5\U+30A9\U+30FC\U+30DE\U+30C3\U+30C8
370
     0
100
AcDbVertex
100
AcDb2dVertex
 10
367.2440781416959
 20
27.62105305299057
 30
0.0
  0
VERTEX
  5
1CC
330
1BF
100
AcDbEntity
  8
\U+30D5\U+30A9\U+30FC\U+30DE\U+30C3\U+30C8
370
     0
100
AcDbVertex
100
AcDb2dVertex
 10
367.2440781416959
 20
29.79353026598912
 30
0.0
  0
VERTEX
  5
1CD
330
1BF
100
AcDbEntity
  8
\U+30D5\U+30A9\U+30FC\U+30DE\U+30C3\U+30C8
370
     0
100
AcDbVertex
100
AcDb2dVertex
 10
366.1747205030744
 20
29.79353026598912
 30
0.0
  0
VERTEX
  5
1CE
330
1BF
100
AcDbEntity
  8
\U+30D5\U+30A9\U+30FC\U+30DE\U+30C3\U+30C8
370
     0
100
AcDbVertex
100
AcDb2dVertex
 10
366.1747205030744
 20
30.70854762687147
 30
0.0
  0
VERTEX
  5
1CF
330
1BF
100
AcDbEntity
  8
\U+30D5\U+30A9\U+30FC\U+30DE\U+30C3\U+30C8
370
     0
100
AcDbVertex
100
AcDb2dVertex
 10
367.2440781416959
 20
30.70854762687147
 30
0.0
  0
VERTEX
  5
1D0
330
1BF
100
AcDbEntity
  8
\U+30D5\U+30A9\U+30FC\U+30DE\U+30C3\U+30C8
370
     0
100
AcDbVertex
100
AcDb2dVertex
 10
367.2440781416959
 20
32.17960339907316
 30
0.0
  0
SEQEND
  5
1D1
330
1BF
100
AcDbEntity
  8
\U+30D5\U+30A9\U+30FC\U+30DE\U+30C3\U+30C8
370
     0
  0
HATCH
  5
1D2
330
1AE
100
AcDbEntity
  8
\U+30D5\U+30A9\U+30FC\U+30DE\U+30C3\U+30C8
 62
    29
100
AcDbHatch
 10
0.0
 20
0.0
 30
0.0
210
0.0
220
0.0
230
1.0
  2
SOLID
 70
     1
 71
     0
 91
        2
 92
        1
 93
       16
 72
     1
 10
367.2440781416959
 20
32.17960339907316
 11
368.1708088272281
 21
32.17960339907316
 72
     1
 10
368.1708088272281
 20
32.17960339907316
 11
368.1708088272281
 21
30.70854762687147
 72
     1
 10
368.1708088272281
 20
30.70854762687147
 11
369.3214707193016
 21
30.70854762687147
 72
     1
 10
369.3214707193016
 20
30.70854762687147
 11
369.3214707193016
 21
29.79353026598912
 72
     1
 10
369.3214707193016
 20
29.79353026598912
 11
368.1708088272281
 21
29.79353026598912
 72
     1
 10
368.1708088272281
 20
29.79353026598912
 11
368.1708088272281
 21
27.62105305299057
 72
     1
 10
368.1708088272281
 20
27.62105305299057
 11
369.410354182821
 21
27.62105305299057
 72
     1
 10
369.410354182821
 20
27.62105305299057
 11
369.410354182821
 21
26.71912705495216
 72
     1
 10
369.410354182821
 20
26.71912705495216
 11
365.8846434632164
 21
26.71912705495216
 72
     1
 10
365.8846434632164
 20
26.71912705495216
 11
365.8846434632164
 21
27.62105305299057
 72
     1
 10
365.8846434632164
 20
27.62105305299057
 11
367.2440781416959
 21
27.62105305299057
 72
     1
 10
367.2440781416959
 20
27.62105305299057
 11
367.2440781416959
 21
29.79353026598912
 72
     1
 10
367.2440781416959
 20
29.79353026598912
 11
366.1747205030744
 21
29.79353026598912
 72
     1
 10
366.1747205030744
 20
29.79353026598912
 11
366.1747205030744
 21
30.70854762687147
 72
     1
 10
366.1747205030744
 20
30.70854762687147
 11
367.2440781416959
 21
30.70854762687147
 72
     1
 10
367.2440781416959
 20
30.70854762687147
 11
367.2440781416959
 21
32.17960339907316
 97
        0
 92
        1
 93
        2
 72
     4
 94
        3
 73
     0
 74
     0
 95
       59
 96
       55
 40
0.0
 40
0.0
 40
0.0
 40
0.0
 40
0.3527777776895833
 40
0.3527777776895833
 40
0.3527777776895833
 40
0.7055555553791667
 40
0.7055555553791667
 40
0.7055555553791667
 40
1.05833333306875
 40
1.05833333306875
 40
1.05833333306875
 40
1.411111110758333
 40
1.411111110758333
 40
1.411111110758333
 40
1.763888888447917
 40
1.763888888447917
 40
1.763888888447917
 40
2.1166666661375
 40
2.1166666661375
 40
2.1166666661375
 40
2.469444443827083
 40
2.469444443827083
 40
2.469444443827083
 40
2.822222221516667
 40
2.822222221516667
 40
2.822222221516667
 40
3.17499999920625
 40
3.17499999920625
 40
3.17499999920625
 40
3.527777776895833
 40
3.527777776895833
 40
3.527777776895833
 40
3.880555554585417
 40
3.880555554585417
 40
3.880555554585417
 40
4.233333332275
 40
4.233333332275
 40
4.233333332275
 40
4.586111109964584
 40
4.586111109964584
 40
4.586111109964584
 40
4.938888887654167
 40
4.938888887654167
 40
4.938888887654167
 40
5.29166666534375
 40
5.29166666534375
 40
5.29166666534375
 40
5.644444443033334
 40
5.644444443033334
 40
5.644444443033334
 40
5.997222220722917
 40
5.997222220722917
 40
5.997222220722917
 40
6.349999998412501
 40
6.349999998412501
 40
6.349999998412501
 40
6.349999998412501
 10
365.4808782723451
 20
26.55307345256312
 10
365.4808782723451
 20
26.55307345256312
 10
364.5796412934037
 20
26.55307345256312
 10
364.5796412934037
 20
26.55307345256312
 10
364.5796412934037
 20
26.55307345256312
 10
364.5796412934037
 20
28.53607041387293
 10
364.5796412934037
 20
28.53607041387293
 10
364.335728533048
 20
28.32798664656384
 10
364.169674930659
 20
28.20878634277419
 10
363.949188819603
 20
28.0613362560055
 10
363.949188819603
 20
28.0613362560055
 10
363.7245685939647
 20
29.11140135990965
 10
363.7245685939647
 20
29.11140135990965
 10
364.3887830035209
 20
29.50896537890748
 10
364.9351751474815
 20
30.1435519672905
 10
365.1308565710437
 20
30.53560383351194
 10
365.1308565710437
 20
30.53560383351194
 10
363.8313665540074
 20
30.53560383351194
 10
363.8313665540074
 20
30.53560383351194
 10
363.8313665540074
 20
30.53560383351194
 10
363.8313665540074
 20
31.36724988365124
 10
363.8313665540074
 20
31.36724988365124
 10
363.8313665540074
 20
31.36724988365124
 10
364.5796412934037
 20
31.36724988365124
 10
364.5796412934037
 20
31.36724988365124
 10
364.5796412934037
 20
31.36724988365124
 10
364.5796412934037
 20
32.18580457094661
 10
364.5796412934037
 20
32.18580457094661
 10
364.5796412934037
 20
32.18580457094661
 10
365.4808782723451
 20
32.18580457094661
 10
365.4808782723451
 20
32.18580457094661
 10
365.4808782723451
 20
32.18580457094661
 10
365.4808782723451
 20
31.36724988365124
 10
365.4808782723451
 20
31.36724988365124
 10
365.4808782723451
 20
31.36724988365124
 10
366.086526058652
 20
31.36724988365124
 10
366.086526058652
 20
31.36724988365124
 10
366.086526058652
 20
31.36724988365124
 10
366.086526058652
 20
30.53009168073553
 10
366.086526058652
 20
30.53009168073553
 10
365.9983316142296
 20
30.31649576065005
 10
365.8846434632164
 20
30.06086967564451
 10
365.617993072658
 20
29.67501898129652
 10
365.9445881246597
 20
29.31328395534529
 10
366.2353541836148
 20
29.1410291810828
 10
366.4248344353035
 20
29.03423122104006
 10
366.4248344353035
 20
29.03423122104006
 10
365.9797280986093
 20
28.19156086534795
 10
365.9797280986093
 20
28.19156086534795
 10
365.8074733243467
 20
28.35141329586354
 10
365.6710475431308
 20
28.49404024895288
 10
365.4808782723451
 20
28.76069063951122
 10
365.4808782723451
 20
28.76069063951122
 10
365.4808782723451
 20
26.55307345256312
 10
365.4808782723451
 20
26.55307345256312
 72
     1
 10
365.4808782723451
 20
26.55307345256312
 11
365.4808782723451
 21
26.55307345256312
 97
        0
 75
     2
 76
     1
 98
        0
  0
SPLINE
  5
1D3
330
1AE
100
AcDbEntity
  8
\U+30D5\U+30A9\U+30FC\U+30DE\U+30C3\U+30C8
370
     0
100
AcDbSpline
210
0.0
220
0.0
230
1.0
 70
    11
 71
     3
 72
    47
 73
    43
 74
     0
 42
0.0000000001
 43
0.0000000001
 40
0.0
 40
0.0
 40
0.0
 40
0.0
 40
1.0
 40
1.0
 40
1.0
 40
2.0
 40
2.0
 40
2.0
 40
3.0
 40
3.0
 40
3.0
 40
4.0
 40
4.0
 40
4.0
 40
5.0
 40
5.0
 40
5.0
 40
6.0
 40
6.0
 40
6.0
 40
7.0
 40
7.0
 40
7.0
 40
8.0
 40
8.0
 40
8.0
 40
9.0
 40
9.0
 40
9.0
 40
10.0
 40
10.0
 40
10.0
 40
11.0
 40
11.0
 40
11.0
 40
12.0
 40
12.0
 40
12.0
 40
13.0
 40
13.0
 40
13.0
 40
14.0
 40
14.0
 40
14.0
 40
14.0
 10
371.9211397724711
 20
29.96578504025161
 30
0.0
 10
372.3848496247858
 20
29.77630478856287
 30
0.0
 10
372.7286701542137
 20
29.60405001430038
 30
0.0
 10
373.1551729752876
 20
29.28296711507509
 30
0.0
 10
373.4052869075168
 20
29.63367783547353
 30
0.0
 10
373.5658283571294
 20
29.97198621212506
 30
0.0
 10
373.7132784438981
 20
30.49426268768893
 30
0.0
 10
373.7132784438981
 20
30.49426268768893
 30
0.0
 10
371.9983099113407
 20
30.49426268768893
 30
0.0
 10
371.9983099113407
 20
30.49426268768893
 30
0.0
 10
371.5242647725703
 20
29.89481607325546
 30
0.0
 10
371.0068114306858
 20
29.44350856468774
 30
0.0
 10
370.3963405106995
 20
29.09348686338635
 30
0.0
 10
370.3963405106995
 20
29.09348686338635
 30
0.0
 10
369.7906927243926
 20
29.78112792224222
 30
0.0
 10
369.7906927243926
 20
29.78112792224222
 30
0.0
 10
370.8889891650903
 20
30.36955023112289
 30
0.0
 10
371.4174668125276
 20
31.09302028302536
 30
0.0
 10
371.8026284877785
 20
32.08451876368026
 30
0.0
 10
371.8026284877785
 20
32.08451876368026
 30
0.0
 10
372.8175536177332
 20
31.95360513524077
 30
0.0
 10
372.8175536177332
 20
31.95360513524077
 30
0.0
 10
372.7458956316399
 20
31.74069823425233
 30
0.0
 10
372.6990423330406
 20
31.62769910233613
 30
0.0
 10
372.5681287046011
 20
31.36104871177779
 30
0.0
 10
372.5681287046011
 20
31.36104871177779
 30
0.0
 10
374.8832328706889
 20
31.36104871177779
 30
0.0
 10
374.8832328706889
 20
31.36104871177779
 30
0.0
 10
374.4794676798177
 20
28.80203178533421
 30
0.0
 10
373.1379474978614
 20
27.31857366938564
 30
0.0
 10
370.6629909012579
 20
26.73635253237841
 30
0.0
 10
370.6629909012579
 20
26.73635253237841
 30
0.0
 10
370.1586289222173
 20
27.58660209813807
 30
0.0
 10
370.1586289222173
 20
27.58660209813807
 30
0.0
 10
370.5382784446919
 20
27.65136989326077
 30
0.0
 10
371.4705212830004
 20
27.80571017099996
 30
0.0
 10
372.4675319164318
 20
28.57672254059888
 30
0.0
 10
371.9507675936443
 20
28.99289007521705
 30
0.0
 10
371.5352890781231
 20
29.2002848234291
 30
0.0
 10
371.2920653368645
 20
29.32430826089809
 30
0.0
 10
371.2920653368645
 20
29.32430826089809
 30
0.0
 10
371.9211397724711
 20
29.96578504025161
 30
0.0
 10
371.9211397724711
 20
29.96578504025161
 30
0.0
  0
HATCH
  5
1D4
330
1AE
100
AcDbEntity
  8
\U+30D5\U+30A9\U+30FC\U+30DE\U+30C3\U+30C8
 62
    29
100
AcDbHatch
 10
0.0
 20
0.0
 30
0.0
210
0.0
220
0.0
230
1.0
  2
SOLID
 70
     1
 71
     0
 91
        1
 92
        1
 93
        1
 72
     4
 94
        3
 73
     0
 74
     1
 95
       47
 96
       43
 40
0.0
 40
0.0
 40
0.0
 40
0.0
 40
1.0
 40
1.0
 40
1.0
 40
2.0
 40
2.0
 40
2.0
 40
3.0
 40
3.0
 40
3.0
 40
4.0
 40
4.0
 40
4.0
 40
5.0
 40
5.0
 40
5.0
 40
6.0
 40
6.0
 40
6.0
 40
7.0
 40
7.0
 40
7.0
 40
8.0
 40
8.0
 40
8.0
 40
9.0
 40
9.0
 40
9.0
 40
10.0
 40
10.0
 40
10.0
 40
11.0
 40
11.0
 40
11.0
 40
12.0
 40
12.0
 40
12.0
 40
13.0
 40
13.0
 40
13.0
 40
14.0
 40
14.0
 40
14.0
 40
14.0
 10
371.9211397724711
 20
29.96578504025161
 10
372.3848496247858
 20
29.77630478856287
 10
372.7286701542137
 20
29.60405001430038
 10
373.1551729752876
 20
29.28296711507509
 10
373.4052869075168
 20
29.63367783547353
 10
373.5658283571294
 20
29.97198621212506
 10
373.7132784438981
 20
30.49426268768893
 10
373.7132784438981
 20
30.49426268768893
 10
371.9983099113407
 20
30.49426268768893
 10
371.9983099113407
 20
30.49426268768893
 10
371.5242647725703
 20
29.89481607325546
 10
371.0068114306858
 20
29.44350856468774
 10
370.3963405106995
 20
29.09348686338635
 10
370.3963405106995
 20
29.09348686338635
 10
369.7906927243926
 20
29.78112792224222
 10
369.7906927243926
 20
29.78112792224222
 10
370.8889891650903
 20
30.36955023112289
 10
371.4174668125276
 20
31.09302028302536
 10
371.8026284877785
 20
32.08451876368026
 10
371.8026284877785
 20
32.08451876368026
 10
372.8175536177332
 20
31.95360513524077
 10
372.8175536177332
 20
31.95360513524077
 10
372.7458956316399
 20
31.74069823425233
 10
372.6990423330406
 20
31.62769910233613
 10
372.5681287046011
 20
31.36104871177779
 10
372.5681287046011
 20
31.36104871177779
 10
374.8832328706889
 20
31.36104871177779
 10
374.8832328706889
 20
31.36104871177779
 10
374.4794676798177
 20
28.80203178533421
 10
373.1379474978614
 20
27.31857366938564
 10
370.6629909012579
 20
26.73635253237841
 10
370.6629909012579
 20
26.73635253237841
 10
370.1586289222173
 20
27.58660209813807
 10
370.1586289222173
 20
27.58660209813807
 10
370.5382784446919
 20
27.65136989326077
 10
371.4705212830004
 20
27.80571017099996
 10
372.4675319164318
 20
28.57672254059888
 10
371.9507675936443
 20
28.99289007521705
 10
371.5352890781231
 20
29.2002848234291
 10
371.2920653368645
 20
29.32430826089809
 10
371.2920653368645
 20
29.32430826089809
 10
371.9211397724711
 20
29.96578504025161
 10
371.9211397724711
 20
29.96578504025161
 97
        0
 75
     2
 76
     1
 98
        0
  0
SPLINE
  5
1D5
330
1AE
100
AcDbEntity
  8
\U+30D5\U+30A9\U+30FC\U+30DE\U+30C3\U+30C8
370
     0
100
AcDbSpline
210
0.0
220
0.0
230
1.0
 70
    11
 71
     3
 72
    68
 73
    64
 74
     0
 42
0.0000000001
 43
0.0000000001
 40
0.0
 40
0.0
 40
0.0
 40
0.0
 40
1.0
 40
1.0
 40
1.0
 40
2.0
 40
2.0
 40
2.0
 40
3.0
 40
3.0
 40
3.0
 40
4.0
 40
4.0
 40
4.0
 40
5.0
 40
5.0
 40
5.0
 40
6.0
 40
6.0
 40
6.0
 40
7.0
 40
7.0
 40
7.0
 40
8.0
 40
8.0
 40
8.0
 40
9.0
 40
9.0
 40
9.0
 40
10.0
 40
10.0
 40
10.0
 40
11.0
 40
11.0
 40
11.0
 40
12.0
 40
12.0
 40
12.0
 40
13.0
 40
13.0
 40
13.0
 40
14.0
 40
14.0
 40
14.0
 40
15.0
 40
15.0
 40
15.0
 40
16.0
 40
16.0
 40
16.0
 40
17.0
 40
17.0
 40
17.0
 40
18.0
 40
18.0
 40
18.0
 40
19.0
 40
19.0
 40
19.0
 40
20.0
 40
20.0
 40
20.0
 40
21.0
 40
21.0
 40
21.0
 40
21.0
 10
380.4215683727766
 20
30.96968586465341
 30
0.0
 10
380.4215683727766
 20
30.96968586465341
 30
0.0
 10
380.4215683727766
 20
30.06086967564451
 30
0.0
 10
380.4215683727766
 20
30.06086967564451
 30
0.0
 10
380.4215683727766
 20
29.43179524003789
 30
0.0
 10
380.3678248832067
 20
28.22118868652109
 30
0.0
 10
380.2603379040669
 20
27.74645452865366
 30
0.0
 10
380.0653454996017
 20
26.88586967643825
 30
0.0
 10
379.5664956733376
 20
26.80869953756866
 30
0.0
 10
379.0380180259002
 20
26.80869953756866
 30
0.0
 10
378.45648590799
 20
26.80869953756866
 30
0.0
 10
378.1650308299379
 20
26.87346733269136
 30
0.0
 10
378.0113795712958
 20
26.90929632573796
 30
0.0
 10
378.0113795712958
 20
26.90929632573796
 30
0.0
 10
377.9583251008229
 20
27.84085014494951
 30
0.0
 10
377.9583251008229
 20
27.84085014494951
 30
0.0
 10
378.1774331736848
 20
27.80019801822356
 30
0.0
 10
378.51022939756
 20
27.74025335678022
 30
0.0
 10
378.8657632516378
 20
27.74025335678022
 30
0.0
 10
379.1503281387194
 20
27.74025335678022
 30
0.0
 10
379.2633272706356
 20
27.80571017099996
 30
0.0
 10
379.3232719320789
 20
27.96556260151555
 30
0.0
 10
379.4231797011512
 20
28.28595648164379
 30
0.0
 10
379.4707220188476
 20
29.62678764450303
 30
0.0
 10
379.4707220188476
 20
29.77010361668942
 30
0.0
 10
379.4707220188476
 20
29.77010361668942
 30
0.0
 10
379.4707220188476
 20
30.07947319126486
 30
0.0
 10
379.4707220188476
 20
30.07947319126486
 30
0.0
 10
379.4707220188476
 20
30.07947319126486
 30
0.0
 10
378.1774331736848
 20
30.07947319126486
 30
0.0
 10
378.1774331736848
 20
30.07947319126486
 30
0.0
 10
378.0527207171188
 20
29.35462510116829
 30
0.0
 10
377.8570392935566
 20
28.83234862560441
 30
0.0
 10
377.6310410297242
 20
28.41687011008328
 30
0.0
 10
377.0853379048606
 20
27.40745713290508
 30
0.0
 10
376.3611788338611
 20
26.95614962433735
 30
0.0
 10
376.0642116030326
 20
26.77218152542501
 30
0.0
 10
376.0642116030326
 20
26.77218152542501
 30
0.0
 10
375.4110214990292
 20
27.49082844364813
 30
0.0
 10
375.4110214990292
 20
27.49082844364813
 30
0.0
 10
376.6106037469932
 20
28.1550428532043
 30
0.0
 10
376.9778509257208
 20
28.90400661169761
 30
0.0
 10
377.1914468458063
 20
30.07947319126486
 30
0.0
 10
377.1914468458063
 20
30.07947319126486
 30
0.0
 10
375.6900742333344
 20
30.07947319126486
 30
0.0
 10
375.6900742333344
 20
30.07947319126486
 30
0.0
 10
375.6900742333344
 20
30.07947319126486
 30
0.0
 10
375.6900742333344
 20
30.96968586465341
 30
0.0
 10
375.6900742333344
 20
30.96968586465341
 30
0.0
 10
375.6900742333344
 20
30.96968586465341
 30
0.0
 10
377.2989338249461
 20
30.96968586465341
 30
0.0
 10
377.2989338249461
 20
30.96968586465341
 30
0.0
 10
377.3278726270222
 20
31.36724988365124
 30
0.0
 10
377.3347628179927
 20
31.61598577768628
 30
0.0
 10
377.3347628179927
 20
31.99632431925787
 30
0.0
 10
377.3347628179927
 20
31.99632431925787
 30
0.0
 10
378.3372856042004
 20
31.98392197551097
 30
0.0
 10
378.3372856042004
 20
31.98392197551097
 30
0.0
 10
378.3193711076771
 20
31.47335882459694
 30
0.0
 10
378.3021456302509
 20
31.2659640763849
 30
0.0
 10
378.2787189809512
 20
30.96968586465341
 30
0.0
 10
378.2787189809512
 20
30.96968586465341
 30
0.0
 10
380.4215683727766
 20
30.96968586465341
 30
0.0
 10
380.4215683727766
 20
30.96968586465341
 30
0.0
  0
HATCH
  5
1D6
330
1AE
100
AcDbEntity
  8
\U+30D5\U+30A9\U+30FC\U+30DE\U+30C3\U+30C8
 62
    29
100
AcDbHatch
 10
0.0
 20
0.0
 30
0.0
210
0.0
220
0.0
230
1.0
  2
SOLID
 70
     1
 71
     0
 91
        1
 92
        1
 93
        1
 72
     4
 94
        3
 73
     0
 74
     1
 95
       68
 96
       64
 40
0.0
 40
0.0
 40
0.0
 40
0.0
 40
1.0
 40
1.0
 40
1.0
 40
2.0
 40
2.0
 40
2.0
 40
3.0
 40
3.0
 40
3.0
 40
4.0
 40
4.0
 40
4.0
 40
5.0
 40
5.0
 40
5.0
 40
6.0
 40
6.0
 40
6.0
 40
7.0
 40
7.0
 40
7.0
 40
8.0
 40
8.0
 40
8.0
 40
9.0
 40
9.0
 40
9.0
 40
10.0
 40
10.0
 40
10.0
 40
11.0
 40
11.0
 40
11.0
 40
12.0
 40
12.0
 40
12.0
 40
13.0
 40
13.0
 40
13.0
 40
14.0
 40
14.0
 40
14.0
 40
15.0
 40
15.0
 40
15.0
 40
16.0
 40
16.0
 40
16.0
 40
17.0
 40
17.0
 40
17.0
 40
18.0
 40
18.0
 40
18.0
 40
19.0
 40
19.0
 40
19.0
 40
20.0
 40
20.0
 40
20.0
 40
21.0
 40
21.0
 40
21.0
 40
21.0
 10
380.4215683727766
 20
30.96968586465341
 10
380.4215683727766
 20
30.96968586465341
 10
380.4215683727766
 20
30.06086967564451
 10
380.4215683727766
 20
30.06086967564451
 10
380.4215683727766
 20
29.43179524003789
 10
380.3678248832067
 20
28.22118868652109
 10
380.2603379040669
 20
27.74645452865366
 10
380.0653454996017
 20
26.88586967643825
 10
379.5664956733376
 20
26.80869953756866
 10
379.0380180259002
 20
26.80869953756866
 10
378.45648590799
 20
26.80869953756866
 10
378.1650308299379
 20
26.87346733269136
 10
378.0113795712958
 20
26.90929632573796
 10
378.0113795712958
 20
26.90929632573796
 10
377.9583251008229
 20
27.84085014494951
 10
377.9583251008229
 20
27.84085014494951
 10
378.1774331736848
 20
27.80019801822356
 10
378.51022939756
 20
27.74025335678022
 10
378.8657632516378
 20
27.74025335678022
 10
379.1503281387194
 20
27.74025335678022
 10
379.2633272706356
 20
27.80571017099996
 10
379.3232719320789
 20
27.96556260151555
 10
379.4231797011512
 20
28.28595648164379
 10
379.4707220188476
 20
29.62678764450303
 10
379.4707220188476
 20
29.77010361668942
 10
379.4707220188476
 20
29.77010361668942
 10
379.4707220188476
 20
30.07947319126486
 10
379.4707220188476
 20
30.07947319126486
 10
379.4707220188476
 20
30.07947319126486
 10
378.1774331736848
 20
30.07947319126486
 10
378.1774331736848
 20
30.07947319126486
 10
378.0527207171188
 20
29.35462510116829
 10
377.8570392935566
 20
28.83234862560441
 10
377.6310410297242
 20
28.41687011008328
 10
377.0853379048606
 20
27.40745713290508
 10
376.3611788338611
 20
26.95614962433735
 10
376.0642116030326
 20
26.77218152542501
 10
376.0642116030326
 20
26.77218152542501
 10
375.4110214990292
 20
27.49082844364813
 10
375.4110214990292
 20
27.49082844364813
 10
376.6106037469932
 20
28.1550428532043
 10
376.9778509257208
 20
28.90400661169761
 10
377.1914468458063
 20
30.07947319126486
 10
377.1914468458063
 20
30.07947319126486
 10
375.6900742333344
 20
30.07947319126486
 10
375.6900742333344
 20
30.07947319126486
 10
375.6900742333344
 20
30.07947319126486
 10
375.6900742333344
 20
30.96968586465341
 10
375.6900742333344
 20
30.96968586465341
 10
375.6900742333344
 20
30.96968586465341
 10
377.2989338249461
 20
30.96968586465341
 10
377.2989338249461
 20
30.96968586465341
 10
377.3278726270222
 20
31.36724988365124
 10
377.3347628179927
 20
31.61598577768628
 10
377.3347628179927
 20
31.99632431925787
 10
377.3347628179927
 20
31.99632431925787
 10
378.3372856042004
 20
31.98392197551097
 10
378.3372856042004
 20
31.98392197551097
 10
378.3193711076771
 20
31.47335882459694
 10
378.3021456302509
 20
31.2659640763849
 10
378.2787189809512
 20
30.96968586465341
 10
378.2787189809512
 20
30.96968586465341
 10
380.4215683727766
 20
30.96968586465341
 10
380.4215683727766
 20
30.96968586465341
 97
        0
 75
     2
 76
     1
 98
        0
  0
SPLINE
  5
1D7
330
1AE
100
AcDbEntity
  8
\U+30D5\U+30A9\U+30FC\U+30DE\U+30C3\U+30C8
370
     0
100
AcDbSpline
210
0.0
220
0.0
230
1.0
 70
    11
 71
     3
 72
    17
 73
    13
 74
     0
 42
0.0000000001
 43
0.0000000001
 40
0.0
 40
0.0
 40
0.0
 40
0.0
 40
1.0
 40
1.0
 40
1.0
 40
2.0
 40
2.0
 40
2.0
 40
3.0
 40
3.0
 40
3.0
 40
4.0
 40
4.0
 40
4.0
 40
4.0
 10
383.5014837365899
 20
30.40469020507244
 30
0.0
 10
382.9254637714562
 20
30.70234645499803
 30
0.0
 10
382.3087916795964
 20
30.90354003133661
 30
0.0
 10
381.6852293967662
 20
31.05788030907581
 30
0.0
 10
381.6852293967662
 20
31.05788030907581
 30
0.0
 10
382.0235377734177
 20
31.84680717519802
 30
0.0
 10
382.0235377734177
 20
31.84680717519802
 30
0.0
 10
382.5871553948046
 20
31.74069823425233
 30
0.0
 10
383.2996011411543
 20
31.52710231416684
 30
0.0
 10
383.8756211062881
 20
31.2480495798616
 30
0.0
 10
383.8756211062881
 20
31.2480495798616
 30
0.0
 10
383.5014837365899
 20
30.40469020507244
 30
0.0
 10
383.5014837365899
 20
30.40469020507244
 30
0.0
  0
SPLINE
  5
1D8
330
1AE
100
AcDbEntity
  8
\U+30D5\U+30A9\U+30FC\U+30DE\U+30C3\U+30C8
370
     0
100
AcDbSpline
210
0.0
220
0.0
230
1.0
 70
    11
 71
     3
 72
    17
 73
    13
 74
     0
 42
0.0000000001
 43
0.0000000001
 40
0.0
 40
0.0
 40
0.0
 40
0.0
 40
1.0
 40
1.0
 40
1.0
 40
2.0
 40
2.0
 40
2.0
 40
3.0
 40
3.0
 40
3.0
 40
4.0
 40
4.0
 40
4.0
 40
4.0
 10
382.979207261026
 20
28.97497557869376
 30
0.0
 10
382.468644110112
 20
29.25954046577539
 30
0.0
 10
381.8567951519316
 20
29.49656303516058
 30
0.0
 10
381.2284097354221
 20
29.66950682852012
 30
0.0
 10
381.2284097354221
 20
29.66950682852012
 30
0.0
 10
381.5605169402002
 20
30.46394584741874
 30
0.0
 10
381.5605169402002
 20
30.46394584741874
 30
0.0
 10
382.0235377734177
 20
30.36955023112289
 30
0.0
 10
382.7773246655904
 20
30.1325276617377
 30
0.0
 10
383.3416313060743
 20
29.82384710625932
 30
0.0
 10
383.3416313060743
 20
29.82384710625932
 30
0.0
 10
382.979207261026
 20
28.97497557869376
 30
0.0
 10
382.979207261026
 20
28.97497557869376
 30
0.0
  0
SPLINE
  5
1D9
330
1AE
100
AcDbEntity
  8
\U+30D5\U+30A9\U+30FC\U+30DE\U+30C3\U+30C8
370
     0
100
AcDbSpline
210
0.0
220
0.0
230
1.0
 70
    11
 71
     3
 72
    17
 73
    13
 74
     0
 42
0.0000000001
 43
0.0000000001
 40
0.0
 40
0.0
 40
0.0
 40
0.0
 40
1.0
 40
1.0
 40
1.0
 40
2.0
 40
2.0
 40
2.0
 40
3.0
 40
3.0
 40
3.0
 40
4.0
 40
4.0
 40
4.0
 40
4.0
 10
381.5426024436769
 20
27.84636229772591
 30
0.0
 10
383.4119112539734
 20
28.01379393830905
 30
0.0
 10
384.7182914619802
 20
28.35692544863994
 30
0.0
 10
385.5258218437227
 20
31.06408148094926
 30
0.0
 10
385.5258218437227
 20
31.06408148094926
 30
0.0
 10
386.4215466698877
 20
30.63688964077828
 30
0.0
 10
386.4215466698877
 20
30.63688964077828
 30
0.0
 10
385.460365029503
 20
27.78159450260321
 30
0.0
 10
383.999644543757
 20
27.0932644246503
 30
0.0
 10
381.8030516623618
 20
26.82592501499491
 30
0.0
 10
381.8030516623618
 20
26.82592501499491
 30
0.0
 10
381.5426024436769
 20
27.84636229772591
 30
0.0
 10
381.5426024436769
 20
27.84636229772591
 30
0.0
  0
HATCH
  5
1DA
330
1AE
100
AcDbEntity
  8
\U+30D5\U+30A9\U+30FC\U+30DE\U+30C3\U+30C8
 62
    29
100
AcDbHatch
 10
0.0
 20
0.0
 30
0.0
210
0.0
220
0.0
230
1.0
  2
SOLID
 70
     1
 71
     0
 91
        3
 92
        1
 93
        1
 72
     4
 94
        3
 73
     0
 74
     1
 95
       17
 96
       13
 40
0.0
 40
0.0
 40
0.0
 40
0.0
 40
1.0
 40
1.0
 40
1.0
 40
2.0
 40
2.0
 40
2.0
 40
3.0
 40
3.0
 40
3.0
 40
4.0
 40
4.0
 40
4.0
 40
4.0
 10
381.5426024436769
 20
27.84636229772591
 10
383.4119112539734
 20
28.01379393830905
 10
384.7182914619802
 20
28.35692544863994
 10
385.5258218437227
 20
31.06408148094926
 10
385.5258218437227
 20
31.06408148094926
 10
386.4215466698877
 20
30.63688964077828
 10
386.4215466698877
 20
30.63688964077828
 10
385.460365029503
 20
27.78159450260321
 10
383.999644543757
 20
27.0932644246503
 10
381.8030516623618
 20
26.82592501499491
 10
381.8030516623618
 20
26.82592501499491
 10
381.5426024436769
 20
27.84636229772591
 10
381.5426024436769
 20
27.84636229772591
 97
        0
 92
        1
 93
        2
 72
     4
 94
        3
 73
     0
 74
     0
 95
       17
 96
       13
 40
0.0
 40
0.0
 40
0.0
 40
0.0
 40
0.3527777776895833
 40
0.3527777776895833
 40
0.3527777776895833
 40
0.7055555553791667
 40
0.7055555553791667
 40
0.7055555553791667
 40
1.05833333306875
 40
1.05833333306875
 40
1.05833333306875
 40
1.411111110758333
 40
1.411111110758333
 40
1.411111110758333
 40
1.411111110758333
 10
383.5014837365899
 20
30.40469020507244
 10
382.9254637714562
 20
30.70234645499803
 10
382.3087916795964
 20
30.90354003133661
 10
381.6852293967662
 20
31.05788030907581
 10
381.6852293967662
 20
31.05788030907581
 10
382.0235377734177
 20
31.84680717519802
 10
382.0235377734177
 20
31.84680717519802
 10
382.5871553948046
 20
31.74069823425233
 10
383.2996011411543
 20
31.52710231416684
 10
383.8756211062881
 20
31.2480495798616
 10
383.8756211062881
 20
31.2480495798616
 10
383.5014837365899
 20
30.40469020507244
 10
383.5014837365899
 20
30.40469020507244
 72
     1
 10
383.5014837365899
 20
30.40469020507244
 11
383.5014837365899
 21
30.40469020507244
 97
        0
 92
        1
 93
        2
 72
     4
 94
        3
 73
     0
 74
     0
 95
       17
 96
       13
 40
0.0
 40
0.0
 40
0.0
 40
0.0
 40
0.3527777776895833
 40
0.3527777776895833
 40
0.3527777776895833
 40
0.7055555553791667
 40
0.7055555553791667
 40
0.7055555553791667
 40
1.05833333306875
 40
1.05833333306875
 40
1.05833333306875
 40
1.411111110758333
 40
1.411111110758333
 40
1.411111110758333
 40
1.411111110758333
 10
382.979207261026
 20
28.97497557869376
 10
382.468644110112
 20
29.25954046577539
 10
381.8567951519316
 20
29.49656303516058
 10
381.2284097354221
 20
29.66950682852012
 10
381.2284097354221
 20
29.66950682852012
 10
381.5605169402002
 20
30.46394584741874
 10
381.5605169402002
 20
30.46394584741874
 10
382.0235377734177
 20
30.36955023112289
 10
382.7773246655904
 20
30.1325276617377
 10
383.3416313060743
 20
29.82384710625932
 10
383.3416313060743
 20
29.82384710625932
 10
382.979207261026
 20
28.97497557869376
 10
382.979207261026
 20
28.97497557869376
 72
     1
 10
382.979207261026
 20
28.97497557869376
 11
382.979207261026
 21
28.97497557869376
 97
        0
 75
     2
 76
     1
 98
        0
  0
POLYLINE
  5
1DB
330
1AE
100
AcDbEntity
  8
\U+30D5\U+30A9\U+30FC\U+30DE\U+30C3\U+30C8
370
     0
100
AcDb2dPolyline
 66
     1
 10
0.0
 20
0.0
 30
0.0
  0
VERTEX
  5
1DC
330
1DB
100
AcDbEntity
  8
\U+30D5\U+30A9\U+30FC\U+30DE\U+30C3\U+30C8
370
     0
100
AcDbVertex
100
AcDb2dVertex
 10
390.6603921549391
 20
30.78502874664402
 30
0.0
  0
VERTEX
  5
1DD
330
1DB
100
AcDbEntity
  8
\U+30D5\U+30A9\U+30FC\U+30DE\U+30C3\U+30C8
370
     0
100
AcDbVertex
100
AcDb2dVertex
 10
390.6603921549391
 20
26.92721082226126
 30
0.0
  0
VERTEX
  5
1DE
330
1DB
100
AcDbEntity
  8
\U+30D5\U+30A9\U+30FC\U+30DE\U+30C3\U+30C8
370
     0
100
AcDbVertex
100
AcDb2dVertex
 10
387.0271944561946
 20
26.92721082226126
 30
0.0
  0
VERTEX
  5
1DF
330
1DB
100
AcDbEntity
  8
\U+30D5\U+30A9\U+30FC\U+30DE\U+30C3\U+30C8
370
     0
100
AcDbVertex
100
AcDb2dVertex
 10
387.0271944561946
 20
27.74645452865366
 30
0.0
  0
VERTEX
  5
1E0
330
1DB
100
AcDbEntity
  8
\U+30D5\U+30A9\U+30FC\U+30DE\U+30C3\U+30C8
370
     0
100
AcDbVertex
100
AcDb2dVertex
 10
389.7570881187066
 20
27.74645452865366
 30
0.0
  0
VERTEX
  5
1E1
330
1DB
100
AcDbEntity
  8
\U+30D5\U+30A9\U+30FC\U+30DE\U+30C3\U+30C8
370
     0
100
AcDbVertex
100
AcDb2dVertex
 10
389.7570881187066
 20
28.49404024895288
 30
0.0
  0
VERTEX
  5
1E2
330
1DB
100
AcDbEntity
  8
\U+30D5\U+30A9\U+30FC\U+30DE\U+30C3\U+30C8
370
     0
100
AcDbVertex
100
AcDb2dVertex
 10
387.1815347339338
 20
28.49404024895288
 30
0.0
  0
VERTEX
  5
1E3
330
1DB
100
AcDbEntity
  8
\U+30D5\U+30A9\U+30FC\U+30DE\U+30C3\U+30C8
370
     0
100
AcDbVertex
100
AcDb2dVertex
 10
387.1815347339338
 20
29.27745496229869
 30
0.0
  0
VERTEX
  5
1E4
330
1DB
100
AcDbEntity
  8
\U+30D5\U+30A9\U+30FC\U+30DE\U+30C3\U+30C8
370
     0
100
AcDbVertex
100
AcDb2dVertex
 10
389.7570881187066
 20
29.27745496229869
 30
0.0
  0
VERTEX
  5
1E5
330
1DB
100
AcDbEntity
  8
\U+30D5\U+30A9\U+30FC\U+30DE\U+30C3\U+30C8
370
     0
100
AcDbVertex
100
AcDb2dVertex
 10
389.7570881187066
 20
29.98438855587196
 30
0.0
  0
VERTEX
  5
1E6
330
1DB
100
AcDbEntity
  8
\U+30D5\U+30A9\U+30FC\U+30DE\U+30C3\U+30C8
370
     0
100
AcDbVertex
100
AcDb2dVertex
 10
387.0864500985409
 20
29.98438855587196
 30
0.0
  0
VERTEX
  5
1E7
330
1DB
100
AcDbEntity
  8
\U+30D5\U+30A9\U+30FC\U+30DE\U+30C3\U+30C8
370
     0
100
AcDbVertex
100
AcDb2dVertex
 10
387.0864500985409
 20
30.78502874664402
 30
0.0
  0
VERTEX
  5
1E8
330
1DB
100
AcDbEntity
  8
\U+30D5\U+30A9\U+30FC\U+30DE\U+30C3\U+30C8
370
     0
100
AcDbVertex
100
AcDb2dVertex
 10
390.6603921549391
 20
30.78502874664402
 30
0.0
  0
SEQEND
  5
1E9
330
1DB
100
AcDbEntity
  8
\U+30D5\U+30A9\U+30FC\U+30DE\U+30C3\U+30C8
370
     0
  0
HATCH
  5
1EA
330
1AE
100
AcDbEntity
  8
\U+30D5\U+30A9\U+30FC\U+30DE\U+30C3\U+30C8
 62
    29
100
AcDbHatch
 10
0.0
 20
0.0
 30
0.0
210
0.0
220
0.0
230
1.0
  2
SOLID
 70
     1
 71
     0
 91
        1
 92
        1
 93
       12
 72
     1
 10
390.6603921549391
 20
30.78502874664402
 11
390.6603921549391
 21
26.92721082226126
 72
     1
 10
390.6603921549391
 20
26.92721082226126
 11
387.0271944561946
 21
26.92721082226126
 72
     1
 10
387.0271944561946
 20
26.92721082226126
 11
387.0271944561946
 21
27.74645452865366
 72
     1
 10
387.0271944561946
 20
27.74645452865366
 11
389.7570881187066
 21
27.74645452865366
 72
     1
 10
389.7570881187066
 20
27.74645452865366
 11
389.7570881187066
 21
28.49404024895288
 72
     1
 10
389.7570881187066
 20
28.49404024895288
 11
387.1815347339338
 21
28.49404024895288
 72
     1
 10
387.1815347339338
 20
28.49404024895288
 11
387.1815347339338
 21
29.27745496229869
 72
     1
 10
387.1815347339338
 20
29.27745496229869
 11
389.7570881187066
 21
29.27745496229869
 72
     1
 10
389.7570881187066
 20
29.27745496229869
 11
389.7570881187066
 21
29.98438855587196
 72
     1
 10
389.7570881187066
 20
29.98438855587196
 11
387.0864500985409
 21
29.98438855587196
 72
     1
 10
387.0864500985409
 20
29.98438855587196
 11
387.0864500985409
 21
30.78502874664402
 72
     1
 10
387.0864500985409
 20
30.78502874664402
 11
390.6603921549391
 21
30.78502874664402
 97
        0
 75
     2
 76
     1
 98
        0
  0
POLYLINE
  5
1EB
330
1AE
100
AcDbEntity
  8
\U+30D5\U+30A9\U+30FC\U+30DE\U+30C3\U+30C8
370
     0
100
AcDb2dPolyline
 66
     1
 10
0.0
 20
0.0
 30
0.0
  0
VERTEX
  5
1EC
330
1EB
100
AcDbEntity
  8
\U+30D5\U+30A9\U+30FC\U+30DE\U+30C3\U+30C8
370
     0
100
AcDbVertex
100
AcDb2dVertex
 10
395.9120957126539
 20
29.75218912016612
 30
0.0
  0
VERTEX
  5
1ED
330
1EB
100
AcDbEntity
  8
\U+30D5\U+30A9\U+30FC\U+30DE\U+30C3\U+30C8
370
     0
100
AcDbVertex
100
AcDb2dVertex
 10
395.9120957126539
 20
29.00460339986691
 30
0.0
  0
VERTEX
  5
1EE
330
1EB
100
AcDbEntity
  8
\U+30D5\U+30A9\U+30FC\U+30DE\U+30C3\U+30C8
370
     0
100
AcDbVertex
100
AcDb2dVertex
 10
391.5078856443105
 20
29.00460339986691
 30
0.0
  0
VERTEX
  5
1EF
330
1EB
100
AcDbEntity
  8
\U+30D5\U+30A9\U+30FC\U+30DE\U+30C3\U+30C8
370
     0
100
AcDbVertex
100
AcDb2dVertex
 10
391.5078856443105
 20
29.75218912016612
 30
0.0
  0
VERTEX
  5
1F0
330
1EB
100
AcDbEntity
  8
\U+30D5\U+30A9\U+30FC\U+30DE\U+30C3\U+30C8
370
     0
100
AcDbVertex
100
AcDb2dVertex
 10
395.9120957126539
 20
29.75218912016612
 30
0.0
  0
SEQEND
  5
1F1
330
1EB
100
AcDbEntity
  8
\U+30D5\U+30A9\U+30FC\U+30DE\U+30C3\U+30C8
370
     0
  0
HATCH
  5
1F2
330
1AE
100
AcDbEntity
  8
\U+30D5\U+30A9\U+30FC\U+30DE\U+30C3\U+30C8
 62
    29
100
AcDbHatch
 10
0.0
 20
0.0
 30
0.0
210
0.0
220
0.0
230
1.0
  2
SOLID
 70
     1
 71
     0
 91
        1
 92
        1
 93
        4
 72
     1
 10
395.9120957126539
 20
29.75218912016612
 11
395.9120957126539
 21
29.00460339986691
 72
     1
 10
395.9120957126539
 20
29.00460339986691
 11
391.5078856443105
 21
29.00460339986691
 72
     1
 10
391.5078856443105
 20
29.00460339986691
 11
391.5078856443105
 21
29.75218912016612
 72
     1
 10
391.5078856443105
 20
29.75218912016612
 11
395.9120957126539
 21
29.75218912016612
 97
        0
 75
     2
 76
     1
 98
        0
  0
ENDBLK
  5
1B1
330
1AE
100
AcDbEntity
  8
0
100
AcDbBlockEnd
  0
BLOCK
  5
218
330
216
100
AcDbEntity
  8
0
100
AcDbBlockBegin
  2
block 18
 70
     0
 71
     0
 10
0.0
 20
0.0
 30
0.0
  3
block 18
  1

  0
POLYLINE
  5
21A
330
216
100
AcDbEntity
  8
\U+56F3pt
 62
     7
370
    35
100
AcDb2dPolyline
 66
     1
 10
0.0
 20
0.0
 30
0.0
  0
VERTEX
  5
21B
330
21A
100
AcDbEntity
  8
\U+56F3pt
 62
     7
370
    35
100
AcDbVertex
100
AcDb2dVertex
 10
188.9267970990357
 20
136.5181097748982
 30
0.0
  0
VERTEX
  5
21C
330
21A
100
AcDbEntity
  8
\U+56F3pt
 62
     7
370
    35
100
AcDbVertex
100
AcDb2dVertex
 10
188.9350653282003
 20
136.5057074311514
 30
0.0
  0
SEQEND
  5
21D
330
21A
100
AcDbEntity
  8
\U+56F3pt
370
    35
  0
POLYLINE
  5
21E
330
216
100
AcDbEntity
  8
\U+56F3pt
 62
     7
370
    35
100
AcDb2dPolyline
 66
     1
 10
0.0
 20
0.0
 30
0.0
  0
VERTEX
  5
21F
330
21E
100
AcDbEntity
  8
\U+56F3pt
 62
     7
370
    35
100
AcDbVertex
100
AcDb2dVertex
 10
197.6311753520679
 20
122.890690073444
 30
0.0
  0
VERTEX
  5
220
330
21E
100
AcDbEntity
  8
\U+56F3pt
 62
     7
370
    35
100
AcDbVertex
100
AcDb2dVertex
 10
188.9350653282003
 20
136.5057074311514
 30
0.0
  0
SEQEND
  5
221
330
21E
100
AcDbEntity
  8
\U+56F3pt
370
    35
  0
POLYLINE
  5
222
330
216
100
AcDbEntity
  8
\U+56F3pt
 62
     7
370
    35
100
AcDb2dPolyline
 66
     1
 10
0.0
 20
0.0
 30
0.0
  0
VERTEX
  5
223
330
222
100
AcDbEntity
  8
\U+56F3pt
 62
     7
370
    35
100
AcDbVertex
100
AcDb2dVertex
 10
188.0941175202508
 20
135.9710286118406
 30
0.0
  0
VERTEX
  5
224
330
222
100
AcDbEntity
  8
\U+56F3pt
 62
     7
370
    35
100
AcDbVertex
100
AcDb2dVertex
 10
188.1144435836138
 20
135.9393337333763
 30
0.0
  0
SEQEND
  5
225
330
222
100
AcDbEntity
  8
\U+56F3pt
370
    35
  0
SPLINE
  5
226
330
216
100
AcDbEntity
  8
\U+56F3pt
 62
     7
370
    35
100
AcDbSpline
210
0.0
220
0.0
230
1.0
 70
     8
 71
     3
 72
    20
 73
    16
 74
     0
 42
0.0000000001
 43
0.0000000001
 40
0.0
 40
0.0
 40
0.0
 40
0.0
 40
1.0
 40
1.0
 40
1.0
 40
2.0
 40
2.0
 40
2.0
 40
3.0
 40
3.0
 40
3.0
 40
4.0
 40
4.0
 40
4.0
 40
5.0
 40
5.0
 40
5.0
 40
5.0
 10
208.016071182805
 20
118.9405435900565
 30
0.0
 10
208.016071182805
 20
118.3886392933195
 30
0.0
 10
207.5682087697225
 20
117.940776880237
 30
0.0
 10
207.0156154538885
 20
117.940776880237
 30
0.0
 10
207.0156154538885
 20
117.940776880237
 30
0.0
 10
200.3968980076265
 20
118.823410343558
 30
0.0
 10
200.3968980076265
 20
118.823410343558
 30
0.0
 10
200.3968980076265
 20
118.823410343558
 30
0.0
 10
199.6906534331503
 20
118.9171169407568
 30
0.0
 10
199.6906534331503
 20
118.9171169407568
 30
0.0
 10
199.0415974437292
 20
119.0824815240488
 30
0.0
 10
198.5792656296087
 20
119.4586859510381
 30
0.0
 10
198.1768784769315
 20
119.967871063758
 30
0.0
 10
198.1768784769315
 20
119.967871063758
 30
0.0
 10
188.1144435836138
 20
135.9393337333763
 30
0.0
 10
188.1144435836138
 20
135.9393337333763
 30
0.0
  0
SPLINE
  5
227
330
216
100
AcDbEntity
  8
\U+56F3pt
 62
     7
370
    35
100
AcDbSpline
210
0.0
220
0.0
230
1.0
 70
    24
 71
     3
 72
     8
 73
     4
 74
     0
 42
0.0000000001
 43
0.0000000001
 40
0.0
 40
0.0
 40
0.0
 40
0.0
 40
1.0
 40
1.0
 40
1.0
 40
1.0
 10
188.9267970990357
 20
136.5181097748982
 30
0.0
 10
188.9295531754239
 20
136.513975660316
 30
0.0
 10
188.9323092518121
 20
136.5098415457337
 30
0.0
 10
188.9350653282003
 20
136.5057074311514
 30
0.0
  0
SPLINE
  5
228
330
216
100
AcDbEntity
  8
\U+56F3pt
 62
     7
370
    35
100
AcDbSpline
210
0.0
220
0.0
230
1.0
 70
     8
 71
     3
 72
    14
 73
    10
 74
     0
 42
0.0000000001
 43
0.0000000001
 40
0.0
 40
0.0
 40
0.0
 40
0.0
 40
1.0
 40
1.0
 40
1.0
 40
2.0
 40
2.0
 40
2.0
 40
3.0
 40
3.0
 40
3.0
 40
3.0
 10
188.9267970990357
 20
136.5181097748982
 30
0.0
 10
188.8368801068706
 20
136.6483343842407
 30
0.0
 10
188.6863294341652
 20
136.7344617713719
 30
0.0
 10
188.5161417171939
 20
136.7344617713719
 30
0.0
 10
188.2398450592769
 20
136.7344617713719
 30
0.0
 10
188.0159138527356
 20
136.5105305648307
 30
0.0
 10
188.0159138527356
 20
136.2342339069137
 30
0.0
 10
188.0159138527356
 20
136.1233018322886
 30
0.0
 10
188.0531208839763
 20
136.0220160250223
 30
0.0
 10
188.1144435836138
 20
135.9393337333763
 30
0.0
  0
ENDBLK
  5
219
330
216
100
AcDbEntity
  8
0
100
AcDbBlockEnd
  0
BLOCK
  5
22B
330
229
100
AcDbEntity
  8
0
100
AcDbBlockBegin
  2
block 19
 70
     0
 71
     0
 10
0.0
 20
0.0
 30
0.0
  3
block 19
  1

  0
POLYLINE
  5
22D
330
229
100
AcDbEntity
  8
\U+56F3pt
 62
    18
370
     9
100
AcDb2dPolyline
 66
     1
 10
0.0
 20
0.0
 30
0.0
  0
VERTEX
  5
22E
330
22D
100
AcDbEntity
  8
\U+56F3pt
 62
    18
370
     9
100
AcDbVertex
100
AcDb2dVertex
 10
141.2645900797012
 20
117.9449109948193
 30
0.0
  0
VERTEX
  5
22F
330
22D
100
AcDbEntity
  8
\U+56F3pt
 62
    18
370
     9
100
AcDbVertex
100
AcDb2dVertex
 10
141.2645900797012
 20
117.9449109948193
 30
0.0
  0
SEQEND
  5
230
330
22D
100
AcDbEntity
  8
\U+56F3pt
370
     9
  0
ENDBLK
  5
22C
330
229
100
AcDbEntity
  8
0
100
AcDbBlockEnd
  0
BLOCK
  5
25B
330
259
100
AcDbEntity
  8
0
100
AcDbBlockBegin
  2
block 20
 70
     0
 71
     0
 10
0.0
 20
0.0
 30
0.0
  3
block 20
  1

  0
POLYLINE
  5
25D
330
259
100
AcDbEntity
  8
\U+56F3pt
 62
    18
370
     9
100
AcDb2dPolyline
 66
     1
 10
0.0
 20
0.0
 30
0.0
  0
VERTEX
  5
25E
330
25D
100
AcDbEntity
  8
\U+56F3pt
 62
    18
370
     9
100
AcDbVertex
100
AcDb2dVertex
 10
187.8946464916548
 20
136.2562825180193
 30
0.0
  0
VERTEX
  5
25F
330
25D
100
AcDbEntity
  8
\U+56F3pt
 62
    18
370
     9
100
AcDbVertex
100
AcDb2dVertex
 10
187.8946464916548
 20
136.2562825180193
 30
0.0
  0
SEQEND
  5
260
330
25D
100
AcDbEntity
  8
\U+56F3pt
370
     9
  0
ENDBLK
  5
25C
330
259
100
AcDbEntity
  8
0
100
AcDbBlockEnd
  0
BLOCK
  5
264
330
262
100
AcDbEntity
  8
0
100
AcDbBlockBegin
  2
block 21
 70
     0
 71
     0
 10
0.0
 20
0.0
 30
0.0
  3
block 21
  1

  0
MTEXT
  5
266
330
262
100
AcDbEntity
  8
Dimension Layer
 62
    18
100
AcDbMText
 10
143.5318074185441
 20
110.2623480627122
 30
0.0
 40
2.398888888289167
 41
0.0
 71
     7
 72
     1
  1
\fHelvetica 45 Light|b0|i0|c0|p34;\W1;7.5
 73
     1
 44
1.0
  0
POLYLINE
  5
267
330
262
100
AcDbEntity
  8
Dimension Layer
 62
    18
370
     9
100
AcDb2dPolyline
 66
     1
 10
0.0
 20
0.0
 30
0.0
  0
VERTEX
  5
268
330
267
100
AcDbEntity
  8
Dimension Layer
 62
    18
370
     9
100
AcDbVertex
100
AcDb2dVertex
 10
133.3534450621478
 20
116.3532768806339
 30
0.0
  0
VERTEX
  5
269
330
267
100
AcDbEntity
  8
Dimension Layer
 62
    18
370
     9
100
AcDbVertex
100
AcDb2dVertex
 10
133.3534450621478
 20
105.8526258415924
 30
0.0
  0
SEQEND
  5
26A
330
267
100
AcDbEntity
  8
Dimension Layer
370
     9
  0
POLYLINE
  5
26B
330
262
100
AcDbEntity
  8
Dimension Layer
 62
    18
370
     9
100
AcDb2dPolyline
 66
     1
 10
0.0
 20
0.0
 30
0.0
  0
VERTEX
  5
26C
330
26B
100
AcDbEntity
  8
Dimension Layer
 62
    18
370
     9
100
AcDbVertex
100
AcDb2dVertex
 10
140.8106987495196
 20
116.3532768806339
 30
0.0
  0
VERTEX
  5
26D
330
26B
100
AcDbEntity
  8
Dimension Layer
 62
    18
370
     9
100
AcDbVertex
100
AcDb2dVertex
 10
140.8106987495196
 20
105.8526258415924
 30
0.0
  0
SEQEND
  5
26E
330
26B
100
AcDbEntity
  8
Dimension Layer
370
     9
  0
POLYLINE
  5
26F
330
262
100
AcDbEntity
  8
Dimension Layer
 62
    18
370
     9
100
AcDb2dPolyline
 66
     1
 10
0.0
 20
0.0
 30
0.0
  0
VERTEX
  5
270
330
26F
100
AcDbEntity
  8
Dimension Layer
 62
    18
370
     9
100
AcDbVertex
100
AcDb2dVertex
 10
129.1635199329869
 20
109.0276258407986
 30
0.0
  0
VERTEX
  5
271
330
26F
100
AcDbEntity
  8
Dimension Layer
 62
    18
370
     9
100
AcDbVertex
100
AcDb2dVertex
 10
149.2343017205039
 20
109.0276258407986
 30
0.0
  0
SEQEND
  5
272
330
26F
100
AcDbEntity
  8
Dimension Layer
370
     9
  0
POLYLINE
  5
273
330
262
100
AcDbEntity
  8
Dimension Layer
 62
    18
370
     9
100
AcDb2dPolyline
 66
     1
 10
0.0
 20
0.0
 30
0.0
  0
VERTEX
  5
274
330
273
100
AcDbEntity
  8
Dimension Layer
 62
    18
370
     9
100
AcDbVertex
100
AcDb2dVertex
 10
131.6712049367003
 20
109.5581705455271
 30
0.0
  0
VERTEX
  5
275
330
273
100
AcDbEntity
  8
Dimension Layer
 62
    18
370
     9
100
AcDbVertex
100
AcDb2dVertex
 10
133.3534450621478
 20
109.0276258407986
 30
0.0
  0
VERTEX
  5
276
330
273
100
AcDbEntity
  8
Dimension Layer
 62
    18
370
     9
100
AcDbVertex
100
AcDb2dVertex
 10
131.6712049367003
 20
108.4970811360702
 30
0.0
  0
VERTEX
  5
277
330
273
100
AcDbEntity
  8
Dimension Layer
 62
    18
370
     9
100
AcDbVertex
100
AcDb2dVertex
 10
131.6712049367003
 20
109.5581705455271
 30
0.0
  0
SEQEND
  5
278
330
273
100
AcDbEntity
  8
Dimension Layer
370
     9
  0
HATCH
  5
279
330
262
100
AcDbEntity
  8
Dimension Layer
 62
    18
100
AcDbHatch
 10
0.0
 20
0.0
 30
0.0
210
0.0
220
0.0
230
1.0
  2
SOLID
 70
     1
 71
     0
 91
        1
 92
        1
 93
        3
 72
     1
 10
131.6712049367003
 20
109.5581705455271
 11
133.3534450621478
 21
109.0276258407986
 72
     1
 10
133.3534450621478
 20
109.0276258407986
 11
131.6712049367003
 21
108.4970811360702
 72
     1
 10
131.6712049367003
 20
108.4970811360702
 11
131.6712049367003
 21
109.5581705455271
 97
        0
 75
     2
 76
     1
 98
        0
  0
POLYLINE
  5
27A
330
262
100
AcDbEntity
  8
Dimension Layer
 62
    18
370
     9
100
AcDb2dPolyline
 66
     1
 10
0.0
 20
0.0
 30
0.0
  0
VERTEX
  5
27B
330
27A
100
AcDbEntity
  8
Dimension Layer
 62
    18
370
     9
100
AcDbVertex
100
AcDb2dVertex
 10
142.4929388749671
 20
108.4970811360702
 30
0.0
  0
VERTEX
  5
27C
330
27A
100
AcDbEntity
  8
Dimension Layer
 62
    18
370
     9
100
AcDbVertex
100
AcDb2dVertex
 10
140.8106987495196
 20
109.0276258407986
 30
0.0
  0
VERTEX
  5
27D
330
27A
100
AcDbEntity
  8
Dimension Layer
 62
    18
370
     9
100
AcDbVertex
100
AcDb2dVertex
 10
142.4929388749671
 20
109.5581705455271
 30
0.0
  0
VERTEX
  5
27E
330
27A
100
AcDbEntity
  8
Dimension Layer
 62
    18
370
     9
100
AcDbVertex
100
AcDb2dVertex
 10
142.4929388749671
 20
108.4970811360702
 30
0.0
  0
SEQEND
  5
27F
330
27A
100
AcDbEntity
  8
Dimension Layer
370
     9
  0
HATCH
  5
280
330
262
100
AcDbEntity
  8
Dimension Layer
 62
    18
100
AcDbHatch
 10
0.0
 20
0.0
 30
0.0
210
0.0
220
0.0
230
1.0
  2
SOLID
 70
     1
 71
     0
 91
        1
 92
        1
 93
        3
 72
     1
 10
142.4929388749671
 20
108.4970811360702
 11
140.8106987495196
 21
109.0276258407986
 72
     1
 10
140.8106987495196
 20
109.0276258407986
 11
142.4929388749671
 21
109.5581705455271
 72
     1
 10
142.4929388749671
 20
109.5581705455271
 11
142.4929388749671
 21
108.4970811360702
 97
        0
 75
     2
 76
     1
 98
        0
  0
ENDBLK
  5
265
330
262
100
AcDbEntity
  8
0
100
AcDbBlockEnd
  0
BLOCK
  5
283
330
281
100
AcDbEntity
  8
0
100
AcDbBlockBegin
  2
block 22
 70
     0
 71
     0
 10
0.0
 20
0.0
 30
0.0
  3
block 22
  1

  0
MTEXT
  5
285
330
281
100
AcDbEntity
  8
Dimension Layer
 62
    18
100
AcDbMText
 10
195.9938937227029
 20
110.2623480627122
 30
0.0
 40
2.398888888289167
 41
0.0
 71
     7
 72
     1
  1
\fHelvetica 45 Light|b0|i0|c0|p34;\W1;20
 73
     1
 44
1.0
  0
POLYLINE
  5
286
330
281
100
AcDbEntity
  8
Dimension Layer
 62
    18
370
     9
100
AcDb2dPolyline
 66
     1
 10
0.0
 20
0.0
 30
0.0
  0
VERTEX
  5
287
330
286
100
AcDbEntity
  8
Dimension Layer
 62
    18
370
     9
100
AcDbVertex
100
AcDb2dVertex
 10
187.8946464916548
 20
134.6687825184162
 30
0.0
  0
VERTEX
  5
288
330
286
100
AcDbEntity
  8
Dimension Layer
 62
    18
370
     9
100
AcDbVertex
100
AcDb2dVertex
 10
187.8946464916548
 20
105.8526258415924
 30
0.0
  0
SEQEND
  5
289
330
286
100
AcDbEntity
  8
Dimension Layer
370
     9
  0
POLYLINE
  5
28A
330
281
100
AcDbEntity
  8
Dimension Layer
 62
    18
370
     9
100
AcDb2dPolyline
 66
     1
 10
0.0
 20
0.0
 30
0.0
  0
VERTEX
  5
28B
330
28A
100
AcDbEntity
  8
Dimension Layer
 62
    18
370
     9
100
AcDbVertex
100
AcDb2dVertex
 10
208.016071182805
 20
117.3530435904534
 30
0.0
  0
VERTEX
  5
28C
330
28A
100
AcDbEntity
  8
Dimension Layer
 62
    18
370
     9
100
AcDbVertex
100
AcDb2dVertex
 10
208.016071182805
 20
105.8526258415924
 30
0.0
  0
SEQEND
  5
28D
330
28A
100
AcDbEntity
  8
Dimension Layer
370
     9
  0
POLYLINE
  5
28E
330
281
100
AcDbEntity
  8
Dimension Layer
 62
    18
370
     9
100
AcDb2dPolyline
 66
     1
 10
0.0
 20
0.0
 30
0.0
  0
VERTEX
  5
28F
330
28E
100
AcDbEntity
  8
Dimension Layer
 62
    18
370
     9
100
AcDbVertex
100
AcDb2dVertex
 10
187.8946464916548
 20
109.0276258407986
 30
0.0
  0
VERTEX
  5
290
330
28E
100
AcDbEntity
  8
Dimension Layer
 62
    18
370
     9
100
AcDbVertex
100
AcDb2dVertex
 10
208.016071182805
 20
109.0276258407986
 30
0.0
  0
SEQEND
  5
291
330
28E
100
AcDbEntity
  8
Dimension Layer
370
     9
  0
POLYLINE
  5
292
330
281
100
AcDbEntity
  8
Dimension Layer
 62
    18
370
     9
100
AcDb2dPolyline
 66
     1
 10
0.0
 20
0.0
 30
0.0
  0
VERTEX
  5
293
330
292
100
AcDbEntity
  8
Dimension Layer
 62
    18
370
     9
100
AcDbVertex
100
AcDb2dVertex
 10
189.5768866171023
 20
108.4970811360702
 30
0.0
  0
VERTEX
  5
294
330
292
100
AcDbEntity
  8
Dimension Layer
 62
    18
370
     9
100
AcDbVertex
100
AcDb2dVertex
 10
187.8946464916548
 20
109.0276258407986
 30
0.0
  0
VERTEX
  5
295
330
292
100
AcDbEntity
  8
Dimension Layer
 62
    18
370
     9
100
AcDbVertex
100
AcDb2dVertex
 10
189.5768866171023
 20
109.5581705455271
 30
0.0
  0
VERTEX
  5
296
330
292
100
AcDbEntity
  8
Dimension Layer
 62
    18
370
     9
100
AcDbVertex
100
AcDb2dVertex
 10
189.5768866171023
 20
108.4970811360702
 30
0.0
  0
SEQEND
  5
297
330
292
100
AcDbEntity
  8
Dimension Layer
370
     9
  0
HATCH
  5
298
330
281
100
AcDbEntity
  8
Dimension Layer
 62
    18
100
AcDbHatch
 10
0.0
 20
0.0
 30
0.0
210
0.0
220
0.0
230
1.0
  2
SOLID
 70
     1
 71
     0
 91
        1
 92
        1
 93
        3
 72
     1
 10
189.5768866171023
 20
108.4970811360702
 11
187.8946464916548
 21
109.0276258407986
 72
     1
 10
187.8946464916548
 20
109.0276258407986
 11
189.5768866171023
 21
109.5581705455271
 72
     1
 10
189.5768866171023
 20
109.5581705455271
 11
189.5768866171023
 21
108.4970811360702
 97
        0
 75
     2
 76
     1
 98
        0
  0
POLYLINE
  5
299
330
281
100
AcDbEntity
  8
Dimension Layer
 62
    18
370
     9
100
AcDb2dPolyline
 66
     1
 10
0.0
 20
0.0
 30
0.0
  0
VERTEX
  5
29A
330
299
100
AcDbEntity
  8
Dimension Layer
 62
    18
370
     9
100
AcDbVertex
100
AcDb2dVertex
 10
206.3338310573575
 20
109.5581705455271
 30
0.0
  0
VERTEX
  5
29B
330
299
100
AcDbEntity
  8
Dimension Layer
 62
    18
370
     9
100
AcDbVertex
100
AcDb2dVertex
 10
208.016071182805
 20
109.0276258407986
 30
0.0
  0
VERTEX
  5
29C
330
299
100
AcDbEntity
  8
Dimension Layer
 62
    18
370
     9
100
AcDbVertex
100
AcDb2dVertex
 10
206.3338310573575
 20
108.4970811360702
 30
0.0
  0
VERTEX
  5
29D
330
299
100
AcDbEntity
  8
Dimension Layer
 62
    18
370
     9
100
AcDbVertex
100
AcDb2dVertex
 10
206.3338310573575
 20
109.5581705455271
 30
0.0
  0
SEQEND
  5
29E
330
299
100
AcDbEntity
  8
Dimension Layer
370
     9
  0
HATCH
  5
29F
330
281
100
AcDbEntity
  8
Dimension Layer
 62
    18
100
AcDbHatch
 10
0.0
 20
0.0
 30
0.0
210
0.0
220
0.0
230
1.0
  2
SOLID
 70
     1
 71
     0
 91
        1
 92
        1
 93
        3
 72
     1
 10
206.3338310573575
 20
109.5581705455271
 11
208.016071182805
 21
109.0276258407986
 72
     1
 10
208.016071182805
 20
109.0276258407986
 11
206.3338310573575
 21
108.4970811360702
 72
     1
 10
206.3338310573575
 20
108.4970811360702
 11
206.3338310573575
 21
109.5581705455271
 97
        0
 75
     2
 76
     1
 98
        0
  0
ENDBLK
  5
284
330
281
100
AcDbEntity
  8
0
100
AcDbBlockEnd
  0
BLOCK
  5
2A2
330
2A0
100
AcDbEntity
  8
0
100
AcDbBlockBegin
  2
block 23
 70
     0
 71
     0
 10
0.0
 20
0.0
 30
0.0
  3
block 23
  1

  0
MTEXT
  5
2A4
330
2A0
100
AcDbEntity
  8
Dimension Layer
 62
    18
100
AcDbMText
 10
135.0927015178761
 20
169.8624999575344
 30
0.0
 40
2.398888888289167
 41
0.0
 71
     7
 72
     1
  1
\fHelvetica 45 Light|b0|i0|c0|p34;\W1;28
 73
     1
 44
1.0
  0
POLYLINE
  5
2A5
330
2A0
100
AcDbEntity
  8
Dimension Layer
 62
    18
370
     9
100
AcDb2dPolyline
 66
     1
 10
0.0
 20
0.0
 30
0.0
  0
VERTEX
  5
2A6
330
2A5
100
AcDbEntity
  8
Dimension Layer
 62
    18
370
     9
100
AcDbVertex
100
AcDb2dVertex
 10
123.0920559045569
 20
145.4350504193704
 30
0.0
  0
VERTEX
  5
2A7
330
2A5
100
AcDbEntity
  8
Dimension Layer
 62
    18
370
     9
100
AcDbVertex
100
AcDb2dVertex
 10
123.0920559045569
 20
171.8027777348271
 30
0.0
  0
SEQEND
  5
2A8
330
2A5
100
AcDbEntity
  8
Dimension Layer
370
     9
  0
POLYLINE
  5
2A9
330
2A0
100
AcDbEntity
  8
Dimension Layer
 62
    18
370
     9
100
AcDb2dPolyline
 66
     1
 10
0.0
 20
0.0
 30
0.0
  0
VERTEX
  5
2AA
330
2A9
100
AcDbEntity
  8
Dimension Layer
 62
    18
370
     9
100
AcDbVertex
100
AcDb2dVertex
 10
151.0720879071104
 20
145.3692490956021
 30
0.0
  0
VERTEX
  5
2AB
330
2A9
100
AcDbEntity
  8
Dimension Layer
 62
    18
370
     9
100
AcDbVertex
100
AcDb2dVertex
 10
151.0720879071104
 20
171.8027777348271
 30
0.0
  0
SEQEND
  5
2AC
330
2A9
100
AcDbEntity
  8
Dimension Layer
370
     9
  0
POLYLINE
  5
2AD
330
2A0
100
AcDbEntity
  8
Dimension Layer
 62
    18
370
     9
100
AcDb2dPolyline
 66
     1
 10
0.0
 20
0.0
 30
0.0
  0
VERTEX
  5
2AE
330
2AD
100
AcDbEntity
  8
Dimension Layer
 62
    18
370
     9
100
AcDbVertex
100
AcDb2dVertex
 10
123.0920559045569
 20
168.6277777356208
 30
0.0
  0
VERTEX
  5
2AF
330
2AD
100
AcDbEntity
  8
Dimension Layer
 62
    18
370
     9
100
AcDbVertex
100
AcDb2dVertex
 10
151.0720879071104
 20
168.6277777356208
 30
0.0
  0
SEQEND
  5
2B0
330
2AD
100
AcDbEntity
  8
Dimension Layer
370
     9
  0
POLYLINE
  5
2B1
330
2A0
100
AcDbEntity
  8
Dimension Layer
 62
    18
370
     9
100
AcDb2dPolyline
 66
     1
 10
0.0
 20
0.0
 30
0.0
  0
VERTEX
  5
2B2
330
2B1
100
AcDbEntity
  8
Dimension Layer
 62
    18
370
     9
100
AcDbVertex
100
AcDb2dVertex
 10
124.7742960300044
 20
168.0974052856666
 30
0.0
  0
VERTEX
  5
2B3
330
2B1
100
AcDbEntity
  8
Dimension Layer
 62
    18
370
     9
100
AcDbVertex
100
AcDb2dVertex
 10
123.0920559045569
 20
168.6277777356208
 30
0.0
  0
VERTEX
  5
2B4
330
2B1
100
AcDbEntity
  8
Dimension Layer
 62
    18
370
     9
100
AcDbVertex
100
AcDb2dVertex
 10
124.7742960300044
 20
169.1581501855751
 30
0.0
  0
VERTEX
  5
2B5
330
2B1
100
AcDbEntity
  8
Dimension Layer
 62
    18
370
     9
100
AcDbVertex
100
AcDb2dVertex
 10
124.7742960300044
 20
168.0974052856666
 30
0.0
  0
SEQEND
  5
2B6
330
2B1
100
AcDbEntity
  8
Dimension Layer
370
     9
  0
HATCH
  5
2B7
330
2A0
100
AcDbEntity
  8
Dimension Layer
 62
    18
100
AcDbHatch
 10
0.0
 20
0.0
 30
0.0
210
0.0
220
0.0
230
1.0
  2
SOLID
 70
     1
 71
     0
 91
        1
 92
        1
 93
        3
 72
     1
 10
124.7742960300044
 20
168.0974052856666
 11
123.0920559045569
 21
168.6277777356208
 72
     1
 10
123.0920559045569
 20
168.6277777356208
 11
124.7742960300044
 21
169.1581501855751
 72
     1
 10
124.7742960300044
 20
169.1581501855751
 11
124.7742960300044
 21
168.0974052856666
 97
        0
 75
     2
 76
     1
 98
        0
  0
POLYLINE
  5
2B8
330
2A0
100
AcDbEntity
  8
Dimension Layer
 62
    18
370
     9
100
AcDb2dPolyline
 66
     1
 10
0.0
 20
0.0
 30
0.0
  0
VERTEX
  5
2B9
330
2B8
100
AcDbEntity
  8
Dimension Layer
 62
    18
370
     9
100
AcDbVertex
100
AcDb2dVertex
 10
149.389847781663
 20
169.1581501855751
 30
0.0
  0
VERTEX
  5
2BA
330
2B8
100
AcDbEntity
  8
Dimension Layer
 62
    18
370
     9
100
AcDbVertex
100
AcDb2dVertex
 10
151.0720879071104
 20
168.6277777356208
 30
0.0
  0
VERTEX
  5
2BB
330
2B8
100
AcDbEntity
  8
Dimension Layer
 62
    18
370
     9
100
AcDbVertex
100
AcDb2dVertex
 10
149.389847781663
 20
168.0974052856666
 30
0.0
  0
VERTEX
  5
2BC
330
2B8
100
AcDbEntity
  8
Dimension Layer
 62
    18
370
     9
100
AcDbVertex
100
AcDb2dVertex
 10
149.389847781663
 20
169.1581501855751
 30
0.0
  0
SEQEND
  5
2BD
330
2B8
100
AcDbEntity
  8
Dimension Layer
370
     9
  0
HATCH
  5
2BE
330
2A0
100
AcDbEntity
  8
Dimension Layer
 62
    18
100
AcDbHatch
 10
0.0
 20
0.0
 30
0.0
210
0.0
220
0.0
230
1.0
  2
SOLID
 70
     1
 71
     0
 91
        1
 92
        1
 93
        3
 72
     1
 10
149.389847781663
 20
169.1581501855751
 11
151.0720879071104
 21
168.6277777356208
 72
     1
 10
151.0720879071104
 20
168.6277777356208
 11
149.389847781663
 21
168.0974052856666
 72
     1
 10
149.389847781663
 20
168.0974052856666
 11
149.389847781663
 21
169.1581501855751
 97
        0
 75
     2
 76
     1
 98
        0
  0
ENDBLK
  5
2A3
330
2A0
100
AcDbEntity
  8
0
100
AcDbBlockEnd
  0
BLOCK
  5
2C1
330
2BF
100
AcDbEntity
  8
0
100
AcDbBlockBegin
  2
block 24
 70
     0
 71
     0
 10
0.0
 20
0.0
 30
0.0
  3
block 24
  1

  0
MTEXT
  5
2C3
330
2BF
100
AcDbEntity
  8
Dimension Layer
 62
    18
100
AcDbMText
 10
157.0822292359031
 20
125.7556314789778
 30
0.0
 40
2.398888888289167
 41
0.0
 71
     7
 72
     1
  1
\fHelvetica 45 Light|b0|i0|c0|p34;\W1;17
 11
-4.371139000186241E-8
 21
0.999999999999999
 31
0.0
 73
     1
 44
1.0
  0
POLYLINE
  5
2C4
330
2BF
100
AcDbEntity
  8
Dimension Layer
 62
    18
370
     9
100
AcDb2dPolyline
 66
     1
 10
0.0
 20
0.0
 30
0.0
  0
VERTEX
  5
2C5
330
2C4
100
AcDbEntity
  8
Dimension Layer
 62
    18
370
     9
100
AcDbVertex
100
AcDb2dVertex
 10
138.6160006706411
 20
135.0635904610258
 30
0.0
  0
VERTEX
  5
2C6
330
2C4
100
AcDbEntity
  8
Dimension Layer
 62
    18
370
     9
100
AcDbVertex
100
AcDb2dVertex
 10
161.4917792022486
 20
135.0635904610258
 30
0.0
  0
SEQEND
  5
2C7
330
2C4
100
AcDbEntity
  8
Dimension Layer
370
     9
  0
POLYLINE
  5
2C8
330
2BF
100
AcDbEntity
  8
Dimension Layer
 62
    18
370
     9
100
AcDb2dPolyline
 66
     1
 10
0.0
 20
0.0
 30
0.0
  0
VERTEX
  5
2C9
330
2C8
100
AcDbEntity
  8
Dimension Layer
 62
    18
370
     9
100
AcDbVertex
100
AcDb2dVertex
 10
158.3167792030423
 20
117.8956461293803
 30
0.0
  0
VERTEX
  5
2CA
330
2C8
100
AcDbEntity
  8
Dimension Layer
 62
    18
370
     9
100
AcDbVertex
100
AcDb2dVertex
 10
158.3167792030423
 20
135.0635904610258
 30
0.0
  0
SEQEND
  5
2CB
330
2C8
100
AcDbEntity
  8
Dimension Layer
370
     9
  0
POLYLINE
  5
2CC
330
2BF
100
AcDbEntity
  8
Dimension Layer
 62
    18
370
     9
100
AcDb2dPolyline
 66
     1
 10
0.0
 20
0.0
 30
0.0
  0
VERTEX
  5
2CD
330
2CC
100
AcDbEntity
  8
Dimension Layer
 62
    18
370
     9
100
AcDbVertex
100
AcDb2dVertex
 10
158.8471516529966
 20
119.5778862548278
 30
0.0
  0
VERTEX
  5
2CE
330
2CC
100
AcDbEntity
  8
Dimension Layer
 62
    18
370
     9
100
AcDbVertex
100
AcDb2dVertex
 10
158.3167792030423
 20
117.8956461293803
 30
0.0
  0
VERTEX
  5
2CF
330
2CC
100
AcDbEntity
  8
Dimension Layer
 62
    18
370
     9
100
AcDbVertex
100
AcDb2dVertex
 10
157.7864067530881
 20
119.5778862548278
 30
0.0
  0
VERTEX
  5
2D0
330
2CC
100
AcDbEntity
  8
Dimension Layer
 62
    18
370
     9
100
AcDbVertex
100
AcDb2dVertex
 10
158.8471516529966
 20
119.5778862548278
 30
0.0
  0
SEQEND
  5
2D1
330
2CC
100
AcDbEntity
  8
Dimension Layer
370
     9
  0
HATCH
  5
2D2
330
2BF
100
AcDbEntity
  8
Dimension Layer
 62
    18
100
AcDbHatch
 10
0.0
 20
0.0
 30
0.0
210
0.0
220
0.0
230
1.0
  2
SOLID
 70
     1
 71
     0
 91
        1
 92
        1
 93
        3
 72
     1
 10
158.8471516529966
 20
119.5778862548278
 11
158.3167792030423
 21
117.8956461293803
 72
     1
 10
158.3167792030423
 20
117.8956461293803
 11
157.7864067530881
 21
119.5778862548278
 72
     1
 10
157.7864067530881
 20
119.5778862548278
 11
158.8471516529966
 21
119.5778862548278
 97
        0
 75
     2
 76
     1
 98
        0
  0
POLYLINE
  5
2D3
330
2BF
100
AcDbEntity
  8
Dimension Layer
 62
    18
370
     9
100
AcDb2dPolyline
 66
     1
 10
0.0
 20
0.0
 30
0.0
  0
VERTEX
  5
2D4
330
2D3
100
AcDbEntity
  8
Dimension Layer
 62
    18
370
     9
100
AcDbVertex
100
AcDb2dVertex
 10
157.7864067530881
 20
133.3813503355783
 30
0.0
  0
VERTEX
  5
2D5
330
2D3
100
AcDbEntity
  8
Dimension Layer
 62
    18
370
     9
100
AcDbVertex
100
AcDb2dVertex
 10
158.3167792030423
 20
135.0635904610258
 30
0.0
  0
VERTEX
  5
2D6
330
2D3
100
AcDbEntity
  8
Dimension Layer
 62
    18
370
     9
100
AcDbVertex
100
AcDb2dVertex
 10
158.8471516529966
 20
133.3813503355783
 30
0.0
  0
VERTEX
  5
2D7
330
2D3
100
AcDbEntity
  8
Dimension Layer
 62
    18
370
     9
100
AcDbVertex
100
AcDb2dVertex
 10
157.7864067530881
 20
133.3813503355783
 30
0.0
  0
SEQEND
  5
2D8
330
2D3
100
AcDbEntity
  8
Dimension Layer
370
     9
  0
HATCH
  5
2D9
330
2BF
100
AcDbEntity
  8
Dimension Layer
 62
    18
100
AcDbHatch
 10
0.0
 20
0.0
 30
0.0
210
0.0
220
0.0
230
1.0
  2
SOLID
 70
     1
 71
     0
 91
        1
 92
        1
 93
        3
 72
     1
 10
157.7864067530881
 20
133.3813503355783
 11
158.3167792030423
 21
135.0635904610258
 72
     1
 10
158.3167792030423
 20
135.0635904610258
 11
158.8471516529966
 21
133.3813503355783
 72
     1
 10
158.8471516529966
 20
133.3813503355783
 11
157.7864067530881
 21
133.3813503355783
 97
        0
 75
     2
 76
     1
 98
        0
  0
MTEXT
  5
2DA
330
2BF
100
AcDbEntity
  8
Dimension Layer
 62
    18
100
AcDbMText
 10
166.6072292335218
 20
136.6338649832026
 30
0.0
 40
2.398888888289167
 41
0.0
 71
     7
 72
     1
  1
\fHelvetica 45 Light|b0|i0|c0|p34;\W1;41.5
 11
-4.371139000186241E-8
 21
0.999999999999999
 31
0.0
 73
     1
 44
1.0
  0
POLYLINE
  5
2DB
330
2BF
100
AcDbEntity
  8
Dimension Layer
 62
    18
370
     9
100
AcDb2dPolyline
 66
     1
 10
0.0
 20
0.0
 30
0.0
  0
VERTEX
  5
2DC
330
2DB
100
AcDbEntity
  8
Dimension Layer
 62
    18
370
     9
100
AcDbVertex
100
AcDb2dVertex
 10
141.8538736624532
 20
117.8956461293803
 30
0.0
  0
VERTEX
  5
2DD
330
2DB
100
AcDbEntity
  8
Dimension Layer
 62
    18
370
     9
100
AcDbVertex
100
AcDb2dVertex
 10
171.0167791998673
 20
117.8956461293803
 30
0.0
  0
SEQEND
  5
2DE
330
2DB
100
AcDbEntity
  8
Dimension Layer
370
     9
  0
POLYLINE
  5
2DF
330
2BF
100
AcDbEntity
  8
Dimension Layer
 62
    18
370
     9
100
AcDb2dPolyline
 66
     1
 10
0.0
 20
0.0
 30
0.0
  0
VERTEX
  5
2E0
330
2DF
100
AcDbEntity
  8
Dimension Layer
 62
    18
370
     9
100
AcDbVertex
100
AcDb2dVertex
 10
140.4055555204542
 20
159.3931992874087
 30
0.0
  0
VERTEX
  5
2E1
330
2DF
100
AcDbEntity
  8
Dimension Layer
 62
    18
370
     9
100
AcDbVertex
100
AcDb2dVertex
 10
171.0167791998673
 20
159.3931992874087
 30
0.0
  0
SEQEND
  5
2E2
330
2DF
100
AcDbEntity
  8
Dimension Layer
370
     9
  0
POLYLINE
  5
2E3
330
2BF
100
AcDbEntity
  8
Dimension Layer
 62
    18
370
     9
100
AcDb2dPolyline
 66
     1
 10
0.0
 20
0.0
 30
0.0
  0
VERTEX
  5
2E4
330
2E3
100
AcDbEntity
  8
Dimension Layer
 62
    18
370
     9
100
AcDbVertex
100
AcDb2dVertex
 10
167.8417792006611
 20
117.8956461293803
 30
0.0
  0
VERTEX
  5
2E5
330
2E3
100
AcDbEntity
  8
Dimension Layer
 62
    18
370
     9
100
AcDbVertex
100
AcDb2dVertex
 10
167.8417792006611
 20
159.3931992874087
 30
0.0
  0
SEQEND
  5
2E6
330
2E3
100
AcDbEntity
  8
Dimension Layer
370
     9
  0
POLYLINE
  5
2E7
330
2BF
100
AcDbEntity
  8
Dimension Layer
 62
    18
370
     9
100
AcDb2dPolyline
 66
     1
 10
0.0
 20
0.0
 30
0.0
  0
VERTEX
  5
2E8
330
2E7
100
AcDbEntity
  8
Dimension Layer
 62
    18
370
     9
100
AcDbVertex
100
AcDb2dVertex
 10
168.3721516506153
 20
119.5778862548278
 30
0.0
  0
VERTEX
  5
2E9
330
2E7
100
AcDbEntity
  8
Dimension Layer
 62
    18
370
     9
100
AcDbVertex
100
AcDb2dVertex
 10
167.8417792006611
 20
117.8956461293803
 30
0.0
  0
VERTEX
  5
2EA
330
2E7
100
AcDbEntity
  8
Dimension Layer
 62
    18
370
     9
100
AcDbVertex
100
AcDb2dVertex
 10
167.3114067507069
 20
119.5778862548278
 30
0.0
  0
VERTEX
  5
2EB
330
2E7
100
AcDbEntity
  8
Dimension Layer
 62
    18
370
     9
100
AcDbVertex
100
AcDb2dVertex
 10
168.3721516506153
 20
119.5778862548278
 30
0.0
  0
SEQEND
  5
2EC
330
2E7
100
AcDbEntity
  8
Dimension Layer
370
     9
  0
HATCH
  5
2ED
330
2BF
100
AcDbEntity
  8
Dimension Layer
 62
    18
100
AcDbHatch
 10
0.0
 20
0.0
 30
0.0
210
0.0
220
0.0
230
1.0
  2
SOLID
 70
     1
 71
     0
 91
        1
 92
        1
 93
        3
 72
     1
 10
168.3721516506153
 20
119.5778862548278
 11
167.8417792006611
 21
117.8956461293803
 72
     1
 10
167.8417792006611
 20
117.8956461293803
 11
167.3114067507069
 21
119.5778862548278
 72
     1
 10
167.3114067507069
 20
119.5778862548278
 11
168.3721516506153
 21
119.5778862548278
 97
        0
 75
     2
 76
     1
 98
        0
  0
POLYLINE
  5
2EE
330
2BF
100
AcDbEntity
  8
Dimension Layer
 62
    18
370
     9
100
AcDb2dPolyline
 66
     1
 10
0.0
 20
0.0
 30
0.0
  0
VERTEX
  5
2EF
330
2EE
100
AcDbEntity
  8
Dimension Layer
 62
    18
370
     9
100
AcDbVertex
100
AcDb2dVertex
 10
167.3114067507069
 20
157.7109591619611
 30
0.0
  0
VERTEX
  5
2F0
330
2EE
100
AcDbEntity
  8
Dimension Layer
 62
    18
370
     9
100
AcDbVertex
100
AcDb2dVertex
 10
167.8417792006611
 20
159.3931992874087
 30
0.0
  0
VERTEX
  5
2F1
330
2EE
100
AcDbEntity
  8
Dimension Layer
 62
    18
370
     9
100
AcDbVertex
100
AcDb2dVertex
 10
168.3721516506153
 20
157.7109591619611
 30
0.0
  0
VERTEX
  5
2F2
330
2EE
100
AcDbEntity
  8
Dimension Layer
 62
    18
370
     9
100
AcDbVertex
100
AcDb2dVertex
 10
167.3114067507069
 20
157.7109591619611
 30
0.0
  0
SEQEND
  5
2F3
330
2EE
100
AcDbEntity
  8
Dimension Layer
370
     9
  0
HATCH
  5
2F4
330
2BF
100
AcDbEntity
  8
Dimension Layer
 62
    18
100
AcDbHatch
 10
0.0
 20
0.0
 30
0.0
210
0.0
220
0.0
230
1.0
  2
SOLID
 70
     1
 71
     0
 91
        1
 92
        1
 93
        3
 72
     1
 10
167.3114067507069
 20
157.7109591619611
 11
167.8417792006611
 21
159.3931992874087
 72
     1
 10
167.8417792006611
 20
159.3931992874087
 11
168.3721516506153
 21
157.7109591619611
 72
     1
 10
168.3721516506153
 20
157.7109591619611
 11
167.3114067507069
 21
157.7109591619611
 97
        0
 75
     2
 76
     1
 98
        0
  0
ENDBLK
  5
2C2
330
2BF
100
AcDbEntity
  8
0
100
AcDbBlockEnd
  0
BLOCK
  5
2F7
330
2F5
100
AcDbEntity
  8
0
100
AcDbBlockBegin
  2
block 25
 70
     0
 71
     0
 10
0.0
 20
0.0
 30
0.0
  3
block 25
  1

  0
MTEXT
  5
2F9
330
2F5
100
AcDbEntity
  8
Dimension Layer
 62
    18
100
AcDbMText
 10
210.1242973650037
 20
166.1331840947514
 30
0.0
 40
2.398888888289167
 41
0.0
 71
     7
 72
     1
  1
\fHelvetica 45 Light|b0|i0|c0|p34;\W1;1.5
 73
     1
 44
1.0
  0
POLYLINE
  5
2FA
330
2F5
100
AcDbEntity
  8
Dimension Layer
 62
    18
370
     9
100
AcDb2dPolyline
 66
     1
 10
0.0
 20
0.0
 30
0.0
  0
VERTEX
  5
2FB
330
2FA
100
AcDbEntity
  8
Dimension Layer
 62
    18
370
     9
100
AcDbVertex
100
AcDb2dVertex
 10
207.0156154538885
 20
161.0278970951597
 30
0.0
  0
VERTEX
  5
2FC
330
2FA
100
AcDbEntity
  8
Dimension Layer
 62
    18
370
     9
100
AcDbVertex
100
AcDb2dVertex
 10
207.0156154538885
 20
168.0734618720441
 30
0.0
  0
SEQEND
  5
2FD
330
2FA
100
AcDbEntity
  8
Dimension Layer
370
     9
  0
POLYLINE
  5
2FE
330
2F5
100
AcDbEntity
  8
Dimension Layer
 62
    18
370
     9
100
AcDb2dPolyline
 66
     1
 10
0.0
 20
0.0
 30
0.0
  0
VERTEX
  5
2FF
330
2FE
100
AcDbEntity
  8
Dimension Layer
 62
    18
370
     9
100
AcDbVertex
100
AcDb2dVertex
 10
208.016071182805
 20
161.0278970951597
 30
0.0
  0
VERTEX
  5
300
330
2FE
100
AcDbEntity
  8
Dimension Layer
 62
    18
370
     9
100
AcDbVertex
100
AcDb2dVertex
 10
208.016071182805
 20
168.0734618720441
 30
0.0
  0
SEQEND
  5
301
330
2FE
100
AcDbEntity
  8
Dimension Layer
370
     9
  0
POLYLINE
  5
302
330
2F5
100
AcDbEntity
  8
Dimension Layer
 62
    18
370
     9
100
AcDb2dPolyline
 66
     1
 10
0.0
 20
0.0
 30
0.0
  0
VERTEX
  5
303
330
302
100
AcDbEntity
  8
Dimension Layer
 62
    18
370
     9
100
AcDbVertex
100
AcDb2dVertex
 10
202.6243244936148
 20
164.8984618728379
 30
0.0
  0
VERTEX
  5
304
330
302
100
AcDbEntity
  8
Dimension Layer
 62
    18
370
     9
100
AcDbVertex
100
AcDb2dVertex
 10
215.4579941952674
 20
164.8984618728379
 30
0.0
  0
SEQEND
  5
305
330
302
100
AcDbEntity
  8
Dimension Layer
370
     9
  0
POLYLINE
  5
306
330
2F5
100
AcDbEntity
  8
Dimension Layer
 62
    18
370
     9
100
AcDb2dPolyline
 66
     1
 10
0.0
 20
0.0
 30
0.0
  0
VERTEX
  5
307
330
306
100
AcDbEntity
  8
Dimension Layer
 62
    18
370
     9
100
AcDbVertex
100
AcDb2dVertex
 10
209.697966798704
 20
164.3680894228837
 30
0.0
  0
VERTEX
  5
308
330
306
100
AcDbEntity
  8
Dimension Layer
 62
    18
370
     9
100
AcDbVertex
100
AcDb2dVertex
 10
208.016071182805
 20
164.8984618728379
 30
0.0
  0
VERTEX
  5
309
330
306
100
AcDbEntity
  8
Dimension Layer
 62
    18
370
     9
100
AcDbVertex
100
AcDb2dVertex
 10
209.697966798704
 20
165.4288343227921
 30
0.0
  0
VERTEX
  5
30A
330
306
100
AcDbEntity
  8
Dimension Layer
 62
    18
370
     9
100
AcDbVertex
100
AcDb2dVertex
 10
209.697966798704
 20
164.3680894228837
 30
0.0
  0
SEQEND
  5
30B
330
306
100
AcDbEntity
  8
Dimension Layer
370
     9
  0
HATCH
  5
30C
330
2F5
100
AcDbEntity
  8
Dimension Layer
 62
    18
100
AcDbHatch
 10
0.0
 20
0.0
 30
0.0
210
0.0
220
0.0
230
1.0
  2
SOLID
 70
     1
 71
     0
 91
        1
 92
        1
 93
        3
 72
     1
 10
209.697966798704
 20
164.3680894228837
 11
208.016071182805
 21
164.8984618728379
 72
     1
 10
208.016071182805
 20
164.8984618728379
 11
209.697966798704
 21
165.4288343227921
 72
     1
 10
209.697966798704
 20
165.4288343227921
 11
209.697966798704
 21
164.3680894228837
 97
        0
 75
     2
 76
     1
 98
        0
  0
POLYLINE
  5
30D
330
2F5
100
AcDbEntity
  8
Dimension Layer
 62
    18
370
     9
100
AcDb2dPolyline
 66
     1
 10
0.0
 20
0.0
 30
0.0
  0
VERTEX
  5
30E
330
30D
100
AcDbEntity
  8
Dimension Layer
 62
    18
370
     9
100
AcDbVertex
100
AcDb2dVertex
 10
205.333375328441
 20
165.4288343227921
 30
0.0
  0
VERTEX
  5
30F
330
30D
100
AcDbEntity
  8
Dimension Layer
 62
    18
370
     9
100
AcDbVertex
100
AcDb2dVertex
 10
207.0156154538885
 20
164.8984618728379
 30
0.0
  0
VERTEX
  5
310
330
30D
100
AcDbEntity
  8
Dimension Layer
 62
    18
370
     9
100
AcDbVertex
100
AcDb2dVertex
 10
205.333375328441
 20
164.3680894228837
 30
0.0
  0
VERTEX
  5
311
330
30D
100
AcDbEntity
  8
Dimension Layer
 62
    18
370
     9
100
AcDbVertex
100
AcDb2dVertex
 10
205.333375328441
 20
165.4288343227921
 30
0.0
  0
SEQEND
  5
312
330
30D
100
AcDbEntity
  8
Dimension Layer
370
     9
  0
HATCH
  5
313
330
2F5
100
AcDbEntity
  8
Dimension Layer
 62
    18
100
AcDbHatch
 10
0.0
 20
0.0
 30
0.0
210
0.0
220
0.0
230
1.0
  2
SOLID
 70
     1
 71
     0
 91
        1
 92
        1
 93
        3
 72
     1
 10
205.333375328441
 20
165.4288343227921
 11
207.0156154538885
 21
164.8984618728379
 72
     1
 10
207.0156154538885
 20
164.8984618728379
 11
205.333375328441
 21
164.3680894228837
 72
     1
 10
205.333375328441
 20
164.3680894228837
 11
205.333375328441
 21
165.4288343227921
 97
        0
 75
     2
 76
     1
 98
        0
  0
ENDBLK
  5
2F8
330
2F5
100
AcDbEntity
  8
0
100
AcDbBlockEnd
  0
ENDSEC
  0
SECTION
  2
ENTITIES
  0
MTEXT
  5
3C
330
1F
100
AcDbEntity
  8
\U+30D5\U+30A9\U+30FC\U+30DE\U+30C3\U+30C8
 62
    29
100
AcDbMText
 10
196.0879448294502
 20
13.54680446709941
 30
0.0
 40
2.187786638666616
 41
0.0
 71
     7
 72
     1
  1
\fMS Gothic|b0|i0|c0|p34;\W1;1
 73
     1
 44
1.0
  0
MTEXT
  5
3D
330
1F
100
AcDbEntity
  8
\U+30D5\U+30A9\U+30FC\U+30DE\U+30C3\U+30C8
 62
    29
100
AcDbMText
 10
199.3053195031251
 20
13.54680446709941
 30
0.0
 40
2.187786638666616
 41
0.0
 71
     7
 72
     1
  1
\fMS Gothic|b0|i0|c0|p34;\W1;：
 73
     1
 44
1.0
  0
MTEXT
  5
3E
330
1F
100
AcDbEntity
  8
\U+30D5\U+30A9\U+30FC\U+30DE\U+30C3\U+30C8
 62
    29
100
AcDbMText
 10
202.5226941767999
 20
13.54680446709941
 30
0.0
 40
2.187786638666616
 41
0.0
 71
     7
 72
     1
  1
\fMS Gothic|b0|i0|c0|p34;\W1;１
 73
     1
 44
1.0
  0
MTEXT
  5
3F
330
1F
100
AcDbEntity
  8
\U+30D5\U+30A9\U+30FC\U+30DE\U+30C3\U+30C8
 62
    29
100
AcDbMText
 10
236.411753955654
 20
17.37396104166346
 30
0.0
 40
2.187786638666616
 41
0.0
 71
     7
 72
     1
  1
\fMS Gothic|b0|i0|c0|p34;\W1;LEDIUS ﾛｰﾎﾞﾙﾄﾄﾗﾝｽﾌｯｸ
 73
     1
 44
1.0
  0
MTEXT
  5
40
330
1F
100
AcDbEntity
  8
\U+30D5\U+30A9\U+30FC\U+30DE\U+30C3\U+30C8
 62
    29
100
AcDbMText
 10
243.3877278037364
 20
29.7449544196471
 30
0.0
 40
2.187786638666616
 41
0.0
 71
     7
 72
     1
  1
\fMS Gothic|b0|i0|c0|p34;\W1;HEC-016S
 73
     1
 44
1.0
  0
MTEXT
  5
41
330
1F
100
AcDbEntity
  8
\U+30D5\U+30A9\U+30FC\U+30DE\U+30C3\U+30C8
 62
    29
100
AcDbMText
 10
170.1799655065002
 20
29.71808267486215
 30
0.0
 40
2.187786638666616
 41
0.0
 71
     7
 72
     1
  1
\fMS Gothic|b0|i0|c0|p34;\W1;2014
 73
     1
 44
1.0
  0
MTEXT
  5
42
330
1F
100
AcDbEntity
  8
\U+30D5\U+30A9\U+30FC\U+30DE\U+30C3\U+30C8
 62
    29
100
AcDbMText
 10
176.6148871086241
 20
29.71808267486215
 30
0.0
 40
2.187786638666616
 41
0.0
 71
     7
 72
     1
  1
\fMS Gothic|b0|i0|c0|p34;\W1;　
 73
     1
 44
1.0
  0
MTEXT
  5
43
330
1F
100
AcDbEntity
  8
\U+30D5\U+30A9\U+30FC\U+30DE\U+30C3\U+30C8
 62
    29
100
AcDbMText
 10
179.8319172727504
 20
29.71808267486215
 30
0.0
 40
2.187786638666616
 41
0.0
 71
     7
 72
     1
  1
\fMS Gothic|b0|i0|c0|p34;\W1;年
 73
     1
 44
1.0
  0
MTEXT
  5
44
330
1F
100
AcDbEntity
  8
\U+30D5\U+30A9\U+30FC\U+30DE\U+30C3\U+30C8
 62
    29
100
AcDbMText
 10
183.0492919464252
 20
29.71808267486215
 30
0.0
 40
2.187786638666616
 41
0.0
 71
     7
 72
     1
  1
\fMS Gothic|b0|i0|c0|p34;\W1;　
 73
     1
 44
1.0
  0
MTEXT
  5
45
330
1F
100
AcDbEntity
  8
\U+30D5\U+30A9\U+30FC\U+30DE\U+30C3\U+30C8
 62
    29
100
AcDbMText
 10
186.2666666201
 20
29.71808267486215
 30
0.0
 40
2.187786638666616
 41
0.0
 71
     7
 72
     1
  1
\fMS Gothic|b0|i0|c0|p34;\W1; 2
 73
     1
 44
1.0
  0
MTEXT
  5
46
330
1F
100
AcDbEntity
  8
\U+30D5\U+30A9\U+30FC\U+30DE\U+30C3\U+30C8
 62
    29
100
AcDbMText
 10
192.7014159674497
 20
29.71808267486215
 30
0.0
 40
2.187786638666616
 41
0.0
 71
     7
 72
     1
  1
\fMS Gothic|b0|i0|c0|p34;\W1;月
 73
     1
 44
1.0
  0
MTEXT
  5
47
330
1F
100
AcDbEntity
  8
\U+30D5\U+30A9\U+30FC\U+30DE\U+30C3\U+30C8
 62
    29
100
AcDbMText
 10
195.918446131576
 20
29.71808267486215
 30
0.0
 40
2.187786638666616
 41
0.0
 71
     7
 72
     1
  1
\fMS Gothic|b0|i0|c0|p34;\W1;　
 73
     1
 44
1.0
  0
MTEXT
  5
48
330
1F
100
AcDbEntity
  8
\U+30D5\U+30A9\U+30FC\U+30DE\U+30C3\U+30C8
 62
    29
100
AcDbMText
 10
201.0743760348008
 20
29.71808267486215
 30
0.0
 40
2.187786638666616
 41
0.0
 71
     7
 72
     1
  1
\fMS Gothic|b0|i0|c0|p34;\W1;1
 73
     1
 44
1.0
  0
MTEXT
  5
49
330
1F
100
AcDbEntity
  8
\U+30D5\U+30A9\U+30FC\U+30DE\U+30C3\U+30C8
 62
    29
100
AcDbMText
 10
205.5705701526004
 20
29.71808267486215
 30
0.0
 40
2.187786638666616
 41
0.0
 71
     7
 72
     1
  1
\fMS Gothic|b0|i0|c0|p34;\W1;日
 73
     1
 44
1.0
  0
POLYLINE
  5
4A
330
1F
100
AcDbEntity
  8
\U+30D5\U+30A9\U+30FC\U+30DE\U+30C3\U+30C8
 62
    29
370
    35
100
AcDb2dPolyline
 66
     1
 10
0.0
 20
0.0
 30
0.0
  0
VERTEX
  5
4B
330
4A
100
AcDbEntity
  8
\U+30D5\U+30A9\U+30FC\U+30DE\U+30C3\U+30C8
 62
    29
370
    35
100
AcDbVertex
100
AcDb2dVertex
 10
181.9802788173522
 20
18.65829263856459
 30
0.0
  0
VERTEX
  5
4C
330
4A
100
AcDbEntity
  8
\U+30D5\U+30A9\U+30FC\U+30DE\U+30C3\U+30C8
 62
    29
370
    35
100
AcDbVertex
100
AcDb2dVertex
 10
216.9476534830895
 20
18.65829263856459
 30
0.0
  0
SEQEND
  5
4D
330
4A
100
AcDbEntity
  8
\U+30D5\U+30A9\U+30FC\U+30DE\U+30C3\U+30C8
370
    35
  0
POLYLINE
  5
4E
330
1F
100
AcDbEntity
  8
\U+30D5\U+30A9\U+30FC\U+30DE\U+30C3\U+30C8
 62
    29
370
    35
100
AcDb2dPolyline
 66
     1
 10
0.0
 20
0.0
 30
0.0
  0
VERTEX
  5
4F
330
4E
100
AcDbEntity
  8
\U+30D5\U+30A9\U+30FC\U+30DE\U+30C3\U+30C8
 62
    29
370
    35
100
AcDbVertex
100
AcDb2dVertex
 10
148.9602443746523
 20
27.12495930311459
 30
0.0
  0
VERTEX
  5
50
330
4E
100
AcDbEntity
  8
\U+30D5\U+30A9\U+30FC\U+30DE\U+30C3\U+30C8
 62
    29
370
    35
100
AcDbVertex
100
AcDb2dVertex
 10
281.9714192003405
 20
27.12495930311459
 30
0.0
  0
SEQEND
  5
51
330
4E
100
AcDbEntity
  8
\U+30D5\U+30A9\U+30FC\U+30DE\U+30C3\U+30C8
370
    35
  0
POLYLINE
  5
52
330
1F
100
AcDbEntity
  8
\U+30D5\U+30A9\U+30FC\U+30DE\U+30C3\U+30C8
 62
    29
370
    35
100
AcDb2dPolyline
 66
     1
 10
0.0
 20
0.0
 30
0.0
  0
VERTEX
  5
53
330
52
100
AcDbEntity
  8
\U+30D5\U+30A9\U+30FC\U+30DE\U+30C3\U+30C8
 62
    29
370
    35
100
AcDbVertex
100
AcDb2dVertex
 10
281.9714192003405
 20
35.16822373252739
 30
0.0
  0
VERTEX
  5
54
330
52
100
AcDbEntity
  8
\U+30D5\U+30A9\U+30FC\U+30DE\U+30C3\U+30C8
 62
    29
370
    35
100
AcDbVertex
100
AcDb2dVertex
 10
281.9714192003405
 20
10.19162597401459
 30
0.0
  0
SEQEND
  5
55
330
52
100
AcDbEntity
  8
\U+30D5\U+30A9\U+30FC\U+30DE\U+30C3\U+30C8
370
    35
  0
POLYLINE
  5
56
330
1F
100
AcDbEntity
  8
\U+30D5\U+30A9\U+30FC\U+30DE\U+30C3\U+30C8
 62
    29
370
    35
100
AcDb2dPolyline
 66
     1
 10
0.0
 20
0.0
 30
0.0
  0
VERTEX
  5
57
330
56
100
AcDbEntity
  8
\U+30D5\U+30A9\U+30FC\U+30DE\U+30C3\U+30C8
 62
    29
370
    35
100
AcDbVertex
100
AcDb2dVertex
 10
15.01751572975257
 20
287.0515570028899
 30
0.0
  0
VERTEX
  5
58
330
56
100
AcDbEntity
  8
\U+30D5\U+30A9\U+30FC\U+30DE\U+30C3\U+30C8
 62
    29
370
    35
100
AcDbVertex
100
AcDb2dVertex
 10
404.9075845341898
 20
287.0515570028899
 30
0.0
  0
VERTEX
  5
59
330
56
100
AcDbEntity
  8
\U+30D5\U+30A9\U+30FC\U+30DE\U+30C3\U+30C8
 62
    29
370
    35
100
AcDbVertex
100
AcDb2dVertex
 10
404.9075845341898
 20
10.19162597401459
 30
0.0
  0
SEQEND
  5
5A
330
56
100
AcDbEntity
  8
\U+30D5\U+30A9\U+30FC\U+30DE\U+30C3\U+30C8
370
    35
  0
MTEXT
  5
5B
330
1F
100
AcDbEntity
  8
\U+30D5\U+30A9\U+30FC\U+30DE\U+30C3\U+30C8
 62
    29
100
AcDbMText
 10
49.78404132869983
 20
284.9033677130624
 30
0.0
 40
2.187786638666616
 41
0.0
 71
     7
 72
     1
  1
\fMS Gothic|b0|i0|c0|p34;\W1;図
 11
-0.9999999999999886
 21
1.509957990978371E-7
 31
0.0
 73
     1
 44
1.0
  0
MTEXT
  5
5C
330
1F
100
AcDbEntity
  8
\U+30D5\U+30A9\U+30FC\U+30DE\U+30C3\U+30C8
 62
    29
100
AcDbMText
 10
46.566666655025
 20
284.9033677130624
 30
0.0
 40
2.187786638666616
 41
0.0
 71
     7
 72
     1
  1
\fMS Gothic|b0|i0|c0|p34;\W1;　
 11
-0.9999999999999886
 21
1.509957990978371E-7
 31
0.0
 73
     1
 44
1.0
  0
MTEXT
  5
5D
330
1F
100
AcDbEntity
  8
\U+30D5\U+30A9\U+30FC\U+30DE\U+30C3\U+30C8
 62
    29
100
AcDbMText
 10
43.34929198135018
 20
284.9033677130624
 30
0.0
 40
2.187786638666616
 41
0.0
 71
     7
 72
     1
  1
\fMS Gothic|b0|i0|c0|p34;\W1;番
 11
-0.9999999999999886
 21
1.509957990978371E-7
 31
0.0
 73
     1
 44
1.0
  0
POLYLINE
  5
5E
330
1F
100
AcDbEntity
  8
\U+30D5\U+30A9\U+30FC\U+30DE\U+30C3\U+30C8
 62
    29
370
    35
100
AcDb2dPolyline
 66
     1
 10
0.0
 20
0.0
 30
0.0
  0
VERTEX
  5
5F
330
5E
100
AcDbEntity
  8
\U+30D5\U+30A9\U+30FC\U+30DE\U+30C3\U+30C8
 62
    29
370
    35
100
AcDbVertex
100
AcDb2dVertex
 10
52.94818927712754
 20
280.1090005810144
 30
0.0
  0
VERTEX
  5
60
330
5E
100
AcDbEntity
  8
\U+30D5\U+30A9\U+30FC\U+30DE\U+30C3\U+30C8
 62
    29
370
    35
100
AcDbVertex
100
AcDb2dVertex
 10
52.94818927712754
 20
287.0515570028899
 30
0.0
  0
SEQEND
  5
61
330
5E
100
AcDbEntity
  8
\U+30D5\U+30A9\U+30FC\U+30DE\U+30C3\U+30C8
370
    35
  0
INSERT
  5
63
330
1F
100
AcDbEntity
  8
\U+30D5\U+30A9\U+30FC\U+30DE\U+30C3\U+30C8
100
AcDbBlockReference
  2
block 2
 10
0.0
 20
0.0
 30
0.0
  0
MTEXT
  5
6E
330
1F
100
AcDbEntity
  8
\U+30D5\U+30A9\U+30FC\U+30DE\U+30C3\U+30C8
 62
    29
100
AcDbMText
 10
18.11861843080021
 20
30.64929198452518
 30
0.0
 40
2.187786638666616
 41
0.0
 71
     7
 72
     1
  1
\fMS Gothic|b0|i0|c0|p34;\W1;備
 73
     1
 44
1.0
  0
MTEXT
  5
6F
330
1F
100
AcDbEntity
  8
\U+30D5\U+30A9\U+30FC\U+30DE\U+30C3\U+30C8
 62
    29
100
AcDbMText
 10
21.33599310447503
 20
30.64929198452518
 30
0.0
 40
2.187786638666616
 41
0.0
 71
     7
 72
     1
  1
\fMS Gothic|b0|i0|c0|p34;\W1;　
 73
     1
 44
1.0
  0
MTEXT
  5
70
330
1F
100
AcDbEntity
  8
\U+30D5\U+30A9\U+30FC\U+30DE\U+30C3\U+30C8
 62
    29
100
AcDbMText
 10
18.20336777973735
 20
26.41595865225018
 30
0.0
 40
2.187786638666616
 41
0.0
 71
     7
 72
     1
  1
\fMS Gothic|b0|i0|c0|p34;\W1;　
 73
     1
 44
1.0
  0
MTEXT
  5
71
330
1F
100
AcDbEntity
  8
\U+30D5\U+30A9\U+30FC\U+30DE\U+30C3\U+30C8
 62
    29
100
AcDbMText
 10
18.11861843080021
 20
22.09787597103803
 30
0.0
 40
2.187786638666616
 41
0.0
 71
     7
 72
     1
  1
\fMS Gothic|b0|i0|c0|p34;\W1;考
 73
     1
 44
1.0
  0
MTEXT
  5
72
330
1F
100
AcDbEntity
  8
\U+30D5\U+30A9\U+30FC\U+30DE\U+30C3\U+30C8
 62
    29
100
AcDbMText
 10
21.33599310447503
 20
22.09787597103803
 30
0.0
 40
2.187786638666616
 41
0.0
 71
     7
 72
     1
  1
\fMS Gothic|b0|i0|c0|p34;\W1;　
 73
     1
 44
1.0
  0
MTEXT
  5
73
330
1F
100
AcDbEntity
  8
\U+30D5\U+30A9\U+30FC\U+30DE\U+30C3\U+30C8
 62
    29
100
AcDbMText
 10
18.20336777973735
 20
17.94929198770018
 30
0.0
 40
2.187786638666616
 41
0.0
 71
     7
 72
     1
  1
\fMS Gothic|b0|i0|c0|p34;\W1;　
 73
     1
 44
1.0
  0
MTEXT
  5
74
330
1F
100
AcDbEntity
  8
\U+30D5\U+30A9\U+30FC\U+30DE\U+30C3\U+30C8
 62
    29
100
AcDbMText
 10
18.11861843080021
 20
13.71595865542518
 30
0.0
 40
2.187786638666616
 41
0.0
 71
     7
 72
     1
  1
\fMS Gothic|b0|i0|c0|p34;\W1;欄
 73
     1
 44
1.0
  0
MTEXT
  5
75
330
1F
100
AcDbEntity
  8
\U+30D5\U+30A9\U+30FC\U+30DE\U+30C3\U+30C8
 62
    29
100
AcDbMText
 10
28.10939533802474
 20
23.36808267644965
 30
0.0
 40
2.187786638666616
 41
0.0
 71
     7
 72
     1
  1
\fMS Gothic|b0|i0|c0|p34;\W1;②
 73
     1
 44
1.0
  0
MTEXT
  5
76
330
1F
100
AcDbEntity
  8
\U+30D5\U+30A9\U+30FC\U+30DE\U+30C3\U+30C8
 62
    29
100
AcDbMText
 10
28.10939533802474
 20
16.50993109396279
 30
0.0
 40
2.187786638666616
 41
0.0
 71
     7
 72
     1
  1
\fMS Gothic|b0|i0|c0|p34;\W1;①
 73
     1
 44
1.0
  0
POLYLINE
  5
77
330
1F
100
AcDbEntity
  8
\U+30D5\U+30A9\U+30FC\U+30DE\U+30C3\U+30C8
 62
    29
370
    35
100
AcDb2dPolyline
 66
     1
 10
0.0
 20
0.0
 30
0.0
  0
VERTEX
  5
78
330
77
100
AcDbEntity
  8
\U+30D5\U+30A9\U+30FC\U+30DE\U+30C3\U+30C8
 62
    29
370
    35
100
AcDbVertex
100
AcDb2dVertex
 10
37.96219617106501
 20
287.0515570028899
 30
0.0
  0
VERTEX
  5
79
330
77
100
AcDbEntity
  8
\U+30D5\U+30A9\U+30FC\U+30DE\U+30C3\U+30C8
 62
    29
370
    35
100
AcDbVertex
100
AcDb2dVertex
 10
37.96219617106501
 20
280.1090005810144
 30
0.0
  0
SEQEND
  5
7A
330
77
100
AcDbEntity
  8
\U+30D5\U+30A9\U+30FC\U+30DE\U+30C3\U+30C8
370
    35
  0
POLYLINE
  5
7B
330
1F
100
AcDbEntity
  8
\U+30D5\U+30A9\U+30FC\U+30DE\U+30C3\U+30C8
 62
    29
370
    35
100
AcDb2dPolyline
 66
     1
 10
0.0
 20
0.0
 30
0.0
  0
VERTEX
  5
7C
330
7B
100
AcDbEntity
  8
\U+30D5\U+30A9\U+30FC\U+30DE\U+30C3\U+30C8
 62
    29
370
    35
100
AcDbVertex
100
AcDb2dVertex
 10
52.94818927712754
 20
280.1090005810144
 30
0.0
  0
VERTEX
  5
7D
330
7B
100
AcDbEntity
  8
\U+30D5\U+30A9\U+30FC\U+30DE\U+30C3\U+30C8
 62
    29
370
    35
100
AcDbVertex
100
AcDb2dVertex
 10
52.94818927712754
 20
287.0515570028899
 30
0.0
  0
SEQEND
  5
7E
330
7B
100
AcDbEntity
  8
\U+30D5\U+30A9\U+30FC\U+30DE\U+30C3\U+30C8
370
    35
  0
POLYLINE
  5
7F
330
1F
100
AcDbEntity
  8
\U+30D5\U+30A9\U+30FC\U+30DE\U+30C3\U+30C8
 62
    29
370
    35
100
AcDb2dPolyline
 66
     1
 10
0.0
 20
0.0
 30
0.0
  0
VERTEX
  5
80
330
7F
100
AcDbEntity
  8
\U+30D5\U+30A9\U+30FC\U+30DE\U+30C3\U+30C8
 62
    29
370
    35
100
AcDbVertex
100
AcDb2dVertex
 10
37.96219617106501
 20
287.0515570028899
 30
0.0
  0
VERTEX
  5
81
330
7F
100
AcDbEntity
  8
\U+30D5\U+30A9\U+30FC\U+30DE\U+30C3\U+30C8
 62
    29
370
    35
100
AcDbVertex
100
AcDb2dVertex
 10
37.96219617106501
 20
280.1090005810144
 30
0.0
  0
SEQEND
  5
82
330
7F
100
AcDbEntity
  8
\U+30D5\U+30A9\U+30FC\U+30DE\U+30C3\U+30C8
370
    35
  0
POLYLINE
  5
83
330
1F
100
AcDbEntity
  8
\U+30D5\U+30A9\U+30FC\U+30DE\U+30C3\U+30C8
 62
    29
370
    35
100
AcDb2dPolyline
 66
     1
 10
0.0
 20
0.0
 30
0.0
  0
VERTEX
  5
84
330
83
100
AcDbEntity
  8
\U+30D5\U+30A9\U+30FC\U+30DE\U+30C3\U+30C8
 62
    29
370
    35
100
AcDbVertex
100
AcDb2dVertex
 10
15.01751572975257
 20
280.1090005810144
 30
0.0
  0
VERTEX
  5
85
330
83
100
AcDbEntity
  8
\U+30D5\U+30A9\U+30FC\U+30DE\U+30C3\U+30C8
 62
    29
370
    35
100
AcDbVertex
100
AcDb2dVertex
 10
52.94818927712754
 20
280.1090005810144
 30
0.0
  0
SEQEND
  5
86
330
83
100
AcDbEntity
  8
\U+30D5\U+30A9\U+30FC\U+30DE\U+30C3\U+30C8
370
    35
  0
POLYLINE
  5
87
330
1F
100
AcDbEntity
  8
\U+30D5\U+30A9\U+30FC\U+30DE\U+30C3\U+30C8
 62
    29
370
    35
100
AcDb2dPolyline
 66
     1
 10
0.0
 20
0.0
 30
0.0
  0
VERTEX
  5
88
330
87
100
AcDbEntity
  8
\U+30D5\U+30A9\U+30FC\U+30DE\U+30C3\U+30C8
 62
    29
370
    35
100
AcDbVertex
100
AcDb2dVertex
 10
15.01751572975257
 20
10.19162597401459
 30
0.0
  0
VERTEX
  5
89
330
87
100
AcDbEntity
  8
\U+30D5\U+30A9\U+30FC\U+30DE\U+30C3\U+30C8
 62
    29
370
    35
100
AcDbVertex
100
AcDb2dVertex
 10
15.01751572975257
 20
287.0515570028899
 30
0.0
  0
SEQEND
  5
8A
330
87
100
AcDbEntity
  8
\U+30D5\U+30A9\U+30FC\U+30DE\U+30C3\U+30C8
370
    35
  0
POLYLINE
  5
8B
330
1F
100
AcDbEntity
  8
\U+30D5\U+30A9\U+30FC\U+30DE\U+30C3\U+30C8
 62
    29
370
    35
100
AcDb2dPolyline
 66
     1
 10
0.0
 20
0.0
 30
0.0
  0
VERTEX
  5
8C
330
8B
100
AcDbEntity
  8
\U+30D5\U+30A9\U+30FC\U+30DE\U+30C3\U+30C8
 62
    29
370
    35
100
AcDbVertex
100
AcDb2dVertex
 10
25.0082926369771
 20
35.16822373252739
 30
0.0
  0
VERTEX
  5
8D
330
8B
100
AcDbEntity
  8
\U+30D5\U+30A9\U+30FC\U+30DE\U+30C3\U+30C8
 62
    29
370
    35
100
AcDbVertex
100
AcDb2dVertex
 10
25.0082926369771
 20
10.19162597401459
 30
0.0
  0
SEQEND
  5
8E
330
8B
100
AcDbEntity
  8
\U+30D5\U+30A9\U+30FC\U+30DE\U+30C3\U+30C8
370
    35
  0
MTEXT
  5
8F
330
1F
100
AcDbEntity
  8
\U+30D5\U+30A9\U+30FC\U+30DE\U+30C3\U+30C8
 62
    29
100
AcDbMText
 10
28.10939533802474
 20
30.31063909832512
 30
0.0
 40
2.187786638666616
 41
0.0
 71
     7
 72
     1
  1
\fMS Gothic|b0|i0|c0|p34;\W1;③
 73
     1
 44
1.0
  0
POLYLINE
  5
90
330
1F
100
AcDbEntity
  8
\U+30D5\U+30A9\U+30FC\U+30DE\U+30C3\U+30C8
 62
    29
370
    35
100
AcDb2dPolyline
 66
     1
 10
0.0
 20
0.0
 30
0.0
  0
VERTEX
  5
91
330
90
100
AcDbEntity
  8
\U+30D5\U+30A9\U+30FC\U+30DE\U+30C3\U+30C8
 62
    29
370
    35
100
AcDbVertex
100
AcDb2dVertex
 10
34.99889728942736
 20
35.16822373252739
 30
0.0
  0
VERTEX
  5
92
330
90
100
AcDbEntity
  8
\U+30D5\U+30A9\U+30FC\U+30DE\U+30C3\U+30C8
 62
    29
370
    35
100
AcDbVertex
100
AcDb2dVertex
 10
34.99889728942736
 20
10.19162597401459
 30
0.0
  0
SEQEND
  5
93
330
90
100
AcDbEntity
  8
\U+30D5\U+30A9\U+30FC\U+30DE\U+30C3\U+30C8
370
    35
  0
POLYLINE
  5
94
330
1F
100
AcDbEntity
  8
\U+30D5\U+30A9\U+30FC\U+30DE\U+30C3\U+30C8
 62
    29
370
    35
100
AcDb2dPolyline
 66
     1
 10
0.0
 20
0.0
 30
0.0
  0
VERTEX
  5
95
330
94
100
AcDbEntity
  8
\U+30D5\U+30A9\U+30FC\U+30DE\U+30C3\U+30C8
 62
    29
370
    35
100
AcDbVertex
100
AcDb2dVertex
 10
15.01751572975257
 20
10.19162597401459
 30
0.0
  0
VERTEX
  5
96
330
94
100
AcDbEntity
  8
\U+30D5\U+30A9\U+30FC\U+30DE\U+30C3\U+30C8
 62
    29
370
    35
100
AcDbVertex
100
AcDb2dVertex
 10
15.01751572975257
 20
35.16822373252739
 30
0.0
  0
SEQEND
  5
97
330
94
100
AcDbEntity
  8
\U+30D5\U+30A9\U+30FC\U+30DE\U+30C3\U+30C8
370
    35
  0
POLYLINE
  5
98
330
1F
100
AcDbEntity
  8
\U+30D5\U+30A9\U+30FC\U+30DE\U+30C3\U+30C8
 62
    29
370
    35
100
AcDb2dPolyline
 66
     1
 10
0.0
 20
0.0
 30
0.0
  0
VERTEX
  5
99
330
98
100
AcDbEntity
  8
\U+30D5\U+30A9\U+30FC\U+30DE\U+30C3\U+30C8
 62
    29
370
    35
100
AcDbVertex
100
AcDb2dVertex
 10
25.0082926369771
 20
35.16822373252739
 30
0.0
  0
VERTEX
  5
9A
330
98
100
AcDbEntity
  8
\U+30D5\U+30A9\U+30FC\U+30DE\U+30C3\U+30C8
 62
    29
370
    35
100
AcDbVertex
100
AcDb2dVertex
 10
25.0082926369771
 20
10.19162597401459
 30
0.0
  0
SEQEND
  5
9B
330
98
100
AcDbEntity
  8
\U+30D5\U+30A9\U+30FC\U+30DE\U+30C3\U+30C8
370
    35
  0
POLYLINE
  5
9C
330
1F
100
AcDbEntity
  8
\U+30D5\U+30A9\U+30FC\U+30DE\U+30C3\U+30C8
 62
    29
370
    35
100
AcDb2dPolyline
 66
     1
 10
0.0
 20
0.0
 30
0.0
  0
VERTEX
  5
9D
330
9C
100
AcDbEntity
  8
\U+30D5\U+30A9\U+30FC\U+30DE\U+30C3\U+30C8
 62
    29
370
    35
100
AcDbVertex
100
AcDb2dVertex
 10
34.99889728942736
 20
35.16822373252739
 30
0.0
  0
VERTEX
  5
9E
330
9C
100
AcDbEntity
  8
\U+30D5\U+30A9\U+30FC\U+30DE\U+30C3\U+30C8
 62
    29
370
    35
100
AcDbVertex
100
AcDb2dVertex
 10
34.99889728942736
 20
10.19162597401459
 30
0.0
  0
SEQEND
  5
9F
330
9C
100
AcDbEntity
  8
\U+30D5\U+30A9\U+30FC\U+30DE\U+30C3\U+30C8
370
    35
  0
POLYLINE
  5
A0
330
1F
100
AcDbEntity
  8
\U+30D5\U+30A9\U+30FC\U+30DE\U+30C3\U+30C8
 62
    29
370
    35
100
AcDb2dPolyline
 66
     1
 10
0.0
 20
0.0
 30
0.0
  0
VERTEX
  5
A1
330
A0
100
AcDbEntity
  8
\U+30D5\U+30A9\U+30FC\U+30DE\U+30C3\U+30C8
 62
    29
370
    35
100
AcDbVertex
100
AcDb2dVertex
 10
15.01751572975257
 20
10.19162597401459
 30
0.0
  0
VERTEX
  5
A2
330
A0
100
AcDbEntity
  8
\U+30D5\U+30A9\U+30FC\U+30DE\U+30C3\U+30C8
 62
    29
370
    35
100
AcDbVertex
100
AcDb2dVertex
 10
15.01751572975257
 20
35.16822373252739
 30
0.0
  0
VERTEX
  5
A3
330
A0
100
AcDbEntity
  8
\U+30D5\U+30A9\U+30FC\U+30DE\U+30C3\U+30C8
 62
    29
370
    35
100
AcDbVertex
100
AcDb2dVertex
 10
404.9075845341898
 20
35.16822373252739
 30
0.0
  0
SEQEND
  5
A4
330
A0
100
AcDbEntity
  8
\U+30D5\U+30A9\U+30FC\U+30DE\U+30C3\U+30C8
370
    35
  0
INSERT
  5
A6
330
1F
100
AcDbEntity
  8
\U+30D5\U+30A9\U+30FC\U+30DE\U+30C3\U+30C8
100
AcDbBlockReference
  2
block 3
 10
0.0
 20
0.0
 30
0.0
  0
INSERT
  5
AB
330
1F
100
AcDbEntity
  8
\U+30D5\U+30A9\U+30FC\U+30DE\U+30C3\U+30C8
100
AcDbBlockReference
  2
block 4
 10
0.0
 20
0.0
 30
0.0
  0
INSERT
  5
B7
330
1F
100
AcDbEntity
  8
\U+30D5\U+30A9\U+30FC\U+30DE\U+30C3\U+30C8
100
AcDbBlockReference
  2
block 5
 10
0.0
 20
0.0
 30
0.0
  0
INSERT
  5
BC
330
1F
100
AcDbEntity
  8
\U+30D5\U+30A9\U+30FC\U+30DE\U+30C3\U+30C8
100
AcDbBlockReference
  2
block 6
 10
0.0
 20
0.0
 30
0.0
  0
INSERT
  5
C8
330
1F
100
AcDbEntity
  8
\U+30D5\U+30A9\U+30FC\U+30DE\U+30C3\U+30C8
100
AcDbBlockReference
  2
block 7
 10
0.0
 20
0.0
 30
0.0
  0
INSERT
  5
D4
330
1F
100
AcDbEntity
  8
\U+30D5\U+30A9\U+30FC\U+30DE\U+30C3\U+30C8
100
AcDbBlockReference
  2
block 8
 10
0.0
 20
0.0
 30
0.0
  0
POLYLINE
  5
DF
330
1F
100
AcDbEntity
  8
\U+30D5\U+30A9\U+30FC\U+30DE\U+30C3\U+30C8
 62
    29
370
    35
100
AcDb2dPolyline
 66
     1
 10
0.0
 20
0.0
 30
0.0
  0
VERTEX
  5
E0
330
DF
100
AcDbEntity
  8
\U+30D5\U+30A9\U+30FC\U+30DE\U+30C3\U+30C8
 62
    29
370
    35
100
AcDbVertex
100
AcDb2dVertex
 10
25.0082926369771
 20
28.14091796171477
 30
0.0
  0
VERTEX
  5
E1
330
DF
100
AcDbEntity
  8
\U+30D5\U+30A9\U+30FC\U+30DE\U+30C3\U+30C8
 62
    29
370
    35
100
AcDbVertex
100
AcDb2dVertex
 10
148.9602443746523
 20
28.14091796171477
 30
0.0
  0
SEQEND
  5
E2
330
DF
100
AcDbEntity
  8
\U+30D5\U+30A9\U+30FC\U+30DE\U+30C3\U+30C8
370
    35
  0
POLYLINE
  5
E3
330
1F
100
AcDbEntity
  8
\U+30D5\U+30A9\U+30FC\U+30DE\U+30C3\U+30C8
 62
    29
370
    35
100
AcDb2dPolyline
 66
     1
 10
0.0
 20
0.0
 30
0.0
  0
VERTEX
  5
E4
330
E3
100
AcDbEntity
  8
\U+30D5\U+30A9\U+30FC\U+30DE\U+30C3\U+30C8
 62
    29
370
    35
100
AcDbVertex
100
AcDb2dVertex
 10
25.0082926369771
 20
21.11361219090215
 30
0.0
  0
VERTEX
  5
E5
330
E3
100
AcDbEntity
  8
\U+30D5\U+30A9\U+30FC\U+30DE\U+30C3\U+30C8
 62
    29
370
    35
100
AcDbVertex
100
AcDb2dVertex
 10
148.9602443746523
 20
21.11361219090215
 30
0.0
  0
SEQEND
  5
E6
330
E3
100
AcDbEntity
  8
\U+30D5\U+30A9\U+30FC\U+30DE\U+30C3\U+30C8
370
    35
  0
POLYLINE
  5
E7
330
1F
100
AcDbEntity
  8
\U+30D5\U+30A9\U+30FC\U+30DE\U+30C3\U+30C8
 62
    29
370
    35
100
AcDb2dPolyline
 66
     1
 10
0.0
 20
0.0
 30
0.0
  0
VERTEX
  5
E8
330
E7
100
AcDbEntity
  8
\U+30D5\U+30A9\U+30FC\U+30DE\U+30C3\U+30C8
 62
    29
370
    35
100
AcDbVertex
100
AcDb2dVertex
 10
25.0082926369771
 20
14.17105576902668
 30
0.0
  0
VERTEX
  5
E9
330
E7
100
AcDbEntity
  8
\U+30D5\U+30A9\U+30FC\U+30DE\U+30C3\U+30C8
 62
    29
370
    35
100
AcDbVertex
100
AcDb2dVertex
 10
148.9602443746523
 20
14.17105576902668
 30
0.0
  0
SEQEND
  5
EA
330
E7
100
AcDbEntity
  8
\U+30D5\U+30A9\U+30FC\U+30DE\U+30C3\U+30C8
370
    35
  0
POLYLINE
  5
EB
330
1F
100
AcDbEntity
  8
\U+30D5\U+30A9\U+30FC\U+30DE\U+30C3\U+30C8
 62
    29
370
    35
100
AcDb2dPolyline
 66
     1
 10
0.0
 20
0.0
 30
0.0
  0
VERTEX
  5
EC
330
EB
100
AcDbEntity
  8
\U+30D5\U+30A9\U+30FC\U+30DE\U+30C3\U+30C8
 62
    29
370
    35
100
AcDbVertex
100
AcDb2dVertex
 10
404.9075845341898
 20
10.19162597401459
 30
0.0
  0
VERTEX
  5
ED
330
EB
100
AcDbEntity
  8
\U+30D5\U+30A9\U+30FC\U+30DE\U+30C3\U+30C8
 62
    29
370
    35
100
AcDbVertex
100
AcDb2dVertex
 10
15.01751572975257
 20
10.19162597401459
 30
0.0
  0
SEQEND
  5
EE
330
EB
100
AcDbEntity
  8
\U+30D5\U+30A9\U+30FC\U+30DE\U+30C3\U+30C8
370
    35
  0
MTEXT
  5
EF
330
1F
100
AcDbEntity
  8
\U+30D5\U+30A9\U+30FC\U+30DE\U+30C3\U+30C8
 62
    29
100
AcDbMText
 10
150.2833332957625
 20
22.77518174343815
 30
0.0
 40
2.187786638666616
 41
0.0
 71
     7
 72
     1
  1
\fMS Gothic|b0|i0|c0|p34;\W1;製 図
 73
     1
 44
1.0
  0
POLYLINE
  5
F0
330
1F
100
AcDbEntity
  8
\U+30D5\U+30A9\U+30FC\U+30DE\U+30C3\U+30C8
 62
    29
370
    35
100
AcDb2dPolyline
 66
     1
 10
0.0
 20
0.0
 30
0.0
  0
VERTEX
  5
F1
330
F0
100
AcDbEntity
  8
\U+30D5\U+30A9\U+30FC\U+30DE\U+30C3\U+30C8
 62
    29
370
    35
100
AcDbVertex
100
AcDb2dVertex
 10
25.0082926369771
 20
14.17105576902668
 30
0.0
  0
VERTEX
  5
F2
330
F0
100
AcDbEntity
  8
\U+30D5\U+30A9\U+30FC\U+30DE\U+30C3\U+30C8
 62
    29
370
    35
100
AcDbVertex
100
AcDb2dVertex
 10
148.9602443746523
 20
14.17105576902668
 30
0.0
  0
SEQEND
  5
F3
330
F0
100
AcDbEntity
  8
\U+30D5\U+30A9\U+30FC\U+30DE\U+30C3\U+30C8
370
    35
  0
POLYLINE
  5
F4
330
1F
100
AcDbEntity
  8
\U+30D5\U+30A9\U+30FC\U+30DE\U+30C3\U+30C8
 62
    29
370
    35
100
AcDb2dPolyline
 66
     1
 10
0.0
 20
0.0
 30
0.0
  0
VERTEX
  5
F5
330
F4
100
AcDbEntity
  8
\U+30D5\U+30A9\U+30FC\U+30DE\U+30C3\U+30C8
 62
    29
370
    35
100
AcDbVertex
100
AcDb2dVertex
 10
58.95953638933998
 20
35.16822373252739
 30
0.0
  0
VERTEX
  5
F6
330
F4
100
AcDbEntity
  8
\U+30D5\U+30A9\U+30FC\U+30DE\U+30C3\U+30C8
 62
    29
370
    35
100
AcDbVertex
100
AcDb2dVertex
 10
58.95953638933998
 20
10.19162597401459
 30
0.0
  0
SEQEND
  5
F7
330
F4
100
AcDbEntity
  8
\U+30D5\U+30A9\U+30FC\U+30DE\U+30C3\U+30C8
370
    35
  0
MTEXT
  5
F8
330
1F
100
AcDbEntity
  8
\U+30D5\U+30A9\U+30FC\U+30DE\U+30C3\U+30C8
 62
    29
100
AcDbMText
 10
150.1140068526625
 20
29.97198621212506
 30
0.0
 40
2.187786638666616
 41
0.0
 71
     7
 72
     1
  1
\fMS Gothic|b0|i0|c0|p34;\W1;日 付
 73
     1
 44
1.0
  0
MTEXT
  5
F9
330
1F
100
AcDbEntity
  8
\U+30D5\U+30A9\U+30FC\U+30DE\U+30C3\U+30C8
 62
    29
100
AcDbMText
 10
161.4593953046872
 20
14.7601670970044
 30
0.0
 40
2.187786638666616
 41
0.0
 71
     7
 72
     1
  1
\fMS Gothic|b0|i0|c0|p34;\W1;岩 根
 73
     1
 44
1.0
  0
MTEXT
  5
FA
330
1F
100
AcDbEntity
  8
\U+30D5\U+30A9\U+30FC\U+30DE\U+30C3\U+30C8
 62
    29
100
AcDbMText
 10
161.2900688615872
 20
22.77518174343815
 30
0.0
 40
2.187786638666616
 41
0.0
 71
     7
 72
     1
  1
\fMS Gothic|b0|i0|c0|p34;\W1;検 図
 73
     1
 44
1.0
  0
MTEXT
  5
FB
330
1F
100
AcDbEntity
  8
\U+30D5\U+30A9\U+30FC\U+30DE\U+30C3\U+30C8
 62
    29
100
AcDbMText
 10
172.2120550784748
 20
22.85993109237529
 30
0.0
 40
2.187786638666616
 41
0.0
 71
     7
 72
     1
  1
\fMS Gothic|b0|i0|c0|p34;\W1;承 認
 73
     1
 44
1.0
  0
MTEXT
  5
FC
330
1F
100
AcDbEntity
  8
\U+30D5\U+30A9\U+30FC\U+30DE\U+30C3\U+30C8
 62
    29
100
AcDbMText
 10
172.3815537763491
 20
14.7601670970044
 30
0.0
 40
2.187786638666616
 41
0.0
 71
     7
 72
     1
  1
\fMS Gothic|b0|i0|c0|p34;\W1;真 鍋
 73
     1
 44
1.0
  0
MTEXT
  5
FD
330
1F
100
AcDbEntity
  8
\U+30D5\U+30A9\U+30FC\U+30DE\U+30C3\U+30C8
 62
    29
100
AcDbMText
 10
182.7953884091623
 20
15.49397243536262
 30
0.0
 40
2.187786638666616
 41
0.0
 71
     7
 72
     1
  1
\fMS Gothic|b0|i0|c0|p34;\W1;尺
 73
     1
 44
1.0
  0
MTEXT
  5
FE
330
1F
100
AcDbEntity
  8
\U+30D5\U+30A9\U+30FC\U+30DE\U+30C3\U+30C8
 62
    29
100
AcDbMText
 10
182.7953884091623
 20
11.26063910308762
 30
0.0
 40
2.187786638666616
 41
0.0
 71
     7
 72
     1
  1
\fMS Gothic|b0|i0|c0|p34;\W1;度
 73
     1
 44
1.0
  0
MTEXT
  5
FF
330
1F
100
AcDbEntity
  8
\U+30D5\U+30A9\U+30FC\U+30DE\U+30C3\U+30C8
 62
    29
100
AcDbMText
 10
182.7106390602251
 20
23.7067355626497
 30
0.0
 40
2.187786638666616
 41
0.0
 71
     7
 72
     1
  1
\fMS Gothic|b0|i0|c0|p34;\W1;図
 73
     1
 44
1.0
  0
MTEXT
  5
100
330
1F
100
AcDbEntity
  8
\U+30D5\U+30A9\U+30FC\U+30DE\U+30C3\U+30C8
 62
    29
100
AcDbMText
 10
185.9280137338999
 20
23.7067355626497
 30
0.0
 40
2.187786638666616
 41
0.0
 71
     7
 72
     1
  1
\fMS Gothic|b0|i0|c0|p34;\W1;　
 73
     1
 44
1.0
  0
MTEXT
  5
101
330
1F
100
AcDbEntity
  8
\U+30D5\U+30A9\U+30FC\U+30DE\U+30C3\U+30C8
 62
    29
100
AcDbMText
 10
182.8801377580994
 20
19.47340223037471
 30
0.0
 40
2.187786638666616
 41
0.0
 71
     7
 72
     1
  1
\fMS Gothic|b0|i0|c0|p34;\W1;番
 73
     1
 44
1.0
  0
MTEXT
  5
102
330
1F
100
AcDbEntity
  8
\U+30D5\U+30A9\U+30FC\U+30DE\U+30C3\U+30C8
 62
    29
100
AcDbMText
 10
150.3680826446997
 20
14.7601670970044
 30
0.0
 40
2.187786638666616
 41
0.0
 71
     7
 72
     1
  1
\fMS Gothic|b0|i0|c0|p34;\W1;真 鍋
 73
     1
 44
1.0
  0
POLYLINE
  5
103
330
1F
100
AcDbEntity
  8
\U+30D5\U+30A9\U+30FC\U+30DE\U+30C3\U+30C8
 62
    29
370
    35
100
AcDb2dPolyline
 66
     1
 10
0.0
 20
0.0
 30
0.0
  0
VERTEX
  5
104
330
103
100
AcDbEntity
  8
\U+30D5\U+30A9\U+30FC\U+30DE\U+30C3\U+30C8
 62
    29
370
    35
100
AcDbVertex
100
AcDb2dVertex
 10
148.9602443746523
 20
35.16822373252739
 30
0.0
  0
VERTEX
  5
105
330
103
100
AcDbEntity
  8
\U+30D5\U+30A9\U+30FC\U+30DE\U+30C3\U+30C8
 62
    29
370
    35
100
AcDbVertex
100
AcDb2dVertex
 10
148.9602443746523
 20
10.19162597401459
 30
0.0
  0
SEQEND
  5
106
330
103
100
AcDbEntity
  8
\U+30D5\U+30A9\U+30FC\U+30DE\U+30C3\U+30C8
370
    35
  0
POLYLINE
  5
107
330
1F
100
AcDbEntity
  8
\U+30D5\U+30A9\U+30FC\U+30DE\U+30C3\U+30C8
 62
    29
370
    35
100
AcDb2dPolyline
 66
     1
 10
0.0
 20
0.0
 30
0.0
  0
VERTEX
  5
108
330
107
100
AcDbEntity
  8
\U+30D5\U+30A9\U+30FC\U+30DE\U+30C3\U+30C8
 62
    29
370
    35
100
AcDbVertex
100
AcDb2dVertex
 10
148.9602443746523
 20
21.11361219090215
 30
0.0
  0
VERTEX
  5
109
330
107
100
AcDbEntity
  8
\U+30D5\U+30A9\U+30FC\U+30DE\U+30C3\U+30C8
 62
    29
370
    35
100
AcDbVertex
100
AcDb2dVertex
 10
181.9802788173522
 20
21.11361219090215
 30
0.0
  0
SEQEND
  5
10A
330
107
100
AcDbEntity
  8
\U+30D5\U+30A9\U+30FC\U+30DE\U+30C3\U+30C8
370
    35
  0
POLYLINE
  5
10B
330
1F
100
AcDbEntity
  8
\U+30D5\U+30A9\U+30FC\U+30DE\U+30C3\U+30C8
 62
    29
370
    35
100
AcDb2dPolyline
 66
     1
 10
0.0
 20
0.0
 30
0.0
  0
VERTEX
  5
10C
330
10B
100
AcDbEntity
  8
\U+30D5\U+30A9\U+30FC\U+30DE\U+30C3\U+30C8
 62
    29
370
    35
100
AcDbVertex
100
AcDb2dVertex
 10
159.966979940477
 20
35.16822373252739
 30
0.0
  0
VERTEX
  5
10D
330
10B
100
AcDbEntity
  8
\U+30D5\U+30A9\U+30FC\U+30DE\U+30C3\U+30C8
 62
    29
370
    35
100
AcDbVertex
100
AcDb2dVertex
 10
159.966979940477
 20
10.19162597401459
 30
0.0
  0
SEQEND
  5
10E
330
10B
100
AcDbEntity
  8
\U+30D5\U+30A9\U+30FC\U+30DE\U+30C3\U+30C8
370
    35
  0
MTEXT
  5
10F
330
1F
100
AcDbEntity
  8
\U+30D5\U+30A9\U+30FC\U+30DE\U+30C3\U+30C8
 62
    29
100
AcDbMText
 10
217.7627630748996
 20
17.69538845043726
 30
0.0
 40
2.187786638666616
 41
0.0
 71
     7
 72
     1
  1
\fMS Gothic|b0|i0|c0|p34;\W1;　
 73
     1
 44
1.0
  0
MTEXT
  5
110
330
1F
100
AcDbEntity
  8
\U+30D5\U+30A9\U+30FC\U+30DE\U+30C3\U+30C8
 62
    29
100
AcDbMText
 10
217.6780137259624
 20
21.75922308483797
 30
0.0
 40
2.187786638666616
 41
0.0
 71
     7
 72
     1
  1
\fMS Gothic|b0|i0|c0|p34;\W1;品
 73
     1
 44
1.0
  0
MTEXT
  5
111
330
1F
100
AcDbEntity
  8
\U+30D5\U+30A9\U+30FC\U+30DE\U+30C3\U+30C8
 62
    29
100
AcDbMText
 10
220.8953883996373
 20
21.75922308483797
 30
0.0
 40
2.187786638666616
 41
0.0
 71
     7
 72
     1
  1
\fMS Gothic|b0|i0|c0|p34;\W1;　
 73
     1
 44
1.0
  0
MTEXT
  5
112
330
1F
100
AcDbEntity
  8
\U+30D5\U+30A9\U+30FC\U+30DE\U+30C3\U+30C8
 62
    29
100
AcDbMText
 10
218.1014159610997
 20
17.61063910150012
 30
0.0
 40
2.187786638666616
 41
0.0
 71
     7
 72
     1
  1
\fMS Gothic|b0|i0|c0|p34;\W1;　　
 73
     1
 44
1.0
  0
MTEXT
  5
113
330
1F
100
AcDbEntity
  8
\U+30D5\U+30A9\U+30FC\U+30DE\U+30C3\U+30C8
 62
    29
100
AcDbMText
 10
217.8471679142882
 20
13.37730576922512
 30
0.0
 40
2.187786638666616
 41
0.0
 71
     7
 72
     1
  1
\fMS Gothic|b0|i0|c0|p34;\W1;名
 73
     1
 44
1.0
  0
MTEXT
  5
114
330
1F
100
AcDbEntity
  8
\U+30D5\U+30A9\U+30FC\U+30DE\U+30C3\U+30C8
 62
    29
100
AcDbMText
 10
217.8471679142882
 20
32.00390352932541
 30
0.0
 40
2.187786638666616
 41
0.0
 71
     7
 72
     1
  1
\fMS Gothic|b0|i0|c0|p34;\W1;品
 73
     1
 44
1.0
  0
MTEXT
  5
115
330
1F
100
AcDbEntity
  8
\U+30D5\U+30A9\U+30FC\U+30DE\U+30C3\U+30C8
 62
    29
100
AcDbMText
 10
218.0166666121625
 20
27.77057019705041
 30
0.0
 40
2.187786638666616
 41
0.0
 71
     7
 72
     1
  1
\fMS Gothic|b0|i0|c0|p34;\W1;番
 73
     1
 44
1.0
  0
POLYLINE
  5
116
330
1F
100
AcDbEntity
  8
\U+30D5\U+30A9\U+30FC\U+30DE\U+30C3\U+30C8
 62
    29
370
    35
100
AcDb2dPolyline
 66
     1
 10
0.0
 20
0.0
 30
0.0
  0
VERTEX
  5
117
330
116
100
AcDbEntity
  8
\U+30D5\U+30A9\U+30FC\U+30DE\U+30C3\U+30C8
 62
    29
370
    35
100
AcDbVertex
100
AcDb2dVertex
 10
170.9735432515274
 20
27.12495930311459
 30
0.0
  0
VERTEX
  5
118
330
116
100
AcDbEntity
  8
\U+30D5\U+30A9\U+30FC\U+30DE\U+30C3\U+30C8
 62
    29
370
    35
100
AcDbVertex
100
AcDb2dVertex
 10
170.9735432515274
 20
10.19162597401459
 30
0.0
  0
SEQEND
  5
119
330
116
100
AcDbEntity
  8
\U+30D5\U+30A9\U+30FC\U+30DE\U+30C3\U+30C8
370
    35
  0
POLYLINE
  5
11A
330
1F
100
AcDbEntity
  8
\U+30D5\U+30A9\U+30FC\U+30DE\U+30C3\U+30C8
 62
    29
370
    35
100
AcDb2dPolyline
 66
     1
 10
0.0
 20
0.0
 30
0.0
  0
VERTEX
  5
11B
330
11A
100
AcDbEntity
  8
\U+30D5\U+30A9\U+30FC\U+30DE\U+30C3\U+30C8
 62
    29
370
    35
100
AcDbVertex
100
AcDb2dVertex
 10
181.9802788173522
 20
27.12495930311459
 30
0.0
  0
VERTEX
  5
11C
330
11A
100
AcDbEntity
  8
\U+30D5\U+30A9\U+30FC\U+30DE\U+30C3\U+30C8
 62
    29
370
    35
100
AcDbVertex
100
AcDb2dVertex
 10
181.9802788173522
 20
10.19162597401459
 30
0.0
  0
SEQEND
  5
11D
330
11A
100
AcDbEntity
  8
\U+30D5\U+30A9\U+30FC\U+30DE\U+30C3\U+30C8
370
    35
  0
POLYLINE
  5
11E
330
1F
100
AcDbEntity
  8
\U+30D5\U+30A9\U+30FC\U+30DE\U+30C3\U+30C8
 62
    29
370
    35
100
AcDb2dPolyline
 66
     1
 10
0.0
 20
0.0
 30
0.0
  0
VERTEX
  5
11F
330
11E
100
AcDbEntity
  8
\U+30D5\U+30A9\U+30FC\U+30DE\U+30C3\U+30C8
 62
    29
370
    35
100
AcDbVertex
100
AcDb2dVertex
 10
186.9756672709644
 20
27.12495930311459
 30
0.0
  0
VERTEX
  5
120
330
11E
100
AcDbEntity
  8
\U+30D5\U+30A9\U+30FC\U+30DE\U+30C3\U+30C8
 62
    29
370
    35
100
AcDbVertex
100
AcDb2dVertex
 10
186.9756672709644
 20
10.19162597401459
 30
0.0
  0
SEQEND
  5
121
330
11E
100
AcDbEntity
  8
\U+30D5\U+30A9\U+30FC\U+30DE\U+30C3\U+30C8
370
    35
  0
POLYLINE
  5
122
330
1F
100
AcDbEntity
  8
\U+30D5\U+30A9\U+30FC\U+30DE\U+30C3\U+30C8
 62
    29
370
    35
100
AcDb2dPolyline
 66
     1
 10
0.0
 20
0.0
 30
0.0
  0
VERTEX
  5
123
330
122
100
AcDbEntity
  8
\U+30D5\U+30A9\U+30FC\U+30DE\U+30C3\U+30C8
 62
    29
370
    35
100
AcDbVertex
100
AcDb2dVertex
 10
148.9602443746523
 20
35.16822373252739
 30
0.0
  0
VERTEX
  5
124
330
122
100
AcDbEntity
  8
\U+30D5\U+30A9\U+30FC\U+30DE\U+30C3\U+30C8
 62
    29
370
    35
100
AcDbVertex
100
AcDb2dVertex
 10
148.9602443746523
 20
10.19162597401459
 30
0.0
  0
SEQEND
  5
125
330
122
100
AcDbEntity
  8
\U+30D5\U+30A9\U+30FC\U+30DE\U+30C3\U+30C8
370
    35
  0
POLYLINE
  5
126
330
1F
100
AcDbEntity
  8
\U+30D5\U+30A9\U+30FC\U+30DE\U+30C3\U+30C8
 62
    29
370
    35
100
AcDb2dPolyline
 66
     1
 10
0.0
 20
0.0
 30
0.0
  0
VERTEX
  5
127
330
126
100
AcDbEntity
  8
\U+30D5\U+30A9\U+30FC\U+30DE\U+30C3\U+30C8
 62
    29
370
    35
100
AcDbVertex
100
AcDb2dVertex
 10
148.9602443746523
 20
21.11361219090215
 30
0.0
  0
VERTEX
  5
128
330
126
100
AcDbEntity
  8
\U+30D5\U+30A9\U+30FC\U+30DE\U+30C3\U+30C8
 62
    29
370
    35
100
AcDbVertex
100
AcDb2dVertex
 10
181.9802788173522
 20
21.11361219090215
 30
0.0
  0
SEQEND
  5
129
330
126
100
AcDbEntity
  8
\U+30D5\U+30A9\U+30FC\U+30DE\U+30C3\U+30C8
370
    35
  0
POLYLINE
  5
12A
330
1F
100
AcDbEntity
  8
\U+30D5\U+30A9\U+30FC\U+30DE\U+30C3\U+30C8
 62
    29
370
    35
100
AcDb2dPolyline
 66
     1
 10
0.0
 20
0.0
 30
0.0
  0
VERTEX
  5
12B
330
12A
100
AcDbEntity
  8
\U+30D5\U+30A9\U+30FC\U+30DE\U+30C3\U+30C8
 62
    29
370
    35
100
AcDbVertex
100
AcDb2dVertex
 10
159.966979940477
 20
35.16822373252739
 30
0.0
  0
VERTEX
  5
12C
330
12A
100
AcDbEntity
  8
\U+30D5\U+30A9\U+30FC\U+30DE\U+30C3\U+30C8
 62
    29
370
    35
100
AcDbVertex
100
AcDb2dVertex
 10
159.966979940477
 20
10.19162597401459
 30
0.0
  0
SEQEND
  5
12D
330
12A
100
AcDbEntity
  8
\U+30D5\U+30A9\U+30FC\U+30DE\U+30C3\U+30C8
370
    35
  0
POLYLINE
  5
12E
330
1F
100
AcDbEntity
  8
\U+30D5\U+30A9\U+30FC\U+30DE\U+30C3\U+30C8
 62
    29
370
    35
100
AcDb2dPolyline
 66
     1
 10
0.0
 20
0.0
 30
0.0
  0
VERTEX
  5
12F
330
12E
100
AcDbEntity
  8
\U+30D5\U+30A9\U+30FC\U+30DE\U+30C3\U+30C8
 62
    29
370
    35
100
AcDbVertex
100
AcDb2dVertex
 10
170.9735432515274
 20
27.12495930311459
 30
0.0
  0
VERTEX
  5
130
330
12E
100
AcDbEntity
  8
\U+30D5\U+30A9\U+30FC\U+30DE\U+30C3\U+30C8
 62
    29
370
    35
100
AcDbVertex
100
AcDb2dVertex
 10
170.9735432515274
 20
10.19162597401459
 30
0.0
  0
SEQEND
  5
131
330
12E
100
AcDbEntity
  8
\U+30D5\U+30A9\U+30FC\U+30DE\U+30C3\U+30C8
370
    35
  0
POLYLINE
  5
132
330
1F
100
AcDbEntity
  8
\U+30D5\U+30A9\U+30FC\U+30DE\U+30C3\U+30C8
 62
    29
370
    35
100
AcDb2dPolyline
 66
     1
 10
0.0
 20
0.0
 30
0.0
  0
VERTEX
  5
133
330
132
100
AcDbEntity
  8
\U+30D5\U+30A9\U+30FC\U+30DE\U+30C3\U+30C8
 62
    29
370
    35
100
AcDbVertex
100
AcDb2dVertex
 10
181.9802788173522
 20
27.12495930311459
 30
0.0
  0
VERTEX
  5
134
330
132
100
AcDbEntity
  8
\U+30D5\U+30A9\U+30FC\U+30DE\U+30C3\U+30C8
 62
    29
370
    35
100
AcDbVertex
100
AcDb2dVertex
 10
181.9802788173522
 20
10.19162597401459
 30
0.0
  0
SEQEND
  5
135
330
132
100
AcDbEntity
  8
\U+30D5\U+30A9\U+30FC\U+30DE\U+30C3\U+30C8
370
    35
  0
POLYLINE
  5
136
330
1F
100
AcDbEntity
  8
\U+30D5\U+30A9\U+30FC\U+30DE\U+30C3\U+30C8
 62
    29
370
    35
100
AcDb2dPolyline
 66
     1
 10
0.0
 20
0.0
 30
0.0
  0
VERTEX
  5
137
330
136
100
AcDbEntity
  8
\U+30D5\U+30A9\U+30FC\U+30DE\U+30C3\U+30C8
 62
    29
370
    35
100
AcDbVertex
100
AcDb2dVertex
 10
186.9756672709644
 20
27.12495930311459
 30
0.0
  0
VERTEX
  5
138
330
136
100
AcDbEntity
  8
\U+30D5\U+30A9\U+30FC\U+30DE\U+30C3\U+30C8
 62
    29
370
    35
100
AcDbVertex
100
AcDb2dVertex
 10
186.9756672709644
 20
10.19162597401459
 30
0.0
  0
SEQEND
  5
139
330
136
100
AcDbEntity
  8
\U+30D5\U+30A9\U+30FC\U+30DE\U+30C3\U+30C8
370
    35
  0
POLYLINE
  5
13A
330
1F
100
AcDbEntity
  8
\U+30D5\U+30A9\U+30FC\U+30DE\U+30C3\U+30C8
 62
    29
370
    35
100
AcDb2dPolyline
 66
     1
 10
0.0
 20
0.0
 30
0.0
  0
VERTEX
  5
13B
330
13A
100
AcDbEntity
  8
\U+30D5\U+30A9\U+30FC\U+30DE\U+30C3\U+30C8
 62
    29
370
    35
100
AcDbVertex
100
AcDb2dVertex
 10
181.9802788173522
 20
18.65829263856459
 30
0.0
  0
VERTEX
  5
13C
330
13A
100
AcDbEntity
  8
\U+30D5\U+30A9\U+30FC\U+30DE\U+30C3\U+30C8
 62
    29
370
    35
100
AcDbVertex
100
AcDb2dVertex
 10
216.9476534830895
 20
18.65829263856459
 30
0.0
  0
SEQEND
  5
13D
330
13A
100
AcDbEntity
  8
\U+30D5\U+30A9\U+30FC\U+30DE\U+30C3\U+30C8
370
    35
  0
POLYLINE
  5
13E
330
1F
100
AcDbEntity
  8
\U+30D5\U+30A9\U+30FC\U+30DE\U+30C3\U+30C8
 62
    29
370
    35
100
AcDb2dPolyline
 66
     1
 10
0.0
 20
0.0
 30
0.0
  0
VERTEX
  5
13F
330
13E
100
AcDbEntity
  8
\U+30D5\U+30A9\U+30FC\U+30DE\U+30C3\U+30C8
 62
    29
370
    35
100
AcDbVertex
100
AcDb2dVertex
 10
148.9602443746523
 20
27.12495930311459
 30
0.0
  0
VERTEX
  5
140
330
13E
100
AcDbEntity
  8
\U+30D5\U+30A9\U+30FC\U+30DE\U+30C3\U+30C8
 62
    29
370
    35
100
AcDbVertex
100
AcDb2dVertex
 10
281.9714192003405
 20
27.12495930311459
 30
0.0
  0
SEQEND
  5
141
330
13E
100
AcDbEntity
  8
\U+30D5\U+30A9\U+30FC\U+30DE\U+30C3\U+30C8
370
    35
  0
POLYLINE
  5
142
330
1F
100
AcDbEntity
  8
\U+30D5\U+30A9\U+30FC\U+30DE\U+30C3\U+30C8
 62
    29
370
    35
100
AcDb2dPolyline
 66
     1
 10
0.0
 20
0.0
 30
0.0
  0
VERTEX
  5
143
330
142
100
AcDbEntity
  8
\U+30D5\U+30A9\U+30FC\U+30DE\U+30C3\U+30C8
 62
    29
370
    35
100
AcDbVertex
100
AcDb2dVertex
 10
216.9476534830895
 20
35.16822373252739
 30
0.0
  0
VERTEX
  5
144
330
142
100
AcDbEntity
  8
\U+30D5\U+30A9\U+30FC\U+30DE\U+30C3\U+30C8
 62
    29
370
    35
100
AcDbVertex
100
AcDb2dVertex
 10
216.9476534830895
 20
10.19162597401459
 30
0.0
  0
SEQEND
  5
145
330
142
100
AcDbEntity
  8
\U+30D5\U+30A9\U+30FC\U+30DE\U+30C3\U+30C8
370
    35
  0
POLYLINE
  5
146
330
1F
100
AcDbEntity
  8
\U+30D5\U+30A9\U+30FC\U+30DE\U+30C3\U+30C8
 62
    29
370
    35
100
AcDb2dPolyline
 66
     1
 10
0.0
 20
0.0
 30
0.0
  0
VERTEX
  5
147
330
146
100
AcDbEntity
  8
\U+30D5\U+30A9\U+30FC\U+30DE\U+30C3\U+30C8
 62
    29
370
    35
100
AcDbVertex
100
AcDb2dVertex
 10
221.9430419367017
 20
35.16822373252739
 30
0.0
  0
VERTEX
  5
148
330
146
100
AcDbEntity
  8
\U+30D5\U+30A9\U+30FC\U+30DE\U+30C3\U+30C8
 62
    29
370
    35
100
AcDbVertex
100
AcDb2dVertex
 10
221.9430419367017
 20
10.19162597401459
 30
0.0
  0
SEQEND
  5
149
330
146
100
AcDbEntity
  8
\U+30D5\U+30A9\U+30FC\U+30DE\U+30C3\U+30C8
370
    35
  0
MTEXT
  5
14A
330
1F
100
AcDbEntity
  8
\U+30D5\U+30A9\U+30FC\U+30DE\U+30C3\U+30C8
 62
    29
100
AcDbMText
 10
217.7627630748996
 20
17.69538845043726
 30
0.0
 40
2.187786638666616
 41
0.0
 71
     7
 72
     1
  1
\fMS Gothic|b0|i0|c0|p34;\W1;　
 73
     1
 44
1.0
  0
POLYLINE
  5
14B
330
1F
100
AcDbEntity
  8
\U+30D5\U+30A9\U+30FC\U+30DE\U+30C3\U+30C8
 62
    29
370
    35
100
AcDb2dPolyline
 66
     1
 10
0.0
 20
0.0
 30
0.0
  0
VERTEX
  5
14C
330
14B
100
AcDbEntity
  8
\U+30D5\U+30A9\U+30FC\U+30DE\U+30C3\U+30C8
 62
    29
370
    35
100
AcDbVertex
100
AcDb2dVertex
 10
216.9476534830895
 20
35.16822373252739
 30
0.0
  0
VERTEX
  5
14D
330
14B
100
AcDbEntity
  8
\U+30D5\U+30A9\U+30FC\U+30DE\U+30C3\U+30C8
 62
    29
370
    35
100
AcDbVertex
100
AcDb2dVertex
 10
216.9476534830895
 20
10.19162597401459
 30
0.0
  0
SEQEND
  5
14E
330
14B
100
AcDbEntity
  8
\U+30D5\U+30A9\U+30FC\U+30DE\U+30C3\U+30C8
370
    35
  0
POLYLINE
  5
14F
330
1F
100
AcDbEntity
  8
\U+30D5\U+30A9\U+30FC\U+30DE\U+30C3\U+30C8
 62
    29
370
    35
100
AcDb2dPolyline
 66
     1
 10
0.0
 20
0.0
 30
0.0
  0
VERTEX
  5
150
330
14F
100
AcDbEntity
  8
\U+30D5\U+30A9\U+30FC\U+30DE\U+30C3\U+30C8
 62
    29
370
    35
100
AcDbVertex
100
AcDb2dVertex
 10
221.9430419367017
 20
35.16822373252739
 30
0.0
  0
VERTEX
  5
151
330
14F
100
AcDbEntity
  8
\U+30D5\U+30A9\U+30FC\U+30DE\U+30C3\U+30C8
 62
    29
370
    35
100
AcDbVertex
100
AcDb2dVertex
 10
221.9430419367017
 20
10.19162597401459
 30
0.0
  0
SEQEND
  5
152
330
14F
100
AcDbEntity
  8
\U+30D5\U+30A9\U+30FC\U+30DE\U+30C3\U+30C8
370
    35
  0
MTEXT
  5
153
330
1F
100
AcDbEntity
  8
\U+30D5\U+30A9\U+30FC\U+30DE\U+30C3\U+30C8
 62
    29
100
AcDbMText
 10
62.31471488242479
 20
30.31063909832512
 30
0.0
 40
2.187786638666616
 41
0.0
 71
     7
 72
     1
  1
\fMS Gothic|b0|i0|c0|p34;\W1;-
 73
     1
 44
1.0
  0
INSERT
  5
155
330
1F
100
AcDbEntity
  8
\U+30D5\U+30A9\U+30FC\U+30DE\U+30C3\U+30C8
100
AcDbBlockReference
  2
block 9
 10
0.0
 20
0.0
 30
0.0
  0
MTEXT
  5
15B
330
1F
100
AcDbEntity
  8
\U+30D5\U+30A9\U+30FC\U+30DE\U+30C3\U+30C8
 62
    29
100
AcDbMText
 10
62.31471488242479
 20
23.48073729881732
 30
0.0
 40
2.187786638666616
 41
0.0
 71
     7
 72
     1
  1
\fMS Gothic|b0|i0|c0|p34;\W1;材質
 73
     1
 44
1.0
  0
MTEXT
  5
15C
330
1F
100
AcDbEntity
  8
\U+30D5\U+30A9\U+30FC\U+30DE\U+30C3\U+30C8
 62
    29
100
AcDbMText
 10
69.27845864153456
 20
23.48073729881732
 30
0.0
 40
2.187786638666616
 41
0.0
 71
     7
 72
     1
  1
\fMS Gothic|b0|i0|c0|p34;\W1;／
 73
     1
 44
1.0
  0
MTEXT
  5
15D
330
1F
100
AcDbEntity
  8
\U+30D5\U+30A9\U+30FC\U+30DE\U+30C3\U+30C8
 62
    29
100
AcDbMText
 10
72.49583331520938
 20
23.48073729881732
 30
0.0
 40
2.187786638666616
 41
0.0
 71
     7
 72
     1
  1
\fMS Gothic|b0|i0|c0|p34;\W1;ステンレス
 73
     1
 44
1.0
  0
POLYLINE
  5
15E
330
1F
100
AcDbEntity
  8
\U+30D5\U+30A9\U+30FC\U+30DE\U+30C3\U+30C8
 62
    29
370
    35
100
AcDb2dPolyline
 66
     1
 10
0.0
 20
0.0
 30
0.0
  0
VERTEX
  5
15F
330
15E
100
AcDbEntity
  8
\U+30D5\U+30A9\U+30FC\U+30DE\U+30C3\U+30C8
 62
    29
370
    35
100
AcDbVertex
100
AcDb2dVertex
 10
281.9714192003405
 20
35.16822373252739
 30
0.0
  0
VERTEX
  5
160
330
15E
100
AcDbEntity
  8
\U+30D5\U+30A9\U+30FC\U+30DE\U+30C3\U+30C8
 62
    29
370
    35
100
AcDbVertex
100
AcDb2dVertex
 10
281.9714192003405
 20
10.19162597401459
 30
0.0
  0
SEQEND
  5
161
330
15E
100
AcDbEntity
  8
\U+30D5\U+30A9\U+30FC\U+30DE\U+30C3\U+30C8
370
    35
  0
MTEXT
  5
162
330
1F
100
AcDbEntity
  8
\U+30D5\U+30A9\U+30FC\U+30DE\U+30C3\U+30C8
 62
    29
100
AcDbMText
 10
38.64621987966137
 20
30.31063909832512
 30
0.0
 40
2.187786638666616
 41
0.0
 71
     7
 72
     1
  1
\fMS Gothic|b0|i0|c0|p34;\W1;2014.2.1
 73
     1
 44
1.0
  0
MTEXT
  5
163
330
1F
100
AcDbEntity
  8
\U+30D5\U+30A9\U+30FC\U+30DE\U+30C3\U+30C8
 62
    29
100
AcDbMText
 10
38.64621987966137
 20
23.2833333275125
 30
0.0
 40
2.187786638666616
 41
0.0
 71
     7
 72
     1
  1
\fMS Gothic|b0|i0|c0|p34;\W1;2014.2.1
 73
     1
 44
1.0
  0
MTEXT
  5
164
330
1F
100
AcDbEntity
  8
\U+30D5\U+30A9\U+30FC\U+30DE\U+30C3\U+30C8
 62
    29
100
AcDbMText
 10
38.64621987966137
 20
16.25602755669988
 30
0.0
 40
2.187786638666616
 41
0.0
 71
     7
 72
     1
  1
\fMS Gothic|b0|i0|c0|p34;\W1;2014.2.1
 73
     1
 44
1.0
  0
INSERT
  5
166
330
1F
100
AcDbEntity
  8
\U+30D5\U+30A9\U+30FC\U+30DE\U+30C3\U+30C8
100
AcDbBlockReference
  2
block 10
 10
0.0
 20
0.0
 30
0.0
  0
MTEXT
  5
1A6
330
1F
100
AcDbEntity
  8
0
100
AcDbMText
 10
0.0
 20
0.0
 30
0.0
 40
0.0
 41
0.0
 71
     1
 72
     1
  1

 73
     1
 44
1.0
  0
MTEXT
  5
1A7
330
1F
100
AcDbEntity
  8
\U+30D5\U+30A9\U+30FC\U+30DE\U+30C3\U+30C8
 62
    29
100
AcDbMText
 10
345.8941324005057
 20
22.37107204301834
 30
0.0
 40
2.604209742848704
 41
0.0
 71
     7
 72
     1
  1
\fHGPGothicE|b0|i0|c0|p34;\W1;和歌山県海南市南赤坂２０-１
 73
     1
 44
1.0
  0
MTEXT
  5
1A8
330
1F
100
AcDbEntity
  8
\U+30D5\U+30A9\U+30FC\U+30DE\U+30C3\U+30C8
 62
    29
100
AcDbMText
 10
345.8941324005057
 20
17.77531466569506
 30
0.0
 40
2.604209742848704
 41
0.0
 71
     7
 72
     1
  1
\fHGPGothicE|b0|i0|c0|p34;\W1;ＴＥＬ.  
 73
     1
 44
1.0
  0
MTEXT
  5
1A9
330
1F
100
AcDbEntity
  8
\U+30D5\U+30A9\U+30FC\U+30DE\U+30C3\U+30C8
 62
    29
100
AcDbMText
 10
345.8941324005057
 20
13.17955728837178
 30
0.0
 40
2.604209742848704
 41
0.0
 71
     7
 72
     1
  1
\fHGPGothicE|b0|i0|c0|p34;\W1;ＦＡＸ. 
 73
     1
 44
1.0
  0
MTEXT
  5
1AA
330
1F
100
AcDbEntity
  8
\U+30D5\U+30A9\U+30FC\U+30DE\U+30C3\U+30C8
 62
    29
100
AcDbMText
 10
359.4657415550989
 20
17.36190320746508
 30
0.0
 40
2.604209742848704
 41
0.0
 71
     7
 72
     1
  1
\fHGPGothicE|b0|i0|c0|p34;\W1;０７３-４８２-４１２８（代）
 73
     1
 44
1.0
  0
MTEXT
  5
1AB
330
1F
100
AcDbEntity
  8
\U+30D5\U+30A9\U+30FC\U+30DE\U+30C3\U+30C8
 62
    29
100
AcDbMText
 10
359.4657415550989
 20
12.7661458301418
 30
0.0
 40
2.604209742848704
 41
0.0
 71
     7
 72
     1
  1
\fHGPGothicE|b0|i0|c0|p34;\W1;０７３-４８６-２５６０（代）
 73
     1
 44
1.0
  0
MTEXT
  5
1AC
330
1F
100
AcDbEntity
  8
\U+30D5\U+30A9\U+30FC\U+30DE\U+30C3\U+30C8
 62
    29
100
AcDbMText
 10
373.8700302884769
 20
41.06553818417806
 30
0.0
 40
2.15899999946025
 41
0.0
 71
     7
 72
     1
  1
\fMS Gothic|b0|i0|c0|p34;\W1;寸法公差；±0.5mm
 73
     1
 44
1.0
  0
MTEXT
  5
1AD
330
1F
100
AcDbEntity
  8
\U+30D5\U+30A9\U+30FC\U+30DE\U+30C3\U+30C8
 62
    29
100
AcDbMText
 10
373.8700302884769
 20
37.25560708704027
 30
0.0
 40
2.15899999946025
 41
0.0
 71
     7
 72
     1
  1
\fMS Gothic|b0|i0|c0|p34;\W1;寸法数値：mm表記
 73
     1
 44
1.0
  0
INSERT
  5
1AF
330
1F
100
AcDbEntity
  8
\U+30D5\U+30A9\U+30FC\U+30DE\U+30C3\U+30C8
100
AcDbBlockReference
  2
block 17
 10
0.0
 20
0.0
 30
0.0
  0
MTEXT
  5
1F4
330
1F
100
AcDbEntity
  8
\U+56F3pt
 62
     7
100
AcDbMText
 10
244.0546982896808
 20
92.93351777190551
 30
0.0
 40
3.358444443604833
 41
0.0
 71
     7
 72
     1
  1
\fMS PGothic|b0|i0|c0|p34;\W1;【背面図】
 73
     1
 44
1.0
  0
MTEXT
  5
1F5
330
1F
100
AcDbEntity
  8
\U+56F3pt
 62
     7
100
AcDbMText
 10
299.7357095604827
 20
134.1616644629874
 30
0.0
 40
3.358444443604833
 41
0.0
 71
     7
 72
     1
  1
\fMS PGothic|b0|i0|c0|p34;\W1;・・・ 接着剤面
 73
     1
 44
1.0
  0
MTEXT
  5
1F6
330
1F
100
AcDbEntity
  8
\U+56F3pt
 62
     7
100
AcDbMText
 10
187.828500658338
 20
92.93351777190551
 30
0.0
 40
3.358444443604833
 41
0.0
 71
     7
 72
     1
  1
\fMS PGothic|b0|i0|c0|p34;\W1;【右側面図】
 73
     1
 44
1.0
  0
MTEXT
  5
1F7
330
1F
100
AcDbEntity
  8
\U+56F3pt
 62
     7
100
AcDbMText
 10
127.6590467345783
 20
92.93351777190551
 30
0.0
 40
3.358444443604833
 41
0.0
 71
     7
 72
     1
  1
\fMS PGothic|b0|i0|c0|p34;\W1;【正面図】
 73
     1
 44
1.0
  0
MTEXT
  5
1F8
330
1F
100
AcDbEntity
  8
\U+56F3pt
 62
     7
100
AcDbMText
 10
127.6590467345783
 20
232.2907307361982
 30
0.0
 40
3.358444443604833
 41
0.0
 71
     7
 72
     1
  1
\fMS PGothic|b0|i0|c0|p34;\W1;【平面図】
 73
     1
 44
1.0
  0
SPLINE
  5
1F9
330
1F
100
AcDbEntity
  8
\U+56F3pt
 62
    29
370
    35
100
AcDbSpline
210
0.0
220
0.0
230
1.0
 70
    11
 71
     3
 72
    20
 73
    16
 74
     0
 42
0.0000000001
 43
0.0000000001
 40
0.0
 40
0.0
 40
0.0
 40
0.0
 40
1.0
 40
1.0
 40
1.0
 40
2.0
 40
2.0
 40
2.0
 40
3.0
 40
3.0
 40
3.0
 40
4.0
 40
4.0
 40
4.0
 40
5.0
 40
5.0
 40
5.0
 40
5.0
 10
138.2868217970255
 20
134.0059461470541
 30
0.0
 10
138.1466064107759
 20
134.542692023656
 30
0.0
 10
137.6627427498725
 20
134.9402560426538
 30
0.0
 10
137.0820719058337
 20
134.9402560426538
 30
0.0
 10
136.4822807818517
 20
134.9402560426538
 30
0.0
 10
135.9820529173934
 20
134.5178873361622
 30
0.0
 10
135.8609578110868
 20
133.9542697147753
 30
0.0
 10
135.8580294799244
 20
133.9398003137373
 30
0.0
 10
133.3420762470464
 20
117.940776880237
 30
0.0
 10
133.3420762470464
 20
117.940776880237
 30
0.0
 10
133.3420762470464
 20
117.940776880237
 30
0.0
 10
140.8106987495196
 20
117.940776880237
 30
0.0
 10
140.8106987495196
 20
117.940776880237
 30
0.0
 10
140.8106987495196
 20
117.940776880237
 30
0.0
 10
138.2868217970255
 20
134.0059461470541
 30
0.0
 10
138.2868217970255
 20
134.0059461470541
 30
0.0
  0
SPLINE
  5
1FA
330
1F
100
AcDbEntity
  8
\U+56F3pt
 62
     7
370
    35
100
AcDbSpline
210
0.0
220
0.0
230
1.0
 70
     8
 71
     3
 72
    23
 73
    19
 74
     0
 42
0.0000000001
 43
0.0000000001
 40
0.0
 40
0.0
 40
0.0
 40
0.0
 40
1.0
 40
1.0
 40
1.0
 40
2.0
 40
2.0
 40
2.0
 40
3.0
 40
3.0
 40
3.0
 40
4.0
 40
4.0
 40
4.0
 40
5.0
 40
5.0
 40
5.0
 40
6.0
 40
6.0
 40
6.0
 40
6.0
 10
133.3534450621478
 20
117.940776880237
 30
0.0
 10
133.3534450621478
 20
117.940776880237
 30
0.0
 10
133.40081512507
 20
119.0521646837786
 30
0.0
 10
131.440728048737
 20
120.4329589542668
 30
0.0
 10
127.2134236335612
 20
123.4102104726197
 30
0.0
 10
123.0920559045569
 20
130.5636067381924
 30
0.0
 10
123.0920559045569
 20
139.4402397654872
 30
0.0
 10
123.0920559045569
 20
152.0062255479359
 30
0.0
 10
131.6426106441727
 20
159.4403970955566
 30
0.0
 10
137.0820719058337
 20
159.4403970955566
 30
0.0
 10
142.5215331674946
 20
159.4403970955566
 30
0.0
 10
151.0720879071104
 20
152.0062255479359
 30
0.0
 10
151.0720879071104
 20
139.4402397654872
 30
0.0
 10
151.0720879071104
 20
130.5636067381924
 30
0.0
 10
146.9507201781061
 20
123.4102104726197
 30
0.0
 10
142.7234157629303
 20
120.4329589542668
 30
0.0
 10
140.7633286865974
 20
119.0521646837786
 30
0.0
 10
140.8106987495196
 20
117.940776880237
 30
0.0
 10
140.8106987495196
 20
117.940776880237
 30
0.0
  0
SPLINE
  5
1FB
330
1F
100
AcDbEntity
  8
\U+56F3pt
 62
     7
370
    35
100
AcDbSpline
210
0.0
220
0.0
230
1.0
 70
    11
 71
     3
 72
    26
 73
    22
 74
     0
 42
0.0000000001
 43
0.0000000001
 40
0.0
 40
0.0
 40
0.0
 40
0.0
 40
1.0
 40
1.0
 40
1.0
 40
2.0
 40
2.0
 40
2.0
 40
3.0
 40
3.0
 40
3.0
 40
4.0
 40
4.0
 40
4.0
 40
5.0
 40
5.0
 40
5.0
 40
6.0
 40
6.0
 40
6.0
 40
7.0
 40
7.0
 40
7.0
 40
7.0
 10
249.008056578373
 20
117.940776880237
 30
0.0
 10
249.008056578373
 20
117.940776880237
 30
0.0
 10
249.0555988960695
 20
119.0521646837786
 30
0.0
 10
247.0953395649623
 20
120.4329589542668
 30
0.0
 10
242.8682074045607
 20
123.4102104726197
 30
0.0
 10
238.7471841851049
 20
130.5636067381924
 30
0.0
 10
238.7471841851049
 20
139.4402397654872
 30
0.0
 10
238.7471841851049
 20
152.0062255479359
 30
0.0
 10
247.2972221603979
 20
159.4403970955566
 30
0.0
 10
252.7370279316074
 20
159.4403970955566
 30
0.0
 10
258.1761446837199
 20
159.4403970955566
 30
0.0
 10
266.7268716781099
 20
152.0062255479359
 30
0.0
 10
266.7268716781099
 20
139.4402397654872
 30
0.0
 10
266.7268716781099
 20
130.5636067381924
 30
0.0
 10
262.6058484586541
 20
123.4102104726197
 30
0.0
 10
258.3780272791555
 20
120.4329589542668
 30
0.0
 10
256.4184569671454
 20
119.0521646837786
 30
0.0
 10
256.4653102657448
 20
117.940776880237
 30
0.0
 10
256.4653102657448
 20
117.940776880237
 30
0.0
 10
256.4653102657448
 20
117.940776880237
 30
0.0
 10
249.008056578373
 20
117.940776880237
 30
0.0
 10
249.008056578373
 20
117.940776880237
 30
0.0
  0
POLYLINE
  5
1FC
330
1F
100
AcDbEntity
  8
\U+56F3pt
 62
     7
370
    35
100
AcDb2dPolyline
 66
     1
 10
0.0
 20
0.0
 30
0.0
  0
VERTEX
  5
1FD
330
1FC
100
AcDbEntity
  8
\U+56F3pt
 62
     7
370
    35
100
AcDbVertex
100
AcDb2dVertex
 10
151.0665757543341
 20
213.5306355260444
 30
0.0
  0
VERTEX
  5
1FE
330
1FC
100
AcDbEntity
  8
\U+56F3pt
 62
     7
370
    35
100
AcDbVertex
100
AcDb2dVertex
 10
123.0920559045569
 20
213.5306355260444
 30
0.0
  0
VERTEX
  5
1FF
330
1FC
100
AcDbEntity
  8
\U+56F3pt
 62
     7
370
    35
100
AcDbVertex
100
AcDb2dVertex
 10
123.0920559045569
 20
214.5307467454125
 30
0.0
  0
VERTEX
  5
200
330
1FC
100
AcDbEntity
  8
\U+56F3pt
 62
     7
370
    35
100
AcDbVertex
100
AcDb2dVertex
 10
151.0665757543341
 20
214.5307467454125
 30
0.0
  0
VERTEX
  5
201
330
1FC
100
AcDbEntity
  8
\U+56F3pt
 62
     7
370
    35
100
AcDbVertex
100
AcDb2dVertex
 10
151.0665757543341
 20
213.5306355260444
 30
0.0
  0
SEQEND
  5
202
330
1FC
100
AcDbEntity
  8
\U+56F3pt
370
    35
  0
POLYLINE
  5
203
330
1F
100
AcDbEntity
  8
\U+56F3pt
 62
     7
370
    35
100
AcDb2dPolyline
 66
     1
 10
0.0
 20
0.0
 30
0.0
  0
VERTEX
  5
204
330
203
100
AcDbEntity
  8
\U+56F3pt
 62
     7
370
    35
100
AcDbVertex
100
AcDb2dVertex
 10
138.2868217970255
 20
194.0307060604333
 30
0.0
  0
VERTEX
  5
205
330
203
100
AcDbEntity
  8
\U+56F3pt
 62
     7
370
    35
100
AcDbVertex
100
AcDb2dVertex
 10
135.8609578110868
 20
194.0307060604333
 30
0.0
  0
VERTEX
  5
206
330
203
100
AcDbEntity
  8
\U+56F3pt
 62
     7
370
    35
100
AcDbVertex
100
AcDb2dVertex
 10
133.3534450621478
 20
213.5306355260444
 30
0.0
  0
VERTEX
  5
207
330
203
100
AcDbEntity
  8
\U+56F3pt
 62
     7
370
    35
100
AcDbVertex
100
AcDb2dVertex
 10
140.8106987495196
 20
213.5306355260444
 30
0.0
  0
VERTEX
  5
208
330
203
100
AcDbEntity
  8
\U+56F3pt
 62
     7
370
    35
100
AcDbVertex
100
AcDb2dVertex
 10
138.2868217970255
 20
194.0307060604333
 30
0.0
  0
SEQEND
  5
209
330
203
100
AcDbEntity
  8
\U+56F3pt
370
    35
  0
POLYLINE
  5
20A
330
1F
100
AcDbEntity
  8
\U+56F3pt
 62
     7
370
    35
100
AcDb2dPolyline
 66
     1
 10
0.0
 20
0.0
 30
0.0
  0
VERTEX
  5
20B
330
20A
100
AcDbEntity
  8
\U+56F3pt
 62
     7
370
    35
100
AcDbVertex
100
AcDb2dVertex
 10
207.0156154538885
 20
119.9409993189731
 30
0.0
  0
VERTEX
  5
20C
330
20A
100
AcDbEntity
  8
\U+56F3pt
 62
     7
370
    35
100
AcDbVertex
100
AcDb2dVertex
 10
207.0156154538885
 20
159.4403970955566
 30
0.0
  0
VERTEX
  5
20D
330
20A
100
AcDbEntity
  8
\U+56F3pt
 62
     7
370
    35
100
AcDbVertex
100
AcDb2dVertex
 10
208.016071182805
 20
159.4403970955566
 30
0.0
  0
VERTEX
  5
20E
330
20A
100
AcDbEntity
  8
\U+56F3pt
 62
     7
370
    35
100
AcDbVertex
100
AcDb2dVertex
 10
208.016071182805
 20
118.9405435900565
 30
0.0
  0
SEQEND
  5
20F
330
20A
100
AcDbEntity
  8
\U+56F3pt
370
    35
  0
POLYLINE
  5
210
330
1F
100
AcDbEntity
  8
\U+56F3pt
 62
     7
370
    35
100
AcDb2dPolyline
 66
     1
 10
0.0
 20
0.0
 30
0.0
  0
VERTEX
  5
211
330
210
100
AcDbEntity
  8
\U+56F3pt
 62
     7
370
    35
100
AcDbVertex
100
AcDb2dVertex
 10
207.0156154538885
 20
119.4407714545148
 30
0.0
  0
VERTEX
  5
212
330
210
100
AcDbEntity
  8
\U+56F3pt
 62
     7
370
    35
100
AcDbVertex
100
AcDb2dVertex
 10
207.0156154538885
 20
119.9409993189731
 30
0.0
  0
SEQEND
  5
213
330
210
100
AcDbEntity
  8
\U+56F3pt
370
    35
  0
SPLINE
  5
214
330
1F
100
AcDbEntity
  8
\U+56F3pt
 62
     7
370
    35
100
AcDbSpline
210
0.0
220
0.0
230
1.0
 70
     8
 71
     3
 72
    11
 73
     7
 74
     0
 42
0.0000000001
 43
0.0000000001
 40
0.0
 40
0.0
 40
0.0
 40
0.0
 40
1.0
 40
1.0
 40
1.0
 40
2.0
 40
2.0
 40
2.0
 40
2.0
 10
207.0156154538885
 20
119.4407714545148
 30
0.0
 10
207.0156154538885
 20
119.1644747965978
 30
0.0
 10
206.7916842473472
 20
118.9405435900565
 30
0.0
 10
206.5153875894302
 20
118.9405435900565
 30
0.0
 10
206.5153875894302
 20
118.9405435900565
 30
0.0
 10
202.3688706633835
 20
119.5331000135195
 30
0.0
 10
202.3688706633835
 20
119.5331000135195
 30
0.0
  0
SPLINE
  5
215
330
1F
100
AcDbEntity
  8
\U+56F3pt
 62
     7
370
    35
100
AcDbSpline
210
0.0
220
0.0
230
1.0
 70
     8
 71
     3
 72
    14
 73
    10
 74
     0
 42
0.0000000001
 43
0.0000000001
 40
0.0
 40
0.0
 40
0.0
 40
0.0
 40
1.0
 40
1.0
 40
1.0
 40
2.0
 40
2.0
 40
2.0
 40
3.0
 40
3.0
 40
3.0
 40
3.0
 10
197.6311753520679
 20
122.890690073444
 30
0.0
 10
197.6311753520679
 20
122.890690073444
 30
0.0
 10
199.16286480481
 20
120.4922145966131
 30
0.0
 10
199.16286480481
 20
120.4922145966131
 30
0.0
 10
199.4329602908536
 20
120.0939615585182
 30
0.0
 10
199.89391406678
 20
119.8865668103061
 30
0.0
 10
200.4065442749852
 20
119.8135307860188
 30
0.0
 10
200.4065442749852
 20
119.8135307860188
 30
0.0
 10
202.3688706633835
 20
119.5331000135195
 30
0.0
 10
202.3688706633835
 20
119.5331000135195
 30
0.0
  0
INSERT
  5
217
330
1F
100
AcDbEntity
  8
\U+56F3pt
100
AcDbBlockReference
  2
block 18
 10
0.0
 20
0.0
 30
0.0
  0
INSERT
  5
22A
330
1F
100
AcDbEntity
  8
\U+56F3pt
100
AcDbBlockReference
  2
block 19
 10
0.0
 20
0.0
 30
0.0
  0
SPLINE
  5
231
330
1F
100
AcDbEntity
  8
\U+56F3pt
 62
     7
370
    25
100
AcDbSpline
210
0.0
220
0.0
230
1.0
 70
    11
 71
     3
 72
    17
 73
    13
 74
     0
 42
0.0000000001
 43
0.0000000001
 40
0.0
 40
0.0
 40
0.0
 40
0.0
 40
1.0
 40
1.0
 40
1.0
 40
2.0
 40
2.0
 40
2.0
 40
3.0
 40
3.0
 40
3.0
 40
4.0
 40
4.0
 40
4.0
 40
4.0
 10
265.2372123902879
 20
139.3320637672503
 30
0.0
 10
265.2372123902879
 20
132.4284369243582
 30
0.0
 10
259.640310264951
 20
126.8318793085698
 30
0.0
 10
252.7370279316074
 20
126.8318793085698
 30
0.0
 10
245.8337455982638
 20
126.8318793085698
 30
0.0
 10
240.2368434729269
 20
132.4284369243582
 30
0.0
 10
240.2368434729269
 20
139.3320637672503
 30
0.0
 10
240.2368434729269
 20
146.2356906101425
 30
0.0
 10
245.8337455982638
 20
151.8319037163823
 30
0.0
 10
252.7370279316074
 20
151.8319037163823
 30
0.0
 10
259.640310264951
 20
151.8319037163823
 30
0.0
 10
265.2372123902879
 20
146.2356906101425
 30
0.0
 10
265.2372123902879
 20
139.3320637672503
 30
0.0
  0
HATCH
  5
232
330
1F
100
AcDbEntity
  8
\U+56F3pt
 62
   255
100
AcDbHatch
 10
0.0
 20
0.0
 30
0.0
210
0.0
220
0.0
230
1.0
  2
SOLID
 70
     1
 71
     0
 91
        1
 92
        1
 93
        1
 72
     4
 94
        3
 73
     0
 74
     1
 95
       17
 96
       13
 40
0.0
 40
0.0
 40
0.0
 40
0.0
 40
1.0
 40
1.0
 40
1.0
 40
2.0
 40
2.0
 40
2.0
 40
3.0
 40
3.0
 40
3.0
 40
4.0
 40
4.0
 40
4.0
 40
4.0
 10
265.2372123902879
 20
139.3320637672503
 10
265.2372123902879
 20
132.4284369243582
 10
259.640310264951
 20
126.8318793085698
 10
252.7370279316074
 20
126.8318793085698
 10
245.8337455982638
 20
126.8318793085698
 10
240.2368434729269
 20
132.4284369243582
 10
240.2368434729269
 20
139.3320637672503
 10
240.2368434729269
 20
146.2356906101425
 10
245.8337455982638
 20
151.8319037163823
 10
252.7370279316074
 20
151.8319037163823
 10
259.640310264951
 20
151.8319037163823
 10
265.2372123902879
 20
146.2356906101425
 10
265.2372123902879
 20
139.3320637672503
 97
        0
 75
     2
 76
     1
 98
        0
  0
POLYLINE
  5
233
330
1F
100
AcDbEntity
  8
\U+56F3pt
 62
     7
370
    25
100
AcDb2dPolyline
 66
     1
 10
0.0
 20
0.0
 30
0.0
  0
VERTEX
  5
234
330
233
100
AcDbEntity
  8
\U+56F3pt
 62
     7
370
    25
100
AcDbVertex
100
AcDb2dVertex
 10
296.5703558286352
 20
133.0402858825385
 30
0.0
  0
VERTEX
  5
235
330
233
100
AcDbEntity
  8
\U+56F3pt
 62
     7
370
    25
100
AcDbVertex
100
AcDb2dVertex
 10
290.4553113423167
 20
133.0402858825385
 30
0.0
  0
VERTEX
  5
236
330
233
100
AcDbEntity
  8
\U+56F3pt
 62
     7
370
    25
100
AcDbVertex
100
AcDb2dVertex
 10
290.4553113423167
 20
139.155330368857
 30
0.0
  0
VERTEX
  5
237
330
233
100
AcDbEntity
  8
\U+56F3pt
 62
     7
370
    25
100
AcDbVertex
100
AcDb2dVertex
 10
296.5703558286352
 20
139.155330368857
 30
0.0
  0
VERTEX
  5
238
330
233
100
AcDbEntity
  8
\U+56F3pt
 62
     7
370
    25
100
AcDbVertex
100
AcDb2dVertex
 10
296.5703558286352
 20
133.0402858825385
 30
0.0
  0
SEQEND
  5
239
330
233
100
AcDbEntity
  8
\U+56F3pt
370
    25
  0
HATCH
  5
23A
330
1F
100
AcDbEntity
  8
\U+56F3pt
 62
   255
100
AcDbHatch
 10
0.0
 20
0.0
 30
0.0
210
0.0
220
0.0
230
1.0
  2
SOLID
 70
     1
 71
     0
 91
        1
 92
        1
 93
        4
 72
     1
 10
296.5703558286352
 20
133.0402858825385
 11
290.4553113423167
 21
133.0402858825385
 72
     1
 10
290.4553113423167
 20
133.0402858825385
 11
290.4553113423167
 21
139.155330368857
 72
     1
 10
290.4553113423167
 20
139.155330368857
 11
296.5703558286352
 21
139.155330368857
 72
     1
 10
296.5703558286352
 20
139.155330368857
 11
296.5703558286352
 21
133.0402858825385
 97
        0
 75
     2
 76
     1
 98
        0
  0
POLYLINE
  5
23B
330
1F
100
AcDbEntity
  8
\U+56F3pt
 62
     7
370
    25
100
AcDb2dPolyline
 66
     1
 10
0.0
 20
0.0
 30
0.0
  0
VERTEX
  5
23C
330
23B
100
AcDbEntity
  8
\U+56F3pt
 62
     7
370
    25
100
AcDbVertex
100
AcDb2dVertex
 10
149.5793280333517
 20
214.5307467454125
 30
0.0
  0
VERTEX
  5
23D
330
23B
100
AcDbEntity
  8
\U+56F3pt
 62
     7
370
    25
100
AcDbVertex
100
AcDb2dVertex
 10
124.5793036255392
 20
214.5307467454125
 30
0.0
  0
VERTEX
  5
23E
330
23B
100
AcDbEntity
  8
\U+56F3pt
 62
     7
370
    25
100
AcDbVertex
100
AcDb2dVertex
 10
124.5793036255392
 20
216.0307413196902
 30
0.0
  0
VERTEX
  5
23F
330
23B
100
AcDbEntity
  8
\U+56F3pt
 62
     7
370
    25
100
AcDbVertex
100
AcDb2dVertex
 10
149.5793280333517
 20
216.0307413196902
 30
0.0
  0
VERTEX
  5
240
330
23B
100
AcDbEntity
  8
\U+56F3pt
 62
     7
370
    25
100
AcDbVertex
100
AcDb2dVertex
 10
149.5793280333517
 20
214.5307467454125
 30
0.0
  0
SEQEND
  5
241
330
23B
100
AcDbEntity
  8
\U+56F3pt
370
    25
  0
HATCH
  5
242
330
1F
100
AcDbEntity
  8
\U+56F3pt
 62
   255
100
AcDbHatch
 10
0.0
 20
0.0
 30
0.0
210
0.0
220
0.0
230
1.0
  2
SOLID
 70
     1
 71
     0
 91
        1
 92
        1
 93
        4
 72
     1
 10
149.5793280333517
 20
214.5307467454125
 11
124.5793036255392
 21
214.5307467454125
 72
     1
 10
124.5793036255392
 20
214.5307467454125
 11
124.5793036255392
 21
216.0307413196902
 72
     1
 10
124.5793036255392
 20
216.0307413196902
 11
149.5793280333517
 21
216.0307413196902
 72
     1
 10
149.5793280333517
 20
216.0307413196902
 11
149.5793280333517
 21
214.5307467454125
 97
        0
 75
     2
 76
     1
 98
        0
  0
POLYLINE
  5
243
330
1F
100
AcDbEntity
  8
\U+56F3pt
 62
     7
370
    25
100
AcDb2dPolyline
 66
     1
 10
0.0
 20
0.0
 30
0.0
  0
VERTEX
  5
244
330
243
100
AcDbEntity
  8
\U+56F3pt
 62
     7
370
    25
100
AcDbVertex
100
AcDb2dVertex
 10
208.016071182805
 20
126.9400553068067
 30
0.0
  0
VERTEX
  5
245
330
243
100
AcDbEntity
  8
\U+56F3pt
 62
     7
370
    25
100
AcDbVertex
100
AcDb2dVertex
 10
208.016071182805
 20
151.9400797146191
 30
0.0
  0
VERTEX
  5
246
330
243
100
AcDbEntity
  8
\U+56F3pt
 62
     7
370
    25
100
AcDbVertex
100
AcDb2dVertex
 10
209.5160657570828
 20
151.9400797146191
 30
0.0
  0
VERTEX
  5
247
330
243
100
AcDbEntity
  8
\U+56F3pt
 62
     7
370
    25
100
AcDbVertex
100
AcDb2dVertex
 10
209.5160657570828
 20
126.9400553068067
 30
0.0
  0
VERTEX
  5
248
330
243
100
AcDbEntity
  8
\U+56F3pt
 62
     7
370
    25
100
AcDbVertex
100
AcDb2dVertex
 10
208.016071182805
 20
126.9400553068067
 30
0.0
  0
SEQEND
  5
249
330
243
100
AcDbEntity
  8
\U+56F3pt
370
    25
  0
HATCH
  5
24A
330
1F
100
AcDbEntity
  8
\U+56F3pt
 62
   255
100
AcDbHatch
 10
0.0
 20
0.0
 30
0.0
210
0.0
220
0.0
230
1.0
  2
SOLID
 70
     1
 71
     0
 91
        1
 92
        1
 93
        4
 72
     1
 10
208.016071182805
 20
126.9400553068067
 11
208.016071182805
 21
151.9400797146191
 72
     1
 10
208.016071182805
 20
151.9400797146191
 11
209.5160657570828
 21
151.9400797146191
 72
     1
 10
209.5160657570828
 20
151.9400797146191
 11
209.5160657570828
 21
126.9400553068067
 72
     1
 10
209.5160657570828
 20
126.9400553068067
 11
208.016071182805
 21
126.9400553068067
 97
        0
 75
     2
 76
     1
 98
        0
  0
POLYLINE
  5
24B
330
1F
100
AcDbEntity
  8
\U+56F3pt
  6
AI-Linetype-1
 62
    18
370
     9
100
AcDb2dPolyline
 66
     1
 10
0.0
 20
0.0
 30
0.0
  0
VERTEX
  5
24C
330
24B
100
AcDbEntity
  8
\U+56F3pt
  6
AI-Linetype-1
 62
    18
370
     9
100
AcDbVertex
100
AcDb2dVertex
 10
137.0820719058337
 20
163.4973415389868
 30
0.0
  0
VERTEX
  5
24D
330
24B
100
AcDbEntity
  8
\U+56F3pt
  6
AI-Linetype-1
 62
    18
370
     9
100
AcDbVertex
100
AcDb2dVertex
 10
137.0820719058337
 20
114.1663302665973
 30
0.0
  0
SEQEND
  5
24E
330
24B
100
AcDbEntity
  8
\U+56F3pt
  6
AI-Linetype-1
370
     9
  0
POLYLINE
  5
250
330
1F
100
AcDbEntity
  8
\U+56F3pt
  6
AI-Linetype-2
 62
    18
370
     9
100
AcDb2dPolyline
 66
     1
 10
0.0
 20
0.0
 30
0.0
  0
VERTEX
  5
251
330
250
100
AcDbEntity
  8
\U+56F3pt
  6
AI-Linetype-2
 62
    18
370
     9
100
AcDbVertex
100
AcDb2dVertex
 10
137.0820719058337
 20
223.3467460921668
 30
0.0
  0
VERTEX
  5
252
330
250
100
AcDbEntity
  8
\U+56F3pt
  6
AI-Linetype-2
 62
    18
370
     9
100
AcDbVertex
100
AcDb2dVertex
 10
137.0820719058337
 20
185.6623968719872
 30
0.0
  0
SEQEND
  5
253
330
250
100
AcDbEntity
  8
\U+56F3pt
  6
AI-Linetype-2
370
     9
  0
POLYLINE
  5
255
330
1F
100
AcDbEntity
  8
\U+56F3pt
 62
     7
370
    18
100
AcDb2dPolyline
 66
     1
 10
0.0
 20
0.0
 30
0.0
  0
VERTEX
  5
256
330
255
100
AcDbEntity
  8
\U+56F3pt
 62
     7
370
    18
100
AcDbVertex
100
AcDb2dVertex
 10
134.1892252268694
 20
207.0307738740236
 30
0.0
  0
VERTEX
  5
257
330
255
100
AcDbEntity
  8
\U+56F3pt
 62
     7
370
    18
100
AcDbVertex
100
AcDb2dVertex
 10
139.9694064320215
 20
207.0307738740236
 30
0.0
  0
SEQEND
  5
258
330
255
100
AcDbEntity
  8
\U+56F3pt
370
    18
  0
INSERT
  5
25A
330
1F
100
AcDbEntity
  8
\U+56F3pt
100
AcDbBlockReference
  2
block 20
 10
0.0
 20
0.0
 30
0.0
  0
INSERT
  5
263
330
1F
100
AcDbEntity
  8
Dimension Layer
100
AcDbBlockReference
  2
block 21
 10
0.0
 20
0.0
 30
0.0
  0
INSERT
  5
282
330
1F
100
AcDbEntity
  8
Dimension Layer
100
AcDbBlockReference
  2
block 22
 10
0.0
 20
0.0
 30
0.0
  0
INSERT
  5
2A1
330
1F
100
AcDbEntity
  8
Dimension Layer
100
AcDbBlockReference
  2
block 23
 10
0.0
 20
0.0
 30
0.0
  0
INSERT
  5
2C0
330
1F
100
AcDbEntity
  8
Dimension Layer
100
AcDbBlockReference
  2
block 24
 10
0.0
 20
0.0
 30
0.0
  0
INSERT
  5
2F6
330
1F
100
AcDbEntity
  8
Dimension Layer
100
AcDbBlockReference
  2
block 25
 10
0.0
 20
0.0
 30
0.0
  0
ENDSEC
  0
SECTION
  2
OBJECTS
  0
DICTIONARY
  5
C
330
0
100
AcDbDictionary
281
     1
  3
ACAD_GROUP
350
D
  3
ACAD_LAYOUT
350
1A
  3
ACAD_MLINESTYLE
350
17
  3
ACAD_PLOTSETTINGS
350
19
  3
ACAD_PLOTSTYLENAME
350
E
  3
ACAD_TABLESTYLE
350
318
  3
ACAD_VISUALSTYLE
350
2A
  0
DICTIONARY
  5
D
102
{ACAD_REACTORS
330
C
102
}
330
C
100
AcDbDictionary
281
     1
  0
DICTIONARY
  5
1A
102
{ACAD_REACTORS
330
C
102
}
330
C
100
AcDbDictionary
281
     1
  3
Layout1
350
1E
  3
Layout2
350
26
  3
Model
350
22
  0
DICTIONARY
  5
17
102
{ACAD_REACTORS
330
C
102
}
330
C
100
AcDbDictionary
281
     1
  3
Standard
350
18
  0
DICTIONARY
  5
19
102
{ACAD_REACTORS
330
C
102
}
330
C
100
AcDbDictionary
281
     1
  0
ACDBDICTIONARYWDFLT
  5
E
102
{ACAD_REACTORS
330
C
102
}
330
C
100
AcDbDictionary
281
     1
  3
Normal
350
F
100
AcDbDictionaryWithDefault
340
F
  0
DICTIONARY
  5
318
102
{ACAD_REACTORS
330
C
102
}
330
C
100
AcDbDictionary
281
     1
  0
DICTIONARY
  5
2A
102
{ACAD_REACTORS
330
C
102
}
330
C
100
AcDbDictionary
281
     1
  3
2dWireframe
350
2F
  3
3D Hidden
350
31
  3
3dWireframe
350
30
  3
Basic
350
32
  3
Brighten
350
36
  3
ColorChange
350
3A
  3
Conceptual
350
34
  3
Dim
350
35
  3
Facepattern
350
39
  3
Flat
350
2B
  3
FlatWithEdges
350
2C
  3
Gouraud
350
2D
  3
GouraudWithEdges
350
2E
  3
Linepattern
350
38
  3
Realistic
350
33
  3
Thicken
350
37
  0
LAYOUT
  5
1E
102
{ACAD_REACTORS
330
1A
102
}
330
1A
100
AcDbPlotSettings
  1

  2
none_device
  4

  6

 40
0.0
 41
0.0
 42
0.0
 43
0.0
 44
0.0
 45
0.0
 46
0.0
 47
0.0
 48
0.0
 49
0.0
140
0.0
141
0.0
142
1.0
143
1.0
 70
   688
 72
     0
 73
     0
 74
     5
  7

 75
    16
147
1.0
148
0.0
149
0.0
100
AcDbLayout
  1
Layout1
 70
     1
 71
     1
 10
0.0
 20
0.0
 11
12.0
 21
9.0
 12
0.0
 22
0.0
 32
0.0
 14
1.000000000000000E+20
 24
1.000000000000000E+20
 34
1.000000000000000E+20
 15
-1.000000000000000E+20
 25
-1.000000000000000E+20
 35
-1.000000000000000E+20
146
0.0
 13
0.0
 23
0.0
 33
0.0
 16
1.0
 26
0.0
 36
0.0
 17
0.0
 27
1.0
 37
0.0
 76
     0
330
1B
  0
LAYOUT
  5
26
102
{ACAD_REACTORS
330
1A
102
}
330
1A
100
AcDbPlotSettings
  1

  2
none_device
  4

  6

 40
0.0
 41
0.0
 42
0.0
 43
0.0
 44
0.0
 45
0.0
 46
0.0
 47
0.0
 48
0.0
 49
0.0
140
0.0
141
0.0
142
1.0
143
1.0
 70
   688
 72
     0
 73
     0
 74
     5
  7

 75
    16
147
1.0
148
0.0
149
0.0
100
AcDbLayout
  1
Layout2
 70
     1
 71
     2
 10
0.0
 20
0.0
 11
0.0
 21
0.0
 12
0.0
 22
0.0
 32
0.0
 14
0.0
 24
0.0
 34
0.0
 15
0.0
 25
0.0
 35
0.0
146
0.0
 13
0.0
 23
0.0
 33
0.0
 16
1.0
 26
0.0
 36
0.0
 17
0.0
 27
1.0
 37
0.0
 76
     0
330
23
  0
LAYOUT
  5
22
102
{ACAD_REACTORS
330
1A
102
}
330
1A
100
AcDbPlotSettings
  1

  2
none_device
  4

  6

 40
0.0
 41
0.0
 42
0.0
 43
0.0
 44
0.0
 45
0.0
 46
0.0
 47
0.0
 48
0.0
 49
0.0
140
0.0
141
0.0
142
1.0
143
1.0
 70
  1712
 72
     0
 73
     0
 74
     0
  7

 75
     0
147
1.0
148
0.0
149
0.0
100
AcDbLayout
  1
Model
 70
     1
 71
     0
 10
0.0
 20
0.0
 11
12.0
 21
9.0
 12
0.0
 22
0.0
 32
0.0
 14
1.000000000000000E+20
 24
1.000000000000000E+20
 34
1.000000000000000E+20
 15
-1.000000000000000E+20
 25
-1.000000000000000E+20
 35
-1.000000000000000E+20
146
0.0
 13
0.0
 23
0.0
 33
0.0
 16
1.0
 26
0.0
 36
0.0
 17
0.0
 27
1.0
 37
0.0
 76
     0
330
1F
331
29
  0
MLINESTYLE
  5
18
102
{ACAD_REACTORS
330
17
102
}
330
17
100
AcDbMlineStyle
  2
Standard
 70
     0
  3

 62
   256
 51
90.0
 52
90.0
 71
     2
 49
0.5
 62
   256
  6
BYLAYER
 49
-0.5
 62
   256
  6
BYLAYER
  0
ACDBPLACEHOLDER
  5
F
102
{ACAD_REACTORS
330
E
102
}
330
E
  0
VISUALSTYLE
  5
2F
102
{ACAD_REACTORS
330
2A
102
}
330
2A
100
AcDbVisualStyle
  2
2dWireframe
 70
     4
 71
     0
 72
     2
 73
     0
 90
        0
 40
-0.6
 41
-30.0
 62
     5
 63
     7
 74
     1
 91
        4
 64
     7
 65
   257
 75
     1
175
     1
 42
1.0
 92
        0
 66
   257
 43
1.0
 76
     1
 77
     6
 78
     2
 67
     7
 79
     5
170
     0
171
     0
290
     0
174
     0
 93
        1
 44
0.0
173
     0
291
     0
 45
0.0
1001
ACAD
1000
AcDbSavedByObjectVersion
1070
     0
  0
VISUALSTYLE
  5
31
102
{ACAD_REACTORS
330
2A
102
}
330
2A
100
AcDbVisualStyle
  2
3D Hidden
 70
     6
 71
     1
 72
     2
 73
     2
 90
        0
 40
-0.6
 41
-30.0
 62
     5
 63
     7
 74
     2
 91
        2
 64
     7
 65
   257
 75
     2
175
     1
 42
40.0
 92
        0
 66
   257
 43
1.0
 76
     1
 77
     6
 78
     2
 67
     7
 79
     3
170
     0
171
     0
290
     0
174
     0
 93
        1
 44
0.0
173
     0
291
     0
 45
0.0
1001
ACAD
1000
AcDbSavedByObjectVersion
1070
     0
  0
VISUALSTYLE
  5
30
102
{ACAD_REACTORS
330
2A
102
}
330
2A
100
AcDbVisualStyle
  2
3dWireframe
 70
     5
 71
     0
 72
     2
 73
     0
 90
        0
 40
-0.6
 41
-30.0
 62
     5
 63
     7
 74
     1
 91
        4
 64
     7
 65
   257
 75
     1
175
     1
 42
1.0
 92
        0
 66
   257
 43
1.0
 76
     1
 77
     6
 78
     2
 67
     7
 79
     5
170
     0
171
     0
290
     0
174
     0
 93
        1
 44
0.0
173
     0
291
     0
 45
0.0
1001
ACAD
1000
AcDbSavedByObjectVersion
1070
     0
  0
VISUALSTYLE
  5
32
102
{ACAD_REACTORS
330
2A
102
}
330
2A
100
AcDbVisualStyle
  2
Basic
 70
     7
 71
     1
 72
     0
 73
     1
 90
        0
 40
-0.6
 41
-30.0
 62
     5
 63
     7
 74
     0
 91
        4
 64
     7
 65
   257
 75
     1
175
     1
 42
1.0
 92
        8
 66
     7
 43
1.0
 76
     1
 77
     6
 78
     2
 67
     7
 79
     5
170
     0
171
     0
290
     0
174
     0
 93
        1
 44
0.0
173
     0
291
     1
 45
0.0
1001
ACAD
1000
AcDbSavedByObjectVersion
1070
     0
  0
VISUALSTYLE
  5
36
102
{ACAD_REACTORS
330
2A
102
}
330
2A
100
AcDbVisualStyle
  2
Brighten
 70
    12
 71
     2
 72
     2
 73
     0
 90
        0
 40
-0.6
 41
-30.0
 62
     5
 63
     7
 74
     1
 91
        4
 64
     7
 65
   257
 75
     1
175
     1
 42
1.0
 92
        8
 66
     7
 43
1.0
 76
     1
 77
     6
 78
     2
 67
     7
 79
     5
170
     0
171
     0
290
     0
174
     0
 93
        1
 44
50.0
173
     0
291
     1
 45
0.0
1001
ACAD
1000
AcDbSavedByObjectVersion
1070
     0
  0
VISUALSTYLE
  5
3A
102
{ACAD_REACTORS
330
2A
102
}
330
2A
100
AcDbVisualStyle
  2
ColorChange
 70
    16
 71
     2
 72
     2
 73
     3
 90
        0
 40
-0.6
 41
-30.0
 62
     5
 63
     8
 74
     1
 91
        4
 64
     7
 65
   257
 75
     1
175
     1
 42
1.0
 92
        8
 66
     8
 43
1.0
 76
     1
 77
     6
 78
     2
 67
     7
 79
     5
170
     0
171
     0
290
     0
174
     0
 93
        1
 44
0.0
173
     0
291
     1
 45
0.0
1001
ACAD
1000
AcDbSavedByObjectVersion
1070
     0
  0
VISUALSTYLE
  5
34
102
{ACAD_REACTORS
330
2A
102
}
330
2A
100
AcDbVisualStyle
  2
Conceptual
 70
     9
 71
     3
 72
     2
 73
     0
 90
        0
 40
-0.6
 41
-30.0
 62
     5
 63
     7
 74
     2
 91
        2
 64
     7
 65
   257
 75
     1
175
     1
 42
40.0
 92
        8
 66
     7
 43
1.0
 76
     1
 77
     6
 78
     2
 67
     7
 79
     3
170
     0
171
     0
290
     0
174
     0
 93
        1
 44
0.0
173
     0
291
     0
 45
0.0
1001
ACAD
1000
AcDbSavedByObjectVersion
1070
     0
  0
VISUALSTYLE
  5
35
102
{ACAD_REACTORS
330
2A
102
}
330
2A
100
AcDbVisualStyle
  2
Dim
 70
    11
 71
     2
 72
     2
 73
     0
 90
        0
 40
-0.6
 41
-30.0
 62
     5
 63
     7
 74
     1
 91
        4
 64
     7
 65
   257
 75
     1
175
     1
 42
1.0
 92
        8
 66
     7
 43
1.0
 76
     1
 77
     6
 78
     2
 67
     7
 79
     5
170
     0
171
     0
290
     0
174
     0
 93
        1
 44
-50.0
173
     0
291
     1
 45
0.0
1001
ACAD
1000
AcDbSavedByObjectVersion
1070
     0
  0
VISUALSTYLE
  5
39
102
{ACAD_REACTORS
330
2A
102
}
330
2A
100
AcDbVisualStyle
  2
Facepattern
 70
    15
 71
     2
 72
     2
 73
     0
 90
        0
 40
-0.6
 41
-30.0
 62
     5
 63
     7
 74
     1
 91
        4
 64
     7
 65
   257
 75
     1
175
     1
 42
1.0
 92
        8
 66
     7
 43
1.0
 76
     1
 77
     6
 78
     2
 67
     7
 79
     5
170
     0
171
     0
290
     0
174
     0
 93
        1
 44
0.0
173
     0
291
     1
 45
0.0
1001
ACAD
1000
AcDbSavedByObjectVersion
1070
     0
  0
VISUALSTYLE
  5
2B
102
{ACAD_REACTORS
330
2A
102
}
330
2A
100
AcDbVisualStyle
  2
Flat
 70
     0
 71
     2
 72
     1
 73
     1
 90
        2
 40
-0.6
 41
30.0
 62
     5
 63
     7
 74
     0
 91
        4
 64
     7
 65
   257
 75
     1
175
     1
 42
1.0
 92
        8
 66
     7
 43
1.0
 76
     1
 77
     6
 78
     2
 67
     7
 79
     5
170
     0
171
     0
290
     0
174
     0
 93
       13
 44
0.0
173
     0
291
     1
 45
0.0
1001
ACAD
1000
AcDbSavedByObjectVersion
1070
     0
  0
VISUALSTYLE
  5
2C
102
{ACAD_REACTORS
330
2A
102
}
330
2A
100
AcDbVisualStyle
  2
FlatWithEdges
 70
     1
 71
     2
 72
     1
 73
     1
 90
        2
 40
-0.6
 41
30.0
 62
     5
 63
     7
 74
     1
 91
        4
 64
     7
 65
   257
 75
     1
175
     1
 42
1.0
 92
        0
 66
   257
 43
1.0
 76
     1
 77
     6
 78
     2
 67
     7
 79
     5
170
     0
171
     0
290
     0
174
     0
 93
       13
 44
0.0
173
     0
291
     1
 45
0.0
1001
ACAD
1000
AcDbSavedByObjectVersion
1070
     0
  0
VISUALSTYLE
  5
2D
102
{ACAD_REACTORS
330
2A
102
}
330
2A
100
AcDbVisualStyle
  2
Gouraud
 70
     2
 71
     2
 72
     2
 73
     1
 90
        2
 40
-0.6
 41
30.0
 62
     5
 63
     7
 74
     0
 91
        4
 64
     7
 65
   257
 75
     1
175
     1
 42
1.0
 92
        0
 66
     7
 43
1.0
 76
     1
 77
     6
 78
     2
 67
     7
 79
     5
170
     0
171
     0
290
     0
174
     0
 93
       13
 44
0.0
173
     0
291
     1
 45
0.0
1001
ACAD
1000
AcDbSavedByObjectVersion
1070
     0
  0
VISUALSTYLE
  5
2E
102
{ACAD_REACTORS
330
2A
102
}
330
2A
100
AcDbVisualStyle
  2
GouraudWithEdges
 70
     3
 71
     2
 72
     2
 73
     1
 90
        2
 40
-0.6
 41
30.0
 62
     5
 63
     7
 74
     1
 91
        4
 64
     7
 65
   257
 75
     1
175
     1
 42
1.0
 92
        0
 66
   257
 43
1.0
 76
     1
 77
     6
 78
     2
 67
     7
 79
     5
170
     0
171
     0
290
     0
174
     0
 93
       13
 44
0.0
173
     0
291
     1
 45
0.0
1001
ACAD
1000
AcDbSavedByObjectVersion
1070
     0
  0
VISUALSTYLE
  5
38
102
{ACAD_REACTORS
330
2A
102
}
330
2A
100
AcDbVisualStyle
  2
Linepattern
 70
    14
 71
     2
 72
     2
 73
     0
 90
        0
 40
-0.6
 41
-30.0
 62
     5
 63
     7
 74
     1
 91
        4
 64
     7
 65
   257
 75
     7
175
     7
 42
1.0
 92
        8
 66
     7
 43
1.0
 76
     1
 77
     6
 78
     2
 67
     7
 79
     5
170
     0
171
     0
290
     0
174
     0
 93
        1
 44
0.0
173
     0
291
     1
 45
0.0
1001
ACAD
1000
AcDbSavedByObjectVersion
1070
     0
  0
VISUALSTYLE
  5
33
102
{ACAD_REACTORS
330
2A
102
}
330
2A
100
AcDbVisualStyle
  2
Realistic
 70
     8
 71
     2
 72
     2
 73
     0
 90
        0
 40
-0.6
 41
-30.0
 62
     5
 63
     7
 74
     1
 91
        0
 64
     7
 65
   257
 75
     1
175
     1
 42
1.0
 92
        8
 66
     8
 43
1.0
 76
     1
 77
     6
 78
     2
 67
     7
 79
     5
170
     0
171
     0
290
     0
174
     0
 93
       13
 44
0.0
173
     0
291
     0
 45
0.0
1001
ACAD
1000
AcDbSavedByObjectVersion
1070
     0
  0
VISUALSTYLE
  5
37
102
{ACAD_REACTORS
330
2A
102
}
330
2A
100
AcDbVisualStyle
  2
Thicken
 70
    13
 71
     2
 72
     2
 73
     0
 90
        0
 40
-0.6
 41
-30.0
 62
     5
 63
     7
 74
     1
 91
        4
 64
     7
 65
   257
 75
     1
175
     1
 42
1.0
 92
       12
 66
     7
 43
1.0
 76
     1
 77
     6
 78
     2
 67
     7
 79
     5
170
     0
171
     0
290
     0
174
     0
 93
        1
 44
0.0
173
     0
291
     1
 45
0.0
1001
ACAD
1000
AcDbSavedByObjectVersion
1070
     0
  0
ENDSEC
  0
EOF
