  0
SECTION
  2
HEADER
  9
$ACADVER
  1
AC1015
  9
$ACADMAINTVER
 70
     6
  9
$DWGCODEPAGE
  3
ANSI_932
  9
$INSBASE
 10
0.0
 20
0.0
 30
0.0
  9
$EXTMIN
 10
14.684375
 20
10.715625
 30
1.000000E+20
  9
$EXTMAX
 10
404.680208
 20
287.734375
 30
-1.000000E+20
  9
$LIMMIN
 10
14.684375
 20
10.715625
  9
$LIMMAX
 10
404.680208
 20
287.734375
  9
$ORTHOMODE
 70
     0
  9
$REGENMODE
 70
     1
  9
$FILLMODE
 70
     1
  9
$QTEXTMODE
 70
     0
  9
$MIRRTEXT
 70
     1
  9
$LTSCALE
 40
1.0
  9
$ATTMODE
 70
     1
  9
$TEXTSIZE
 40
0.2
  9
$TRACEWID
 40
0.05
  9
$TEXTSTYLE
  7
Standard
  9
$CLAYER
  8
0
  9
$CELTYPE
  6
Continuous
  9
$CECOLOR
 62
   256
  9
$CELTSCALE
 40
1.0
  9
$DISPSILH
 70
     0
  9
$DIMSCALE
 40
1.0
  9
$DIMASZ
 40
0.18
  9
$DIMEXO
 40
0.0625
  9
$DIMDLI
 40
0.38
  9
$DIMRND
 40
0.0
  9
$DIMDLE
 40
0.0
  9
$DIMEXE
 40
0.18
  9
$DIMTP
 40
0.0
  9
$DIMTM
 40
0.0
  9
$DIMTXT
 40
0.18
  9
$DIMCEN
 40
0.09
  9
$DIMTSZ
 40
0.0
  9
$DIMTOL
 70
     0
  9
$DIMLIM
 70
     0
  9
$DIMTIH
 70
     1
  9
$DIMTOH
 70
     1
  9
$DIMSE1
 70
     0
  9
$DIMSE2
 70
     0
  9
$DIMTAD
 70
     0
  9
$DIMZIN
 70
     0
  9
$DIMBLK
  1

  9
$DIMASO
 70
     1
  9
$DIMSHO
 70
     1
  9
$DIMPOST
  1

  9
$DIMAPOST
  1

  9
$DIMALT
 70
     0
  9
$DIMALTD
 70
     2
  9
$DIMALTF
 40
25.4
  9
$DIMLFAC
 40
1.0
  9
$DIMTOFL
 70
     0
  9
$DIMTVP
 40
0.0
  9
$DIMTIX
 70
     0
  9
$DIMSOXD
 70
     0
  9
$DIMSAH
 70
     0
  9
$DIMBLK1
  1

  9
$DIMBLK2
  1

  9
$DIMSTYLE
  2
Standard
  9
$DIMCLRD
 70
     0
  9
$DIMCLRE
 70
     0
  9
$DIMCLRT
 70
     0
  9
$DIMTFAC
 40
1.0
  9
$DIMGAP
 40
0.09
  9
$DIMJUST
 70
     0
  9
$DIMSD1
 70
     0
  9
$DIMSD2
 70
     0
  9
$DIMTOLJ
 70
     1
  9
$DIMTZIN
 70
     0
  9
$DIMALTZ
 70
     0
  9
$DIMALTTZ
 70
     0
  9
$DIMUPT
 70
     0
  9
$DIMDEC
 70
     4
  9
$DIMTDEC
 70
     4
  9
$DIMALTU
 70
     2
  9
$DIMALTTD
 70
     2
  9
$DIMTXSTY
  7
Standard
  9
$DIMAUNIT
 70
     0
  9
$DIMADEC
 70
     0
  9
$DIMALTRND
 40
0.0
  9
$DIMAZIN
 70
     0
  9
$DIMDSEP
 70
     0
  9
$DIMATFIT
 70
     3
  9
$DIMFRAC
 70
     0
  9
$DIMLDRBLK
  1

  9
$DIMLUNIT
 70
     2
  9
$DIMLWD
 70
     0
  9
$DIMLWE
 70
     0
  9
$DIMTMOVE
 70
     0
  9
$LUNITS
 70
     2
  9
$LUPREC
 70
     4
  9
$SKETCHINC
 40
0.1
  9
$FILLETRAD
 40
0.0
  9
$AUNITS
 70
     0
  9
$AUPREC
 70
     0
  9
$MENU
  1
acad
  9
$ELEVATION
 40
0.0
  9
$PELEVATION
 40
0.0
  9
$THICKNESS
 40
0.0
  9
$LIMCHECK
 70
     0
  9
$CHAMFERA
 40
0.0
  9
$CHAMFERB
 40
0.0
  9
$CHAMFERC
 40
0.0
  9
$CHAMFERD
 40
0.0
  9
$SKPOLY
 70
     0
  9
$TDCREATE
 40
0.000000000
  9
$TDUCREATE
 40
0.000000000
  9
$TDUPDATE
 40
0.000000000
  9
$TDUUPDATE
 40
0.000000000
  9
$TDINDWG
 40
0.0000000000
  9
$TDUSRTIMER
 40
0.0000000000
  9
$USRTIMER
 70
     1
  9
$ANGBASE
 50
0.0
  9
$ANGDIR
 70
     0
  9
$PDMODE
 70
     0
  9
$PDSIZE
 40
0.0
  9
$PLINEWID
 40
0.0
  9
$SPLFRAME
 70
     0
  9
$SPLINETYPE
 70
     6
  9
$SPLINESEGS
 70
     8
  9
$HANDSEED
  5
547
  9
$SURFTAB1
 70
     6
  9
$SURFTAB2
 70
     6
  9
$SURFTYPE
 70
     6
  9
$SURFU
 70
     6
  9
$SURFV
 70
     6
  9
$UCSBASE
  2

  9
$UCSNAME
  2

  9
$UCSORG
 10
0.0
 20
0.0
 30
0.0
  9
$UCSXDIR
 10
1.0
 20
0.0
 30
0.0
  9
$UCSYDIR
 10
0.0
 20
1.0
 30
0.0
  9
$UCSORTHOREF
  2

  9
$UCSORTHOVIEW
 70
     0
  9
$UCSORGTOP
 10
0.0
 20
0.0
 30
0.0
  9
$UCSORGBOTTOM
 10
0.0
 20
0.0
 30
0.0
  9
$UCSORGLEFT
 10
0.0
 20
0.0
 30
0.0
  9
$UCSORGRIGHT
 10
0.0
 20
0.0
 30
0.0
  9
$UCSORGFRONT
 10
0.0
 20
0.0
 30
0.0
  9
$UCSORGBACK
 10
0.0
 20
0.0
 30
0.0
  9
$PUCSBASE
  2

  9
$PUCSNAME
  2

  9
$PUCSORG
 10
0.0
 20
0.0
 30
0.0
  9
$PUCSXDIR
 10
1.0
 20
0.0
 30
0.0
  9
$PUCSYDIR
 10
0.0
 20
1.0
 30
0.0
  9
$PUCSORTHOREF
  2

  9
$PUCSORTHOVIEW
 70
     0
  9
$PUCSORGTOP
 10
0.0
 20
0.0
 30
0.0
  9
$PUCSORGBOTTOM
 10
0.0
 20
0.0
 30
0.0
  9
$PUCSORGLEFT
 10
0.0
 20
0.0
 30
0.0
  9
$PUCSORGRIGHT
 10
0.0
 20
0.0
 30
0.0
  9
$PUCSORGFRONT
 10
0.0
 20
0.0
 30
0.0
  9
$PUCSORGBACK
 10
0.0
 20
0.0
 30
0.0
  9
$USERI1
 70
     0
  9
$USERI2
 70
     0
  9
$USERI3
 70
     0
  9
$USERI4
 70
     0
  9
$USERI5
 70
     0
  9
$USERR1
 40
0.0
  9
$USERR2
 40
0.0
  9
$USERR3
 40
0.0
  9
$USERR4
 40
0.0
  9
$USERR5
 40
0.0
  9
$WORLDVIEW
 70
     1
  9
$SHADEDGE
 70
     3
  9
$SHADEDIF
 70
    70
  9
$TILEMODE
 70
     1
  9
$MAXACTVP
 70
    16
  9
$PINSBASE
 10
0.0
 20
0.0
 30
0.0
  9
$PLIMCHECK
 70
     0
  9
$PEXTMIN
 10
1.000000E+20
 20
1.000000E+20
 30
1.000000E+20
  9
$PEXTMAX
 10
-1.000000E+20
 20
-1.000000E+20
 30
-1.000000E+20
  9
$PLIMMIN
 10
0.0
 20
0.0
  9
$PLIMMAX
 10
12.0
 20
9.0
  9
$UNITMODE
 70
     0
  9
$VISRETAIN
 70
     0
  9
$PLINEGEN
 70
     1
  9
$PSLTSCALE
 70
     0
  9
$TREEDEPTH
 70
  3020
  9
$CMLSTYLE
  2
Standard
  9
$CMLJUST
 70
     0
  9
$CMLSCALE
 40
1.0
  9
$PROXYGRAPHICS
 70
     0
  9
$MEASUREMENT
 70
     1
  9
$CELWEIGHT
370
     0
  9
$ENDCAPS
280
     0
  9
$JOINSTYLE
280
     0
  9
$LWDISPLAY
290
     0
  9
$INSUNITS
 70
     0
  9
$HYPERLINKBASE
  1

  9
$STYLESHEET
  1

  9
$XEDIT
290
     1
  9
$CEPSNTYPE
380
     0
  9
$PSTYLEMODE
290
     1
  9
$FINGERPRINTGUID
  2

  9
$VERSIONGUID
  2

  9
$EXTNAMES
290
     1
  9
$PSVPSCALE
 40
0.0
  0
ENDSEC
  0
SECTION
  2
CLASSES
  0
CLASS
  1
LWPOLYLINE
  2
AcDbPolyline
  3
AutoCAD 2000
 90
    32768
280
     0
281
     1
  0
CLASS
  1
IMAGE
  2
AcDbRasterImage
  3
ISM
 90
    32895
280
     0
281
     1
  0
CLASS
  1
OLE2FRAME
  2
AcDbOle2Frame
  3
AutoCAD 2000
 90
    32768
280
     0
281
     1
  0
CLASS
  1
HATCH
  2
AcDbHatch
  3
AutoCAD 2000
 90
        0
280
     0
281
     1
  0
CLASS
  1
DICTIONARYVAR
  2
AcDbDictionaryVar
  3
AutoCAD 2000
 90
    32768
280
     0
281
     0
  0
CLASS
  1
RASTERVARIABLES
  2
AcDbRasterVariables
  3
ISM
 90
    32768
280
     0
281
     0
  0
CLASS
  1
IMAGEDEF
  2
AcDbRasterImageDef
  3
ISM
 90
    32768
280
     0
281
     0
  0
CLASS
  1
IMAGEDEF_REACTOR
  2
AcDbRasterImageDefReactor
  3
ISM
 90
    32769
280
     0
281
     0
  0
CLASS
  1
IDBUFFER
  2
AcDbIdBuffer
  3
AutoCAD 2000
 90
    32768
280
     0
281
     0
  0
CLASS
  1
SPATIAL_FILTER
  2
AcDbSpatialFilter
  3
AutoCAD 2000
 90
    32768
280
     0
281
     0
  0
CLASS
  1
XRECORD
  2
AcDbXrecord
  3
AutoCAD 2000
 90
    32768
280
     0
281
     0
  0
CLASS
  1
SORTENTSTABLE
  2
AcDbSortentsTable
  3
AutoCAD 2000
 90
    32768
280
     0
281
     0
  0
CLASS
  1
LAYER_INDEX
  2
AcDbLayerIndex
  3
AutoCAD 2000
 90
    32768
280
     0
281
     0
  0
CLASS
  1
SPATIAL_INDEX
  2
AcDbSpatialIndex
  3
AutoCAD 2000
 90
    32768
280
     0
281
     0
  0
CLASS
  1
OBJECT_PTR
  2
CAseDLPNTableRecord
  3
"ASE-LPNTableRecord"
 90
    32769
280
     0
281
     0
  0
CLASS
  1
LAYOUT
  2
AcDbLayout
  3
AutoCAD 2000
 90
        0
280
     0
281
     0
  0
CLASS
  1
PLOTSETTINGS
  2
AcDbPlotSettings
  3
AutoCAD 2000
 90
    32768
280
     0
281
     0
  0
CLASS
  1
ACDBDICTIONARYWDFLT
  2
AcDbDictionaryWithDefault
  3
AutoCAD 2000
 90
        0
280
     0
281
     0
  0
CLASS
  1
ACDBPLACEHOLDER
  2
AcDbPlaceHolder
  3
AutoCAD 2000
 90
        0
280
     0
281
     0
  0
CLASS
  1
VBA_PROJECT
  2
AcDbVbaProject
  3
acadvba
 90
    32768
280
     0
281
     0
  0
CLASS
  1
WIPEOUT
  2
AcDbWipeout
  3
WipeOut|AutoCAD Express Tool|expresstools@autodesk.com
 90
    32895
280
     0
281
     1
  0
CLASS
  1
WIPEOUTVARIABLES
  2
AcDbWipeoutVariables
  3
WipeOut|AutoCAD Express Tool|expresstools@autodesk.com
 90
        0
280
     0
281
     0
  0
CLASS
  1
RTEXT
  2
RText
  3
RText|AutoCAD Express Tool|expresstools@autodesk.com
 90
    32768
280
     0
281
     1
  0
CLASS
  1
ARCALIGNEDTEXT
  2
AcDbArcAlignedText
  3
ATEXT|AutoCAD Express Tool|expresstools@autodesk.com
 90
    32768
280
     0
281
     1
  0
ENDSEC
  0
SECTION
  2
TABLES
  0
TABLE
  2
VPORT
  5
7
100
AcDbSymbolTable
 70
     1
  0
VPORT
  5
15
100
AcDbSymbolTableRecord
100
AcDbViewportTableRecord
  2
*ACTIVE
 70
     0
 10
0.0
 20
0.0
 11
1.0
 21
1.0
 12
6.591288
 22
4.579184
 13
0.0
 23
0.0
 14
1.0
 24
1.0
 15
0.0
 25
0.0
 16
0.0
 26
0.0
 36
1.0
 17
0.0
 27
0.0
 37
0.0
 40
9.158369
 41
0.688564
 42
50.0
 43
0.0
 44
0.0
 50
0.0
 51
0.0
 71
     0
 72
   100
 73
     1
 74
     1
 75
     0
 76
     0
 77
     0
 78
     0
281
     0
 65
     0
110
0.0
120
0.0
130
0.0
111
1.0
121
0.0
131
0.0
112
0.0
122
1.0
132
0.0
345
0
346
0
 79
     0
146
0.0
  0
ENDTAB
  0
TABLE
  2
LTYPE
  5
4
100
AcDbSymbolTable
 70
     4
  0
LTYPE
  5
11
100
AcDbSymbolTableRecord
100
AcDbLinetypeTableRecord
  2
ByBlock
 70
    64
  3

 72
    65
 73
     0
 40
0.0
  0
LTYPE
  5
12
100
AcDbSymbolTableRecord
100
AcDbLinetypeTableRecord
  2
ByLayer
 70
    64
  3

 72
    65
 73
     0
 40
0.0
  0
LTYPE
  5
13
100
AcDbSymbolTableRecord
100
AcDbLinetypeTableRecord
  2
Continuous
 70
    64
  3
Solid line
 72
    65
 73
     0
 40
0.0
  0
LTYPE
  5
29
100
AcDbSymbolTableRecord
100
AcDbLinetypeTableRecord
  2
AI9-LType1
 70
    64
  3
Illustrator Dash Style No.1
 72
    65
 73
     4
 40
6.0
 49
3.0
 74
     0
 49
-1.0
 74
     0
 49
1.0
 74
     0
 49
-1.0
 74
     0
  0
ENDTAB
  0
TABLE
  2
LAYER
  5
2
100
AcDbSymbolTable
 70
     2
  0
LAYER
  5
14
100
AcDbSymbolTableRecord
100
AcDbLayerTableRecord
  2
0
 70
     0
 62
     7
  6
Continuous
290
     1
370
    -3
390
1D
  0
LAYER
  5
28
100
AcDbSymbolTableRecord
100
AcDbLayerTableRecord
  2
レイヤー_1
 70
     0
 62
   160
  6
Continuous
290
     1
370
    -3
390
1D
  0
ENDTAB
  0
TABLE
  2
STYLE
  5
3
100
AcDbSymbolTable
 70
     5
  0
STYLE
  5
17
100
AcDbSymbolTableRecord
100
AcDbTextStyleTableRecord
  2
Standard
 70
     0
 40
0.0
 41
1.0
 50
0.0
 71
     0
 42
0.0
  3
txt
  4

  0
STYLE
  5
24
100
AcDbSymbolTableRecord
100
AcDbTextStyleTableRecord
  2
STD
 70
     0
 40
0.0
 41
1.0
 50
0.0
 71
     0
 42
0.0
  3
txt
  4

  0
STYLE
  5
25
100
AcDbSymbolTableRecord
100
AcDbTextStyleTableRecord
  2
TATESTD
 70
     4
 40
0.0
 41
1.0
 50
0.0
 71
     0
 42
0.0
  3
txt
  4

  0
STYLE
  5
26
100
AcDbSymbolTableRecord
100
AcDbTextStyleTableRecord
  2
KANJISTD
 70
     0
 40
0.0
 41
1.0
 50
0.0
 71
     0
 42
0.0
  3
txt
  4
extfont
  0
STYLE
  5
27
100
AcDbSymbolTableRecord
100
AcDbTextStyleTableRecord
  2
KANJITATE
 70
     4
 40
0.0
 41
1.0
 50
0.0
 71
     0
 42
0.0
  3
txt
  4
extfont
  0
ENDTAB
  0
TABLE
  2
VIEW
  5
5
100
AcDbSymbolTable
 70
     0
  0
ENDTAB
  0
TABLE
  2
UCS
  5
6
100
AcDbSymbolTable
 70
     0
  0
ENDTAB
  0
TABLE
  2
APPID
  5
8
100
AcDbSymbolTable
 70
     1
  0
APPID
  5
16
100
AcDbSymbolTableRecord
100
AcDbRegAppTableRecord
  2
ACAD
 70
     0
  0
ENDTAB
  0
TABLE
  2
DIMSTYLE
  5
9
100
AcDbSymbolTable
 70
     1
100
AcDbDimStyleTable
 71
     0
  0
DIMSTYLE
105
18
100
AcDbSymbolTableRecord
100
AcDbDimStyleTableRecord
  2
Standard
 70
     0
  3

  4

 40
1.0
 41
0.18
 42
0.0625
 43
0.38
 44
0.18
 45
0.0
 46
0.0
 47
0.0
 48
0.0
 71
     0
 72
     0
 73
     1
 74
     1
 75
     0
 76
     0
 77
     0
 78
     0
 79
     0
140
0.18
141
0.09
142
0.0
143
25.4
144
1.0
145
0.0
146
1.0
147
0.09
148
0.0
170
     0
171
     2
172
     0
173
     0
174
     0
175
     0
176
     0
177
     0
178
     0
179
     0
271
     4
272
     4
273
     2
274
     2
275
     0
276
     0
277
     2
278
    46
279
     0
280
     0
281
     0
282
     0
283
     1
284
     0
285
     0
286
     0
288
     0
340
17
341
0
342
0
343
0
344
0
371
    -2
372
    -2
  0
ENDTAB
  0
TABLE
  2
BLOCK_RECORD
  5
1
100
AcDbSymbolTable
 70
     1
  0
BLOCK_RECORD
  5
A
100
AcDbSymbolTableRecord
100
AcDbBlockTableRecord
  2
*MODEL_SPACE
340
20
  0
BLOCK_RECORD
  5
B
100
AcDbSymbolTableRecord
100
AcDbBlockTableRecord
  2
*PAPER_SPACE
340
21
  0
BLOCK_RECORD
  5
505
100
AcDbSymbolTableRecord
100
AcDbBlockTableRecord
  2
AI9-BLK1
340
0
102
{BLKREFS
331
506
102
}
  0
ENDTAB
  0
ENDSEC
  0
SECTION
  2
BLOCKS
  0
BLOCK
  5
D
100
AcDbEntity
  8
0
100
AcDbBlockBegin
  2
*MODEL_SPACE
 70
     0
 10
0.0
 20
0.0
 30
0.0
  3
*MODEL_SPACE
  1

  0
ENDBLK
  5
E
100
AcDbEntity
  8
0
100
AcDbBlockEnd
  0
BLOCK
  5
F
100
AcDbEntity
 67
     1
  8
0
100
AcDbBlockBegin
  2
*PAPER_SPACE
 70
     0
 10
0.0
 20
0.0
 30
0.0
  3
*PAPER_SPACE
  1

  0
ENDBLK
  5
10
100
AcDbEntity
 67
     1
  8
0
100
AcDbBlockEnd
  0
BLOCK
  5
507
100
AcDbEntity
  8
レイヤー_1
 62
     7
100
AcDbBlockBegin
  2
AI9-BLK1
 70
     0
 10
0.0
 20
0.0
 30
0.0
  3
AI9-BLK1
  1

  0
MTEXT
  5
50A
100
AcDbEntity
  8
レイヤー_1
 62
     7
100
AcDbMText
 10
-4.7625
 20
1.215134
 30
0.0
 40
2.362351
 41
0.0
 71
     1
 72
     2
  1
\fMSGothic 90ms|b0|i0|c128;\H2.3624;\C7;\U+8A18
  7
STD
210
0.0
220
0.0
230
1.0
 73
     1
 44
1.0
  0
MTEXT
  5
509
100
AcDbEntity
  8
レイヤー_1
 62
     7
100
AcDbMText
 10
-1.5875
 20
1.215134
 30
0.0
 40
2.362351
 41
0.0
 71
     1
 72
     2
  1
\fMSGothic 90ms|b0|i0|c128;\H2.3624;\C7;
  7
STD
210
0.0
220
0.0
230
1.0
 73
     1
 44
1.0
  0
MTEXT
  5
508
100
AcDbEntity
  8
レイヤー_1
 62
     7
100
AcDbMText
 10
1.5875
 20
1.215134
 30
0.0
 40
2.362351
 41
0.0
 71
     1
 72
     2
  1
\fMSGothic 90ms|b0|i0|c128;\H2.3624;\C7;\U+4E8B
  7
STD
210
0.0
220
0.0
230
1.0
 73
     1
 44
1.0
  0
ENDBLK
  5
50B
100
AcDbEntity
  8
レイヤー_1
100
AcDbBlockEnd
  0
ENDSEC
  0
SECTION
  2
ENTITIES
  0
MTEXT
  5
546
100
AcDbEntity
  8
レイヤー_1
 62
     7
100
AcDbMText
 10
195.791667
 20
16.385268
 30
0.0
 40
2.362351
 41
0.0
 71
     1
 72
     2
  1
\fMSGothic 90ms|b0|i0|c128;\H2.3624;\C7;\U+FF12
  7
STD
210
0.0
220
0.0
230
1.0
 73
     1
 44
1.0
  0
MTEXT
  5
545
100
AcDbEntity
  8
レイヤー_1
 62
     7
100
AcDbMText
 10
198.966667
 20
16.385268
 30
0.0
 40
2.362351
 41
0.0
 71
     1
 72
     2
  1
\fMSGothic 90ms|b0|i0|c128;\H2.3624;\C7;\U+FF1A
  7
STD
210
0.0
220
0.0
230
1.0
 73
     1
 44
1.0
  0
MTEXT
  5
544
100
AcDbEntity
  8
レイヤー_1
 62
     7
100
AcDbMText
 10
202.141667
 20
16.385268
 30
0.0
 40
2.362351
 41
0.0
 71
     1
 72
     2
  1
\fMSGothic 90ms|b0|i0|c128;\H2.3624;\C7;\U+FF11
  7
STD
210
0.0
220
0.0
230
1.0
 73
     1
 44
1.0
  0
MTEXT
  5
543
100
AcDbEntity
  8
レイヤー_1
 62
     7
100
AcDbMText
 10
235.302778
 20
20.883184
 30
0.0
 40
2.362351
 41
0.0
 71
     1
 72
     2
  1
\fMSGothic 90ms|b0|i0|c128;\H2.3624;\C7;\U+96FB\U+7DDA\U+4FDD\U+8B77\U+7BA1\U+0028\U+03A6\U+0031\U+0036\U+30FB\U+0031\U+0030\U+0029
  7
STD
210
0.0
220
0.0
230
1.0
 73
     1
 44
1.0
  0
MTEXT
  5
542
100
AcDbEntity
  8
レイヤー_1
 62
     7
100
AcDbMText
 10
238.477778
 20
32.407373
 30
0.0
 40
2.362351
 41
0.0
 71
     1
 72
     2
  1
\fMSGothic 90ms|b0|i0|c128;\H2.3624;\C7;\U+0050\U+0046\U+002D\U+0035\U+0030\U+0052\U+30FB\U+0043\U+0050\U+002D\U+0035\U+002F\U+0035\U+0030\U+0052
  7
STD
210
0.0
220
0.0
230
1.0
 73
     1
 44
1.0
  0
MTEXT
  5
541
100
AcDbEntity
  8
レイヤー_1
 62
     7
100
AcDbMText
 10
169.8625
 20
32.789434
 30
0.0
 40
2.362351
 41
0.0
 71
     1
 72
     2
  1
\fMSGothic 90ms|b0|i0|c128;\H2.3624;\C7;\U+0032
  7
STD
210
0.0
220
0.0
230
1.0
 73
     1
 44
1.0
  0
MTEXT
  5
540
100
AcDbEntity
  8
レイヤー_1
 62
     7
100
AcDbMText
 10
171.45
 20
32.789434
 30
0.0
 40
2.362351
 41
0.0
 71
     1
 72
     2
  1
\fMSGothic 90ms|b0|i0|c128;\H2.3624;\C7;\U+0030
  7
STD
210
0.0
220
0.0
230
1.0
 73
     1
 44
1.0
  0
MTEXT
  5
53F
100
AcDbEntity
  8
レイヤー_1
 62
     7
100
AcDbMText
 10
173.0375
 20
32.789434
 30
0.0
 40
2.362351
 41
0.0
 71
     1
 72
     2
  1
\fMSGothic 90ms|b0|i0|c128;\H2.3624;\C7;\U+0031
  7
STD
210
0.0
220
0.0
230
1.0
 73
     1
 44
1.0
  0
MTEXT
  5
53E
100
AcDbEntity
  8
レイヤー_1
 62
     7
100
AcDbMText
 10
174.625
 20
32.789434
 30
0.0
 40
2.362351
 41
0.0
 71
     1
 72
     2
  1
\fMSGothic 90ms|b0|i0|c128;\H2.3624;\C7;\U+0031
  7
STD
210
0.0
220
0.0
230
1.0
 73
     1
 44
1.0
  0
MTEXT
  5
53D
100
AcDbEntity
  8
レイヤー_1
 62
     7
100
AcDbMText
 10
176.2125
 20
32.789434
 30
0.0
 40
2.362351
 41
0.0
 71
     1
 72
     2
  1
\fMSGothic 90ms|b0|i0|c128;\H2.3624;\C7;
  7
STD
210
0.0
220
0.0
230
1.0
 73
     1
 44
1.0
  0
MTEXT
  5
53C
100
AcDbEntity
  8
レイヤー_1
 62
     7
100
AcDbMText
 10
179.3875
 20
32.789434
 30
0.0
 40
2.362351
 41
0.0
 71
     1
 72
     2
  1
\fMSGothic 90ms|b0|i0|c128;\H2.3624;\C7;\U+5E74
  7
STD
210
0.0
220
0.0
230
1.0
 73
     1
 44
1.0
  0
MTEXT
  5
53B
100
AcDbEntity
  8
レイヤー_1
 62
     7
100
AcDbMText
 10
182.5625
 20
32.789434
 30
0.0
 40
2.362351
 41
0.0
 71
     1
 72
     2
  1
\fMSGothic 90ms|b0|i0|c128;\H2.3624;\C7;
  7
STD
210
0.0
220
0.0
230
1.0
 73
     1
 44
1.0
  0
MTEXT
  5
53A
100
AcDbEntity
  8
レイヤー_1
 62
     7
100
AcDbMText
 10
187.310875
 20
32.789434
 30
0.0
 40
2.362351
 41
0.0
 71
     1
 72
     2
  1
\fMSGothic 90ms|b0|i0|c128;\H2.3624;\C7;\U+0034
  7
STD
210
0.0
220
0.0
230
1.0
 73
     1
 44
1.0
  0
MTEXT
  5
539
100
AcDbEntity
  8
レイヤー_1
 62
     7
100
AcDbMText
 10
187.325
 20
32.789434
 30
0.0
 40
2.362351
 41
0.0
 71
     1
 72
     2
  1
\fMSGothic 90ms|b0|i0|c128;\H2.3624;\C7;
  7
STD
210
0.0
220
0.0
230
1.0
 73
     1
 44
1.0
  0
MTEXT
  5
538
100
AcDbEntity
  8
レイヤー_1
 62
     7
100
AcDbMText
 10
190.5
 20
32.789434
 30
0.0
 40
2.362351
 41
0.0
 71
     1
 72
     2
  1
\fMSGothic 90ms|b0|i0|c128;\H2.3624;\C7;\U+6708
  7
STD
210
0.0
220
0.0
230
1.0
 73
     1
 44
1.0
  0
MTEXT
  5
537
100
AcDbEntity
  8
レイヤー_1
 62
     7
100
AcDbMText
 10
193.675
 20
32.789434
 30
0.0
 40
2.362351
 41
0.0
 71
     1
 72
     2
  1
\fMSGothic 90ms|b0|i0|c128;\H2.3624;\C7;
  7
STD
210
0.0
220
0.0
230
1.0
 73
     1
 44
1.0
  0
MTEXT
  5
536
100
AcDbEntity
  8
レイヤー_1
 62
     7
100
AcDbMText
 10
196.85
 20
32.789434
 30
0.0
 40
2.362351
 41
0.0
 71
     1
 72
     2
  1
\fMSGothic 90ms|b0|i0|c128;\H2.3624;\C7;\U+0020
  7
STD
210
0.0
220
0.0
230
1.0
 73
     1
 44
1.0
  0
MTEXT
  5
535
100
AcDbEntity
  8
レイヤー_1
 62
     7
100
AcDbMText
 10
198.4375
 20
32.789434
 30
0.0
 40
2.362351
 41
0.0
 71
     1
 72
     2
  1
\fMSGothic 90ms|b0|i0|c128;\H2.3624;\C7;\U+0031\U+0038
  7
STD
210
0.0
220
0.0
230
1.0
 73
     1
 44
1.0
  0
MTEXT
  5
534
100
AcDbEntity
  8
レイヤー_1
 62
     7
100
AcDbMText
 10
203.2
 20
32.789434
 30
0.0
 40
2.362351
 41
0.0
 71
     1
 72
     2
  1
\fMSGothic 90ms|b0|i0|c128;\H2.3624;\C7;\U+65E5
  7
STD
210
0.0
220
0.0
230
1.0
 73
     1
 44
1.0
  0
LINE
  5
533
100
AcDbEntity
  8
レイヤー_1
 62
     7
100
AcDbLine
 10
281.78125
 20
35.71875
 30
0.0
 11
281.78125
 21
10.847917
 31
0.0
  0
LINE
  5
532
100
AcDbEntity
  8
レイヤー_1
 62
     7
100
AcDbLine
 10
148.695833
 20
27.78125
 30
0.0
 11
281.78125
 21
27.78125
 31
0.0
  0
LINE
  5
531
100
AcDbEntity
  8
レイヤー_1
 62
     7
100
AcDbLine
 10
181.76875
 20
19.314583
 30
0.0
 11
216.69375
 21
19.314583
 31
0.0
  0
POLYLINE
  5
52C
100
AcDbEntity
  8
レイヤー_1
 62
     7
100
AcDb2dPolyline
 66
     1
 10
0.0
 20
0.0
 30
0.0
  0
VERTEX
  5
52D
100
AcDbEntity
  8
レイヤー_1
 62
     7
100
AcDbVertex
100
AcDb2dVertex
 10
14.816667
 20
287.602083
 30
0.0
  0
VERTEX
  5
52E
100
AcDbEntity
  8
レイヤー_1
 62
     7
100
AcDbVertex
100
AcDb2dVertex
 10
404.547917
 20
287.602083
 30
0.0
  0
VERTEX
  5
52F
100
AcDbEntity
  8
レイヤー_1
 62
     7
100
AcDbVertex
100
AcDb2dVertex
 10
404.547917
 20
10.847917
 30
0.0
  0
SEQEND
  5
530
100
AcDbEntity
  8
レイヤー_1
 62
     7
  0
MTEXT
  5
52B
100
AcDbEntity
  8
レイヤー_1
 62
     7
100
AcDbMText
 10
49.477083
 20
283.123066
 30
0.0
 40
2.362351
 41
0.0
 71
     1
 72
     2
  1
\fMSGothic 90ms|b0|i0|c128;\H2.3624;\C7;\U+56F3
  7
STD
210
0.0
220
0.0
230
1.0
 11
-1.0
 21
0.0
 31
0.0
 73
     1
 44
1.0
  0
MTEXT
  5
52A
100
AcDbEntity
  8
レイヤー_1
 62
     7
100
AcDbMText
 10
46.302083
 20
283.123066
 30
0.0
 40
2.362351
 41
0.0
 71
     1
 72
     2
  1
\fMSGothic 90ms|b0|i0|c128;\H2.3624;\C7;
  7
STD
210
0.0
220
0.0
230
1.0
 11
-1.0
 21
0.0
 31
0.0
 73
     1
 44
1.0
  0
MTEXT
  5
529
100
AcDbEntity
  8
レイヤー_1
 62
     7
100
AcDbMText
 10
43.127083
 20
283.123066
 30
0.0
 40
2.362351
 41
0.0
 71
     1
 72
     2
  1
\fMSGothic 90ms|b0|i0|c128;\H2.3624;\C7;\U+756A
  7
STD
210
0.0
220
0.0
230
1.0
 11
-1.0
 21
0.0
 31
0.0
 73
     1
 44
1.0
  0
LINE
  5
528
100
AcDbEntity
  8
レイヤー_1
 62
     7
100
AcDbLine
 10
52.652083
 20
280.722917
 30
0.0
 11
52.652083
 21
287.602083
 31
0.0
  0
MTEXT
  5
527
100
AcDbEntity
  8
レイヤー_1
 62
     7
100
AcDbMText
 10
25.929167
 20
14.004018
 30
0.0
 40
2.362351
 41
0.0
 71
     1
 72
     2
  1
\fMSGothic 90ms|b0|i0|c128;\H2.3624;\C7;\U+7B26
  7
STD
210
0.0
220
0.0
230
1.0
 73
     1
 44
1.0
  0
MTEXT
  5
526
100
AcDbEntity
  8
レイヤー_1
 62
     7
100
AcDbMText
 10
29.104167
 20
14.004018
 30
0.0
 40
2.362351
 41
0.0
 71
     1
 72
     2
  1
\fMSGothic 90ms|b0|i0|c128;\H2.3624;\C7;\U+0020
  7
STD
210
0.0
220
0.0
230
1.0
 73
     1
 44
1.0
  0
MTEXT
  5
525
100
AcDbEntity
  8
レイヤー_1
 62
     7
100
AcDbMText
 10
30.691667
 20
14.004018
 30
0.0
 40
2.362351
 41
0.0
 71
     1
 72
     2
  1
\fMSGothic 90ms|b0|i0|c128;\H2.3624;\C7;\U+53F7
  7
STD
210
0.0
220
0.0
230
1.0
 73
     1
 44
1.0
  0
MTEXT
  5
524
100
AcDbEntity
  8
レイヤー_1
 62
     7
100
AcDbMText
 10
17.727083
 20
33.583184
 30
0.0
 40
2.362351
 41
0.0
 71
     1
 72
     2
  1
\fMSGothic 90ms|b0|i0|c128;\H2.3624;\C7;\U+5099
  7
STD
210
0.0
220
0.0
230
1.0
 73
     1
 44
1.0
  0
MTEXT
  5
523
100
AcDbEntity
  8
レイヤー_1
 62
     7
100
AcDbMText
 10
20.902083
 20
33.583184
 30
0.0
 40
2.362351
 41
0.0
 71
     1
 72
     2
  1
\fMSGothic 90ms|b0|i0|c128;\H2.3624;\C7;
  7
STD
210
0.0
220
0.0
230
1.0
 73
     1
 44
1.0
  0
MTEXT
  5
522
100
AcDbEntity
  8
レイヤー_1
 62
     7
100
AcDbMText
 10
17.991667
 20
29.349851
 30
0.0
 40
2.362351
 41
0.0
 71
     1
 72
     2
  1
\fMSGothic 90ms|b0|i0|c128;\H2.3624;\C7;
  7
STD
210
0.0
220
0.0
230
1.0
 73
     1
 44
1.0
  0
MTEXT
  5
521
100
AcDbEntity
  8
レイヤー_1
 62
     7
100
AcDbMText
 10
17.727083
 20
25.116518
 30
0.0
 40
2.362351
 41
0.0
 71
     1
 72
     2
  1
\fMSGothic 90ms|b0|i0|c128;\H2.3624;\C7;
  7
STD
210
0.0
220
0.0
230
1.0
 73
     1
 44
1.0
  0
MTEXT
  5
520
100
AcDbEntity
  8
レイヤー_1
 62
     7
100
AcDbMText
 10
20.902083
 20
25.116518
 30
0.0
 40
2.362351
 41
0.0
 71
     1
 72
     2
  1
\fMSGothic 90ms|b0|i0|c128;\H2.3624;\C7;
  7
STD
210
0.0
220
0.0
230
1.0
 73
     1
 44
1.0
  0
MTEXT
  5
51F
100
AcDbEntity
  8
レイヤー_1
 62
     7
100
AcDbMText
 10
17.991667
 20
20.883184
 30
0.0
 40
2.362351
 41
0.0
 71
     1
 72
     2
  1
\fMSGothic 90ms|b0|i0|c128;\H2.3624;\C7;
  7
STD
210
0.0
220
0.0
230
1.0
 73
     1
 44
1.0
  0
MTEXT
  5
51E
100
AcDbEntity
  8
レイヤー_1
 62
     7
100
AcDbMText
 10
17.991667
 20
16.649851
 30
0.0
 40
2.362351
 41
0.0
 71
     1
 72
     2
  1
\fMSGothic 90ms|b0|i0|c128;\H2.3624;\C7;\U+6B04
  7
STD
210
0.0
220
0.0
230
1.0
 73
     1
 44
1.0
  0
MTEXT
  5
51D
100
AcDbEntity
  8
レイヤー_1
 62
     7
100
AcDbMText
 10
27.78125
 20
26.439434
 30
0.0
 40
2.362351
 41
0.0
 71
     1
 72
     2
  1
\fMSGothic 90ms|b0|i0|c128;\H2.3624;\C7;\U+2461
  7
STD
210
0.0
220
0.0
230
1.0
 73
     1
 44
1.0
  0
MTEXT
  5
51C
100
AcDbEntity
  8
レイヤー_1
 62
     7
100
AcDbMText
 10
27.78125
 20
19.560268
 30
0.0
 40
2.362351
 41
0.0
 71
     1
 72
     2
  1
\fMSGothic 90ms|b0|i0|c128;\H2.3624;\C7;\U+2460
  7
STD
210
0.0
220
0.0
230
1.0
 73
     1
 44
1.0
  0
LINE
  5
51B
100
AcDbEntity
  8
レイヤー_1
 62
     7
100
AcDbLine
 10
24.60625
 20
35.71875
 30
0.0
 11
24.60625
 21
10.847917
 31
0.0
  0
LINE
  5
51A
100
AcDbEntity
  8
レイヤー_1
 62
     7
100
AcDbLine
 10
14.816667
 20
10.847917
 30
0.0
 11
14.816667
 21
287.602083
 31
0.0
  0
LINE
  5
519
100
AcDbEntity
  8
レイヤー_1
 62
     7
100
AcDbLine
 10
14.816667
 20
280.722917
 30
0.0
 11
52.652083
 21
280.722917
 31
0.0
  0
LINE
  5
518
100
AcDbEntity
  8
レイヤー_1
 62
     7
100
AcDbLine
 10
37.570833
 20
287.602083
 30
0.0
 11
37.570833
 21
280.722917
 31
0.0
  0
LINE
  5
517
100
AcDbEntity
  8
レイヤー_1
 62
     7
100
AcDbLine
 10
52.652083
 20
280.722917
 30
0.0
 11
52.652083
 21
287.602083
 31
0.0
  0
LINE
  5
516
100
AcDbEntity
  8
レイヤー_1
 62
     7
100
AcDbLine
 10
37.570833
 20
287.602083
 30
0.0
 11
37.570833
 21
280.722917
 31
0.0
  0
MTEXT
  5
515
100
AcDbEntity
  8
レイヤー_1
 62
     7
100
AcDbMText
 10
27.78125
 20
33.318601
 30
0.0
 40
2.362351
 41
0.0
 71
     1
 72
     2
  1
\fMSGothic 90ms|b0|i0|c128;\H2.3624;\C7;\U+2462
  7
STD
210
0.0
220
0.0
230
1.0
 73
     1
 44
1.0
  0
LINE
  5
514
100
AcDbEntity
  8
レイヤー_1
 62
     7
100
AcDbLine
 10
24.60625
 20
35.71875
 30
0.0
 11
24.60625
 21
10.847917
 31
0.0
  0
LINE
  5
513
100
AcDbEntity
  8
レイヤー_1
 62
     7
100
AcDbLine
 10
14.816667
 20
10.847917
 30
0.0
 11
14.816667
 21
35.71875
 31
0.0
  0
LINE
  5
512
100
AcDbEntity
  8
レイヤー_1
 62
     7
100
AcDbLine
 10
34.660417
 20
35.71875
 30
0.0
 11
34.660417
 21
10.847917
 31
0.0
  0
LINE
  5
511
100
AcDbEntity
  8
レイヤー_1
 62
     7
100
AcDbLine
 10
34.660417
 20
35.71875
 30
0.0
 11
34.660417
 21
10.847917
 31
0.0
  0
POLYLINE
  5
50C
100
AcDbEntity
  8
レイヤー_1
 62
     7
100
AcDb2dPolyline
 66
     1
 10
0.0
 20
0.0
 30
0.0
  0
VERTEX
  5
50D
100
AcDbEntity
  8
レイヤー_1
 62
     7
100
AcDbVertex
100
AcDb2dVertex
 10
14.816667
 20
10.847917
 30
0.0
  0
VERTEX
  5
50E
100
AcDbEntity
  8
レイヤー_1
 62
     7
100
AcDbVertex
100
AcDb2dVertex
 10
14.816667
 20
35.71875
 30
0.0
  0
VERTEX
  5
50F
100
AcDbEntity
  8
レイヤー_1
 62
     7
100
AcDbVertex
100
AcDb2dVertex
 10
404.547917
 20
35.71875
 30
0.0
  0
SEQEND
  5
510
100
AcDbEntity
  8
レイヤー_1
 62
     7
  0
INSERT
  5
506
100
AcDbEntity
  8
レイヤー_1
 62
     7
100
AcDbBlockReference
  2
AI9-BLK1
 10
103.1875
 20
12.5243
 30
0.0
  0
MTEXT
  5
504
100
AcDbEntity
  8
レイヤー_1
 62
     7
100
AcDbMText
 10
40.745833
 20
14.004018
 30
0.0
 40
2.362351
 41
0.0
 71
     1
 72
     2
  1
\fMSGothic 90ms|b0|i0|c128;\H2.3624;\C7;\U+65E5
  7
STD
210
0.0
220
0.0
230
1.0
 73
     1
 44
1.0
  0
MTEXT
  5
503
100
AcDbEntity
  8
レイヤー_1
 62
     7
100
AcDbMText
 10
43.920833
 20
14.004018
 30
0.0
 40
2.362351
 41
0.0
 71
     1
 72
     2
  1
\fMSGothic 90ms|b0|i0|c128;\H2.3624;\C7;
  7
STD
210
0.0
220
0.0
230
1.0
 73
     1
 44
1.0
  0
MTEXT
  5
502
100
AcDbEntity
  8
レイヤー_1
 62
     7
100
AcDbMText
 10
47.095833
 20
14.004018
 30
0.0
 40
2.362351
 41
0.0
 71
     1
 72
     2
  1
\fMSGothic 90ms|b0|i0|c128;\H2.3624;\C7;\U+4ED8
  7
STD
210
0.0
220
0.0
230
1.0
 73
     1
 44
1.0
  0
LINE
  5
501
100
AcDbEntity
  8
レイヤー_1
 62
     7
100
AcDbLine
 10
404.547917
 20
10.847917
 30
0.0
 11
14.816667
 21
10.847917
 31
0.0
  0
LINE
  5
500
100
AcDbEntity
  8
レイヤー_1
 62
     7
100
AcDbLine
 10
24.60625
 20
14.816667
 30
0.0
 11
148.695833
 21
14.816667
 31
0.0
  0
LINE
  5
4FF
100
AcDbEntity
  8
レイヤー_1
 62
     7
100
AcDbLine
 10
24.60625
 20
21.695833
 30
0.0
 11
148.695833
 21
21.695833
 31
0.0
  0
LINE
  5
4FE
100
AcDbEntity
  8
レイヤー_1
 62
     7
100
AcDbLine
 10
24.60625
 20
28.839583
 30
0.0
 11
148.695833
 21
28.839583
 31
0.0
  0
MTEXT
  5
4FD
100
AcDbEntity
  8
レイヤー_1
 62
     7
100
AcDbMText
 10
150.01875
 20
25.645684
 30
0.0
 40
2.362351
 41
0.0
 71
     1
 72
     2
  1
\fMSGothic 90ms|b0|i0|c128;\H2.3624;\C7;\U+88FD
  7
STD
210
0.0
220
0.0
230
1.0
 73
     1
 44
1.0
  0
MTEXT
  5
4FC
100
AcDbEntity
  8
レイヤー_1
 62
     7
100
AcDbMText
 10
153.19375
 20
25.645684
 30
0.0
 40
2.362351
 41
0.0
 71
     1
 72
     2
  1
\fMSGothic 90ms|b0|i0|c128;\H2.3624;\C7;\U+0020
  7
STD
210
0.0
220
0.0
230
1.0
 73
     1
 44
1.0
  0
MTEXT
  5
4FB
100
AcDbEntity
  8
レイヤー_1
 62
     7
100
AcDbMText
 10
154.78125
 20
25.645684
 30
0.0
 40
2.362351
 41
0.0
 71
     1
 72
     2
  1
\fMSGothic 90ms|b0|i0|c128;\H2.3624;\C7;\U+56F3
  7
STD
210
0.0
220
0.0
230
1.0
 73
     1
 44
1.0
  0
LINE
  5
4FA
100
AcDbEntity
  8
レイヤー_1
 62
     7
100
AcDbLine
 10
58.7375
 20
35.71875
 30
0.0
 11
58.7375
 21
10.847917
 31
0.0
  0
LINE
  5
4F9
100
AcDbEntity
  8
レイヤー_1
 62
     7
100
AcDbLine
 10
24.60625
 20
14.816667
 30
0.0
 11
148.695833
 21
14.816667
 31
0.0
  0
MTEXT
  5
4F8
100
AcDbEntity
  8
レイヤー_1
 62
     7
100
AcDbMText
 10
150.01875
 20
33.054018
 30
0.0
 40
2.362351
 41
0.0
 71
     1
 72
     2
  1
\fMSGothic 90ms|b0|i0|c128;\H2.3624;\C7;\U+65E5
  7
STD
210
0.0
220
0.0
230
1.0
 73
     1
 44
1.0
  0
MTEXT
  5
4F7
100
AcDbEntity
  8
レイヤー_1
 62
     7
100
AcDbMText
 10
153.19375
 20
33.054018
 30
0.0
 40
2.362351
 41
0.0
 71
     1
 72
     2
  1
\fMSGothic 90ms|b0|i0|c128;\H2.3624;\C7;\U+0020
  7
STD
210
0.0
220
0.0
230
1.0
 73
     1
 44
1.0
  0
MTEXT
  5
4F6
100
AcDbEntity
  8
レイヤー_1
 62
     7
100
AcDbMText
 10
154.78125
 20
33.054018
 30
0.0
 40
2.362351
 41
0.0
 71
     1
 72
     2
  1
\fMSGothic 90ms|b0|i0|c128;\H2.3624;\C7;\U+4ED8
  7
STD
210
0.0
220
0.0
230
1.0
 73
     1
 44
1.0
  0
MTEXT
  5
4F5
100
AcDbEntity
  8
レイヤー_1
 62
     7
100
AcDbMText
 10
164.30625
 20
17.708184
 30
0.0
 40
2.362351
 41
0.0
 71
     1
 72
     2
  1
\fMSGothic 90ms|b0|i0|c128;\H2.3624;\C7;\U+0020
  7
STD
210
0.0
220
0.0
230
1.0
 73
     1
 44
1.0
  0
MTEXT
  5
4F4
100
AcDbEntity
  8
レイヤー_1
 62
     7
100
AcDbMText
 10
161.13125
 20
25.645684
 30
0.0
 40
2.362351
 41
0.0
 71
     1
 72
     2
  1
\fMSGothic 90ms|b0|i0|c128;\H2.3624;\C7;\U+691C
  7
STD
210
0.0
220
0.0
230
1.0
 73
     1
 44
1.0
  0
MTEXT
  5
4F3
100
AcDbEntity
  8
レイヤー_1
 62
     7
100
AcDbMText
 10
164.30625
 20
25.645684
 30
0.0
 40
2.362351
 41
0.0
 71
     1
 72
     2
  1
\fMSGothic 90ms|b0|i0|c128;\H2.3624;\C7;\U+0020
  7
STD
210
0.0
220
0.0
230
1.0
 73
     1
 44
1.0
  0
MTEXT
  5
4F2
100
AcDbEntity
  8
レイヤー_1
 62
     7
100
AcDbMText
 10
165.89375
 20
25.645684
 30
0.0
 40
2.362351
 41
0.0
 71
     1
 72
     2
  1
\fMSGothic 90ms|b0|i0|c128;\H2.3624;\C7;\U+56F3
  7
STD
210
0.0
220
0.0
230
1.0
 73
     1
 44
1.0
  0
MTEXT
  5
4F1
100
AcDbEntity
  8
レイヤー_1
 62
     7
100
AcDbMText
 10
171.979167
 20
25.910268
 30
0.0
 40
2.362351
 41
0.0
 71
     1
 72
     2
  1
\fMSGothic 90ms|b0|i0|c128;\H2.3624;\C7;\U+627F
  7
STD
210
0.0
220
0.0
230
1.0
 73
     1
 44
1.0
  0
MTEXT
  5
4F0
100
AcDbEntity
  8
レイヤー_1
 62
     7
100
AcDbMText
 10
175.154167
 20
25.910268
 30
0.0
 40
2.362351
 41
0.0
 71
     1
 72
     2
  1
\fMSGothic 90ms|b0|i0|c128;\H2.3624;\C7;\U+0020
  7
STD
210
0.0
220
0.0
230
1.0
 73
     1
 44
1.0
  0
MTEXT
  5
4EF
100
AcDbEntity
  8
レイヤー_1
 62
     7
100
AcDbMText
 10
176.741667
 20
25.910268
 30
0.0
 40
2.362351
 41
0.0
 71
     1
 72
     2
  1
\fMSGothic 90ms|b0|i0|c128;\H2.3624;\C7;\U+8A8D
  7
STD
210
0.0
220
0.0
230
1.0
 73
     1
 44
1.0
  0
MTEXT
  5
4EE
100
AcDbEntity
  8
レイヤー_1
 62
     7
100
AcDbMText
 10
175.41875
 20
17.708184
 30
0.0
 40
2.362351
 41
0.0
 71
     1
 72
     2
  1
\fMSGothic 90ms|b0|i0|c128;\H2.3624;\C7;\U+0020
  7
STD
210
0.0
220
0.0
230
1.0
 73
     1
 44
1.0
  0
MTEXT
  5
4ED
100
AcDbEntity
  8
レイヤー_1
 62
     7
100
AcDbMText
 10
182.5625
 20
18.501934
 30
0.0
 40
2.362351
 41
0.0
 71
     1
 72
     2
  1
\fMSGothic 90ms|b0|i0|c128;\H2.3624;\C7;\U+5C3A
  7
STD
210
0.0
220
0.0
230
1.0
 73
     1
 44
1.0
  0
MTEXT
  5
4EC
100
AcDbEntity
  8
レイヤー_1
 62
     7
100
AcDbMText
 10
182.5625
 20
14.268601
 30
0.0
 40
2.362351
 41
0.0
 71
     1
 72
     2
  1
\fMSGothic 90ms|b0|i0|c128;\H2.3624;\C7;\U+5EA6
  7
STD
210
0.0
220
0.0
230
1.0
 73
     1
 44
1.0
  0
MTEXT
  5
4EB
100
AcDbEntity
  8
レイヤー_1
 62
     7
100
AcDbMText
 10
182.5625
 20
26.704018
 30
0.0
 40
2.362351
 41
0.0
 71
     1
 72
     2
  1
\fMSGothic 90ms|b0|i0|c128;\H2.3624;\C7;\U+56F3
  7
STD
210
0.0
220
0.0
230
1.0
 73
     1
 44
1.0
  0
MTEXT
  5
4EA
100
AcDbEntity
  8
レイヤー_1
 62
     7
100
AcDbMText
 10
185.7375
 20
26.704018
 30
0.0
 40
2.362351
 41
0.0
 71
     1
 72
     2
  1
\fMSGothic 90ms|b0|i0|c128;\H2.3624;\C7;
  7
STD
210
0.0
220
0.0
230
1.0
 73
     1
 44
1.0
  0
MTEXT
  5
4E9
100
AcDbEntity
  8
レイヤー_1
 62
     7
100
AcDbMText
 10
182.5625
 20
22.470684
 30
0.0
 40
2.362351
 41
0.0
 71
     1
 72
     2
  1
\fMSGothic 90ms|b0|i0|c128;\H2.3624;\C7;\U+756A
  7
STD
210
0.0
220
0.0
230
1.0
 73
     1
 44
1.0
  0
MTEXT
  5
4E8
100
AcDbEntity
  8
レイヤー_1
 62
     7
100
AcDbMText
 10
161.425289
 20
17.708184
 30
0.0
 40
2.362351
 41
0.0
 71
     1
 72
     2
  1
\fMSGothic 90ms|b0|i0|c128;\H2.3624;\C7;\U+82B1
  7
STD
210
0.0
220
0.0
230
1.0
 73
     1
 44
1.0
  0
MTEXT
  5
4E7
100
AcDbEntity
  8
レイヤー_1
 62
     7
100
AcDbMText
 10
164.600289
 20
17.708184
 30
0.0
 40
2.362351
 41
0.0
 71
     1
 72
     2
  1
\fMSGothic 90ms|b0|i0|c128;\H2.3624;\C7;\U+0020
  7
STD
210
0.0
220
0.0
230
1.0
 73
     1
 44
1.0
  0
MTEXT
  5
4E6
100
AcDbEntity
  8
レイヤー_1
 62
     7
100
AcDbMText
 10
166.187789
 20
17.708184
 30
0.0
 40
2.362351
 41
0.0
 71
     1
 72
     2
  1
\fMSGothic 90ms|b0|i0|c128;\H2.3624;\C7;\U+7530
  7
STD
210
0.0
220
0.0
230
1.0
 73
     1
 44
1.0
  0
MTEXT
  5
4E5
100
AcDbEntity
  8
レイヤー_1
 62
     7
100
AcDbMText
 10
175.242361
 20
17.708184
 30
0.0
 40
2.362351
 41
0.0
 71
     1
 72
     2
  1
\fMSGothic 90ms|b0|i0|c128;\H2.3624;\C7;\U+0020
  7
STD
210
0.0
220
0.0
230
1.0
 73
     1
 44
1.0
  0
MTEXT
  5
4E4
100
AcDbEntity
  8
レイヤー_1
 62
     7
100
AcDbMText
 10
172.3614
 20
17.708184
 30
0.0
 40
2.362351
 41
0.0
 71
     1
 72
     2
  1
\fMSGothic 90ms|b0|i0|c128;\H2.3624;\C7;\U+53E4
  7
STD
210
0.0
220
0.0
230
1.0
 73
     1
 44
1.0
  0
MTEXT
  5
4E3
100
AcDbEntity
  8
レイヤー_1
 62
     7
100
AcDbMText
 10
175.5364
 20
17.708184
 30
0.0
 40
2.362351
 41
0.0
 71
     1
 72
     2
  1
\fMSGothic 90ms|b0|i0|c128;\H2.3624;\C7;\U+0020
  7
STD
210
0.0
220
0.0
230
1.0
 73
     1
 44
1.0
  0
MTEXT
  5
4E2
100
AcDbEntity
  8
レイヤー_1
 62
     7
100
AcDbMText
 10
177.1239
 20
17.708184
 30
0.0
 40
2.362351
 41
0.0
 71
     1
 72
     2
  1
\fMSGothic 90ms|b0|i0|c128;\H2.3624;\C7;\U+6FA4
  7
STD
210
0.0
220
0.0
230
1.0
 73
     1
 44
1.0
  0
MTEXT
  5
4E1
100
AcDbEntity
  8
レイヤー_1
 62
     7
100
AcDbMText
 10
153.326042
 20
17.708184
 30
0.0
 40
2.362351
 41
0.0
 71
     1
 72
     2
  1
\fMSGothic 90ms|b0|i0|c128;\H2.3624;\C7;\U+0020
  7
STD
210
0.0
220
0.0
230
1.0
 73
     1
 44
1.0
  0
MTEXT
  5
4E0
100
AcDbEntity
  8
レイヤー_1
 62
     7
100
AcDbMText
 10
150.445081
 20
17.708184
 30
0.0
 40
2.362351
 41
0.0
 71
     1
 72
     2
  1
\fMSGothic 90ms|b0|i0|c128;\H2.3624;\C7;\U+6728
  7
STD
210
0.0
220
0.0
230
1.0
 73
     1
 44
1.0
  0
MTEXT
  5
4DF
100
AcDbEntity
  8
レイヤー_1
 62
     7
100
AcDbMText
 10
153.620081
 20
17.708184
 30
0.0
 40
2.362351
 41
0.0
 71
     1
 72
     2
  1
\fMSGothic 90ms|b0|i0|c128;\H2.3624;\C7;\U+0020
  7
STD
210
0.0
220
0.0
230
1.0
 73
     1
 44
1.0
  0
MTEXT
  5
4DE
100
AcDbEntity
  8
レイヤー_1
 62
     7
100
AcDbMText
 10
155.207581
 20
17.708184
 30
0.0
 40
2.362351
 41
0.0
 71
     1
 72
     2
  1
\fMSGothic 90ms|b0|i0|c128;\H2.3624;\C7;\U+8C37
  7
STD
210
0.0
220
0.0
230
1.0
 73
     1
 44
1.0
  0
LINE
  5
4DD
100
AcDbEntity
  8
レイヤー_1
 62
     7
100
AcDbLine
 10
159.808333
 20
35.71875
 30
0.0
 11
159.808333
 21
10.847917
 31
0.0
  0
LINE
  5
4DC
100
AcDbEntity
  8
レイヤー_1
 62
     7
100
AcDbLine
 10
148.695833
 20
21.695833
 30
0.0
 11
181.76875
 21
21.695833
 31
0.0
  0
LINE
  5
4DB
100
AcDbEntity
  8
レイヤー_1
 62
     7
100
AcDbLine
 10
148.695833
 20
35.71875
 30
0.0
 11
148.695833
 21
10.847917
 31
0.0
  0
MTEXT
  5
4DA
100
AcDbEntity
  8
レイヤー_1
 62
     7
100
AcDbMText
 10
217.4875
 20
20.618601
 30
0.0
 40
2.362351
 41
0.0
 71
     1
 72
     2
  1
\fMSGothic 90ms|b0|i0|c128;\H2.3624;\C7;
  7
STD
210
0.0
220
0.0
230
1.0
 73
     1
 44
1.0
  0
MTEXT
  5
4D9
100
AcDbEntity
  8
レイヤー_1
 62
     7
100
AcDbMText
 10
217.4875
 20
24.851934
 30
0.0
 40
2.362351
 41
0.0
 71
     1
 72
     2
  1
\fMSGothic 90ms|b0|i0|c128;\H2.3624;\C7;\U+54C1
  7
STD
210
0.0
220
0.0
230
1.0
 73
     1
 44
1.0
  0
MTEXT
  5
4D8
100
AcDbEntity
  8
レイヤー_1
 62
     7
100
AcDbMText
 10
220.6625
 20
24.851934
 30
0.0
 40
2.362351
 41
0.0
 71
     1
 72
     2
  1
\fMSGothic 90ms|b0|i0|c128;\H2.3624;\C7;
  7
STD
210
0.0
220
0.0
230
1.0
 73
     1
 44
1.0
  0
MTEXT
  5
4D7
100
AcDbEntity
  8
レイヤー_1
 62
     7
100
AcDbMText
 10
217.752083
 20
20.618601
 30
0.0
 40
2.362351
 41
0.0
 71
     1
 72
     2
  1
\fMSGothic 90ms|b0|i0|c128;\H2.3624;\C7;
  7
STD
210
0.0
220
0.0
230
1.0
 73
     1
 44
1.0
  0
MTEXT
  5
4D6
100
AcDbEntity
  8
レイヤー_1
 62
     7
100
AcDbMText
 10
220.927083
 20
20.618601
 30
0.0
 40
2.362351
 41
0.0
 71
     1
 72
     2
  1
\fMSGothic 90ms|b0|i0|c128;\H2.3624;\C7;
  7
STD
210
0.0
220
0.0
230
1.0
 73
     1
 44
1.0
  0
MTEXT
  5
4D5
100
AcDbEntity
  8
レイヤー_1
 62
     7
100
AcDbMText
 10
217.4875
 20
16.385268
 30
0.0
 40
2.362351
 41
0.0
 71
     1
 72
     2
  1
\fMSGothic 90ms|b0|i0|c128;\H2.3624;\C7;
  7
STD
210
0.0
220
0.0
230
1.0
 73
     1
 44
1.0
  0
MTEXT
  5
4D4
100
AcDbEntity
  8
レイヤー_1
 62
     7
100
AcDbMText
 10
217.4875
 20
34.906101
 30
0.0
 40
2.362351
 41
0.0
 71
     1
 72
     2
  1
\fMSGothic 90ms|b0|i0|c128;\H2.3624;\C7;\U+54C1
  7
STD
210
0.0
220
0.0
230
1.0
 73
     1
 44
1.0
  0
MTEXT
  5
4D3
100
AcDbEntity
  8
レイヤー_1
 62
     7
100
AcDbMText
 10
217.752083
 20
30.672768
 30
0.0
 40
2.362351
 41
0.0
 71
     1
 72
     2
  1
\fMSGothic 90ms|b0|i0|c128;\H2.3624;\C7;\U+756A
  7
STD
210
0.0
220
0.0
230
1.0
 73
     1
 44
1.0
  0
LINE
  5
4D2
100
AcDbEntity
  8
レイヤー_1
 62
     7
100
AcDbLine
 10
221.720833
 20
35.71875
 30
0.0
 11
221.720833
 21
10.847917
 31
0.0
  0
LINE
  5
4D1
100
AcDbEntity
  8
レイヤー_1
 62
     7
100
AcDbLine
 10
216.69375
 20
35.71875
 30
0.0
 11
216.69375
 21
10.847917
 31
0.0
  0
LINE
  5
4D0
100
AcDbEntity
  8
レイヤー_1
 62
     7
100
AcDbLine
 10
148.695833
 20
27.78125
 30
0.0
 11
281.78125
 21
27.78125
 31
0.0
  0
LINE
  5
4CF
100
AcDbEntity
  8
レイヤー_1
 62
     7
100
AcDbLine
 10
181.76875
 20
19.314583
 30
0.0
 11
216.69375
 21
19.314583
 31
0.0
  0
LINE
  5
4CE
100
AcDbEntity
  8
レイヤー_1
 62
     7
100
AcDbLine
 10
186.795833
 20
27.78125
 30
0.0
 11
186.795833
 21
10.847917
 31
0.0
  0
LINE
  5
4CD
100
AcDbEntity
  8
レイヤー_1
 62
     7
100
AcDbLine
 10
181.76875
 20
27.78125
 30
0.0
 11
181.76875
 21
10.847917
 31
0.0
  0
LINE
  5
4CC
100
AcDbEntity
  8
レイヤー_1
 62
     7
100
AcDbLine
 10
170.65625
 20
27.78125
 30
0.0
 11
170.65625
 21
10.847917
 31
0.0
  0
LINE
  5
4CB
100
AcDbEntity
  8
レイヤー_1
 62
     7
100
AcDbLine
 10
159.808333
 20
35.71875
 30
0.0
 11
159.808333
 21
10.847917
 31
0.0
  0
LINE
  5
4CA
100
AcDbEntity
  8
レイヤー_1
 62
     7
100
AcDbLine
 10
148.695833
 20
21.695833
 30
0.0
 11
181.76875
 21
21.695833
 31
0.0
  0
LINE
  5
4C9
100
AcDbEntity
  8
レイヤー_1
 62
     7
100
AcDbLine
 10
148.695833
 20
35.71875
 30
0.0
 11
148.695833
 21
10.847917
 31
0.0
  0
LINE
  5
4C8
100
AcDbEntity
  8
レイヤー_1
 62
     7
100
AcDbLine
 10
186.795833
 20
27.78125
 30
0.0
 11
186.795833
 21
10.847917
 31
0.0
  0
LINE
  5
4C7
100
AcDbEntity
  8
レイヤー_1
 62
     7
100
AcDbLine
 10
181.76875
 20
27.78125
 30
0.0
 11
181.76875
 21
10.847917
 31
0.0
  0
LINE
  5
4C6
100
AcDbEntity
  8
レイヤー_1
 62
     7
100
AcDbLine
 10
170.65625
 20
27.78125
 30
0.0
 11
170.65625
 21
10.847917
 31
0.0
  0
MTEXT
  5
4C5
100
AcDbEntity
  8
レイヤー_1
 62
     7
100
AcDbMText
 10
217.4875
 20
20.618601
 30
0.0
 40
2.362351
 41
0.0
 71
     1
 72
     2
  1
\fMSGothic 90ms|b0|i0|c128;\H2.3624;\C7;
  7
STD
210
0.0
220
0.0
230
1.0
 73
     1
 44
1.0
  0
LINE
  5
4C4
100
AcDbEntity
  8
レイヤー_1
 62
     7
100
AcDbLine
 10
221.720833
 20
35.71875
 30
0.0
 11
221.720833
 21
10.847917
 31
0.0
  0
LINE
  5
4C3
100
AcDbEntity
  8
レイヤー_1
 62
     7
100
AcDbLine
 10
216.69375
 20
35.71875
 30
0.0
 11
216.69375
 21
10.847917
 31
0.0
  0
MTEXT
  5
4C2
100
AcDbEntity
  8
レイヤー_1
 62
     7
100
AcDbMText
 10
39.547629
 20
33.378546
 30
0.0
 40
2.362351
 41
0.0
 71
     1
 72
     2
  1
\fMSGothic 90ms|b0|i0|c128;\H2.3624;\C7;\U+0032\U+0030\U+0031\U+0031\U+002E\U+0034\U+002E\U+0031\U+0038
  7
STD
210
0.0
220
0.0
230
1.0
 73
     1
 44
1.0
  0
MTEXT
  5
4C1
100
AcDbEntity
  8
レイヤー_1
 62
     7
100
AcDbMText
 10
39.547629
 20
26.440468
 30
0.0
 40
2.362351
 41
0.0
 71
     1
 72
     2
  1
\fMSGothic 90ms|b0|i0|c128;\H2.3624;\C7;\U+0032\U+0030\U+0031\U+0031\U+002E\U+0034\U+002E\U+0031\U+0038
  7
STD
210
0.0
220
0.0
230
1.0
 73
     1
 44
1.0
  0
MTEXT
  5
4C0
100
AcDbEntity
  8
レイヤー_1
 62
     7
100
AcDbMText
 10
39.547629
 20
19.679124
 30
0.0
 40
2.362351
 41
0.0
 71
     1
 72
     2
  1
\fMSGothic 90ms|b0|i0|c128;\H2.3624;\C7;\U+0032\U+0030\U+0031\U+0031\U+002E\U+0034\U+002E\U+0031\U+0038
  7
STD
210
0.0
220
0.0
230
1.0
 73
     1
 44
1.0
  0
MTEXT
  5
4BF
100
AcDbEntity
  8
レイヤー_1
 62
     7
100
AcDbMText
 10
62.177083
 20
19.295684
 30
0.0
 40
2.362351
 41
0.0
 71
     1
 72
     2
  1
\fMSGothic 90ms|b0|i0|c128;\H2.3624;\C7;\U+6750
  7
STD
210
0.0
220
0.0
230
1.0
 73
     1
 44
1.0
  0
MTEXT
  5
4BE
100
AcDbEntity
  8
レイヤー_1
 62
     7
100
AcDbMText
 10
65.352083
 20
19.295684
 30
0.0
 40
2.362351
 41
0.0
 71
     1
 72
     2
  1
\fMSGothic 90ms|b0|i0|c128;\H2.3624;\C7;\U+8CEA
  7
STD
210
0.0
220
0.0
230
1.0
 73
     1
 44
1.0
  0
MTEXT
  5
4BD
100
AcDbEntity
  8
レイヤー_1
 62
     7
100
AcDbMText
 10
68.527083
 20
19.295684
 30
0.0
 40
2.362351
 41
0.0
 71
     1
 72
     2
  1
\fMSGothic 90ms|b0|i0|c128;\H2.3624;\C7;\U+FF0F
  7
STD
210
0.0
220
0.0
230
1.0
 73
     1
 44
1.0
  0
LINE
  5
4BC
100
AcDbEntity
  8
レイヤー_1
 62
     7
100
AcDbLine
 10
281.78125
 20
35.71875
 30
0.0
 11
281.78125
 21
10.847917
 31
0.0
  0
HATCH
  5
4BB
100
AcDbEntity
  8
レイヤー_1
 62
     7
100
AcDbHatch
 10
0.0
 20
0.0
 30
0.0
210
0.0
220
0.0
230
1.0
  2
SOLID
 70
     1
 71
     0
 91
        1
 92
        1
 93
        1
 72
     4
 94
        3
 73
     0
 74
     0
 95
       68
 96
       64
 40
0.0
 40
0.0
 40
0.0
 40
0.0
 40
1.0
 40
1.0
 40
1.0
 40
2.0
 40
2.0
 40
2.0
 40
3.0
 40
3.0
 40
3.0
 40
4.0
 40
4.0
 40
4.0
 40
5.0
 40
5.0
 40
5.0
 40
6.0
 40
6.0
 40
6.0
 40
7.0
 40
7.0
 40
7.0
 40
8.0
 40
8.0
 40
8.0
 40
9.0
 40
9.0
 40
9.0
 40
10.0
 40
10.0
 40
10.0
 40
11.0
 40
11.0
 40
11.0
 40
12.0
 40
12.0
 40
12.0
 40
13.0
 40
13.0
 40
13.0
 40
14.0
 40
14.0
 40
14.0
 40
15.0
 40
15.0
 40
15.0
 40
16.0
 40
16.0
 40
16.0
 40
17.0
 40
17.0
 40
17.0
 40
18.0
 40
18.0
 40
18.0
 40
19.0
 40
19.0
 40
19.0
 40
20.0
 40
20.0
 40
20.0
 40
21.0
 40
21.0
 40
21.0
 40
21.0
 10
313.69661458333331
 20
21.173901367187497
 10
313.69661458333331
 20
21.111889648437497
 10
313.64769422743052
 20
21.064002821180555
 10
313.58843858506941
 20
21.064002821180555
 10
313.58843858506941
 20
21.064002821180555
 10
310.58844943576383
 20
21.064002821180555
 10
310.58844943576383
 20
21.064002821180555
 10
309.66309678819442
 20
21.064002821180555
 10
308.91206597222219
 20
21.814344618055554
 10
308.91206597222219
 20
22.74038628472222
 10
308.91206597222219
 20
23.665738932291664
 10
309.66309678819442
 20
24.416425238715277
 10
310.58844943576383
 20
24.416425238715277
 10
310.58844943576383
 20
24.416425238715277
 10
311.75771484374997
 20
24.416425238715277
 10
311.75771484374997
 20
24.416425238715277
 10
311.81903754340277
 20
24.416425238715277
 10
311.86726888020831
 20
24.367504882812497
 10
311.86726888020831
 20
24.30618218315972
 10
311.86726888020831
 20
24.30618218315972
 10
311.86726888020831
 20
23.241992187499999
 10
311.86726888020831
 20
23.241992187499999
 10
311.86726888020831
 20
23.182047526041664
 10
311.81903754340277
 20
23.133127170138888
 10
311.75771484374997
 20
23.133127170138888
 10
311.75771484374997
 20
23.133127170138888
 10
310.67319878472222
 20
23.132093641493054
 10
310.67319878472222
 20
23.132093641493054
 10
310.45891384548611
 20
23.132093641493054
 10
310.28390299479162
 20
22.95742730034722
 10
310.28390299479162
 20
22.742797851562496
 10
310.28390299479162
 20
22.527134874131942
 10
310.45891384548611
 20
22.351435004340274
 10
310.67319878472222
 20
22.351435004340274
 10
310.67319878472222
 20
22.351435004340274
 10
312.19179687499997
 20
22.353502061631943
 10
312.19179687499997
 20
22.353502061631943
 10
312.19179687499997
 20
22.353502061631943
 10
312.19179687499997
 20
24.601426866319443
 10
312.19179687499997
 20
24.601426866319443
 10
312.19179687499997
 20
24.930433485243054
 10
311.92583550347217
 20
25.196739366319441
 10
311.59510633680554
 20
25.196739366319441
 10
311.59510633680554
 20
25.196739366319441
 10
309.46190321180552
 20
25.196739366319441
 10
309.46190321180552
 20
25.196739366319441
 10
309.39989149305552
 20
25.196739366319441
 10
309.35166015624998
 20
25.24531521267361
 10
309.35166015624998
 20
25.306293402777776
 10
309.35166015624998
 20
25.306293402777776
 10
309.35166015624998
 20
26.374962022569441
 10
309.35166015624998
 20
26.374962022569441
 10
309.35166015624998
 20
26.434906684027776
 10
309.39989149305552
 20
26.484860568576387
 10
309.46190321180552
 20
26.484860568576387
 10
309.46190321180552
 20
26.484860568576387
 10
312.01609700520828
 20
26.484860568576387
 10
312.01609700520828
 20
26.484860568576387
 10
312.94765082465273
 20
26.484860568576387
 10
313.69661458333331
 20
25.731418185763886
 10
313.69661458333331
 20
24.800208875868055
 10
313.69661458333331
 20
24.800208875868055
 10
313.69661458333331
 20
21.173901367187497
 10
313.69661458333331
 20
21.173901367187497
 97
        0
 75
     2
 76
     1
 98
        1
 10
0.0
 20
0.0
  0
HATCH
  5
4BA
100
AcDbEntity
  8
レイヤー_1
 62
     7
100
AcDbHatch
 10
0.0
 20
0.0
 30
0.0
210
0.0
220
0.0
230
1.0
  2
SOLID
 70
     1
 71
     0
 91
        1
 92
        1
 93
        1
 72
     4
 94
        3
 73
     0
 74
     0
 95
       68
 96
       64
 40
0.0
 40
0.0
 40
0.0
 40
0.0
 40
1.0
 40
1.0
 40
1.0
 40
2.0
 40
2.0
 40
2.0
 40
3.0
 40
3.0
 40
3.0
 40
4.0
 40
4.0
 40
4.0
 40
5.0
 40
5.0
 40
5.0
 40
6.0
 40
6.0
 40
6.0
 40
7.0
 40
7.0
 40
7.0
 40
8.0
 40
8.0
 40
8.0
 40
9.0
 40
9.0
 40
9.0
 40
10.0
 40
10.0
 40
10.0
 40
11.0
 40
11.0
 40
11.0
 40
12.0
 40
12.0
 40
12.0
 40
13.0
 40
13.0
 40
13.0
 40
14.0
 40
14.0
 40
14.0
 40
15.0
 40
15.0
 40
15.0
 40
16.0
 40
16.0
 40
16.0
 40
17.0
 40
17.0
 40
17.0
 40
18.0
 40
18.0
 40
18.0
 40
19.0
 40
19.0
 40
19.0
 40
20.0
 40
20.0
 40
20.0
 40
21.0
 40
21.0
 40
21.0
 40
21.0
 10
323.79074435763886
 20
21.173901367187497
 10
323.79074435763886
 20
21.111889648437497
 10
323.74182400173606
 20
21.064002821180555
 10
323.68050130208331
 20
21.064002821180555
 10
323.68050130208331
 20
21.064002821180555
 10
320.68051215277774
 20
21.064002821180555
 10
320.68051215277774
 20
21.064002821180555
 10
319.75584852430552
 20
21.064002821180555
 10
319.00481770833329
 20
21.814344618055554
 10
319.00481770833329
 20
22.74038628472222
 10
319.00481770833329
 20
23.665738932291664
 10
319.75584852430552
 20
24.416425238715277
 10
320.68051215277774
 20
24.416425238715277
 10
320.68051215277774
 20
24.416425238715277
 10
321.84977756076387
 20
24.416425238715277
 10
321.84977756076387
 20
24.416425238715277
 10
321.91041124131942
 20
24.416425238715277
 10
321.96002061631941
 20
24.367504882812497
 10
321.96002061631941
 20
24.30618218315972
 10
321.96002061631941
 20
24.30618218315972
 10
321.96002061631941
 20
23.241992187499999
 10
321.96002061631941
 20
23.241992187499999
 10
321.96002061631941
 20
23.182047526041664
 10
321.91041124131942
 20
23.133127170138888
 10
321.84977756076387
 20
23.133127170138888
 10
321.84977756076387
 20
23.133127170138888
 10
320.76595052083331
 20
23.132093641493054
 10
320.76595052083331
 20
23.132093641493054
 10
320.55097656249995
 20
23.132093641493054
 10
320.37665473090277
 20
22.95742730034722
 10
320.37665473090277
 20
22.742797851562496
 10
320.37665473090277
 20
22.527134874131942
 10
320.55097656249995
 20
22.351435004340274
 10
320.76595052083331
 20
22.351435004340274
 10
320.76595052083331
 20
22.351435004340274
 10
322.28454861111106
 20
22.353502061631943
 10
322.28454861111106
 20
22.353502061631943
 10
322.28454861111106
 20
22.353502061631943
 10
322.28454861111106
 20
24.601426866319443
 10
322.28454861111106
 20
24.601426866319443
 10
322.28454861111106
 20
24.930433485243054
 10
322.01789822048607
 20
25.196739366319441
 10
321.68854709201383
 20
25.196739366319441
 10
321.68854709201383
 20
25.196739366319441
 10
319.55258789062498
 20
25.196739366319441
 10
319.55258789062498
 20
25.196739366319441
 10
319.49264322916662
 20
25.196739366319441
 10
319.44372287326388
 20
25.24531521267361
 10
319.44372287326388
 20
25.306293402777776
 10
319.44372287326388
 20
25.306293402777776
 10
319.44372287326388
 20
26.374962022569441
 10
319.44372287326388
 20
26.374962022569441
 10
319.44372287326388
 20
26.434906684027776
 10
319.49264322916662
 20
26.484860568576387
 10
319.55258789062498
 20
26.484860568576387
 10
319.55258789062498
 20
26.484860568576387
 10
322.10815972222218
 20
26.484860568576387
 10
322.10815972222218
 20
26.484860568576387
 10
323.03902452256943
 20
26.484860568576387
 10
323.79074435763886
 20
25.731418185763886
 10
323.79074435763886
 20
24.800208875868055
 10
323.79074435763886
 20
24.800208875868055
 10
323.79074435763886
 20
21.173901367187497
 10
323.79074435763886
 20
21.173901367187497
 97
        0
 75
     2
 76
     1
 98
        1
 10
0.0
 20
0.0
  0
HATCH
  5
4B9
100
AcDbEntity
  8
レイヤー_1
 62
     7
100
AcDbHatch
 10
0.0
 20
0.0
 30
0.0
210
0.0
220
0.0
230
1.0
  2
SOLID
 70
     1
 71
     0
 91
        1
 92
        1
 93
        1
 72
     4
 94
        3
 73
     0
 74
     0
 95
       65
 96
       61
 40
0.0
 40
0.0
 40
0.0
 40
0.0
 40
1.0
 40
1.0
 40
1.0
 40
2.0
 40
2.0
 40
2.0
 40
3.0
 40
3.0
 40
3.0
 40
4.0
 40
4.0
 40
4.0
 40
5.0
 40
5.0
 40
5.0
 40
6.0
 40
6.0
 40
6.0
 40
7.0
 40
7.0
 40
7.0
 40
8.0
 40
8.0
 40
8.0
 40
9.0
 40
9.0
 40
9.0
 40
10.0
 40
10.0
 40
10.0
 40
11.0
 40
11.0
 40
11.0
 40
12.0
 40
12.0
 40
12.0
 40
13.0
 40
13.0
 40
13.0
 40
14.0
 40
14.0
 40
14.0
 40
15.0
 40
15.0
 40
15.0
 40
16.0
 40
16.0
 40
16.0
 40
17.0
 40
17.0
 40
17.0
 40
18.0
 40
18.0
 40
18.0
 40
19.0
 40
19.0
 40
19.0
 40
20.0
 40
20.0
 40
20.0
 40
20.0
 10
324.42739800347221
 20
21.058490668402776
 10
324.36745334201385
 20
21.058490668402776
 10
324.3192220052083
 20
21.105688476562499
 10
324.3192220052083
 20
21.165288628472219
 10
324.3192220052083
 20
21.165288628472219
 10
324.3192220052083
 20
22.235679796006941
 10
324.3192220052083
 20
22.235679796006941
 10
324.3192220052083
 20
22.295624457465276
 10
324.36745334201385
 20
22.346956380208333
 10
324.42739800347221
 20
22.346956380208333
 10
324.42739800347221
 20
22.346956380208333
 10
326.97676866319443
 20
22.346956380208333
 10
326.97676866319443
 20
22.346956380208333
 10
327.19174262152774
 20
22.346956380208333
 10
327.36606445312498
 20
22.524378797743054
 10
327.36606445312498
 20
22.741419813368054
 10
327.36606445312498
 20
22.955015733506944
 10
327.19174262152774
 20
23.132093641493054
 10
326.97676866319443
 20
23.132093641493054
 10
326.97676866319443
 20
23.132093641493054
 10
325.84608832465273
 20
23.163099500868054
 10
325.84608832465273
 20
23.163099500868054
 10
324.92555881076385
 20
23.163099500868054
 10
324.17866210937495
 20
23.904828559027777
 10
324.17866210937495
 20
24.819845920138885
 10
324.17866210937495
 20
25.734518771701385
 10
324.92555881076385
 20
26.477625868055554
 10
325.84608832465273
 20
26.477625868055554
 10
325.84608832465273
 20
26.477625868055554
 10
328.41337348090275
 20
26.477625868055554
 10
328.41337348090275
 20
26.477625868055554
 10
328.4740071614583
 20
26.477625868055554
 10
328.52223849826385
 20
26.429739040798609
 10
328.52223849826385
 20
26.370483398437496
 10
328.52223849826385
 20
26.370483398437496
 10
328.52223849826385
 20
25.312150065104163
 10
328.52223849826385
 20
25.312150065104163
 10
328.52223849826385
 20
25.250827365451386
 10
328.4740071614583
 20
25.199495442708329
 10
328.41337348090275
 20
25.199495442708329
 10
328.41337348090275
 20
25.199495442708329
 10
326.00456271701387
 20
25.199495442708329
 10
326.00456271701387
 20
25.199495442708329
 10
325.79027777777776
 20
25.199495442708329
 10
325.61457790798607
 20
25.021728515624996
 10
325.61457790798607
 20
24.807443576388888
 10
325.61457790798607
 20
24.591436089409719
 10
325.79027777777776
 20
24.417458767361108
 10
326.00456271701387
 20
24.417458767361108
 10
326.00456271701387
 20
24.417458767361108
 10
327.14902343749998
 20
24.382663302951386
 10
327.14902343749998
 20
24.382663302951386
 10
328.07024197048611
 20
24.382663302951386
 10
328.81851671006939
 20
23.639900716145831
 10
328.81851671006939
 20
22.724538845486109
 10
328.81851671006939
 20
21.807454427083332
 10
328.07024197048611
 20
21.058490668402776
 10
327.14902343749998
 20
21.058490668402776
 10
327.14902343749998
 20
21.058490668402776
 10
324.42739800347221
 20
21.058490668402776
 10
324.42739800347221
 20
21.058490668402776
 97
        0
 75
     2
 76
     1
 98
        1
 10
0.0
 20
0.0
  0
HATCH
  5
4B8
100
AcDbEntity
  8
レイヤー_1
 62
     7
100
AcDbHatch
 10
0.0
 20
0.0
 30
0.0
210
0.0
220
0.0
230
1.0
  2
SOLID
 70
     1
 71
     0
 91
        1
 92
        1
 93
        1
 72
     4
 94
        3
 73
     0
 74
     0
 95
       65
 96
       61
 40
0.0
 40
0.0
 40
0.0
 40
0.0
 40
1.0
 40
1.0
 40
1.0
 40
2.0
 40
2.0
 40
2.0
 40
3.0
 40
3.0
 40
3.0
 40
4.0
 40
4.0
 40
4.0
 40
5.0
 40
5.0
 40
5.0
 40
6.0
 40
6.0
 40
6.0
 40
7.0
 40
7.0
 40
7.0
 40
8.0
 40
8.0
 40
8.0
 40
9.0
 40
9.0
 40
9.0
 40
10.0
 40
10.0
 40
10.0
 40
11.0
 40
11.0
 40
11.0
 40
12.0
 40
12.0
 40
12.0
 40
13.0
 40
13.0
 40
13.0
 40
14.0
 40
14.0
 40
14.0
 40
15.0
 40
15.0
 40
15.0
 40
16.0
 40
16.0
 40
16.0
 40
17.0
 40
17.0
 40
17.0
 40
18.0
 40
18.0
 40
18.0
 40
19.0
 40
19.0
 40
19.0
 40
20.0
 40
20.0
 40
20.0
 40
20.0
 10
333.56585828993053
 20
26.48313802083333
 10
333.56585828993053
 20
26.48313802083333
 10
332.36145290798606
 20
26.48313802083333
 10
332.36145290798606
 20
26.48313802083333
 10
332.30081922743051
 20
26.48313802083333
 10
332.17472873263887
 20
26.433873155381942
 10
332.17472873263887
 20
26.374273003472219
 10
332.17472873263887
 20
26.374273003472219
 10
332.17472873263887
 20
24.422970920138887
 10
332.17472873263887
 20
24.422970920138887
 10
332.17472873263887
 20
24.422970920138887
 10
330.66508789062499
 20
24.422970920138887
 10
330.66508789062499
 20
24.422970920138887
 10
330.66508789062499
 20
24.422970920138887
 10
330.66508789062499
 20
26.374273003472219
 10
330.66508789062499
 20
26.374273003472219
 10
330.66508789062499
 20
26.433873155381942
 10
330.61547851562494
 20
26.48313802083333
 10
330.55622287326383
 20
26.48313802083333
 10
330.55622287326383
 20
26.48313802083333
 10
329.27326931423607
 20
26.48313802083333
 10
329.27326931423607
 20
26.48313802083333
 10
329.21332465277777
 20
26.48313802083333
 10
329.16440429687498
 20
26.433873155381942
 10
329.16440429687498
 20
26.374273003472219
 10
329.16440429687498
 20
26.374273003472219
 10
329.16440429687498
 20
21.173901367187497
 10
329.16440429687498
 20
21.173901367187497
 10
329.16440429687498
 20
21.111889648437497
 10
329.21332465277777
 20
21.064002821180555
 10
329.27326931423607
 20
21.064002821180555
 10
329.27326931423607
 20
21.064002821180555
 10
330.55622287326383
 20
21.064002821180555
 10
330.55622287326383
 20
21.064002821180555
 10
330.61547851562494
 20
21.064002821180555
 10
330.66508789062499
 20
21.111889648437497
 10
330.66508789062499
 20
21.173901367187497
 10
330.66508789062499
 20
21.173901367187497
 10
330.66508789062499
 20
23.136227756076387
 10
330.66508789062499
 20
23.136227756076387
 10
330.66508789062499
 20
23.136227756076387
 10
332.17472873263887
 20
23.136227756076387
 10
332.17472873263887
 20
23.136227756076387
 10
332.17472873263887
 20
23.136227756076387
 10
332.17472873263887
 20
21.173901367187497
 10
332.17472873263887
 20
21.173901367187497
 10
332.17472873263887
 20
21.111889648437497
 10
332.22364908854166
 20
21.064002821180555
 10
332.28359374999997
 20
21.064002821180555
 10
332.28359374999997
 20
21.064002821180555
 10
333.56585828993053
 20
21.064002821180555
 10
333.56585828993053
 20
21.064002821180555
 10
333.62580295138883
 20
21.064002821180555
 10
333.67472330729163
 20
21.111889648437497
 10
333.67472330729163
 20
21.173901367187497
 10
333.67472330729163
 20
21.173901367187497
 10
333.67472330729163
 20
26.374273003472219
 10
333.67472330729163
 20
26.374273003472219
 10
333.67472330729163
 20
26.433873155381942
 10
333.62580295138883
 20
26.48313802083333
 10
333.56585828993053
 20
26.48313802083333
 97
        0
 75
     2
 76
     1
 98
        1
 10
0.0
 20
0.0
  0
HATCH
  5
4B7
100
AcDbEntity
  8
レイヤー_1
 62
     7
100
AcDbHatch
 10
0.0
 20
0.0
 30
0.0
210
0.0
220
0.0
230
1.0
  2
SOLID
 70
     1
 71
     0
 91
        2
 92
       16
 93
        1
 72
     4
 94
        3
 73
     0
 74
     0
 95
       29
 96
       25
 40
0.0
 40
0.0
 40
0.0
 40
0.0
 40
1.0
 40
1.0
 40
1.0
 40
2.0
 40
2.0
 40
2.0
 40
3.0
 40
3.0
 40
3.0
 40
4.0
 40
4.0
 40
4.0
 40
5.0
 40
5.0
 40
5.0
 40
6.0
 40
6.0
 40
6.0
 40
7.0
 40
7.0
 40
7.0
 40
8.0
 40
8.0
 40
8.0
 40
8.0
 10
337.65794270833328
 20
26.483827039930553
 10
337.65794270833328
 20
26.483827039930553
 10
335.64600694444442
 20
26.483827039930553
 10
335.64600694444442
 20
26.483827039930553
 10
334.79713541666666
 20
26.483827039930553
 10
334.10673828124999
 20
25.794807942708331
 10
334.10673828124999
 20
24.944902886284719
 10
334.10673828124999
 20
24.944902886284719
 10
334.10673828124999
 20
22.607750108506941
 10
334.10673828124999
 20
22.607750108506941
 10
334.10673828124999
 20
21.758189561631941
 10
334.79713541666666
 20
21.069514973958331
 10
335.64600694444442
 20
21.069514973958331
 10
335.64600694444442
 20
21.069514973958331
 10
337.65794270833328
 20
21.069514973958331
 10
337.65794270833328
 20
21.069514973958331
 10
338.50750325520829
 20
21.069514973958331
 10
339.19583333333333
 20
21.758189561631941
 10
339.19583333333333
 20
22.607750108506941
 10
339.19583333333333
 20
22.607750108506941
 10
339.19583333333333
 20
24.944902886284719
 10
339.19583333333333
 20
24.944902886284719
 10
339.19583333333333
 20
25.794807942708331
 10
338.50750325520829
 20
26.483827039930553
 10
337.65794270833328
 20
26.483827039930553
 97
        0
 92
        1
 93
        1
 72
     4
 94
        3
 73
     0
 74
     0
 95
       29
 96
       25
 40
0.0
 40
0.0
 40
0.0
 40
0.0
 40
1.0
 40
1.0
 40
1.0
 40
2.0
 40
2.0
 40
2.0
 40
3.0
 40
3.0
 40
3.0
 40
4.0
 40
4.0
 40
4.0
 40
5.0
 40
5.0
 40
5.0
 40
6.0
 40
6.0
 40
6.0
 40
7.0
 40
7.0
 40
7.0
 40
8.0
 40
8.0
 40
8.0
 40
8.0
 10
337.69308268229162
 20
22.910574001736109
 10
337.69308268229162
 20
22.607750108506941
 10
337.44710286458331
 20
22.362114800347221
 10
337.14462348090274
 20
22.362114800347221
 10
337.14462348090274
 20
22.362114800347221
 10
336.15932617187497
 20
22.362114800347221
 10
336.15932617187497
 20
22.362114800347221
 10
335.85546874999994
 20
22.362114800347221
 10
335.61017795138883
 20
22.607750108506941
 10
335.61017795138883
 20
22.910574001736109
 10
335.61017795138883
 20
22.910574001736109
 10
335.61017795138883
 20
24.642423502604164
 10
335.61017795138883
 20
24.642423502604164
 10
335.61017795138883
 20
24.944902886284719
 10
335.85546874999994
 20
25.190193684895831
 10
336.15932617187497
 20
25.190193684895831
 10
336.15932617187497
 20
25.190193684895831
 10
337.14462348090274
 20
25.190193684895831
 10
337.14462348090274
 20
25.190193684895831
 10
337.44710286458331
 20
25.190193684895831
 10
337.69308268229162
 20
24.944902886284719
 10
337.69308268229162
 20
24.642423502604164
 10
337.69308268229162
 20
24.642423502604164
 10
337.69308268229162
 20
22.910574001736109
 10
337.69308268229162
 20
22.910574001736109
 97
        0
 75
     2
 76
     1
 98
        1
 10
0.0
 20
0.0
  0
HATCH
  5
4B6
100
AcDbEntity
  8
レイヤー_1
 62
     7
100
AcDbHatch
 10
0.0
 20
0.0
 30
0.0
210
0.0
220
0.0
230
1.0
  2
SOLID
 70
     1
 71
     0
 91
        1
 92
        1
 93
        1
 72
     4
 94
        3
 73
     0
 74
     0
 95
       47
 96
       43
 40
0.0
 40
0.0
 40
0.0
 40
0.0
 40
1.0
 40
1.0
 40
1.0
 40
2.0
 40
2.0
 40
2.0
 40
3.0
 40
3.0
 40
3.0
 40
4.0
 40
4.0
 40
4.0
 40
5.0
 40
5.0
 40
5.0
 40
6.0
 40
6.0
 40
6.0
 40
7.0
 40
7.0
 40
7.0
 40
8.0
 40
8.0
 40
8.0
 40
9.0
 40
9.0
 40
9.0
 40
10.0
 40
10.0
 40
10.0
 40
11.0
 40
11.0
 40
11.0
 40
12.0
 40
12.0
 40
12.0
 40
13.0
 40
13.0
 40
13.0
 40
14.0
 40
14.0
 40
14.0
 40
14.0
 10
310.38656684027774
 20
28.570521375868054
 10
310.38656684027774
 20
28.570521375868054
 10
304.5223253038194
 20
28.570521375868054
 10
304.5223253038194
 20
28.570521375868054
 10
304.46858181423607
 20
28.570521375868054
 10
304.42448459201387
 20
28.526424153645831
 10
304.42448459201387
 20
28.471991644965275
 10
304.42448459201387
 20
28.471991644965275
 10
304.42448459201387
 20
27.176635742187496
 10
304.42448459201387
 20
27.176635742187496
 10
304.42448459201387
 20
27.121858723958329
 10
304.46858181423607
 20
27.077761501736109
 10
304.5223253038194
 20
27.077761501736109
 10
304.5223253038194
 20
27.077761501736109
 10
306.58662651909719
 20
27.077761501736109
 10
306.58662651909719
 20
27.077761501736109
 10
306.58662651909719
 20
27.077761501736109
 10
306.58662651909719
 20
21.173901367187497
 10
306.58662651909719
 20
21.173901367187497
 10
306.58662651909719
 20
21.111889648437497
 10
306.63485785590274
 20
21.064002821180555
 10
306.69549153645829
 20
21.064002821180555
 10
306.69549153645829
 20
21.064002821180555
 10
308.21271158854165
 20
21.064002821180555
 10
308.21271158854165
 20
21.064002821180555
 10
308.2740342881944
 20
21.064002821180555
 10
308.32088758680555
 20
21.111889648437497
 10
308.32088758680555
 20
21.173901367187497
 10
308.32088758680555
 20
21.173901367187497
 10
308.32088758680555
 20
27.077761501736109
 10
308.32088758680555
 20
27.077761501736109
 10
308.32088758680555
 20
27.077761501736109
 10
310.38656684027774
 20
27.077761501736109
 10
310.38656684027774
 20
27.077761501736109
 10
310.44099934895831
 20
27.077761501736109
 10
310.48371853298607
 20
27.121858723958329
 10
310.48371853298607
 20
27.176635742187496
 10
310.48371853298607
 20
27.176635742187496
 10
310.48371853298607
 20
28.471991644965275
 10
310.48371853298607
 20
28.471991644965275
 10
310.48371853298607
 20
28.526424153645831
 10
310.44099934895831
 20
28.570521375868054
 10
310.38656684027774
 20
28.570521375868054
 97
        0
 75
     2
 76
     1
 98
        1
 10
0.0
 20
0.0
  0
HATCH
  5
4B5
100
AcDbEntity
  8
レイヤー_1
 62
     7
100
AcDbHatch
 10
0.0
 20
0.0
 30
0.0
210
0.0
220
0.0
230
1.0
  2
SOLID
 70
     1
 71
     0
 91
        1
 92
        1
 93
        1
 72
     4
 94
        3
 73
     0
 74
     0
 95
       29
 96
       25
 40
0.0
 40
0.0
 40
0.0
 40
0.0
 40
1.0
 40
1.0
 40
1.0
 40
2.0
 40
2.0
 40
2.0
 40
3.0
 40
3.0
 40
3.0
 40
4.0
 40
4.0
 40
4.0
 40
5.0
 40
5.0
 40
5.0
 40
6.0
 40
6.0
 40
6.0
 40
7.0
 40
7.0
 40
7.0
 40
8.0
 40
8.0
 40
8.0
 40
8.0
 10
315.54387478298611
 20
21.064002821180555
 10
315.60381944444441
 20
21.064002821180555
 10
315.65411783854165
 20
21.111889648437497
 10
315.65411783854165
 20
21.174934895833331
 10
315.65411783854165
 20
21.174934895833331
 10
315.65411783854165
 20
26.382196723090274
 10
315.65411783854165
 20
26.382196723090274
 10
315.65411783854165
 20
26.442485894097221
 10
315.60381944444441
 20
26.491061740451386
 10
315.54387478298611
 20
26.491061740451386
 10
315.54387478298611
 20
26.491061740451386
 10
314.25678710937495
 20
26.491061740451386
 10
314.25678710937495
 20
26.491061740451386
 10
314.19546440972221
 20
26.491061740451386
 10
314.14654405381941
 20
26.442485894097221
 10
314.14654405381941
 20
26.382196723090274
 10
314.14654405381941
 20
26.382196723090274
 10
314.14654405381941
 20
21.174934895833331
 10
314.14654405381941
 20
21.174934895833331
 10
314.14654405381941
 20
21.111889648437497
 10
314.19546440972221
 20
21.064002821180555
 10
314.25678710937495
 20
21.064002821180555
 10
314.25678710937495
 20
21.064002821180555
 10
315.54387478298611
 20
21.064002821180555
 10
315.54387478298611
 20
21.064002821180555
 97
        0
 75
     2
 76
     1
 98
        1
 10
0.0
 20
0.0
  0
HATCH
  5
4B4
100
AcDbEntity
  8
レイヤー_1
 62
     7
100
AcDbHatch
 10
0.0
 20
0.0
 30
0.0
210
0.0
220
0.0
230
1.0
  2
SOLID
 70
     1
 71
     0
 91
        1
 92
        1
 93
        1
 72
     4
 94
        3
 73
     0
 74
     0
 95
       29
 96
       25
 40
0.0
 40
0.0
 40
0.0
 40
0.0
 40
1.0
 40
1.0
 40
1.0
 40
2.0
 40
2.0
 40
2.0
 40
3.0
 40
3.0
 40
3.0
 40
4.0
 40
4.0
 40
4.0
 40
5.0
 40
5.0
 40
5.0
 40
6.0
 40
6.0
 40
6.0
 40
7.0
 40
7.0
 40
7.0
 40
8.0
 40
8.0
 40
8.0
 40
8.0
 10
317.66812065972221
 20
26.487616644965275
 10
317.56545681423609
 20
26.487616644965275
 10
317.47381727430553
 20
26.436284722222219
 10
317.41869574652776
 20
26.358081054687499
 10
317.41869574652776
 20
26.358081054687499
 10
315.65411783854165
 20
23.773914930555552
 10
315.65411783854165
 20
23.773914930555552
 10
315.65411783854165
 20
23.773914930555552
 10
317.40698242187494
 20
21.069514973958331
 10
317.40698242187494
 20
21.069514973958331
 10
317.40698242187494
 20
21.069514973958331
 10
319.25079752604165
 20
21.069514973958331
 10
319.25079752604165
 20
21.069514973958331
 10
319.25079752604165
 20
21.069514973958331
 10
317.24368489583333
 20
23.773914930555552
 10
317.24368489583333
 20
23.773914930555552
 10
317.24368489583333
 20
23.773914930555552
 10
319.24941948784721
 20
26.485894097222221
 10
319.24941948784721
 20
26.485894097222221
 10
319.24941948784721
 20
26.485894097222221
 10
317.66743164062495
 20
26.485894097222221
 10
317.66743164062495
 20
26.485894097222221
 10
317.66743164062495
 20
26.485894097222221
 10
317.66812065972221
 20
26.487616644965275
 10
317.66812065972221
 20
26.487616644965275
 97
        0
 75
     2
 76
     1
 98
        1
 10
0.0
 20
0.0
  0
HATCH
  5
4B3
100
AcDbEntity
  8
レイヤー_1
 62
     7
100
AcDbHatch
 10
0.0
 20
0.0
 30
0.0
210
0.0
220
0.0
230
1.0
  2
SOLID
 70
     1
 71
     0
 91
        1
 92
        1
 93
        1
 72
     4
 94
        3
 73
     0
 74
     0
 95
       29
 96
       25
 40
0.0
 40
0.0
 40
0.0
 40
0.0
 40
1.0
 40
1.0
 40
1.0
 40
2.0
 40
2.0
 40
2.0
 40
3.0
 40
3.0
 40
3.0
 40
4.0
 40
4.0
 40
4.0
 40
5.0
 40
5.0
 40
5.0
 40
6.0
 40
6.0
 40
6.0
 40
7.0
 40
7.0
 40
7.0
 40
8.0
 40
8.0
 40
8.0
 40
8.0
 10
294.68795572916662
 20
24.820190429687496
 10
294.82575954861107
 20
24.820190429687496
 10
294.93669162326387
 20
24.932500542534719
 10
294.93669162326387
 20
25.069615342881942
 10
294.93669162326387
 20
25.069615342881942
 10
294.93669162326387
 20
28.318340386284721
 10
294.93669162326387
 20
28.318340386284721
 10
294.93669162326387
 20
28.456833224826386
 10
294.82575954861107
 20
28.567765299479163
 10
294.68795572916662
 20
28.567765299479163
 10
294.68795572916662
 20
28.567765299479163
 10
291.43923068576385
 20
28.567765299479163
 10
291.43923068576385
 20
28.567765299479163
 10
291.300048828125
 20
28.567765299479163
 10
291.18911675347221
 20
28.456833224826386
 10
291.18911675347221
 20
28.318340386284721
 10
291.18911675347221
 20
28.318340386284721
 10
291.18911675347221
 20
25.069615342881942
 10
291.18911675347221
 20
25.069615342881942
 10
291.18911675347221
 20
24.932500542534719
 10
291.300048828125
 20
24.820190429687496
 10
291.43923068576385
 20
24.820190429687496
 10
291.43923068576385
 20
24.820190429687496
 10
294.68795572916662
 20
24.820190429687496
 10
294.68795572916662
 20
24.820190429687496
 97
        0
 75
     2
 76
     1
 98
        1
 10
0.0
 20
0.0
  0
HATCH
  5
4B2
100
AcDbEntity
  8
レイヤー_1
 62
     7
100
AcDbHatch
 10
0.0
 20
0.0
 30
0.0
210
0.0
220
0.0
230
1.0
  2
SOLID
 70
     1
 71
     0
 91
        1
 92
        1
 93
        1
 72
     4
 94
        3
 73
     0
 74
     0
 95
       29
 96
       25
 40
0.0
 40
0.0
 40
0.0
 40
0.0
 40
1.0
 40
1.0
 40
1.0
 40
2.0
 40
2.0
 40
2.0
 40
3.0
 40
3.0
 40
3.0
 40
4.0
 40
4.0
 40
4.0
 40
5.0
 40
5.0
 40
5.0
 40
6.0
 40
6.0
 40
6.0
 40
7.0
 40
7.0
 40
7.0
 40
8.0
 40
8.0
 40
8.0
 40
8.0
 10
298.43759765624998
 20
21.070893012152776
 10
298.57471245659718
 20
21.070893012152776
 10
298.68564453124998
 20
21.182514105902776
 10
298.68564453124998
 20
21.321351453993053
 10
298.68564453124998
 20
21.321351453993053
 10
298.68564453124998
 20
24.569042968749997
 10
298.68564453124998
 20
24.569042968749997
 10
298.68564453124998
 20
24.706502278645832
 10
298.57471245659718
 20
24.81777886284722
 10
298.43759765624998
 20
24.81777886284722
 10
298.43759765624998
 20
24.81777886284722
 10
295.18887261284721
 20
24.81777886284722
 10
295.18887261284721
 20
24.81777886284722
 10
295.05106879340275
 20
24.81777886284722
 10
294.93738064236106
 20
24.706502278645832
 10
294.93738064236106
 20
24.569042968749997
 10
294.93738064236106
 20
24.569042968749997
 10
294.93738064236106
 20
21.321351453993053
 10
294.93738064236106
 20
21.321351453993053
 10
294.93738064236106
 20
21.182514105902776
 10
295.05106879340275
 20
21.070893012152776
 10
295.18887261284721
 20
21.070893012152776
 10
295.18887261284721
 20
21.070893012152776
 10
298.43759765624998
 20
21.070893012152776
 10
298.43759765624998
 20
21.070893012152776
 97
        0
 75
     2
 76
     1
 98
        1
 10
0.0
 20
0.0
  0
HATCH
  5
4B1
100
AcDbEntity
  8
レイヤー_1
 62
     7
100
AcDbHatch
 10
0.0
 20
0.0
 30
0.0
210
0.0
220
0.0
230
1.0
  2
SOLID
 70
     1
 71
     0
 91
        1
 92
        1
 93
        1
 72
     4
 94
        3
 73
     0
 74
     0
 95
       29
 96
       25
 40
0.0
 40
0.0
 40
0.0
 40
0.0
 40
1.0
 40
1.0
 40
1.0
 40
2.0
 40
2.0
 40
2.0
 40
3.0
 40
3.0
 40
3.0
 40
4.0
 40
4.0
 40
4.0
 40
5.0
 40
5.0
 40
5.0
 40
6.0
 40
6.0
 40
6.0
 40
7.0
 40
7.0
 40
7.0
 40
8.0
 40
8.0
 40
8.0
 40
8.0
 10
302.18723958333328
 20
24.820190429687496
 10
302.32435438368054
 20
24.820190429687496
 10
302.43666449652773
 20
24.932500542534719
 10
302.43666449652773
 20
25.069615342881942
 10
302.43666449652773
 20
25.069615342881942
 10
302.43666449652773
 20
28.318340386284721
 10
302.43666449652773
 20
28.318340386284721
 10
302.43666449652773
 20
28.456833224826386
 10
302.32435438368054
 20
28.567765299479163
 10
302.18723958333328
 20
28.567765299479163
 10
302.18723958333328
 20
28.567765299479163
 10
298.93782552083331
 20
28.567765299479163
 10
298.93782552083331
 20
28.567765299479163
 10
298.80002170138886
 20
28.567765299479163
 10
298.68908962673606
 20
28.456833224826386
 10
298.68908962673606
 20
28.318340386284721
 10
298.68908962673606
 20
28.318340386284721
 10
298.68908962673606
 20
25.069615342881942
 10
298.68908962673606
 20
25.069615342881942
 10
298.68908962673606
 20
24.932500542534719
 10
298.80002170138886
 20
24.820190429687496
 10
298.93782552083331
 20
24.820190429687496
 10
298.93782552083331
 20
24.820190429687496
 10
302.18723958333328
 20
24.820190429687496
 10
302.18723958333328
 20
24.820190429687496
 97
        0
 75
     2
 76
     1
 98
        1
 10
0.0
 20
0.0
  0
HATCH
  5
4B0
100
AcDbEntity
  8
レイヤー_1
 62
     7
100
AcDbHatch
 10
0.0
 20
0.0
 30
0.0
210
0.0
220
0.0
230
1.0
  2
SOLID
 70
     1
 71
     0
 91
        1
 92
        1
 93
        1
 72
     4
 94
        3
 73
     0
 74
     0
 95
       29
 96
       25
 40
0.0
 40
0.0
 40
0.0
 40
0.0
 40
1.0
 40
1.0
 40
1.0
 40
2.0
 40
2.0
 40
2.0
 40
3.0
 40
3.0
 40
3.0
 40
4.0
 40
4.0
 40
4.0
 40
5.0
 40
5.0
 40
5.0
 40
6.0
 40
6.0
 40
6.0
 40
7.0
 40
7.0
 40
7.0
 40
8.0
 40
8.0
 40
8.0
 40
8.0
 10
294.68795572916662
 20
17.32090657552083
 10
294.82575954861107
 20
17.32090657552083
 10
294.93669162326387
 20
17.432872178819444
 10
294.93669162326387
 20
17.571020507812499
 10
294.93669162326387
 20
17.571020507812499
 10
294.93669162326387
 20
20.819401041666666
 10
294.93669162326387
 20
20.819401041666666
 10
294.93669162326387
 20
20.956515842013886
 10
294.82575954861107
 20
21.068481445312496
 10
294.68795572916662
 20
21.068481445312496
 10
294.68795572916662
 20
21.068481445312496
 10
291.43923068576385
 20
21.068481445312496
 10
291.43923068576385
 20
21.068481445312496
 10
291.300048828125
 20
21.068481445312496
 10
291.18911675347221
 20
20.956515842013886
 10
291.18911675347221
 20
20.819401041666666
 10
291.18911675347221
 20
20.819401041666666
 10
291.18911675347221
 20
17.571020507812499
 10
291.18911675347221
 20
17.571020507812499
 10
291.18911675347221
 20
17.432872178819444
 10
291.300048828125
 20
17.32090657552083
 10
291.43923068576385
 20
17.32090657552083
 10
291.43923068576385
 20
17.32090657552083
 10
294.68795572916662
 20
17.32090657552083
 10
294.68795572916662
 20
17.32090657552083
 97
        0
 75
     2
 76
     1
 98
        1
 10
0.0
 20
0.0
  0
MTEXT
  5
4AF
100
AcDbEntity
  8
レイヤー_1
 62
     7
100
AcDbMText
 10
347.522629
 20
25.878924
 30
0.0
 40
2.849494
 41
0.0
 71
     1
 72
     2
  1
\fHGPGothicE|b0|i0|c128;\H2.8495;\C7;\U+548C
  7
STD
210
0.0
220
0.0
230
1.0
 73
     1
 44
1.0
  0
MTEXT
  5
4AE
100
AcDbEntity
  8
レイヤー_1
 62
     7
100
AcDbMText
 10
351.352197
 20
25.878924
 30
0.0
 40
2.849494
 41
0.0
 71
     1
 72
     2
  1
\fHGPGothicE|b0|i0|c128;\H2.8495;\C7;\U+6B4C
  7
STD
210
0.0
220
0.0
230
1.0
 73
     1
 44
1.0
  0
MTEXT
  5
4AD
100
AcDbEntity
  8
レイヤー_1
 62
     7
100
AcDbMText
 10
355.18211
 20
25.878924
 30
0.0
 40
2.849494
 41
0.0
 71
     1
 72
     2
  1
\fHGPGothicE|b0|i0|c128;\H2.8495;\C7;\U+5C71
  7
STD
210
0.0
220
0.0
230
1.0
 73
     1
 44
1.0
  0
MTEXT
  5
4AC
100
AcDbEntity
  8
レイヤー_1
 62
     7
100
AcDbMText
 10
359.011678
 20
25.878924
 30
0.0
 40
2.849494
 41
0.0
 71
     1
 72
     2
  1
\fHGPGothicE|b0|i0|c128;\H2.8495;\C7;\U+770C
  7
STD
210
0.0
220
0.0
230
1.0
 73
     1
 44
1.0
  0
MTEXT
  5
4AB
100
AcDbEntity
  8
レイヤー_1
 62
     7
100
AcDbMText
 10
362.841591
 20
25.878924
 30
0.0
 40
2.849494
 41
0.0
 71
     1
 72
     2
  1
\fHGPGothicE|b0|i0|c128;\H2.8495;\C7;\U+6D77
  7
STD
210
0.0
220
0.0
230
1.0
 73
     1
 44
1.0
  0
MTEXT
  5
4AA
100
AcDbEntity
  8
レイヤー_1
 62
     7
100
AcDbMText
 10
366.671159
 20
25.878924
 30
0.0
 40
2.849494
 41
0.0
 71
     1
 72
     2
  1
\fHGPGothicE|b0|i0|c128;\H2.8495;\C7;\U+5357
  7
STD
210
0.0
220
0.0
230
1.0
 73
     1
 44
1.0
  0
MTEXT
  5
4A9
100
AcDbEntity
  8
レイヤー_1
 62
     7
100
AcDbMText
 10
370.501072
 20
25.878924
 30
0.0
 40
2.849494
 41
0.0
 71
     1
 72
     2
  1
\fHGPGothicE|b0|i0|c128;\H2.8495;\C7;\U+5E02
  7
STD
210
0.0
220
0.0
230
1.0
 73
     1
 44
1.0
  0
MTEXT
  5
4A8
100
AcDbEntity
  8
レイヤー_1
 62
     7
100
AcDbMText
 10
374.33064
 20
25.878924
 30
0.0
 40
2.849494
 41
0.0
 71
     1
 72
     2
  1
\fHGPGothicE|b0|i0|c128;\H2.8495;\C7;\U+5357
  7
STD
210
0.0
220
0.0
230
1.0
 73
     1
 44
1.0
  0
MTEXT
  5
4A7
100
AcDbEntity
  8
レイヤー_1
 62
     7
100
AcDbMText
 10
378.160552
 20
25.878924
 30
0.0
 40
2.849494
 41
0.0
 71
     1
 72
     2
  1
\fHGPGothicE|b0|i0|c128;\H2.8495;\C7;\U+8D64
  7
STD
210
0.0
220
0.0
230
1.0
 73
     1
 44
1.0
  0
MTEXT
  5
4A6
100
AcDbEntity
  8
レイヤー_1
 62
     7
100
AcDbMText
 10
381.99012
 20
25.878924
 30
0.0
 40
2.849494
 41
0.0
 71
     1
 72
     2
  1
\fHGPGothicE|b0|i0|c128;\H2.8495;\C7;\U+5742
  7
STD
210
0.0
220
0.0
230
1.0
 73
     1
 44
1.0
  0
MTEXT
  5
4A5
100
AcDbEntity
  8
レイヤー_1
 62
     7
100
AcDbMText
 10
385.820033
 20
25.878924
 30
0.0
 40
2.849494
 41
0.0
 71
     1
 72
     2
  1
\fHGPGothicE|b0|i0|c128;\H2.8495;\C7;\U+FF12
  7
STD
210
0.0
220
0.0
230
1.0
 73
     1
 44
1.0
  0
MTEXT
  5
4A4
100
AcDbEntity
  8
レイヤー_1
 62
     7
100
AcDbMText
 10
388.2881
 20
25.878924
 30
0.0
 40
2.849494
 41
0.0
 71
     1
 72
     2
  1
\fHGPGothicE|b0|i0|c128;\H2.8495;\C7;\U+FF10
  7
STD
210
0.0
220
0.0
230
1.0
 73
     1
 44
1.0
  0
MTEXT
  5
4A3
100
AcDbEntity
  8
レイヤー_1
 62
     7
100
AcDbMText
 10
390.75651
 20
25.878924
 30
0.0
 40
2.849494
 41
0.0
 71
     1
 72
     2
  1
\fHGPGothicE|b0|i0|c128;\H2.8495;\C7;\U+002D
  7
STD
210
0.0
220
0.0
230
1.0
 73
     1
 44
1.0
  0
MTEXT
  5
4A2
100
AcDbEntity
  8
レイヤー_1
 62
     7
100
AcDbMText
 10
392.028095
 20
25.878924
 30
0.0
 40
2.849494
 41
0.0
 71
     1
 72
     2
  1
\fHGPGothicE|b0|i0|c128;\H2.8495;\C7;\U+FF11
  7
STD
210
0.0
220
0.0
230
1.0
 73
     1
 44
1.0
  0
MTEXT
  5
4A1
100
AcDbEntity
  8
レイヤー_1
 62
     7
100
AcDbMText
 10
347.522629
 20
21.343456
 30
0.0
 40
2.849494
 41
0.0
 71
     1
 72
     2
  1
\fHGPGothicE|b0|i0|c128;\H2.8495;\C7;\U+FF34
  7
STD
210
0.0
220
0.0
230
1.0
 73
     1
 44
1.0
  0
MTEXT
  5
4A0
100
AcDbEntity
  8
レイヤー_1
 62
     7
100
AcDbMText
 10
350.260791
 20
21.343456
 30
0.0
 40
2.849494
 41
0.0
 71
     1
 72
     2
  1
\fHGPGothicE|b0|i0|c128;\H2.8495;\C7;\U+FF25
  7
STD
210
0.0
220
0.0
230
1.0
 73
     1
 44
1.0
  0
MTEXT
  5
49F
100
AcDbEntity
  8
レイヤー_1
 62
     7
100
AcDbMText
 10
353.029614
 20
21.343456
 30
0.0
 40
2.849494
 41
0.0
 71
     1
 72
     2
  1
\fHGPGothicE|b0|i0|c128;\H2.8495;\C7;\U+FF2C
  7
STD
210
0.0
220
0.0
230
1.0
 73
     1
 44
1.0
  0
MTEXT
  5
49E
100
AcDbEntity
  8
レイヤー_1
 62
     7
100
AcDbMText
 10
355.634106
 20
21.343456
 30
0.0
 40
2.849494
 41
0.0
 71
     1
 72
     2
  1
\fHGPGothicE|b0|i0|c128;\H2.8495;\C7;\U+002E
  7
STD
210
0.0
220
0.0
230
1.0
 73
     1
 44
1.0
  0
MTEXT
  5
49D
100
AcDbEntity
  8
レイヤー_1
 62
     7
100
AcDbMText
 10
356.488146
 20
21.343456
 30
0.0
 40
2.849494
 41
0.0
 71
     1
 72
     2
  1
\fHGPGothicE|b0|i0|c128;\H2.8495;\C7;\U+0020
  7
STD
210
0.0
220
0.0
230
1.0
 73
     1
 44
1.0
  0
MTEXT
  5
49C
100
AcDbEntity
  8
レイヤー_1
 62
     7
100
AcDbMText
 10
357.759386
 20
21.343456
 30
0.0
 40
2.849494
 41
0.0
 71
     1
 72
     2
  1
\fHGPGothicE|b0|i0|c128;\H2.8495;\C7;\U+0020
  7
STD
210
0.0
220
0.0
230
1.0
 73
     1
 44
1.0
  0
MTEXT
  5
49B
100
AcDbEntity
  8
レイヤー_1
 62
     7
100
AcDbMText
 10
347.522629
 20
16.808332
 30
0.0
 40
2.849494
 41
0.0
 71
     1
 72
     2
  1
\fHGPGothicE|b0|i0|c128;\H2.8495;\C7;\U+FF26
  7
STD
210
0.0
220
0.0
230
1.0
 73
     1
 44
1.0
  0
MTEXT
  5
49A
100
AcDbEntity
  8
レイヤー_1
 62
     7
100
AcDbMText
 10
350.080957
 20
16.808332
 30
0.0
 40
2.849494
 41
0.0
 71
     1
 72
     2
  1
\fHGPGothicE|b0|i0|c128;\H2.8495;\C7;\U+FF21
  7
STD
210
0.0
220
0.0
230
1.0
 73
     1
 44
1.0
  0
MTEXT
  5
499
100
AcDbEntity
  8
レイヤー_1
 62
     7
100
AcDbMText
 10
353.385837
 20
16.808332
 30
0.0
 40
2.849494
 41
0.0
 71
     1
 72
     2
  1
\fHGPGothicE|b0|i0|c128;\H2.8495;\C7;\U+FF38
  7
STD
210
0.0
220
0.0
230
1.0
 73
     1
 44
1.0
  0
MTEXT
  5
498
100
AcDbEntity
  8
レイヤー_1
 62
     7
100
AcDbMText
 10
356.541545
 20
16.808332
 30
0.0
 40
2.849494
 41
0.0
 71
     1
 72
     2
  1
\fHGPGothicE|b0|i0|c128;\H2.8495;\C7;\U+002E
  7
STD
210
0.0
220
0.0
230
1.0
 73
     1
 44
1.0
  0
MTEXT
  5
497
100
AcDbEntity
  8
レイヤー_1
 62
     7
100
AcDbMText
 10
357.395584
 20
16.808332
 30
0.0
 40
2.849494
 41
0.0
 71
     1
 72
     2
  1
\fHGPGothicE|b0|i0|c128;\H2.8495;\C7;\U+0020
  7
STD
210
0.0
220
0.0
230
1.0
 73
     1
 44
1.0
  0
MTEXT
  5
496
100
AcDbEntity
  8
レイヤー_1
 62
     7
100
AcDbMText
 10
361.094238
 20
20.869755
 30
0.0
 40
2.849494
 41
0.0
 71
     1
 72
     2
  1
\fHGPGothicE|b0|i0|c128;\H2.8495;\C7;\U+FF10
  7
STD
210
0.0
220
0.0
230
1.0
 73
     1
 44
1.0
  0
MTEXT
  5
495
100
AcDbEntity
  8
レイヤー_1
 62
     7
100
AcDbMText
 10
363.673581
 20
20.869755
 30
0.0
 40
2.849494
 41
0.0
 71
     1
 72
     2
  1
\fHGPGothicE|b0|i0|c128;\H2.8495;\C7;\U+FF17
  7
STD
210
0.0
220
0.0
230
1.0
 73
     1
 44
1.0
  0
MTEXT
  5
494
100
AcDbEntity
  8
レイヤー_1
 62
     7
100
AcDbMText
 10
366.254647
 20
20.869755
 30
0.0
 40
2.849494
 41
0.0
 71
     1
 72
     2
  1
\fHGPGothicE|b0|i0|c128;\H2.8495;\C7;\U+FF13
  7
STD
210
0.0
220
0.0
230
1.0
 73
     1
 44
1.0
  0
MTEXT
  5
493
100
AcDbEntity
  8
レイヤー_1
 62
     7
100
AcDbMText
 10
368.832612
 20
20.869755
 30
0.0
 40
2.849494
 41
0.0
 71
     1
 72
     2
  1
\fHGPGothicE|b0|i0|c128;\H2.8495;\C7;\U+002D
  7
STD
210
0.0
220
0.0
230
1.0
 73
     1
 44
1.0
  0
MTEXT
  5
492
100
AcDbEntity
  8
レイヤー_1
 62
     7
100
AcDbMText
 10
370.215129
 20
20.869755
 30
0.0
 40
2.849494
 41
0.0
 71
     1
 72
     2
  1
\fHGPGothicE|b0|i0|c128;\H2.8495;\C7;\U+FF14
  7
STD
210
0.0
220
0.0
230
1.0
 73
     1
 44
1.0
  0
MTEXT
  5
491
100
AcDbEntity
  8
レイヤー_1
 62
     7
100
AcDbMText
 10
372.794472
 20
20.869755
 30
0.0
 40
2.849494
 41
0.0
 71
     1
 72
     2
  1
\fHGPGothicE|b0|i0|c128;\H2.8495;\C7;\U+FF18
  7
STD
210
0.0
220
0.0
230
1.0
 73
     1
 44
1.0
  0
MTEXT
  5
490
100
AcDbEntity
  8
レイヤー_1
 62
     7
100
AcDbMText
 10
375.375882
 20
20.869755
 30
0.0
 40
2.849494
 41
0.0
 71
     1
 72
     2
  1
\fHGPGothicE|b0|i0|c128;\H2.8495;\C7;\U+FF12
  7
STD
210
0.0
220
0.0
230
1.0
 73
     1
 44
1.0
  0
MTEXT
  5
48F
100
AcDbEntity
  8
レイヤー_1
 62
     7
100
AcDbMText
 10
377.953502
 20
20.869755
 30
0.0
 40
2.849494
 41
0.0
 71
     1
 72
     2
  1
\fHGPGothicE|b0|i0|c128;\H2.8495;\C7;\U+002D
  7
STD
210
0.0
220
0.0
230
1.0
 73
     1
 44
1.0
  0
MTEXT
  5
48E
100
AcDbEntity
  8
レイヤー_1
 62
     7
100
AcDbMText
 10
379.336019
 20
20.869755
 30
0.0
 40
2.849494
 41
0.0
 71
     1
 72
     2
  1
\fHGPGothicE|b0|i0|c128;\H2.8495;\C7;\U+FF14
  7
STD
210
0.0
220
0.0
230
1.0
 73
     1
 44
1.0
  0
MTEXT
  5
48D
100
AcDbEntity
  8
レイヤー_1
 62
     7
100
AcDbMText
 10
381.917429
 20
20.869755
 30
0.0
 40
2.849494
 41
0.0
 71
     1
 72
     2
  1
\fHGPGothicE|b0|i0|c128;\H2.8495;\C7;\U+FF11
  7
STD
210
0.0
220
0.0
230
1.0
 73
     1
 44
1.0
  0
MTEXT
  5
48C
100
AcDbEntity
  8
レイヤー_1
 62
     7
100
AcDbMText
 10
384.495049
 20
20.869755
 30
0.0
 40
2.849494
 41
0.0
 71
     1
 72
     2
  1
\fHGPGothicE|b0|i0|c128;\H2.8495;\C7;\U+FF12
  7
STD
210
0.0
220
0.0
230
1.0
 73
     1
 44
1.0
  0
MTEXT
  5
48B
100
AcDbEntity
  8
レイヤー_1
 62
     7
100
AcDbMText
 10
387.074392
 20
20.869755
 30
0.0
 40
2.849494
 41
0.0
 71
     1
 72
     2
  1
\fHGPGothicE|b0|i0|c128;\H2.8495;\C7;\U+FF18
  7
STD
210
0.0
220
0.0
230
1.0
 73
     1
 44
1.0
  0
MTEXT
  5
48A
100
AcDbEntity
  8
レイヤー_1
 62
     7
100
AcDbMText
 10
389.653735
 20
20.869755
 30
0.0
 40
2.849494
 41
0.0
 71
     1
 72
     2
  1
\fHGPGothicE|b0|i0|c128;\H2.8495;\C7;\U+FF08
  7
STD
210
0.0
220
0.0
230
1.0
 73
     1
 44
1.0
  0
MTEXT
  5
489
100
AcDbEntity
  8
レイヤー_1
 62
     7
100
AcDbMText
 10
391.679796
 20
20.869755
 30
0.0
 40
2.849494
 41
0.0
 71
     1
 72
     2
  1
\fHGPGothicE|b0|i0|c128;\H2.8495;\C7;\U+4EE3
  7
STD
210
0.0
220
0.0
230
1.0
 73
     1
 44
1.0
  0
MTEXT
  5
488
100
AcDbEntity
  8
レイヤー_1
 62
     7
100
AcDbMText
 10
395.620641
 20
20.869755
 30
0.0
 40
2.849494
 41
0.0
 71
     1
 72
     2
  1
\fHGPGothicE|b0|i0|c128;\H2.8495;\C7;\U+FF09
  7
STD
210
0.0
220
0.0
230
1.0
 73
     1
 44
1.0
  0
MTEXT
  5
487
100
AcDbEntity
  8
レイヤー_1
 62
     7
100
AcDbMText
 10
361.094238
 20
16.334631
 30
0.0
 40
2.849494
 41
0.0
 71
     1
 72
     2
  1
\fHGPGothicE|b0|i0|c128;\H2.8495;\C7;\U+FF10
  7
STD
210
0.0
220
0.0
230
1.0
 73
     1
 44
1.0
  0
MTEXT
  5
486
100
AcDbEntity
  8
レイヤー_1
 62
     7
100
AcDbMText
 10
363.673581
 20
16.334631
 30
0.0
 40
2.849494
 41
0.0
 71
     1
 72
     2
  1
\fHGPGothicE|b0|i0|c128;\H2.8495;\C7;\U+FF17
  7
STD
210
0.0
220
0.0
230
1.0
 73
     1
 44
1.0
  0
MTEXT
  5
485
100
AcDbEntity
  8
レイヤー_1
 62
     7
100
AcDbMText
 10
366.254647
 20
16.334631
 30
0.0
 40
2.849494
 41
0.0
 71
     1
 72
     2
  1
\fHGPGothicE|b0|i0|c128;\H2.8495;\C7;\U+FF13
  7
STD
210
0.0
220
0.0
230
1.0
 73
     1
 44
1.0
  0
MTEXT
  5
484
100
AcDbEntity
  8
レイヤー_1
 62
     7
100
AcDbMText
 10
368.832612
 20
16.334631
 30
0.0
 40
2.849494
 41
0.0
 71
     1
 72
     2
  1
\fHGPGothicE|b0|i0|c128;\H2.8495;\C7;\U+002D
  7
STD
210
0.0
220
0.0
230
1.0
 73
     1
 44
1.0
  0
MTEXT
  5
483
100
AcDbEntity
  8
レイヤー_1
 62
     7
100
AcDbMText
 10
370.215129
 20
16.334631
 30
0.0
 40
2.849494
 41
0.0
 71
     1
 72
     2
  1
\fHGPGothicE|b0|i0|c128;\H2.8495;\C7;\U+FF14
  7
STD
210
0.0
220
0.0
230
1.0
 73
     1
 44
1.0
  0
MTEXT
  5
482
100
AcDbEntity
  8
レイヤー_1
 62
     7
100
AcDbMText
 10
372.794472
 20
16.334631
 30
0.0
 40
2.849494
 41
0.0
 71
     1
 72
     2
  1
\fHGPGothicE|b0|i0|c128;\H2.8495;\C7;\U+FF18
  7
STD
210
0.0
220
0.0
230
1.0
 73
     1
 44
1.0
  0
MTEXT
  5
481
100
AcDbEntity
  8
レイヤー_1
 62
     7
100
AcDbMText
 10
375.375882
 20
16.334631
 30
0.0
 40
2.849494
 41
0.0
 71
     1
 72
     2
  1
\fHGPGothicE|b0|i0|c128;\H2.8495;\C7;\U+FF16
  7
STD
210
0.0
220
0.0
230
1.0
 73
     1
 44
1.0
  0
MTEXT
  5
480
100
AcDbEntity
  8
レイヤー_1
 62
     7
100
AcDbMText
 10
377.953502
 20
16.334631
 30
0.0
 40
2.849494
 41
0.0
 71
     1
 72
     2
  1
\fHGPGothicE|b0|i0|c128;\H2.8495;\C7;\U+002D
  7
STD
210
0.0
220
0.0
230
1.0
 73
     1
 44
1.0
  0
MTEXT
  5
47F
100
AcDbEntity
  8
レイヤー_1
 62
     7
100
AcDbMText
 10
379.336019
 20
16.334631
 30
0.0
 40
2.849494
 41
0.0
 71
     1
 72
     2
  1
\fHGPGothicE|b0|i0|c128;\H2.8495;\C7;\U+FF12
  7
STD
210
0.0
220
0.0
230
1.0
 73
     1
 44
1.0
  0
MTEXT
  5
47E
100
AcDbEntity
  8
レイヤー_1
 62
     7
100
AcDbMText
 10
381.917429
 20
16.334631
 30
0.0
 40
2.849494
 41
0.0
 71
     1
 72
     2
  1
\fHGPGothicE|b0|i0|c128;\H2.8495;\C7;\U+FF15
  7
STD
210
0.0
220
0.0
230
1.0
 73
     1
 44
1.0
  0
MTEXT
  5
47D
100
AcDbEntity
  8
レイヤー_1
 62
     7
100
AcDbMText
 10
384.495049
 20
16.334631
 30
0.0
 40
2.849494
 41
0.0
 71
     1
 72
     2
  1
\fHGPGothicE|b0|i0|c128;\H2.8495;\C7;\U+FF16
  7
STD
210
0.0
220
0.0
230
1.0
 73
     1
 44
1.0
  0
MTEXT
  5
47C
100
AcDbEntity
  8
レイヤー_1
 62
     7
100
AcDbMText
 10
387.074392
 20
16.334631
 30
0.0
 40
2.849494
 41
0.0
 71
     1
 72
     2
  1
\fHGPGothicE|b0|i0|c128;\H2.8495;\C7;\U+FF10
  7
STD
210
0.0
220
0.0
230
1.0
 73
     1
 44
1.0
  0
MTEXT
  5
47B
100
AcDbEntity
  8
レイヤー_1
 62
     7
100
AcDbMText
 10
389.653735
 20
16.334631
 30
0.0
 40
2.849494
 41
0.0
 71
     1
 72
     2
  1
\fHGPGothicE|b0|i0|c128;\H2.8495;\C7;\U+FF08
  7
STD
210
0.0
220
0.0
230
1.0
 73
     1
 44
1.0
  0
MTEXT
  5
47A
100
AcDbEntity
  8
レイヤー_1
 62
     7
100
AcDbMText
 10
391.679796
 20
16.334631
 30
0.0
 40
2.849494
 41
0.0
 71
     1
 72
     2
  1
\fHGPGothicE|b0|i0|c128;\H2.8495;\C7;\U+4EE3
  7
STD
210
0.0
220
0.0
230
1.0
 73
     1
 44
1.0
  0
MTEXT
  5
479
100
AcDbEntity
  8
レイヤー_1
 62
     7
100
AcDbMText
 10
395.620641
 20
16.334631
 30
0.0
 40
2.849494
 41
0.0
 71
     1
 72
     2
  1
\fHGPGothicE|b0|i0|c128;\H2.8495;\C7;\U+FF09
  7
STD
210
0.0
220
0.0
230
1.0
 73
     1
 44
1.0
  0
HATCH
  5
478
100
AcDbEntity
  8
レイヤー_1
 62
     7
100
AcDbHatch
 10
0.0
 20
0.0
 30
0.0
210
0.0
220
0.0
230
1.0
  2
SOLID
 70
     1
 71
     0
 91
        3
 92
        1
 93
        1
 72
     4
 94
        3
 73
     0
 74
     0
 95
       23
 96
       19
 40
0.0
 40
0.0
 40
0.0
 40
0.0
 40
1.0
 40
1.0
 40
1.0
 40
2.0
 40
2.0
 40
2.0
 40
3.0
 40
3.0
 40
3.0
 40
4.0
 40
4.0
 40
4.0
 40
5.0
 40
5.0
 40
5.0
 40
6.0
 40
6.0
 40
6.0
 40
6.0
 10
349.74264865451386
 20
30.684087456597219
 10
349.74264865451386
 20
30.684087456597219
 10
349.74264865451386
 20
29.858642578124996
 10
349.74264865451386
 20
29.858642578124996
 10
349.64205186631943
 20
29.988867187499999
 10
349.33268229166663
 20
30.39883355034722
 10
349.17834201388888
 20
30.778483072916664
 10
349.17834201388888
 20
30.778483072916664
 10
349.17834201388888
 20
31.039621310763884
 10
349.17834201388888
 20
31.039621310763884
 10
349.17834201388888
 20
31.039621310763884
 10
349.72404513888887
 20
31.039621310763884
 10
349.72404513888887
 20
31.039621310763884
 10
349.72404513888887
 20
31.039621310763884
 10
350.18155381944439
 20
30.684087456597219
 10
350.18155381944439
 20
30.684087456597219
 10
350.18155381944439
 20
30.684087456597219
 10
349.74264865451386
 20
30.684087456597219
 10
349.74264865451386
 20
30.684087456597219
 97
        0
 92
       16
 93
        1
 72
     4
 94
        3
 73
     0
 74
     0
 95
      128
 96
      124
 40
0.0
 40
0.0
 40
0.0
 40
0.0
 40
1.0
 40
1.0
 40
1.0
 40
2.0
 40
2.0
 40
2.0
 40
3.0
 40
3.0
 40
3.0
 40
4.0
 40
4.0
 40
4.0
 40
5.0
 40
5.0
 40
5.0
 40
6.0
 40
6.0
 40
6.0
 40
7.0
 40
7.0
 40
7.0
 40
8.0
 40
8.0
 40
8.0
 40
9.0
 40
9.0
 40
9.0
 40
10.0
 40
10.0
 40
10.0
 40
11.0
 40
11.0
 40
11.0
 40
12.0
 40
12.0
 40
12.0
 40
13.0
 40
13.0
 40
13.0
 40
14.0
 40
14.0
 40
14.0
 40
15.0
 40
15.0
 40
15.0
 40
16.0
 40
16.0
 40
16.0
 40
17.0
 40
17.0
 40
17.0
 40
18.0
 40
18.0
 40
18.0
 40
19.0
 40
19.0
 40
19.0
 40
20.0
 40
20.0
 40
20.0
 40
21.0
 40
21.0
 40
21.0
 40
22.0
 40
22.0
 40
22.0
 40
23.0
 40
23.0
 40
23.0
 40
24.0
 40
24.0
 40
24.0
 40
25.0
 40
25.0
 40
25.0
 40
26.0
 40
26.0
 40
26.0
 40
27.0
 40
27.0
 40
27.0
 40
28.0
 40
28.0
 40
28.0
 40
29.0
 40
29.0
 40
29.0
 40
30.0
 40
30.0
 40
30.0
 40
31.0
 40
31.0
 40
31.0
 40
32.0
 40
32.0
 40
32.0
 40
33.0
 40
33.0
 40
33.0
 40
34.0
 40
34.0
 40
34.0
 40
35.0
 40
35.0
 40
35.0
 40
36.0
 40
36.0
 40
36.0
 40
37.0
 40
37.0
 40
37.0
 40
38.0
 40
38.0
 40
38.0
 40
39.0
 40
39.0
 40
39.0
 40
40.0
 40
40.0
 40
40.0
 40
41.0
 40
41.0
 40
41.0
 40
41.0
 10
350.80442708333328
 20
32.090375434027777
 10
350.86506076388883
 20
32.357714843749996
 10
350.89399956597219
 20
32.505164930555551
 10
350.92362738715275
 20
32.654682074652776
 10
350.92362738715275
 20
32.654682074652776
 10
350.12229817708328
 20
32.725651041666666
 10
350.12229817708328
 20
32.725651041666666
 10
350.03961588541665
 20
32.113802083333333
 10
349.8549587673611
 20
31.704524739583331
 10
349.74264865451386
 20
31.490239800347219
 10
349.74264865451386
 20
31.490239800347219
 10
349.74264865451386
 20
31.858865017361108
 10
349.74264865451386
 20
31.858865017361108
 10
349.74264865451386
 20
31.858865017361108
 10
349.17834201388888
 20
31.858865017361108
 10
349.17834201388888
 20
31.858865017361108
 10
349.17834201388888
 20
31.858865017361108
 10
349.17834201388888
 20
32.837961154513884
 10
349.17834201388888
 20
32.837961154513884
 10
349.17834201388888
 20
32.837961154513884
 10
348.35978732638887
 20
32.837961154513884
 10
348.35978732638887
 20
32.837961154513884
 10
348.35978732638887
 20
32.837961154513884
 10
348.35978732638887
 20
31.858865017361108
 10
348.35978732638887
 20
31.858865017361108
 10
348.35978732638887
 20
31.858865017361108
 10
347.63493923611105
 20
31.858865017361108
 10
347.63493923611105
 20
31.858865017361108
 10
347.63493923611105
 20
31.858865017361108
 10
347.63493923611105
 20
31.039621310763884
 10
347.63493923611105
 20
31.039621310763884
 10
347.63493923611105
 20
31.039621310763884
 10
348.29433051215273
 20
31.039621310763884
 10
348.29433051215273
 20
31.039621310763884
 10
348.02699110243054
 20
30.108067491319442
 10
347.76585286458328
 20
29.71670464409722
 10
347.52262912326387
 20
29.413536241319441
 10
347.52262912326387
 20
29.413536241319441
 10
347.80168185763887
 20
28.244959852430554
 10
347.80168185763887
 20
28.244959852430554
 10
347.94430881076386
 20
28.451665581597219
 10
348.1634168836805
 20
28.789973958333331
 10
348.35978732638887
 20
29.466590711805551
 10
348.35978732638887
 20
29.466590711805551
 10
348.35978732638887
 20
27.216943359374998
 10
348.35978732638887
 20
27.216943359374998
 10
348.35978732638887
 20
27.216943359374998
 10
349.17834201388888
 20
27.216943359374998
 10
349.17834201388888
 20
27.216943359374998
 10
349.17834201388888
 20
27.216943359374998
 10
349.17834201388888
 20
29.692588975694441
 10
349.17834201388888
 20
29.692588975694441
 10
349.23759765624999
 20
29.450054253472221
 10
349.26791449652774
 20
29.324652777777775
 10
349.51665039062499
 20
28.861631944444444
 10
349.51665039062499
 20
28.861631944444444
 10
350.02790256076383
 20
29.538248697916664
 10
350.02790256076383
 20
29.538248697916664
 10
349.93833007812498
 20
29.620930989583332
 10
349.87356228298609
 20
29.687076822916666
 10
349.75436197916662
 20
29.834526909722218
 10
349.75436197916662
 20
29.834526909722218
 10
350.80442708333328
 20
29.834526909722218
 10
350.80442708333328
 20
29.834526909722218
 10
350.31866861979165
 20
28.949826388888887
 10
349.7130208333333
 20
28.540549045138885
 10
349.46910807291664
 20
28.386208767361108
 10
349.46910807291664
 20
28.386208767361108
 10
349.99138454861105
 20
27.549739583333331
 10
349.99138454861105
 20
27.549739583333331
 10
350.46611870659717
 20
27.983132595486108
 10
350.84094509548606
 20
28.487494574652775
 10
351.11310763888883
 20
29.075227864583329
 10
351.11310763888883
 20
29.075227864583329
 10
351.11310763888883
 20
27.216943359374998
 10
351.11310763888883
 20
27.216943359374998
 10
351.11310763888883
 20
27.216943359374998
 10
351.96197916666665
 20
27.216943359374998
 10
351.96197916666665
 20
27.216943359374998
 10
351.96197916666665
 20
27.216943359374998
 10
351.96197916666665
 20
28.939491102430551
 10
351.96197916666665
 20
28.939491102430551
 10
352.2114040798611
 20
28.411013454861109
 10
352.5504014756944
 20
27.923187934027776
 10
353.01342230902776
 20
27.560763888888886
 10
353.01342230902776
 20
27.560763888888886
 10
353.36275499131943
 20
28.564664713541664
 10
353.36275499131943
 20
28.564664713541664
 10
353.10161675347217
 20
28.742431640624996
 10
352.63859592013887
 20
29.075227864583329
 10
352.20589192708331
 20
29.834526909722218
 10
352.20589192708331
 20
29.834526909722218
 10
353.25595703124998
 20
29.834526909722218
 10
353.25595703124998
 20
29.834526909722218
 10
353.25595703124998
 20
29.834526909722218
 10
353.25595703124998
 20
30.684087456597219
 10
353.25595703124998
 20
30.684087456597219
 10
353.25595703124998
 20
30.684087456597219
 10
351.96197916666665
 20
30.684087456597219
 10
351.96197916666665
 20
30.684087456597219
 10
351.96197916666665
 20
30.684087456597219
 10
351.96197916666665
 20
31.247705078124998
 10
351.96197916666665
 20
31.247705078124998
 10
351.96197916666665
 20
31.247705078124998
 10
353.16707356770831
 20
31.247705078124998
 10
353.16707356770831
 20
31.247705078124998
 10
353.16707356770831
 20
31.247705078124998
 10
353.16707356770831
 20
32.090375434027777
 10
353.16707356770831
 20
32.090375434027777
 10
353.16707356770831
 20
32.090375434027777
 10
351.96197916666665
 20
32.090375434027777
 10
351.96197916666665
 20
32.090375434027777
 10
351.96197916666665
 20
32.090375434027777
 10
351.96197916666665
 20
32.837961154513884
 10
351.96197916666665
 20
32.837961154513884
 10
351.96197916666665
 20
32.837961154513884
 10
351.11310763888883
 20
32.837961154513884
 10
351.11310763888883
 20
32.837961154513884
 10
351.11310763888883
 20
32.837961154513884
 10
351.11310763888883
 20
32.090375434027777
 10
351.11310763888883
 20
32.090375434027777
 10
351.11310763888883
 20
32.090375434027777
 10
350.80442708333328
 20
32.090375434027777
 10
350.80442708333328
 20
32.090375434027777
 97
        0
 92
        1
 93
        1
 72
     4
 94
        3
 73
     0
 74
     0
 95
       17
 96
       13
 40
0.0
 40
0.0
 40
0.0
 40
0.0
 40
1.0
 40
1.0
 40
1.0
 40
2.0
 40
2.0
 40
2.0
 40
3.0
 40
3.0
 40
3.0
 40
4.0
 40
4.0
 40
4.0
 40
4.0
 10
350.25252278645831
 20
30.684087456597219
 10
350.34209526909717
 20
30.814312065972221
 10
350.44889322916663
 20
31.004481336805554
 10
350.5501790364583
 20
31.247705078124998
 10
350.5501790364583
 20
31.247705078124998
 10
351.11310763888883
 20
31.247705078124998
 10
351.11310763888883
 20
31.247705078124998
 10
351.11310763888883
 20
31.247705078124998
 10
351.11310763888883
 20
30.684087456597219
 10
351.11310763888883
 20
30.684087456597219
 10
351.11310763888883
 20
30.684087456597219
 10
350.25252278645831
 20
30.684087456597219
 10
350.25252278645831
 20
30.684087456597219
 97
        0
 75
     2
 76
     1
 98
        1
 10
0.0
 20
0.0
  0
HATCH
  5
477
100
AcDbEntity
  8
レイヤー_1
 62
     7
100
AcDbHatch
 10
0.0
 20
0.0
 30
0.0
210
0.0
220
0.0
230
1.0
  2
SOLID
 70
     1
 71
     0
 91
        2
 92
        1
 93
        1
 72
     4
 94
        3
 73
     0
 74
     0
 95
       71
 96
       67
 40
0.0
 40
0.0
 40
0.0
 40
0.0
 40
1.0
 40
1.0
 40
1.0
 40
2.0
 40
2.0
 40
2.0
 40
3.0
 40
3.0
 40
3.0
 40
4.0
 40
4.0
 40
4.0
 40
5.0
 40
5.0
 40
5.0
 40
6.0
 40
6.0
 40
6.0
 40
7.0
 40
7.0
 40
7.0
 40
8.0
 40
8.0
 40
8.0
 40
9.0
 40
9.0
 40
9.0
 40
10.0
 40
10.0
 40
10.0
 40
11.0
 40
11.0
 40
11.0
 40
12.0
 40
12.0
 40
12.0
 40
13.0
 40
13.0
 40
13.0
 40
14.0
 40
14.0
 40
14.0
 40
15.0
 40
15.0
 40
15.0
 40
16.0
 40
16.0
 40
16.0
 40
17.0
 40
17.0
 40
17.0
 40
18.0
 40
18.0
 40
18.0
 40
19.0
 40
19.0
 40
19.0
 40
20.0
 40
20.0
 40
20.0
 40
21.0
 40
21.0
 40
21.0
 40
22.0
 40
22.0
 40
22.0
 40
22.0
 10
358.62823893229165
 20
32.025607638888886
 10
358.62823893229165
 20
32.025607638888886
 10
359.1856553819444
 20
32.025607638888886
 10
359.1856553819444
 20
32.025607638888886
 10
359.1856553819444
 20
32.025607638888886
 10
359.1856553819444
 20
31.164333767361107
 10
359.1856553819444
 20
31.164333767361107
 10
359.1856553819444
 20
31.164333767361107
 10
357.53545464409717
 20
31.164333767361107
 10
357.53545464409717
 20
31.164333767361107
 10
357.57197265624995
 20
30.416059027777774
 10
357.65465494791664
 20
29.668473307291663
 10
357.89167751736107
 20
28.956716579861109
 10
357.95162217881943
 20
28.778949652777776
 10
358.11078559027777
 20
28.357269965277776
 10
358.28372938368051
 20
28.357269965277776
 10
358.44978298611107
 20
28.357269965277776
 10
358.76948784722219
 20
28.766547309027775
 10
358.90729166666665
 20
29.164111328124996
 10
358.90729166666665
 20
29.164111328124996
 10
359.28694118923607
 20
28.214643012152774
 10
359.28694118923607
 20
28.214643012152774
 10
359.16222873263888
 20
27.870133463541663
 10
358.85906032986105
 20
27.205919053819443
 10
358.30784505208328
 20
27.205919053819443
 10
358.02879231770828
 20
27.205919053819443
 10
357.7435384114583
 20
27.359570312499997
 10
357.58299696180552
 20
27.538715277777776
 10
356.72241210937494
 20
28.487494574652775
 10
356.66315646701383
 20
30.209353298611109
 10
356.6280164930555
 20
31.164333767361107
 10
356.6280164930555
 20
31.164333767361107
 10
353.5887532552083
 20
31.164333767361107
 10
353.5887532552083
 20
31.164333767361107
 10
353.5887532552083
 20
31.164333767361107
 10
353.5887532552083
 20
32.025607638888886
 10
353.5887532552083
 20
32.025607638888886
 10
353.5887532552083
 20
32.025607638888886
 10
356.59838867187494
 20
32.025607638888886
 10
356.59838867187494
 20
32.025607638888886
 10
356.59218749999997
 20
32.113802083333333
 10
356.58047417534721
 20
32.547884114583333
 10
356.57427300347217
 20
32.642279730902771
 10
356.57427300347217
 20
32.696023220486111
 10
356.57427300347217
 20
32.742876519097216
 10
356.56807183159719
 20
32.849674479166666
 10
356.56807183159719
 20
32.849674479166666
 10
357.51822916666663
 20
32.849674479166666
 10
357.51822916666663
 20
32.849674479166666
 10
357.51202799479165
 20
32.381830512152774
 10
357.51202799479165
 20
32.244715711805554
 10
357.51822916666663
 20
32.025607638888886
 10
357.51822916666663
 20
32.025607638888886
 10
358.09976128472221
 20
32.025607638888886
 10
358.09976128472221
 20
32.025607638888886
 10
357.9454210069444
 20
32.250916883680553
 10
357.81450737847217
 20
32.441086154513883
 10
357.6663682725694
 20
32.576822916666664
 10
357.6663682725694
 20
32.576822916666664
 10
358.43255750868053
 20
32.886192491319441
 10
358.43255750868053
 20
32.886192491319441
 10
358.52075195312494
 20
32.820046657986111
 10
358.59792209201385
 20
32.766303168402771
 10
359.00857747395833
 20
32.191661241319444
 10
359.00857747395833
 20
32.191661241319444
 10
358.62823893229165
 20
32.025607638888886
 10
358.62823893229165
 20
32.025607638888886
 97
        0
 92
        1
 93
        1
 72
     4
 94
        3
 73
     0
 74
     0
 95
       44
 96
       40
 40
0.0
 40
0.0
 40
0.0
 40
0.0
 40
1.0
 40
1.0
 40
1.0
 40
2.0
 40
2.0
 40
2.0
 40
3.0
 40
3.0
 40
3.0
 40
4.0
 40
4.0
 40
4.0
 40
5.0
 40
5.0
 40
5.0
 40
6.0
 40
6.0
 40
6.0
 40
7.0
 40
7.0
 40
7.0
 40
8.0
 40
8.0
 40
8.0
 40
9.0
 40
9.0
 40
9.0
 40
10.0
 40
10.0
 40
10.0
 40
11.0
 40
11.0
 40
11.0
 40
12.0
 40
12.0
 40
12.0
 40
13.0
 40
13.0
 40
13.0
 40
13.0
 10
353.53569878472217
 20
28.279410807291665
 10
353.64800889756941
 20
28.285611979166664
 10
353.70726453993052
 20
28.285611979166664
 10
353.78443467881942
 20
28.291813151041666
 10
353.90914713541662
 20
28.298014322916664
 10
354.50859374999999
 20
28.351068793402774
 10
354.64570855034719
 20
28.357269965277776
 10
354.64570855034719
 20
28.357269965277776
 10
354.64570855034719
 20
29.786984592013887
 10
354.64570855034719
 20
29.786984592013887
 10
354.64570855034719
 20
29.786984592013887
 10
353.70106336805554
 20
29.786984592013887
 10
353.70106336805554
 20
29.786984592013887
 10
353.70106336805554
 20
29.786984592013887
 10
353.70106336805554
 20
30.647569444444443
 10
353.70106336805554
 20
30.647569444444443
 10
353.70106336805554
 20
30.647569444444443
 10
356.47918836805553
 20
30.647569444444443
 10
356.47918836805553
 20
30.647569444444443
 10
356.47918836805553
 20
30.647569444444443
 10
356.47918836805553
 20
29.786984592013887
 10
356.47918836805553
 20
29.786984592013887
 10
356.47918836805553
 20
29.786984592013887
 10
355.55314670138887
 20
29.786984592013887
 10
355.55314670138887
 20
29.786984592013887
 10
355.55314670138887
 20
29.786984592013887
 10
355.55314670138887
 20
28.434440104166665
 10
355.55314670138887
 20
28.434440104166665
 10
356.22356228298605
 20
28.499207899305553
 10
356.46747504340277
 20
28.546750217013887
 10
356.68727213541661
 20
28.588091362847219
 10
356.68727213541661
 20
28.588091362847219
 10
356.69829644097217
 20
27.745421006944444
 10
356.69829644097217
 20
27.745421006944444
 10
356.02236870659721
 20
27.602794053819441
 10
355.64823133680551
 20
27.560763888888886
 10
353.63629557291665
 20
27.347856987847219
 10
353.63629557291665
 20
27.347856987847219
 10
353.53569878472217
 20
28.279410807291665
 10
353.53569878472217
 20
28.279410807291665
 97
        0
 75
     2
 76
     1
 98
        1
 10
0.0
 20
0.0
  0
HATCH
  5
476
100
AcDbEntity
  8
レイヤー_1
 62
     7
100
AcDbHatch
 10
0.0
 20
0.0
 30
0.0
210
0.0
220
0.0
230
1.0
  2
SOLID
 70
     1
 71
     0
 91
        4
 92
        1
 93
        1
 72
     4
 94
        3
 73
     0
 74
     0
 95
       23
 96
       19
 40
0.0
 40
0.0
 40
0.0
 40
0.0
 40
1.0
 40
1.0
 40
1.0
 40
2.0
 40
2.0
 40
2.0
 40
3.0
 40
3.0
 40
3.0
 40
4.0
 40
4.0
 40
4.0
 40
5.0
 40
5.0
 40
5.0
 40
6.0
 40
6.0
 40
6.0
 40
6.0
 10
362.92496202256939
 20
28.933289930555553
 10
363.06758897569443
 20
28.760346137152776
 10
363.17507595486109
 20
28.630121527777774
 10
363.41209852430552
 20
28.315239800347218
 10
363.22124023437499
 20
28.309727647569442
 10
362.28486328124995
 20
28.267697482638887
 10
362.07609049479163
 20
28.255984157986109
 10
361.96998155381942
 20
28.25047200520833
 10
361.92243923611107
 20
28.25047200520833
 10
361.49455837673605
 20
28.25047200520833
 10
361.67232530381943
 20
28.606005859374996
 10
361.79152560763885
 20
28.874034288194441
 10
361.95757921006941
 20
29.26470811631944
 10
361.95757921006941
 20
29.26470811631944
 10
363.62569444444443
 20
29.26470811631944
 10
363.62569444444443
 20
29.26470811631944
 10
363.62569444444443
 20
29.26470811631944
 10
362.92496202256939
 20
28.933289930555553
 10
362.92496202256939
 20
28.933289930555553
 97
        0
 92
       16
 93
        1
 72
     4
 94
        3
 73
     0
 74
     0
 95
       44
 96
       40
 40
0.0
 40
0.0
 40
0.0
 40
0.0
 40
1.0
 40
1.0
 40
1.0
 40
2.0
 40
2.0
 40
2.0
 40
3.0
 40
3.0
 40
3.0
 40
4.0
 40
4.0
 40
4.0
 40
5.0
 40
5.0
 40
5.0
 40
6.0
 40
6.0
 40
6.0
 40
7.0
 40
7.0
 40
7.0
 40
8.0
 40
8.0
 40
8.0
 40
9.0
 40
9.0
 40
9.0
 40
10.0
 40
10.0
 40
10.0
 40
11.0
 40
11.0
 40
11.0
 40
12.0
 40
12.0
 40
12.0
 40
13.0
 40
13.0
 40
13.0
 40
13.0
 10
365.0147569444444
 20
27.614507378472219
 10
364.6585340711805
 20
28.178814019097221
 10
364.28439670138886
 20
28.707291666666663
 10
363.76763237847217
 20
29.26470811631944
 10
363.76763237847217
 20
29.26470811631944
 10
364.99615342881941
 20
29.26470811631944
 10
364.99615342881941
 20
29.26470811631944
 10
364.99615342881941
 20
29.26470811631944
 10
364.99615342881941
 20
30.11978081597222
 10
364.99615342881941
 20
30.11978081597222
 10
364.99615342881941
 20
30.11978081597222
 10
359.64316406249998
 20
30.11978081597222
 10
359.64316406249998
 20
30.11978081597222
 10
359.64316406249998
 20
30.11978081597222
 10
359.64316406249998
 20
29.26470811631944
 10
359.64316406249998
 20
29.26470811631944
 10
359.64316406249998
 20
29.26470811631944
 10
360.96608072916661
 20
29.26470811631944
 10
360.96608072916661
 20
29.26470811631944
 10
360.84205729166661
 20
28.87954644097222
 10
360.7049424913194
 20
28.559152560763888
 10
360.55749240451388
 20
28.244959852430554
 10
360.45069444444442
 20
28.244959852430554
 10
359.98698459201387
 20
28.238069661458329
 10
359.89189995659717
 20
28.238069661458329
 10
359.84504665798607
 20
28.238069661458329
 10
359.80301649305551
 20
28.238069661458329
 10
359.6838161892361
 20
28.244959852430554
 10
359.6838161892361
 20
28.244959852430554
 10
359.82713216145828
 20
27.324430338541664
 10
359.82713216145828
 20
27.324430338541664
 10
361.17416449652774
 20
27.365771484374996
 10
361.38224826388887
 20
27.383685980902776
 10
363.91646050347219
 20
27.585568576388887
 10
364.02877061631943
 20
27.400911458333329
 10
364.08251410590276
 20
27.312027994791663
 10
364.15968424479161
 20
27.163888888888888
 10
364.15968424479161
 20
27.163888888888888
 10
365.0147569444444
 20
27.614507378472219
 10
365.0147569444444
 20
27.614507378472219
 97
        0
 92
       16
 93
        1
 72
     4
 94
        3
 73
     0
 74
     0
 95
       35
 96
       31
 40
0.0
 40
0.0
 40
0.0
 40
0.0
 40
1.0
 40
1.0
 40
1.0
 40
2.0
 40
2.0
 40
2.0
 40
3.0
 40
3.0
 40
3.0
 40
4.0
 40
4.0
 40
4.0
 40
5.0
 40
5.0
 40
5.0
 40
6.0
 40
6.0
 40
6.0
 40
7.0
 40
7.0
 40
7.0
 40
8.0
 40
8.0
 40
8.0
 40
9.0
 40
9.0
 40
9.0
 40
10.0
 40
10.0
 40
10.0
 40
10.0
 10
360.74697265624997
 20
30.53594835069444
 10
360.74697265624997
 20
30.53594835069444
 10
363.90474717881943
 20
30.53594835069444
 10
363.90474717881943
 20
30.53594835069444
 10
363.90474717881943
 20
30.53594835069444
 10
363.90474717881943
 20
30.897683376736108
 10
363.90474717881943
 20
30.897683376736108
 10
364.32642686631942
 20
30.642746310763886
 10
364.58136393229165
 20
30.529747178819441
 10
364.78875868055553
 20
30.439485677083329
 10
364.78875868055553
 20
30.439485677083329
 10
365.25246853298609
 20
31.336588541666664
 10
365.25246853298609
 20
31.336588541666664
 10
364.35054253472219
 20
31.675585937499996
 10
363.4954698350694
 20
32.155143229166661
 10
362.86639539930553
 20
32.886192491319441
 10
362.86639539930553
 20
32.886192491319441
 10
361.80944010416664
 20
32.886192491319441
 10
361.80944010416664
 20
32.886192491319441
 10
361.42979058159722
 20
32.350824652777774
 10
360.77108832465274
 20
31.865066189236106
 10
359.39373914930553
 20
31.324186197916664
 10
359.39373914930553
 20
31.324186197916664
 10
359.84504665798607
 20
30.422949218749999
 10
359.84504665798607
 20
30.422949218749999
 10
360.0228135850694
 20
30.493229166666662
 10
360.28326280381941
 20
30.594514973958329
 10
360.74697265624997
 20
30.873567708333329
 10
360.74697265624997
 20
30.873567708333329
 10
360.74697265624997
 20
30.53594835069444
 10
360.74697265624997
 20
30.53594835069444
 97
        0
 92
        1
 93
        1
 72
     4
 94
        3
 73
     0
 74
     0
 95
       14
 96
       10
 40
0.0
 40
0.0
 40
0.0
 40
0.0
 40
1.0
 40
1.0
 40
1.0
 40
2.0
 40
2.0
 40
2.0
 40
3.0
 40
3.0
 40
3.0
 40
3.0
 10
361.41738823784721
 20
31.330387369791662
 10
361.98100585937499
 20
31.758268229166664
 10
362.18357747395828
 20
31.983577473958331
 10
362.3324055989583
 20
32.166856553819443
 10
362.50948350694443
 20
31.971864149305553
 10
362.74099392361109
 20
31.722439236111107
 10
363.25775824652777
 20
31.330387369791662
 10
363.25775824652777
 20
31.330387369791662
 10
361.41738823784721
 20
31.330387369791662
 10
361.41738823784721
 20
31.330387369791662
 97
        0
 75
     2
 76
     1
 98
        1
 10
0.0
 20
0.0
  0
HATCH
  5
475
100
AcDbEntity
  8
レイヤー_1
 62
     7
100
AcDbHatch
 10
0.0
 20
0.0
 30
0.0
210
0.0
220
0.0
230
1.0
  2
SOLID
 70
     1
 71
     0
 91
        2
 92
        1
 93
        1
 72
     4
 94
        3
 73
     0
 74
     0
 95
       59
 96
       55
 40
0.0
 40
0.0
 40
0.0
 40
0.0
 40
1.0
 40
1.0
 40
1.0
 40
2.0
 40
2.0
 40
2.0
 40
3.0
 40
3.0
 40
3.0
 40
4.0
 40
4.0
 40
4.0
 40
5.0
 40
5.0
 40
5.0
 40
6.0
 40
6.0
 40
6.0
 40
7.0
 40
7.0
 40
7.0
 40
8.0
 40
8.0
 40
8.0
 40
9.0
 40
9.0
 40
9.0
 40
10.0
 40
10.0
 40
10.0
 40
11.0
 40
11.0
 40
11.0
 40
12.0
 40
12.0
 40
12.0
 40
13.0
 40
13.0
 40
13.0
 40
14.0
 40
14.0
 40
14.0
 40
15.0
 40
15.0
 40
15.0
 40
16.0
 40
16.0
 40
16.0
 40
17.0
 40
17.0
 40
17.0
 40
18.0
 40
18.0
 40
18.0
 40
18.0
 10
367.10937499999994
 20
27.211431206597219
 10
367.10937499999994
 20
27.211431206597219
 10
366.2081380208333
 20
27.211431206597219
 10
366.2081380208333
 20
27.211431206597219
 10
366.2081380208333
 20
27.211431206597219
 10
366.2081380208333
 20
29.194428168402776
 10
366.2081380208333
 20
29.194428168402776
 10
365.96422526041664
 20
28.986344401041663
 10
365.79817165798607
 20
28.867144097222219
 10
365.57768554687499
 20
28.719694010416664
 10
365.57768554687499
 20
28.719694010416664
 10
365.35306532118051
 20
29.76975911458333
 10
365.35306532118051
 20
29.76975911458333
 10
366.01727973090277
 20
30.167323133680554
 10
366.56367187499995
 20
30.80190972222222
 10
366.75935329861107
 20
31.193961588541665
 10
366.75935329861107
 20
31.193961588541665
 10
365.45986328124997
 20
31.193961588541665
 10
365.45986328124997
 20
31.193961588541665
 10
365.45986328124997
 20
31.193961588541665
 10
365.45986328124997
 20
32.025607638888886
 10
365.45986328124997
 20
32.025607638888886
 10
365.45986328124997
 20
32.025607638888886
 10
366.2081380208333
 20
32.025607638888886
 10
366.2081380208333
 20
32.025607638888886
 10
366.2081380208333
 20
32.025607638888886
 10
366.2081380208333
 20
32.844162326388883
 10
366.2081380208333
 20
32.844162326388883
 10
366.2081380208333
 20
32.844162326388883
 10
367.10937499999994
 20
32.844162326388883
 10
367.10937499999994
 20
32.844162326388883
 10
367.10937499999994
 20
32.844162326388883
 10
367.10937499999994
 20
32.025607638888886
 10
367.10937499999994
 20
32.025607638888886
 10
367.10937499999994
 20
32.025607638888886
 10
367.71502278645829
 20
32.025607638888886
 10
367.71502278645829
 20
32.025607638888886
 10
367.71502278645829
 20
32.025607638888886
 10
367.71502278645829
 20
31.188449435763886
 10
367.71502278645829
 20
31.188449435763886
 10
367.62682834201388
 20
30.974853515624996
 10
367.51314019097219
 20
30.719227430555552
 10
367.24648980034721
 20
30.333376736111109
 10
367.5730848524305
 20
29.971641710069441
 10
367.86385091145831
 20
29.799386935763888
 10
368.0533311631944
 20
29.692588975694441
 10
368.0533311631944
 20
29.692588975694441
 10
367.60822482638883
 20
28.849918619791666
 10
367.60822482638883
 20
28.849918619791666
 10
367.43597005208329
 20
29.009771050347219
 10
367.29954427083328
 20
29.152398003472218
 10
367.10937499999994
 20
29.419048394097221
 10
367.10937499999994
 20
29.419048394097221
 10
367.10937499999994
 20
27.211431206597219
 10
367.10937499999994
 20
27.211431206597219
 97
        0
 92
        1
 93
        1
 72
     4
 94
        3
 73
     0
 74
     0
 95
       53
 96
       49
 40
0.0
 40
0.0
 40
0.0
 40
0.0
 40
1.0
 40
1.0
 40
1.0
 40
2.0
 40
2.0
 40
2.0
 40
3.0
 40
3.0
 40
3.0
 40
4.0
 40
4.0
 40
4.0
 40
5.0
 40
5.0
 40
5.0
 40
6.0
 40
6.0
 40
6.0
 40
7.0
 40
7.0
 40
7.0
 40
8.0
 40
8.0
 40
8.0
 40
9.0
 40
9.0
 40
9.0
 40
10.0
 40
10.0
 40
10.0
 40
11.0
 40
11.0
 40
11.0
 40
12.0
 40
12.0
 40
12.0
 40
13.0
 40
13.0
 40
13.0
 40
14.0
 40
14.0
 40
14.0
 40
15.0
 40
15.0
 40
15.0
 40
16.0
 40
16.0
 40
16.0
 40
16.0
 10
368.87257486979161
 20
32.837961154513884
 10
368.87257486979161
 20
32.837961154513884
 10
369.79930555555552
 20
32.837961154513884
 10
369.79930555555552
 20
32.837961154513884
 10
369.79930555555552
 20
32.837961154513884
 10
369.79930555555552
 20
31.366905381944441
 10
369.79930555555552
 20
31.366905381944441
 10
369.79930555555552
 20
31.366905381944441
 10
370.94996744791661
 20
31.366905381944441
 10
370.94996744791661
 20
31.366905381944441
 10
370.94996744791661
 20
31.366905381944441
 10
370.94996744791661
 20
30.45188802083333
 10
370.94996744791661
 20
30.45188802083333
 10
370.94996744791661
 20
30.45188802083333
 10
369.79930555555552
 20
30.45188802083333
 10
369.79930555555552
 20
30.45188802083333
 10
369.79930555555552
 20
30.45188802083333
 10
369.79930555555552
 20
28.279410807291665
 10
369.79930555555552
 20
28.279410807291665
 10
369.79930555555552
 20
28.279410807291665
 10
371.03885091145833
 20
28.279410807291665
 10
371.03885091145833
 20
28.279410807291665
 10
371.03885091145833
 20
28.279410807291665
 10
371.03885091145833
 20
27.377484809027774
 10
371.03885091145833
 20
27.377484809027774
 10
371.03885091145833
 20
27.377484809027774
 10
367.51314019097219
 20
27.377484809027774
 10
367.51314019097219
 20
27.377484809027774
 10
367.51314019097219
 20
27.377484809027774
 10
367.51314019097219
 20
28.279410807291665
 10
367.51314019097219
 20
28.279410807291665
 10
367.51314019097219
 20
28.279410807291665
 10
368.87257486979161
 20
28.279410807291665
 10
368.87257486979161
 20
28.279410807291665
 10
368.87257486979161
 20
28.279410807291665
 10
368.87257486979161
 20
30.45188802083333
 10
368.87257486979161
 20
30.45188802083333
 10
368.87257486979161
 20
30.45188802083333
 10
367.80321723090276
 20
30.45188802083333
 10
367.80321723090276
 20
30.45188802083333
 10
367.80321723090276
 20
30.45188802083333
 10
367.80321723090276
 20
31.366905381944441
 10
367.80321723090276
 20
31.366905381944441
 10
367.80321723090276
 20
31.366905381944441
 10
368.87257486979161
 20
31.366905381944441
 10
368.87257486979161
 20
31.366905381944441
 10
368.87257486979161
 20
31.366905381944441
 10
368.87257486979161
 20
32.837961154513884
 10
368.87257486979161
 20
32.837961154513884
 97
        0
 75
     2
 76
     1
 98
        1
 10
0.0
 20
0.0
  0
HATCH
  5
474
100
AcDbEntity
  8
レイヤー_1
 62
     7
100
AcDbHatch
 10
0.0
 20
0.0
 30
0.0
210
0.0
220
0.0
230
1.0
  2
SOLID
 70
     1
 71
     0
 91
        1
 92
        1
 93
        1
 72
     4
 94
        3
 73
     0
 74
     0
 95
       47
 96
       43
 40
0.0
 40
0.0
 40
0.0
 40
0.0
 40
1.0
 40
1.0
 40
1.0
 40
2.0
 40
2.0
 40
2.0
 40
3.0
 40
3.0
 40
3.0
 40
4.0
 40
4.0
 40
4.0
 40
5.0
 40
5.0
 40
5.0
 40
6.0
 40
6.0
 40
6.0
 40
7.0
 40
7.0
 40
7.0
 40
8.0
 40
8.0
 40
8.0
 40
9.0
 40
9.0
 40
9.0
 40
10.0
 40
10.0
 40
10.0
 40
11.0
 40
11.0
 40
11.0
 40
12.0
 40
12.0
 40
12.0
 40
13.0
 40
13.0
 40
13.0
 40
14.0
 40
14.0
 40
14.0
 40
14.0
 10
373.54963650173607
 20
30.624142795138887
 10
374.01334635416663
 20
30.434662543402776
 10
374.35716688368052
 20
30.262407769097219
 10
374.7836697048611
 20
29.941324869791664
 10
375.03378363715274
 20
30.292035590277774
 10
375.19432508680552
 20
30.630343967013886
 10
375.3417751736111
 20
31.152620442708329
 10
375.3417751736111
 20
31.152620442708329
 10
373.62680664062498
 20
31.152620442708329
 10
373.62680664062498
 20
31.152620442708329
 10
373.15276150173605
 20
30.553173828124997
 10
372.63530815972217
 20
30.10186631944444
 10
372.02483723958329
 20
29.751844618055554
 10
372.02483723958329
 20
29.751844618055554
 10
371.41918945312494
 20
30.439485677083329
 10
371.41918945312494
 20
30.439485677083329
 10
372.51748589409721
 20
31.02790798611111
 10
373.04596354166665
 20
31.751378038194442
 10
373.43112521701386
 20
32.742876519097216
 10
373.43112521701386
 20
32.742876519097216
 10
374.44605034722218
 20
32.611962890624994
 10
374.44605034722218
 20
32.611962890624994
 10
374.37439236111106
 20
32.399055989583331
 10
374.32753906249997
 20
32.286056857638883
 10
374.19662543402774
 20
32.019406467013887
 10
374.19662543402774
 20
32.019406467013887
 10
376.51172960069442
 20
32.019406467013887
 10
376.51172960069442
 20
32.019406467013887
 10
376.10796440972217
 20
29.460389539930553
 10
374.7664442274305
 20
27.976931423611109
 10
372.29148763020828
 20
27.394710286458331
 10
372.29148763020828
 20
27.394710286458331
 10
371.78712565104161
 20
28.244959852430554
 10
371.78712565104161
 20
28.244959852430554
 10
372.16677517361109
 20
28.309727647569442
 10
373.09901801215273
 20
28.464067925347219
 10
374.09602864583331
 20
29.235080295138886
 10
373.57926432291663
 20
29.651247829861109
 10
373.16378580729162
 20
29.858642578124996
 10
372.92056206597221
 20
29.982666015624996
 10
372.92056206597221
 20
29.982666015624996
 10
373.54963650173607
 20
30.624142795138887
 10
373.54963650173607
 20
30.624142795138887
 97
        0
 75
     2
 76
     1
 98
        1
 10
0.0
 20
0.0
  0
HATCH
  5
473
100
AcDbEntity
  8
レイヤー_1
 62
     7
100
AcDbHatch
 10
0.0
 20
0.0
 30
0.0
210
0.0
220
0.0
230
1.0
  2
SOLID
 70
     1
 71
     0
 91
        1
 92
        1
 93
        1
 72
     4
 94
        3
 73
     0
 74
     0
 95
       68
 96
       64
 40
0.0
 40
0.0
 40
0.0
 40
0.0
 40
1.0
 40
1.0
 40
1.0
 40
2.0
 40
2.0
 40
2.0
 40
3.0
 40
3.0
 40
3.0
 40
4.0
 40
4.0
 40
4.0
 40
5.0
 40
5.0
 40
5.0
 40
6.0
 40
6.0
 40
6.0
 40
7.0
 40
7.0
 40
7.0
 40
8.0
 40
8.0
 40
8.0
 40
9.0
 40
9.0
 40
9.0
 40
10.0
 40
10.0
 40
10.0
 40
11.0
 40
11.0
 40
11.0
 40
12.0
 40
12.0
 40
12.0
 40
13.0
 40
13.0
 40
13.0
 40
14.0
 40
14.0
 40
14.0
 40
15.0
 40
15.0
 40
15.0
 40
16.0
 40
16.0
 40
16.0
 40
17.0
 40
17.0
 40
17.0
 40
18.0
 40
18.0
 40
18.0
 40
19.0
 40
19.0
 40
19.0
 40
20.0
 40
20.0
 40
20.0
 40
21.0
 40
21.0
 40
21.0
 40
21.0
 10
382.05006510416661
 20
31.628043619791665
 10
382.05006510416661
 20
31.628043619791665
 10
382.05006510416661
 20
30.719227430555552
 10
382.05006510416661
 20
30.719227430555552
 10
382.05006510416661
 20
30.090152994791662
 10
381.99632161458328
 20
28.87954644097222
 10
381.88883463541663
 20
28.404812282986107
 10
381.69384223090276
 20
27.544227430555551
 10
381.19499240451387
 20
27.467057291666663
 10
380.66651475694442
 20
27.467057291666663
 10
380.08498263888885
 20
27.467057291666663
 10
379.79352756076383
 20
27.531825086805554
 10
379.63987630208328
 20
27.567654079861107
 10
379.63987630208328
 20
27.567654079861107
 10
379.58682183159721
 20
28.499207899305553
 10
379.58682183159721
 20
28.499207899305553
 10
379.80592990451385
 20
28.458555772569444
 10
380.13872612847217
 20
28.398611111111109
 10
380.49425998263888
 20
28.398611111111109
 10
380.77882486979161
 20
28.398611111111109
 10
380.8918240017361
 20
28.464067925347219
 10
380.9517686631944
 20
28.623920355902776
 10
381.05167643229163
 20
28.944314236111108
 10
381.09921874999998
 20
30.285145399305552
 10
381.09921874999998
 20
30.428461371527774
 10
381.09921874999998
 20
30.428461371527774
 10
381.09921874999998
 20
30.737830946180551
 10
381.09921874999998
 20
30.737830946180551
 10
381.09921874999998
 20
30.737830946180551
 10
379.80592990451385
 20
30.737830946180551
 10
379.80592990451385
 20
30.737830946180551
 10
379.68121744791665
 20
30.012982855902774
 10
379.48553602430553
 20
29.49070638020833
 10
379.25953776041661
 20
29.075227864583329
 10
378.71383463541662
 20
28.065814887152776
 10
377.98967556423605
 20
27.614507378472219
 10
377.69270833333331
 20
27.430539279513887
 10
377.69270833333331
 20
27.430539279513887
 10
377.03951822916662
 20
28.149186197916663
 10
377.03951822916662
 20
28.149186197916663
 10
378.2391004774305
 20
28.813400607638886
 10
378.60634765624997
 20
29.562364366319443
 10
378.81994357638888
 20
30.737830946180551
 10
378.81994357638888
 20
30.737830946180551
 10
377.31857096354162
 20
30.737830946180551
 10
377.31857096354162
 20
30.737830946180551
 10
377.31857096354162
 20
30.737830946180551
 10
377.31857096354162
 20
31.628043619791665
 10
377.31857096354162
 20
31.628043619791665
 10
377.31857096354162
 20
31.628043619791665
 10
378.92743055555553
 20
31.628043619791665
 10
378.92743055555553
 20
31.628043619791665
 10
378.95636935763883
 20
32.025607638888886
 10
378.96325954861106
 20
32.274343532986109
 10
378.96325954861106
 20
32.654682074652776
 10
378.96325954861106
 20
32.654682074652776
 10
379.96578233506943
 20
32.642279730902771
 10
379.96578233506943
 20
32.642279730902771
 10
379.94786783854164
 20
32.131716579861106
 10
379.9306423611111
 20
31.924321831597219
 10
379.90721571180552
 20
31.628043619791665
 10
379.90721571180552
 20
31.628043619791665
 10
382.05006510416661
 20
31.628043619791665
 10
382.05006510416661
 20
31.628043619791665
 97
        0
 75
     2
 76
     1
 98
        1
 10
0.0
 20
0.0
  0
HATCH
  5
472
100
AcDbEntity
  8
レイヤー_1
 62
     7
100
AcDbHatch
 10
0.0
 20
0.0
 30
0.0
210
0.0
220
0.0
230
1.0
  2
SOLID
 70
     1
 71
     0
 91
        3
 92
        1
 93
        1
 72
     4
 94
        3
 73
     0
 74
     0
 95
       17
 96
       13
 40
0.0
 40
0.0
 40
0.0
 40
0.0
 40
1.0
 40
1.0
 40
1.0
 40
2.0
 40
2.0
 40
2.0
 40
3.0
 40
3.0
 40
3.0
 40
4.0
 40
4.0
 40
4.0
 40
4.0
 10
385.12998046874998
 20
31.06304796006944
 10
384.55396050347218
 20
31.360704210069443
 10
383.93728841145833
 20
31.561897786458331
 10
383.31372612847218
 20
31.716238064236109
 10
383.31372612847218
 20
31.716238064236109
 10
383.65203450520829
 20
32.505164930555551
 10
383.65203450520829
 20
32.505164930555551
 10
384.21565212673607
 20
32.399055989583331
 10
384.92809787326388
 20
32.185460069444439
 10
385.50411783854162
 20
31.906407335069442
 10
385.50411783854162
 20
31.906407335069442
 10
385.12998046874998
 20
31.06304796006944
 10
385.12998046874998
 20
31.06304796006944
 97
        0
 92
        1
 93
        1
 72
     4
 94
        3
 73
     0
 74
     0
 95
       17
 96
       13
 40
0.0
 40
0.0
 40
0.0
 40
0.0
 40
1.0
 40
1.0
 40
1.0
 40
2.0
 40
2.0
 40
2.0
 40
3.0
 40
3.0
 40
3.0
 40
4.0
 40
4.0
 40
4.0
 40
4.0
 10
384.60770399305551
 20
29.633333333333329
 10
384.09714084201386
 20
29.917898220486109
 10
383.48529188368053
 20
30.154920789930554
 10
382.85690646701386
 20
30.32786458333333
 10
382.85690646701386
 20
30.32786458333333
 10
383.18901367187499
 20
31.122303602430552
 10
383.18901367187499
 20
31.122303602430552
 10
383.65203450520829
 20
31.02790798611111
 10
384.40582139756941
 20
30.790885416666665
 10
384.97012803819439
 20
30.482204861111107
 10
384.97012803819439
 20
30.482204861111107
 10
384.60770399305551
 20
29.633333333333329
 10
384.60770399305551
 20
29.633333333333329
 97
        0
 92
        1
 93
        1
 72
     4
 94
        3
 73
     0
 74
     0
 95
       17
 96
       13
 40
0.0
 40
0.0
 40
0.0
 40
0.0
 40
1.0
 40
1.0
 40
1.0
 40
2.0
 40
2.0
 40
2.0
 40
3.0
 40
3.0
 40
3.0
 40
4.0
 40
4.0
 40
4.0
 40
4.0
 10
383.17109917534719
 20
28.504720052083332
 10
385.04040798611106
 20
28.672151692708329
 10
386.3467881944444
 20
29.015283203124998
 10
387.15431857638885
 20
31.722439236111107
 10
387.15431857638885
 20
31.722439236111107
 10
388.05004340277776
 20
31.295247395833332
 10
388.05004340277776
 20
31.295247395833332
 10
387.08886176215276
 20
28.439952256944441
 10
385.62814127604162
 20
27.751622178819442
 10
383.43154839409721
 20
27.48428276909722
 10
383.43154839409721
 20
27.48428276909722
 10
383.17109917534719
 20
28.504720052083332
 10
383.17109917534719
 20
28.504720052083332
 97
        0
 75
     2
 76
     1
 98
        1
 10
0.0
 20
0.0
  0
HATCH
  5
471
100
AcDbEntity
  8
レイヤー_1
 62
     7
100
AcDbHatch
 10
0.0
 20
0.0
 30
0.0
210
0.0
220
0.0
230
1.0
  2
SOLID
 70
     1
 71
     0
 91
        1
 92
        3
 72
     0
 73
     1
 93
       12
 10
392.28888888888883
 20
31.443386501736107
 10
392.28888888888883
 20
27.585568576388887
 10
388.65569118923605
 20
27.585568576388887
 10
388.65569118923605
 20
28.404812282986107
 10
391.3855848524305
 20
28.404812282986107
 10
391.3855848524305
 20
29.152398003472218
 10
388.81003146701386
 20
29.152398003472218
 10
388.81003146701386
 20
29.935812717013885
 10
391.3855848524305
 20
29.935812717013885
 10
391.3855848524305
 20
30.642746310763886
 10
388.71494683159716
 20
30.642746310763886
 10
388.71494683159716
 20
31.443386501736107
 97
        0
 75
     2
 76
     1
 98
        1
 10
0.0
 20
0.0
  0
LINE
  5
470
100
AcDbEntity
  8
レイヤー_1
 62
     7
100
AcDbLine
 10
393.136382
 20
30.036754
 30
0.0
 11
397.540592
 21
30.036754
 31
0.0
  0
MTEXT
  5
46F
100
AcDbEntity
  8
レイヤー_1
 62
     7
100
AcDbMText
 10
374.65
 20
41.138968
 30
0.0
 40
2.362351
 41
0.0
 71
     1
 72
     2
  1
\fMSGothic 90ms|b0|i0|c128;\H2.3624;\C7;\U+5BF8
  7
STD
210
0.0
220
0.0
230
1.0
 73
     1
 44
1.0
  0
MTEXT
  5
46E
100
AcDbEntity
  8
レイヤー_1
 62
     7
100
AcDbMText
 10
377.825
 20
41.138968
 30
0.0
 40
2.362351
 41
0.0
 71
     1
 72
     2
  1
\fMSGothic 90ms|b0|i0|c128;\H2.3624;\C7;\U+6CD5
  7
STD
210
0.0
220
0.0
230
1.0
 73
     1
 44
1.0
  0
MTEXT
  5
46D
100
AcDbEntity
  8
レイヤー_1
 62
     7
100
AcDbMText
 10
381.0
 20
41.138968
 30
0.0
 40
2.362351
 41
0.0
 71
     1
 72
     2
  1
\fMSGothic 90ms|b0|i0|c128;\H2.3624;\C7;\U+516C
  7
STD
210
0.0
220
0.0
230
1.0
 73
     1
 44
1.0
  0
MTEXT
  5
46C
100
AcDbEntity
  8
レイヤー_1
 62
     7
100
AcDbMText
 10
384.175
 20
41.138968
 30
0.0
 40
2.362351
 41
0.0
 71
     1
 72
     2
  1
\fMSGothic 90ms|b0|i0|c128;\H2.3624;\C7;\U+5DEE
  7
STD
210
0.0
220
0.0
230
1.0
 73
     1
 44
1.0
  0
MTEXT
  5
46B
100
AcDbEntity
  8
レイヤー_1
 62
     7
100
AcDbMText
 10
387.35
 20
41.138968
 30
0.0
 40
2.362351
 41
0.0
 71
     1
 72
     2
  1
\fMSGothic 90ms|b0|i0|c128;\H2.3624;\C7;\U+FF1A
  7
STD
210
0.0
220
0.0
230
1.0
 73
     1
 44
1.0
  0
MTEXT
  5
46A
100
AcDbEntity
  8
レイヤー_1
 62
     7
100
AcDbMText
 10
390.525
 20
41.138968
 30
0.0
 40
2.362351
 41
0.0
 71
     1
 72
     2
  1
\fMSGothic 90ms|b0|i0|c128;\H2.3624;\C7;\U+00B1
  7
STD
210
0.0
220
0.0
230
1.0
 73
     1
 44
1.0
  0
MTEXT
  5
469
100
AcDbEntity
  8
レイヤー_1
 62
     7
100
AcDbMText
 10
393.7
 20
41.138968
 30
0.0
 40
2.362351
 41
0.0
 71
     1
 72
     2
  1
\fMSGothic 90ms|b0|i0|c128;\H2.3624;\C7;\U+0030
  7
STD
210
0.0
220
0.0
230
1.0
 73
     1
 44
1.0
  0
MTEXT
  5
468
100
AcDbEntity
  8
レイヤー_1
 62
     7
100
AcDbMText
 10
395.2875
 20
41.138968
 30
0.0
 40
2.362351
 41
0.0
 71
     1
 72
     2
  1
\fMSGothic 90ms|b0|i0|c128;\H2.3624;\C7;\U+002E
  7
STD
210
0.0
220
0.0
230
1.0
 73
     1
 44
1.0
  0
MTEXT
  5
467
100
AcDbEntity
  8
レイヤー_1
 62
     7
100
AcDbMText
 10
396.875
 20
41.138968
 30
0.0
 40
2.362351
 41
0.0
 71
     1
 72
     2
  1
\fMSGothic 90ms|b0|i0|c128;\H2.3624;\C7;\U+0035
  7
STD
210
0.0
220
0.0
230
1.0
 73
     1
 44
1.0
  0
MTEXT
  5
466
100
AcDbEntity
  8
レイヤー_1
 62
     7
100
AcDbMText
 10
398.4625
 20
41.138968
 30
0.0
 40
2.362351
 41
0.0
 71
     1
 72
     2
  1
\fMSGothic 90ms|b0|i0|c128;\H2.3624;\C7;\U+006D
  7
STD
210
0.0
220
0.0
230
1.0
 73
     1
 44
1.0
  0
MTEXT
  5
465
100
AcDbEntity
  8
レイヤー_1
 62
     7
100
AcDbMText
 10
400.05
 20
41.138968
 30
0.0
 40
2.362351
 41
0.0
 71
     1
 72
     2
  1
\fMSGothic 90ms|b0|i0|c128;\H2.3624;\C7;\U+006D
  7
STD
210
0.0
220
0.0
230
1.0
 73
     1
 44
1.0
  0
MTEXT
  5
464
100
AcDbEntity
  8
レイヤー_1
 62
     7
100
AcDbMText
 10
374.65
 20
44.648831
 30
0.0
 40
2.362351
 41
0.0
 71
     1
 72
     2
  1
\fMSGothic 90ms|b0|i0|c128;\H2.3624;\C7;\U+5BF8
  7
STD
210
0.0
220
0.0
230
1.0
 73
     1
 44
1.0
  0
MTEXT
  5
463
100
AcDbEntity
  8
レイヤー_1
 62
     7
100
AcDbMText
 10
377.825
 20
44.648831
 30
0.0
 40
2.362351
 41
0.0
 71
     1
 72
     2
  1
\fMSGothic 90ms|b0|i0|c128;\H2.3624;\C7;\U+6CD5
  7
STD
210
0.0
220
0.0
230
1.0
 73
     1
 44
1.0
  0
MTEXT
  5
462
100
AcDbEntity
  8
レイヤー_1
 62
     7
100
AcDbMText
 10
381.0
 20
44.648831
 30
0.0
 40
2.362351
 41
0.0
 71
     1
 72
     2
  1
\fMSGothic 90ms|b0|i0|c128;\H2.3624;\C7;\U+6570
  7
STD
210
0.0
220
0.0
230
1.0
 73
     1
 44
1.0
  0
MTEXT
  5
461
100
AcDbEntity
  8
レイヤー_1
 62
     7
100
AcDbMText
 10
384.175
 20
44.648831
 30
0.0
 40
2.362351
 41
0.0
 71
     1
 72
     2
  1
\fMSGothic 90ms|b0|i0|c128;\H2.3624;\C7;\U+5024
  7
STD
210
0.0
220
0.0
230
1.0
 73
     1
 44
1.0
  0
MTEXT
  5
460
100
AcDbEntity
  8
レイヤー_1
 62
     7
100
AcDbMText
 10
387.35
 20
44.648831
 30
0.0
 40
2.362351
 41
0.0
 71
     1
 72
     2
  1
\fMSGothic 90ms|b0|i0|c128;\H2.3624;\C7;\U+FF1A
  7
STD
210
0.0
220
0.0
230
1.0
 73
     1
 44
1.0
  0
MTEXT
  5
45F
100
AcDbEntity
  8
レイヤー_1
 62
     7
100
AcDbMText
 10
390.525
 20
44.648831
 30
0.0
 40
2.362351
 41
0.0
 71
     1
 72
     2
  1
\fMSGothic 90ms|b0|i0|c128;\H2.3624;\C7;\U+006D
  7
STD
210
0.0
220
0.0
230
1.0
 73
     1
 44
1.0
  0
MTEXT
  5
45E
100
AcDbEntity
  8
レイヤー_1
 62
     7
100
AcDbMText
 10
392.1125
 20
44.648831
 30
0.0
 40
2.362351
 41
0.0
 71
     1
 72
     2
  1
\fMSGothic 90ms|b0|i0|c128;\H2.3624;\C7;\U+006D
  7
STD
210
0.0
220
0.0
230
1.0
 73
     1
 44
1.0
  0
MTEXT
  5
45D
100
AcDbEntity
  8
レイヤー_1
 62
     7
100
AcDbMText
 10
393.7
 20
44.648831
 30
0.0
 40
2.362351
 41
0.0
 71
     1
 72
     2
  1
\fMSGothic 90ms|b0|i0|c128;\H2.3624;\C7;\U+8868
  7
STD
210
0.0
220
0.0
230
1.0
 73
     1
 44
1.0
  0
MTEXT
  5
45C
100
AcDbEntity
  8
レイヤー_1
 62
     7
100
AcDbMText
 10
396.875
 20
44.648831
 30
0.0
 40
2.362351
 41
0.0
 71
     1
 72
     2
  1
\fMSGothic 90ms|b0|i0|c128;\H2.3624;\C7;\U+8A18
  7
STD
210
0.0
220
0.0
230
1.0
 73
     1
 44
1.0
  0
SPLINE
  5
45B
100
AcDbEntity
  8
レイヤー_1
 62
     7
100
AcDbSpline
210
0.0
220
0.0
230
1.0
 70
     8
 71
     3
 72
    17
 73
    13
 74
     0
 42
0.00000001
 43
0.00000001
 40
0.0
 40
0.0
 40
0.0
 40
0.0
 40
1.0
 40
1.0
 40
1.0
 40
2.0
 40
2.0
 40
2.0
 40
3.0
 40
3.0
 40
3.0
 40
4.0
 40
4.0
 40
4.0
 40
4.0
 10
308.34224717881943
 20
189.79444444444442
 30
0.0
 10
310.65838487413191
 20
193.11310492621527
 30
0.0
 10
312.71614040798607
 20
197.2131130642361
 30
0.0
 10
312.71614040798607
 20
203.79083387586803
 30
0.0
 10
312.71614040798607
 20
212.10453830295137
 30
0.0
 10
309.32409939236106
 20
216.47774251302081
 30
0.0
 10
306.32962239583333
 20
220.33693847656247
 30
0.0
 10
303.46433648003472
 20
224.03524848090277
 30
0.0
 10
300.75235731336801
 20
227.53029785156247
 30
0.0
 10
300.75235731336801
 20
234.64407552083333
 30
0.0
 10
300.75235731336801
 20
241.73614908854165
 30
0.0
 10
303.44780002170137
 20
245.19364691840275
 30
0.0
 10
306.3051622178819
 20
248.85750596788193
 30
0.0
  0
SPLINE
  5
45A
100
AcDbEntity
  8
レイヤー_1
 62
     7
100
AcDbSpline
210
0.0
220
0.0
230
1.0
 70
     8
 71
     3
 72
    17
 73
    13
 74
     0
 42
0.00000001
 43
0.00000001
 40
0.0
 40
0.0
 40
0.0
 40
0.0
 40
1.0
 40
1.0
 40
1.0
 40
2.0
 40
2.0
 40
2.0
 40
3.0
 40
3.0
 40
3.0
 40
4.0
 40
4.0
 40
4.0
 40
4.0
 10
298.4448323567708
 20
248.7422675238715
 30
0.0
 10
296.10010036892356
 20
245.41034342447915
 30
0.0
 10
294.02580837673611
 20
241.2726114908854
 30
0.0
 10
294.02580837673611
 20
234.64407552083333
 30
0.0
 10
294.02580837673611
 20
226.09782714843749
 30
0.0
 10
297.46711425781245
 20
221.66571180555553
 30
0.0
 10
300.5067220052083
 20
217.74967176649304
 30
0.0
 10
303.44780002170137
 20
213.95248752170136
 30
0.0
 10
305.99338107638886
 20
210.67172309027777
 30
0.0
 10
305.99338107638886
 20
203.79083387586803
 30
0.0
 10
305.99338107638886
 20
196.81417100694443
 30
0.0
 10
303.34927029079859
 20
193.38630099826386
 30
0.0
 10
300.55185275607636
 20
189.75689290364582
 30
0.0
  0
SPLINE
  5
459
100
AcDbEntity
  8
レイヤー_1
 62
     7
100
AcDbSpline
210
0.0
220
0.0
230
1.0
 70
     8
 71
     3
 72
    17
 73
    13
 74
     0
 42
0.00000001
 43
0.00000001
 40
0.0
 40
0.0
 40
0.0
 40
0.0
 40
1.0
 40
1.0
 40
1.0
 40
2.0
 40
2.0
 40
2.0
 40
3.0
 40
3.0
 40
3.0
 40
4.0
 40
4.0
 40
4.0
 40
4.0
 10
305.25888671874998
 20
68.4764404296875
 30
0.0
 10
307.57502441406245
 20
71.79510091145832
 30
0.0
 10
309.63277994791662
 20
75.89510904947916
 30
0.0
 10
309.63277994791662
 20
82.472829861111109
 30
0.0
 10
309.63277994791662
 20
90.786534288194431
 30
0.0
 10
306.24073893229166
 20
95.159738498263877
 30
0.0
 10
303.24626193576387
 20
99.018934461805543
 30
0.0
 10
300.38097601996526
 20
102.71724446614583
 30
0.0
 10
297.66899685329861
 20
106.21229383680554
 30
0.0
 10
297.66899685329861
 20
113.32607150607637
 30
0.0
 10
297.66899685329861
 20
120.41814507378471
 30
0.0
 10
300.36443956163191
 20
123.87564290364583
 30
0.0
 10
303.2218017578125
 20
127.53950195312498
 30
0.0
  0
SPLINE
  5
458
100
AcDbEntity
  8
レイヤー_1
 62
     7
100
AcDbSpline
210
0.0
220
0.0
230
1.0
 70
     8
 71
     3
 72
    17
 73
    13
 74
     0
 42
0.00000001
 43
0.00000001
 40
0.0
 40
0.0
 40
0.0
 40
0.0
 40
1.0
 40
1.0
 40
1.0
 40
2.0
 40
2.0
 40
2.0
 40
3.0
 40
3.0
 40
3.0
 40
4.0
 40
4.0
 40
4.0
 40
4.0
 10
295.36147189670135
 20
127.42443576388888
 30
0.0
 10
293.01673990885416
 20
124.09233940972221
 30
0.0
 10
290.94244791666665
 20
119.95477973090277
 30
0.0
 10
290.94244791666665
 20
113.32607150607637
 30
0.0
 10
290.94244791666665
 20
104.77982313368055
 30
0.0
 10
294.38375379774305
 20
100.34770779079861
 30
0.0
 10
297.42336154513885
 20
96.4316677517361
 30
0.0
 10
300.36443956163191
 20
92.634483506944434
 30
0.0
 10
302.9100206163194
 20
89.353719075520829
 30
0.0
 10
302.9100206163194
 20
82.472829861111109
 30
0.0
 10
302.9100206163194
 20
75.496166992187497
 30
0.0
 10
300.26590983072913
 20
72.06829698350694
 30
0.0
 10
297.4684922960069
 20
68.438888888888883
 30
0.0
  0
SPLINE
  5
457
100
AcDbEntity
  8
レイヤー_1
 62
     7
100
AcDbSpline
210
0.0
220
0.0
230
1.0
 70
     8
 71
     3
 72
    17
 73
    13
 74
     0
 42
0.00000001
 43
0.00000001
 40
0.0
 40
0.0
 40
0.0
 40
0.0
 40
1.0
 40
1.0
 40
1.0
 40
2.0
 40
2.0
 40
2.0
 40
3.0
 40
3.0
 40
3.0
 40
4.0
 40
4.0
 40
4.0
 40
4.0
 10
302.28060167100693
 20
252.55030381944442
 30
0.0
 10
302.91139865451385
 20
253.346637641059
 30
0.0
 10
303.47191569010414
 20
254.33038465711803
 30
0.0
 10
303.47191569010414
 20
255.90858289930554
 30
0.0
 10
303.47191569010414
 20
257.90329318576386
 30
0.0
 10
302.54794108072912
 20
258.952497016059
 30
0.0
 10
301.73248697916665
 20
259.87853868272566
 30
0.0
 10
300.95217285156247
 20
260.76582302517357
 30
0.0
 10
300.21319986979165
 20
261.60435926649302
 30
0.0
 10
300.21319986979165
 20
263.31123182508679
 30
0.0
 10
300.21319986979165
 20
265.01293674045138
 30
0.0
 10
300.94769422743053
 20
265.8425157335069
 30
0.0
 10
301.72594129774302
 20
266.7215318467882
 30
0.0
  0
SPLINE
  5
456
100
AcDbEntity
  8
レイヤー_1
 62
     7
100
AcDbSpline
210
0.0
220
0.0
230
1.0
 70
     8
 71
     3
 72
    17
 73
    13
 74
     0
 42
0.00000001
 43
0.00000001
 40
0.0
 40
0.0
 40
0.0
 40
0.0
 40
1.0
 40
1.0
 40
1.0
 40
2.0
 40
2.0
 40
2.0
 40
3.0
 40
3.0
 40
3.0
 40
4.0
 40
4.0
 40
4.0
 40
4.0
 10
299.58515896267357
 20
266.69397108289928
 30
0.0
 10
298.94643825954859
 20
265.89436442057291
 30
0.0
 10
298.38144259982636
 20
264.90166015624999
 30
0.0
 10
298.38144259982636
 20
263.31123182508679
 30
0.0
 10
298.38144259982636
 20
261.26071099175346
 30
0.0
 10
299.31885308159718
 20
260.19738226996526
 30
0.0
 10
300.14670952690972
 20
259.25773247612847
 30
0.0
 10
300.94769422743053
 20
258.34667697482638
 30
0.0
 10
301.6408474392361
 20
257.55947265624997
 30
0.0
 10
301.6408474392361
 20
255.90858289930554
 30
0.0
 10
301.6408474392361
 20
254.23461100260414
 30
0.0
 10
300.92082248263887
 20
253.41209445529512
 30
0.0
 10
300.15876736111107
 20
252.54134657118053
 30
0.0
  0
MTEXT
  5
455
100
AcDbEntity
  8
レイヤー_1
 62
     7
100
AcDbMText
 10
68.282309
 20
248.591389
 30
0.0
 40
2.624835
 41
0.0
 71
     1
 72
     2
  1
\fMSGothic 90ms|b0|i0|c128;\H2.6248;\C7;\U+03A6\U+0031\U+0036
  7
STD
210
0.0
220
0.0
230
1.0
 73
     1
 44
1.0
  0
LINE
  5
454
100
AcDbEntity
  8
レイヤー_1
 62
     7
100
AcDbLine
 10
88.141907
 20
224.939586
 30
0.0
 11
88.141907
 21
248.483885
 31
0.0
  0
LINE
  5
453
100
AcDbEntity
  8
レイヤー_1
 62
     7
100
AcDbLine
 10
56.141793
 20
224.935107
 30
0.0
 11
56.141793
 21
248.479062
 31
0.0
  0
LINE
  5
452
100
AcDbEntity
  8
レイヤー_1
 62
     7
100
AcDbLine
 10
56.141793
 20
245.087021
 30
0.0
 11
88.141907
 21
245.087021
 31
0.0
  0
HATCH
  5
451
100
AcDbEntity
  8
レイヤー_1
 62
     7
100
AcDbHatch
 10
0.0
 20
0.0
 30
0.0
210
0.0
220
0.0
230
1.0
  2
SOLID
 70
     1
 71
     0
 91
        1
 92
        3
 72
     0
 73
     1
 93
        3
 10
57.766155327690967
 20
245.50249972873263
 10
56.141792805989581
 20
245.08702121310762
 10
57.766155327690967
 20
244.67154269748261
 97
        0
 75
     2
 76
     1
 98
        1
 10
0.0
 20
0.0
  0
HATCH
  5
450
100
AcDbEntity
  8
レイヤー_1
 62
     7
100
AcDbHatch
 10
0.0
 20
0.0
 30
0.0
210
0.0
220
0.0
230
1.0
  2
SOLID
 70
     1
 71
     0
 91
        1
 92
        3
 72
     0
 73
     1
 93
        3
 10
94.766136338975684
 20
215.25249430338539
 10
93.141773817274299
 20
214.83701578776041
 10
94.766136338975684
 20
214.4215372721354
 97
        0
 75
     2
 76
     1
 98
        1
 10
0.0
 20
0.0
  0
HATCH
  5
44F
100
AcDbEntity
  8
レイヤー_1
 62
     7
100
AcDbHatch
 10
0.0
 20
0.0
 30
0.0
210
0.0
220
0.0
230
1.0
  2
SOLID
 70
     1
 71
     0
 91
        1
 92
        3
 72
     0
 73
     1
 93
        3
 10
86.485160319010404
 20
245.50249972873263
 10
88.109178331163193
 20
245.08702121310762
 10
86.485160319010404
 20
244.67154269748261
 97
        0
 75
     2
 76
     1
 98
        1
 10
0.0
 20
0.0
  0
MTEXT
  5
44E
100
AcDbEntity
  8
レイヤー_1
 62
     7
100
AcDbMText
 10
68.99665
 20
126.093612
 30
0.0
 40
2.624835
 41
0.0
 71
     1
 72
     2
  1
\fMSGothic 90ms|b0|i0|c128;\H2.6248;\C7;\U+03A6\U+0031\U+0030
  7
STD
210
0.0
220
0.0
230
1.0
 73
     1
 44
1.0
  0
LINE
  5
44D
100
AcDbEntity
  8
レイヤー_1
 62
     7
100
AcDbLine
 10
82.174657
 20
108.438515
 30
0.0
 11
82.174657
 21
125.986453
 31
0.0
  0
LINE
  5
44C
100
AcDbEntity
  8
レイヤー_1
 62
     7
100
AcDbLine
 10
62.141943
 20
108.434725
 30
0.0
 11
62.141943
 21
125.983008
 31
0.0
  0
LINE
  5
44B
100
AcDbEntity
  8
レイヤー_1
 62
     7
100
AcDbLine
 10
62.141943
 20
122.589589
 30
0.0
 11
82.174657
 21
122.589589
 31
0.0
  0
HATCH
  5
44A
100
AcDbEntity
  8
レイヤー_1
 62
     7
100
AcDbHatch
 10
0.0
 20
0.0
 30
0.0
210
0.0
220
0.0
230
1.0
  2
SOLID
 70
     1
 71
     0
 91
        1
 92
        3
 72
     0
 73
     1
 93
        3
 10
63.766305881076384
 20
123.00506727430555
 10
62.141943359374991
 20
122.58958875868055
 10
63.766305881076384
 20
122.17411024305555
 97
        0
 75
     2
 76
     1
 98
        1
 10
0.0
 20
0.0
  0
HATCH
  5
449
100
AcDbEntity
  8
レイヤー_1
 62
     7
100
AcDbHatch
 10
0.0
 20
0.0
 30
0.0
210
0.0
220
0.0
230
1.0
  2
SOLID
 70
     1
 71
     0
 91
        1
 92
        3
 72
     0
 73
     1
 93
        3
 10
80.51791042751735
 20
123.00506727430555
 10
82.141928439670124
 20
122.58958875868055
 10
80.51791042751735
 20
122.17411024305555
 97
        0
 75
     2
 76
     1
 98
        1
 10
0.0
 20
0.0
  0
MTEXT
  5
448
100
AcDbEntity
  8
レイヤー_1
 62
     7
100
AcDbMText
 10
69.615906
 20
83.678974
 30
0.0
 40
2.624835
 41
0.0
 71
     1
 72
     2
  1
\fMSGothic 90ms|b0|i0|c128;\H2.6248;\C7;\U+03A6\U+0031\U+0032
  7
STD
210
0.0
220
0.0
230
1.0
 73
     1
 44
1.0
  0
MTEXT
  5
447
100
AcDbEntity
  8
レイヤー_1
 62
     7
100
AcDbMText
 10
62.33039
 20
67.041853
 30
0.0
 40
3.149801
 41
0.0
 71
     1
 72
     2
  1
\fMS Gothic|b0|i0|c128;\H3.1498;\C7;\U+3010\U+6B63\U+9762\U+56F3\U+3011
  7
STD
210
0.0
220
0.0
230
1.0
 73
     1
 44
1.0
  0
MTEXT
  5
446
100
AcDbEntity
  8
レイヤー_1
 62
     7
100
AcDbMText
 10
254.771357
 20
67.041853
 30
0.0
 40
3.149801
 41
0.0
 71
     1
 72
     2
  1
\fMS Gothic|b0|i0|c128;\H3.1498;\C7;\U+3010\U+5074\U+9762\U+56F3\U+3011
  7
STD
210
0.0
220
0.0
230
1.0
 73
     1
 44
1.0
  0
MTEXT
  5
445
100
AcDbEntity
  8
レイヤー_1
 62
     7
100
AcDbMText
 10
62.33039
 20
178.69068
 30
0.0
 40
3.149801
 41
0.0
 71
     1
 72
     2
  1
\fMS Gothic|b0|i0|c128;\H3.1498;\C7;\U+3010\U+6B63\U+9762\U+56F3\U+3011
  7
STD
210
0.0
220
0.0
230
1.0
 73
     1
 44
1.0
  0
MTEXT
  5
444
100
AcDbEntity
  8
レイヤー_1
 62
     7
100
AcDbMText
 10
254.771357
 20
178.69068
 30
0.0
 40
3.149801
 41
0.0
 71
     1
 72
     2
  1
\fMS Gothic|b0|i0|c128;\H3.1498;\C7;\U+3010\U+5074\U+9762\U+56F3\U+3011
  7
STD
210
0.0
220
0.0
230
1.0
 73
     1
 44
1.0
  0
LINE
  5
443
100
AcDbEntity
  8
レイヤー_1
 62
     7
100
AcDbLine
 10
60.141893
 20
94.401128
 30
0.0
 11
60.141893
 21
76.85319
 31
0.0
  0
LINE
  5
442
100
AcDbEntity
  8
レイヤー_1
 62
     7
100
AcDbLine
 10
84.141806
 20
94.404918
 30
0.0
 11
84.141806
 21
76.856635
 31
0.0
  0
LINE
  5
441
100
AcDbEntity
  8
レイヤー_1
 62
     7
100
AcDbLine
 10
84.141806
 20
80.250054
 30
0.0
 11
60.141893
 21
80.250054
 31
0.0
  0
HATCH
  5
440
100
AcDbEntity
  8
レイヤー_1
 62
     7
100
AcDbHatch
 10
0.0
 20
0.0
 30
0.0
210
0.0
220
0.0
230
1.0
  2
SOLID
 70
     1
 71
     0
 91
        1
 92
        3
 72
     0
 73
     1
 93
        3
 10
82.517443847656239
 20
79.834575737847217
 10
84.141806369357624
 20
80.250054253472214
 10
82.517443847656239
 20
80.665532769097211
 97
        0
 75
     2
 76
     1
 98
        1
 10
0.0
 20
0.0
  0
HATCH
  5
43F
100
AcDbEntity
  8
レイヤー_1
 62
     7
100
AcDbHatch
 10
0.0
 20
0.0
 30
0.0
210
0.0
220
0.0
230
1.0
  2
SOLID
 70
     1
 71
     0
 91
        1
 92
        3
 72
     0
 73
     1
 93
        3
 10
61.798639594184024
 20
79.834575737847217
 10
60.174621582031243
 20
80.250054253472214
 10
61.798639594184024
 20
80.665532769097211
 97
        0
 75
     2
 76
     1
 98
        1
 10
0.0
 20
0.0
  0
MTEXT
  5
43E
100
AcDbEntity
  8
レイヤー_1
 62
     7
100
AcDbMText
 10
68.443195
 20
187.13123
 30
0.0
 40
2.624835
 41
0.0
 71
     1
 72
     2
  1
\fMSGothic 90ms|b0|i0|c128;\H2.6248;\C7;\U+03A6\U+0032\U+0031
  7
STD
210
0.0
220
0.0
230
1.0
 73
     1
 44
1.0
  0
MTEXT
  5
43D
100
AcDbEntity
  8
レイヤー_1
 62
     7
100
AcDbMText
 10
93.666806
 20
218.352063
 30
0.0
 40
2.624835
 41
0.0
 71
     1
 72
     2
  1
\fMSGothic 90ms|b0|i0|c128;\H2.6248;\C7;\U+0032\U+002E\U+0035
  7
STD
210
0.0
220
0.0
230
1.0
 73
     1
 44
1.0
  0
LINE
  5
43C
100
AcDbEntity
  8
レイヤー_1
 62
     7
100
AcDbLine
 10
51.141926
 20
203.585678
 30
0.0
 11
51.141926
 21
180.041379
 31
0.0
  0
LINE
  5
43B
100
AcDbEntity
  8
レイヤー_1
 62
     7
100
AcDbLine
 10
93.141774
 20
203.590157
 30
0.0
 11
93.141774
 21
180.046202
 31
0.0
  0
LINE
  5
43A
100
AcDbEntity
  8
レイヤー_1
 62
     7
100
AcDbLine
 10
93.141774
 20
183.438243
 30
0.0
 11
51.141926
 21
183.438243
 31
0.0
  0
LINE
  5
439
100
AcDbEntity
  8
レイヤー_1
 62
     7
100
AcDbLine
 10
93.250639
 20
214.837016
 30
0.0
 11
88.128299
 21
214.837016
 31
0.0
  0
HATCH
  5
438
100
AcDbEntity
  8
レイヤー_1
 62
     7
100
AcDbHatch
 10
0.0
 20
0.0
 30
0.0
210
0.0
220
0.0
230
1.0
  2
SOLID
 70
     1
 71
     0
 91
        1
 92
        3
 72
     0
 73
     1
 93
        3
 10
91.517411295572913
 20
183.02276475694444
 10
93.141773817274299
 20
183.43824327256942
 10
91.517411295572913
 20
183.85372178819443
 97
        0
 75
     2
 76
     1
 98
        1
 10
0.0
 20
0.0
  0
HATCH
  5
437
100
AcDbEntity
  8
レイヤー_1
 62
     7
100
AcDbHatch
 10
0.0
 20
0.0
 30
0.0
210
0.0
220
0.0
230
1.0
  2
SOLID
 70
     1
 71
     0
 91
        1
 92
        3
 72
     0
 73
     1
 93
        3
 10
86.51754421657985
 20
214.4215372721354
 10
88.141906738281236
 20
214.83701578776041
 10
86.51754421657985
 20
215.25249430338539
 97
        0
 75
     2
 76
     1
 98
        1
 10
0.0
 20
0.0
  0
HATCH
  5
436
100
AcDbEntity
  8
レイヤー_1
 62
     7
100
AcDbHatch
 10
0.0
 20
0.0
 30
0.0
210
0.0
220
0.0
230
1.0
  2
SOLID
 70
     1
 71
     0
 91
        1
 92
        3
 72
     0
 73
     1
 93
        3
 10
85.657303873697913
 20
100.60436740451388
 10
84.032941351996527
 20
100.18888888888888
 10
85.657303873697913
 20
99.773410373263886
 97
        0
 75
     2
 76
     1
 98
        1
 10
0.0
 20
0.0
  0
MTEXT
  5
435
100
AcDbEntity
  8
レイヤー_1
 62
     7
100
AcDbMText
 10
85.617169
 20
103.703936
 30
0.0
 40
2.624835
 41
0.0
 71
     1
 72
     2
  1
\fMSGothic 90ms|b0|i0|c128;\H2.6248;\C7;\U+0032
  7
STD
210
0.0
220
0.0
230
1.0
 73
     1
 44
1.0
  0
LINE
  5
434
100
AcDbEntity
  8
レイヤー_1
 62
     7
100
AcDbLine
 10
84.032941
 20
100.188889
 30
0.0
 11
82.12832
 21
100.188889
 31
0.0
  0
HATCH
  5
433
100
AcDbEntity
  8
レイヤー_1
 62
     7
100
AcDbHatch
 10
0.0
 20
0.0
 30
0.0
210
0.0
220
0.0
230
1.0
  2
SOLID
 70
     1
 71
     0
 91
        1
 92
        3
 72
     0
 73
     1
 93
        3
 10
80.517565917968739
 20
99.773410373263886
 10
82.141928439670124
 20
100.18888888888888
 10
80.517565917968739
 20
100.60436740451388
 97
        0
 75
     2
 76
     1
 98
        1
 10
0.0
 20
0.0
  0
HATCH
  5
432
100
AcDbEntity
  8
レイヤー_1
 62
     7
100
AcDbHatch
 10
0.0
 20
0.0
 30
0.0
210
0.0
220
0.0
230
1.0
  2
SOLID
 70
     1
 71
     0
 91
        1
 92
        3
 72
     0
 73
     1
 93
        3
 10
52.798672146267357
 20
183.02276475694444
 10
51.174654134114576
 20
183.43824327256942
 10
52.798672146267357
 20
183.85372178819443
 97
        0
 75
     2
 76
     1
 98
        1
 10
0.0
 20
0.0
  0
MTEXT
  5
431
100
AcDbEntity
  8
レイヤー_1
 62
     7
100
AcDbMText
 10
128.090545
 20
249.826111
 30
0.0
 40
2.624835
 41
0.0
 71
     1
 72
     2
  1
\fMSGothic 90ms|b0|i0|c128;\H2.6248;\C7;\U+0032
  7
STD
210
0.0
220
0.0
230
1.0
 73
     1
 44
1.0
  0
MTEXT
  5
430
100
AcDbEntity
  8
レイヤー_1
 62
     7
100
AcDbMText
 10
132.081344
 20
251.74434
 30
0.0
 40
2.624835
 41
0.0
 71
     1
 72
     2
  1
\fMSGothic 90ms|b0|i0|c128;\H2.6248;\C7;\U+0031
  7
STD
210
0.0
220
0.0
230
1.0
 73
     1
 44
1.0
  0
LINE
  5
42F
100
AcDbEntity
  8
レイヤー_1
 62
     7
100
AcDbLine
 10
134.35993
 20
237.10818
 30
0.0
 11
134.35993
 21
248.483885
 31
0.0
  0
LINE
  5
42E
100
AcDbEntity
  8
レイヤー_1
 62
     7
100
AcDbLine
 10
131.409722
 20
237.275439
 30
0.0
 11
131.409722
 21
248.481646
 31
0.0
  0
LINE
  5
42D
100
AcDbEntity
  8
レイヤー_1
 62
     7
100
AcDbLine
 10
127.327112
 20
237.105941
 30
0.0
 11
127.327112
 21
264.465683
 31
0.0
  0
LINE
  5
42C
100
AcDbEntity
  8
レイヤー_1
 62
     7
100
AcDbLine
 10
383.330263
 20
237.105941
 30
0.0
 11
383.330263
 21
264.465683
 31
0.0
  0
LINE
  5
42B
100
AcDbEntity
  8
レイヤー_1
 62
     7
100
AcDbLine
 10
127.327112
 20
245.087021
 30
0.0
 11
131.350983
 21
245.087021
 31
0.0
  0
LINE
  5
42A
100
AcDbEntity
  8
レイヤー_1
 62
     7
100
AcDbLine
 10
131.409722
 20
247.164931
 30
0.0
 11
134.35993
 21
247.164931
 31
0.0
  0
HATCH
  5
429
100
AcDbEntity
  8
レイヤー_1
 62
     7
100
AcDbHatch
 10
0.0
 20
0.0
 30
0.0
210
0.0
220
0.0
230
1.0
  2
SOLID
 70
     1
 71
     0
 91
        1
 92
        3
 72
     0
 73
     1
 93
        3
 10
128.95147433810763
 20
245.50249972873263
 10
127.32711181640624
 20
245.08702121310762
 10
128.95147433810763
 20
244.67154269748261
 97
        0
 75
     2
 76
     1
 98
        1
 10
0.0
 20
0.0
  0
HATCH
  5
428
100
AcDbEntity
  8
レイヤー_1
 62
     7
100
AcDbHatch
 10
0.0
 20
0.0
 30
0.0
210
0.0
220
0.0
230
1.0
  2
SOLID
 70
     1
 71
     0
 91
        1
 92
        3
 72
     0
 73
     1
 93
        3
 10
128.95147433810763
 20
260.64782850477428
 10
127.32711181640624
 20
260.23234998914927
 10
128.95147433810763
 20
259.81687147352426
 97
        0
 75
     2
 76
     1
 98
        1
 10
0.0
 20
0.0
  0
HATCH
  5
427
100
AcDbEntity
  8
レイヤー_1
 62
     7
100
AcDbHatch
 10
0.0
 20
0.0
 30
0.0
210
0.0
220
0.0
230
1.0
  2
SOLID
 70
     1
 71
     0
 91
        1
 92
        3
 72
     0
 73
     1
 93
        3
 10
381.70590006510412
 20
259.81687147352426
 10
383.33026258680553
 20
260.23234998914927
 10
381.70590006510412
 20
260.64782850477428
 97
        0
 75
     2
 76
     1
 98
        1
 10
0.0
 20
0.0
  0
HATCH
  5
426
100
AcDbEntity
  8
レイヤー_1
 62
     7
100
AcDbHatch
 10
0.0
 20
0.0
 30
0.0
210
0.0
220
0.0
230
1.0
  2
SOLID
 70
     1
 71
     0
 91
        1
 92
        3
 72
     0
 73
     1
 93
        3
 10
135.98429226345485
 20
247.58040907118053
 10
134.35992974175346
 20
247.16493055555554
 10
135.98429226345485
 20
246.74945203993053
 97
        0
 75
     2
 76
     1
 98
        1
 10
0.0
 20
0.0
  0
HATCH
  5
425
100
AcDbEntity
  8
レイヤー_1
 62
     7
100
AcDbHatch
 10
0.0
 20
0.0
 30
0.0
210
0.0
220
0.0
230
1.0
  2
SOLID
 70
     1
 71
     0
 91
        1
 92
        3
 72
     0
 73
     1
 93
        3
 10
129.78570421006944
 20
247.58040907118053
 10
131.4097222222222
 20
247.16493055555554
 10
129.78570421006944
 20
246.74945203993053
 97
        0
 75
     2
 76
     1
 98
        1
 10
0.0
 20
0.0
  0
HATCH
  5
424
100
AcDbEntity
  8
レイヤー_1
 62
     7
100
AcDbHatch
 10
0.0
 20
0.0
 30
0.0
210
0.0
220
0.0
230
1.0
  2
SOLID
 70
     1
 71
     0
 91
        1
 92
        3
 72
     0
 73
     1
 93
        3
 10
129.78570421006944
 20
245.50249972873263
 10
131.4097222222222
 20
245.08702121310762
 10
129.78570421006944
 20
244.67154269748261
 97
        0
 75
     2
 76
     1
 98
        1
 10
0.0
 20
0.0
  0
MTEXT
  5
423
100
AcDbEntity
  8
レイヤー_1
 62
     7
100
AcDbMText
 10
135.387946
 20
250.399375
 30
0.0
 40
2.624835
 41
0.0
 71
     1
 72
     2
  1
\fMSGothic 90ms|b0|i0|c128;\H2.6248;\C7;\U+0032
  7
STD
210
0.0
220
0.0
230
1.0
 73
     1
 44
1.0
  0
MTEXT
  5
422
100
AcDbEntity
  8
レイヤー_1
 62
     7
100
AcDbMText
 10
252.660891
 20
263.742574
 30
0.0
 40
2.624835
 41
0.0
 71
     1
 72
     2
  1
\fMSGothic 90ms|b0|i0|c128;\H2.6248;\C7;\U+0035\U+0030\U+002C\U+0030\U+0030\U+0030
  7
STD
210
0.0
220
0.0
230
1.0
 73
     1
 44
1.0
  0
MTEXT
  5
421
100
AcDbEntity
  8
レイヤー_1
 62
     7
100
AcDbMText
 10
255.728749
 20
144.156247
 30
0.0
 40
2.624835
 41
0.0
 71
     1
 72
     2
  1
\fMSGothic 90ms|b0|i0|c128;\H2.6248;\C7;\U+0035\U+0030\U+002C\U+0030\U+0030\U+0030\U+0028\U+0035\U+002C\U+0030\U+0030\U+0030\U+0029
  7
STD
210
0.0
220
0.0
230
1.0
 73
     1
 44
1.0
  0
MTEXT
  5
420
100
AcDbEntity
  8
レイヤー_1
 62
     7
100
AcDbMText
 10
138.871627
 20
251.74434
 30
0.0
 40
2.624835
 41
0.0
 71
     1
 72
     2
  1
\fMSGothic 90ms|b0|i0|c128;\H2.6248;\C7;\U+0031
  7
STD
210
0.0
220
0.0
230
1.0
 73
     1
 44
1.0
  0
LINE
  5
41F
100
AcDbEntity
  8
レイヤー_1
 62
     7
100
AcDbLine
 10
141.392748
 20
237.10818
 30
0.0
 11
141.392748
 21
248.483885
 31
0.0
  0
LINE
  5
41E
100
AcDbEntity
  8
レイヤー_1
 62
     7
100
AcDbLine
 10
138.44254
 20
237.275439
 30
0.0
 11
138.44254
 21
248.481646
 31
0.0
  0
LINE
  5
41D
100
AcDbEntity
  8
レイヤー_1
 62
     7
100
AcDbLine
 10
134.35993
 20
245.087021
 30
0.0
 11
138.383801
 21
245.087021
 31
0.0
  0
LINE
  5
41C
100
AcDbEntity
  8
レイヤー_1
 62
     7
100
AcDbLine
 10
138.44254
 20
247.164931
 30
0.0
 11
141.392748
 21
247.164931
 31
0.0
  0
LINE
  5
41B
100
AcDbEntity
  8
レイヤー_1
 62
     7
100
AcDbLine
 10
127.327112
 20
260.23235
 30
0.0
 11
299.651649
 21
260.23235
 31
0.0
  0
LINE
  5
41A
100
AcDbEntity
  8
レイヤー_1
 62
     7
100
AcDbLine
 10
301.378676
 20
260.23235
 30
0.0
 11
383.330263
 21
260.23235
 31
0.0
  0
HATCH
  5
419
100
AcDbEntity
  8
レイヤー_1
 62
     7
100
AcDbHatch
 10
0.0
 20
0.0
 30
0.0
210
0.0
220
0.0
230
1.0
  2
SOLID
 70
     1
 71
     0
 91
        1
 92
        3
 72
     0
 73
     1
 93
        3
 10
135.98429226345485
 20
245.50249972873263
 10
134.35992974175346
 20
245.08702121310762
 10
135.98429226345485
 20
244.67154269748261
 97
        0
 75
     2
 76
     1
 98
        1
 10
0.0
 20
0.0
  0
HATCH
  5
418
100
AcDbEntity
  8
レイヤー_1
 62
     7
100
AcDbHatch
 10
0.0
 20
0.0
 30
0.0
210
0.0
220
0.0
230
1.0
  2
SOLID
 70
     1
 71
     0
 91
        1
 92
        3
 72
     0
 73
     1
 93
        3
 10
143.01711018880206
 20
247.58040907118053
 10
141.39274766710068
 20
247.16493055555554
 10
143.01711018880206
 20
246.74945203993053
 97
        0
 75
     2
 76
     1
 98
        1
 10
0.0
 20
0.0
  0
HATCH
  5
417
100
AcDbEntity
  8
レイヤー_1
 62
     7
100
AcDbHatch
 10
0.0
 20
0.0
 30
0.0
210
0.0
220
0.0
230
1.0
  2
SOLID
 70
     1
 71
     0
 91
        1
 92
        3
 72
     0
 73
     1
 93
        3
 10
136.81852213541666
 20
247.58040907118053
 10
138.44254014756945
 20
247.16493055555554
 10
136.81852213541666
 20
246.74945203993053
 97
        0
 75
     2
 76
     1
 98
        1
 10
0.0
 20
0.0
  0
HATCH
  5
416
100
AcDbEntity
  8
レイヤー_1
 62
     7
100
AcDbHatch
 10
0.0
 20
0.0
 30
0.0
210
0.0
220
0.0
230
1.0
  2
SOLID
 70
     1
 71
     0
 91
        1
 92
        3
 72
     0
 73
     1
 93
        3
 10
136.81852213541666
 20
245.50249972873263
 10
138.44254014756945
 20
245.08702121310762
 10
136.81852213541666
 20
244.67154269748261
 97
        0
 75
     2
 76
     1
 98
        1
 10
0.0
 20
0.0
  0
SPLINE
  5
415
100
AcDbEntity
  8
レイヤー_1
 62
     7
100
AcDbSpline
210
0.0
220
0.0
230
1.0
 70
     8
 71
     3
 72
    17
 73
    13
 74
     0
 42
0.00000001
 43
0.00000001
 40
0.0
 40
0.0
 40
0.0
 40
0.0
 40
1.0
 40
1.0
 40
1.0
 40
2.0
 40
2.0
 40
2.0
 40
3.0
 40
3.0
 40
3.0
 40
4.0
 40
4.0
 40
4.0
 40
4.0
 10
299.27027723524304
 20
130.05269911024305
 30
0.0
 10
299.90107421874995
 20
130.84886067708331
 30
0.0
 10
300.46159125434025
 20
131.83277994791666
 30
0.0
 10
300.46159125434025
 20
133.41097819010415
 30
0.0
 10
300.46159125434025
 20
135.40568847656249
 30
0.0
 10
299.53761664496523
 20
136.45472005208333
 30
0.0
 10
298.72216254340276
 20
137.38076171874999
 30
0.0
 10
297.94184841579857
 20
138.26821831597221
 30
0.0
 10
297.20287543402776
 20
139.10675455729165
 30
0.0
 10
297.20287543402776
 20
140.8134548611111
 30
0.0
 10
297.20287543402776
 20
142.51533203124998
 30
0.0
 10
297.93736979166664
 20
143.34491102430553
 30
0.0
 10
298.71561686197913
 20
144.2240993923611
 30
0.0
  0
SPLINE
  5
414
100
AcDbEntity
  8
レイヤー_1
 62
     7
100
AcDbSpline
210
0.0
220
0.0
230
1.0
 70
     8
 71
     3
 72
    17
 73
    13
 74
     0
 42
0.00000001
 43
0.00000001
 40
0.0
 40
0.0
 40
0.0
 40
0.0
 40
1.0
 40
1.0
 40
1.0
 40
2.0
 40
2.0
 40
2.0
 40
3.0
 40
3.0
 40
3.0
 40
4.0
 40
4.0
 40
4.0
 40
4.0
 10
296.57483452690968
 20
144.19653862847221
 30
0.0
 10
295.93611382378469
 20
143.39658745659722
 30
0.0
 10
295.37111816406247
 20
142.40405544704859
 30
0.0
 10
295.37111816406247
 20
140.8134548611111
 30
0.0
 10
295.37111816406247
 20
138.76293402777776
 30
0.0
 10
296.30852864583329
 20
137.69977756076386
 30
0.0
 10
297.13638509114583
 20
136.75995551215277
 30
0.0
 10
297.93736979166664
 20
135.84907226562498
 30
0.0
 10
298.63052300347221
 20
135.0618679470486
 30
0.0
 10
298.63052300347221
 20
133.41097819010415
 30
0.0
 10
298.63052300347221
 20
131.73700629340277
 30
0.0
 10
297.91049804687498
 20
130.91431749131942
 30
0.0
 10
297.14844292534718
 20
130.04374186197916
 30
0.0
  0
MTEXT
  5
413
100
AcDbEntity
  8
レイヤー_1
 62
     7
100
AcDbMText
 10
125.344804
 20
129.004028
 30
0.0
 40
2.624835
 41
0.0
 71
     1
 72
     2
  1
\fMSGothic 90ms|b0|i0|c128;\H2.6248;\C7;\U+0032
  7
STD
210
0.0
220
0.0
230
1.0
 73
     1
 44
1.0
  0
MTEXT
  5
412
100
AcDbEntity
  8
レイヤー_1
 62
     7
100
AcDbMText
 10
127.123334
 20
132.590373
 30
0.0
 40
2.624835
 41
0.0
 71
     1
 72
     2
  1
\fMSGothic 90ms|b0|i0|c128;\H2.6248;\C7;\U+0030\U+002E\U+0035
  7
STD
210
0.0
220
0.0
230
1.0
 73
     1
 44
1.0
  0
MTEXT
  5
411
100
AcDbEntity
  8
レイヤー_1
 62
     7
100
AcDbMText
 10
133.708634
 20
132.590373
 30
0.0
 40
2.624835
 41
0.0
 71
     1
 72
     2
  1
\fMSGothic 90ms|b0|i0|c128;\H2.6248;\C7;\U+0030\U+002E\U+0035
  7
STD
210
0.0
220
0.0
230
1.0
 73
     1
 44
1.0
  0
LINE
  5
410
100
AcDbEntity
  8
レイヤー_1
 62
     7
100
AcDbLine
 10
130.316938
 20
114.610748
 30
0.0
 11
130.316938
 21
125.986453
 31
0.0
  0
LINE
  5
40F
100
AcDbEntity
  8
レイヤー_1
 62
     7
100
AcDbLine
 10
128.399398
 20
114.777835
 30
0.0
 11
128.399398
 21
125.984041
 31
0.0
  0
LINE
  5
40E
100
AcDbEntity
  8
レイヤー_1
 62
     7
100
AcDbLine
 10
124.316787
 20
114.608336
 30
0.0
 11
124.316787
 21
141.968251
 31
0.0
  0
LINE
  5
40D
100
AcDbEntity
  8
レイヤー_1
 62
     7
100
AcDbLine
 10
380.319938
 20
114.608336
 30
0.0
 11
380.319938
 21
141.968251
 31
0.0
  0
LINE
  5
40C
100
AcDbEntity
  8
レイヤー_1
 62
     7
100
AcDbLine
 10
124.316787
 20
122.589589
 30
0.0
 11
128.340659
 21
122.589589
 31
0.0
  0
LINE
  5
40B
100
AcDbEntity
  8
レイヤー_1
 62
     7
100
AcDbLine
 10
128.399398
 20
124.667326
 30
0.0
 11
131.349605
 21
124.667326
 31
0.0
  0
HATCH
  5
40A
100
AcDbEntity
  8
レイヤー_1
 62
     7
100
AcDbHatch
 10
0.0
 20
0.0
 30
0.0
210
0.0
220
0.0
230
1.0
  2
SOLID
 70
     1
 71
     0
 91
        1
 92
        3
 72
     0
 73
     1
 93
        3
 10
125.94114990234374
 20
123.00506727430555
 10
124.31678738064235
 20
122.58958875868055
 10
125.94114990234374
 20
122.17411024305555
 97
        0
 75
     2
 76
     1
 98
        1
 10
0.0
 20
0.0
  0
HATCH
  5
409
100
AcDbEntity
  8
レイヤー_1
 62
     7
100
AcDbHatch
 10
0.0
 20
0.0
 30
0.0
210
0.0
220
0.0
230
1.0
  2
SOLID
 70
     1
 71
     0
 91
        1
 92
        3
 72
     0
 73
     1
 93
        3
 10
125.94114990234374
 20
138.15039605034721
 10
124.31678738064235
 20
137.7349175347222
 10
125.94114990234374
 20
137.31943901909722
 97
        0
 75
     2
 76
     1
 98
        1
 10
0.0
 20
0.0
  0
HATCH
  5
408
100
AcDbEntity
  8
レイヤー_1
 62
     7
100
AcDbHatch
 10
0.0
 20
0.0
 30
0.0
210
0.0
220
0.0
230
1.0
  2
SOLID
 70
     1
 71
     0
 91
        1
 92
        3
 72
     0
 73
     1
 93
        3
 10
378.69557562934023
 20
137.31943901909722
 10
380.31993815104164
 20
137.7349175347222
 10
378.69557562934023
 20
138.15039605034721
 97
        0
 75
     2
 76
     1
 98
        1
 10
0.0
 20
0.0
  0
HATCH
  5
407
100
AcDbEntity
  8
レイヤー_1
 62
     7
100
AcDbHatch
 10
0.0
 20
0.0
 30
0.0
210
0.0
220
0.0
230
1.0
  2
SOLID
 70
     1
 71
     0
 91
        1
 92
        3
 72
     0
 73
     1
 93
        3
 10
131.94130045572916
 20
125.08280436197916
 10
130.31693793402778
 20
124.66732584635416
 10
131.94130045572916
 20
124.25184733072915
 97
        0
 75
     2
 76
     1
 98
        1
 10
0.0
 20
0.0
  0
HATCH
  5
406
100
AcDbEntity
  8
レイヤー_1
 62
     7
100
AcDbHatch
 10
0.0
 20
0.0
 30
0.0
210
0.0
220
0.0
230
1.0
  2
SOLID
 70
     1
 71
     0
 91
        1
 92
        3
 72
     0
 73
     1
 93
        3
 10
126.77537977430555
 20
125.08280436197916
 10
128.39939778645831
 20
124.66732584635416
 10
126.77537977430555
 20
124.25184733072915
 97
        0
 75
     2
 76
     1
 98
        1
 10
0.0
 20
0.0
  0
HATCH
  5
405
100
AcDbEntity
  8
レイヤー_1
 62
     7
100
AcDbHatch
 10
0.0
 20
0.0
 30
0.0
210
0.0
220
0.0
230
1.0
  2
SOLID
 70
     1
 71
     0
 91
        1
 92
        3
 72
     0
 73
     1
 93
        3
 10
126.77537977430555
 20
123.00506727430555
 10
128.39939778645831
 20
122.58958875868055
 10
126.77537977430555
 20
122.17411024305555
 97
        0
 75
     2
 76
     1
 98
        1
 10
0.0
 20
0.0
  0
MTEXT
  5
404
100
AcDbEntity
  8
レイヤー_1
 62
     7
100
AcDbMText
 10
132.377622
 20
129.004028
 30
0.0
 40
2.624835
 41
0.0
 71
     1
 72
     2
  1
\fMSGothic 90ms|b0|i0|c128;\H2.6248;\C7;\U+0032
  7
STD
210
0.0
220
0.0
230
1.0
 73
     1
 44
1.0
  0
LINE
  5
403
100
AcDbEntity
  8
レイヤー_1
 62
     7
100
AcDbLine
 10
136.316916
 20
114.610748
 30
0.0
 11
136.316916
 21
125.986453
 31
0.0
  0
LINE
  5
402
100
AcDbEntity
  8
レイヤー_1
 62
     7
100
AcDbLine
 10
134.399548
 20
114.777835
 30
0.0
 11
134.399548
 21
125.984041
 31
0.0
  0
LINE
  5
401
100
AcDbEntity
  8
レイヤー_1
 62
     7
100
AcDbLine
 10
130.316938
 20
122.589589
 30
0.0
 11
134.340809
 21
122.589589
 31
0.0
  0
LINE
  5
400
100
AcDbEntity
  8
レイヤー_1
 62
     7
100
AcDbLine
 10
134.399548
 20
124.667326
 30
0.0
 11
137.349756
 21
124.667326
 31
0.0
  0
LINE
  5
3FF
100
AcDbEntity
  8
レイヤー_1
 62
     7
100
AcDbLine
 10
124.316787
 20
137.734918
 30
0.0
 11
296.641325
 21
137.734918
 31
0.0
  0
LINE
  5
3FE
100
AcDbEntity
  8
レイヤー_1
 62
     7
100
AcDbLine
 10
298.368351
 20
137.734918
 30
0.0
 11
380.319938
 21
137.734918
 31
0.0
  0
HATCH
  5
3FD
100
AcDbEntity
  8
レイヤー_1
 62
     7
100
AcDbHatch
 10
0.0
 20
0.0
 30
0.0
210
0.0
220
0.0
230
1.0
  2
SOLID
 70
     1
 71
     0
 91
        1
 92
        3
 72
     0
 73
     1
 93
        3
 10
131.94130045572916
 20
123.00506727430555
 10
130.31693793402778
 20
122.58958875868055
 10
131.94130045572916
 20
122.17411024305555
 97
        0
 75
     2
 76
     1
 98
        1
 10
0.0
 20
0.0
  0
HATCH
  5
3FC
100
AcDbEntity
  8
レイヤー_1
 62
     7
100
AcDbHatch
 10
0.0
 20
0.0
 30
0.0
210
0.0
220
0.0
230
1.0
  2
SOLID
 70
     1
 71
     0
 91
        1
 92
        3
 72
     0
 73
     1
 93
        3
 10
137.94127875434026
 20
125.08280436197916
 10
136.31691623263887
 20
124.66732584635416
 10
137.94127875434026
 20
124.25184733072915
 97
        0
 75
     2
 76
     1
 98
        1
 10
0.0
 20
0.0
  0
HATCH
  5
3FB
100
AcDbEntity
  8
レイヤー_1
 62
     7
100
AcDbHatch
 10
0.0
 20
0.0
 30
0.0
210
0.0
220
0.0
230
1.0
  2
SOLID
 70
     1
 71
     0
 91
        1
 92
        3
 72
     0
 73
     1
 93
        3
 10
132.77553032769097
 20
125.08280436197916
 10
134.39954833984373
 20
124.66732584635416
 10
132.77553032769097
 20
124.25184733072915
 97
        0
 75
     2
 76
     1
 98
        1
 10
0.0
 20
0.0
  0
HATCH
  5
3FA
100
AcDbEntity
  8
レイヤー_1
 62
     7
100
AcDbHatch
 10
0.0
 20
0.0
 30
0.0
210
0.0
220
0.0
230
1.0
  2
SOLID
 70
     1
 71
     0
 91
        1
 92
        3
 72
     0
 73
     1
 93
        3
 10
132.77553032769097
 20
123.00506727430555
 10
134.39954833984373
 20
122.58958875868055
 10
132.77553032769097
 20
122.17411024305555
 97
        0
 75
     2
 76
     1
 98
        1
 10
0.0
 20
0.0
  0
SPLINE
  5
3F9
100
AcDbEntity
  8
レイヤー_1
 62
     7
100
AcDbSpline
210
0.0
220
0.0
230
1.0
 70
     8
 71
     3
 72
    17
 73
    13
 74
     0
 42
0.00000001
 43
0.00000001
 40
0.0
 40
0.0
 40
0.0
 40
0.0
 40
1.0
 40
1.0
 40
1.0
 40
2.0
 40
2.0
 40
2.0
 40
3.0
 40
3.0
 40
3.0
 40
4.0
 40
4.0
 40
4.0
 40
4.0
 10
51.141925726996526
 20
214.83701578776041
 30
0.0
 10
51.141925726996526
 20
203.25770534939235
 30
0.0
 10
60.562539333767354
 20
193.83709174262151
 30
0.0
 10
72.141849772135416
 20
193.83709174262151
 30
0.0
 10
83.72116021050347
 20
193.83709174262151
 30
0.0
 10
93.141773817274299
 20
203.25770534939235
 30
0.0
 10
93.141773817274299
 20
214.83701578776041
 30
0.0
 10
93.141773817274299
 20
226.41632622612846
 30
0.0
 10
83.72116021050347
 20
235.83693983289928
 30
0.0
 10
72.141849772135416
 20
235.83693983289928
 30
0.0
 10
60.562539333767354
 20
235.83693983289928
 30
0.0
 10
51.141925726996526
 20
226.41632622612846
 30
0.0
 10
51.141925726996526
 20
214.83701578776041
 30
0.0
  0
CIRCLE
  5
3F8
100
AcDbEntity
  8
レイヤー_1
 62
     7
100
AcDbCircle
 10
72.14185
 20
214.837016
 30
0.0
 40
16.000057
  0
CIRCLE
  5
3F7
100
AcDbEntity
  8
レイヤー_1
 62
     7
100
AcDbCircle
 10
72.14185
 20
100.188889
 30
0.0
 40
11.999957
  0
CIRCLE
  5
3F6
100
AcDbEntity
  8
レイヤー_1
 62
     7
100
AcDbCircle
 10
72.14185
 20
100.188889
 30
0.0
 40
10.000079
  0
POLYLINE
  5
3F0
100
AcDbEntity
  8
レイヤー_1
 62
     7
100
AcDb2dPolyline
 66
     1
 10
0.0
 20
0.0
 30
0.0
 70
     1
  0
VERTEX
  5
3F1
100
AcDbEntity
  8
レイヤー_1
 62
     7
100
AcDbVertex
100
AcDb2dVertex
 10
131.327212
 20
193.837092
 30
0.0
  0
VERTEX
  5
3F2
100
AcDbEntity
  8
レイヤー_1
 62
     7
100
AcDbVertex
100
AcDb2dVertex
 10
127.327112
 20
193.837092
 30
0.0
  0
VERTEX
  5
3F3
100
AcDbEntity
  8
レイヤー_1
 62
     7
100
AcDbVertex
100
AcDb2dVertex
 10
127.327112
 20
235.83694
 30
0.0
  0
VERTEX
  5
3F4
100
AcDbEntity
  8
レイヤー_1
 62
     7
100
AcDbVertex
100
AcDb2dVertex
 10
131.327212
 20
235.83694
 30
0.0
  0
SEQEND
  5
3F5
100
AcDbEntity
  8
レイヤー_1
 62
     7
  0
POLYLINE
  5
3EA
100
AcDbEntity
  8
レイヤー_1
 62
     7
100
AcDb2dPolyline
 66
     1
 10
0.0
 20
0.0
 30
0.0
 70
     1
  0
VERTEX
  5
3EB
100
AcDbEntity
  8
レイヤー_1
 62
     7
100
AcDbVertex
100
AcDb2dVertex
 10
134.327201
 20
198.836959
 30
0.0
  0
VERTEX
  5
3EC
100
AcDbEntity
  8
レイヤー_1
 62
     7
100
AcDbVertex
100
AcDb2dVertex
 10
131.327212
 20
198.836959
 30
0.0
  0
VERTEX
  5
3ED
100
AcDbEntity
  8
レイヤー_1
 62
     7
100
AcDbVertex
100
AcDb2dVertex
 10
131.327212
 20
230.837073
 30
0.0
  0
VERTEX
  5
3EE
100
AcDbEntity
  8
レイヤー_1
 62
     7
100
AcDbVertex
100
AcDb2dVertex
 10
134.327201
 20
230.837073
 30
0.0
  0
SEQEND
  5
3EF
100
AcDbEntity
  8
レイヤー_1
 62
     7
  0
POLYLINE
  5
3E4
100
AcDbEntity
  8
レイヤー_1
 62
     7
100
AcDb2dPolyline
 66
     1
 10
0.0
 20
0.0
 30
0.0
 70
     1
  0
VERTEX
  5
3E5
100
AcDbEntity
  8
レイヤー_1
 62
     7
100
AcDbVertex
100
AcDb2dVertex
 10
138.327302
 20
193.837092
 30
0.0
  0
VERTEX
  5
3E6
100
AcDbEntity
  8
レイヤー_1
 62
     7
100
AcDbVertex
100
AcDb2dVertex
 10
134.327201
 20
193.837092
 30
0.0
  0
VERTEX
  5
3E7
100
AcDbEntity
  8
レイヤー_1
 62
     7
100
AcDbVertex
100
AcDb2dVertex
 10
134.327201
 20
235.83694
 30
0.0
  0
VERTEX
  5
3E8
100
AcDbEntity
  8
レイヤー_1
 62
     7
100
AcDbVertex
100
AcDb2dVertex
 10
138.327302
 20
235.83694
 30
0.0
  0
SEQEND
  5
3E9
100
AcDbEntity
  8
レイヤー_1
 62
     7
  0
POLYLINE
  5
3DE
100
AcDbEntity
  8
レイヤー_1
 62
     7
100
AcDb2dPolyline
 66
     1
 10
0.0
 20
0.0
 30
0.0
 70
     1
  0
VERTEX
  5
3DF
100
AcDbEntity
  8
レイヤー_1
 62
     7
100
AcDbVertex
100
AcDb2dVertex
 10
141.327291
 20
198.836959
 30
0.0
  0
VERTEX
  5
3E0
100
AcDbEntity
  8
レイヤー_1
 62
     7
100
AcDbVertex
100
AcDb2dVertex
 10
138.327302
 20
198.836959
 30
0.0
  0
VERTEX
  5
3E1
100
AcDbEntity
  8
レイヤー_1
 62
     7
100
AcDbVertex
100
AcDb2dVertex
 10
138.327302
 20
230.837073
 30
0.0
  0
VERTEX
  5
3E2
100
AcDbEntity
  8
レイヤー_1
 62
     7
100
AcDbVertex
100
AcDb2dVertex
 10
141.327291
 20
230.837073
 30
0.0
  0
SEQEND
  5
3E3
100
AcDbEntity
  8
レイヤー_1
 62
     7
  0
POLYLINE
  5
3D8
100
AcDbEntity
  8
レイヤー_1
 62
     7
100
AcDb2dPolyline
 66
     1
 10
0.0
 20
0.0
 30
0.0
 70
     1
  0
VERTEX
  5
3D9
100
AcDbEntity
  8
レイヤー_1
 62
     7
100
AcDbVertex
100
AcDb2dVertex
 10
145.327391
 20
193.837092
 30
0.0
  0
VERTEX
  5
3DA
100
AcDbEntity
  8
レイヤー_1
 62
     7
100
AcDbVertex
100
AcDb2dVertex
 10
141.327291
 20
193.837092
 30
0.0
  0
VERTEX
  5
3DB
100
AcDbEntity
  8
レイヤー_1
 62
     7
100
AcDbVertex
100
AcDb2dVertex
 10
141.327291
 20
235.83694
 30
0.0
  0
VERTEX
  5
3DC
100
AcDbEntity
  8
レイヤー_1
 62
     7
100
AcDbVertex
100
AcDb2dVertex
 10
145.327391
 20
235.83694
 30
0.0
  0
SEQEND
  5
3DD
100
AcDbEntity
  8
レイヤー_1
 62
     7
  0
POLYLINE
  5
3D2
100
AcDbEntity
  8
レイヤー_1
 62
     7
100
AcDb2dPolyline
 66
     1
 10
0.0
 20
0.0
 30
0.0
 70
     1
  0
VERTEX
  5
3D3
100
AcDbEntity
  8
レイヤー_1
 62
     7
100
AcDbVertex
100
AcDb2dVertex
 10
148.32738
 20
198.836959
 30
0.0
  0
VERTEX
  5
3D4
100
AcDbEntity
  8
レイヤー_1
 62
     7
100
AcDbVertex
100
AcDb2dVertex
 10
145.327391
 20
198.836959
 30
0.0
  0
VERTEX
  5
3D5
100
AcDbEntity
  8
レイヤー_1
 62
     7
100
AcDbVertex
100
AcDb2dVertex
 10
145.327391
 20
230.837073
 30
0.0
  0
VERTEX
  5
3D6
100
AcDbEntity
  8
レイヤー_1
 62
     7
100
AcDbVertex
100
AcDb2dVertex
 10
148.32738
 20
230.837073
 30
0.0
  0
SEQEND
  5
3D7
100
AcDbEntity
  8
レイヤー_1
 62
     7
  0
POLYLINE
  5
3CC
100
AcDbEntity
  8
レイヤー_1
 62
     7
100
AcDb2dPolyline
 66
     1
 10
0.0
 20
0.0
 30
0.0
 70
     1
  0
VERTEX
  5
3CD
100
AcDbEntity
  8
レイヤー_1
 62
     7
100
AcDbVertex
100
AcDb2dVertex
 10
152.327481
 20
193.837092
 30
0.0
  0
VERTEX
  5
3CE
100
AcDbEntity
  8
レイヤー_1
 62
     7
100
AcDbVertex
100
AcDb2dVertex
 10
148.32738
 20
193.837092
 30
0.0
  0
VERTEX
  5
3CF
100
AcDbEntity
  8
レイヤー_1
 62
     7
100
AcDbVertex
100
AcDb2dVertex
 10
148.32738
 20
235.83694
 30
0.0
  0
VERTEX
  5
3D0
100
AcDbEntity
  8
レイヤー_1
 62
     7
100
AcDbVertex
100
AcDb2dVertex
 10
152.327481
 20
235.83694
 30
0.0
  0
SEQEND
  5
3D1
100
AcDbEntity
  8
レイヤー_1
 62
     7
  0
POLYLINE
  5
3C6
100
AcDbEntity
  8
レイヤー_1
 62
     7
100
AcDb2dPolyline
 66
     1
 10
0.0
 20
0.0
 30
0.0
 70
     1
  0
VERTEX
  5
3C7
100
AcDbEntity
  8
レイヤー_1
 62
     7
100
AcDbVertex
100
AcDb2dVertex
 10
155.32747
 20
198.836959
 30
0.0
  0
VERTEX
  5
3C8
100
AcDbEntity
  8
レイヤー_1
 62
     7
100
AcDbVertex
100
AcDb2dVertex
 10
152.327481
 20
198.836959
 30
0.0
  0
VERTEX
  5
3C9
100
AcDbEntity
  8
レイヤー_1
 62
     7
100
AcDbVertex
100
AcDb2dVertex
 10
152.327481
 20
230.837073
 30
0.0
  0
VERTEX
  5
3CA
100
AcDbEntity
  8
レイヤー_1
 62
     7
100
AcDbVertex
100
AcDb2dVertex
 10
155.32747
 20
230.837073
 30
0.0
  0
SEQEND
  5
3CB
100
AcDbEntity
  8
レイヤー_1
 62
     7
  0
POLYLINE
  5
3C0
100
AcDbEntity
  8
レイヤー_1
 62
     7
100
AcDb2dPolyline
 66
     1
 10
0.0
 20
0.0
 30
0.0
 70
     1
  0
VERTEX
  5
3C1
100
AcDbEntity
  8
レイヤー_1
 62
     7
100
AcDbVertex
100
AcDb2dVertex
 10
159.32757
 20
193.837092
 30
0.0
  0
VERTEX
  5
3C2
100
AcDbEntity
  8
レイヤー_1
 62
     7
100
AcDbVertex
100
AcDb2dVertex
 10
155.32747
 20
193.837092
 30
0.0
  0
VERTEX
  5
3C3
100
AcDbEntity
  8
レイヤー_1
 62
     7
100
AcDbVertex
100
AcDb2dVertex
 10
155.32747
 20
235.83694
 30
0.0
  0
VERTEX
  5
3C4
100
AcDbEntity
  8
レイヤー_1
 62
     7
100
AcDbVertex
100
AcDb2dVertex
 10
159.32757
 20
235.83694
 30
0.0
  0
SEQEND
  5
3C5
100
AcDbEntity
  8
レイヤー_1
 62
     7
  0
POLYLINE
  5
3BA
100
AcDbEntity
  8
レイヤー_1
 62
     7
100
AcDb2dPolyline
 66
     1
 10
0.0
 20
0.0
 30
0.0
 70
     1
  0
VERTEX
  5
3BB
100
AcDbEntity
  8
レイヤー_1
 62
     7
100
AcDbVertex
100
AcDb2dVertex
 10
162.327559
 20
198.836959
 30
0.0
  0
VERTEX
  5
3BC
100
AcDbEntity
  8
レイヤー_1
 62
     7
100
AcDbVertex
100
AcDb2dVertex
 10
159.32757
 20
198.836959
 30
0.0
  0
VERTEX
  5
3BD
100
AcDbEntity
  8
レイヤー_1
 62
     7
100
AcDbVertex
100
AcDb2dVertex
 10
159.32757
 20
230.837073
 30
0.0
  0
VERTEX
  5
3BE
100
AcDbEntity
  8
レイヤー_1
 62
     7
100
AcDbVertex
100
AcDb2dVertex
 10
162.327559
 20
230.837073
 30
0.0
  0
SEQEND
  5
3BF
100
AcDbEntity
  8
レイヤー_1
 62
     7
  0
POLYLINE
  5
3B4
100
AcDbEntity
  8
レイヤー_1
 62
     7
100
AcDb2dPolyline
 66
     1
 10
0.0
 20
0.0
 30
0.0
 70
     1
  0
VERTEX
  5
3B5
100
AcDbEntity
  8
レイヤー_1
 62
     7
100
AcDbVertex
100
AcDb2dVertex
 10
166.32766
 20
193.837092
 30
0.0
  0
VERTEX
  5
3B6
100
AcDbEntity
  8
レイヤー_1
 62
     7
100
AcDbVertex
100
AcDb2dVertex
 10
162.327559
 20
193.837092
 30
0.0
  0
VERTEX
  5
3B7
100
AcDbEntity
  8
レイヤー_1
 62
     7
100
AcDbVertex
100
AcDb2dVertex
 10
162.327559
 20
235.83694
 30
0.0
  0
VERTEX
  5
3B8
100
AcDbEntity
  8
レイヤー_1
 62
     7
100
AcDbVertex
100
AcDb2dVertex
 10
166.32766
 20
235.83694
 30
0.0
  0
SEQEND
  5
3B9
100
AcDbEntity
  8
レイヤー_1
 62
     7
  0
POLYLINE
  5
3AE
100
AcDbEntity
  8
レイヤー_1
 62
     7
100
AcDb2dPolyline
 66
     1
 10
0.0
 20
0.0
 30
0.0
 70
     1
  0
VERTEX
  5
3AF
100
AcDbEntity
  8
レイヤー_1
 62
     7
100
AcDbVertex
100
AcDb2dVertex
 10
169.327821
 20
198.836959
 30
0.0
  0
VERTEX
  5
3B0
100
AcDbEntity
  8
レイヤー_1
 62
     7
100
AcDbVertex
100
AcDb2dVertex
 10
166.32766
 20
198.836959
 30
0.0
  0
VERTEX
  5
3B1
100
AcDbEntity
  8
レイヤー_1
 62
     7
100
AcDbVertex
100
AcDb2dVertex
 10
166.32766
 20
230.837073
 30
0.0
  0
VERTEX
  5
3B2
100
AcDbEntity
  8
レイヤー_1
 62
     7
100
AcDbVertex
100
AcDb2dVertex
 10
169.327821
 20
230.837073
 30
0.0
  0
SEQEND
  5
3B3
100
AcDbEntity
  8
レイヤー_1
 62
     7
  0
POLYLINE
  5
3A8
100
AcDbEntity
  8
レイヤー_1
 62
     7
100
AcDb2dPolyline
 66
     1
 10
0.0
 20
0.0
 30
0.0
 70
     1
  0
VERTEX
  5
3A9
100
AcDbEntity
  8
レイヤー_1
 62
     7
100
AcDbVertex
100
AcDb2dVertex
 10
173.327577
 20
193.837092
 30
0.0
  0
VERTEX
  5
3AA
100
AcDbEntity
  8
レイヤー_1
 62
     7
100
AcDbVertex
100
AcDb2dVertex
 10
169.327821
 20
193.837092
 30
0.0
  0
VERTEX
  5
3AB
100
AcDbEntity
  8
レイヤー_1
 62
     7
100
AcDbVertex
100
AcDb2dVertex
 10
169.327821
 20
235.83694
 30
0.0
  0
VERTEX
  5
3AC
100
AcDbEntity
  8
レイヤー_1
 62
     7
100
AcDbVertex
100
AcDb2dVertex
 10
173.327577
 20
235.83694
 30
0.0
  0
SEQEND
  5
3AD
100
AcDbEntity
  8
レイヤー_1
 62
     7
  0
POLYLINE
  5
3A2
100
AcDbEntity
  8
レイヤー_1
 62
     7
100
AcDb2dPolyline
 66
     1
 10
0.0
 20
0.0
 30
0.0
 70
     1
  0
VERTEX
  5
3A3
100
AcDbEntity
  8
レイヤー_1
 62
     7
100
AcDbVertex
100
AcDb2dVertex
 10
176.327566
 20
198.836959
 30
0.0
  0
VERTEX
  5
3A4
100
AcDbEntity
  8
レイヤー_1
 62
     7
100
AcDbVertex
100
AcDb2dVertex
 10
173.327577
 20
198.836959
 30
0.0
  0
VERTEX
  5
3A5
100
AcDbEntity
  8
レイヤー_1
 62
     7
100
AcDbVertex
100
AcDb2dVertex
 10
173.327577
 20
230.837073
 30
0.0
  0
VERTEX
  5
3A6
100
AcDbEntity
  8
レイヤー_1
 62
     7
100
AcDbVertex
100
AcDb2dVertex
 10
176.327566
 20
230.837073
 30
0.0
  0
SEQEND
  5
3A7
100
AcDbEntity
  8
レイヤー_1
 62
     7
  0
POLYLINE
  5
39C
100
AcDbEntity
  8
レイヤー_1
 62
     7
100
AcDb2dPolyline
 66
     1
 10
0.0
 20
0.0
 30
0.0
 70
     1
  0
VERTEX
  5
39D
100
AcDbEntity
  8
レイヤー_1
 62
     7
100
AcDbVertex
100
AcDb2dVertex
 10
180.328011
 20
193.837092
 30
0.0
  0
VERTEX
  5
39E
100
AcDbEntity
  8
レイヤー_1
 62
     7
100
AcDbVertex
100
AcDb2dVertex
 10
176.327566
 20
193.837092
 30
0.0
  0
VERTEX
  5
39F
100
AcDbEntity
  8
レイヤー_1
 62
     7
100
AcDbVertex
100
AcDb2dVertex
 10
176.327566
 20
235.83694
 30
0.0
  0
VERTEX
  5
3A0
100
AcDbEntity
  8
レイヤー_1
 62
     7
100
AcDbVertex
100
AcDb2dVertex
 10
180.328011
 20
235.83694
 30
0.0
  0
SEQEND
  5
3A1
100
AcDbEntity
  8
レイヤー_1
 62
     7
  0
POLYLINE
  5
396
100
AcDbEntity
  8
レイヤー_1
 62
     7
100
AcDb2dPolyline
 66
     1
 10
0.0
 20
0.0
 30
0.0
 70
     1
  0
VERTEX
  5
397
100
AcDbEntity
  8
レイヤー_1
 62
     7
100
AcDbVertex
100
AcDb2dVertex
 10
183.328
 20
198.836959
 30
0.0
  0
VERTEX
  5
398
100
AcDbEntity
  8
レイヤー_1
 62
     7
100
AcDbVertex
100
AcDb2dVertex
 10
180.328011
 20
198.836959
 30
0.0
  0
VERTEX
  5
399
100
AcDbEntity
  8
レイヤー_1
 62
     7
100
AcDbVertex
100
AcDb2dVertex
 10
180.328011
 20
230.837073
 30
0.0
  0
VERTEX
  5
39A
100
AcDbEntity
  8
レイヤー_1
 62
     7
100
AcDbVertex
100
AcDb2dVertex
 10
183.328
 20
230.837073
 30
0.0
  0
SEQEND
  5
39B
100
AcDbEntity
  8
レイヤー_1
 62
     7
  0
POLYLINE
  5
390
100
AcDbEntity
  8
レイヤー_1
 62
     7
100
AcDb2dPolyline
 66
     1
 10
0.0
 20
0.0
 30
0.0
 70
     1
  0
VERTEX
  5
391
100
AcDbEntity
  8
レイヤー_1
 62
     7
100
AcDbVertex
100
AcDb2dVertex
 10
187.327756
 20
193.837092
 30
0.0
  0
VERTEX
  5
392
100
AcDbEntity
  8
レイヤー_1
 62
     7
100
AcDbVertex
100
AcDb2dVertex
 10
183.328
 20
193.837092
 30
0.0
  0
VERTEX
  5
393
100
AcDbEntity
  8
レイヤー_1
 62
     7
100
AcDbVertex
100
AcDb2dVertex
 10
183.328
 20
235.83694
 30
0.0
  0
VERTEX
  5
394
100
AcDbEntity
  8
レイヤー_1
 62
     7
100
AcDbVertex
100
AcDb2dVertex
 10
187.327756
 20
235.83694
 30
0.0
  0
SEQEND
  5
395
100
AcDbEntity
  8
レイヤー_1
 62
     7
  0
POLYLINE
  5
38A
100
AcDbEntity
  8
レイヤー_1
 62
     7
100
AcDb2dPolyline
 66
     1
 10
0.0
 20
0.0
 30
0.0
 70
     1
  0
VERTEX
  5
38B
100
AcDbEntity
  8
レイヤー_1
 62
     7
100
AcDbVertex
100
AcDb2dVertex
 10
190.327745
 20
198.836959
 30
0.0
  0
VERTEX
  5
38C
100
AcDbEntity
  8
レイヤー_1
 62
     7
100
AcDbVertex
100
AcDb2dVertex
 10
187.327756
 20
198.836959
 30
0.0
  0
VERTEX
  5
38D
100
AcDbEntity
  8
レイヤー_1
 62
     7
100
AcDbVertex
100
AcDb2dVertex
 10
187.327756
 20
230.837073
 30
0.0
  0
VERTEX
  5
38E
100
AcDbEntity
  8
レイヤー_1
 62
     7
100
AcDbVertex
100
AcDb2dVertex
 10
190.327745
 20
230.837073
 30
0.0
  0
SEQEND
  5
38F
100
AcDbEntity
  8
レイヤー_1
 62
     7
  0
POLYLINE
  5
384
100
AcDbEntity
  8
レイヤー_1
 62
     7
100
AcDb2dPolyline
 66
     1
 10
0.0
 20
0.0
 30
0.0
 70
     1
  0
VERTEX
  5
385
100
AcDbEntity
  8
レイヤー_1
 62
     7
100
AcDbVertex
100
AcDb2dVertex
 10
194.32819
 20
193.837092
 30
0.0
  0
VERTEX
  5
386
100
AcDbEntity
  8
レイヤー_1
 62
     7
100
AcDbVertex
100
AcDb2dVertex
 10
190.327745
 20
193.837092
 30
0.0
  0
VERTEX
  5
387
100
AcDbEntity
  8
レイヤー_1
 62
     7
100
AcDbVertex
100
AcDb2dVertex
 10
190.327745
 20
235.83694
 30
0.0
  0
VERTEX
  5
388
100
AcDbEntity
  8
レイヤー_1
 62
     7
100
AcDbVertex
100
AcDb2dVertex
 10
194.32819
 20
235.83694
 30
0.0
  0
SEQEND
  5
389
100
AcDbEntity
  8
レイヤー_1
 62
     7
  0
POLYLINE
  5
37E
100
AcDbEntity
  8
レイヤー_1
 62
     7
100
AcDb2dPolyline
 66
     1
 10
0.0
 20
0.0
 30
0.0
 70
     1
  0
VERTEX
  5
37F
100
AcDbEntity
  8
レイヤー_1
 62
     7
100
AcDbVertex
100
AcDb2dVertex
 10
197.328179
 20
198.836959
 30
0.0
  0
VERTEX
  5
380
100
AcDbEntity
  8
レイヤー_1
 62
     7
100
AcDbVertex
100
AcDb2dVertex
 10
194.32819
 20
198.836959
 30
0.0
  0
VERTEX
  5
381
100
AcDbEntity
  8
レイヤー_1
 62
     7
100
AcDbVertex
100
AcDb2dVertex
 10
194.32819
 20
230.837073
 30
0.0
  0
VERTEX
  5
382
100
AcDbEntity
  8
レイヤー_1
 62
     7
100
AcDbVertex
100
AcDb2dVertex
 10
197.328179
 20
230.837073
 30
0.0
  0
SEQEND
  5
383
100
AcDbEntity
  8
レイヤー_1
 62
     7
  0
POLYLINE
  5
378
100
AcDbEntity
  8
レイヤー_1
 62
     7
100
AcDb2dPolyline
 66
     1
 10
0.0
 20
0.0
 30
0.0
 70
     1
  0
VERTEX
  5
379
100
AcDbEntity
  8
レイヤー_1
 62
     7
100
AcDbVertex
100
AcDb2dVertex
 10
201.327935
 20
193.837092
 30
0.0
  0
VERTEX
  5
37A
100
AcDbEntity
  8
レイヤー_1
 62
     7
100
AcDbVertex
100
AcDb2dVertex
 10
197.328179
 20
193.837092
 30
0.0
  0
VERTEX
  5
37B
100
AcDbEntity
  8
レイヤー_1
 62
     7
100
AcDbVertex
100
AcDb2dVertex
 10
197.328179
 20
235.83694
 30
0.0
  0
VERTEX
  5
37C
100
AcDbEntity
  8
レイヤー_1
 62
     7
100
AcDbVertex
100
AcDb2dVertex
 10
201.327935
 20
235.83694
 30
0.0
  0
SEQEND
  5
37D
100
AcDbEntity
  8
レイヤー_1
 62
     7
  0
POLYLINE
  5
372
100
AcDbEntity
  8
レイヤー_1
 62
     7
100
AcDb2dPolyline
 66
     1
 10
0.0
 20
0.0
 30
0.0
 70
     1
  0
VERTEX
  5
373
100
AcDbEntity
  8
レイヤー_1
 62
     7
100
AcDbVertex
100
AcDb2dVertex
 10
204.327924
 20
198.836959
 30
0.0
  0
VERTEX
  5
374
100
AcDbEntity
  8
レイヤー_1
 62
     7
100
AcDbVertex
100
AcDb2dVertex
 10
201.327935
 20
198.836959
 30
0.0
  0
VERTEX
  5
375
100
AcDbEntity
  8
レイヤー_1
 62
     7
100
AcDbVertex
100
AcDb2dVertex
 10
201.327935
 20
230.837073
 30
0.0
  0
VERTEX
  5
376
100
AcDbEntity
  8
レイヤー_1
 62
     7
100
AcDbVertex
100
AcDb2dVertex
 10
204.327924
 20
230.837073
 30
0.0
  0
SEQEND
  5
377
100
AcDbEntity
  8
レイヤー_1
 62
     7
  0
POLYLINE
  5
36C
100
AcDbEntity
  8
レイヤー_1
 62
     7
100
AcDb2dPolyline
 66
     1
 10
0.0
 20
0.0
 30
0.0
 70
     1
  0
VERTEX
  5
36D
100
AcDbEntity
  8
レイヤー_1
 62
     7
100
AcDbVertex
100
AcDb2dVertex
 10
208.328369
 20
193.837092
 30
0.0
  0
VERTEX
  5
36E
100
AcDbEntity
  8
レイヤー_1
 62
     7
100
AcDbVertex
100
AcDb2dVertex
 10
204.327924
 20
193.837092
 30
0.0
  0
VERTEX
  5
36F
100
AcDbEntity
  8
レイヤー_1
 62
     7
100
AcDbVertex
100
AcDb2dVertex
 10
204.327924
 20
235.83694
 30
0.0
  0
VERTEX
  5
370
100
AcDbEntity
  8
レイヤー_1
 62
     7
100
AcDbVertex
100
AcDb2dVertex
 10
208.328369
 20
235.83694
 30
0.0
  0
SEQEND
  5
371
100
AcDbEntity
  8
レイヤー_1
 62
     7
  0
POLYLINE
  5
366
100
AcDbEntity
  8
レイヤー_1
 62
     7
100
AcDb2dPolyline
 66
     1
 10
0.0
 20
0.0
 30
0.0
 70
     1
  0
VERTEX
  5
367
100
AcDbEntity
  8
レイヤー_1
 62
     7
100
AcDbVertex
100
AcDb2dVertex
 10
211.328358
 20
198.836959
 30
0.0
  0
VERTEX
  5
368
100
AcDbEntity
  8
レイヤー_1
 62
     7
100
AcDbVertex
100
AcDb2dVertex
 10
208.328369
 20
198.836959
 30
0.0
  0
VERTEX
  5
369
100
AcDbEntity
  8
レイヤー_1
 62
     7
100
AcDbVertex
100
AcDb2dVertex
 10
208.328369
 20
230.837073
 30
0.0
  0
VERTEX
  5
36A
100
AcDbEntity
  8
レイヤー_1
 62
     7
100
AcDbVertex
100
AcDb2dVertex
 10
211.328358
 20
230.837073
 30
0.0
  0
SEQEND
  5
36B
100
AcDbEntity
  8
レイヤー_1
 62
     7
  0
POLYLINE
  5
360
100
AcDbEntity
  8
レイヤー_1
 62
     7
100
AcDb2dPolyline
 66
     1
 10
0.0
 20
0.0
 30
0.0
 70
     1
  0
VERTEX
  5
361
100
AcDbEntity
  8
レイヤー_1
 62
     7
100
AcDbVertex
100
AcDb2dVertex
 10
215.328114
 20
193.837092
 30
0.0
  0
VERTEX
  5
362
100
AcDbEntity
  8
レイヤー_1
 62
     7
100
AcDbVertex
100
AcDb2dVertex
 10
211.328358
 20
193.837092
 30
0.0
  0
VERTEX
  5
363
100
AcDbEntity
  8
レイヤー_1
 62
     7
100
AcDbVertex
100
AcDb2dVertex
 10
211.328358
 20
235.83694
 30
0.0
  0
VERTEX
  5
364
100
AcDbEntity
  8
レイヤー_1
 62
     7
100
AcDbVertex
100
AcDb2dVertex
 10
215.328114
 20
235.83694
 30
0.0
  0
SEQEND
  5
365
100
AcDbEntity
  8
レイヤー_1
 62
     7
  0
POLYLINE
  5
35A
100
AcDbEntity
  8
レイヤー_1
 62
     7
100
AcDb2dPolyline
 66
     1
 10
0.0
 20
0.0
 30
0.0
 70
     1
  0
VERTEX
  5
35B
100
AcDbEntity
  8
レイヤー_1
 62
     7
100
AcDbVertex
100
AcDb2dVertex
 10
218.328103
 20
198.836959
 30
0.0
  0
VERTEX
  5
35C
100
AcDbEntity
  8
レイヤー_1
 62
     7
100
AcDbVertex
100
AcDb2dVertex
 10
215.328114
 20
198.836959
 30
0.0
  0
VERTEX
  5
35D
100
AcDbEntity
  8
レイヤー_1
 62
     7
100
AcDbVertex
100
AcDb2dVertex
 10
215.328114
 20
230.837073
 30
0.0
  0
VERTEX
  5
35E
100
AcDbEntity
  8
レイヤー_1
 62
     7
100
AcDbVertex
100
AcDb2dVertex
 10
218.328103
 20
230.837073
 30
0.0
  0
SEQEND
  5
35F
100
AcDbEntity
  8
レイヤー_1
 62
     7
  0
POLYLINE
  5
354
100
AcDbEntity
  8
レイヤー_1
 62
     7
100
AcDb2dPolyline
 66
     1
 10
0.0
 20
0.0
 30
0.0
 70
     1
  0
VERTEX
  5
355
100
AcDbEntity
  8
レイヤー_1
 62
     7
100
AcDbVertex
100
AcDb2dVertex
 10
222.328548
 20
193.837092
 30
0.0
  0
VERTEX
  5
356
100
AcDbEntity
  8
レイヤー_1
 62
     7
100
AcDbVertex
100
AcDb2dVertex
 10
218.328103
 20
193.837092
 30
0.0
  0
VERTEX
  5
357
100
AcDbEntity
  8
レイヤー_1
 62
     7
100
AcDbVertex
100
AcDb2dVertex
 10
218.328103
 20
235.83694
 30
0.0
  0
VERTEX
  5
358
100
AcDbEntity
  8
レイヤー_1
 62
     7
100
AcDbVertex
100
AcDb2dVertex
 10
222.328548
 20
235.83694
 30
0.0
  0
SEQEND
  5
359
100
AcDbEntity
  8
レイヤー_1
 62
     7
  0
POLYLINE
  5
34E
100
AcDbEntity
  8
レイヤー_1
 62
     7
100
AcDb2dPolyline
 66
     1
 10
0.0
 20
0.0
 30
0.0
 70
     1
  0
VERTEX
  5
34F
100
AcDbEntity
  8
レイヤー_1
 62
     7
100
AcDbVertex
100
AcDb2dVertex
 10
225.328537
 20
198.836959
 30
0.0
  0
VERTEX
  5
350
100
AcDbEntity
  8
レイヤー_1
 62
     7
100
AcDbVertex
100
AcDb2dVertex
 10
222.328548
 20
198.836959
 30
0.0
  0
VERTEX
  5
351
100
AcDbEntity
  8
レイヤー_1
 62
     7
100
AcDbVertex
100
AcDb2dVertex
 10
222.328548
 20
230.837073
 30
0.0
  0
VERTEX
  5
352
100
AcDbEntity
  8
レイヤー_1
 62
     7
100
AcDbVertex
100
AcDb2dVertex
 10
225.328537
 20
230.837073
 30
0.0
  0
SEQEND
  5
353
100
AcDbEntity
  8
レイヤー_1
 62
     7
  0
POLYLINE
  5
348
100
AcDbEntity
  8
レイヤー_1
 62
     7
100
AcDb2dPolyline
 66
     1
 10
0.0
 20
0.0
 30
0.0
 70
     1
  0
VERTEX
  5
349
100
AcDbEntity
  8
レイヤー_1
 62
     7
100
AcDbVertex
100
AcDb2dVertex
 10
229.328293
 20
193.837092
 30
0.0
  0
VERTEX
  5
34A
100
AcDbEntity
  8
レイヤー_1
 62
     7
100
AcDbVertex
100
AcDb2dVertex
 10
225.328537
 20
193.837092
 30
0.0
  0
VERTEX
  5
34B
100
AcDbEntity
  8
レイヤー_1
 62
     7
100
AcDbVertex
100
AcDb2dVertex
 10
225.328537
 20
235.83694
 30
0.0
  0
VERTEX
  5
34C
100
AcDbEntity
  8
レイヤー_1
 62
     7
100
AcDbVertex
100
AcDb2dVertex
 10
229.328293
 20
235.83694
 30
0.0
  0
SEQEND
  5
34D
100
AcDbEntity
  8
レイヤー_1
 62
     7
  0
POLYLINE
  5
342
100
AcDbEntity
  8
レイヤー_1
 62
     7
100
AcDb2dPolyline
 66
     1
 10
0.0
 20
0.0
 30
0.0
 70
     1
  0
VERTEX
  5
343
100
AcDbEntity
  8
レイヤー_1
 62
     7
100
AcDbVertex
100
AcDb2dVertex
 10
232.328282
 20
198.836959
 30
0.0
  0
VERTEX
  5
344
100
AcDbEntity
  8
レイヤー_1
 62
     7
100
AcDbVertex
100
AcDb2dVertex
 10
229.328293
 20
198.836959
 30
0.0
  0
VERTEX
  5
345
100
AcDbEntity
  8
レイヤー_1
 62
     7
100
AcDbVertex
100
AcDb2dVertex
 10
229.328293
 20
230.837073
 30
0.0
  0
VERTEX
  5
346
100
AcDbEntity
  8
レイヤー_1
 62
     7
100
AcDbVertex
100
AcDb2dVertex
 10
232.328282
 20
230.837073
 30
0.0
  0
SEQEND
  5
347
100
AcDbEntity
  8
レイヤー_1
 62
     7
  0
POLYLINE
  5
33C
100
AcDbEntity
  8
レイヤー_1
 62
     7
100
AcDb2dPolyline
 66
     1
 10
0.0
 20
0.0
 30
0.0
 70
     1
  0
VERTEX
  5
33D
100
AcDbEntity
  8
レイヤー_1
 62
     7
100
AcDbVertex
100
AcDb2dVertex
 10
236.328727
 20
193.837092
 30
0.0
  0
VERTEX
  5
33E
100
AcDbEntity
  8
レイヤー_1
 62
     7
100
AcDbVertex
100
AcDb2dVertex
 10
232.328282
 20
193.837092
 30
0.0
  0
VERTEX
  5
33F
100
AcDbEntity
  8
レイヤー_1
 62
     7
100
AcDbVertex
100
AcDb2dVertex
 10
232.328282
 20
235.83694
 30
0.0
  0
VERTEX
  5
340
100
AcDbEntity
  8
レイヤー_1
 62
     7
100
AcDbVertex
100
AcDb2dVertex
 10
236.328727
 20
235.83694
 30
0.0
  0
SEQEND
  5
341
100
AcDbEntity
  8
レイヤー_1
 62
     7
  0
POLYLINE
  5
336
100
AcDbEntity
  8
レイヤー_1
 62
     7
100
AcDb2dPolyline
 66
     1
 10
0.0
 20
0.0
 30
0.0
 70
     1
  0
VERTEX
  5
337
100
AcDbEntity
  8
レイヤー_1
 62
     7
100
AcDbVertex
100
AcDb2dVertex
 10
239.328716
 20
198.836959
 30
0.0
  0
VERTEX
  5
338
100
AcDbEntity
  8
レイヤー_1
 62
     7
100
AcDbVertex
100
AcDb2dVertex
 10
236.328727
 20
198.836959
 30
0.0
  0
VERTEX
  5
339
100
AcDbEntity
  8
レイヤー_1
 62
     7
100
AcDbVertex
100
AcDb2dVertex
 10
236.328727
 20
230.837073
 30
0.0
  0
VERTEX
  5
33A
100
AcDbEntity
  8
レイヤー_1
 62
     7
100
AcDbVertex
100
AcDb2dVertex
 10
239.328716
 20
230.837073
 30
0.0
  0
SEQEND
  5
33B
100
AcDbEntity
  8
レイヤー_1
 62
     7
  0
POLYLINE
  5
330
100
AcDbEntity
  8
レイヤー_1
 62
     7
100
AcDb2dPolyline
 66
     1
 10
0.0
 20
0.0
 30
0.0
 70
     1
  0
VERTEX
  5
331
100
AcDbEntity
  8
レイヤー_1
 62
     7
100
AcDbVertex
100
AcDb2dVertex
 10
243.328472
 20
193.837092
 30
0.0
  0
VERTEX
  5
332
100
AcDbEntity
  8
レイヤー_1
 62
     7
100
AcDbVertex
100
AcDb2dVertex
 10
239.328716
 20
193.837092
 30
0.0
  0
VERTEX
  5
333
100
AcDbEntity
  8
レイヤー_1
 62
     7
100
AcDbVertex
100
AcDb2dVertex
 10
239.328716
 20
235.83694
 30
0.0
  0
VERTEX
  5
334
100
AcDbEntity
  8
レイヤー_1
 62
     7
100
AcDbVertex
100
AcDb2dVertex
 10
243.328472
 20
235.83694
 30
0.0
  0
SEQEND
  5
335
100
AcDbEntity
  8
レイヤー_1
 62
     7
  0
POLYLINE
  5
32A
100
AcDbEntity
  8
レイヤー_1
 62
     7
100
AcDb2dPolyline
 66
     1
 10
0.0
 20
0.0
 30
0.0
 70
     1
  0
VERTEX
  5
32B
100
AcDbEntity
  8
レイヤー_1
 62
     7
100
AcDbVertex
100
AcDb2dVertex
 10
246.328461
 20
198.836959
 30
0.0
  0
VERTEX
  5
32C
100
AcDbEntity
  8
レイヤー_1
 62
     7
100
AcDbVertex
100
AcDb2dVertex
 10
243.328472
 20
198.836959
 30
0.0
  0
VERTEX
  5
32D
100
AcDbEntity
  8
レイヤー_1
 62
     7
100
AcDbVertex
100
AcDb2dVertex
 10
243.328472
 20
230.837073
 30
0.0
  0
VERTEX
  5
32E
100
AcDbEntity
  8
レイヤー_1
 62
     7
100
AcDbVertex
100
AcDb2dVertex
 10
246.328461
 20
230.837073
 30
0.0
  0
SEQEND
  5
32F
100
AcDbEntity
  8
レイヤー_1
 62
     7
  0
POLYLINE
  5
324
100
AcDbEntity
  8
レイヤー_1
 62
     7
100
AcDb2dPolyline
 66
     1
 10
0.0
 20
0.0
 30
0.0
 70
     1
  0
VERTEX
  5
325
100
AcDbEntity
  8
レイヤー_1
 62
     7
100
AcDbVertex
100
AcDb2dVertex
 10
250.328906
 20
193.837092
 30
0.0
  0
VERTEX
  5
326
100
AcDbEntity
  8
レイヤー_1
 62
     7
100
AcDbVertex
100
AcDb2dVertex
 10
246.328461
 20
193.837092
 30
0.0
  0
VERTEX
  5
327
100
AcDbEntity
  8
レイヤー_1
 62
     7
100
AcDbVertex
100
AcDb2dVertex
 10
246.328461
 20
235.83694
 30
0.0
  0
VERTEX
  5
328
100
AcDbEntity
  8
レイヤー_1
 62
     7
100
AcDbVertex
100
AcDb2dVertex
 10
250.328906
 20
235.83694
 30
0.0
  0
SEQEND
  5
329
100
AcDbEntity
  8
レイヤー_1
 62
     7
  0
POLYLINE
  5
31E
100
AcDbEntity
  8
レイヤー_1
 62
     7
100
AcDb2dPolyline
 66
     1
 10
0.0
 20
0.0
 30
0.0
 70
     1
  0
VERTEX
  5
31F
100
AcDbEntity
  8
レイヤー_1
 62
     7
100
AcDbVertex
100
AcDb2dVertex
 10
253.328895
 20
198.836959
 30
0.0
  0
VERTEX
  5
320
100
AcDbEntity
  8
レイヤー_1
 62
     7
100
AcDbVertex
100
AcDb2dVertex
 10
250.328906
 20
198.836959
 30
0.0
  0
VERTEX
  5
321
100
AcDbEntity
  8
レイヤー_1
 62
     7
100
AcDbVertex
100
AcDb2dVertex
 10
250.328906
 20
230.837073
 30
0.0
  0
VERTEX
  5
322
100
AcDbEntity
  8
レイヤー_1
 62
     7
100
AcDbVertex
100
AcDb2dVertex
 10
253.328895
 20
230.837073
 30
0.0
  0
SEQEND
  5
323
100
AcDbEntity
  8
レイヤー_1
 62
     7
  0
POLYLINE
  5
318
100
AcDbEntity
  8
レイヤー_1
 62
     7
100
AcDb2dPolyline
 66
     1
 10
0.0
 20
0.0
 30
0.0
 70
     1
  0
VERTEX
  5
319
100
AcDbEntity
  8
レイヤー_1
 62
     7
100
AcDbVertex
100
AcDb2dVertex
 10
257.328651
 20
193.837092
 30
0.0
  0
VERTEX
  5
31A
100
AcDbEntity
  8
レイヤー_1
 62
     7
100
AcDbVertex
100
AcDb2dVertex
 10
253.328895
 20
193.837092
 30
0.0
  0
VERTEX
  5
31B
100
AcDbEntity
  8
レイヤー_1
 62
     7
100
AcDbVertex
100
AcDb2dVertex
 10
253.328895
 20
235.83694
 30
0.0
  0
VERTEX
  5
31C
100
AcDbEntity
  8
レイヤー_1
 62
     7
100
AcDbVertex
100
AcDb2dVertex
 10
257.328651
 20
235.83694
 30
0.0
  0
SEQEND
  5
31D
100
AcDbEntity
  8
レイヤー_1
 62
     7
  0
POLYLINE
  5
312
100
AcDbEntity
  8
レイヤー_1
 62
     7
100
AcDb2dPolyline
 66
     1
 10
0.0
 20
0.0
 30
0.0
 70
     1
  0
VERTEX
  5
313
100
AcDbEntity
  8
レイヤー_1
 62
     7
100
AcDbVertex
100
AcDb2dVertex
 10
260.32864
 20
198.836959
 30
0.0
  0
VERTEX
  5
314
100
AcDbEntity
  8
レイヤー_1
 62
     7
100
AcDbVertex
100
AcDb2dVertex
 10
257.328651
 20
198.836959
 30
0.0
  0
VERTEX
  5
315
100
AcDbEntity
  8
レイヤー_1
 62
     7
100
AcDbVertex
100
AcDb2dVertex
 10
257.328651
 20
230.837073
 30
0.0
  0
VERTEX
  5
316
100
AcDbEntity
  8
レイヤー_1
 62
     7
100
AcDbVertex
100
AcDb2dVertex
 10
260.32864
 20
230.837073
 30
0.0
  0
SEQEND
  5
317
100
AcDbEntity
  8
レイヤー_1
 62
     7
  0
POLYLINE
  5
30C
100
AcDbEntity
  8
レイヤー_1
 62
     7
100
AcDb2dPolyline
 66
     1
 10
0.0
 20
0.0
 30
0.0
 70
     1
  0
VERTEX
  5
30D
100
AcDbEntity
  8
レイヤー_1
 62
     7
100
AcDbVertex
100
AcDb2dVertex
 10
264.329085
 20
193.837092
 30
0.0
  0
VERTEX
  5
30E
100
AcDbEntity
  8
レイヤー_1
 62
     7
100
AcDbVertex
100
AcDb2dVertex
 10
260.32864
 20
193.837092
 30
0.0
  0
VERTEX
  5
30F
100
AcDbEntity
  8
レイヤー_1
 62
     7
100
AcDbVertex
100
AcDb2dVertex
 10
260.32864
 20
235.83694
 30
0.0
  0
VERTEX
  5
310
100
AcDbEntity
  8
レイヤー_1
 62
     7
100
AcDbVertex
100
AcDb2dVertex
 10
264.329085
 20
235.83694
 30
0.0
  0
SEQEND
  5
311
100
AcDbEntity
  8
レイヤー_1
 62
     7
  0
POLYLINE
  5
306
100
AcDbEntity
  8
レイヤー_1
 62
     7
100
AcDb2dPolyline
 66
     1
 10
0.0
 20
0.0
 30
0.0
 70
     1
  0
VERTEX
  5
307
100
AcDbEntity
  8
レイヤー_1
 62
     7
100
AcDbVertex
100
AcDb2dVertex
 10
267.329074
 20
198.836959
 30
0.0
  0
VERTEX
  5
308
100
AcDbEntity
  8
レイヤー_1
 62
     7
100
AcDbVertex
100
AcDb2dVertex
 10
264.329085
 20
198.836959
 30
0.0
  0
VERTEX
  5
309
100
AcDbEntity
  8
レイヤー_1
 62
     7
100
AcDbVertex
100
AcDb2dVertex
 10
264.329085
 20
230.837073
 30
0.0
  0
VERTEX
  5
30A
100
AcDbEntity
  8
レイヤー_1
 62
     7
100
AcDbVertex
100
AcDb2dVertex
 10
267.329074
 20
230.837073
 30
0.0
  0
SEQEND
  5
30B
100
AcDbEntity
  8
レイヤー_1
 62
     7
  0
POLYLINE
  5
300
100
AcDbEntity
  8
レイヤー_1
 62
     7
100
AcDb2dPolyline
 66
     1
 10
0.0
 20
0.0
 30
0.0
 70
     1
  0
VERTEX
  5
301
100
AcDbEntity
  8
レイヤー_1
 62
     7
100
AcDbVertex
100
AcDb2dVertex
 10
271.32883
 20
193.837092
 30
0.0
  0
VERTEX
  5
302
100
AcDbEntity
  8
レイヤー_1
 62
     7
100
AcDbVertex
100
AcDb2dVertex
 10
267.329074
 20
193.837092
 30
0.0
  0
VERTEX
  5
303
100
AcDbEntity
  8
レイヤー_1
 62
     7
100
AcDbVertex
100
AcDb2dVertex
 10
267.329074
 20
235.83694
 30
0.0
  0
VERTEX
  5
304
100
AcDbEntity
  8
レイヤー_1
 62
     7
100
AcDbVertex
100
AcDb2dVertex
 10
271.32883
 20
235.83694
 30
0.0
  0
SEQEND
  5
305
100
AcDbEntity
  8
レイヤー_1
 62
     7
  0
POLYLINE
  5
2FA
100
AcDbEntity
  8
レイヤー_1
 62
     7
100
AcDb2dPolyline
 66
     1
 10
0.0
 20
0.0
 30
0.0
 70
     1
  0
VERTEX
  5
2FB
100
AcDbEntity
  8
レイヤー_1
 62
     7
100
AcDbVertex
100
AcDb2dVertex
 10
274.328819
 20
198.836959
 30
0.0
  0
VERTEX
  5
2FC
100
AcDbEntity
  8
レイヤー_1
 62
     7
100
AcDbVertex
100
AcDb2dVertex
 10
271.32883
 20
198.836959
 30
0.0
  0
VERTEX
  5
2FD
100
AcDbEntity
  8
レイヤー_1
 62
     7
100
AcDbVertex
100
AcDb2dVertex
 10
271.32883
 20
230.837073
 30
0.0
  0
VERTEX
  5
2FE
100
AcDbEntity
  8
レイヤー_1
 62
     7
100
AcDbVertex
100
AcDb2dVertex
 10
274.328819
 20
230.837073
 30
0.0
  0
SEQEND
  5
2FF
100
AcDbEntity
  8
レイヤー_1
 62
     7
  0
POLYLINE
  5
2F4
100
AcDbEntity
  8
レイヤー_1
 62
     7
100
AcDb2dPolyline
 66
     1
 10
0.0
 20
0.0
 30
0.0
 70
     1
  0
VERTEX
  5
2F5
100
AcDbEntity
  8
レイヤー_1
 62
     7
100
AcDbVertex
100
AcDb2dVertex
 10
278.329264
 20
193.837092
 30
0.0
  0
VERTEX
  5
2F6
100
AcDbEntity
  8
レイヤー_1
 62
     7
100
AcDbVertex
100
AcDb2dVertex
 10
274.328819
 20
193.837092
 30
0.0
  0
VERTEX
  5
2F7
100
AcDbEntity
  8
レイヤー_1
 62
     7
100
AcDbVertex
100
AcDb2dVertex
 10
274.328819
 20
235.83694
 30
0.0
  0
VERTEX
  5
2F8
100
AcDbEntity
  8
レイヤー_1
 62
     7
100
AcDbVertex
100
AcDb2dVertex
 10
278.329264
 20
235.83694
 30
0.0
  0
SEQEND
  5
2F9
100
AcDbEntity
  8
レイヤー_1
 62
     7
  0
POLYLINE
  5
2EE
100
AcDbEntity
  8
レイヤー_1
 62
     7
100
AcDb2dPolyline
 66
     1
 10
0.0
 20
0.0
 30
0.0
 70
     1
  0
VERTEX
  5
2EF
100
AcDbEntity
  8
レイヤー_1
 62
     7
100
AcDbVertex
100
AcDb2dVertex
 10
281.329253
 20
198.836959
 30
0.0
  0
VERTEX
  5
2F0
100
AcDbEntity
  8
レイヤー_1
 62
     7
100
AcDbVertex
100
AcDb2dVertex
 10
278.329264
 20
198.836959
 30
0.0
  0
VERTEX
  5
2F1
100
AcDbEntity
  8
レイヤー_1
 62
     7
100
AcDbVertex
100
AcDb2dVertex
 10
278.329264
 20
230.837073
 30
0.0
  0
VERTEX
  5
2F2
100
AcDbEntity
  8
レイヤー_1
 62
     7
100
AcDbVertex
100
AcDb2dVertex
 10
281.329253
 20
230.837073
 30
0.0
  0
SEQEND
  5
2F3
100
AcDbEntity
  8
レイヤー_1
 62
     7
  0
POLYLINE
  5
2E8
100
AcDbEntity
  8
レイヤー_1
 62
     7
100
AcDb2dPolyline
 66
     1
 10
0.0
 20
0.0
 30
0.0
 70
     1
  0
VERTEX
  5
2E9
100
AcDbEntity
  8
レイヤー_1
 62
     7
100
AcDbVertex
100
AcDb2dVertex
 10
285.329009
 20
193.837092
 30
0.0
  0
VERTEX
  5
2EA
100
AcDbEntity
  8
レイヤー_1
 62
     7
100
AcDbVertex
100
AcDb2dVertex
 10
281.329253
 20
193.837092
 30
0.0
  0
VERTEX
  5
2EB
100
AcDbEntity
  8
レイヤー_1
 62
     7
100
AcDbVertex
100
AcDb2dVertex
 10
281.329253
 20
235.83694
 30
0.0
  0
VERTEX
  5
2EC
100
AcDbEntity
  8
レイヤー_1
 62
     7
100
AcDbVertex
100
AcDb2dVertex
 10
285.329009
 20
235.83694
 30
0.0
  0
SEQEND
  5
2ED
100
AcDbEntity
  8
レイヤー_1
 62
     7
  0
POLYLINE
  5
2E2
100
AcDbEntity
  8
レイヤー_1
 62
     7
100
AcDb2dPolyline
 66
     1
 10
0.0
 20
0.0
 30
0.0
 70
     1
  0
VERTEX
  5
2E3
100
AcDbEntity
  8
レイヤー_1
 62
     7
100
AcDbVertex
100
AcDb2dVertex
 10
288.328998
 20
198.836959
 30
0.0
  0
VERTEX
  5
2E4
100
AcDbEntity
  8
レイヤー_1
 62
     7
100
AcDbVertex
100
AcDb2dVertex
 10
285.329009
 20
198.836959
 30
0.0
  0
VERTEX
  5
2E5
100
AcDbEntity
  8
レイヤー_1
 62
     7
100
AcDbVertex
100
AcDb2dVertex
 10
285.329009
 20
230.837073
 30
0.0
  0
VERTEX
  5
2E6
100
AcDbEntity
  8
レイヤー_1
 62
     7
100
AcDbVertex
100
AcDb2dVertex
 10
288.328998
 20
230.837073
 30
0.0
  0
SEQEND
  5
2E7
100
AcDbEntity
  8
レイヤー_1
 62
     7
  0
POLYLINE
  5
2DC
100
AcDbEntity
  8
レイヤー_1
 62
     7
100
AcDb2dPolyline
 66
     1
 10
0.0
 20
0.0
 30
0.0
 70
     1
  0
VERTEX
  5
2DD
100
AcDbEntity
  8
レイヤー_1
 62
     7
100
AcDbVertex
100
AcDb2dVertex
 10
292.329443
 20
193.837092
 30
0.0
  0
VERTEX
  5
2DE
100
AcDbEntity
  8
レイヤー_1
 62
     7
100
AcDbVertex
100
AcDb2dVertex
 10
288.328998
 20
193.837092
 30
0.0
  0
VERTEX
  5
2DF
100
AcDbEntity
  8
レイヤー_1
 62
     7
100
AcDbVertex
100
AcDb2dVertex
 10
288.328998
 20
235.83694
 30
0.0
  0
VERTEX
  5
2E0
100
AcDbEntity
  8
レイヤー_1
 62
     7
100
AcDbVertex
100
AcDb2dVertex
 10
292.329443
 20
235.83694
 30
0.0
  0
SEQEND
  5
2E1
100
AcDbEntity
  8
レイヤー_1
 62
     7
  0
POLYLINE
  5
2D5
100
AcDbEntity
  8
レイヤー_1
 62
     7
100
AcDb2dPolyline
 66
     1
 10
0.0
 20
0.0
 30
0.0
  0
VERTEX
  5
2D6
100
AcDbEntity
  8
レイヤー_1
 62
     7
100
AcDbVertex
100
AcDb2dVertex
 10
295.329433
 20
226.600639
 30
0.0
  0
VERTEX
  5
2D7
100
AcDbEntity
  8
レイヤー_1
 62
     7
100
AcDbVertex
100
AcDb2dVertex
 10
295.329433
 20
198.836959
 30
0.0
  0
VERTEX
  5
2D8
100
AcDbEntity
  8
レイヤー_1
 62
     7
100
AcDbVertex
100
AcDb2dVertex
 10
292.329443
 20
198.836959
 30
0.0
  0
VERTEX
  5
2D9
100
AcDbEntity
  8
レイヤー_1
 62
     7
100
AcDbVertex
100
AcDb2dVertex
 10
292.329443
 20
230.837073
 30
0.0
  0
VERTEX
  5
2DA
100
AcDbEntity
  8
レイヤー_1
 62
     7
100
AcDbVertex
100
AcDb2dVertex
 10
294.275578
 20
230.837073
 30
0.0
  0
SEQEND
  5
2DB
100
AcDbEntity
  8
レイヤー_1
 62
     7
  0
POLYLINE
  5
2CF
100
AcDbEntity
  8
レイヤー_1
 62
     7
100
AcDb2dPolyline
 66
     1
 10
0.0
 20
0.0
 30
0.0
  0
VERTEX
  5
2D0
100
AcDbEntity
  8
レイヤー_1
 62
     7
100
AcDbVertex
100
AcDb2dVertex
 10
299.329877
 20
219.327181
 30
0.0
  0
VERTEX
  5
2D1
100
AcDbEntity
  8
レイヤー_1
 62
     7
100
AcDbVertex
100
AcDb2dVertex
 10
299.329877
 20
193.837092
 30
0.0
  0
VERTEX
  5
2D2
100
AcDbEntity
  8
レイヤー_1
 62
     7
100
AcDbVertex
100
AcDb2dVertex
 10
295.329433
 20
193.837092
 30
0.0
  0
VERTEX
  5
2D3
100
AcDbEntity
  8
レイヤー_1
 62
     7
100
AcDbVertex
100
AcDb2dVertex
 10
295.329433
 20
226.420116
 30
0.0
  0
SEQEND
  5
2D4
100
AcDbEntity
  8
レイヤー_1
 62
     7
  0
POLYLINE
  5
2C9
100
AcDbEntity
  8
レイヤー_1
 62
     7
100
AcDb2dPolyline
 66
     1
 10
0.0
 20
0.0
 30
0.0
  0
VERTEX
  5
2CA
100
AcDbEntity
  8
レイヤー_1
 62
     7
100
AcDbVertex
100
AcDb2dVertex
 10
302.329867
 20
215.341722
 30
0.0
  0
VERTEX
  5
2CB
100
AcDbEntity
  8
レイヤー_1
 62
     7
100
AcDbVertex
100
AcDb2dVertex
 10
302.329867
 20
198.836959
 30
0.0
  0
VERTEX
  5
2CC
100
AcDbEntity
  8
レイヤー_1
 62
     7
100
AcDbVertex
100
AcDb2dVertex
 10
299.329877
 20
198.836959
 30
0.0
  0
VERTEX
  5
2CD
100
AcDbEntity
  8
レイヤー_1
 62
     7
100
AcDbVertex
100
AcDb2dVertex
 10
299.329877
 20
219.283945
 30
0.0
  0
SEQEND
  5
2CE
100
AcDbEntity
  8
レイヤー_1
 62
     7
  0
POLYLINE
  5
2C4
100
AcDbEntity
  8
レイヤー_1
 62
     7
100
AcDb2dPolyline
 66
     1
 10
0.0
 20
0.0
 30
0.0
  0
VERTEX
  5
2C5
100
AcDbEntity
  8
レイヤー_1
 62
     7
100
AcDbVertex
100
AcDb2dVertex
 10
301.049325
 20
230.837073
 30
0.0
  0
VERTEX
  5
2C6
100
AcDbEntity
  8
レイヤー_1
 62
     7
100
AcDbVertex
100
AcDb2dVertex
 10
302.329867
 20
230.837073
 30
0.0
  0
VERTEX
  5
2C7
100
AcDbEntity
  8
レイヤー_1
 62
     7
100
AcDbVertex
100
AcDb2dVertex
 10
302.329867
 20
226.512444
 30
0.0
  0
SEQEND
  5
2C8
100
AcDbEntity
  8
レイヤー_1
 62
     7
  0
POLYLINE
  5
2BF
100
AcDbEntity
  8
レイヤー_1
 62
     7
100
AcDb2dPolyline
 66
     1
 10
0.0
 20
0.0
 30
0.0
  0
VERTEX
  5
2C0
100
AcDbEntity
  8
レイヤー_1
 62
     7
100
AcDbVertex
100
AcDb2dVertex
 10
303.43402
 20
193.837092
 30
0.0
  0
VERTEX
  5
2C1
100
AcDbEntity
  8
レイヤー_1
 62
     7
100
AcDbVertex
100
AcDb2dVertex
 10
302.329867
 20
193.837092
 30
0.0
  0
VERTEX
  5
2C2
100
AcDbEntity
  8
レイヤー_1
 62
     7
100
AcDbVertex
100
AcDb2dVertex
 10
302.329867
 20
215.327942
 30
0.0
  0
SEQEND
  5
2C3
100
AcDbEntity
  8
レイヤー_1
 62
     7
  0
POLYLINE
  5
2B9
100
AcDbEntity
  8
レイヤー_1
 62
     7
100
AcDb2dPolyline
 66
     1
 10
0.0
 20
0.0
 30
0.0
  0
VERTEX
  5
2BA
100
AcDbEntity
  8
レイヤー_1
 62
     7
100
AcDbVertex
100
AcDb2dVertex
 10
302.329867
 20
226.51055
 30
0.0
  0
VERTEX
  5
2BB
100
AcDbEntity
  8
レイヤー_1
 62
     7
100
AcDbVertex
100
AcDb2dVertex
 10
302.329867
 20
235.83694
 30
0.0
  0
VERTEX
  5
2BC
100
AcDbEntity
  8
レイヤー_1
 62
     7
100
AcDbVertex
100
AcDb2dVertex
 10
306.329622
 20
235.83694
 30
0.0
  0
VERTEX
  5
2BD
100
AcDbEntity
  8
レイヤー_1
 62
     7
100
AcDbVertex
100
AcDb2dVertex
 10
306.329622
 20
220.427372
 30
0.0
  0
SEQEND
  5
2BE
100
AcDbEntity
  8
レイヤー_1
 62
     7
  0
POLYLINE
  5
2B3
100
AcDbEntity
  8
レイヤー_1
 62
     7
100
AcDb2dPolyline
 66
     1
 10
0.0
 20
0.0
 30
0.0
  0
VERTEX
  5
2B4
100
AcDbEntity
  8
レイヤー_1
 62
     7
100
AcDbVertex
100
AcDb2dVertex
 10
306.329622
 20
220.336766
 30
0.0
  0
VERTEX
  5
2B5
100
AcDbEntity
  8
レイヤー_1
 62
     7
100
AcDbVertex
100
AcDb2dVertex
 10
306.329622
 20
230.837073
 30
0.0
  0
VERTEX
  5
2B6
100
AcDbEntity
  8
レイヤー_1
 62
     7
100
AcDbVertex
100
AcDb2dVertex
 10
309.329612
 20
230.837073
 30
0.0
  0
VERTEX
  5
2B7
100
AcDbEntity
  8
レイヤー_1
 62
     7
100
AcDbVertex
100
AcDb2dVertex
 10
309.329612
 20
216.193867
 30
0.0
  0
SEQEND
  5
2B8
100
AcDbEntity
  8
レイヤー_1
 62
     7
  0
POLYLINE
  5
2AC
100
AcDbEntity
  8
レイヤー_1
 62
     7
100
AcDb2dPolyline
 66
     1
 10
0.0
 20
0.0
 30
0.0
  0
VERTEX
  5
2AD
100
AcDbEntity
  8
レイヤー_1
 62
     7
100
AcDbVertex
100
AcDb2dVertex
 10
309.329612
 20
216.15666
 30
0.0
  0
VERTEX
  5
2AE
100
AcDbEntity
  8
レイヤー_1
 62
     7
100
AcDbVertex
100
AcDb2dVertex
 10
309.329612
 20
235.83694
 30
0.0
  0
VERTEX
  5
2AF
100
AcDbEntity
  8
レイヤー_1
 62
     7
100
AcDbVertex
100
AcDb2dVertex
 10
313.329367
 20
235.83694
 30
0.0
  0
VERTEX
  5
2B0
100
AcDbEntity
  8
レイヤー_1
 62
     7
100
AcDbVertex
100
AcDb2dVertex
 10
313.329367
 20
193.837092
 30
0.0
  0
VERTEX
  5
2B1
100
AcDbEntity
  8
レイヤー_1
 62
     7
100
AcDbVertex
100
AcDb2dVertex
 10
310.69318
 20
193.837092
 30
0.0
  0
SEQEND
  5
2B2
100
AcDbEntity
  8
レイヤー_1
 62
     7
  0
POLYLINE
  5
2A6
100
AcDbEntity
  8
レイヤー_1
 62
     7
100
AcDb2dPolyline
 66
     1
 10
0.0
 20
0.0
 30
0.0
 70
     1
  0
VERTEX
  5
2A7
100
AcDbEntity
  8
レイヤー_1
 62
     7
100
AcDbVertex
100
AcDb2dVertex
 10
316.329357
 20
198.836959
 30
0.0
  0
VERTEX
  5
2A8
100
AcDbEntity
  8
レイヤー_1
 62
     7
100
AcDbVertex
100
AcDb2dVertex
 10
313.329367
 20
198.836959
 30
0.0
  0
VERTEX
  5
2A9
100
AcDbEntity
  8
レイヤー_1
 62
     7
100
AcDbVertex
100
AcDb2dVertex
 10
313.329367
 20
230.837073
 30
0.0
  0
VERTEX
  5
2AA
100
AcDbEntity
  8
レイヤー_1
 62
     7
100
AcDbVertex
100
AcDb2dVertex
 10
316.329357
 20
230.837073
 30
0.0
  0
SEQEND
  5
2AB
100
AcDbEntity
  8
レイヤー_1
 62
     7
  0
POLYLINE
  5
2A0
100
AcDbEntity
  8
レイヤー_1
 62
     7
100
AcDb2dPolyline
 66
     1
 10
0.0
 20
0.0
 30
0.0
 70
     1
  0
VERTEX
  5
2A1
100
AcDbEntity
  8
レイヤー_1
 62
     7
100
AcDbVertex
100
AcDb2dVertex
 10
320.329801
 20
193.837092
 30
0.0
  0
VERTEX
  5
2A2
100
AcDbEntity
  8
レイヤー_1
 62
     7
100
AcDbVertex
100
AcDb2dVertex
 10
316.329357
 20
193.837092
 30
0.0
  0
VERTEX
  5
2A3
100
AcDbEntity
  8
レイヤー_1
 62
     7
100
AcDbVertex
100
AcDb2dVertex
 10
316.329357
 20
235.83694
 30
0.0
  0
VERTEX
  5
2A4
100
AcDbEntity
  8
レイヤー_1
 62
     7
100
AcDbVertex
100
AcDb2dVertex
 10
320.329801
 20
235.83694
 30
0.0
  0
SEQEND
  5
2A5
100
AcDbEntity
  8
レイヤー_1
 62
     7
  0
POLYLINE
  5
29A
100
AcDbEntity
  8
レイヤー_1
 62
     7
100
AcDb2dPolyline
 66
     1
 10
0.0
 20
0.0
 30
0.0
 70
     1
  0
VERTEX
  5
29B
100
AcDbEntity
  8
レイヤー_1
 62
     7
100
AcDbVertex
100
AcDb2dVertex
 10
323.329791
 20
198.836959
 30
0.0
  0
VERTEX
  5
29C
100
AcDbEntity
  8
レイヤー_1
 62
     7
100
AcDbVertex
100
AcDb2dVertex
 10
320.329801
 20
198.836959
 30
0.0
  0
VERTEX
  5
29D
100
AcDbEntity
  8
レイヤー_1
 62
     7
100
AcDbVertex
100
AcDb2dVertex
 10
320.329801
 20
230.837073
 30
0.0
  0
VERTEX
  5
29E
100
AcDbEntity
  8
レイヤー_1
 62
     7
100
AcDbVertex
100
AcDb2dVertex
 10
323.329791
 20
230.837073
 30
0.0
  0
SEQEND
  5
29F
100
AcDbEntity
  8
レイヤー_1
 62
     7
  0
POLYLINE
  5
294
100
AcDbEntity
  8
レイヤー_1
 62
     7
100
AcDb2dPolyline
 66
     1
 10
0.0
 20
0.0
 30
0.0
 70
     1
  0
VERTEX
  5
295
100
AcDbEntity
  8
レイヤー_1
 62
     7
100
AcDbVertex
100
AcDb2dVertex
 10
327.330235
 20
193.837092
 30
0.0
  0
VERTEX
  5
296
100
AcDbEntity
  8
レイヤー_1
 62
     7
100
AcDbVertex
100
AcDb2dVertex
 10
323.329791
 20
193.837092
 30
0.0
  0
VERTEX
  5
297
100
AcDbEntity
  8
レイヤー_1
 62
     7
100
AcDbVertex
100
AcDb2dVertex
 10
323.329791
 20
235.83694
 30
0.0
  0
VERTEX
  5
298
100
AcDbEntity
  8
レイヤー_1
 62
     7
100
AcDbVertex
100
AcDb2dVertex
 10
327.330235
 20
235.83694
 30
0.0
  0
SEQEND
  5
299
100
AcDbEntity
  8
レイヤー_1
 62
     7
  0
POLYLINE
  5
28E
100
AcDbEntity
  8
レイヤー_1
 62
     7
100
AcDb2dPolyline
 66
     1
 10
0.0
 20
0.0
 30
0.0
 70
     1
  0
VERTEX
  5
28F
100
AcDbEntity
  8
レイヤー_1
 62
     7
100
AcDbVertex
100
AcDb2dVertex
 10
330.330225
 20
198.836959
 30
0.0
  0
VERTEX
  5
290
100
AcDbEntity
  8
レイヤー_1
 62
     7
100
AcDbVertex
100
AcDb2dVertex
 10
327.330235
 20
198.836959
 30
0.0
  0
VERTEX
  5
291
100
AcDbEntity
  8
レイヤー_1
 62
     7
100
AcDbVertex
100
AcDb2dVertex
 10
327.330235
 20
230.837073
 30
0.0
  0
VERTEX
  5
292
100
AcDbEntity
  8
レイヤー_1
 62
     7
100
AcDbVertex
100
AcDb2dVertex
 10
330.330225
 20
230.837073
 30
0.0
  0
SEQEND
  5
293
100
AcDbEntity
  8
レイヤー_1
 62
     7
  0
POLYLINE
  5
288
100
AcDbEntity
  8
レイヤー_1
 62
     7
100
AcDb2dPolyline
 66
     1
 10
0.0
 20
0.0
 30
0.0
 70
     1
  0
VERTEX
  5
289
100
AcDbEntity
  8
レイヤー_1
 62
     7
100
AcDbVertex
100
AcDb2dVertex
 10
334.32998
 20
193.837092
 30
0.0
  0
VERTEX
  5
28A
100
AcDbEntity
  8
レイヤー_1
 62
     7
100
AcDbVertex
100
AcDb2dVertex
 10
330.330225
 20
193.837092
 30
0.0
  0
VERTEX
  5
28B
100
AcDbEntity
  8
レイヤー_1
 62
     7
100
AcDbVertex
100
AcDb2dVertex
 10
330.330225
 20
235.83694
 30
0.0
  0
VERTEX
  5
28C
100
AcDbEntity
  8
レイヤー_1
 62
     7
100
AcDbVertex
100
AcDb2dVertex
 10
334.32998
 20
235.83694
 30
0.0
  0
SEQEND
  5
28D
100
AcDbEntity
  8
レイヤー_1
 62
     7
  0
POLYLINE
  5
282
100
AcDbEntity
  8
レイヤー_1
 62
     7
100
AcDb2dPolyline
 66
     1
 10
0.0
 20
0.0
 30
0.0
 70
     1
  0
VERTEX
  5
283
100
AcDbEntity
  8
レイヤー_1
 62
     7
100
AcDbVertex
100
AcDb2dVertex
 10
337.32997
 20
198.836959
 30
0.0
  0
VERTEX
  5
284
100
AcDbEntity
  8
レイヤー_1
 62
     7
100
AcDbVertex
100
AcDb2dVertex
 10
334.32998
 20
198.836959
 30
0.0
  0
VERTEX
  5
285
100
AcDbEntity
  8
レイヤー_1
 62
     7
100
AcDbVertex
100
AcDb2dVertex
 10
334.32998
 20
230.837073
 30
0.0
  0
VERTEX
  5
286
100
AcDbEntity
  8
レイヤー_1
 62
     7
100
AcDbVertex
100
AcDb2dVertex
 10
337.32997
 20
230.837073
 30
0.0
  0
SEQEND
  5
287
100
AcDbEntity
  8
レイヤー_1
 62
     7
  0
POLYLINE
  5
27C
100
AcDbEntity
  8
レイヤー_1
 62
     7
100
AcDb2dPolyline
 66
     1
 10
0.0
 20
0.0
 30
0.0
 70
     1
  0
VERTEX
  5
27D
100
AcDbEntity
  8
レイヤー_1
 62
     7
100
AcDbVertex
100
AcDb2dVertex
 10
341.329725
 20
193.837092
 30
0.0
  0
VERTEX
  5
27E
100
AcDbEntity
  8
レイヤー_1
 62
     7
100
AcDbVertex
100
AcDb2dVertex
 10
337.32997
 20
193.837092
 30
0.0
  0
VERTEX
  5
27F
100
AcDbEntity
  8
レイヤー_1
 62
     7
100
AcDbVertex
100
AcDb2dVertex
 10
337.32997
 20
235.83694
 30
0.0
  0
VERTEX
  5
280
100
AcDbEntity
  8
レイヤー_1
 62
     7
100
AcDbVertex
100
AcDb2dVertex
 10
341.329725
 20
235.83694
 30
0.0
  0
SEQEND
  5
281
100
AcDbEntity
  8
レイヤー_1
 62
     7
  0
POLYLINE
  5
276
100
AcDbEntity
  8
レイヤー_1
 62
     7
100
AcDb2dPolyline
 66
     1
 10
0.0
 20
0.0
 30
0.0
 70
     1
  0
VERTEX
  5
277
100
AcDbEntity
  8
レイヤー_1
 62
     7
100
AcDbVertex
100
AcDb2dVertex
 10
344.329715
 20
198.836959
 30
0.0
  0
VERTEX
  5
278
100
AcDbEntity
  8
レイヤー_1
 62
     7
100
AcDbVertex
100
AcDb2dVertex
 10
341.329725
 20
198.836959
 30
0.0
  0
VERTEX
  5
279
100
AcDbEntity
  8
レイヤー_1
 62
     7
100
AcDbVertex
100
AcDb2dVertex
 10
341.329725
 20
230.837073
 30
0.0
  0
VERTEX
  5
27A
100
AcDbEntity
  8
レイヤー_1
 62
     7
100
AcDbVertex
100
AcDb2dVertex
 10
344.329715
 20
230.837073
 30
0.0
  0
SEQEND
  5
27B
100
AcDbEntity
  8
レイヤー_1
 62
     7
  0
POLYLINE
  5
270
100
AcDbEntity
  8
レイヤー_1
 62
     7
100
AcDb2dPolyline
 66
     1
 10
0.0
 20
0.0
 30
0.0
 70
     1
  0
VERTEX
  5
271
100
AcDbEntity
  8
レイヤー_1
 62
     7
100
AcDbVertex
100
AcDb2dVertex
 10
348.33016
 20
193.837092
 30
0.0
  0
VERTEX
  5
272
100
AcDbEntity
  8
レイヤー_1
 62
     7
100
AcDbVertex
100
AcDb2dVertex
 10
344.329715
 20
193.837092
 30
0.0
  0
VERTEX
  5
273
100
AcDbEntity
  8
レイヤー_1
 62
     7
100
AcDbVertex
100
AcDb2dVertex
 10
344.329715
 20
235.83694
 30
0.0
  0
VERTEX
  5
274
100
AcDbEntity
  8
レイヤー_1
 62
     7
100
AcDbVertex
100
AcDb2dVertex
 10
348.33016
 20
235.83694
 30
0.0
  0
SEQEND
  5
275
100
AcDbEntity
  8
レイヤー_1
 62
     7
  0
POLYLINE
  5
26A
100
AcDbEntity
  8
レイヤー_1
 62
     7
100
AcDb2dPolyline
 66
     1
 10
0.0
 20
0.0
 30
0.0
 70
     1
  0
VERTEX
  5
26B
100
AcDbEntity
  8
レイヤー_1
 62
     7
100
AcDbVertex
100
AcDb2dVertex
 10
351.330149
 20
198.836959
 30
0.0
  0
VERTEX
  5
26C
100
AcDbEntity
  8
レイヤー_1
 62
     7
100
AcDbVertex
100
AcDb2dVertex
 10
348.33016
 20
198.836959
 30
0.0
  0
VERTEX
  5
26D
100
AcDbEntity
  8
レイヤー_1
 62
     7
100
AcDbVertex
100
AcDb2dVertex
 10
348.33016
 20
230.837073
 30
0.0
  0
VERTEX
  5
26E
100
AcDbEntity
  8
レイヤー_1
 62
     7
100
AcDbVertex
100
AcDb2dVertex
 10
351.330149
 20
230.837073
 30
0.0
  0
SEQEND
  5
26F
100
AcDbEntity
  8
レイヤー_1
 62
     7
  0
POLYLINE
  5
264
100
AcDbEntity
  8
レイヤー_1
 62
     7
100
AcDb2dPolyline
 66
     1
 10
0.0
 20
0.0
 30
0.0
 70
     1
  0
VERTEX
  5
265
100
AcDbEntity
  8
レイヤー_1
 62
     7
100
AcDbVertex
100
AcDb2dVertex
 10
355.329905
 20
193.837092
 30
0.0
  0
VERTEX
  5
266
100
AcDbEntity
  8
レイヤー_1
 62
     7
100
AcDbVertex
100
AcDb2dVertex
 10
351.330149
 20
193.837092
 30
0.0
  0
VERTEX
  5
267
100
AcDbEntity
  8
レイヤー_1
 62
     7
100
AcDbVertex
100
AcDb2dVertex
 10
351.330149
 20
235.83694
 30
0.0
  0
VERTEX
  5
268
100
AcDbEntity
  8
レイヤー_1
 62
     7
100
AcDbVertex
100
AcDb2dVertex
 10
355.329905
 20
235.83694
 30
0.0
  0
SEQEND
  5
269
100
AcDbEntity
  8
レイヤー_1
 62
     7
  0
POLYLINE
  5
25E
100
AcDbEntity
  8
レイヤー_1
 62
     7
100
AcDb2dPolyline
 66
     1
 10
0.0
 20
0.0
 30
0.0
 70
     1
  0
VERTEX
  5
25F
100
AcDbEntity
  8
レイヤー_1
 62
     7
100
AcDbVertex
100
AcDb2dVertex
 10
358.329894
 20
198.836959
 30
0.0
  0
VERTEX
  5
260
100
AcDbEntity
  8
レイヤー_1
 62
     7
100
AcDbVertex
100
AcDb2dVertex
 10
355.329905
 20
198.836959
 30
0.0
  0
VERTEX
  5
261
100
AcDbEntity
  8
レイヤー_1
 62
     7
100
AcDbVertex
100
AcDb2dVertex
 10
355.329905
 20
230.837073
 30
0.0
  0
VERTEX
  5
262
100
AcDbEntity
  8
レイヤー_1
 62
     7
100
AcDbVertex
100
AcDb2dVertex
 10
358.329894
 20
230.837073
 30
0.0
  0
SEQEND
  5
263
100
AcDbEntity
  8
レイヤー_1
 62
     7
  0
POLYLINE
  5
258
100
AcDbEntity
  8
レイヤー_1
 62
     7
100
AcDb2dPolyline
 66
     1
 10
0.0
 20
0.0
 30
0.0
 70
     1
  0
VERTEX
  5
259
100
AcDbEntity
  8
レイヤー_1
 62
     7
100
AcDbVertex
100
AcDb2dVertex
 10
362.32965
 20
193.837092
 30
0.0
  0
VERTEX
  5
25A
100
AcDbEntity
  8
レイヤー_1
 62
     7
100
AcDbVertex
100
AcDb2dVertex
 10
358.329894
 20
193.837092
 30
0.0
  0
VERTEX
  5
25B
100
AcDbEntity
  8
レイヤー_1
 62
     7
100
AcDbVertex
100
AcDb2dVertex
 10
358.329894
 20
235.83694
 30
0.0
  0
VERTEX
  5
25C
100
AcDbEntity
  8
レイヤー_1
 62
     7
100
AcDbVertex
100
AcDb2dVertex
 10
362.32965
 20
235.83694
 30
0.0
  0
SEQEND
  5
25D
100
AcDbEntity
  8
レイヤー_1
 62
     7
  0
POLYLINE
  5
252
100
AcDbEntity
  8
レイヤー_1
 62
     7
100
AcDb2dPolyline
 66
     1
 10
0.0
 20
0.0
 30
0.0
 70
     1
  0
VERTEX
  5
253
100
AcDbEntity
  8
レイヤー_1
 62
     7
100
AcDbVertex
100
AcDb2dVertex
 10
365.329639
 20
198.836959
 30
0.0
  0
VERTEX
  5
254
100
AcDbEntity
  8
レイヤー_1
 62
     7
100
AcDbVertex
100
AcDb2dVertex
 10
362.32965
 20
198.836959
 30
0.0
  0
VERTEX
  5
255
100
AcDbEntity
  8
レイヤー_1
 62
     7
100
AcDbVertex
100
AcDb2dVertex
 10
362.32965
 20
230.837073
 30
0.0
  0
VERTEX
  5
256
100
AcDbEntity
  8
レイヤー_1
 62
     7
100
AcDbVertex
100
AcDb2dVertex
 10
365.329639
 20
230.837073
 30
0.0
  0
SEQEND
  5
257
100
AcDbEntity
  8
レイヤー_1
 62
     7
  0
POLYLINE
  5
24C
100
AcDbEntity
  8
レイヤー_1
 62
     7
100
AcDb2dPolyline
 66
     1
 10
0.0
 20
0.0
 30
0.0
 70
     1
  0
VERTEX
  5
24D
100
AcDbEntity
  8
レイヤー_1
 62
     7
100
AcDbVertex
100
AcDb2dVertex
 10
369.330084
 20
193.837092
 30
0.0
  0
VERTEX
  5
24E
100
AcDbEntity
  8
レイヤー_1
 62
     7
100
AcDbVertex
100
AcDb2dVertex
 10
365.329639
 20
193.837092
 30
0.0
  0
VERTEX
  5
24F
100
AcDbEntity
  8
レイヤー_1
 62
     7
100
AcDbVertex
100
AcDb2dVertex
 10
365.329639
 20
235.83694
 30
0.0
  0
VERTEX
  5
250
100
AcDbEntity
  8
レイヤー_1
 62
     7
100
AcDbVertex
100
AcDb2dVertex
 10
369.330084
 20
235.83694
 30
0.0
  0
SEQEND
  5
251
100
AcDbEntity
  8
レイヤー_1
 62
     7
  0
POLYLINE
  5
246
100
AcDbEntity
  8
レイヤー_1
 62
     7
100
AcDb2dPolyline
 66
     1
 10
0.0
 20
0.0
 30
0.0
 70
     1
  0
VERTEX
  5
247
100
AcDbEntity
  8
レイヤー_1
 62
     7
100
AcDbVertex
100
AcDb2dVertex
 10
372.330073
 20
198.836959
 30
0.0
  0
VERTEX
  5
248
100
AcDbEntity
  8
レイヤー_1
 62
     7
100
AcDbVertex
100
AcDb2dVertex
 10
369.330084
 20
198.836959
 30
0.0
  0
VERTEX
  5
249
100
AcDbEntity
  8
レイヤー_1
 62
     7
100
AcDbVertex
100
AcDb2dVertex
 10
369.330084
 20
230.837073
 30
0.0
  0
VERTEX
  5
24A
100
AcDbEntity
  8
レイヤー_1
 62
     7
100
AcDbVertex
100
AcDb2dVertex
 10
372.330073
 20
230.837073
 30
0.0
  0
SEQEND
  5
24B
100
AcDbEntity
  8
レイヤー_1
 62
     7
  0
POLYLINE
  5
240
100
AcDbEntity
  8
レイヤー_1
 62
     7
100
AcDb2dPolyline
 66
     1
 10
0.0
 20
0.0
 30
0.0
 70
     1
  0
VERTEX
  5
241
100
AcDbEntity
  8
レイヤー_1
 62
     7
100
AcDbVertex
100
AcDb2dVertex
 10
376.330518
 20
193.837092
 30
0.0
  0
VERTEX
  5
242
100
AcDbEntity
  8
レイヤー_1
 62
     7
100
AcDbVertex
100
AcDb2dVertex
 10
372.330073
 20
193.837092
 30
0.0
  0
VERTEX
  5
243
100
AcDbEntity
  8
レイヤー_1
 62
     7
100
AcDbVertex
100
AcDb2dVertex
 10
372.330073
 20
235.83694
 30
0.0
  0
VERTEX
  5
244
100
AcDbEntity
  8
レイヤー_1
 62
     7
100
AcDbVertex
100
AcDb2dVertex
 10
376.330518
 20
235.83694
 30
0.0
  0
SEQEND
  5
245
100
AcDbEntity
  8
レイヤー_1
 62
     7
  0
POLYLINE
  5
23A
100
AcDbEntity
  8
レイヤー_1
 62
     7
100
AcDb2dPolyline
 66
     1
 10
0.0
 20
0.0
 30
0.0
 70
     1
  0
VERTEX
  5
23B
100
AcDbEntity
  8
レイヤー_1
 62
     7
100
AcDbVertex
100
AcDb2dVertex
 10
379.330507
 20
198.836959
 30
0.0
  0
VERTEX
  5
23C
100
AcDbEntity
  8
レイヤー_1
 62
     7
100
AcDbVertex
100
AcDb2dVertex
 10
376.330518
 20
198.836959
 30
0.0
  0
VERTEX
  5
23D
100
AcDbEntity
  8
レイヤー_1
 62
     7
100
AcDbVertex
100
AcDb2dVertex
 10
376.330518
 20
230.837073
 30
0.0
  0
VERTEX
  5
23E
100
AcDbEntity
  8
レイヤー_1
 62
     7
100
AcDbVertex
100
AcDb2dVertex
 10
379.330507
 20
230.837073
 30
0.0
  0
SEQEND
  5
23F
100
AcDbEntity
  8
レイヤー_1
 62
     7
  0
POLYLINE
  5
234
100
AcDbEntity
  8
レイヤー_1
 62
     7
100
AcDb2dPolyline
 66
     1
 10
0.0
 20
0.0
 30
0.0
 70
     1
  0
VERTEX
  5
235
100
AcDbEntity
  8
レイヤー_1
 62
     7
100
AcDbVertex
100
AcDb2dVertex
 10
383.330263
 20
193.837092
 30
0.0
  0
VERTEX
  5
236
100
AcDbEntity
  8
レイヤー_1
 62
     7
100
AcDbVertex
100
AcDb2dVertex
 10
379.330507
 20
193.837092
 30
0.0
  0
VERTEX
  5
237
100
AcDbEntity
  8
レイヤー_1
 62
     7
100
AcDbVertex
100
AcDb2dVertex
 10
379.330507
 20
235.83694
 30
0.0
  0
VERTEX
  5
238
100
AcDbEntity
  8
レイヤー_1
 62
     7
100
AcDbVertex
100
AcDb2dVertex
 10
383.330263
 20
235.83694
 30
0.0
  0
SEQEND
  5
239
100
AcDbEntity
  8
レイヤー_1
 62
     7
  0
POLYLINE
  5
22E
100
AcDbEntity
  8
レイヤー_1
 62
     7
100
AcDb2dPolyline
 66
     1
 10
0.0
 20
0.0
 30
0.0
 70
     1
  0
VERTEX
  5
22F
100
AcDbEntity
  8
レイヤー_1
 62
     7
100
AcDbVertex
100
AcDb2dVertex
 10
130.316938
 20
90.189155
 30
0.0
  0
VERTEX
  5
230
100
AcDbEntity
  8
レイヤー_1
 62
     7
100
AcDbVertex
100
AcDb2dVertex
 10
128.316715
 20
90.189155
 30
0.0
  0
VERTEX
  5
231
100
AcDbEntity
  8
レイヤー_1
 62
     7
100
AcDbVertex
100
AcDb2dVertex
 10
128.316715
 20
110.188623
 30
0.0
  0
VERTEX
  5
232
100
AcDbEntity
  8
レイヤー_1
 62
     7
100
AcDbVertex
100
AcDb2dVertex
 10
130.316938
 20
110.188623
 30
0.0
  0
SEQEND
  5
233
100
AcDbEntity
  8
レイヤー_1
 62
     7
  0
POLYLINE
  5
228
100
AcDbEntity
  8
レイヤー_1
 62
     7
100
AcDb2dPolyline
 66
     1
 10
0.0
 20
0.0
 30
0.0
 70
     1
  0
VERTEX
  5
229
100
AcDbEntity
  8
レイヤー_1
 62
     7
100
AcDbVertex
100
AcDb2dVertex
 10
128.316715
 20
89.188699
 30
0.0
  0
VERTEX
  5
22A
100
AcDbEntity
  8
レイヤー_1
 62
     7
100
AcDbVertex
100
AcDb2dVertex
 10
124.316787
 20
89.188699
 30
0.0
  0
VERTEX
  5
22B
100
AcDbEntity
  8
レイヤー_1
 62
     7
100
AcDbVertex
100
AcDb2dVertex
 10
124.316787
 20
111.188734
 30
0.0
  0
VERTEX
  5
22C
100
AcDbEntity
  8
レイヤー_1
 62
     7
100
AcDbVertex
100
AcDb2dVertex
 10
128.316715
 20
111.188734
 30
0.0
  0
SEQEND
  5
22D
100
AcDbEntity
  8
レイヤー_1
 62
     7
  0
POLYLINE
  5
222
100
AcDbEntity
  8
レイヤー_1
 62
     7
100
AcDb2dPolyline
 66
     1
 10
0.0
 20
0.0
 30
0.0
 70
     1
  0
VERTEX
  5
223
100
AcDbEntity
  8
レイヤー_1
 62
     7
100
AcDbVertex
100
AcDb2dVertex
 10
136.316916
 20
90.189155
 30
0.0
  0
VERTEX
  5
224
100
AcDbEntity
  8
レイヤー_1
 62
     7
100
AcDbVertex
100
AcDb2dVertex
 10
134.316694
 20
90.189155
 30
0.0
  0
VERTEX
  5
225
100
AcDbEntity
  8
レイヤー_1
 62
     7
100
AcDbVertex
100
AcDb2dVertex
 10
134.316694
 20
110.188623
 30
0.0
  0
VERTEX
  5
226
100
AcDbEntity
  8
レイヤー_1
 62
     7
100
AcDbVertex
100
AcDb2dVertex
 10
136.316916
 20
110.188623
 30
0.0
  0
SEQEND
  5
227
100
AcDbEntity
  8
レイヤー_1
 62
     7
  0
POLYLINE
  5
21C
100
AcDbEntity
  8
レイヤー_1
 62
     7
100
AcDb2dPolyline
 66
     1
 10
0.0
 20
0.0
 30
0.0
 70
     1
  0
VERTEX
  5
21D
100
AcDbEntity
  8
レイヤー_1
 62
     7
100
AcDbVertex
100
AcDb2dVertex
 10
134.316694
 20
89.188699
 30
0.0
  0
VERTEX
  5
21E
100
AcDbEntity
  8
レイヤー_1
 62
     7
100
AcDbVertex
100
AcDb2dVertex
 10
130.316938
 20
89.188699
 30
0.0
  0
VERTEX
  5
21F
100
AcDbEntity
  8
レイヤー_1
 62
     7
100
AcDbVertex
100
AcDb2dVertex
 10
130.316938
 20
111.188734
 30
0.0
  0
VERTEX
  5
220
100
AcDbEntity
  8
レイヤー_1
 62
     7
100
AcDbVertex
100
AcDb2dVertex
 10
134.316694
 20
111.188734
 30
0.0
  0
SEQEND
  5
221
100
AcDbEntity
  8
レイヤー_1
 62
     7
  0
POLYLINE
  5
216
100
AcDbEntity
  8
レイヤー_1
 62
     7
100
AcDb2dPolyline
 66
     1
 10
0.0
 20
0.0
 30
0.0
 70
     1
  0
VERTEX
  5
217
100
AcDbEntity
  8
レイヤー_1
 62
     7
100
AcDbVertex
100
AcDb2dVertex
 10
142.316895
 20
90.189155
 30
0.0
  0
VERTEX
  5
218
100
AcDbEntity
  8
レイヤー_1
 62
     7
100
AcDbVertex
100
AcDb2dVertex
 10
140.316672
 20
90.189155
 30
0.0
  0
VERTEX
  5
219
100
AcDbEntity
  8
レイヤー_1
 62
     7
100
AcDbVertex
100
AcDb2dVertex
 10
140.316672
 20
110.188623
 30
0.0
  0
VERTEX
  5
21A
100
AcDbEntity
  8
レイヤー_1
 62
     7
100
AcDbVertex
100
AcDb2dVertex
 10
142.316895
 20
110.188623
 30
0.0
  0
SEQEND
  5
21B
100
AcDbEntity
  8
レイヤー_1
 62
     7
  0
POLYLINE
  5
210
100
AcDbEntity
  8
レイヤー_1
 62
     7
100
AcDb2dPolyline
 66
     1
 10
0.0
 20
0.0
 30
0.0
 70
     1
  0
VERTEX
  5
211
100
AcDbEntity
  8
レイヤー_1
 62
     7
100
AcDbVertex
100
AcDb2dVertex
 10
140.316672
 20
89.188699
 30
0.0
  0
VERTEX
  5
212
100
AcDbEntity
  8
レイヤー_1
 62
     7
100
AcDbVertex
100
AcDb2dVertex
 10
136.316916
 20
89.188699
 30
0.0
  0
VERTEX
  5
213
100
AcDbEntity
  8
レイヤー_1
 62
     7
100
AcDbVertex
100
AcDb2dVertex
 10
136.316916
 20
111.188734
 30
0.0
  0
VERTEX
  5
214
100
AcDbEntity
  8
レイヤー_1
 62
     7
100
AcDbVertex
100
AcDb2dVertex
 10
140.316672
 20
111.188734
 30
0.0
  0
SEQEND
  5
215
100
AcDbEntity
  8
レイヤー_1
 62
     7
  0
POLYLINE
  5
20A
100
AcDbEntity
  8
レイヤー_1
 62
     7
100
AcDb2dPolyline
 66
     1
 10
0.0
 20
0.0
 30
0.0
 70
     1
  0
VERTEX
  5
20B
100
AcDbEntity
  8
レイヤー_1
 62
     7
100
AcDbVertex
100
AcDb2dVertex
 10
148.316873
 20
90.189155
 30
0.0
  0
VERTEX
  5
20C
100
AcDbEntity
  8
レイヤー_1
 62
     7
100
AcDbVertex
100
AcDb2dVertex
 10
146.31665
 20
90.189155
 30
0.0
  0
VERTEX
  5
20D
100
AcDbEntity
  8
レイヤー_1
 62
     7
100
AcDbVertex
100
AcDb2dVertex
 10
146.31665
 20
110.188623
 30
0.0
  0
VERTEX
  5
20E
100
AcDbEntity
  8
レイヤー_1
 62
     7
100
AcDbVertex
100
AcDb2dVertex
 10
148.316873
 20
110.188623
 30
0.0
  0
SEQEND
  5
20F
100
AcDbEntity
  8
レイヤー_1
 62
     7
  0
POLYLINE
  5
204
100
AcDbEntity
  8
レイヤー_1
 62
     7
100
AcDb2dPolyline
 66
     1
 10
0.0
 20
0.0
 30
0.0
 70
     1
  0
VERTEX
  5
205
100
AcDbEntity
  8
レイヤー_1
 62
     7
100
AcDbVertex
100
AcDb2dVertex
 10
146.31665
 20
89.188699
 30
0.0
  0
VERTEX
  5
206
100
AcDbEntity
  8
レイヤー_1
 62
     7
100
AcDbVertex
100
AcDb2dVertex
 10
142.316895
 20
89.188699
 30
0.0
  0
VERTEX
  5
207
100
AcDbEntity
  8
レイヤー_1
 62
     7
100
AcDbVertex
100
AcDb2dVertex
 10
142.316895
 20
111.188734
 30
0.0
  0
VERTEX
  5
208
100
AcDbEntity
  8
レイヤー_1
 62
     7
100
AcDbVertex
100
AcDb2dVertex
 10
146.31665
 20
111.188734
 30
0.0
  0
SEQEND
  5
209
100
AcDbEntity
  8
レイヤー_1
 62
     7
  0
POLYLINE
  5
1FE
100
AcDbEntity
  8
レイヤー_1
 62
     7
100
AcDb2dPolyline
 66
     1
 10
0.0
 20
0.0
 30
0.0
 70
     1
  0
VERTEX
  5
1FF
100
AcDbEntity
  8
レイヤー_1
 62
     7
100
AcDbVertex
100
AcDb2dVertex
 10
154.316851
 20
90.189155
 30
0.0
  0
VERTEX
  5
200
100
AcDbEntity
  8
レイヤー_1
 62
     7
100
AcDbVertex
100
AcDb2dVertex
 10
152.316629
 20
90.189155
 30
0.0
  0
VERTEX
  5
201
100
AcDbEntity
  8
レイヤー_1
 62
     7
100
AcDbVertex
100
AcDb2dVertex
 10
152.316629
 20
110.188623
 30
0.0
  0
VERTEX
  5
202
100
AcDbEntity
  8
レイヤー_1
 62
     7
100
AcDbVertex
100
AcDb2dVertex
 10
154.316851
 20
110.188623
 30
0.0
  0
SEQEND
  5
203
100
AcDbEntity
  8
レイヤー_1
 62
     7
  0
POLYLINE
  5
1F8
100
AcDbEntity
  8
レイヤー_1
 62
     7
100
AcDb2dPolyline
 66
     1
 10
0.0
 20
0.0
 30
0.0
 70
     1
  0
VERTEX
  5
1F9
100
AcDbEntity
  8
レイヤー_1
 62
     7
100
AcDbVertex
100
AcDb2dVertex
 10
152.316629
 20
89.188699
 30
0.0
  0
VERTEX
  5
1FA
100
AcDbEntity
  8
レイヤー_1
 62
     7
100
AcDbVertex
100
AcDb2dVertex
 10
148.316873
 20
89.188699
 30
0.0
  0
VERTEX
  5
1FB
100
AcDbEntity
  8
レイヤー_1
 62
     7
100
AcDbVertex
100
AcDb2dVertex
 10
148.316873
 20
111.188734
 30
0.0
  0
VERTEX
  5
1FC
100
AcDbEntity
  8
レイヤー_1
 62
     7
100
AcDbVertex
100
AcDb2dVertex
 10
152.316629
 20
111.188734
 30
0.0
  0
SEQEND
  5
1FD
100
AcDbEntity
  8
レイヤー_1
 62
     7
  0
POLYLINE
  5
1F2
100
AcDbEntity
  8
レイヤー_1
 62
     7
100
AcDb2dPolyline
 66
     1
 10
0.0
 20
0.0
 30
0.0
 70
     1
  0
VERTEX
  5
1F3
100
AcDbEntity
  8
レイヤー_1
 62
     7
100
AcDbVertex
100
AcDb2dVertex
 10
160.316829
 20
90.189155
 30
0.0
  0
VERTEX
  5
1F4
100
AcDbEntity
  8
レイヤー_1
 62
     7
100
AcDbVertex
100
AcDb2dVertex
 10
158.316607
 20
90.189155
 30
0.0
  0
VERTEX
  5
1F5
100
AcDbEntity
  8
レイヤー_1
 62
     7
100
AcDbVertex
100
AcDb2dVertex
 10
158.316607
 20
110.188623
 30
0.0
  0
VERTEX
  5
1F6
100
AcDbEntity
  8
レイヤー_1
 62
     7
100
AcDbVertex
100
AcDb2dVertex
 10
160.316829
 20
110.188623
 30
0.0
  0
SEQEND
  5
1F7
100
AcDbEntity
  8
レイヤー_1
 62
     7
  0
POLYLINE
  5
1EC
100
AcDbEntity
  8
レイヤー_1
 62
     7
100
AcDb2dPolyline
 66
     1
 10
0.0
 20
0.0
 30
0.0
 70
     1
  0
VERTEX
  5
1ED
100
AcDbEntity
  8
レイヤー_1
 62
     7
100
AcDbVertex
100
AcDb2dVertex
 10
158.316607
 20
89.188699
 30
0.0
  0
VERTEX
  5
1EE
100
AcDbEntity
  8
レイヤー_1
 62
     7
100
AcDbVertex
100
AcDb2dVertex
 10
154.316851
 20
89.188699
 30
0.0
  0
VERTEX
  5
1EF
100
AcDbEntity
  8
レイヤー_1
 62
     7
100
AcDbVertex
100
AcDb2dVertex
 10
154.316851
 20
111.188734
 30
0.0
  0
VERTEX
  5
1F0
100
AcDbEntity
  8
レイヤー_1
 62
     7
100
AcDbVertex
100
AcDb2dVertex
 10
158.316607
 20
111.188734
 30
0.0
  0
SEQEND
  5
1F1
100
AcDbEntity
  8
レイヤー_1
 62
     7
  0
POLYLINE
  5
1E6
100
AcDbEntity
  8
レイヤー_1
 62
     7
100
AcDb2dPolyline
 66
     1
 10
0.0
 20
0.0
 30
0.0
 70
     1
  0
VERTEX
  5
1E7
100
AcDbEntity
  8
レイヤー_1
 62
     7
100
AcDbVertex
100
AcDb2dVertex
 10
166.316808
 20
90.189155
 30
0.0
  0
VERTEX
  5
1E8
100
AcDbEntity
  8
レイヤー_1
 62
     7
100
AcDbVertex
100
AcDb2dVertex
 10
164.316585
 20
90.189155
 30
0.0
  0
VERTEX
  5
1E9
100
AcDbEntity
  8
レイヤー_1
 62
     7
100
AcDbVertex
100
AcDb2dVertex
 10
164.316585
 20
110.188623
 30
0.0
  0
VERTEX
  5
1EA
100
AcDbEntity
  8
レイヤー_1
 62
     7
100
AcDbVertex
100
AcDb2dVertex
 10
166.316808
 20
110.188623
 30
0.0
  0
SEQEND
  5
1EB
100
AcDbEntity
  8
レイヤー_1
 62
     7
  0
POLYLINE
  5
1E0
100
AcDbEntity
  8
レイヤー_1
 62
     7
100
AcDb2dPolyline
 66
     1
 10
0.0
 20
0.0
 30
0.0
 70
     1
  0
VERTEX
  5
1E1
100
AcDbEntity
  8
レイヤー_1
 62
     7
100
AcDbVertex
100
AcDb2dVertex
 10
164.316585
 20
89.188699
 30
0.0
  0
VERTEX
  5
1E2
100
AcDbEntity
  8
レイヤー_1
 62
     7
100
AcDbVertex
100
AcDb2dVertex
 10
160.316829
 20
89.188699
 30
0.0
  0
VERTEX
  5
1E3
100
AcDbEntity
  8
レイヤー_1
 62
     7
100
AcDbVertex
100
AcDb2dVertex
 10
160.316829
 20
111.188734
 30
0.0
  0
VERTEX
  5
1E4
100
AcDbEntity
  8
レイヤー_1
 62
     7
100
AcDbVertex
100
AcDb2dVertex
 10
164.316585
 20
111.188734
 30
0.0
  0
SEQEND
  5
1E5
100
AcDbEntity
  8
レイヤー_1
 62
     7
  0
POLYLINE
  5
1DA
100
AcDbEntity
  8
レイヤー_1
 62
     7
100
AcDb2dPolyline
 66
     1
 10
0.0
 20
0.0
 30
0.0
 70
     1
  0
VERTEX
  5
1DB
100
AcDbEntity
  8
レイヤー_1
 62
     7
100
AcDbVertex
100
AcDb2dVertex
 10
172.316786
 20
90.189155
 30
0.0
  0
VERTEX
  5
1DC
100
AcDbEntity
  8
レイヤー_1
 62
     7
100
AcDbVertex
100
AcDb2dVertex
 10
170.316564
 20
90.189155
 30
0.0
  0
VERTEX
  5
1DD
100
AcDbEntity
  8
レイヤー_1
 62
     7
100
AcDbVertex
100
AcDb2dVertex
 10
170.316564
 20
110.188623
 30
0.0
  0
VERTEX
  5
1DE
100
AcDbEntity
  8
レイヤー_1
 62
     7
100
AcDbVertex
100
AcDb2dVertex
 10
172.316786
 20
110.188623
 30
0.0
  0
SEQEND
  5
1DF
100
AcDbEntity
  8
レイヤー_1
 62
     7
  0
POLYLINE
  5
1D4
100
AcDbEntity
  8
レイヤー_1
 62
     7
100
AcDb2dPolyline
 66
     1
 10
0.0
 20
0.0
 30
0.0
 70
     1
  0
VERTEX
  5
1D5
100
AcDbEntity
  8
レイヤー_1
 62
     7
100
AcDbVertex
100
AcDb2dVertex
 10
170.316564
 20
89.188699
 30
0.0
  0
VERTEX
  5
1D6
100
AcDbEntity
  8
レイヤー_1
 62
     7
100
AcDbVertex
100
AcDb2dVertex
 10
166.316808
 20
89.188699
 30
0.0
  0
VERTEX
  5
1D7
100
AcDbEntity
  8
レイヤー_1
 62
     7
100
AcDbVertex
100
AcDb2dVertex
 10
166.316808
 20
111.188734
 30
0.0
  0
VERTEX
  5
1D8
100
AcDbEntity
  8
レイヤー_1
 62
     7
100
AcDbVertex
100
AcDb2dVertex
 10
170.316564
 20
111.188734
 30
0.0
  0
SEQEND
  5
1D9
100
AcDbEntity
  8
レイヤー_1
 62
     7
  0
POLYLINE
  5
1CE
100
AcDbEntity
  8
レイヤー_1
 62
     7
100
AcDb2dPolyline
 66
     1
 10
0.0
 20
0.0
 30
0.0
 70
     1
  0
VERTEX
  5
1CF
100
AcDbEntity
  8
レイヤー_1
 62
     7
100
AcDbVertex
100
AcDb2dVertex
 10
178.316764
 20
90.189155
 30
0.0
  0
VERTEX
  5
1D0
100
AcDbEntity
  8
レイヤー_1
 62
     7
100
AcDbVertex
100
AcDb2dVertex
 10
176.316542
 20
90.189155
 30
0.0
  0
VERTEX
  5
1D1
100
AcDbEntity
  8
レイヤー_1
 62
     7
100
AcDbVertex
100
AcDb2dVertex
 10
176.316542
 20
110.188623
 30
0.0
  0
VERTEX
  5
1D2
100
AcDbEntity
  8
レイヤー_1
 62
     7
100
AcDbVertex
100
AcDb2dVertex
 10
178.316764
 20
110.188623
 30
0.0
  0
SEQEND
  5
1D3
100
AcDbEntity
  8
レイヤー_1
 62
     7
  0
POLYLINE
  5
1C8
100
AcDbEntity
  8
レイヤー_1
 62
     7
100
AcDb2dPolyline
 66
     1
 10
0.0
 20
0.0
 30
0.0
 70
     1
  0
VERTEX
  5
1C9
100
AcDbEntity
  8
レイヤー_1
 62
     7
100
AcDbVertex
100
AcDb2dVertex
 10
176.316542
 20
89.188699
 30
0.0
  0
VERTEX
  5
1CA
100
AcDbEntity
  8
レイヤー_1
 62
     7
100
AcDbVertex
100
AcDb2dVertex
 10
172.316786
 20
89.188699
 30
0.0
  0
VERTEX
  5
1CB
100
AcDbEntity
  8
レイヤー_1
 62
     7
100
AcDbVertex
100
AcDb2dVertex
 10
172.316786
 20
111.188734
 30
0.0
  0
VERTEX
  5
1CC
100
AcDbEntity
  8
レイヤー_1
 62
     7
100
AcDbVertex
100
AcDb2dVertex
 10
176.316542
 20
111.188734
 30
0.0
  0
SEQEND
  5
1CD
100
AcDbEntity
  8
レイヤー_1
 62
     7
  0
POLYLINE
  5
1C2
100
AcDbEntity
  8
レイヤー_1
 62
     7
100
AcDb2dPolyline
 66
     1
 10
0.0
 20
0.0
 30
0.0
 70
     1
  0
VERTEX
  5
1C3
100
AcDbEntity
  8
レイヤー_1
 62
     7
100
AcDbVertex
100
AcDb2dVertex
 10
184.316743
 20
90.189155
 30
0.0
  0
VERTEX
  5
1C4
100
AcDbEntity
  8
レイヤー_1
 62
     7
100
AcDbVertex
100
AcDb2dVertex
 10
182.31652
 20
90.189155
 30
0.0
  0
VERTEX
  5
1C5
100
AcDbEntity
  8
レイヤー_1
 62
     7
100
AcDbVertex
100
AcDb2dVertex
 10
182.31652
 20
110.188623
 30
0.0
  0
VERTEX
  5
1C6
100
AcDbEntity
  8
レイヤー_1
 62
     7
100
AcDbVertex
100
AcDb2dVertex
 10
184.316743
 20
110.188623
 30
0.0
  0
SEQEND
  5
1C7
100
AcDbEntity
  8
レイヤー_1
 62
     7
  0
POLYLINE
  5
1BC
100
AcDbEntity
  8
レイヤー_1
 62
     7
100
AcDb2dPolyline
 66
     1
 10
0.0
 20
0.0
 30
0.0
 70
     1
  0
VERTEX
  5
1BD
100
AcDbEntity
  8
レイヤー_1
 62
     7
100
AcDbVertex
100
AcDb2dVertex
 10
182.31652
 20
89.188699
 30
0.0
  0
VERTEX
  5
1BE
100
AcDbEntity
  8
レイヤー_1
 62
     7
100
AcDbVertex
100
AcDb2dVertex
 10
178.316764
 20
89.188699
 30
0.0
  0
VERTEX
  5
1BF
100
AcDbEntity
  8
レイヤー_1
 62
     7
100
AcDbVertex
100
AcDb2dVertex
 10
178.316764
 20
111.188734
 30
0.0
  0
VERTEX
  5
1C0
100
AcDbEntity
  8
レイヤー_1
 62
     7
100
AcDbVertex
100
AcDb2dVertex
 10
182.31652
 20
111.188734
 30
0.0
  0
SEQEND
  5
1C1
100
AcDbEntity
  8
レイヤー_1
 62
     7
  0
POLYLINE
  5
1B6
100
AcDbEntity
  8
レイヤー_1
 62
     7
100
AcDb2dPolyline
 66
     1
 10
0.0
 20
0.0
 30
0.0
 70
     1
  0
VERTEX
  5
1B7
100
AcDbEntity
  8
レイヤー_1
 62
     7
100
AcDbVertex
100
AcDb2dVertex
 10
190.316721
 20
90.189155
 30
0.0
  0
VERTEX
  5
1B8
100
AcDbEntity
  8
レイヤー_1
 62
     7
100
AcDbVertex
100
AcDb2dVertex
 10
188.316498
 20
90.189155
 30
0.0
  0
VERTEX
  5
1B9
100
AcDbEntity
  8
レイヤー_1
 62
     7
100
AcDbVertex
100
AcDb2dVertex
 10
188.316498
 20
110.188623
 30
0.0
  0
VERTEX
  5
1BA
100
AcDbEntity
  8
レイヤー_1
 62
     7
100
AcDbVertex
100
AcDb2dVertex
 10
190.316721
 20
110.188623
 30
0.0
  0
SEQEND
  5
1BB
100
AcDbEntity
  8
レイヤー_1
 62
     7
  0
POLYLINE
  5
1B0
100
AcDbEntity
  8
レイヤー_1
 62
     7
100
AcDb2dPolyline
 66
     1
 10
0.0
 20
0.0
 30
0.0
 70
     1
  0
VERTEX
  5
1B1
100
AcDbEntity
  8
レイヤー_1
 62
     7
100
AcDbVertex
100
AcDb2dVertex
 10
188.316498
 20
89.188699
 30
0.0
  0
VERTEX
  5
1B2
100
AcDbEntity
  8
レイヤー_1
 62
     7
100
AcDbVertex
100
AcDb2dVertex
 10
184.316743
 20
89.188699
 30
0.0
  0
VERTEX
  5
1B3
100
AcDbEntity
  8
レイヤー_1
 62
     7
100
AcDbVertex
100
AcDb2dVertex
 10
184.316743
 20
111.188734
 30
0.0
  0
VERTEX
  5
1B4
100
AcDbEntity
  8
レイヤー_1
 62
     7
100
AcDbVertex
100
AcDb2dVertex
 10
188.316498
 20
111.188734
 30
0.0
  0
SEQEND
  5
1B5
100
AcDbEntity
  8
レイヤー_1
 62
     7
  0
POLYLINE
  5
1AA
100
AcDbEntity
  8
レイヤー_1
 62
     7
100
AcDb2dPolyline
 66
     1
 10
0.0
 20
0.0
 30
0.0
 70
     1
  0
VERTEX
  5
1AB
100
AcDbEntity
  8
レイヤー_1
 62
     7
100
AcDbVertex
100
AcDb2dVertex
 10
196.316699
 20
90.189155
 30
0.0
  0
VERTEX
  5
1AC
100
AcDbEntity
  8
レイヤー_1
 62
     7
100
AcDbVertex
100
AcDb2dVertex
 10
194.316477
 20
90.189155
 30
0.0
  0
VERTEX
  5
1AD
100
AcDbEntity
  8
レイヤー_1
 62
     7
100
AcDbVertex
100
AcDb2dVertex
 10
194.316477
 20
110.188623
 30
0.0
  0
VERTEX
  5
1AE
100
AcDbEntity
  8
レイヤー_1
 62
     7
100
AcDbVertex
100
AcDb2dVertex
 10
196.316699
 20
110.188623
 30
0.0
  0
SEQEND
  5
1AF
100
AcDbEntity
  8
レイヤー_1
 62
     7
  0
POLYLINE
  5
1A4
100
AcDbEntity
  8
レイヤー_1
 62
     7
100
AcDb2dPolyline
 66
     1
 10
0.0
 20
0.0
 30
0.0
 70
     1
  0
VERTEX
  5
1A5
100
AcDbEntity
  8
レイヤー_1
 62
     7
100
AcDbVertex
100
AcDb2dVertex
 10
194.316477
 20
89.188699
 30
0.0
  0
VERTEX
  5
1A6
100
AcDbEntity
  8
レイヤー_1
 62
     7
100
AcDbVertex
100
AcDb2dVertex
 10
190.316721
 20
89.188699
 30
0.0
  0
VERTEX
  5
1A7
100
AcDbEntity
  8
レイヤー_1
 62
     7
100
AcDbVertex
100
AcDb2dVertex
 10
190.316721
 20
111.188734
 30
0.0
  0
VERTEX
  5
1A8
100
AcDbEntity
  8
レイヤー_1
 62
     7
100
AcDbVertex
100
AcDb2dVertex
 10
194.316477
 20
111.188734
 30
0.0
  0
SEQEND
  5
1A9
100
AcDbEntity
  8
レイヤー_1
 62
     7
  0
POLYLINE
  5
19E
100
AcDbEntity
  8
レイヤー_1
 62
     7
100
AcDb2dPolyline
 66
     1
 10
0.0
 20
0.0
 30
0.0
 70
     1
  0
VERTEX
  5
19F
100
AcDbEntity
  8
レイヤー_1
 62
     7
100
AcDbVertex
100
AcDb2dVertex
 10
202.316678
 20
90.189155
 30
0.0
  0
VERTEX
  5
1A0
100
AcDbEntity
  8
レイヤー_1
 62
     7
100
AcDbVertex
100
AcDb2dVertex
 10
200.316455
 20
90.189155
 30
0.0
  0
VERTEX
  5
1A1
100
AcDbEntity
  8
レイヤー_1
 62
     7
100
AcDbVertex
100
AcDb2dVertex
 10
200.316455
 20
110.188623
 30
0.0
  0
VERTEX
  5
1A2
100
AcDbEntity
  8
レイヤー_1
 62
     7
100
AcDbVertex
100
AcDb2dVertex
 10
202.316678
 20
110.188623
 30
0.0
  0
SEQEND
  5
1A3
100
AcDbEntity
  8
レイヤー_1
 62
     7
  0
POLYLINE
  5
198
100
AcDbEntity
  8
レイヤー_1
 62
     7
100
AcDb2dPolyline
 66
     1
 10
0.0
 20
0.0
 30
0.0
 70
     1
  0
VERTEX
  5
199
100
AcDbEntity
  8
レイヤー_1
 62
     7
100
AcDbVertex
100
AcDb2dVertex
 10
200.316455
 20
89.188699
 30
0.0
  0
VERTEX
  5
19A
100
AcDbEntity
  8
レイヤー_1
 62
     7
100
AcDbVertex
100
AcDb2dVertex
 10
196.316699
 20
89.188699
 30
0.0
  0
VERTEX
  5
19B
100
AcDbEntity
  8
レイヤー_1
 62
     7
100
AcDbVertex
100
AcDb2dVertex
 10
196.316699
 20
111.188734
 30
0.0
  0
VERTEX
  5
19C
100
AcDbEntity
  8
レイヤー_1
 62
     7
100
AcDbVertex
100
AcDb2dVertex
 10
200.316455
 20
111.188734
 30
0.0
  0
SEQEND
  5
19D
100
AcDbEntity
  8
レイヤー_1
 62
     7
  0
POLYLINE
  5
192
100
AcDbEntity
  8
レイヤー_1
 62
     7
100
AcDb2dPolyline
 66
     1
 10
0.0
 20
0.0
 30
0.0
 70
     1
  0
VERTEX
  5
193
100
AcDbEntity
  8
レイヤー_1
 62
     7
100
AcDbVertex
100
AcDb2dVertex
 10
208.316656
 20
90.189155
 30
0.0
  0
VERTEX
  5
194
100
AcDbEntity
  8
レイヤー_1
 62
     7
100
AcDbVertex
100
AcDb2dVertex
 10
206.316433
 20
90.189155
 30
0.0
  0
VERTEX
  5
195
100
AcDbEntity
  8
レイヤー_1
 62
     7
100
AcDbVertex
100
AcDb2dVertex
 10
206.316433
 20
110.188623
 30
0.0
  0
VERTEX
  5
196
100
AcDbEntity
  8
レイヤー_1
 62
     7
100
AcDbVertex
100
AcDb2dVertex
 10
208.316656
 20
110.188623
 30
0.0
  0
SEQEND
  5
197
100
AcDbEntity
  8
レイヤー_1
 62
     7
  0
POLYLINE
  5
18C
100
AcDbEntity
  8
レイヤー_1
 62
     7
100
AcDb2dPolyline
 66
     1
 10
0.0
 20
0.0
 30
0.0
 70
     1
  0
VERTEX
  5
18D
100
AcDbEntity
  8
レイヤー_1
 62
     7
100
AcDbVertex
100
AcDb2dVertex
 10
206.316433
 20
89.188699
 30
0.0
  0
VERTEX
  5
18E
100
AcDbEntity
  8
レイヤー_1
 62
     7
100
AcDbVertex
100
AcDb2dVertex
 10
202.316678
 20
89.188699
 30
0.0
  0
VERTEX
  5
18F
100
AcDbEntity
  8
レイヤー_1
 62
     7
100
AcDbVertex
100
AcDb2dVertex
 10
202.316678
 20
111.188734
 30
0.0
  0
VERTEX
  5
190
100
AcDbEntity
  8
レイヤー_1
 62
     7
100
AcDbVertex
100
AcDb2dVertex
 10
206.316433
 20
111.188734
 30
0.0
  0
SEQEND
  5
191
100
AcDbEntity
  8
レイヤー_1
 62
     7
  0
POLYLINE
  5
186
100
AcDbEntity
  8
レイヤー_1
 62
     7
100
AcDb2dPolyline
 66
     1
 10
0.0
 20
0.0
 30
0.0
 70
     1
  0
VERTEX
  5
187
100
AcDbEntity
  8
レイヤー_1
 62
     7
100
AcDbVertex
100
AcDb2dVertex
 10
214.316634
 20
90.189155
 30
0.0
  0
VERTEX
  5
188
100
AcDbEntity
  8
レイヤー_1
 62
     7
100
AcDbVertex
100
AcDb2dVertex
 10
212.316412
 20
90.189155
 30
0.0
  0
VERTEX
  5
189
100
AcDbEntity
  8
レイヤー_1
 62
     7
100
AcDbVertex
100
AcDb2dVertex
 10
212.316412
 20
110.188623
 30
0.0
  0
VERTEX
  5
18A
100
AcDbEntity
  8
レイヤー_1
 62
     7
100
AcDbVertex
100
AcDb2dVertex
 10
214.316634
 20
110.188623
 30
0.0
  0
SEQEND
  5
18B
100
AcDbEntity
  8
レイヤー_1
 62
     7
  0
POLYLINE
  5
180
100
AcDbEntity
  8
レイヤー_1
 62
     7
100
AcDb2dPolyline
 66
     1
 10
0.0
 20
0.0
 30
0.0
 70
     1
  0
VERTEX
  5
181
100
AcDbEntity
  8
レイヤー_1
 62
     7
100
AcDbVertex
100
AcDb2dVertex
 10
212.316412
 20
89.188699
 30
0.0
  0
VERTEX
  5
182
100
AcDbEntity
  8
レイヤー_1
 62
     7
100
AcDbVertex
100
AcDb2dVertex
 10
208.316656
 20
89.188699
 30
0.0
  0
VERTEX
  5
183
100
AcDbEntity
  8
レイヤー_1
 62
     7
100
AcDbVertex
100
AcDb2dVertex
 10
208.316656
 20
111.188734
 30
0.0
  0
VERTEX
  5
184
100
AcDbEntity
  8
レイヤー_1
 62
     7
100
AcDbVertex
100
AcDb2dVertex
 10
212.316412
 20
111.188734
 30
0.0
  0
SEQEND
  5
185
100
AcDbEntity
  8
レイヤー_1
 62
     7
  0
POLYLINE
  5
17A
100
AcDbEntity
  8
レイヤー_1
 62
     7
100
AcDb2dPolyline
 66
     1
 10
0.0
 20
0.0
 30
0.0
 70
     1
  0
VERTEX
  5
17B
100
AcDbEntity
  8
レイヤー_1
 62
     7
100
AcDbVertex
100
AcDb2dVertex
 10
220.316612
 20
90.189155
 30
0.0
  0
VERTEX
  5
17C
100
AcDbEntity
  8
レイヤー_1
 62
     7
100
AcDbVertex
100
AcDb2dVertex
 10
218.31639
 20
90.189155
 30
0.0
  0
VERTEX
  5
17D
100
AcDbEntity
  8
レイヤー_1
 62
     7
100
AcDbVertex
100
AcDb2dVertex
 10
218.31639
 20
110.188623
 30
0.0
  0
VERTEX
  5
17E
100
AcDbEntity
  8
レイヤー_1
 62
     7
100
AcDbVertex
100
AcDb2dVertex
 10
220.316612
 20
110.188623
 30
0.0
  0
SEQEND
  5
17F
100
AcDbEntity
  8
レイヤー_1
 62
     7
  0
POLYLINE
  5
174
100
AcDbEntity
  8
レイヤー_1
 62
     7
100
AcDb2dPolyline
 66
     1
 10
0.0
 20
0.0
 30
0.0
 70
     1
  0
VERTEX
  5
175
100
AcDbEntity
  8
レイヤー_1
 62
     7
100
AcDbVertex
100
AcDb2dVertex
 10
218.31639
 20
89.188699
 30
0.0
  0
VERTEX
  5
176
100
AcDbEntity
  8
レイヤー_1
 62
     7
100
AcDbVertex
100
AcDb2dVertex
 10
214.316634
 20
89.188699
 30
0.0
  0
VERTEX
  5
177
100
AcDbEntity
  8
レイヤー_1
 62
     7
100
AcDbVertex
100
AcDb2dVertex
 10
214.316634
 20
111.188734
 30
0.0
  0
VERTEX
  5
178
100
AcDbEntity
  8
レイヤー_1
 62
     7
100
AcDbVertex
100
AcDb2dVertex
 10
218.31639
 20
111.188734
 30
0.0
  0
SEQEND
  5
179
100
AcDbEntity
  8
レイヤー_1
 62
     7
  0
POLYLINE
  5
16E
100
AcDbEntity
  8
レイヤー_1
 62
     7
100
AcDb2dPolyline
 66
     1
 10
0.0
 20
0.0
 30
0.0
 70
     1
  0
VERTEX
  5
16F
100
AcDbEntity
  8
レイヤー_1
 62
     7
100
AcDbVertex
100
AcDb2dVertex
 10
226.316591
 20
90.189155
 30
0.0
  0
VERTEX
  5
170
100
AcDbEntity
  8
レイヤー_1
 62
     7
100
AcDbVertex
100
AcDb2dVertex
 10
224.316368
 20
90.189155
 30
0.0
  0
VERTEX
  5
171
100
AcDbEntity
  8
レイヤー_1
 62
     7
100
AcDbVertex
100
AcDb2dVertex
 10
224.316368
 20
110.188623
 30
0.0
  0
VERTEX
  5
172
100
AcDbEntity
  8
レイヤー_1
 62
     7
100
AcDbVertex
100
AcDb2dVertex
 10
226.316591
 20
110.188623
 30
0.0
  0
SEQEND
  5
173
100
AcDbEntity
  8
レイヤー_1
 62
     7
  0
POLYLINE
  5
168
100
AcDbEntity
  8
レイヤー_1
 62
     7
100
AcDb2dPolyline
 66
     1
 10
0.0
 20
0.0
 30
0.0
 70
     1
  0
VERTEX
  5
169
100
AcDbEntity
  8
レイヤー_1
 62
     7
100
AcDbVertex
100
AcDb2dVertex
 10
224.316368
 20
89.188699
 30
0.0
  0
VERTEX
  5
16A
100
AcDbEntity
  8
レイヤー_1
 62
     7
100
AcDbVertex
100
AcDb2dVertex
 10
220.316612
 20
89.188699
 30
0.0
  0
VERTEX
  5
16B
100
AcDbEntity
  8
レイヤー_1
 62
     7
100
AcDbVertex
100
AcDb2dVertex
 10
220.316612
 20
111.188734
 30
0.0
  0
VERTEX
  5
16C
100
AcDbEntity
  8
レイヤー_1
 62
     7
100
AcDbVertex
100
AcDb2dVertex
 10
224.316368
 20
111.188734
 30
0.0
  0
SEQEND
  5
16D
100
AcDbEntity
  8
レイヤー_1
 62
     7
  0
POLYLINE
  5
162
100
AcDbEntity
  8
レイヤー_1
 62
     7
100
AcDb2dPolyline
 66
     1
 10
0.0
 20
0.0
 30
0.0
 70
     1
  0
VERTEX
  5
163
100
AcDbEntity
  8
レイヤー_1
 62
     7
100
AcDbVertex
100
AcDb2dVertex
 10
232.316569
 20
90.189155
 30
0.0
  0
VERTEX
  5
164
100
AcDbEntity
  8
レイヤー_1
 62
     7
100
AcDbVertex
100
AcDb2dVertex
 10
230.316347
 20
90.189155
 30
0.0
  0
VERTEX
  5
165
100
AcDbEntity
  8
レイヤー_1
 62
     7
100
AcDbVertex
100
AcDb2dVertex
 10
230.316347
 20
110.188623
 30
0.0
  0
VERTEX
  5
166
100
AcDbEntity
  8
レイヤー_1
 62
     7
100
AcDbVertex
100
AcDb2dVertex
 10
232.316569
 20
110.188623
 30
0.0
  0
SEQEND
  5
167
100
AcDbEntity
  8
レイヤー_1
 62
     7
  0
POLYLINE
  5
15C
100
AcDbEntity
  8
レイヤー_1
 62
     7
100
AcDb2dPolyline
 66
     1
 10
0.0
 20
0.0
 30
0.0
 70
     1
  0
VERTEX
  5
15D
100
AcDbEntity
  8
レイヤー_1
 62
     7
100
AcDbVertex
100
AcDb2dVertex
 10
230.316347
 20
89.188699
 30
0.0
  0
VERTEX
  5
15E
100
AcDbEntity
  8
レイヤー_1
 62
     7
100
AcDbVertex
100
AcDb2dVertex
 10
226.316591
 20
89.188699
 30
0.0
  0
VERTEX
  5
15F
100
AcDbEntity
  8
レイヤー_1
 62
     7
100
AcDbVertex
100
AcDb2dVertex
 10
226.316591
 20
111.188734
 30
0.0
  0
VERTEX
  5
160
100
AcDbEntity
  8
レイヤー_1
 62
     7
100
AcDbVertex
100
AcDb2dVertex
 10
230.316347
 20
111.188734
 30
0.0
  0
SEQEND
  5
161
100
AcDbEntity
  8
レイヤー_1
 62
     7
  0
POLYLINE
  5
156
100
AcDbEntity
  8
レイヤー_1
 62
     7
100
AcDb2dPolyline
 66
     1
 10
0.0
 20
0.0
 30
0.0
 70
     1
  0
VERTEX
  5
157
100
AcDbEntity
  8
レイヤー_1
 62
     7
100
AcDbVertex
100
AcDb2dVertex
 10
238.316547
 20
90.189155
 30
0.0
  0
VERTEX
  5
158
100
AcDbEntity
  8
レイヤー_1
 62
     7
100
AcDbVertex
100
AcDb2dVertex
 10
236.316325
 20
90.189155
 30
0.0
  0
VERTEX
  5
159
100
AcDbEntity
  8
レイヤー_1
 62
     7
100
AcDbVertex
100
AcDb2dVertex
 10
236.316325
 20
110.188623
 30
0.0
  0
VERTEX
  5
15A
100
AcDbEntity
  8
レイヤー_1
 62
     7
100
AcDbVertex
100
AcDb2dVertex
 10
238.316547
 20
110.188623
 30
0.0
  0
SEQEND
  5
15B
100
AcDbEntity
  8
レイヤー_1
 62
     7
  0
POLYLINE
  5
150
100
AcDbEntity
  8
レイヤー_1
 62
     7
100
AcDb2dPolyline
 66
     1
 10
0.0
 20
0.0
 30
0.0
 70
     1
  0
VERTEX
  5
151
100
AcDbEntity
  8
レイヤー_1
 62
     7
100
AcDbVertex
100
AcDb2dVertex
 10
236.316325
 20
89.188699
 30
0.0
  0
VERTEX
  5
152
100
AcDbEntity
  8
レイヤー_1
 62
     7
100
AcDbVertex
100
AcDb2dVertex
 10
232.316569
 20
89.188699
 30
0.0
  0
VERTEX
  5
153
100
AcDbEntity
  8
レイヤー_1
 62
     7
100
AcDbVertex
100
AcDb2dVertex
 10
232.316569
 20
111.188734
 30
0.0
  0
VERTEX
  5
154
100
AcDbEntity
  8
レイヤー_1
 62
     7
100
AcDbVertex
100
AcDb2dVertex
 10
236.316325
 20
111.188734
 30
0.0
  0
SEQEND
  5
155
100
AcDbEntity
  8
レイヤー_1
 62
     7
  0
POLYLINE
  5
14A
100
AcDbEntity
  8
レイヤー_1
 62
     7
100
AcDb2dPolyline
 66
     1
 10
0.0
 20
0.0
 30
0.0
 70
     1
  0
VERTEX
  5
14B
100
AcDbEntity
  8
レイヤー_1
 62
     7
100
AcDbVertex
100
AcDb2dVertex
 10
244.316526
 20
90.189155
 30
0.0
  0
VERTEX
  5
14C
100
AcDbEntity
  8
レイヤー_1
 62
     7
100
AcDbVertex
100
AcDb2dVertex
 10
242.316303
 20
90.189155
 30
0.0
  0
VERTEX
  5
14D
100
AcDbEntity
  8
レイヤー_1
 62
     7
100
AcDbVertex
100
AcDb2dVertex
 10
242.316303
 20
110.188623
 30
0.0
  0
VERTEX
  5
14E
100
AcDbEntity
  8
レイヤー_1
 62
     7
100
AcDbVertex
100
AcDb2dVertex
 10
244.316526
 20
110.188623
 30
0.0
  0
SEQEND
  5
14F
100
AcDbEntity
  8
レイヤー_1
 62
     7
  0
POLYLINE
  5
144
100
AcDbEntity
  8
レイヤー_1
 62
     7
100
AcDb2dPolyline
 66
     1
 10
0.0
 20
0.0
 30
0.0
 70
     1
  0
VERTEX
  5
145
100
AcDbEntity
  8
レイヤー_1
 62
     7
100
AcDbVertex
100
AcDb2dVertex
 10
242.316303
 20
89.188699
 30
0.0
  0
VERTEX
  5
146
100
AcDbEntity
  8
レイヤー_1
 62
     7
100
AcDbVertex
100
AcDb2dVertex
 10
238.316547
 20
89.188699
 30
0.0
  0
VERTEX
  5
147
100
AcDbEntity
  8
レイヤー_1
 62
     7
100
AcDbVertex
100
AcDb2dVertex
 10
238.316547
 20
111.188734
 30
0.0
  0
VERTEX
  5
148
100
AcDbEntity
  8
レイヤー_1
 62
     7
100
AcDbVertex
100
AcDb2dVertex
 10
242.316303
 20
111.188734
 30
0.0
  0
SEQEND
  5
149
100
AcDbEntity
  8
レイヤー_1
 62
     7
  0
POLYLINE
  5
13E
100
AcDbEntity
  8
レイヤー_1
 62
     7
100
AcDb2dPolyline
 66
     1
 10
0.0
 20
0.0
 30
0.0
 70
     1
  0
VERTEX
  5
13F
100
AcDbEntity
  8
レイヤー_1
 62
     7
100
AcDbVertex
100
AcDb2dVertex
 10
250.316504
 20
90.189155
 30
0.0
  0
VERTEX
  5
140
100
AcDbEntity
  8
レイヤー_1
 62
     7
100
AcDbVertex
100
AcDb2dVertex
 10
248.316281
 20
90.189155
 30
0.0
  0
VERTEX
  5
141
100
AcDbEntity
  8
レイヤー_1
 62
     7
100
AcDbVertex
100
AcDb2dVertex
 10
248.316281
 20
110.188623
 30
0.0
  0
VERTEX
  5
142
100
AcDbEntity
  8
レイヤー_1
 62
     7
100
AcDbVertex
100
AcDb2dVertex
 10
250.316504
 20
110.188623
 30
0.0
  0
SEQEND
  5
143
100
AcDbEntity
  8
レイヤー_1
 62
     7
  0
POLYLINE
  5
138
100
AcDbEntity
  8
レイヤー_1
 62
     7
100
AcDb2dPolyline
 66
     1
 10
0.0
 20
0.0
 30
0.0
 70
     1
  0
VERTEX
  5
139
100
AcDbEntity
  8
レイヤー_1
 62
     7
100
AcDbVertex
100
AcDb2dVertex
 10
248.316281
 20
89.188699
 30
0.0
  0
VERTEX
  5
13A
100
AcDbEntity
  8
レイヤー_1
 62
     7
100
AcDbVertex
100
AcDb2dVertex
 10
244.316526
 20
89.188699
 30
0.0
  0
VERTEX
  5
13B
100
AcDbEntity
  8
レイヤー_1
 62
     7
100
AcDbVertex
100
AcDb2dVertex
 10
244.316526
 20
111.188734
 30
0.0
  0
VERTEX
  5
13C
100
AcDbEntity
  8
レイヤー_1
 62
     7
100
AcDbVertex
100
AcDb2dVertex
 10
248.316281
 20
111.188734
 30
0.0
  0
SEQEND
  5
13D
100
AcDbEntity
  8
レイヤー_1
 62
     7
  0
POLYLINE
  5
132
100
AcDbEntity
  8
レイヤー_1
 62
     7
100
AcDb2dPolyline
 66
     1
 10
0.0
 20
0.0
 30
0.0
 70
     1
  0
VERTEX
  5
133
100
AcDbEntity
  8
レイヤー_1
 62
     7
100
AcDbVertex
100
AcDb2dVertex
 10
256.316138
 20
90.189155
 30
0.0
  0
VERTEX
  5
134
100
AcDbEntity
  8
レイヤー_1
 62
     7
100
AcDbVertex
100
AcDb2dVertex
 10
254.316604
 20
90.189155
 30
0.0
  0
VERTEX
  5
135
100
AcDbEntity
  8
レイヤー_1
 62
     7
100
AcDbVertex
100
AcDb2dVertex
 10
254.316604
 20
110.188623
 30
0.0
  0
VERTEX
  5
136
100
AcDbEntity
  8
レイヤー_1
 62
     7
100
AcDbVertex
100
AcDb2dVertex
 10
256.316138
 20
110.188623
 30
0.0
  0
SEQEND
  5
137
100
AcDbEntity
  8
レイヤー_1
 62
     7
  0
POLYLINE
  5
12C
100
AcDbEntity
  8
レイヤー_1
 62
     7
100
AcDb2dPolyline
 66
     1
 10
0.0
 20
0.0
 30
0.0
 70
     1
  0
VERTEX
  5
12D
100
AcDbEntity
  8
レイヤー_1
 62
     7
100
AcDbVertex
100
AcDb2dVertex
 10
254.316604
 20
89.188699
 30
0.0
  0
VERTEX
  5
12E
100
AcDbEntity
  8
レイヤー_1
 62
     7
100
AcDbVertex
100
AcDb2dVertex
 10
250.316504
 20
89.188699
 30
0.0
  0
VERTEX
  5
12F
100
AcDbEntity
  8
レイヤー_1
 62
     7
100
AcDbVertex
100
AcDb2dVertex
 10
250.316504
 20
111.188734
 30
0.0
  0
VERTEX
  5
130
100
AcDbEntity
  8
レイヤー_1
 62
     7
100
AcDbVertex
100
AcDb2dVertex
 10
254.316604
 20
111.188734
 30
0.0
  0
SEQEND
  5
131
100
AcDbEntity
  8
レイヤー_1
 62
     7
  0
POLYLINE
  5
126
100
AcDbEntity
  8
レイヤー_1
 62
     7
100
AcDb2dPolyline
 66
     1
 10
0.0
 20
0.0
 30
0.0
 70
     1
  0
VERTEX
  5
127
100
AcDbEntity
  8
レイヤー_1
 62
     7
100
AcDbVertex
100
AcDb2dVertex
 10
262.316116
 20
90.189155
 30
0.0
  0
VERTEX
  5
128
100
AcDbEntity
  8
レイヤー_1
 62
     7
100
AcDbVertex
100
AcDb2dVertex
 10
260.316583
 20
90.189155
 30
0.0
  0
VERTEX
  5
129
100
AcDbEntity
  8
レイヤー_1
 62
     7
100
AcDbVertex
100
AcDb2dVertex
 10
260.316583
 20
110.188623
 30
0.0
  0
VERTEX
  5
12A
100
AcDbEntity
  8
レイヤー_1
 62
     7
100
AcDbVertex
100
AcDb2dVertex
 10
262.316116
 20
110.188623
 30
0.0
  0
SEQEND
  5
12B
100
AcDbEntity
  8
レイヤー_1
 62
     7
  0
POLYLINE
  5
120
100
AcDbEntity
  8
レイヤー_1
 62
     7
100
AcDb2dPolyline
 66
     1
 10
0.0
 20
0.0
 30
0.0
 70
     1
  0
VERTEX
  5
121
100
AcDbEntity
  8
レイヤー_1
 62
     7
100
AcDbVertex
100
AcDb2dVertex
 10
260.316583
 20
89.188699
 30
0.0
  0
VERTEX
  5
122
100
AcDbEntity
  8
レイヤー_1
 62
     7
100
AcDbVertex
100
AcDb2dVertex
 10
256.316138
 20
89.188699
 30
0.0
  0
VERTEX
  5
123
100
AcDbEntity
  8
レイヤー_1
 62
     7
100
AcDbVertex
100
AcDb2dVertex
 10
256.316138
 20
111.188734
 30
0.0
  0
VERTEX
  5
124
100
AcDbEntity
  8
レイヤー_1
 62
     7
100
AcDbVertex
100
AcDb2dVertex
 10
260.316583
 20
111.188734
 30
0.0
  0
SEQEND
  5
125
100
AcDbEntity
  8
レイヤー_1
 62
     7
  0
POLYLINE
  5
11A
100
AcDbEntity
  8
レイヤー_1
 62
     7
100
AcDb2dPolyline
 66
     1
 10
0.0
 20
0.0
 30
0.0
 70
     1
  0
VERTEX
  5
11B
100
AcDbEntity
  8
レイヤー_1
 62
     7
100
AcDbVertex
100
AcDb2dVertex
 10
268.316094
 20
90.189155
 30
0.0
  0
VERTEX
  5
11C
100
AcDbEntity
  8
レイヤー_1
 62
     7
100
AcDbVertex
100
AcDb2dVertex
 10
266.316561
 20
90.189155
 30
0.0
  0
VERTEX
  5
11D
100
AcDbEntity
  8
レイヤー_1
 62
     7
100
AcDbVertex
100
AcDb2dVertex
 10
266.316561
 20
110.188623
 30
0.0
  0
VERTEX
  5
11E
100
AcDbEntity
  8
レイヤー_1
 62
     7
100
AcDbVertex
100
AcDb2dVertex
 10
268.316094
 20
110.188623
 30
0.0
  0
SEQEND
  5
11F
100
AcDbEntity
  8
レイヤー_1
 62
     7
  0
POLYLINE
  5
114
100
AcDbEntity
  8
レイヤー_1
 62
     7
100
AcDb2dPolyline
 66
     1
 10
0.0
 20
0.0
 30
0.0
 70
     1
  0
VERTEX
  5
115
100
AcDbEntity
  8
レイヤー_1
 62
     7
100
AcDbVertex
100
AcDb2dVertex
 10
266.316561
 20
89.188699
 30
0.0
  0
VERTEX
  5
116
100
AcDbEntity
  8
レイヤー_1
 62
     7
100
AcDbVertex
100
AcDb2dVertex
 10
262.316116
 20
89.188699
 30
0.0
  0
VERTEX
  5
117
100
AcDbEntity
  8
レイヤー_1
 62
     7
100
AcDbVertex
100
AcDb2dVertex
 10
262.316116
 20
111.188734
 30
0.0
  0
VERTEX
  5
118
100
AcDbEntity
  8
レイヤー_1
 62
     7
100
AcDbVertex
100
AcDb2dVertex
 10
266.316561
 20
111.188734
 30
0.0
  0
SEQEND
  5
119
100
AcDbEntity
  8
レイヤー_1
 62
     7
  0
POLYLINE
  5
10E
100
AcDbEntity
  8
レイヤー_1
 62
     7
100
AcDb2dPolyline
 66
     1
 10
0.0
 20
0.0
 30
0.0
 70
     1
  0
VERTEX
  5
10F
100
AcDbEntity
  8
レイヤー_1
 62
     7
100
AcDbVertex
100
AcDb2dVertex
 10
274.316073
 20
90.189155
 30
0.0
  0
VERTEX
  5
110
100
AcDbEntity
  8
レイヤー_1
 62
     7
100
AcDbVertex
100
AcDb2dVertex
 10
272.316539
 20
90.189155
 30
0.0
  0
VERTEX
  5
111
100
AcDbEntity
  8
レイヤー_1
 62
     7
100
AcDbVertex
100
AcDb2dVertex
 10
272.316539
 20
110.188623
 30
0.0
  0
VERTEX
  5
112
100
AcDbEntity
  8
レイヤー_1
 62
     7
100
AcDbVertex
100
AcDb2dVertex
 10
274.316073
 20
110.188623
 30
0.0
  0
SEQEND
  5
113
100
AcDbEntity
  8
レイヤー_1
 62
     7
  0
POLYLINE
  5
108
100
AcDbEntity
  8
レイヤー_1
 62
     7
100
AcDb2dPolyline
 66
     1
 10
0.0
 20
0.0
 30
0.0
 70
     1
  0
VERTEX
  5
109
100
AcDbEntity
  8
レイヤー_1
 62
     7
100
AcDbVertex
100
AcDb2dVertex
 10
272.316539
 20
89.188699
 30
0.0
  0
VERTEX
  5
10A
100
AcDbEntity
  8
レイヤー_1
 62
     7
100
AcDbVertex
100
AcDb2dVertex
 10
268.316094
 20
89.188699
 30
0.0
  0
VERTEX
  5
10B
100
AcDbEntity
  8
レイヤー_1
 62
     7
100
AcDbVertex
100
AcDb2dVertex
 10
268.316094
 20
111.188734
 30
0.0
  0
VERTEX
  5
10C
100
AcDbEntity
  8
レイヤー_1
 62
     7
100
AcDbVertex
100
AcDb2dVertex
 10
272.316539
 20
111.188734
 30
0.0
  0
SEQEND
  5
10D
100
AcDbEntity
  8
レイヤー_1
 62
     7
  0
POLYLINE
  5
102
100
AcDbEntity
  8
レイヤー_1
 62
     7
100
AcDb2dPolyline
 66
     1
 10
0.0
 20
0.0
 30
0.0
 70
     1
  0
VERTEX
  5
103
100
AcDbEntity
  8
レイヤー_1
 62
     7
100
AcDbVertex
100
AcDb2dVertex
 10
280.316051
 20
90.189155
 30
0.0
  0
VERTEX
  5
104
100
AcDbEntity
  8
レイヤー_1
 62
     7
100
AcDbVertex
100
AcDb2dVertex
 10
278.316517
 20
90.189155
 30
0.0
  0
VERTEX
  5
105
100
AcDbEntity
  8
レイヤー_1
 62
     7
100
AcDbVertex
100
AcDb2dVertex
 10
278.316517
 20
110.188623
 30
0.0
  0
VERTEX
  5
106
100
AcDbEntity
  8
レイヤー_1
 62
     7
100
AcDbVertex
100
AcDb2dVertex
 10
280.316051
 20
110.188623
 30
0.0
  0
SEQEND
  5
107
100
AcDbEntity
  8
レイヤー_1
 62
     7
  0
POLYLINE
  5
FC
100
AcDbEntity
  8
レイヤー_1
 62
     7
100
AcDb2dPolyline
 66
     1
 10
0.0
 20
0.0
 30
0.0
 70
     1
  0
VERTEX
  5
FD
100
AcDbEntity
  8
レイヤー_1
 62
     7
100
AcDbVertex
100
AcDb2dVertex
 10
278.316517
 20
89.188699
 30
0.0
  0
VERTEX
  5
FE
100
AcDbEntity
  8
レイヤー_1
 62
     7
100
AcDbVertex
100
AcDb2dVertex
 10
274.316073
 20
89.188699
 30
0.0
  0
VERTEX
  5
FF
100
AcDbEntity
  8
レイヤー_1
 62
     7
100
AcDbVertex
100
AcDb2dVertex
 10
274.316073
 20
111.188734
 30
0.0
  0
VERTEX
  5
100
100
AcDbEntity
  8
レイヤー_1
 62
     7
100
AcDbVertex
100
AcDb2dVertex
 10
278.316517
 20
111.188734
 30
0.0
  0
SEQEND
  5
101
100
AcDbEntity
  8
レイヤー_1
 62
     7
  0
POLYLINE
  5
F6
100
AcDbEntity
  8
レイヤー_1
 62
     7
100
AcDb2dPolyline
 66
     1
 10
0.0
 20
0.0
 30
0.0
 70
     1
  0
VERTEX
  5
F7
100
AcDbEntity
  8
レイヤー_1
 62
     7
100
AcDbVertex
100
AcDb2dVertex
 10
286.316029
 20
90.189155
 30
0.0
  0
VERTEX
  5
F8
100
AcDbEntity
  8
レイヤー_1
 62
     7
100
AcDbVertex
100
AcDb2dVertex
 10
284.316496
 20
90.189155
 30
0.0
  0
VERTEX
  5
F9
100
AcDbEntity
  8
レイヤー_1
 62
     7
100
AcDbVertex
100
AcDb2dVertex
 10
284.316496
 20
110.188623
 30
0.0
  0
VERTEX
  5
FA
100
AcDbEntity
  8
レイヤー_1
 62
     7
100
AcDbVertex
100
AcDb2dVertex
 10
286.316029
 20
110.188623
 30
0.0
  0
SEQEND
  5
FB
100
AcDbEntity
  8
レイヤー_1
 62
     7
  0
POLYLINE
  5
F0
100
AcDbEntity
  8
レイヤー_1
 62
     7
100
AcDb2dPolyline
 66
     1
 10
0.0
 20
0.0
 30
0.0
 70
     1
  0
VERTEX
  5
F1
100
AcDbEntity
  8
レイヤー_1
 62
     7
100
AcDbVertex
100
AcDb2dVertex
 10
284.316496
 20
89.188699
 30
0.0
  0
VERTEX
  5
F2
100
AcDbEntity
  8
レイヤー_1
 62
     7
100
AcDbVertex
100
AcDb2dVertex
 10
280.316051
 20
89.188699
 30
0.0
  0
VERTEX
  5
F3
100
AcDbEntity
  8
レイヤー_1
 62
     7
100
AcDbVertex
100
AcDb2dVertex
 10
280.316051
 20
111.188734
 30
0.0
  0
VERTEX
  5
F4
100
AcDbEntity
  8
レイヤー_1
 62
     7
100
AcDbVertex
100
AcDb2dVertex
 10
284.316496
 20
111.188734
 30
0.0
  0
SEQEND
  5
F5
100
AcDbEntity
  8
レイヤー_1
 62
     7
  0
POLYLINE
  5
E9
100
AcDbEntity
  8
レイヤー_1
 62
     7
100
AcDb2dPolyline
 66
     1
 10
0.0
 20
0.0
 30
0.0
  0
VERTEX
  5
EA
100
AcDbEntity
  8
レイヤー_1
 62
     7
100
AcDbVertex
100
AcDb2dVertex
 10
292.316007
 20
104.908325
 30
0.0
  0
VERTEX
  5
EB
100
AcDbEntity
  8
レイヤー_1
 62
     7
100
AcDbVertex
100
AcDb2dVertex
 10
292.316007
 20
90.189155
 30
0.0
  0
VERTEX
  5
EC
100
AcDbEntity
  8
レイヤー_1
 62
     7
100
AcDbVertex
100
AcDb2dVertex
 10
290.316474
 20
90.189155
 30
0.0
  0
VERTEX
  5
ED
100
AcDbEntity
  8
レイヤー_1
 62
     7
100
AcDbVertex
100
AcDb2dVertex
 10
290.316474
 20
110.188623
 30
0.0
  0
VERTEX
  5
EE
100
AcDbEntity
  8
レイヤー_1
 62
     7
100
AcDbVertex
100
AcDb2dVertex
 10
291.110224
 20
110.188623
 30
0.0
  0
SEQEND
  5
EF
100
AcDbEntity
  8
レイヤー_1
 62
     7
  0
POLYLINE
  5
E3
100
AcDbEntity
  8
レイヤー_1
 62
     7
100
AcDb2dPolyline
 66
     1
 10
0.0
 20
0.0
 30
0.0
 70
     1
  0
VERTEX
  5
E4
100
AcDbEntity
  8
レイヤー_1
 62
     7
100
AcDbVertex
100
AcDb2dVertex
 10
290.316474
 20
89.188699
 30
0.0
  0
VERTEX
  5
E5
100
AcDbEntity
  8
レイヤー_1
 62
     7
100
AcDbVertex
100
AcDb2dVertex
 10
286.316029
 20
89.188699
 30
0.0
  0
VERTEX
  5
E6
100
AcDbEntity
  8
レイヤー_1
 62
     7
100
AcDbVertex
100
AcDb2dVertex
 10
286.316029
 20
111.188734
 30
0.0
  0
VERTEX
  5
E7
100
AcDbEntity
  8
レイヤー_1
 62
     7
100
AcDbVertex
100
AcDb2dVertex
 10
290.316474
 20
111.188734
 30
0.0
  0
SEQEND
  5
E8
100
AcDbEntity
  8
レイヤー_1
 62
     7
  0
POLYLINE
  5
DD
100
AcDbEntity
  8
レイヤー_1
 62
     7
100
AcDb2dPolyline
 66
     1
 10
0.0
 20
0.0
 30
0.0
  0
VERTEX
  5
DE
100
AcDbEntity
  8
レイヤー_1
 62
     7
100
AcDbVertex
100
AcDb2dVertex
 10
298.315986
 20
95.27136
 30
0.0
  0
VERTEX
  5
DF
100
AcDbEntity
  8
レイヤー_1
 62
     7
100
AcDbVertex
100
AcDb2dVertex
 10
298.315986
 20
90.189155
 30
0.0
  0
VERTEX
  5
E0
100
AcDbEntity
  8
レイヤー_1
 62
     7
100
AcDbVertex
100
AcDb2dVertex
 10
296.316452
 20
90.189155
 30
0.0
  0
VERTEX
  5
E1
100
AcDbEntity
  8
レイヤー_1
 62
     7
100
AcDbVertex
100
AcDb2dVertex
 10
296.316452
 20
97.873096
 30
0.0
  0
SEQEND
  5
E2
100
AcDbEntity
  8
レイヤー_1
 62
     7
  0
POLYLINE
  5
D7
100
AcDbEntity
  8
レイヤー_1
 62
     7
100
AcDb2dPolyline
 66
     1
 10
0.0
 20
0.0
 30
0.0
  0
VERTEX
  5
D8
100
AcDbEntity
  8
レイヤー_1
 62
     7
100
AcDbVertex
100
AcDb2dVertex
 10
296.316452
 20
97.872751
 30
0.0
  0
VERTEX
  5
D9
100
AcDbEntity
  8
レイヤー_1
 62
     7
100
AcDbVertex
100
AcDb2dVertex
 10
296.316452
 20
89.188699
 30
0.0
  0
VERTEX
  5
DA
100
AcDbEntity
  8
レイヤー_1
 62
     7
100
AcDbVertex
100
AcDb2dVertex
 10
292.316007
 20
89.188699
 30
0.0
  0
VERTEX
  5
DB
100
AcDbEntity
  8
レイヤー_1
 62
     7
100
AcDbVertex
100
AcDb2dVertex
 10
292.316007
 20
104.907981
 30
0.0
  0
SEQEND
  5
DC
100
AcDbEntity
  8
レイヤー_1
 62
     7
  0
POLYLINE
  5
D1
100
AcDbEntity
  8
レイヤー_1
 62
     7
100
AcDb2dPolyline
 66
     1
 10
0.0
 20
0.0
 30
0.0
  0
VERTEX
  5
D2
100
AcDbEntity
  8
レイヤー_1
 62
     7
100
AcDbVertex
100
AcDb2dVertex
 10
302.316431
 20
100.229197
 30
0.0
  0
VERTEX
  5
D3
100
AcDbEntity
  8
レイヤー_1
 62
     7
100
AcDbVertex
100
AcDb2dVertex
 10
302.316431
 20
110.188623
 30
0.0
  0
VERTEX
  5
D4
100
AcDbEntity
  8
レイヤー_1
 62
     7
100
AcDbVertex
100
AcDb2dVertex
 10
304.315964
 20
110.188623
 30
0.0
  0
VERTEX
  5
D5
100
AcDbEntity
  8
レイヤー_1
 62
     7
100
AcDbVertex
100
AcDb2dVertex
 10
304.315964
 20
97.626082
 30
0.0
  0
SEQEND
  5
D6
100
AcDbEntity
  8
レイヤー_1
 62
     7
  0
POLYLINE
  5
CC
100
AcDbEntity
  8
レイヤー_1
 62
     7
100
AcDb2dPolyline
 66
     1
 10
0.0
 20
0.0
 30
0.0
  0
VERTEX
  5
CD
100
AcDbEntity
  8
レイヤー_1
 62
     7
100
AcDbVertex
100
AcDb2dVertex
 10
301.851687
 20
89.188699
 30
0.0
  0
VERTEX
  5
CE
100
AcDbEntity
  8
レイヤー_1
 62
     7
100
AcDbVertex
100
AcDb2dVertex
 10
298.315986
 20
89.188699
 30
0.0
  0
VERTEX
  5
CF
100
AcDbEntity
  8
レイヤー_1
 62
     7
100
AcDbVertex
100
AcDb2dVertex
 10
298.315986
 20
95.271704
 30
0.0
  0
SEQEND
  5
D0
100
AcDbEntity
  8
レイヤー_1
 62
     7
  0
POLYLINE
  5
C6
100
AcDbEntity
  8
レイヤー_1
 62
     7
100
AcDb2dPolyline
 66
     1
 10
0.0
 20
0.0
 30
0.0
  0
VERTEX
  5
C7
100
AcDbEntity
  8
レイヤー_1
 62
     7
100
AcDbVertex
100
AcDb2dVertex
 10
298.315986
 20
107.864217
 30
0.0
  0
VERTEX
  5
C8
100
AcDbEntity
  8
レイヤー_1
 62
     7
100
AcDbVertex
100
AcDb2dVertex
 10
298.315986
 20
111.188734
 30
0.0
  0
VERTEX
  5
C9
100
AcDbEntity
  8
レイヤー_1
 62
     7
100
AcDbVertex
100
AcDb2dVertex
 10
302.316431
 20
111.188734
 30
0.0
  0
VERTEX
  5
CA
100
AcDbEntity
  8
レイヤー_1
 62
     7
100
AcDbVertex
100
AcDb2dVertex
 10
302.316431
 20
100.229541
 30
0.0
  0
SEQEND
  5
CB
100
AcDbEntity
  8
レイヤー_1
 62
     7
  0
POLYLINE
  5
C0
100
AcDbEntity
  8
レイヤー_1
 62
     7
100
AcDb2dPolyline
 66
     1
 10
0.0
 20
0.0
 30
0.0
 70
     1
  0
VERTEX
  5
C1
100
AcDbEntity
  8
レイヤー_1
 62
     7
100
AcDbVertex
100
AcDb2dVertex
 10
310.315942
 20
90.189155
 30
0.0
  0
VERTEX
  5
C2
100
AcDbEntity
  8
レイヤー_1
 62
     7
100
AcDbVertex
100
AcDb2dVertex
 10
308.316409
 20
90.189155
 30
0.0
  0
VERTEX
  5
C3
100
AcDbEntity
  8
レイヤー_1
 62
     7
100
AcDbVertex
100
AcDb2dVertex
 10
308.316409
 20
110.188623
 30
0.0
  0
VERTEX
  5
C4
100
AcDbEntity
  8
レイヤー_1
 62
     7
100
AcDbVertex
100
AcDb2dVertex
 10
310.315942
 20
110.188623
 30
0.0
  0
SEQEND
  5
C5
100
AcDbEntity
  8
レイヤー_1
 62
     7
  0
POLYLINE
  5
BA
100
AcDbEntity
  8
レイヤー_1
 62
     7
100
AcDb2dPolyline
 66
     1
 10
0.0
 20
0.0
 30
0.0
  0
VERTEX
  5
BB
100
AcDbEntity
  8
レイヤー_1
 62
     7
100
AcDbVertex
100
AcDb2dVertex
 10
304.315964
 20
97.626082
 30
0.0
  0
VERTEX
  5
BC
100
AcDbEntity
  8
レイヤー_1
 62
     7
100
AcDbVertex
100
AcDb2dVertex
 10
304.315964
 20
111.188734
 30
0.0
  0
VERTEX
  5
BD
100
AcDbEntity
  8
レイヤー_1
 62
     7
100
AcDbVertex
100
AcDb2dVertex
 10
308.316409
 20
111.188734
 30
0.0
  0
VERTEX
  5
BE
100
AcDbEntity
  8
レイヤー_1
 62
     7
100
AcDbVertex
100
AcDb2dVertex
 10
308.316409
 20
90.583274
 30
0.0
  0
SEQEND
  5
BF
100
AcDbEntity
  8
レイヤー_1
 62
     7
  0
POLYLINE
  5
B4
100
AcDbEntity
  8
レイヤー_1
 62
     7
100
AcDb2dPolyline
 66
     1
 10
0.0
 20
0.0
 30
0.0
 70
     1
  0
VERTEX
  5
B5
100
AcDbEntity
  8
レイヤー_1
 62
     7
100
AcDbVertex
100
AcDb2dVertex
 10
316.315921
 20
90.189155
 30
0.0
  0
VERTEX
  5
B6
100
AcDbEntity
  8
レイヤー_1
 62
     7
100
AcDbVertex
100
AcDb2dVertex
 10
314.316387
 20
90.189155
 30
0.0
  0
VERTEX
  5
B7
100
AcDbEntity
  8
レイヤー_1
 62
     7
100
AcDbVertex
100
AcDb2dVertex
 10
314.316387
 20
110.188623
 30
0.0
  0
VERTEX
  5
B8
100
AcDbEntity
  8
レイヤー_1
 62
     7
100
AcDbVertex
100
AcDb2dVertex
 10
316.315921
 20
110.188623
 30
0.0
  0
SEQEND
  5
B9
100
AcDbEntity
  8
レイヤー_1
 62
     7
  0
POLYLINE
  5
AE
100
AcDbEntity
  8
レイヤー_1
 62
     7
100
AcDb2dPolyline
 66
     1
 10
0.0
 20
0.0
 30
0.0
 70
     1
  0
VERTEX
  5
AF
100
AcDbEntity
  8
レイヤー_1
 62
     7
100
AcDbVertex
100
AcDb2dVertex
 10
314.316387
 20
89.188699
 30
0.0
  0
VERTEX
  5
B0
100
AcDbEntity
  8
レイヤー_1
 62
     7
100
AcDbVertex
100
AcDb2dVertex
 10
310.315942
 20
89.188699
 30
0.0
  0
VERTEX
  5
B1
100
AcDbEntity
  8
レイヤー_1
 62
     7
100
AcDbVertex
100
AcDb2dVertex
 10
310.315942
 20
111.188734
 30
0.0
  0
VERTEX
  5
B2
100
AcDbEntity
  8
レイヤー_1
 62
     7
100
AcDbVertex
100
AcDb2dVertex
 10
314.316387
 20
111.188734
 30
0.0
  0
SEQEND
  5
B3
100
AcDbEntity
  8
レイヤー_1
 62
     7
  0
POLYLINE
  5
A8
100
AcDbEntity
  8
レイヤー_1
 62
     7
100
AcDb2dPolyline
 66
     1
 10
0.0
 20
0.0
 30
0.0
 70
     1
  0
VERTEX
  5
A9
100
AcDbEntity
  8
レイヤー_1
 62
     7
100
AcDbVertex
100
AcDb2dVertex
 10
322.315899
 20
90.189155
 30
0.0
  0
VERTEX
  5
AA
100
AcDbEntity
  8
レイヤー_1
 62
     7
100
AcDbVertex
100
AcDb2dVertex
 10
320.316366
 20
90.189155
 30
0.0
  0
VERTEX
  5
AB
100
AcDbEntity
  8
レイヤー_1
 62
     7
100
AcDbVertex
100
AcDb2dVertex
 10
320.316366
 20
110.188623
 30
0.0
  0
VERTEX
  5
AC
100
AcDbEntity
  8
レイヤー_1
 62
     7
100
AcDbVertex
100
AcDb2dVertex
 10
322.315899
 20
110.188623
 30
0.0
  0
SEQEND
  5
AD
100
AcDbEntity
  8
レイヤー_1
 62
     7
  0
POLYLINE
  5
A2
100
AcDbEntity
  8
レイヤー_1
 62
     7
100
AcDb2dPolyline
 66
     1
 10
0.0
 20
0.0
 30
0.0
 70
     1
  0
VERTEX
  5
A3
100
AcDbEntity
  8
レイヤー_1
 62
     7
100
AcDbVertex
100
AcDb2dVertex
 10
320.316366
 20
89.188699
 30
0.0
  0
VERTEX
  5
A4
100
AcDbEntity
  8
レイヤー_1
 62
     7
100
AcDbVertex
100
AcDb2dVertex
 10
316.315921
 20
89.188699
 30
0.0
  0
VERTEX
  5
A5
100
AcDbEntity
  8
レイヤー_1
 62
     7
100
AcDbVertex
100
AcDb2dVertex
 10
316.315921
 20
111.188734
 30
0.0
  0
VERTEX
  5
A6
100
AcDbEntity
  8
レイヤー_1
 62
     7
100
AcDbVertex
100
AcDb2dVertex
 10
320.316366
 20
111.188734
 30
0.0
  0
SEQEND
  5
A7
100
AcDbEntity
  8
レイヤー_1
 62
     7
  0
POLYLINE
  5
9C
100
AcDbEntity
  8
レイヤー_1
 62
     7
100
AcDb2dPolyline
 66
     1
 10
0.0
 20
0.0
 30
0.0
 70
     1
  0
VERTEX
  5
9D
100
AcDbEntity
  8
レイヤー_1
 62
     7
100
AcDbVertex
100
AcDb2dVertex
 10
328.315877
 20
90.189155
 30
0.0
  0
VERTEX
  5
9E
100
AcDbEntity
  8
レイヤー_1
 62
     7
100
AcDbVertex
100
AcDb2dVertex
 10
326.316344
 20
90.189155
 30
0.0
  0
VERTEX
  5
9F
100
AcDbEntity
  8
レイヤー_1
 62
     7
100
AcDbVertex
100
AcDb2dVertex
 10
326.316344
 20
110.188623
 30
0.0
  0
VERTEX
  5
A0
100
AcDbEntity
  8
レイヤー_1
 62
     7
100
AcDbVertex
100
AcDb2dVertex
 10
328.315877
 20
110.188623
 30
0.0
  0
SEQEND
  5
A1
100
AcDbEntity
  8
レイヤー_1
 62
     7
  0
POLYLINE
  5
96
100
AcDbEntity
  8
レイヤー_1
 62
     7
100
AcDb2dPolyline
 66
     1
 10
0.0
 20
0.0
 30
0.0
 70
     1
  0
VERTEX
  5
97
100
AcDbEntity
  8
レイヤー_1
 62
     7
100
AcDbVertex
100
AcDb2dVertex
 10
326.316344
 20
89.188699
 30
0.0
  0
VERTEX
  5
98
100
AcDbEntity
  8
レイヤー_1
 62
     7
100
AcDbVertex
100
AcDb2dVertex
 10
322.315899
 20
89.188699
 30
0.0
  0
VERTEX
  5
99
100
AcDbEntity
  8
レイヤー_1
 62
     7
100
AcDbVertex
100
AcDb2dVertex
 10
322.315899
 20
111.188734
 30
0.0
  0
VERTEX
  5
9A
100
AcDbEntity
  8
レイヤー_1
 62
     7
100
AcDbVertex
100
AcDb2dVertex
 10
326.316344
 20
111.188734
 30
0.0
  0
SEQEND
  5
9B
100
AcDbEntity
  8
レイヤー_1
 62
     7
  0
POLYLINE
  5
90
100
AcDbEntity
  8
レイヤー_1
 62
     7
100
AcDb2dPolyline
 66
     1
 10
0.0
 20
0.0
 30
0.0
 70
     1
  0
VERTEX
  5
91
100
AcDbEntity
  8
レイヤー_1
 62
     7
100
AcDbVertex
100
AcDb2dVertex
 10
334.315856
 20
90.189155
 30
0.0
  0
VERTEX
  5
92
100
AcDbEntity
  8
レイヤー_1
 62
     7
100
AcDbVertex
100
AcDb2dVertex
 10
332.316322
 20
90.189155
 30
0.0
  0
VERTEX
  5
93
100
AcDbEntity
  8
レイヤー_1
 62
     7
100
AcDbVertex
100
AcDb2dVertex
 10
332.316322
 20
110.188623
 30
0.0
  0
VERTEX
  5
94
100
AcDbEntity
  8
レイヤー_1
 62
     7
100
AcDbVertex
100
AcDb2dVertex
 10
334.315856
 20
110.188623
 30
0.0
  0
SEQEND
  5
95
100
AcDbEntity
  8
レイヤー_1
 62
     7
  0
POLYLINE
  5
8A
100
AcDbEntity
  8
レイヤー_1
 62
     7
100
AcDb2dPolyline
 66
     1
 10
0.0
 20
0.0
 30
0.0
 70
     1
  0
VERTEX
  5
8B
100
AcDbEntity
  8
レイヤー_1
 62
     7
100
AcDbVertex
100
AcDb2dVertex
 10
332.316322
 20
89.188699
 30
0.0
  0
VERTEX
  5
8C
100
AcDbEntity
  8
レイヤー_1
 62
     7
100
AcDbVertex
100
AcDb2dVertex
 10
328.315877
 20
89.188699
 30
0.0
  0
VERTEX
  5
8D
100
AcDbEntity
  8
レイヤー_1
 62
     7
100
AcDbVertex
100
AcDb2dVertex
 10
328.315877
 20
111.188734
 30
0.0
  0
VERTEX
  5
8E
100
AcDbEntity
  8
レイヤー_1
 62
     7
100
AcDbVertex
100
AcDb2dVertex
 10
332.316322
 20
111.188734
 30
0.0
  0
SEQEND
  5
8F
100
AcDbEntity
  8
レイヤー_1
 62
     7
  0
POLYLINE
  5
84
100
AcDbEntity
  8
レイヤー_1
 62
     7
100
AcDb2dPolyline
 66
     1
 10
0.0
 20
0.0
 30
0.0
 70
     1
  0
VERTEX
  5
85
100
AcDbEntity
  8
レイヤー_1
 62
     7
100
AcDbVertex
100
AcDb2dVertex
 10
340.315834
 20
90.189155
 30
0.0
  0
VERTEX
  5
86
100
AcDbEntity
  8
レイヤー_1
 62
     7
100
AcDbVertex
100
AcDb2dVertex
 10
338.3163
 20
90.189155
 30
0.0
  0
VERTEX
  5
87
100
AcDbEntity
  8
レイヤー_1
 62
     7
100
AcDbVertex
100
AcDb2dVertex
 10
338.3163
 20
110.188623
 30
0.0
  0
VERTEX
  5
88
100
AcDbEntity
  8
レイヤー_1
 62
     7
100
AcDbVertex
100
AcDb2dVertex
 10
340.315834
 20
110.188623
 30
0.0
  0
SEQEND
  5
89
100
AcDbEntity
  8
レイヤー_1
 62
     7
  0
POLYLINE
  5
7E
100
AcDbEntity
  8
レイヤー_1
 62
     7
100
AcDb2dPolyline
 66
     1
 10
0.0
 20
0.0
 30
0.0
 70
     1
  0
VERTEX
  5
7F
100
AcDbEntity
  8
レイヤー_1
 62
     7
100
AcDbVertex
100
AcDb2dVertex
 10
338.3163
 20
89.188699
 30
0.0
  0
VERTEX
  5
80
100
AcDbEntity
  8
レイヤー_1
 62
     7
100
AcDbVertex
100
AcDb2dVertex
 10
334.315856
 20
89.188699
 30
0.0
  0
VERTEX
  5
81
100
AcDbEntity
  8
レイヤー_1
 62
     7
100
AcDbVertex
100
AcDb2dVertex
 10
334.315856
 20
111.188734
 30
0.0
  0
VERTEX
  5
82
100
AcDbEntity
  8
レイヤー_1
 62
     7
100
AcDbVertex
100
AcDb2dVertex
 10
338.3163
 20
111.188734
 30
0.0
  0
SEQEND
  5
83
100
AcDbEntity
  8
レイヤー_1
 62
     7
  0
POLYLINE
  5
78
100
AcDbEntity
  8
レイヤー_1
 62
     7
100
AcDb2dPolyline
 66
     1
 10
0.0
 20
0.0
 30
0.0
 70
     1
  0
VERTEX
  5
79
100
AcDbEntity
  8
レイヤー_1
 62
     7
100
AcDbVertex
100
AcDb2dVertex
 10
346.315812
 20
90.189155
 30
0.0
  0
VERTEX
  5
7A
100
AcDbEntity
  8
レイヤー_1
 62
     7
100
AcDbVertex
100
AcDb2dVertex
 10
344.316279
 20
90.189155
 30
0.0
  0
VERTEX
  5
7B
100
AcDbEntity
  8
レイヤー_1
 62
     7
100
AcDbVertex
100
AcDb2dVertex
 10
344.316279
 20
110.188623
 30
0.0
  0
VERTEX
  5
7C
100
AcDbEntity
  8
レイヤー_1
 62
     7
100
AcDbVertex
100
AcDb2dVertex
 10
346.315812
 20
110.188623
 30
0.0
  0
SEQEND
  5
7D
100
AcDbEntity
  8
レイヤー_1
 62
     7
  0
POLYLINE
  5
72
100
AcDbEntity
  8
レイヤー_1
 62
     7
100
AcDb2dPolyline
 66
     1
 10
0.0
 20
0.0
 30
0.0
 70
     1
  0
VERTEX
  5
73
100
AcDbEntity
  8
レイヤー_1
 62
     7
100
AcDbVertex
100
AcDb2dVertex
 10
344.316279
 20
89.188699
 30
0.0
  0
VERTEX
  5
74
100
AcDbEntity
  8
レイヤー_1
 62
     7
100
AcDbVertex
100
AcDb2dVertex
 10
340.315834
 20
89.188699
 30
0.0
  0
VERTEX
  5
75
100
AcDbEntity
  8
レイヤー_1
 62
     7
100
AcDbVertex
100
AcDb2dVertex
 10
340.315834
 20
111.188734
 30
0.0
  0
VERTEX
  5
76
100
AcDbEntity
  8
レイヤー_1
 62
     7
100
AcDbVertex
100
AcDb2dVertex
 10
344.316279
 20
111.188734
 30
0.0
  0
SEQEND
  5
77
100
AcDbEntity
  8
レイヤー_1
 62
     7
  0
POLYLINE
  5
6C
100
AcDbEntity
  8
レイヤー_1
 62
     7
100
AcDb2dPolyline
 66
     1
 10
0.0
 20
0.0
 30
0.0
 70
     1
  0
VERTEX
  5
6D
100
AcDbEntity
  8
レイヤー_1
 62
     7
100
AcDbVertex
100
AcDb2dVertex
 10
352.31579
 20
90.189155
 30
0.0
  0
VERTEX
  5
6E
100
AcDbEntity
  8
レイヤー_1
 62
     7
100
AcDbVertex
100
AcDb2dVertex
 10
350.316257
 20
90.189155
 30
0.0
  0
VERTEX
  5
6F
100
AcDbEntity
  8
レイヤー_1
 62
     7
100
AcDbVertex
100
AcDb2dVertex
 10
350.316257
 20
110.188623
 30
0.0
  0
VERTEX
  5
70
100
AcDbEntity
  8
レイヤー_1
 62
     7
100
AcDbVertex
100
AcDb2dVertex
 10
352.31579
 20
110.188623
 30
0.0
  0
SEQEND
  5
71
100
AcDbEntity
  8
レイヤー_1
 62
     7
  0
POLYLINE
  5
66
100
AcDbEntity
  8
レイヤー_1
 62
     7
100
AcDb2dPolyline
 66
     1
 10
0.0
 20
0.0
 30
0.0
 70
     1
  0
VERTEX
  5
67
100
AcDbEntity
  8
レイヤー_1
 62
     7
100
AcDbVertex
100
AcDb2dVertex
 10
350.316257
 20
89.188699
 30
0.0
  0
VERTEX
  5
68
100
AcDbEntity
  8
レイヤー_1
 62
     7
100
AcDbVertex
100
AcDb2dVertex
 10
346.315812
 20
89.188699
 30
0.0
  0
VERTEX
  5
69
100
AcDbEntity
  8
レイヤー_1
 62
     7
100
AcDbVertex
100
AcDb2dVertex
 10
346.315812
 20
111.188734
 30
0.0
  0
VERTEX
  5
6A
100
AcDbEntity
  8
レイヤー_1
 62
     7
100
AcDbVertex
100
AcDb2dVertex
 10
350.316257
 20
111.188734
 30
0.0
  0
SEQEND
  5
6B
100
AcDbEntity
  8
レイヤー_1
 62
     7
  0
POLYLINE
  5
60
100
AcDbEntity
  8
レイヤー_1
 62
     7
100
AcDb2dPolyline
 66
     1
 10
0.0
 20
0.0
 30
0.0
 70
     1
  0
VERTEX
  5
61
100
AcDbEntity
  8
レイヤー_1
 62
     7
100
AcDbVertex
100
AcDb2dVertex
 10
358.315769
 20
90.189155
 30
0.0
  0
VERTEX
  5
62
100
AcDbEntity
  8
レイヤー_1
 62
     7
100
AcDbVertex
100
AcDb2dVertex
 10
356.316235
 20
90.189155
 30
0.0
  0
VERTEX
  5
63
100
AcDbEntity
  8
レイヤー_1
 62
     7
100
AcDbVertex
100
AcDb2dVertex
 10
356.316235
 20
110.188623
 30
0.0
  0
VERTEX
  5
64
100
AcDbEntity
  8
レイヤー_1
 62
     7
100
AcDbVertex
100
AcDb2dVertex
 10
358.315769
 20
110.188623
 30
0.0
  0
SEQEND
  5
65
100
AcDbEntity
  8
レイヤー_1
 62
     7
  0
POLYLINE
  5
5A
100
AcDbEntity
  8
レイヤー_1
 62
     7
100
AcDb2dPolyline
 66
     1
 10
0.0
 20
0.0
 30
0.0
 70
     1
  0
VERTEX
  5
5B
100
AcDbEntity
  8
レイヤー_1
 62
     7
100
AcDbVertex
100
AcDb2dVertex
 10
356.316235
 20
89.188699
 30
0.0
  0
VERTEX
  5
5C
100
AcDbEntity
  8
レイヤー_1
 62
     7
100
AcDbVertex
100
AcDb2dVertex
 10
352.31579
 20
89.188699
 30
0.0
  0
VERTEX
  5
5D
100
AcDbEntity
  8
レイヤー_1
 62
     7
100
AcDbVertex
100
AcDb2dVertex
 10
352.31579
 20
111.188734
 30
0.0
  0
VERTEX
  5
5E
100
AcDbEntity
  8
レイヤー_1
 62
     7
100
AcDbVertex
100
AcDb2dVertex
 10
356.316235
 20
111.188734
 30
0.0
  0
SEQEND
  5
5F
100
AcDbEntity
  8
レイヤー_1
 62
     7
  0
POLYLINE
  5
54
100
AcDbEntity
  8
レイヤー_1
 62
     7
100
AcDb2dPolyline
 66
     1
 10
0.0
 20
0.0
 30
0.0
 70
     1
  0
VERTEX
  5
55
100
AcDbEntity
  8
レイヤー_1
 62
     7
100
AcDbVertex
100
AcDb2dVertex
 10
364.315747
 20
90.189155
 30
0.0
  0
VERTEX
  5
56
100
AcDbEntity
  8
レイヤー_1
 62
     7
100
AcDbVertex
100
AcDb2dVertex
 10
362.316214
 20
90.189155
 30
0.0
  0
VERTEX
  5
57
100
AcDbEntity
  8
レイヤー_1
 62
     7
100
AcDbVertex
100
AcDb2dVertex
 10
362.316214
 20
110.188623
 30
0.0
  0
VERTEX
  5
58
100
AcDbEntity
  8
レイヤー_1
 62
     7
100
AcDbVertex
100
AcDb2dVertex
 10
364.315747
 20
110.188623
 30
0.0
  0
SEQEND
  5
59
100
AcDbEntity
  8
レイヤー_1
 62
     7
  0
POLYLINE
  5
4E
100
AcDbEntity
  8
レイヤー_1
 62
     7
100
AcDb2dPolyline
 66
     1
 10
0.0
 20
0.0
 30
0.0
 70
     1
  0
VERTEX
  5
4F
100
AcDbEntity
  8
レイヤー_1
 62
     7
100
AcDbVertex
100
AcDb2dVertex
 10
362.316214
 20
89.188699
 30
0.0
  0
VERTEX
  5
50
100
AcDbEntity
  8
レイヤー_1
 62
     7
100
AcDbVertex
100
AcDb2dVertex
 10
358.315769
 20
89.188699
 30
0.0
  0
VERTEX
  5
51
100
AcDbEntity
  8
レイヤー_1
 62
     7
100
AcDbVertex
100
AcDb2dVertex
 10
358.315769
 20
111.188734
 30
0.0
  0
VERTEX
  5
52
100
AcDbEntity
  8
レイヤー_1
 62
     7
100
AcDbVertex
100
AcDb2dVertex
 10
362.316214
 20
111.188734
 30
0.0
  0
SEQEND
  5
53
100
AcDbEntity
  8
レイヤー_1
 62
     7
  0
POLYLINE
  5
48
100
AcDbEntity
  8
レイヤー_1
 62
     7
100
AcDb2dPolyline
 66
     1
 10
0.0
 20
0.0
 30
0.0
 70
     1
  0
VERTEX
  5
49
100
AcDbEntity
  8
レイヤー_1
 62
     7
100
AcDbVertex
100
AcDb2dVertex
 10
370.315725
 20
90.189155
 30
0.0
  0
VERTEX
  5
4A
100
AcDbEntity
  8
レイヤー_1
 62
     7
100
AcDbVertex
100
AcDb2dVertex
 10
368.316192
 20
90.189155
 30
0.0
  0
VERTEX
  5
4B
100
AcDbEntity
  8
レイヤー_1
 62
     7
100
AcDbVertex
100
AcDb2dVertex
 10
368.316192
 20
110.188623
 30
0.0
  0
VERTEX
  5
4C
100
AcDbEntity
  8
レイヤー_1
 62
     7
100
AcDbVertex
100
AcDb2dVertex
 10
370.315725
 20
110.188623
 30
0.0
  0
SEQEND
  5
4D
100
AcDbEntity
  8
レイヤー_1
 62
     7
  0
POLYLINE
  5
42
100
AcDbEntity
  8
レイヤー_1
 62
     7
100
AcDb2dPolyline
 66
     1
 10
0.0
 20
0.0
 30
0.0
 70
     1
  0
VERTEX
  5
43
100
AcDbEntity
  8
レイヤー_1
 62
     7
100
AcDbVertex
100
AcDb2dVertex
 10
368.316192
 20
89.188699
 30
0.0
  0
VERTEX
  5
44
100
AcDbEntity
  8
レイヤー_1
 62
     7
100
AcDbVertex
100
AcDb2dVertex
 10
364.315747
 20
89.188699
 30
0.0
  0
VERTEX
  5
45
100
AcDbEntity
  8
レイヤー_1
 62
     7
100
AcDbVertex
100
AcDb2dVertex
 10
364.315747
 20
111.188734
 30
0.0
  0
VERTEX
  5
46
100
AcDbEntity
  8
レイヤー_1
 62
     7
100
AcDbVertex
100
AcDb2dVertex
 10
368.316192
 20
111.188734
 30
0.0
  0
SEQEND
  5
47
100
AcDbEntity
  8
レイヤー_1
 62
     7
  0
POLYLINE
  5
3C
100
AcDbEntity
  8
レイヤー_1
 62
     7
100
AcDb2dPolyline
 66
     1
 10
0.0
 20
0.0
 30
0.0
 70
     1
  0
VERTEX
  5
3D
100
AcDbEntity
  8
レイヤー_1
 62
     7
100
AcDbVertex
100
AcDb2dVertex
 10
376.315704
 20
90.189155
 30
0.0
  0
VERTEX
  5
3E
100
AcDbEntity
  8
レイヤー_1
 62
     7
100
AcDbVertex
100
AcDb2dVertex
 10
374.31617
 20
90.189155
 30
0.0
  0
VERTEX
  5
3F
100
AcDbEntity
  8
レイヤー_1
 62
     7
100
AcDbVertex
100
AcDb2dVertex
 10
374.31617
 20
110.188623
 30
0.0
  0
VERTEX
  5
40
100
AcDbEntity
  8
レイヤー_1
 62
     7
100
AcDbVertex
100
AcDb2dVertex
 10
376.315704
 20
110.188623
 30
0.0
  0
SEQEND
  5
41
100
AcDbEntity
  8
レイヤー_1
 62
     7
  0
POLYLINE
  5
36
100
AcDbEntity
  8
レイヤー_1
 62
     7
100
AcDb2dPolyline
 66
     1
 10
0.0
 20
0.0
 30
0.0
 70
     1
  0
VERTEX
  5
37
100
AcDbEntity
  8
レイヤー_1
 62
     7
100
AcDbVertex
100
AcDb2dVertex
 10
374.31617
 20
89.188699
 30
0.0
  0
VERTEX
  5
38
100
AcDbEntity
  8
レイヤー_1
 62
     7
100
AcDbVertex
100
AcDb2dVertex
 10
370.315725
 20
89.188699
 30
0.0
  0
VERTEX
  5
39
100
AcDbEntity
  8
レイヤー_1
 62
     7
100
AcDbVertex
100
AcDb2dVertex
 10
370.315725
 20
111.188734
 30
0.0
  0
VERTEX
  5
3A
100
AcDbEntity
  8
レイヤー_1
 62
     7
100
AcDbVertex
100
AcDb2dVertex
 10
374.31617
 20
111.188734
 30
0.0
  0
SEQEND
  5
3B
100
AcDbEntity
  8
レイヤー_1
 62
     7
  0
POLYLINE
  5
30
100
AcDbEntity
  8
レイヤー_1
 62
     7
100
AcDb2dPolyline
 66
     1
 10
0.0
 20
0.0
 30
0.0
 70
     1
  0
VERTEX
  5
31
100
AcDbEntity
  8
レイヤー_1
 62
     7
100
AcDbVertex
100
AcDb2dVertex
 10
380.316149
 20
89.188699
 30
0.0
  0
VERTEX
  5
32
100
AcDbEntity
  8
レイヤー_1
 62
     7
100
AcDbVertex
100
AcDb2dVertex
 10
376.315704
 20
89.188699
 30
0.0
  0
VERTEX
  5
33
100
AcDbEntity
  8
レイヤー_1
 62
     7
100
AcDbVertex
100
AcDb2dVertex
 10
376.315704
 20
111.188734
 30
0.0
  0
VERTEX
  5
34
100
AcDbEntity
  8
レイヤー_1
 62
     7
100
AcDbVertex
100
AcDb2dVertex
 10
380.316149
 20
111.188734
 30
0.0
  0
SEQEND
  5
35
100
AcDbEntity
  8
レイヤー_1
 62
     7
  0
LINE
  5
2F
100
AcDbEntity
  8
レイヤー_1
  6
AI9-LType1
 62
     7
100
AcDbLine
 10
79.213081
 20
107.260292
 30
0.0
 11
65.070791
 21
93.11783
 31
0.0
  0
LINE
  5
2E
100
AcDbEntity
  8
レイヤー_1
  6
AI9-LType1
 62
     7
100
AcDbLine
 10
79.213081
 20
107.260292
 30
0.0
 11
65.070791
 21
93.11783
 31
0.0
  0
LINE
  5
2D
100
AcDbEntity
  8
レイヤー_1
  6
AI9-LType1
 62
     7
100
AcDbLine
 10
83.455543
 20
226.150882
 30
0.0
 11
60.828156
 21
203.523322
 31
0.0
  0
LINE
  5
2C
100
AcDbEntity
  8
レイヤー_1
  6
AI9-LType1
 62
     7
100
AcDbLine
 10
83.455543
 20
226.150882
 30
0.0
 11
60.828156
 21
203.523322
 31
0.0
  0
LINE
  5
2B
100
AcDbEntity
  8
レイヤー_1
  6
AI9-LType1
 62
     7
100
AcDbLine
 10
60.828156
 20
226.150882
 30
0.0
 11
83.455543
 21
203.523322
 31
0.0
  0
LINE
  5
2A
100
AcDbEntity
  8
レイヤー_1
  6
AI9-LType1
 62
     7
100
AcDbLine
 10
65.070964
 20
107.260292
 30
0.0
 11
79.213253
 21
93.11783
 31
0.0
  0
ENDSEC
  0
SECTION
  2
OBJECTS
  0
DICTIONARY
  5
19
100
AcDbDictionary
280
     0
281
     1
  3
ACAD_GROUP
350
1A
  3
ACAD_MLINESTYLE
350
1B
  3
ACAD_LAYOUT
350
1E
  3
ACAD_PLOTSETTINGS
350
22
  3
ACAD_PLOTSTYLENAME
350
1F
  3
ACAD_WIPEOUT_VARS
350
23
  0
DICTIONARY
  5
1A
102
{ACAD_REACTORS
330
19
102
}
100
AcDbDictionary
280
     0
281
     1
  0
DICTIONARY
  5
1B
102
{ACAD_REACTORS
330
19
102
}
100
AcDbDictionary
280
     0
281
     1
  3
Standard
350
1C
  0
MLINESTYLE
  5
1C
102
{ACAD_REACTORS
330
1B
102
}
100
AcDbMlineStyle
  2
Standard
 70
     0
  3

 62
     0
 51
90.0
 52
90.0
 71
     2
 49
0.5
 62
   256
  6
ByLayer
 49
-0.5
 62
   256
  6
ByLayer
  0
ACDBDICTIONARYWDFLT
  5
1F
102
{ACAD_REACTORS
330
19
102
}
100
AcDbDictionary
281
     1
  3
Normal
350
1D
100
AcDbDictionaryWithDefault
340
1D
  0
ACDBPLACEHOLDER
  5
1D
102
{ACAD_REACTORS
330
1F
102
}
  0
LAYOUT
  5
20
102
{ACAD_REACTORS
330
1E
102
}
100
AcDbPlotSettings
  1

  2

  4

  6

 40
0.0
 41
0.0
 42
0.0
 43
0.0
 44
0.0
 45
0.0
 46
0.0
 47
0.0
 48
0.0
 49
0.0
140
0.0
141
0.0
142
1.0
143
1.0
 70
  1024
 72
     0
 73
     0
 74
     0
  7

 75
     0
147
1.0
148
0.0
149
0.0
100
AcDbLayout
  1
Model
 70
     0
 71
     0
 10
0.0
 20
0.0
 11
0.0
 21
0.0
 12
0.0
 22
0.0
 32
0.0
 14
0.0
 24
0.0
 34
0.0
 15
0.0
 25
0.0
 35
0.0
146
0.0
 13
0.0
 23
0.0
 33
0.0
 16
0.0
 26
0.0
 36
0.0
 17
0.0
 27
0.0
 37
0.0
 76
     0
330
A
331
0
345
0
346
0
  0
LAYOUT
  5
21
102
{ACAD_REACTORS
330
1E
102
}
100
AcDbPlotSettings
  1

  2

  4

  6

 40
0.0
 41
0.0
 42
0.0
 43
0.0
 44
0.0
 45
0.0
 46
0.0
 47
0.0
 48
0.0
 49
0.0
140
0.0
141
0.0
142
1.0
143
1.0
 70
     0
 72
     0
 73
     0
 74
     0
  7

 75
     0
147
1.0
148
0.0
149
0.0
100
AcDbLayout
  1
Layout1
 70
     0
 71
     0
 10
0.0
 20
0.0
 11
0.0
 21
0.0
 12
0.0
 22
0.0
 32
0.0
 14
0.0
 24
0.0
 34
0.0
 15
0.0
 25
0.0
 35
0.0
146
0.0
 13
0.0
 23
0.0
 33
0.0
 16
0.0
 26
0.0
 36
0.0
 17
0.0
 27
0.0
 37
0.0
 76
     0
330
B
331
0
345
0
346
0
  0
DICTIONARY
  5
1E
102
{ACAD_REACTORS
330
19
102
}
100
AcDbDictionary
280
     0
281
     1
  3
Layout1
350
21
  3
Model
350
20
  0
DICTIONARY
  5
22
102
{ACAD_REACTORS
330
19
102
}
100
AcDbDictionary
280
     0
281
     1
  0
WIPEOUTVARIABLES
  5
23
100
AcDbWipeoutVariables
 70
     1
  0
ENDSEC
  0
EOF
