  0
SECTION
  2
HEADER
  9
$ACADVER
  1
AC1015
  9
$ACADMAINTVER
 70
     6
  9
$DWGCODEPAGE
  3
ANSI_932
  9
$INSBASE
 10
0.0
 20
0.0
 30
0.0
  9
$EXTMIN
 10
14.684375
 20
10.715625
 30
1.000000E+20
  9
$EXTMAX
 10
404.680208
 20
287.734375
 30
-1.000000E+20
  9
$LIMMIN
 10
14.684375
 20
10.715625
  9
$LIMMAX
 10
404.680208
 20
287.734375
  9
$ORTHOMODE
 70
     0
  9
$REGENMODE
 70
     1
  9
$FILLMODE
 70
     1
  9
$QTEXTMODE
 70
     0
  9
$MIRRTEXT
 70
     1
  9
$LTSCALE
 40
1.0
  9
$ATTMODE
 70
     1
  9
$TEXTSIZE
 40
0.2
  9
$TRACEWID
 40
0.05
  9
$TEXTSTYLE
  7
Standard
  9
$CLAYER
  8
0
  9
$CELTYPE
  6
Continuous
  9
$CECOLOR
 62
   256
  9
$CELTSCALE
 40
1.0
  9
$DISPSILH
 70
     0
  9
$DIMSCALE
 40
1.0
  9
$DIMASZ
 40
0.18
  9
$DIMEXO
 40
0.0625
  9
$DIMDLI
 40
0.38
  9
$DIMRND
 40
0.0
  9
$DIMDLE
 40
0.0
  9
$DIMEXE
 40
0.18
  9
$DIMTP
 40
0.0
  9
$DIMTM
 40
0.0
  9
$DIMTXT
 40
0.18
  9
$DIMCEN
 40
0.09
  9
$DIMTSZ
 40
0.0
  9
$DIMTOL
 70
     0
  9
$DIMLIM
 70
     0
  9
$DIMTIH
 70
     1
  9
$DIMTOH
 70
     1
  9
$DIMSE1
 70
     0
  9
$DIMSE2
 70
     0
  9
$DIMTAD
 70
     0
  9
$DIMZIN
 70
     0
  9
$DIMBLK
  1

  9
$DIMASO
 70
     1
  9
$DIMSHO
 70
     1
  9
$DIMPOST
  1

  9
$DIMAPOST
  1

  9
$DIMALT
 70
     0
  9
$DIMALTD
 70
     2
  9
$DIMALTF
 40
25.4
  9
$DIMLFAC
 40
1.0
  9
$DIMTOFL
 70
     0
  9
$DIMTVP
 40
0.0
  9
$DIMTIX
 70
     0
  9
$DIMSOXD
 70
     0
  9
$DIMSAH
 70
     0
  9
$DIMBLK1
  1

  9
$DIMBLK2
  1

  9
$DIMSTYLE
  2
Standard
  9
$DIMCLRD
 70
     0
  9
$DIMCLRE
 70
     0
  9
$DIMCLRT
 70
     0
  9
$DIMTFAC
 40
1.0
  9
$DIMGAP
 40
0.09
  9
$DIMJUST
 70
     0
  9
$DIMSD1
 70
     0
  9
$DIMSD2
 70
     0
  9
$DIMTOLJ
 70
     1
  9
$DIMTZIN
 70
     0
  9
$DIMALTZ
 70
     0
  9
$DIMALTTZ
 70
     0
  9
$DIMUPT
 70
     0
  9
$DIMDEC
 70
     4
  9
$DIMTDEC
 70
     4
  9
$DIMALTU
 70
     2
  9
$DIMALTTD
 70
     2
  9
$DIMTXSTY
  7
Standard
  9
$DIMAUNIT
 70
     0
  9
$DIMADEC
 70
     0
  9
$DIMALTRND
 40
0.0
  9
$DIMAZIN
 70
     0
  9
$DIMDSEP
 70
     0
  9
$DIMATFIT
 70
     3
  9
$DIMFRAC
 70
     0
  9
$DIMLDRBLK
  1

  9
$DIMLUNIT
 70
     2
  9
$DIMLWD
 70
     0
  9
$DIMLWE
 70
     0
  9
$DIMTMOVE
 70
     0
  9
$LUNITS
 70
     2
  9
$LUPREC
 70
     4
  9
$SKETCHINC
 40
0.1
  9
$FILLETRAD
 40
0.0
  9
$AUNITS
 70
     0
  9
$AUPREC
 70
     0
  9
$MENU
  1
acad
  9
$ELEVATION
 40
0.0
  9
$PELEVATION
 40
0.0
  9
$THICKNESS
 40
0.0
  9
$LIMCHECK
 70
     0
  9
$CHAMFERA
 40
0.0
  9
$CHAMFERB
 40
0.0
  9
$CHAMFERC
 40
0.0
  9
$CHAMFERD
 40
0.0
  9
$SKPOLY
 70
     0
  9
$TDCREATE
 40
0.000000000
  9
$TDUCREATE
 40
0.000000000
  9
$TDUPDATE
 40
0.000000000
  9
$TDUUPDATE
 40
0.000000000
  9
$TDINDWG
 40
0.0000000000
  9
$TDUSRTIMER
 40
0.0000000000
  9
$USRTIMER
 70
     1
  9
$ANGBASE
 50
0.0
  9
$ANGDIR
 70
     0
  9
$PDMODE
 70
     0
  9
$PDSIZE
 40
0.0
  9
$PLINEWID
 40
0.0
  9
$SPLFRAME
 70
     0
  9
$SPLINETYPE
 70
     6
  9
$SPLINESEGS
 70
     8
  9
$HANDSEED
  5
53B
  9
$SURFTAB1
 70
     6
  9
$SURFTAB2
 70
     6
  9
$SURFTYPE
 70
     6
  9
$SURFU
 70
     6
  9
$SURFV
 70
     6
  9
$UCSBASE
  2

  9
$UCSNAME
  2

  9
$UCSORG
 10
0.0
 20
0.0
 30
0.0
  9
$UCSXDIR
 10
1.0
 20
0.0
 30
0.0
  9
$UCSYDIR
 10
0.0
 20
1.0
 30
0.0
  9
$UCSORTHOREF
  2

  9
$UCSORTHOVIEW
 70
     0
  9
$UCSORGTOP
 10
0.0
 20
0.0
 30
0.0
  9
$UCSORGBOTTOM
 10
0.0
 20
0.0
 30
0.0
  9
$UCSORGLEFT
 10
0.0
 20
0.0
 30
0.0
  9
$UCSORGRIGHT
 10
0.0
 20
0.0
 30
0.0
  9
$UCSORGFRONT
 10
0.0
 20
0.0
 30
0.0
  9
$UCSORGBACK
 10
0.0
 20
0.0
 30
0.0
  9
$PUCSBASE
  2

  9
$PUCSNAME
  2

  9
$PUCSORG
 10
0.0
 20
0.0
 30
0.0
  9
$PUCSXDIR
 10
1.0
 20
0.0
 30
0.0
  9
$PUCSYDIR
 10
0.0
 20
1.0
 30
0.0
  9
$PUCSORTHOREF
  2

  9
$PUCSORTHOVIEW
 70
     0
  9
$PUCSORGTOP
 10
0.0
 20
0.0
 30
0.0
  9
$PUCSORGBOTTOM
 10
0.0
 20
0.0
 30
0.0
  9
$PUCSORGLEFT
 10
0.0
 20
0.0
 30
0.0
  9
$PUCSORGRIGHT
 10
0.0
 20
0.0
 30
0.0
  9
$PUCSORGFRONT
 10
0.0
 20
0.0
 30
0.0
  9
$PUCSORGBACK
 10
0.0
 20
0.0
 30
0.0
  9
$USERI1
 70
     0
  9
$USERI2
 70
     0
  9
$USERI3
 70
     0
  9
$USERI4
 70
     0
  9
$USERI5
 70
     0
  9
$USERR1
 40
0.0
  9
$USERR2
 40
0.0
  9
$USERR3
 40
0.0
  9
$USERR4
 40
0.0
  9
$USERR5
 40
0.0
  9
$WORLDVIEW
 70
     1
  9
$SHADEDGE
 70
     3
  9
$SHADEDIF
 70
    70
  9
$TILEMODE
 70
     1
  9
$MAXACTVP
 70
    16
  9
$PINSBASE
 10
0.0
 20
0.0
 30
0.0
  9
$PLIMCHECK
 70
     0
  9
$PEXTMIN
 10
1.000000E+20
 20
1.000000E+20
 30
1.000000E+20
  9
$PEXTMAX
 10
-1.000000E+20
 20
-1.000000E+20
 30
-1.000000E+20
  9
$PLIMMIN
 10
0.0
 20
0.0
  9
$PLIMMAX
 10
12.0
 20
9.0
  9
$UNITMODE
 70
     0
  9
$VISRETAIN
 70
     0
  9
$PLINEGEN
 70
     1
  9
$PSLTSCALE
 70
     0
  9
$TREEDEPTH
 70
  3020
  9
$CMLSTYLE
  2
Standard
  9
$CMLJUST
 70
     0
  9
$CMLSCALE
 40
1.0
  9
$PROXYGRAPHICS
 70
     0
  9
$MEASUREMENT
 70
     1
  9
$CELWEIGHT
370
     0
  9
$ENDCAPS
280
     0
  9
$JOINSTYLE
280
     0
  9
$LWDISPLAY
290
     0
  9
$INSUNITS
 70
     0
  9
$HYPERLINKBASE
  1

  9
$STYLESHEET
  1

  9
$XEDIT
290
     1
  9
$CEPSNTYPE
380
     0
  9
$PSTYLEMODE
290
     1
  9
$FINGERPRINTGUID
  2

  9
$VERSIONGUID
  2

  9
$EXTNAMES
290
     1
  9
$PSVPSCALE
 40
0.0
  0
ENDSEC
  0
SECTION
  2
CLASSES
  0
CLASS
  1
LWPOLYLINE
  2
AcDbPolyline
  3
AutoCAD 2000
 90
    32768
280
     0
281
     1
  0
CLASS
  1
IMAGE
  2
AcDbRasterImage
  3
ISM
 90
    32895
280
     0
281
     1
  0
CLASS
  1
OLE2FRAME
  2
AcDbOle2Frame
  3
AutoCAD 2000
 90
    32768
280
     0
281
     1
  0
CLASS
  1
HATCH
  2
AcDbHatch
  3
AutoCAD 2000
 90
        0
280
     0
281
     1
  0
CLASS
  1
DICTIONARYVAR
  2
AcDbDictionaryVar
  3
AutoCAD 2000
 90
    32768
280
     0
281
     0
  0
CLASS
  1
RASTERVARIABLES
  2
AcDbRasterVariables
  3
ISM
 90
    32768
280
     0
281
     0
  0
CLASS
  1
IMAGEDEF
  2
AcDbRasterImageDef
  3
ISM
 90
    32768
280
     0
281
     0
  0
CLASS
  1
IMAGEDEF_REACTOR
  2
AcDbRasterImageDefReactor
  3
ISM
 90
    32769
280
     0
281
     0
  0
CLASS
  1
IDBUFFER
  2
AcDbIdBuffer
  3
AutoCAD 2000
 90
    32768
280
     0
281
     0
  0
CLASS
  1
SPATIAL_FILTER
  2
AcDbSpatialFilter
  3
AutoCAD 2000
 90
    32768
280
     0
281
     0
  0
CLASS
  1
XRECORD
  2
AcDbXrecord
  3
AutoCAD 2000
 90
    32768
280
     0
281
     0
  0
CLASS
  1
SORTENTSTABLE
  2
AcDbSortentsTable
  3
AutoCAD 2000
 90
    32768
280
     0
281
     0
  0
CLASS
  1
LAYER_INDEX
  2
AcDbLayerIndex
  3
AutoCAD 2000
 90
    32768
280
     0
281
     0
  0
CLASS
  1
SPATIAL_INDEX
  2
AcDbSpatialIndex
  3
AutoCAD 2000
 90
    32768
280
     0
281
     0
  0
CLASS
  1
OBJECT_PTR
  2
CAseDLPNTableRecord
  3
"ASE-LPNTableRecord"
 90
    32769
280
     0
281
     0
  0
CLASS
  1
LAYOUT
  2
AcDbLayout
  3
AutoCAD 2000
 90
        0
280
     0
281
     0
  0
CLASS
  1
PLOTSETTINGS
  2
AcDbPlotSettings
  3
AutoCAD 2000
 90
    32768
280
     0
281
     0
  0
CLASS
  1
ACDBDICTIONARYWDFLT
  2
AcDbDictionaryWithDefault
  3
AutoCAD 2000
 90
        0
280
     0
281
     0
  0
CLASS
  1
ACDBPLACEHOLDER
  2
AcDbPlaceHolder
  3
AutoCAD 2000
 90
        0
280
     0
281
     0
  0
CLASS
  1
VBA_PROJECT
  2
AcDbVbaProject
  3
acadvba
 90
    32768
280
     0
281
     0
  0
CLASS
  1
WIPEOUT
  2
AcDbWipeout
  3
WipeOut|AutoCAD Express Tool|expresstools@autodesk.com
 90
    32895
280
     0
281
     1
  0
CLASS
  1
WIPEOUTVARIABLES
  2
AcDbWipeoutVariables
  3
WipeOut|AutoCAD Express Tool|expresstools@autodesk.com
 90
        0
280
     0
281
     0
  0
CLASS
  1
RTEXT
  2
RText
  3
RText|AutoCAD Express Tool|expresstools@autodesk.com
 90
    32768
280
     0
281
     1
  0
CLASS
  1
ARCALIGNEDTEXT
  2
AcDbArcAlignedText
  3
ATEXT|AutoCAD Express Tool|expresstools@autodesk.com
 90
    32768
280
     0
281
     1
  0
ENDSEC
  0
SECTION
  2
TABLES
  0
TABLE
  2
VPORT
  5
7
100
AcDbSymbolTable
 70
     1
  0
VPORT
  5
15
100
AcDbSymbolTableRecord
100
AcDbViewportTableRecord
  2
*ACTIVE
 70
     0
 10
0.0
 20
0.0
 11
1.0
 21
1.0
 12
6.591288
 22
4.579184
 13
0.0
 23
0.0
 14
1.0
 24
1.0
 15
0.0
 25
0.0
 16
0.0
 26
0.0
 36
1.0
 17
0.0
 27
0.0
 37
0.0
 40
9.158369
 41
0.688564
 42
50.0
 43
0.0
 44
0.0
 50
0.0
 51
0.0
 71
     0
 72
   100
 73
     1
 74
     1
 75
     0
 76
     0
 77
     0
 78
     0
281
     0
 65
     0
110
0.0
120
0.0
130
0.0
111
1.0
121
0.0
131
0.0
112
0.0
122
1.0
132
0.0
345
0
346
0
 79
     0
146
0.0
  0
ENDTAB
  0
TABLE
  2
LTYPE
  5
4
100
AcDbSymbolTable
 70
     3
  0
LTYPE
  5
11
100
AcDbSymbolTableRecord
100
AcDbLinetypeTableRecord
  2
ByBlock
 70
    64
  3

 72
    65
 73
     0
 40
0.0
  0
LTYPE
  5
12
100
AcDbSymbolTableRecord
100
AcDbLinetypeTableRecord
  2
ByLayer
 70
    64
  3

 72
    65
 73
     0
 40
0.0
  0
LTYPE
  5
13
100
AcDbSymbolTableRecord
100
AcDbLinetypeTableRecord
  2
Continuous
 70
    64
  3
Solid line
 72
    65
 73
     0
 40
0.0
  0
ENDTAB
  0
TABLE
  2
LAYER
  5
2
100
AcDbSymbolTable
 70
     2
  0
LAYER
  5
14
100
AcDbSymbolTableRecord
100
AcDbLayerTableRecord
  2
0
 70
     0
 62
     7
  6
Continuous
290
     1
370
    -3
390
1D
  0
LAYER
  5
28
100
AcDbSymbolTableRecord
100
AcDbLayerTableRecord
  2
レイヤー_1
 70
     0
 62
   160
  6
Continuous
290
     1
370
    -3
390
1D
  0
ENDTAB
  0
TABLE
  2
STYLE
  5
3
100
AcDbSymbolTable
 70
     5
  0
STYLE
  5
17
100
AcDbSymbolTableRecord
100
AcDbTextStyleTableRecord
  2
Standard
 70
     0
 40
0.0
 41
1.0
 50
0.0
 71
     0
 42
0.0
  3
txt
  4

  0
STYLE
  5
24
100
AcDbSymbolTableRecord
100
AcDbTextStyleTableRecord
  2
STD
 70
     0
 40
0.0
 41
1.0
 50
0.0
 71
     0
 42
0.0
  3
txt
  4

  0
STYLE
  5
25
100
AcDbSymbolTableRecord
100
AcDbTextStyleTableRecord
  2
TATESTD
 70
     4
 40
0.0
 41
1.0
 50
0.0
 71
     0
 42
0.0
  3
txt
  4

  0
STYLE
  5
26
100
AcDbSymbolTableRecord
100
AcDbTextStyleTableRecord
  2
KANJISTD
 70
     0
 40
0.0
 41
1.0
 50
0.0
 71
     0
 42
0.0
  3
txt
  4
extfont
  0
STYLE
  5
27
100
AcDbSymbolTableRecord
100
AcDbTextStyleTableRecord
  2
KANJITATE
 70
     4
 40
0.0
 41
1.0
 50
0.0
 71
     0
 42
0.0
  3
txt
  4
extfont
  0
ENDTAB
  0
TABLE
  2
VIEW
  5
5
100
AcDbSymbolTable
 70
     0
  0
ENDTAB
  0
TABLE
  2
UCS
  5
6
100
AcDbSymbolTable
 70
     0
  0
ENDTAB
  0
TABLE
  2
APPID
  5
8
100
AcDbSymbolTable
 70
     1
  0
APPID
  5
16
100
AcDbSymbolTableRecord
100
AcDbRegAppTableRecord
  2
ACAD
 70
     0
  0
ENDTAB
  0
TABLE
  2
DIMSTYLE
  5
9
100
AcDbSymbolTable
 70
     1
100
AcDbDimStyleTable
 71
     0
  0
DIMSTYLE
105
18
100
AcDbSymbolTableRecord
100
AcDbDimStyleTableRecord
  2
Standard
 70
     0
  3

  4

 40
1.0
 41
0.18
 42
0.0625
 43
0.38
 44
0.18
 45
0.0
 46
0.0
 47
0.0
 48
0.0
 71
     0
 72
     0
 73
     1
 74
     1
 75
     0
 76
     0
 77
     0
 78
     0
 79
     0
140
0.18
141
0.09
142
0.0
143
25.4
144
1.0
145
0.0
146
1.0
147
0.09
148
0.0
170
     0
171
     2
172
     0
173
     0
174
     0
175
     0
176
     0
177
     0
178
     0
179
     0
271
     4
272
     4
273
     2
274
     2
275
     0
276
     0
277
     2
278
    46
279
     0
280
     0
281
     0
282
     0
283
     1
284
     0
285
     0
286
     0
288
     0
340
17
341
0
342
0
343
0
344
0
371
    -2
372
    -2
  0
ENDTAB
  0
TABLE
  2
BLOCK_RECORD
  5
1
100
AcDbSymbolTable
 70
    77
  0
BLOCK_RECORD
  5
A
100
AcDbSymbolTableRecord
100
AcDbBlockTableRecord
  2
*MODEL_SPACE
340
20
  0
BLOCK_RECORD
  5
B
100
AcDbSymbolTableRecord
100
AcDbBlockTableRecord
  2
*PAPER_SPACE
340
21
  0
BLOCK_RECORD
  5
29
100
AcDbSymbolTableRecord
100
AcDbBlockTableRecord
  2
AI9-BLK1
340
0
102
{BLKREFS
331
2A
102
}
  0
BLOCK_RECORD
  5
2C
100
AcDbSymbolTableRecord
100
AcDbBlockTableRecord
  2
AI9-BLK2
340
0
102
{BLKREFS
331
2D
102
}
  0
BLOCK_RECORD
  5
31
100
AcDbSymbolTableRecord
100
AcDbBlockTableRecord
  2
AI9-BLK3
340
0
102
{BLKREFS
331
32
102
}
  0
BLOCK_RECORD
  5
37
100
AcDbSymbolTableRecord
100
AcDbBlockTableRecord
  2
AI9-BLK4
340
0
102
{BLKREFS
331
38
102
}
  0
BLOCK_RECORD
  5
3E
100
AcDbSymbolTableRecord
100
AcDbBlockTableRecord
  2
AI9-BLK5
340
0
102
{BLKREFS
331
3F
102
}
  0
BLOCK_RECORD
  5
44
100
AcDbSymbolTableRecord
100
AcDbBlockTableRecord
  2
AI9-BLK6
340
0
102
{BLKREFS
331
45
102
}
  0
BLOCK_RECORD
  5
50
100
AcDbSymbolTableRecord
100
AcDbBlockTableRecord
  2
AI9-BLK7
340
0
102
{BLKREFS
331
51
102
}
  0
BLOCK_RECORD
  5
5E
100
AcDbSymbolTableRecord
100
AcDbBlockTableRecord
  2
AI9-BLK8
340
0
102
{BLKREFS
331
5F
102
}
  0
BLOCK_RECORD
  5
81
100
AcDbSymbolTableRecord
100
AcDbBlockTableRecord
  2
AI9-BLK9
340
0
102
{BLKREFS
331
82
102
}
  0
BLOCK_RECORD
  5
92
100
AcDbSymbolTableRecord
100
AcDbBlockTableRecord
  2
AI9-BLK10
340
0
102
{BLKREFS
331
93
102
}
  0
BLOCK_RECORD
  5
A8
100
AcDbSymbolTableRecord
100
AcDbBlockTableRecord
  2
AI9-BLK11
340
0
102
{BLKREFS
331
A9
102
}
  0
BLOCK_RECORD
  5
B4
100
AcDbSymbolTableRecord
100
AcDbBlockTableRecord
  2
AI9-BLK12
340
0
102
{BLKREFS
331
B5
102
}
  0
BLOCK_RECORD
  5
CD
100
AcDbSymbolTableRecord
100
AcDbBlockTableRecord
  2
AI9-BLK13
340
0
102
{BLKREFS
331
CE
102
}
  0
BLOCK_RECORD
  5
EB
100
AcDbSymbolTableRecord
100
AcDbBlockTableRecord
  2
AI9-BLK14
340
0
102
{BLKREFS
331
EC
102
}
  0
BLOCK_RECORD
  5
FF
100
AcDbSymbolTableRecord
100
AcDbBlockTableRecord
  2
AI9-BLK15
340
0
102
{BLKREFS
331
100
102
}
  0
BLOCK_RECORD
  5
113
100
AcDbSymbolTableRecord
100
AcDbBlockTableRecord
  2
AI9-BLK16
340
0
102
{BLKREFS
331
114
102
}
  0
BLOCK_RECORD
  5
127
100
AcDbSymbolTableRecord
100
AcDbBlockTableRecord
  2
AI9-BLK17
340
0
102
{BLKREFS
331
128
102
}
  0
BLOCK_RECORD
  5
13B
100
AcDbSymbolTableRecord
100
AcDbBlockTableRecord
  2
AI9-BLK18
340
0
102
{BLKREFS
331
13C
102
}
  0
BLOCK_RECORD
  5
14F
100
AcDbSymbolTableRecord
100
AcDbBlockTableRecord
  2
AI9-BLK19
340
0
102
{BLKREFS
331
150
102
}
  0
BLOCK_RECORD
  5
17B
100
AcDbSymbolTableRecord
100
AcDbBlockTableRecord
  2
AI9-BLK20
340
0
102
{BLKREFS
331
17C
102
}
  0
BLOCK_RECORD
  5
181
100
AcDbSymbolTableRecord
100
AcDbBlockTableRecord
  2
AI9-BLK21
340
0
102
{BLKREFS
331
182
102
}
  0
BLOCK_RECORD
  5
195
100
AcDbSymbolTableRecord
100
AcDbBlockTableRecord
  2
AI9-BLK22
340
0
102
{BLKREFS
331
196
102
}
  0
BLOCK_RECORD
  5
1A9
100
AcDbSymbolTableRecord
100
AcDbBlockTableRecord
  2
AI9-BLK23
340
0
102
{BLKREFS
331
1AA
102
}
  0
BLOCK_RECORD
  5
1BD
100
AcDbSymbolTableRecord
100
AcDbBlockTableRecord
  2
AI9-BLK24
340
0
102
{BLKREFS
331
1BE
102
}
  0
BLOCK_RECORD
  5
1D1
100
AcDbSymbolTableRecord
100
AcDbBlockTableRecord
  2
AI9-BLK25
340
0
102
{BLKREFS
331
1D2
102
}
  0
BLOCK_RECORD
  5
1E5
100
AcDbSymbolTableRecord
100
AcDbBlockTableRecord
  2
AI9-BLK26
340
0
102
{BLKREFS
331
1E6
102
}
  0
BLOCK_RECORD
  5
1F9
100
AcDbSymbolTableRecord
100
AcDbBlockTableRecord
  2
AI9-BLK27
340
0
102
{BLKREFS
331
1FA
102
}
  0
BLOCK_RECORD
  5
20D
100
AcDbSymbolTableRecord
100
AcDbBlockTableRecord
  2
AI9-BLK28
340
0
102
{BLKREFS
331
20E
102
}
  0
BLOCK_RECORD
  5
236
100
AcDbSymbolTableRecord
100
AcDbBlockTableRecord
  2
AI9-BLK29
340
0
102
{BLKREFS
331
237
102
}
  0
BLOCK_RECORD
  5
23D
100
AcDbSymbolTableRecord
100
AcDbBlockTableRecord
  2
AI9-BLK30
340
0
102
{BLKREFS
331
23E
102
}
  0
BLOCK_RECORD
  5
256
100
AcDbSymbolTableRecord
100
AcDbBlockTableRecord
  2
AI9-BLK31
340
0
102
{BLKREFS
331
257
102
}
  0
BLOCK_RECORD
  5
26A
100
AcDbSymbolTableRecord
100
AcDbBlockTableRecord
  2
AI9-BLK32
340
0
102
{BLKREFS
331
26B
102
}
  0
BLOCK_RECORD
  5
291
100
AcDbSymbolTableRecord
100
AcDbBlockTableRecord
  2
AI9-BLK33
340
0
102
{BLKREFS
331
292
102
}
  0
BLOCK_RECORD
  5
41B
100
AcDbSymbolTableRecord
100
AcDbBlockTableRecord
  2
AI9-BLK34
340
0
102
{BLKREFS
331
41C
102
}
  0
BLOCK_RECORD
  5
420
100
AcDbSymbolTableRecord
100
AcDbBlockTableRecord
  2
AI9-BLK35
340
0
102
{BLKREFS
331
421
102
}
  0
BLOCK_RECORD
  5
426
100
AcDbSymbolTableRecord
100
AcDbBlockTableRecord
  2
AI9-BLK36
340
0
102
{BLKREFS
331
427
102
}
  0
BLOCK_RECORD
  5
42B
100
AcDbSymbolTableRecord
100
AcDbBlockTableRecord
  2
AI9-BLK37
340
0
102
{BLKREFS
331
42C
102
}
  0
BLOCK_RECORD
  5
430
100
AcDbSymbolTableRecord
100
AcDbBlockTableRecord
  2
AI9-BLK38
340
0
102
{BLKREFS
331
431
102
}
  0
BLOCK_RECORD
  5
435
100
AcDbSymbolTableRecord
100
AcDbBlockTableRecord
  2
AI9-BLK39
340
0
102
{BLKREFS
331
436
102
}
  0
BLOCK_RECORD
  5
43C
100
AcDbSymbolTableRecord
100
AcDbBlockTableRecord
  2
AI9-BLK40
340
0
102
{BLKREFS
331
43D
102
}
  0
BLOCK_RECORD
  5
44E
100
AcDbSymbolTableRecord
100
AcDbBlockTableRecord
  2
AI9-BLK41
340
0
102
{BLKREFS
331
44F
102
}
  0
BLOCK_RECORD
  5
453
100
AcDbSymbolTableRecord
100
AcDbBlockTableRecord
  2
AI9-BLK42
340
0
102
{BLKREFS
331
454
102
}
  0
BLOCK_RECORD
  5
458
100
AcDbSymbolTableRecord
100
AcDbBlockTableRecord
  2
AI9-BLK43
340
0
102
{BLKREFS
331
459
102
}
  0
BLOCK_RECORD
  5
45D
100
AcDbSymbolTableRecord
100
AcDbBlockTableRecord
  2
AI9-BLK44
340
0
102
{BLKREFS
331
45E
102
}
  0
BLOCK_RECORD
  5
462
100
AcDbSymbolTableRecord
100
AcDbBlockTableRecord
  2
AI9-BLK45
340
0
102
{BLKREFS
331
463
102
}
  0
BLOCK_RECORD
  5
467
100
AcDbSymbolTableRecord
100
AcDbBlockTableRecord
  2
AI9-BLK46
340
0
102
{BLKREFS
331
468
102
}
  0
BLOCK_RECORD
  5
46F
100
AcDbSymbolTableRecord
100
AcDbBlockTableRecord
  2
AI9-BLK47
340
0
102
{BLKREFS
331
470
102
}
  0
BLOCK_RECORD
  5
476
100
AcDbSymbolTableRecord
100
AcDbBlockTableRecord
  2
AI9-BLK48
340
0
102
{BLKREFS
331
477
102
}
  0
BLOCK_RECORD
  5
47B
100
AcDbSymbolTableRecord
100
AcDbBlockTableRecord
  2
AI9-BLK49
340
0
102
{BLKREFS
331
47C
102
}
  0
BLOCK_RECORD
  5
480
100
AcDbSymbolTableRecord
100
AcDbBlockTableRecord
  2
AI9-BLK50
340
0
102
{BLKREFS
331
481
102
}
  0
BLOCK_RECORD
  5
485
100
AcDbSymbolTableRecord
100
AcDbBlockTableRecord
  2
AI9-BLK51
340
0
102
{BLKREFS
331
486
102
}
  0
BLOCK_RECORD
  5
48A
100
AcDbSymbolTableRecord
100
AcDbBlockTableRecord
  2
AI9-BLK52
340
0
102
{BLKREFS
331
48B
102
}
  0
BLOCK_RECORD
  5
491
100
AcDbSymbolTableRecord
100
AcDbBlockTableRecord
  2
AI9-BLK53
340
0
102
{BLKREFS
331
492
102
}
  0
BLOCK_RECORD
  5
498
100
AcDbSymbolTableRecord
100
AcDbBlockTableRecord
  2
AI9-BLK54
340
0
102
{BLKREFS
331
499
102
}
  0
BLOCK_RECORD
  5
49F
100
AcDbSymbolTableRecord
100
AcDbBlockTableRecord
  2
AI9-BLK55
340
0
102
{BLKREFS
331
4A0
102
}
  0
BLOCK_RECORD
  5
4A6
100
AcDbSymbolTableRecord
100
AcDbBlockTableRecord
  2
AI9-BLK56
340
0
102
{BLKREFS
331
4A7
102
}
  0
BLOCK_RECORD
  5
4AF
100
AcDbSymbolTableRecord
100
AcDbBlockTableRecord
  2
AI9-BLK57
340
0
102
{BLKREFS
331
4B0
102
}
  0
BLOCK_RECORD
  5
4BA
100
AcDbSymbolTableRecord
100
AcDbBlockTableRecord
  2
AI9-BLK58
340
0
102
{BLKREFS
331
4BB
102
}
  0
BLOCK_RECORD
  5
4BF
100
AcDbSymbolTableRecord
100
AcDbBlockTableRecord
  2
AI9-BLK59
340
0
102
{BLKREFS
331
4C0
102
}
  0
BLOCK_RECORD
  5
4C2
100
AcDbSymbolTableRecord
100
AcDbBlockTableRecord
  2
AI9-BLK60
340
0
102
{BLKREFS
331
4C3
102
}
  0
BLOCK_RECORD
  5
4C5
100
AcDbSymbolTableRecord
100
AcDbBlockTableRecord
  2
AI9-BLK61
340
0
102
{BLKREFS
331
4C6
102
}
  0
BLOCK_RECORD
  5
4D5
100
AcDbSymbolTableRecord
100
AcDbBlockTableRecord
  2
AI9-BLK62
340
0
102
{BLKREFS
331
4D6
102
}
  0
BLOCK_RECORD
  5
4E0
100
AcDbSymbolTableRecord
100
AcDbBlockTableRecord
  2
AI9-BLK63
340
0
102
{BLKREFS
331
4E1
102
}
  0
BLOCK_RECORD
  5
4E5
100
AcDbSymbolTableRecord
100
AcDbBlockTableRecord
  2
AI9-BLK64
340
0
102
{BLKREFS
331
4E6
102
}
  0
BLOCK_RECORD
  5
4EA
100
AcDbSymbolTableRecord
100
AcDbBlockTableRecord
  2
AI9-BLK65
340
0
102
{BLKREFS
331
4EB
102
}
  0
BLOCK_RECORD
  5
4EF
100
AcDbSymbolTableRecord
100
AcDbBlockTableRecord
  2
AI9-BLK66
340
0
102
{BLKREFS
331
4F0
102
}
  0
BLOCK_RECORD
  5
4F4
100
AcDbSymbolTableRecord
100
AcDbBlockTableRecord
  2
AI9-BLK67
340
0
102
{BLKREFS
331
4F5
102
}
  0
BLOCK_RECORD
  5
4F9
100
AcDbSymbolTableRecord
100
AcDbBlockTableRecord
  2
AI9-BLK68
340
0
102
{BLKREFS
331
4FA
102
}
  0
BLOCK_RECORD
  5
4FE
100
AcDbSymbolTableRecord
100
AcDbBlockTableRecord
  2
AI9-BLK69
340
0
102
{BLKREFS
331
4FF
102
}
  0
BLOCK_RECORD
  5
503
100
AcDbSymbolTableRecord
100
AcDbBlockTableRecord
  2
AI9-BLK70
340
0
102
{BLKREFS
331
504
102
}
  0
BLOCK_RECORD
  5
50B
100
AcDbSymbolTableRecord
100
AcDbBlockTableRecord
  2
AI9-BLK71
340
0
102
{BLKREFS
331
50C
102
}
  0
BLOCK_RECORD
  5
518
100
AcDbSymbolTableRecord
100
AcDbBlockTableRecord
  2
AI9-BLK72
340
0
102
{BLKREFS
331
519
102
}
  0
BLOCK_RECORD
  5
51D
100
AcDbSymbolTableRecord
100
AcDbBlockTableRecord
  2
AI9-BLK73
340
0
102
{BLKREFS
331
51E
102
}
  0
BLOCK_RECORD
  5
527
100
AcDbSymbolTableRecord
100
AcDbBlockTableRecord
  2
AI9-BLK74
340
0
102
{BLKREFS
331
528
102
}
  0
BLOCK_RECORD
  5
52C
100
AcDbSymbolTableRecord
100
AcDbBlockTableRecord
  2
AI9-BLK75
340
0
102
{BLKREFS
331
52D
102
}
  0
BLOCK_RECORD
  5
531
100
AcDbSymbolTableRecord
100
AcDbBlockTableRecord
  2
AI9-BLK76
340
0
102
{BLKREFS
331
532
102
}
  0
BLOCK_RECORD
  5
536
100
AcDbSymbolTableRecord
100
AcDbBlockTableRecord
  2
AI9-BLK77
340
0
102
{BLKREFS
331
537
102
}
  0
ENDTAB
  0
ENDSEC
  0
SECTION
  2
BLOCKS
  0
BLOCK
  5
D
100
AcDbEntity
  8
0
100
AcDbBlockBegin
  2
*MODEL_SPACE
 70
     0
 10
0.0
 20
0.0
 30
0.0
  3
*MODEL_SPACE
  1

  0
ENDBLK
  5
E
100
AcDbEntity
  8
0
100
AcDbBlockEnd
  0
BLOCK
  5
F
100
AcDbEntity
 67
     1
  8
0
100
AcDbBlockBegin
  2
*PAPER_SPACE
 70
     0
 10
0.0
 20
0.0
 30
0.0
  3
*PAPER_SPACE
  1

  0
ENDBLK
  5
10
100
AcDbEntity
 67
     1
  8
0
100
AcDbBlockEnd
  0
BLOCK
  5
2B
100
AcDbEntity
  8
レイヤー_1
 62
     7
100
AcDbBlockBegin
  2
AI9-BLK1
 70
     0
 10
0.0
 20
0.0
 30
0.0
  3
AI9-BLK1
  1

  0
INSERT
  5
32
100
AcDbEntity
  8
レイヤー_1
 62
     7
100
AcDbBlockReference
  2
AI9-BLK3
 10
0.0
 20
-0.5302
 30
0.0
  0
INSERT
  5
2D
100
AcDbEntity
  8
レイヤー_1
 62
     7
100
AcDbBlockReference
  2
AI9-BLK2
 10
0.0
 20
0.5302
 30
0.0
  0
ENDBLK
  5
36
100
AcDbEntity
  8
レイヤー_1
100
AcDbBlockEnd
  0
BLOCK
  5
2E
100
AcDbEntity
  8
レイヤー_1
 62
     7
100
AcDbBlockBegin
  2
AI9-BLK2
 70
     0
 10
0.0
 20
0.0
 30
0.0
  3
AI9-BLK2
  1

  0
MTEXT
  5
2F
100
AcDbEntity
  8
レイヤー_1
 62
     7
100
AcDbMText
 10
-0.79375
 20
1.215134
 30
0.0
 40
2.362351
 41
0.0
 71
     1
 72
     2
  1
\fMS Gothic|b0|i0|c128;\H2.3624;\C7;\U+002B
  7
STD
210
0.0
220
0.0
230
1.0
 73
     1
 44
1.0
  0
ENDBLK
  5
30
100
AcDbEntity
  8
レイヤー_1
100
AcDbBlockEnd
  0
BLOCK
  5
33
100
AcDbEntity
  8
レイヤー_1
 62
     7
100
AcDbBlockBegin
  2
AI9-BLK3
 70
     0
 10
0.0
 20
0.0
 30
0.0
  3
AI9-BLK3
  1

  0
MTEXT
  5
34
100
AcDbEntity
  8
レイヤー_1
 62
     7
100
AcDbMText
 10
-0.79375
 20
1.215134
 30
0.0
 40
2.362351
 41
0.0
 71
     1
 72
     2
  1
\fMS Gothic|b0|i0|c128;\H2.3624;\C7;\U+002D
  7
STD
210
0.0
220
0.0
230
1.0
 73
     1
 44
1.0
  0
ENDBLK
  5
35
100
AcDbEntity
  8
レイヤー_1
100
AcDbBlockEnd
  0
BLOCK
  5
39
100
AcDbEntity
  8
レイヤー_1
 62
     7
100
AcDbBlockBegin
  2
AI9-BLK4
 70
     0
 10
0.0
 20
0.0
 30
0.0
  3
AI9-BLK4
  1

  0
MTEXT
  5
3C
100
AcDbEntity
  8
レイヤー_1
 62
     7
100
AcDbMText
 10
-12.7
 20
1.215134
 30
0.0
 40
2.362351
 41
0.0
 71
     1
 72
     2
  1
\fMS Gothic|b0|i0|c128;\H2.3624;\C7;\U+5BF8\U+6CD5\U+6570\U+5024\U+FF1A
  7
STD
210
0.0
220
0.0
230
1.0
 73
     1
 44
1.0
  0
MTEXT
  5
3B
100
AcDbEntity
  8
レイヤー_1
 62
     7
100
AcDbMText
 10
3.175
 20
1.215134
 30
0.0
 40
2.362351
 41
0.0
 71
     1
 72
     2
  1
\fMS Gothic|b0|i0|c128;\H2.3624;\C7;\U+006D\U+006D
  7
STD
210
0.0
220
0.0
230
1.0
 73
     1
 44
1.0
  0
MTEXT
  5
3A
100
AcDbEntity
  8
レイヤー_1
 62
     7
100
AcDbMText
 10
6.35
 20
1.215134
 30
0.0
 40
2.362351
 41
0.0
 71
     1
 72
     2
  1
\fMS Gothic|b0|i0|c128;\H2.3624;\C7;\U+8868\U+8A18
  7
STD
210
0.0
220
0.0
230
1.0
 73
     1
 44
1.0
  0
ENDBLK
  5
3D
100
AcDbEntity
  8
レイヤー_1
100
AcDbBlockEnd
  0
BLOCK
  5
40
100
AcDbEntity
  8
レイヤー_1
 62
     7
100
AcDbBlockBegin
  2
AI9-BLK5
 70
     0
 10
0.0
 20
0.0
 30
0.0
  3
AI9-BLK5
  1

  0
MTEXT
  5
42
100
AcDbEntity
  8
レイヤー_1
 62
     7
100
AcDbMText
 10
-12.7
 20
1.215134
 30
0.0
 40
2.362351
 41
0.0
 71
     1
 72
     2
  1
\fMS Gothic|b0|i0|c128;\H2.3624;\C7;\U+5BF8\U+6CD5\U+516C\U+5DEE\U+FF1A
  7
STD
210
0.0
220
0.0
230
1.0
 73
     1
 44
1.0
  0
MTEXT
  5
41
100
AcDbEntity
  8
レイヤー_1
 62
     7
100
AcDbMText
 10
3.175
 20
1.215134
 30
0.0
 40
2.362351
 41
0.0
 71
     1
 72
     2
  1
\fMS Gothic|b0|i0|c128;\H2.3624;\C7;\U+0020\U+0030\U+002E\U+0035\U+006D\U+006D
  7
STD
210
0.0
220
0.0
230
1.0
 73
     1
 44
1.0
  0
ENDBLK
  5
43
100
AcDbEntity
  8
レイヤー_1
100
AcDbBlockEnd
  0
BLOCK
  5
46
100
AcDbEntity
  8
レイヤー_1
 62
     7
100
AcDbBlockBegin
  2
AI9-BLK6
 70
     0
 10
0.0
 20
0.0
 30
0.0
  3
AI9-BLK6
  1

  0
HATCH
  5
74
100
AcDbEntity
  8
レイヤー_1
 62
     7
100
AcDbHatch
 10
0.0
 20
0.0
 30
0.0
210
0.0
220
0.0
230
1.0
  2
SOLID
 70
     1
 71
     0
 91
        1
 92
        1
 93
        1
 72
     4
 94
        3
 73
     0
 74
     0
 95
       68
 96
       64
 40
0.0
 40
0.0
 40
0.0
 40
0.0
 40
1.0
 40
1.0
 40
1.0
 40
2.0
 40
2.0
 40
2.0
 40
3.0
 40
3.0
 40
3.0
 40
4.0
 40
4.0
 40
4.0
 40
5.0
 40
5.0
 40
5.0
 40
6.0
 40
6.0
 40
6.0
 40
7.0
 40
7.0
 40
7.0
 40
8.0
 40
8.0
 40
8.0
 40
9.0
 40
9.0
 40
9.0
 40
10.0
 40
10.0
 40
10.0
 40
11.0
 40
11.0
 40
11.0
 40
12.0
 40
12.0
 40
12.0
 40
13.0
 40
13.0
 40
13.0
 40
14.0
 40
14.0
 40
14.0
 40
15.0
 40
15.0
 40
15.0
 40
16.0
 40
16.0
 40
16.0
 40
17.0
 40
17.0
 40
17.0
 40
18.0
 40
18.0
 40
18.0
 40
19.0
 40
19.0
 40
19.0
 40
20.0
 40
20.0
 40
20.0
 40
21.0
 40
21.0
 40
21.0
 40
21.0
 10
-30.668240017361107
 20
-1.7499362521701387
 10
-30.668240017361107
 20
-1.8119479709201387
 10
-30.717160373263887
 20
-1.8598347981770831
 10
-30.776416015624996
 20
-1.8598347981770831
 10
-30.776416015624996
 20
-1.8598347981770831
 10
-33.776405164930551
 20
-1.8598347981770831
 10
-33.776405164930551
 20
-1.8598347981770831
 10
-34.701757812499999
 20
-1.8598347981770831
 10
-35.45278862847222
 20
-1.1094930013020832
 10
-35.45278862847222
 20
-0.1834513346354167
 10
-35.45278862847222
 20
0.7419013129340277
 10
-34.701757812499999
 20
1.4925876193576388
 10
-33.776405164930551
 20
1.4925876193576388
 10
-33.776405164930551
 20
1.4925876193576388
 10
-32.607139756944441
 20
1.4925876193576388
 10
-32.607139756944441
 20
1.4925876193576388
 10
-32.545817057291664
 20
1.4925876193576388
 10
-32.497585720486107
 20
1.4436672634548611
 10
-32.497585720486107
 20
1.3823445638020833
 10
-32.497585720486107
 20
1.3823445638020833
 10
-32.497585720486107
 20
0.3181545681423611
 10
-32.497585720486107
 20
0.3181545681423611
 10
-32.497585720486107
 20
0.2582099066840278
 10
-32.545817057291664
 20
0.20928955078125
 10
-32.607139756944441
 20
0.20928955078125
 10
-32.607139756944441
 20
0.20928955078125
 10
-33.691655815972219
 20
0.2082560221354166
 10
-33.691655815972219
 20
0.2082560221354166
 10
-33.905940755208327
 20
0.2082560221354166
 10
-34.080951605902776
 20
0.0335896809895833
 10
-34.080951605902776
 20
-0.1810397677951389
 10
-34.080951605902776
 20
-0.3967027452256944
 10
-33.905940755208327
 20
-0.572402615017361
 10
-33.691655815972219
 20
-0.572402615017361
 10
-33.691655815972219
 20
-0.572402615017361
 10
-32.173057725694441
 20
-0.5703355577256944
 10
-32.173057725694441
 20
-0.5703355577256944
 10
-32.173057725694441
 20
-0.5703355577256944
 10
-32.173057725694441
 20
1.6775892469618054
 10
-32.173057725694441
 20
1.6775892469618054
 10
-32.173057725694441
 20
2.0065958658854166
 10
-32.439019097222221
 20
2.2729017469618054
 10
-32.769748263888886
 20
2.2729017469618054
 10
-32.769748263888886
 20
2.2729017469618054
 10
-34.902951388888887
 20
2.2729017469618054
 10
-34.902951388888887
 20
2.2729017469618054
 10
-34.964963107638887
 20
2.2729017469618054
 10
-35.013194444444444
 20
2.3214775933159721
 10
-35.013194444444444
 20
2.3824557834201388
 10
-35.013194444444444
 20
2.3824557834201388
 10
-35.013194444444444
 20
3.4511244032118054
 10
-35.013194444444444
 20
3.4511244032118054
 10
-35.013194444444444
 20
3.5110690646701386
 10
-34.964963107638887
 20
3.5610229492187497
 10
-34.902951388888887
 20
3.5610229492187497
 10
-34.902951388888887
 20
3.5610229492187497
 10
-32.348757595486106
 20
3.5610229492187497
 10
-32.348757595486106
 20
3.5610229492187497
 10
-31.417203776041664
 20
3.5610229492187497
 10
-30.668240017361107
 20
2.8075805664062496
 10
-30.668240017361107
 20
1.8763712565104165
 10
-30.668240017361107
 20
1.8763712565104165
 10
-30.668240017361107
 20
-1.7499362521701387
 10
-30.668240017361107
 20
-1.7499362521701387
 97
        0
 75
     2
 76
     1
 98
        1
 10
0.0
 20
0.0
  0
HATCH
  5
73
100
AcDbEntity
  8
レイヤー_1
 62
     7
100
AcDbHatch
 10
0.0
 20
0.0
 30
0.0
210
0.0
220
0.0
230
1.0
  2
SOLID
 70
     1
 71
     0
 91
        1
 92
        1
 93
        1
 72
     4
 94
        3
 73
     0
 74
     0
 95
       68
 96
       64
 40
0.0
 40
0.0
 40
0.0
 40
0.0
 40
1.0
 40
1.0
 40
1.0
 40
2.0
 40
2.0
 40
2.0
 40
3.0
 40
3.0
 40
3.0
 40
4.0
 40
4.0
 40
4.0
 40
5.0
 40
5.0
 40
5.0
 40
6.0
 40
6.0
 40
6.0
 40
7.0
 40
7.0
 40
7.0
 40
8.0
 40
8.0
 40
8.0
 40
9.0
 40
9.0
 40
9.0
 40
10.0
 40
10.0
 40
10.0
 40
11.0
 40
11.0
 40
11.0
 40
12.0
 40
12.0
 40
12.0
 40
13.0
 40
13.0
 40
13.0
 40
14.0
 40
14.0
 40
14.0
 40
15.0
 40
15.0
 40
15.0
 40
16.0
 40
16.0
 40
16.0
 40
17.0
 40
17.0
 40
17.0
 40
18.0
 40
18.0
 40
18.0
 40
19.0
 40
19.0
 40
19.0
 40
20.0
 40
20.0
 40
20.0
 40
21.0
 40
21.0
 40
21.0
 40
21.0
 10
-20.574110243055554
 20
-1.7499362521701387
 10
-20.574110243055554
 20
-1.8119479709201387
 10
-20.62303059895833
 20
-1.8598347981770831
 10
-20.684353298611111
 20
-1.8598347981770831
 10
-20.684353298611111
 20
-1.8598347981770831
 10
-23.684342447916663
 20
-1.8598347981770831
 10
-23.684342447916663
 20
-1.8598347981770831
 10
-24.609006076388887
 20
-1.8598347981770831
 10
-25.360036892361109
 20
-1.1094930013020832
 10
-25.360036892361109
 20
-0.1834513346354167
 10
-25.360036892361109
 20
0.7419013129340277
 10
-24.609006076388887
 20
1.4925876193576388
 10
-23.684342447916663
 20
1.4925876193576388
 10
-23.684342447916663
 20
1.4925876193576388
 10
-22.515077039930553
 20
1.4925876193576388
 10
-22.515077039930553
 20
1.4925876193576388
 10
-22.454443359374999
 20
1.4925876193576388
 10
-22.404833984374999
 20
1.4436672634548611
 10
-22.404833984374999
 20
1.3823445638020833
 10
-22.404833984374999
 20
1.3823445638020833
 10
-22.404833984374999
 20
0.3181545681423611
 10
-22.404833984374999
 20
0.3181545681423611
 10
-22.404833984374999
 20
0.2582099066840278
 10
-22.454443359374999
 20
0.20928955078125
 10
-22.515077039930553
 20
0.20928955078125
 10
-22.515077039930553
 20
0.20928955078125
 10
-23.598904079861111
 20
0.2082560221354166
 10
-23.598904079861111
 20
0.2082560221354166
 10
-23.813878038194442
 20
0.2082560221354166
 10
-23.988199869791664
 20
0.0335896809895833
 10
-23.988199869791664
 20
-0.1810397677951389
 10
-23.988199869791664
 20
-0.3967027452256944
 10
-23.813878038194442
 20
-0.572402615017361
 10
-23.598904079861111
 20
-0.572402615017361
 10
-23.598904079861111
 20
-0.572402615017361
 10
-22.08030598958333
 20
-0.5703355577256944
 10
-22.08030598958333
 20
-0.5703355577256944
 10
-22.08030598958333
 20
-0.5703355577256944
 10
-22.08030598958333
 20
1.6775892469618054
 10
-22.08030598958333
 20
1.6775892469618054
 10
-22.08030598958333
 20
2.0065958658854166
 10
-22.346956380208333
 20
2.2729017469618054
 10
-22.676307508680555
 20
2.2729017469618054
 10
-22.676307508680555
 20
2.2729017469618054
 10
-24.812266710069441
 20
2.2729017469618054
 10
-24.812266710069441
 20
2.2729017469618054
 10
-24.872211371527776
 20
2.2729017469618054
 10
-24.921131727430552
 20
2.3214775933159721
 10
-24.921131727430552
 20
2.3824557834201388
 10
-24.921131727430552
 20
2.3824557834201388
 10
-24.921131727430552
 20
3.4511244032118054
 10
-24.921131727430552
 20
3.4511244032118054
 10
-24.921131727430552
 20
3.5110690646701386
 10
-24.872211371527776
 20
3.5610229492187497
 10
-24.812266710069441
 20
3.5610229492187497
 10
-24.812266710069441
 20
3.5610229492187497
 10
-22.256694878472221
 20
3.5610229492187497
 10
-22.256694878472221
 20
3.5610229492187497
 10
-21.325830078124998
 20
3.5610229492187497
 10
-20.574110243055554
 20
2.8075805664062496
 10
-20.574110243055554
 20
1.8763712565104165
 10
-20.574110243055554
 20
1.8763712565104165
 10
-20.574110243055554
 20
-1.7499362521701387
 10
-20.574110243055554
 20
-1.7499362521701387
 97
        0
 75
     2
 76
     1
 98
        1
 10
0.0
 20
0.0
  0
HATCH
  5
72
100
AcDbEntity
  8
レイヤー_1
 62
     7
100
AcDbHatch
 10
0.0
 20
0.0
 30
0.0
210
0.0
220
0.0
230
1.0
  2
SOLID
 70
     1
 71
     0
 91
        1
 92
        1
 93
        1
 72
     4
 94
        3
 73
     0
 74
     0
 95
       65
 96
       61
 40
0.0
 40
0.0
 40
0.0
 40
0.0
 40
1.0
 40
1.0
 40
1.0
 40
2.0
 40
2.0
 40
2.0
 40
3.0
 40
3.0
 40
3.0
 40
4.0
 40
4.0
 40
4.0
 40
5.0
 40
5.0
 40
5.0
 40
6.0
 40
6.0
 40
6.0
 40
7.0
 40
7.0
 40
7.0
 40
8.0
 40
8.0
 40
8.0
 40
9.0
 40
9.0
 40
9.0
 40
10.0
 40
10.0
 40
10.0
 40
11.0
 40
11.0
 40
11.0
 40
12.0
 40
12.0
 40
12.0
 40
13.0
 40
13.0
 40
13.0
 40
14.0
 40
14.0
 40
14.0
 40
15.0
 40
15.0
 40
15.0
 40
16.0
 40
16.0
 40
16.0
 40
17.0
 40
17.0
 40
17.0
 40
18.0
 40
18.0
 40
18.0
 40
19.0
 40
19.0
 40
19.0
 40
20.0
 40
20.0
 40
20.0
 40
20.0
 10
-19.937456597222219
 20
-1.865346950954861
 10
-19.997401258680554
 20
-1.865346950954861
 10
-20.045632595486108
 20
-1.8181491427951386
 10
-20.045632595486108
 20
-1.7585489908854166
 10
-20.045632595486108
 20
-1.7585489908854166
 10
-20.045632595486108
 20
-0.6881578233506944
 10
-20.045632595486108
 20
-0.6881578233506944
 10
-20.045632595486108
 20
-0.6282131618923611
 10
-19.997401258680554
 20
-0.5768812391493056
 10
-19.937456597222219
 20
-0.5768812391493056
 10
-19.937456597222219
 20
-0.5768812391493056
 10
-17.388085937499998
 20
-0.5768812391493056
 10
-17.388085937499998
 20
-0.5768812391493056
 10
-17.173111979166666
 20
-0.5768812391493056
 10
-16.998790147569444
 20
-0.3994588216145833
 10
-16.998790147569444
 20
-0.1824178059895833
 10
-16.998790147569444
 20
0.0311781141493056
 10
-17.173111979166666
 20
0.2082560221354166
 10
-17.388085937499998
 20
0.2082560221354166
 10
-17.388085937499998
 20
0.2082560221354166
 10
-18.518766276041664
 20
0.2392618815104166
 10
-18.518766276041664
 20
0.2392618815104166
 10
-19.439295789930554
 20
0.2392618815104166
 10
-20.186192491319442
 20
0.9809909396701388
 10
-20.186192491319442
 20
1.8960083007812498
 10
-20.186192491319442
 20
2.8106811523437498
 10
-19.439295789930554
 20
3.5537882486979164
 10
-18.518766276041664
 20
3.5537882486979164
 10
-18.518766276041664
 20
3.5537882486979164
 10
-15.951481119791666
 20
3.5537882486979164
 10
-15.951481119791666
 20
3.5537882486979164
 10
-15.89084743923611
 20
3.5537882486979164
 10
-15.842616102430554
 20
3.5059014214409721
 10
-15.842616102430554
 20
3.4466457790798608
 10
-15.842616102430554
 20
3.4466457790798608
 10
-15.842616102430554
 20
2.3883124457465277
 10
-15.842616102430554
 20
2.3883124457465277
 10
-15.842616102430554
 20
2.3269897460937496
 10
-15.89084743923611
 20
2.2756578233506941
 10
-15.951481119791666
 20
2.2756578233506941
 10
-15.951481119791666
 20
2.2756578233506941
 10
-18.360291883680553
 20
2.2756578233506941
 10
-18.360291883680553
 20
2.2756578233506941
 10
-18.574576822916665
 20
2.2756578233506941
 10
-18.750276692708333
 20
2.0978908962673608
 10
-18.750276692708333
 20
1.8836059570312498
 10
-18.750276692708333
 20
1.6675984700520832
 10
-18.574576822916665
 20
1.493621148003472
 10
-18.360291883680553
 20
1.493621148003472
 10
-18.360291883680553
 20
1.493621148003472
 10
-17.215831163194444
 20
1.4588256835937499
 10
-17.215831163194444
 20
1.4588256835937499
 10
-16.294612630208331
 20
1.4588256835937499
 10
-15.546337890624999
 20
0.7160630967881944
 10
-15.546337890624999
 20
-0.1992987738715278
 10
-15.546337890624999
 20
-1.1163831922743055
 10
-16.294612630208331
 20
-1.865346950954861
 10
-17.215831163194444
 20
-1.865346950954861
 10
-17.215831163194444
 20
-1.865346950954861
 10
-19.937456597222219
 20
-1.865346950954861
 10
-19.937456597222219
 20
-1.865346950954861
 97
        0
 75
     2
 76
     1
 98
        1
 10
0.0
 20
0.0
  0
HATCH
  5
71
100
AcDbEntity
  8
レイヤー_1
 62
     7
100
AcDbHatch
 10
0.0
 20
0.0
 30
0.0
210
0.0
220
0.0
230
1.0
  2
SOLID
 70
     1
 71
     0
 91
        1
 92
        1
 93
        1
 72
     4
 94
        3
 73
     0
 74
     0
 95
       65
 96
       61
 40
0.0
 40
0.0
 40
0.0
 40
0.0
 40
1.0
 40
1.0
 40
1.0
 40
2.0
 40
2.0
 40
2.0
 40
3.0
 40
3.0
 40
3.0
 40
4.0
 40
4.0
 40
4.0
 40
5.0
 40
5.0
 40
5.0
 40
6.0
 40
6.0
 40
6.0
 40
7.0
 40
7.0
 40
7.0
 40
8.0
 40
8.0
 40
8.0
 40
9.0
 40
9.0
 40
9.0
 40
10.0
 40
10.0
 40
10.0
 40
11.0
 40
11.0
 40
11.0
 40
12.0
 40
12.0
 40
12.0
 40
13.0
 40
13.0
 40
13.0
 40
14.0
 40
14.0
 40
14.0
 40
15.0
 40
15.0
 40
15.0
 40
16.0
 40
16.0
 40
16.0
 40
17.0
 40
17.0
 40
17.0
 40
18.0
 40
18.0
 40
18.0
 40
19.0
 40
19.0
 40
19.0
 40
20.0
 40
20.0
 40
20.0
 40
20.0
 10
-10.798996310763888
 20
3.5593004014756939
 10
-10.798996310763888
 20
3.5593004014756939
 10
-12.003401692708332
 20
3.5593004014756939
 10
-12.003401692708332
 20
3.5593004014756939
 10
-12.064035373263888
 20
3.5593004014756939
 10
-12.190125868055555
 20
3.5100355360243052
 10
-12.190125868055555
 20
3.4504353841145829
 10
-12.190125868055555
 20
3.4504353841145829
 10
-12.190125868055555
 20
1.49913330078125
 10
-12.190125868055555
 20
1.49913330078125
 10
-12.190125868055555
 20
1.49913330078125
 10
-13.699766710069444
 20
1.49913330078125
 10
-13.699766710069444
 20
1.49913330078125
 10
-13.699766710069444
 20
1.49913330078125
 10
-13.699766710069444
 20
3.4504353841145829
 10
-13.699766710069444
 20
3.4504353841145829
 10
-13.699766710069444
 20
3.5100355360243052
 10
-13.749376085069443
 20
3.5593004014756939
 10
-13.808631727430555
 20
3.5593004014756939
 10
-13.808631727430555
 20
3.5593004014756939
 10
-15.091585286458331
 20
3.5593004014756939
 10
-15.091585286458331
 20
3.5593004014756939
 10
-15.151529947916666
 20
3.5593004014756939
 10
-15.200450303819443
 20
3.5100355360243052
 10
-15.200450303819443
 20
3.4504353841145829
 10
-15.200450303819443
 20
3.4504353841145829
 10
-15.200450303819443
 20
-1.7499362521701387
 10
-15.200450303819443
 20
-1.7499362521701387
 10
-15.200450303819443
 20
-1.8119479709201387
 10
-15.151529947916666
 20
-1.8598347981770831
 10
-15.091585286458331
 20
-1.8598347981770831
 10
-15.091585286458331
 20
-1.8598347981770831
 10
-13.808631727430555
 20
-1.8598347981770831
 10
-13.808631727430555
 20
-1.8598347981770831
 10
-13.749376085069443
 20
-1.8598347981770831
 10
-13.699766710069444
 20
-1.8119479709201387
 10
-13.699766710069444
 20
-1.7499362521701387
 10
-13.699766710069444
 20
-1.7499362521701387
 10
-13.699766710069444
 20
0.21239013671875
 10
-13.699766710069444
 20
0.21239013671875
 10
-13.699766710069444
 20
0.21239013671875
 10
-12.190125868055555
 20
0.21239013671875
 10
-12.190125868055555
 20
0.21239013671875
 10
-12.190125868055555
 20
0.21239013671875
 10
-12.190125868055555
 20
-1.7499362521701387
 10
-12.190125868055555
 20
-1.7499362521701387
 10
-12.190125868055555
 20
-1.8119479709201387
 10
-12.141205512152776
 20
-1.8598347981770831
 10
-12.081260850694443
 20
-1.8598347981770831
 10
-12.081260850694443
 20
-1.8598347981770831
 10
-10.798996310763888
 20
-1.8598347981770831
 10
-10.798996310763888
 20
-1.8598347981770831
 10
-10.739051649305555
 20
-1.8598347981770831
 10
-10.690131293402777
 20
-1.8119479709201387
 10
-10.690131293402777
 20
-1.7499362521701387
 10
-10.690131293402777
 20
-1.7499362521701387
 10
-10.690131293402777
 20
3.4504353841145829
 10
-10.690131293402777
 20
3.4504353841145829
 10
-10.690131293402777
 20
3.5100355360243052
 10
-10.739051649305555
 20
3.5593004014756939
 10
-10.798996310763888
 20
3.5593004014756939
 97
        0
 75
     2
 76
     1
 98
        1
 10
0.0
 20
0.0
  0
HATCH
  5
70
100
AcDbEntity
  8
レイヤー_1
 62
     7
100
AcDbHatch
 10
0.0
 20
0.0
 30
0.0
210
0.0
220
0.0
230
1.0
  2
SOLID
 70
     1
 71
     0
 91
        2
 92
        1
 93
        1
 72
     4
 94
        3
 73
     0
 74
     0
 95
       29
 96
       25
 40
0.0
 40
0.0
 40
0.0
 40
0.0
 40
1.0
 40
1.0
 40
1.0
 40
2.0
 40
2.0
 40
2.0
 40
3.0
 40
3.0
 40
3.0
 40
4.0
 40
4.0
 40
4.0
 40
5.0
 40
5.0
 40
5.0
 40
6.0
 40
6.0
 40
6.0
 40
7.0
 40
7.0
 40
7.0
 40
8.0
 40
8.0
 40
8.0
 40
8.0
 10
-6.6717719184027775
 20
-0.0132636176215278
 10
-6.6717719184027775
 20
-0.3160875108506944
 10
-6.9177517361111107
 20
-0.5617228190104167
 10
-7.2202311197916664
 20
-0.5617228190104167
 10
-7.2202311197916664
 20
-0.5617228190104167
 10
-8.2055284288194432
 20
-0.5617228190104167
 10
-8.2055284288194432
 20
-0.5617228190104167
 10
-8.5093858506944429
 20
-0.5617228190104167
 10
-8.754676649305555
 20
-0.3160875108506944
 10
-8.754676649305555
 20
-0.0132636176215278
 10
-8.754676649305555
 20
-0.0132636176215278
 10
-8.754676649305555
 20
1.7185858832465277
 10
-8.754676649305555
 20
1.7185858832465277
 10
-8.754676649305555
 20
2.0210652669270832
 10
-8.5093858506944429
 20
2.266356065538194
 10
-8.2055284288194432
 20
2.266356065538194
 10
-8.2055284288194432
 20
2.266356065538194
 10
-7.2202311197916664
 20
2.266356065538194
 10
-7.2202311197916664
 20
2.266356065538194
 10
-6.9177517361111107
 20
2.266356065538194
 10
-6.6717719184027775
 20
2.0210652669270832
 10
-6.6717719184027775
 20
1.7185858832465277
 10
-6.6717719184027775
 20
1.7185858832465277
 10
-6.6717719184027775
 20
-0.0132636176215278
 10
-6.6717719184027775
 20
-0.0132636176215278
 97
        0
 92
       16
 93
        1
 72
     4
 94
        3
 73
     0
 74
     0
 95
       29
 96
       25
 40
0.0
 40
0.0
 40
0.0
 40
0.0
 40
1.0
 40
1.0
 40
1.0
 40
2.0
 40
2.0
 40
2.0
 40
3.0
 40
3.0
 40
3.0
 40
4.0
 40
4.0
 40
4.0
 40
5.0
 40
5.0
 40
5.0
 40
6.0
 40
6.0
 40
6.0
 40
7.0
 40
7.0
 40
7.0
 40
8.0
 40
8.0
 40
8.0
 40
8.0
 10
-6.7069118923611102
 20
3.5599894205729163
 10
-6.7069118923611102
 20
3.5599894205729163
 10
-8.7188476562499986
 20
3.5599894205729163
 10
-8.7188476562499986
 20
3.5599894205729163
 10
-9.5677191840277764
 20
3.5599894205729163
 10
-10.258116319444444
 20
2.870970323350694
 10
-10.258116319444444
 20
2.0210652669270832
 10
-10.258116319444444
 20
2.0210652669270832
 10
-10.258116319444444
 20
-0.3160875108506944
 10
-10.258116319444444
 20
-0.3160875108506944
 10
-10.258116319444444
 20
-1.1656480577256942
 10
-9.5677191840277764
 20
-1.8543226453993054
 10
-8.7188476562499986
 20
-1.8543226453993054
 10
-8.7188476562499986
 20
-1.8543226453993054
 10
-6.7069118923611102
 20
-1.8543226453993054
 10
-6.7069118923611102
 20
-1.8543226453993054
 10
-5.8573513454861104
 20
-1.8543226453993054
 10
-5.1690212673611109
 20
-1.1656480577256942
 10
-5.1690212673611109
 20
-0.3160875108506944
 10
-5.1690212673611109
 20
-0.3160875108506944
 10
-5.1690212673611109
 20
2.0210652669270832
 10
-5.1690212673611109
 20
2.0210652669270832
 10
-5.1690212673611109
 20
2.870970323350694
 10
-5.8573513454861104
 20
3.5599894205729163
 10
-6.7069118923611102
 20
3.5599894205729163
 97
        0
 75
     2
 76
     1
 98
        1
 10
0.0
 20
0.0
  0
HATCH
  5
6F
100
AcDbEntity
  8
レイヤー_1
 62
     7
100
AcDbHatch
 10
0.0
 20
0.0
 30
0.0
210
0.0
220
0.0
230
1.0
  2
SOLID
 70
     1
 71
     0
 91
        1
 92
        1
 93
        1
 72
     4
 94
        3
 73
     0
 74
     0
 95
       47
 96
       43
 40
0.0
 40
0.0
 40
0.0
 40
0.0
 40
1.0
 40
1.0
 40
1.0
 40
2.0
 40
2.0
 40
2.0
 40
3.0
 40
3.0
 40
3.0
 40
4.0
 40
4.0
 40
4.0
 40
5.0
 40
5.0
 40
5.0
 40
6.0
 40
6.0
 40
6.0
 40
7.0
 40
7.0
 40
7.0
 40
8.0
 40
8.0
 40
8.0
 40
9.0
 40
9.0
 40
9.0
 40
10.0
 40
10.0
 40
10.0
 40
11.0
 40
11.0
 40
11.0
 40
12.0
 40
12.0
 40
12.0
 40
13.0
 40
13.0
 40
13.0
 40
14.0
 40
14.0
 40
14.0
 40
14.0
 10
-33.978287760416663
 20
5.6466837565104164
 10
-33.978287760416663
 20
5.6466837565104164
 10
-39.842529296874993
 20
5.6466837565104164
 10
-39.842529296874993
 20
5.6466837565104164
 10
-39.896272786458333
 20
5.6466837565104164
 10
-39.940370008680553
 20
5.6025865342881938
 10
-39.940370008680553
 20
5.548154025607638
 10
-39.940370008680553
 20
5.548154025607638
 10
-39.940370008680553
 20
4.2527981228298604
 10
-39.940370008680553
 20
4.2527981228298604
 10
-39.940370008680553
 20
4.1980211046006941
 10
-39.896272786458333
 20
4.1539238823784714
 10
-39.842529296874993
 20
4.1539238823784714
 10
-39.842529296874993
 20
4.1539238823784714
 10
-37.77822808159722
 20
4.1539238823784714
 10
-37.77822808159722
 20
4.1539238823784714
 10
-37.77822808159722
 20
4.1539238823784714
 10
-37.77822808159722
 20
-1.7499362521701387
 10
-37.77822808159722
 20
-1.7499362521701387
 10
-37.77822808159722
 20
-1.8119479709201387
 10
-37.729996744791663
 20
-1.8598347981770831
 10
-37.669363064236109
 20
-1.8598347981770831
 10
-37.669363064236109
 20
-1.8598347981770831
 10
-36.152143012152777
 20
-1.8598347981770831
 10
-36.152143012152777
 20
-1.8598347981770831
 10
-36.0908203125
 20
-1.8598347981770831
 10
-36.043967013888889
 20
-1.8119479709201387
 10
-36.043967013888889
 20
-1.7499362521701387
 10
-36.043967013888889
 20
-1.7499362521701387
 10
-36.043967013888889
 20
4.1539238823784714
 10
-36.043967013888889
 20
4.1539238823784714
 10
-36.043967013888889
 20
4.1539238823784714
 10
-33.978287760416663
 20
4.1539238823784714
 10
-33.978287760416663
 20
4.1539238823784714
 10
-33.923855251736107
 20
4.1539238823784714
 10
-33.881136067708333
 20
4.1980211046006941
 10
-33.881136067708333
 20
4.2527981228298604
 10
-33.881136067708333
 20
4.2527981228298604
 10
-33.881136067708333
 20
5.548154025607638
 10
-33.881136067708333
 20
5.548154025607638
 10
-33.881136067708333
 20
5.6025865342881938
 10
-33.923855251736107
 20
5.6466837565104164
 10
-33.978287760416663
 20
5.6466837565104164
 97
        0
 75
     2
 76
     1
 98
        1
 10
0.0
 20
0.0
  0
HATCH
  5
6E
100
AcDbEntity
  8
レイヤー_1
 62
     7
100
AcDbHatch
 10
0.0
 20
0.0
 30
0.0
210
0.0
220
0.0
230
1.0
  2
SOLID
 70
     1
 71
     0
 91
        1
 92
        1
 93
        1
 72
     4
 94
        3
 73
     0
 74
     0
 95
       29
 96
       25
 40
0.0
 40
0.0
 40
0.0
 40
0.0
 40
1.0
 40
1.0
 40
1.0
 40
2.0
 40
2.0
 40
2.0
 40
3.0
 40
3.0
 40
3.0
 40
4.0
 40
4.0
 40
4.0
 40
5.0
 40
5.0
 40
5.0
 40
6.0
 40
6.0
 40
6.0
 40
7.0
 40
7.0
 40
7.0
 40
8.0
 40
8.0
 40
8.0
 40
8.0
 10
-28.820979817708331
 20
-1.8598347981770831
 10
-28.761035156249996
 20
-1.8598347981770831
 10
-28.710736762152774
 20
-1.8119479709201387
 10
-28.710736762152774
 20
-1.7489027235243053
 10
-28.710736762152774
 20
-1.7489027235243053
 10
-28.710736762152774
 20
3.4583591037326387
 10
-28.710736762152774
 20
3.4583591037326387
 10
-28.710736762152774
 20
3.5186482747395829
 10
-28.761035156249996
 20
3.5672241210937496
 10
-28.820979817708331
 20
3.5672241210937496
 10
-28.820979817708331
 20
3.5672241210937496
 10
-30.108067491319442
 20
3.5672241210937496
 10
-30.108067491319442
 20
3.5672241210937496
 10
-30.169390190972219
 20
3.5672241210937496
 10
-30.218310546874996
 20
3.5186482747395829
 10
-30.218310546874996
 20
3.4583591037326387
 10
-30.218310546874996
 20
3.4583591037326387
 10
-30.218310546874996
 20
-1.7489027235243053
 10
-30.218310546874996
 20
-1.7489027235243053
 10
-30.218310546874996
 20
-1.8119479709201387
 10
-30.169390190972219
 20
-1.8598347981770831
 10
-30.108067491319442
 20
-1.8598347981770831
 10
-30.108067491319442
 20
-1.8598347981770831
 10
-28.820979817708331
 20
-1.8598347981770831
 10
-28.820979817708331
 20
-1.8598347981770831
 97
        0
 75
     2
 76
     1
 98
        1
 10
0.0
 20
0.0
  0
HATCH
  5
6D
100
AcDbEntity
  8
レイヤー_1
 62
     7
100
AcDbHatch
 10
0.0
 20
0.0
 30
0.0
210
0.0
220
0.0
230
1.0
  2
SOLID
 70
     1
 71
     0
 91
        1
 92
        1
 93
        1
 72
     4
 94
        3
 73
     0
 74
     0
 95
       29
 96
       25
 40
0.0
 40
0.0
 40
0.0
 40
0.0
 40
1.0
 40
1.0
 40
1.0
 40
2.0
 40
2.0
 40
2.0
 40
3.0
 40
3.0
 40
3.0
 40
4.0
 40
4.0
 40
4.0
 40
5.0
 40
5.0
 40
5.0
 40
6.0
 40
6.0
 40
6.0
 40
7.0
 40
7.0
 40
7.0
 40
8.0
 40
8.0
 40
8.0
 40
8.0
 10
-26.696733940972219
 20
3.5637790256076385
 10
-26.799397786458332
 20
3.5637790256076385
 10
-26.891037326388886
 20
3.5124471028645829
 10
-26.946158854166665
 20
3.434243435329861
 10
-26.946158854166665
 20
3.434243435329861
 10
-28.710736762152774
 20
0.8500773111979166
 10
-28.710736762152774
 20
0.8500773111979166
 10
-28.710736762152774
 20
0.8500773111979166
 10
-26.957872178819443
 20
-1.8543226453993054
 10
-26.957872178819443
 20
-1.8543226453993054
 10
-26.957872178819443
 20
-1.8543226453993054
 10
-25.114057074652777
 20
-1.8543226453993054
 10
-25.114057074652777
 20
-1.8543226453993054
 10
-25.114057074652777
 20
-1.8543226453993054
 10
-27.12116970486111
 20
0.8500773111979166
 10
-27.12116970486111
 20
0.8500773111979166
 10
-27.12116970486111
 20
0.8500773111979166
 10
-25.115435112847219
 20
3.5620564778645831
 10
-25.115435112847219
 20
3.5620564778645831
 10
-25.115435112847219
 20
3.5620564778645831
 10
-26.697422960069442
 20
3.5620564778645831
 10
-26.697422960069442
 20
3.5620564778645831
 10
-26.697422960069442
 20
3.5620564778645831
 10
-26.696733940972219
 20
3.5637790256076385
 10
-26.696733940972219
 20
3.5637790256076385
 97
        0
 75
     2
 76
     1
 98
        1
 10
0.0
 20
0.0
  0
HATCH
  5
6C
100
AcDbEntity
  8
レイヤー_1
 62
     7
100
AcDbHatch
 10
0.0
 20
0.0
 30
0.0
210
0.0
220
0.0
230
1.0
  2
SOLID
 70
     1
 71
     0
 91
        1
 92
        1
 93
        1
 72
     4
 94
        3
 73
     0
 74
     0
 95
       29
 96
       25
 40
0.0
 40
0.0
 40
0.0
 40
0.0
 40
1.0
 40
1.0
 40
1.0
 40
2.0
 40
2.0
 40
2.0
 40
3.0
 40
3.0
 40
3.0
 40
4.0
 40
4.0
 40
4.0
 40
5.0
 40
5.0
 40
5.0
 40
6.0
 40
6.0
 40
6.0
 40
7.0
 40
7.0
 40
7.0
 40
8.0
 40
8.0
 40
8.0
 40
8.0
 10
-49.676898871527776
 20
1.896352810329861
 10
-49.539095052083326
 20
1.896352810329861
 10
-49.428162977430553
 20
2.0086629231770829
 10
-49.428162977430553
 20
2.1457777235243052
 10
-49.428162977430553
 20
2.1457777235243052
 10
-49.428162977430553
 20
5.3945027669270829
 10
-49.428162977430553
 20
5.3945027669270829
 10
-49.428162977430553
 20
5.5329956054687495
 10
-49.539095052083326
 20
5.6439276801215277
 10
-49.676898871527776
 20
5.6439276801215277
 10
-49.676898871527776
 20
5.6439276801215277
 10
-52.925623914930554
 20
5.6439276801215277
 10
-52.925623914930554
 20
5.6439276801215277
 10
-53.064805772569443
 20
5.6439276801215277
 10
-53.175737847222216
 20
5.5329956054687495
 10
-53.175737847222216
 20
5.3945027669270829
 10
-53.175737847222216
 20
5.3945027669270829
 10
-53.175737847222216
 20
2.1457777235243052
 10
-53.175737847222216
 20
2.1457777235243052
 10
-53.175737847222216
 20
2.0086629231770829
 10
-53.064805772569443
 20
1.896352810329861
 10
-52.925623914930554
 20
1.896352810329861
 10
-52.925623914930554
 20
1.896352810329861
 10
-49.676898871527776
 20
1.896352810329861
 10
-49.676898871527776
 20
1.896352810329861
 97
        0
 75
     2
 76
     1
 98
        1
 10
0.0
 20
0.0
  0
HATCH
  5
6B
100
AcDbEntity
  8
レイヤー_1
 62
     7
100
AcDbHatch
 10
0.0
 20
0.0
 30
0.0
210
0.0
220
0.0
230
1.0
  2
SOLID
 70
     1
 71
     0
 91
        1
 92
        1
 93
        1
 72
     4
 94
        3
 73
     0
 74
     0
 95
       29
 96
       25
 40
0.0
 40
0.0
 40
0.0
 40
0.0
 40
1.0
 40
1.0
 40
1.0
 40
2.0
 40
2.0
 40
2.0
 40
3.0
 40
3.0
 40
3.0
 40
4.0
 40
4.0
 40
4.0
 40
5.0
 40
5.0
 40
5.0
 40
6.0
 40
6.0
 40
6.0
 40
7.0
 40
7.0
 40
7.0
 40
8.0
 40
8.0
 40
8.0
 40
8.0
 10
-45.927256944444437
 20
-1.852944607204861
 10
-45.790142144097217
 20
-1.852944607204861
 10
-45.679210069444437
 20
-1.741323513454861
 10
-45.679210069444437
 20
-1.6024861653645832
 10
-45.679210069444437
 20
-1.6024861653645832
 10
-45.679210069444437
 20
1.6452053493923611
 10
-45.679210069444437
 20
1.6452053493923611
 10
-45.679210069444437
 20
1.7826646592881943
 10
-45.790142144097217
 20
1.8939412434895833
 10
-45.927256944444437
 20
1.8939412434895833
 10
-45.927256944444437
 20
1.8939412434895833
 10
-49.175981987847216
 20
1.8939412434895833
 10
-49.175981987847216
 20
1.8939412434895833
 10
-49.313785807291666
 20
1.8939412434895833
 10
-49.42747395833333
 20
1.7826646592881943
 10
-49.42747395833333
 20
1.6452053493923611
 10
-49.42747395833333
 20
1.6452053493923611
 10
-49.42747395833333
 20
-1.6024861653645832
 10
-49.42747395833333
 20
-1.6024861653645832
 10
-49.42747395833333
 20
-1.741323513454861
 10
-49.313785807291666
 20
-1.852944607204861
 10
-49.175981987847216
 20
-1.852944607204861
 10
-49.175981987847216
 20
-1.852944607204861
 10
-45.927256944444437
 20
-1.852944607204861
 10
-45.927256944444437
 20
-1.852944607204861
 97
        0
 75
     2
 76
     1
 98
        1
 10
0.0
 20
0.0
  0
HATCH
  5
6A
100
AcDbEntity
  8
レイヤー_1
 62
     7
100
AcDbHatch
 10
0.0
 20
0.0
 30
0.0
210
0.0
220
0.0
230
1.0
  2
SOLID
 70
     1
 71
     0
 91
        1
 92
        1
 93
        1
 72
     4
 94
        3
 73
     0
 74
     0
 95
       29
 96
       25
 40
0.0
 40
0.0
 40
0.0
 40
0.0
 40
1.0
 40
1.0
 40
1.0
 40
2.0
 40
2.0
 40
2.0
 40
3.0
 40
3.0
 40
3.0
 40
4.0
 40
4.0
 40
4.0
 40
5.0
 40
5.0
 40
5.0
 40
6.0
 40
6.0
 40
6.0
 40
7.0
 40
7.0
 40
7.0
 40
8.0
 40
8.0
 40
8.0
 40
8.0
 10
-42.177615017361106
 20
1.896352810329861
 10
-42.040500217013886
 20
1.896352810329861
 10
-41.92819010416666
 20
2.0086629231770829
 10
-41.92819010416666
 20
2.1457777235243052
 10
-41.92819010416666
 20
2.1457777235243052
 10
-41.92819010416666
 20
5.3945027669270829
 10
-41.92819010416666
 20
5.3945027669270829
 10
-41.92819010416666
 20
5.5329956054687495
 10
-42.040500217013886
 20
5.6439276801215277
 10
-42.177615017361106
 20
5.6439276801215277
 10
-42.177615017361106
 20
5.6439276801215277
 10
-45.427029079861107
 20
5.6439276801215277
 10
-45.427029079861107
 20
5.6439276801215277
 10
-45.56483289930555
 20
5.6439276801215277
 10
-45.67576497395833
 20
5.5329956054687495
 10
-45.67576497395833
 20
5.3945027669270829
 10
-45.67576497395833
 20
5.3945027669270829
 10
-45.67576497395833
 20
2.1457777235243052
 10
-45.67576497395833
 20
2.1457777235243052
 10
-45.67576497395833
 20
2.0086629231770829
 10
-45.56483289930555
 20
1.896352810329861
 10
-45.427029079861107
 20
1.896352810329861
 10
-45.427029079861107
 20
1.896352810329861
 10
-42.177615017361106
 20
1.896352810329861
 10
-42.177615017361106
 20
1.896352810329861
 97
        0
 75
     2
 76
     1
 98
        1
 10
0.0
 20
0.0
  0
HATCH
  5
69
100
AcDbEntity
  8
レイヤー_1
 62
     7
100
AcDbHatch
 10
0.0
 20
0.0
 30
0.0
210
0.0
220
0.0
230
1.0
  2
SOLID
 70
     1
 71
     0
 91
        1
 92
        1
 93
        1
 72
     4
 94
        3
 73
     0
 74
     0
 95
       29
 96
       25
 40
0.0
 40
0.0
 40
0.0
 40
0.0
 40
1.0
 40
1.0
 40
1.0
 40
2.0
 40
2.0
 40
2.0
 40
3.0
 40
3.0
 40
3.0
 40
4.0
 40
4.0
 40
4.0
 40
5.0
 40
5.0
 40
5.0
 40
6.0
 40
6.0
 40
6.0
 40
7.0
 40
7.0
 40
7.0
 40
8.0
 40
8.0
 40
8.0
 40
8.0
 10
-49.676898871527776
 20
-5.6029310438368052
 10
-49.539095052083326
 20
-5.6029310438368052
 10
-49.428162977430553
 20
-5.4909654405381936
 10
-49.428162977430553
 20
-5.3528171115451384
 10
-49.428162977430553
 20
-5.3528171115451384
 10
-49.428162977430553
 20
-2.1044365776909721
 10
-49.428162977430553
 20
-2.1044365776909721
 10
-49.428162977430553
 20
-1.9673217773437499
 10
-49.539095052083326
 20
-1.8553561740451388
 10
-49.676898871527776
 20
-1.8553561740451388
 10
-49.676898871527776
 20
-1.8553561740451388
 10
-52.925623914930554
 20
-1.8553561740451388
 10
-52.925623914930554
 20
-1.8553561740451388
 10
-53.064805772569443
 20
-1.8553561740451388
 10
-53.175737847222216
 20
-1.9673217773437499
 10
-53.175737847222216
 20
-2.1044365776909721
 10
-53.175737847222216
 20
-2.1044365776909721
 10
-53.175737847222216
 20
-5.3528171115451384
 10
-53.175737847222216
 20
-5.3528171115451384
 10
-53.175737847222216
 20
-5.4909654405381936
 10
-53.064805772569443
 20
-5.6029310438368052
 10
-52.925623914930554
 20
-5.6029310438368052
 10
-52.925623914930554
 20
-5.6029310438368052
 10
-49.676898871527776
 20
-5.6029310438368052
 10
-49.676898871527776
 20
-5.6029310438368052
 97
        0
 75
     2
 76
     1
 98
        1
 10
0.0
 20
0.0
  0
INSERT
  5
5F
100
AcDbEntity
  8
レイヤー_1
 62
     7
100
AcDbBlockReference
  2
AI9-BLK8
 10
26.644713
 20
-3.045809
 30
0.0
  0
INSERT
  5
51
100
AcDbEntity
  8
レイヤー_1
 62
     7
100
AcDbBlockReference
  2
AI9-BLK7
 10
34.938436
 20
-5.787416
 30
0.0
  0
HATCH
  5
4F
100
AcDbEntity
  8
レイヤー_1
 62
     7
100
AcDbHatch
 10
0.0
 20
0.0
 30
0.0
210
0.0
220
0.0
230
1.0
  2
SOLID
 70
     1
 71
     0
 91
        3
 92
        1
 93
        1
 72
     4
 94
        3
 73
     0
 74
     0
 95
       17
 96
       13
 40
0.0
 40
0.0
 40
0.0
 40
0.0
 40
1.0
 40
1.0
 40
1.0
 40
2.0
 40
2.0
 40
2.0
 40
3.0
 40
3.0
 40
3.0
 40
4.0
 40
4.0
 40
4.0
 40
4.0
 10
5.8876681857638884
 20
7.7602498372395825
 10
5.9772406684027768
 20
7.8904744466145829
 10
6.0840386284722214
 20
8.0806437174479164
 10
6.1853244357638886
 20
8.32386745876736
 10
6.1853244357638886
 20
8.32386745876736
 10
6.7482530381944441
 20
8.32386745876736
 10
6.7482530381944441
 20
8.32386745876736
 10
6.7482530381944441
 20
8.32386745876736
 10
6.7482530381944441
 20
7.7602498372395825
 10
6.7482530381944441
 20
7.7602498372395825
 10
6.7482530381944441
 20
7.7602498372395825
 10
5.8876681857638884
 20
7.7602498372395825
 10
5.8876681857638884
 20
7.7602498372395825
 97
        0
 92
       16
 93
        1
 72
     4
 94
        3
 73
     0
 74
     0
 95
      128
 96
      124
 40
0.0
 40
0.0
 40
0.0
 40
0.0
 40
1.0
 40
1.0
 40
1.0
 40
2.0
 40
2.0
 40
2.0
 40
3.0
 40
3.0
 40
3.0
 40
4.0
 40
4.0
 40
4.0
 40
5.0
 40
5.0
 40
5.0
 40
6.0
 40
6.0
 40
6.0
 40
7.0
 40
7.0
 40
7.0
 40
8.0
 40
8.0
 40
8.0
 40
9.0
 40
9.0
 40
9.0
 40
10.0
 40
10.0
 40
10.0
 40
11.0
 40
11.0
 40
11.0
 40
12.0
 40
12.0
 40
12.0
 40
13.0
 40
13.0
 40
13.0
 40
14.0
 40
14.0
 40
14.0
 40
15.0
 40
15.0
 40
15.0
 40
16.0
 40
16.0
 40
16.0
 40
17.0
 40
17.0
 40
17.0
 40
18.0
 40
18.0
 40
18.0
 40
19.0
 40
19.0
 40
19.0
 40
20.0
 40
20.0
 40
20.0
 40
21.0
 40
21.0
 40
21.0
 40
22.0
 40
22.0
 40
22.0
 40
23.0
 40
23.0
 40
23.0
 40
24.0
 40
24.0
 40
24.0
 40
25.0
 40
25.0
 40
25.0
 40
26.0
 40
26.0
 40
26.0
 40
27.0
 40
27.0
 40
27.0
 40
28.0
 40
28.0
 40
28.0
 40
29.0
 40
29.0
 40
29.0
 40
30.0
 40
30.0
 40
30.0
 40
31.0
 40
31.0
 40
31.0
 40
32.0
 40
32.0
 40
32.0
 40
33.0
 40
33.0
 40
33.0
 40
34.0
 40
34.0
 40
34.0
 40
35.0
 40
35.0
 40
35.0
 40
36.0
 40
36.0
 40
36.0
 40
37.0
 40
37.0
 40
37.0
 40
38.0
 40
38.0
 40
38.0
 40
39.0
 40
39.0
 40
39.0
 40
40.0
 40
40.0
 40
40.0
 40
41.0
 40
41.0
 40
41.0
 40
41.0
 10
6.439572482638888
 20
9.1665378146701375
 10
6.5002061631944441
 20
9.4338772243923597
 10
6.5291449652777773
 20
9.5813273111979154
 10
6.5587727864583325
 20
9.7308444552951379
 10
6.5587727864583325
 20
9.7308444552951379
 10
5.757443576388888
 20
9.8018134223090261
 10
5.757443576388888
 20
9.8018134223090261
 10
5.674761284722222
 20
9.1899644639756932
 10
5.4901041666666659
 20
8.7806871202256929
 10
5.3777940538194438
 20
8.5664021809895825
 10
5.3777940538194438
 20
8.5664021809895825
 10
5.3777940538194438
 20
8.9350273980034718
 10
5.3777940538194438
 20
8.9350273980034718
 10
5.3777940538194438
 20
8.9350273980034718
 10
4.8134874131944443
 20
8.9350273980034718
 10
4.8134874131944443
 20
8.9350273980034718
 10
4.8134874131944443
 20
8.9350273980034718
 10
4.8134874131944443
 20
9.9141235351562482
 10
4.8134874131944443
 20
9.9141235351562482
 10
4.8134874131944443
 20
9.9141235351562482
 10
3.994932725694444
 20
9.9141235351562482
 10
3.994932725694444
 20
9.9141235351562482
 10
3.994932725694444
 20
9.9141235351562482
 10
3.994932725694444
 20
8.9350273980034718
 10
3.994932725694444
 20
8.9350273980034718
 10
3.994932725694444
 20
8.9350273980034718
 10
3.2700846354166662
 20
8.9350273980034718
 10
3.2700846354166662
 20
8.9350273980034718
 10
3.2700846354166662
 20
8.9350273980034718
 10
3.2700846354166662
 20
8.11578369140625
 10
3.2700846354166662
 20
8.11578369140625
 10
3.2700846354166662
 20
8.11578369140625
 10
3.9294759114583329
 20
8.11578369140625
 10
3.9294759114583329
 20
8.11578369140625
 10
3.6621365017361107
 20
7.1842298719618052
 10
3.4009982638888885
 20
6.792867024739583
 10
3.157774522569444
 20
6.4896986219618054
 10
3.157774522569444
 20
6.4896986219618054
 10
3.436827256944444
 20
5.3211222330729164
 10
3.436827256944444
 20
5.3211222330729164
 10
3.5794542100694442
 20
5.5278279622395825
 10
3.798562282986111
 20
5.8661363389756938
 10
3.994932725694444
 20
6.5427530924479163
 10
3.994932725694444
 20
6.5427530924479163
 10
3.994932725694444
 20
4.2931057400173609
 10
3.994932725694444
 20
4.2931057400173609
 10
3.994932725694444
 20
4.2931057400173609
 10
4.8134874131944443
 20
4.2931057400173609
 10
4.8134874131944443
 20
4.2931057400173609
 10
4.8134874131944443
 20
4.2931057400173609
 10
4.8134874131944443
 20
6.7687513563368054
 10
4.8134874131944443
 20
6.7687513563368054
 10
4.8727430555555555
 20
6.5262166341145829
 10
4.9030598958333327
 20
6.400815158420138
 10
5.1517957899305546
 20
5.9377943250868048
 10
5.1517957899305546
 20
5.9377943250868048
 10
5.6630479600694441
 20
6.6144110785590273
 10
5.6630479600694441
 20
6.6144110785590273
 10
5.5734754774305548
 20
6.6970933702256934
 10
5.5087076822916661
 20
6.763239203559027
 10
5.3895073784722216
 20
6.9106892903645827
 10
5.3895073784722216
 20
6.9106892903645827
 10
6.439572482638888
 20
6.9106892903645827
 10
6.439572482638888
 20
6.9106892903645827
 10
5.953814019097222
 20
6.0259887695312493
 10
5.3481662326388886
 20
5.6167114257812498
 10
5.1042534722222221
 20
5.4623711480034718
 10
5.1042534722222221
 20
5.4623711480034718
 10
5.6265299479166657
 20
4.6259019639756938
 10
5.6265299479166657
 20
4.6259019639756938
 10
6.1012641059027768
 20
5.0592949761284718
 10
6.4760904947916664
 20
5.563656955295138
 10
6.7482530381944441
 20
6.1513902452256941
 10
6.7482530381944441
 20
6.1513902452256941
 10
6.7482530381944441
 20
4.2931057400173609
 10
6.7482530381944441
 20
4.2931057400173609
 10
6.7482530381944441
 20
4.2931057400173609
 10
7.597124565972222
 20
4.2931057400173609
 10
7.597124565972222
 20
4.2931057400173609
 10
7.597124565972222
 20
4.2931057400173609
 10
7.597124565972222
 20
6.0156534830729163
 10
7.597124565972222
 20
6.0156534830729163
 10
7.8465494791666659
 20
5.4871758355034714
 10
8.185546875
 20
4.9993503146701386
 10
8.6485677083333332
 20
4.6369262695312496
 10
8.6485677083333332
 20
4.6369262695312496
 10
8.9979003906249986
 20
5.6408270941840275
 10
8.9979003906249986
 20
5.6408270941840275
 10
8.7367621527777768
 20
5.8185940212673604
 10
8.2737413194444436
 20
6.1513902452256941
 10
7.8410373263888884
 20
6.9106892903645827
 10
7.8410373263888884
 20
6.9106892903645827
 10
8.8911024305555539
 20
6.9106892903645827
 10
8.8911024305555539
 20
6.9106892903645827
 10
8.8911024305555539
 20
6.9106892903645827
 10
8.8911024305555539
 20
7.7602498372395825
 10
8.8911024305555539
 20
7.7602498372395825
 10
8.8911024305555539
 20
7.7602498372395825
 10
7.597124565972222
 20
7.7602498372395825
 10
7.597124565972222
 20
7.7602498372395825
 10
7.597124565972222
 20
7.7602498372395825
 10
7.597124565972222
 20
8.32386745876736
 10
7.597124565972222
 20
8.32386745876736
 10
7.597124565972222
 20
8.32386745876736
 10
8.8022189670138875
 20
8.32386745876736
 10
8.8022189670138875
 20
8.32386745876736
 10
8.8022189670138875
 20
8.32386745876736
 10
8.8022189670138875
 20
9.1665378146701375
 10
8.8022189670138875
 20
9.1665378146701375
 10
8.8022189670138875
 20
9.1665378146701375
 10
7.597124565972222
 20
9.1665378146701375
 10
7.597124565972222
 20
9.1665378146701375
 10
7.597124565972222
 20
9.1665378146701375
 10
7.597124565972222
 20
9.9141235351562482
 10
7.597124565972222
 20
9.9141235351562482
 10
7.597124565972222
 20
9.9141235351562482
 10
6.7482530381944441
 20
9.9141235351562482
 10
6.7482530381944441
 20
9.9141235351562482
 10
6.7482530381944441
 20
9.9141235351562482
 10
6.7482530381944441
 20
9.1665378146701375
 10
6.7482530381944441
 20
9.1665378146701375
 10
6.7482530381944441
 20
9.1665378146701375
 10
6.439572482638888
 20
9.1665378146701375
 10
6.439572482638888
 20
9.1665378146701375
 97
        0
 92
        1
 93
        1
 72
     4
 94
        3
 73
     0
 74
     0
 95
       23
 96
       19
 40
0.0
 40
0.0
 40
0.0
 40
0.0
 40
1.0
 40
1.0
 40
1.0
 40
2.0
 40
2.0
 40
2.0
 40
3.0
 40
3.0
 40
3.0
 40
4.0
 40
4.0
 40
4.0
 40
5.0
 40
5.0
 40
5.0
 40
6.0
 40
6.0
 40
6.0
 40
6.0
 10
5.3777940538194438
 20
7.7602498372395825
 10
5.3777940538194438
 20
7.7602498372395825
 10
5.3777940538194438
 20
6.9348049587673604
 10
5.3777940538194438
 20
6.9348049587673604
 10
5.2771972656249995
 20
7.0650295681423607
 10
4.9678276909722214
 20
7.474995930989583
 10
4.8134874131944443
 20
7.8546454535590273
 10
4.8134874131944443
 20
7.8546454535590273
 10
4.8134874131944443
 20
8.11578369140625
 10
4.8134874131944443
 20
8.11578369140625
 10
4.8134874131944443
 20
8.11578369140625
 10
5.3591905381944436
 20
8.11578369140625
 10
5.3591905381944436
 20
8.11578369140625
 10
5.3591905381944436
 20
8.11578369140625
 10
5.8166992187499993
 20
7.7602498372395825
 10
5.8166992187499993
 20
7.7602498372395825
 10
5.8166992187499993
 20
7.7602498372395825
 10
5.3777940538194438
 20
7.7602498372395825
 10
5.3777940538194438
 20
7.7602498372395825
 97
        0
 75
     2
 76
     1
 98
        1
 10
0.0
 20
0.0
  0
HATCH
  5
4E
100
AcDbEntity
  8
レイヤー_1
 62
     7
100
AcDbHatch
 10
0.0
 20
0.0
 30
0.0
210
0.0
220
0.0
230
1.0
  2
SOLID
 70
     1
 71
     0
 91
        2
 92
        1
 93
        1
 72
     4
 94
        3
 73
     0
 74
     0
 95
       44
 96
       40
 40
0.0
 40
0.0
 40
0.0
 40
0.0
 40
1.0
 40
1.0
 40
1.0
 40
2.0
 40
2.0
 40
2.0
 40
3.0
 40
3.0
 40
3.0
 40
4.0
 40
4.0
 40
4.0
 40
5.0
 40
5.0
 40
5.0
 40
6.0
 40
6.0
 40
6.0
 40
7.0
 40
7.0
 40
7.0
 40
8.0
 40
8.0
 40
8.0
 40
9.0
 40
9.0
 40
9.0
 40
10.0
 40
10.0
 40
10.0
 40
11.0
 40
11.0
 40
11.0
 40
12.0
 40
12.0
 40
12.0
 40
13.0
 40
13.0
 40
13.0
 40
13.0
 10
9.1708441840277768
 20
5.3555731879340271
 10
9.2831542968749989
 20
5.3617743598090275
 10
9.3424099392361111
 20
5.3617743598090275
 10
9.4195800781249996
 20
5.367975531684027
 10
9.5442925347222207
 20
5.3741767035590273
 10
10.143739149305555
 20
5.4272311740451382
 10
10.280853949652776
 20
5.4334323459201386
 10
10.280853949652776
 20
5.4334323459201386
 10
10.280853949652776
 20
6.8631469726562493
 10
10.280853949652776
 20
6.8631469726562493
 10
10.280853949652776
 20
6.8631469726562493
 10
9.3362087673611107
 20
6.8631469726562493
 10
9.3362087673611107
 20
6.8631469726562493
 10
9.3362087673611107
 20
6.8631469726562493
 10
9.3362087673611107
 20
7.723731825086805
 10
9.3362087673611107
 20
7.723731825086805
 10
9.3362087673611107
 20
7.723731825086805
 10
12.11433376736111
 20
7.723731825086805
 10
12.11433376736111
 20
7.723731825086805
 10
12.11433376736111
 20
7.723731825086805
 10
12.11433376736111
 20
6.8631469726562493
 10
12.11433376736111
 20
6.8631469726562493
 10
12.11433376736111
 20
6.8631469726562493
 10
11.188292100694444
 20
6.8631469726562493
 10
11.188292100694444
 20
6.8631469726562493
 10
11.188292100694444
 20
6.8631469726562493
 10
11.188292100694444
 20
5.5106024848090271
 10
11.188292100694444
 20
5.5106024848090271
 10
11.858707682291666
 20
5.5753702799479159
 10
12.102620442708332
 20
5.6229125976562493
 10
12.322417534722222
 20
5.6642537434895832
 10
12.322417534722222
 20
5.6642537434895832
 10
12.333441840277777
 20
4.8215833875868048
 10
12.333441840277777
 20
4.8215833875868048
 10
11.657514105902777
 20
4.6789564344618055
 10
11.28337673611111
 20
4.6369262695312496
 10
9.2714409722222211
 20
4.4240193684895832
 10
9.2714409722222211
 20
4.4240193684895832
 10
9.1708441840277768
 20
5.3555731879340271
 10
9.1708441840277768
 20
5.3555731879340271
 97
        0
 92
        1
 93
        1
 72
     4
 94
        3
 73
     0
 74
     0
 95
       71
 96
       67
 40
0.0
 40
0.0
 40
0.0
 40
0.0
 40
1.0
 40
1.0
 40
1.0
 40
2.0
 40
2.0
 40
2.0
 40
3.0
 40
3.0
 40
3.0
 40
4.0
 40
4.0
 40
4.0
 40
5.0
 40
5.0
 40
5.0
 40
6.0
 40
6.0
 40
6.0
 40
7.0
 40
7.0
 40
7.0
 40
8.0
 40
8.0
 40
8.0
 40
9.0
 40
9.0
 40
9.0
 40
10.0
 40
10.0
 40
10.0
 40
11.0
 40
11.0
 40
11.0
 40
12.0
 40
12.0
 40
12.0
 40
13.0
 40
13.0
 40
13.0
 40
14.0
 40
14.0
 40
14.0
 40
15.0
 40
15.0
 40
15.0
 40
16.0
 40
16.0
 40
16.0
 40
17.0
 40
17.0
 40
17.0
 40
18.0
 40
18.0
 40
18.0
 40
19.0
 40
19.0
 40
19.0
 40
20.0
 40
20.0
 40
20.0
 40
21.0
 40
21.0
 40
21.0
 40
22.0
 40
22.0
 40
22.0
 40
22.0
 10
14.263384331597221
 20
9.1017700195312496
 10
14.263384331597221
 20
9.1017700195312496
 10
14.820800781249998
 20
9.1017700195312496
 10
14.820800781249998
 20
9.1017700195312496
 10
14.820800781249998
 20
9.1017700195312496
 10
14.820800781249998
 20
8.2404961480034711
 10
14.820800781249998
 20
8.2404961480034711
 10
14.820800781249998
 20
8.2404961480034711
 10
13.170600043402777
 20
8.2404961480034711
 10
13.170600043402777
 20
8.2404961480034711
 10
13.207118055555554
 20
7.4922214084201384
 10
13.28980034722222
 20
6.7446356879340268
 10
13.526822916666665
 20
6.0328789605034716
 10
13.586767578124999
 20
5.8551120334201388
 10
13.745930989583332
 20
5.4334323459201386
 10
13.91887478298611
 20
5.4334323459201386
 10
14.084928385416665
 20
5.4334323459201386
 10
14.404633246527776
 20
5.842709689670138
 10
14.542437065972221
 20
6.2402737087673605
 10
14.542437065972221
 20
6.2402737087673605
 10
14.922086588541665
 20
5.2908053927951384
 10
14.922086588541665
 20
5.2908053927951384
 10
14.797374131944443
 20
4.9462958441840277
 10
14.494205729166666
 20
4.282081434461805
 10
13.942990451388887
 20
4.282081434461805
 10
13.663937717013887
 20
4.282081434461805
 10
13.378683810763887
 20
4.4357326931423611
 10
13.218142361111109
 20
4.6148776584201388
 10
12.357557508680554
 20
5.563656955295138
 10
12.298301866319443
 20
7.2855156792534714
 10
12.26316189236111
 20
8.2404961480034711
 10
12.26316189236111
 20
8.2404961480034711
 10
9.2238986545138886
 20
8.2404961480034711
 10
9.2238986545138886
 20
8.2404961480034711
 10
9.2238986545138886
 20
8.2404961480034711
 10
9.2238986545138886
 20
9.1017700195312496
 10
9.2238986545138886
 20
9.1017700195312496
 10
9.2238986545138886
 20
9.1017700195312496
 10
12.233534071180554
 20
9.1017700195312496
 10
12.233534071180554
 20
9.1017700195312496
 10
12.227332899305555
 20
9.1899644639756932
 10
12.215619574652777
 20
9.6240464952256932
 10
12.209418402777777
 20
9.7184421115451372
 10
12.209418402777777
 20
9.7721856011284718
 10
12.209418402777777
 20
9.8190388997395832
 10
12.203217230902776
 20
9.9258368598090261
 10
12.203217230902776
 20
9.9258368598090261
 10
13.153374565972221
 20
9.9258368598090261
 10
13.153374565972221
 20
9.9258368598090261
 10
13.147173394097221
 20
9.4579928927951382
 10
13.147173394097221
 20
9.3208780924479164
 10
13.153374565972221
 20
9.1017700195312496
 10
13.153374565972221
 20
9.1017700195312496
 10
13.734906684027777
 20
9.1017700195312496
 10
13.734906684027777
 20
9.1017700195312496
 10
13.580566406249998
 20
9.327079264322915
 10
13.449652777777777
 20
9.5172485351562486
 10
13.301513671874998
 20
9.6529852973090264
 10
13.301513671874998
 20
9.6529852973090264
 10
14.06770290798611
 20
9.9623548719618054
 10
14.06770290798611
 20
9.9623548719618054
 10
14.155897352430554
 20
9.8962090386284718
 10
14.233067491319444
 20
9.8424655490451372
 10
14.643722873263888
 20
9.2678236219618046
 10
14.643722873263888
 20
9.2678236219618046
 10
14.263384331597221
 20
9.1017700195312496
 10
14.263384331597221
 20
9.1017700195312496
 97
        0
 75
     2
 76
     1
 98
        1
 10
0.0
 20
0.0
  0
HATCH
  5
4D
100
AcDbEntity
  8
レイヤー_1
 62
     7
100
AcDbHatch
 10
0.0
 20
0.0
 30
0.0
210
0.0
220
0.0
230
1.0
  2
SOLID
 70
     1
 71
     0
 91
        4
 92
        1
 93
        1
 72
     4
 94
        3
 73
     0
 74
     0
 95
       14
 96
       10
 40
0.0
 40
0.0
 40
0.0
 40
0.0
 40
1.0
 40
1.0
 40
1.0
 40
2.0
 40
2.0
 40
2.0
 40
3.0
 40
3.0
 40
3.0
 40
3.0
 10
17.052533637152777
 20
8.4065497504340279
 10
17.616151258680553
 20
8.8344306098090275
 10
17.818722873263887
 20
9.0597398546006929
 10
17.967550998263889
 20
9.243018934461805
 10
18.144628906249999
 20
9.048026529947915
 10
18.376139322916664
 20
8.7986016167534711
 10
18.892903645833332
 20
8.4065497504340279
 10
18.892903645833332
 20
8.4065497504340279
 10
17.052533637152777
 20
8.4065497504340279
 10
17.052533637152777
 20
8.4065497504340279
 97
        0
 92
       16
 93
        1
 72
     4
 94
        3
 73
     0
 74
     0
 95
       35
 96
       31
 40
0.0
 40
0.0
 40
0.0
 40
0.0
 40
1.0
 40
1.0
 40
1.0
 40
2.0
 40
2.0
 40
2.0
 40
3.0
 40
3.0
 40
3.0
 40
4.0
 40
4.0
 40
4.0
 40
5.0
 40
5.0
 40
5.0
 40
6.0
 40
6.0
 40
6.0
 40
7.0
 40
7.0
 40
7.0
 40
8.0
 40
8.0
 40
8.0
 40
9.0
 40
9.0
 40
9.0
 40
10.0
 40
10.0
 40
10.0
 40
10.0
 10
16.382118055555555
 20
7.6121107313368048
 10
16.382118055555555
 20
7.6121107313368048
 10
19.539892578124999
 20
7.6121107313368048
 10
19.539892578124999
 20
7.6121107313368048
 10
19.539892578124999
 20
7.6121107313368048
 10
19.539892578124999
 20
7.9738457573784718
 10
19.539892578124999
 20
7.9738457573784718
 10
19.961572265624998
 20
7.7189086914062495
 10
20.216509331597219
 20
7.6059095594618045
 10
20.42390407986111
 20
7.5156480577256941
 10
20.42390407986111
 20
7.5156480577256941
 10
20.887613932291664
 20
8.4127509223090264
 10
20.887613932291664
 20
8.4127509223090264
 10
19.985687934027776
 20
8.7517483181423597
 10
19.130615234375
 20
9.2313056098090271
 10
18.50154079861111
 20
9.9623548719618054
 10
18.50154079861111
 20
9.9623548719618054
 10
17.444585503472222
 20
9.9623548719618054
 10
17.444585503472222
 20
9.9623548719618054
 10
17.064935980902778
 20
9.4269870334201382
 10
16.406233723958334
 20
8.9412285698784721
 10
15.02888454861111
 20
8.4003485785590275
 10
15.02888454861111
 20
8.4003485785590275
 10
15.480192057291665
 20
7.4991115993923607
 10
15.480192057291665
 20
7.4991115993923607
 10
15.657958984374998
 20
7.569391547309027
 10
15.918408203124999
 20
7.6706773546006941
 10
16.382118055555555
 20
7.9497300889756941
 10
16.382118055555555
 20
7.9497300889756941
 10
16.382118055555555
 20
7.6121107313368048
 10
16.382118055555555
 20
7.6121107313368048
 97
        0
 92
       16
 93
        1
 72
     4
 94
        3
 73
     0
 74
     0
 95
       44
 96
       40
 40
0.0
 40
0.0
 40
0.0
 40
0.0
 40
1.0
 40
1.0
 40
1.0
 40
2.0
 40
2.0
 40
2.0
 40
3.0
 40
3.0
 40
3.0
 40
4.0
 40
4.0
 40
4.0
 40
5.0
 40
5.0
 40
5.0
 40
6.0
 40
6.0
 40
6.0
 40
7.0
 40
7.0
 40
7.0
 40
8.0
 40
8.0
 40
8.0
 40
9.0
 40
9.0
 40
9.0
 40
10.0
 40
10.0
 40
10.0
 40
11.0
 40
11.0
 40
11.0
 40
12.0
 40
12.0
 40
12.0
 40
13.0
 40
13.0
 40
13.0
 40
13.0
 10
20.649902343749996
 20
4.6906697591145825
 10
20.293679470486108
 20
5.2549763997395829
 10
19.919542100694443
 20
5.7834540473090277
 10
19.402777777777775
 20
6.3408704969618048
 10
19.402777777777775
 20
6.3408704969618048
 10
20.631298828124997
 20
6.3408704969618048
 10
20.631298828124997
 20
6.3408704969618048
 10
20.631298828124997
 20
6.3408704969618048
 10
20.631298828124997
 20
7.195943196614583
 10
20.631298828124997
 20
7.195943196614583
 10
20.631298828124997
 20
7.195943196614583
 10
15.278309461805554
 20
7.195943196614583
 10
15.278309461805554
 20
7.195943196614583
 10
15.278309461805554
 20
7.195943196614583
 10
15.278309461805554
 20
6.3408704969618048
 10
15.278309461805554
 20
6.3408704969618048
 10
15.278309461805554
 20
6.3408704969618048
 10
16.60122612847222
 20
6.3408704969618048
 10
16.60122612847222
 20
6.3408704969618048
 10
16.47720269097222
 20
5.955708821614583
 10
16.340087890625
 20
5.6353149414062491
 10
16.192637803819444
 20
5.3211222330729164
 10
16.085839843749998
 20
5.3211222330729164
 10
15.622129991319444
 20
5.3142320421006941
 10
15.527045355902777
 20
5.3142320421006941
 10
15.480192057291665
 20
5.3142320421006941
 10
15.43816189236111
 20
5.3142320421006941
 10
15.318961588541665
 20
5.3211222330729164
 10
15.318961588541665
 20
5.3211222330729164
 10
15.462277560763887
 20
4.4005927191840275
 10
15.462277560763887
 20
4.4005927191840275
 10
16.809309895833334
 20
4.4419338650173605
 10
17.017393663194444
 20
4.4598483615451388
 10
19.551605902777776
 20
4.6617309570312493
 10
19.663916015624999
 20
4.4770738389756941
 10
19.717659505208331
 20
4.3881903754340277
 10
19.79482964409722
 20
4.24005126953125
 10
19.79482964409722
 20
4.24005126953125
 10
20.649902343749996
 20
4.6906697591145825
 10
20.649902343749996
 20
4.6906697591145825
 97
        0
 92
        1
 93
        1
 72
     4
 94
        3
 73
     0
 74
     0
 95
       23
 96
       19
 40
0.0
 40
0.0
 40
0.0
 40
0.0
 40
1.0
 40
1.0
 40
1.0
 40
2.0
 40
2.0
 40
2.0
 40
3.0
 40
3.0
 40
3.0
 40
4.0
 40
4.0
 40
4.0
 40
5.0
 40
5.0
 40
5.0
 40
6.0
 40
6.0
 40
6.0
 40
6.0
 10
18.560107421874999
 20
6.0094523111979159
 10
18.702734374999999
 20
5.8365085177951386
 10
18.810221354166664
 20
5.7062839084201382
 10
19.047243923611109
 20
5.3914021809895827
 10
18.856385633680553
 20
5.3858900282118052
 10
17.920008680555554
 20
5.3438598632812493
 10
17.711235894097221
 20
5.3321465386284714
 10
17.605126953124998
 20
5.3266343858506939
 10
17.557584635416664
 20
5.3266343858506939
 10
17.129703776041666
 20
5.3266343858506939
 10
17.307470703124999
 20
5.6821682400173605
 10
17.426671006944442
 20
5.9501966688368046
 10
17.592724609374997
 20
6.3408704969618048
 10
17.592724609374997
 20
6.3408704969618048
 10
19.260839843749999
 20
6.3408704969618048
 10
19.260839843749999
 20
6.3408704969618048
 10
19.260839843749999
 20
6.3408704969618048
 10
18.560107421874999
 20
6.0094523111979159
 10
18.560107421874999
 20
6.0094523111979159
 97
        0
 75
     2
 76
     1
 98
        1
 10
0.0
 20
0.0
  0
HATCH
  5
4C
100
AcDbEntity
  8
レイヤー_1
 62
     7
100
AcDbHatch
 10
0.0
 20
0.0
 30
0.0
210
0.0
220
0.0
230
1.0
  2
SOLID
 70
     1
 71
     0
 91
        2
 92
        1
 93
        1
 72
     4
 94
        3
 73
     0
 74
     0
 95
       53
 96
       49
 40
0.0
 40
0.0
 40
0.0
 40
0.0
 40
1.0
 40
1.0
 40
1.0
 40
2.0
 40
2.0
 40
2.0
 40
3.0
 40
3.0
 40
3.0
 40
4.0
 40
4.0
 40
4.0
 40
5.0
 40
5.0
 40
5.0
 40
6.0
 40
6.0
 40
6.0
 40
7.0
 40
7.0
 40
7.0
 40
8.0
 40
8.0
 40
8.0
 40
9.0
 40
9.0
 40
9.0
 40
10.0
 40
10.0
 40
10.0
 40
11.0
 40
11.0
 40
11.0
 40
12.0
 40
12.0
 40
12.0
 40
13.0
 40
13.0
 40
13.0
 40
14.0
 40
14.0
 40
14.0
 40
15.0
 40
15.0
 40
15.0
 40
16.0
 40
16.0
 40
16.0
 40
16.0
 10
24.50772026909722
 20
9.9141235351562482
 10
24.50772026909722
 20
9.9141235351562482
 10
25.434450954861109
 20
9.9141235351562482
 10
25.434450954861109
 20
9.9141235351562482
 10
25.434450954861109
 20
9.9141235351562482
 10
25.434450954861109
 20
8.4430677625868054
 10
25.434450954861109
 20
8.4430677625868054
 10
25.434450954861109
 20
8.4430677625868054
 10
26.58511284722222
 20
8.4430677625868054
 10
26.58511284722222
 20
8.4430677625868054
 10
26.58511284722222
 20
8.4430677625868054
 10
26.58511284722222
 20
7.5280504014756939
 10
26.58511284722222
 20
7.5280504014756939
 10
26.58511284722222
 20
7.5280504014756939
 10
25.434450954861109
 20
7.5280504014756939
 10
25.434450954861109
 20
7.5280504014756939
 10
25.434450954861109
 20
7.5280504014756939
 10
25.434450954861109
 20
5.3555731879340271
 10
25.434450954861109
 20
5.3555731879340271
 10
25.434450954861109
 20
5.3555731879340271
 10
26.673996310763886
 20
5.3555731879340271
 10
26.673996310763886
 20
5.3555731879340271
 10
26.673996310763886
 20
5.3555731879340271
 10
26.673996310763886
 20
4.4536471896701384
 10
26.673996310763886
 20
4.4536471896701384
 10
26.673996310763886
 20
4.4536471896701384
 10
23.148285590277776
 20
4.4536471896701384
 10
23.148285590277776
 20
4.4536471896701384
 10
23.148285590277776
 20
4.4536471896701384
 10
23.148285590277776
 20
5.3555731879340271
 10
23.148285590277776
 20
5.3555731879340271
 10
23.148285590277776
 20
5.3555731879340271
 10
24.50772026909722
 20
5.3555731879340271
 10
24.50772026909722
 20
5.3555731879340271
 10
24.50772026909722
 20
5.3555731879340271
 10
24.50772026909722
 20
7.5280504014756939
 10
24.50772026909722
 20
7.5280504014756939
 10
24.50772026909722
 20
7.5280504014756939
 10
23.438362630208331
 20
7.5280504014756939
 10
23.438362630208331
 20
7.5280504014756939
 10
23.438362630208331
 20
7.5280504014756939
 10
23.438362630208331
 20
8.4430677625868054
 10
23.438362630208331
 20
8.4430677625868054
 10
23.438362630208331
 20
8.4430677625868054
 10
24.50772026909722
 20
8.4430677625868054
 10
24.50772026909722
 20
8.4430677625868054
 10
24.50772026909722
 20
8.4430677625868054
 10
24.50772026909722
 20
9.9141235351562482
 10
24.50772026909722
 20
9.9141235351562482
 97
        0
 92
        1
 93
        1
 72
     4
 94
        3
 73
     0
 74
     0
 95
       59
 96
       55
 40
0.0
 40
0.0
 40
0.0
 40
0.0
 40
1.0
 40
1.0
 40
1.0
 40
2.0
 40
2.0
 40
2.0
 40
3.0
 40
3.0
 40
3.0
 40
4.0
 40
4.0
 40
4.0
 40
5.0
 40
5.0
 40
5.0
 40
6.0
 40
6.0
 40
6.0
 40
7.0
 40
7.0
 40
7.0
 40
8.0
 40
8.0
 40
8.0
 40
9.0
 40
9.0
 40
9.0
 40
10.0
 40
10.0
 40
10.0
 40
11.0
 40
11.0
 40
11.0
 40
12.0
 40
12.0
 40
12.0
 40
13.0
 40
13.0
 40
13.0
 40
14.0
 40
14.0
 40
14.0
 40
15.0
 40
15.0
 40
15.0
 40
16.0
 40
16.0
 40
16.0
 40
17.0
 40
17.0
 40
17.0
 40
18.0
 40
18.0
 40
18.0
 40
18.0
 10
22.744520399305554
 20
4.2875935872395825
 10
22.744520399305554
 20
4.2875935872395825
 10
21.843283420138889
 20
4.2875935872395825
 10
21.843283420138889
 20
4.2875935872395825
 10
21.843283420138889
 20
4.2875935872395825
 10
21.843283420138889
 20
6.2705905490451386
 10
21.843283420138889
 20
6.2705905490451386
 10
21.599370659722219
 20
6.0625067816840268
 10
21.433317057291664
 20
5.9433064778645832
 10
21.212830946180553
 20
5.7958563910590275
 10
21.212830946180553
 20
5.7958563910590275
 10
20.988210720486109
 20
6.8459214952256939
 10
20.988210720486109
 20
6.8459214952256939
 10
21.652425130208332
 20
7.2434855143229164
 10
22.198817274305554
 20
7.878072102864583
 10
22.394498697916664
 20
8.2701239691840271
 10
22.394498697916664
 20
8.2701239691840271
 10
21.095008680555555
 20
8.2701239691840271
 10
21.095008680555555
 20
8.2701239691840271
 10
21.095008680555555
 20
8.2701239691840271
 10
21.095008680555555
 20
9.1017700195312496
 10
21.095008680555555
 20
9.1017700195312496
 10
21.095008680555555
 20
9.1017700195312496
 10
21.843283420138889
 20
9.1017700195312496
 10
21.843283420138889
 20
9.1017700195312496
 10
21.843283420138889
 20
9.1017700195312496
 10
21.843283420138889
 20
9.9203247070312486
 10
21.843283420138889
 20
9.9203247070312486
 10
21.843283420138889
 20
9.9203247070312486
 10
22.744520399305554
 20
9.9203247070312486
 10
22.744520399305554
 20
9.9203247070312486
 10
22.744520399305554
 20
9.9203247070312486
 10
22.744520399305554
 20
9.1017700195312496
 10
22.744520399305554
 20
9.1017700195312496
 10
22.744520399305554
 20
9.1017700195312496
 10
23.350168185763888
 20
9.1017700195312496
 10
23.350168185763888
 20
9.1017700195312496
 10
23.350168185763888
 20
9.1017700195312496
 10
23.350168185763888
 20
8.2646118164062496
 10
23.350168185763888
 20
8.2646118164062496
 10
23.261973741319441
 20
8.0510158962673604
 10
23.148285590277776
 20
7.7953898111979161
 10
22.881635199652777
 20
7.4095391167534714
 10
23.208230251736108
 20
7.0478040907118054
 10
23.498996310763886
 20
6.8755493164062491
 10
23.688476562499996
 20
6.7687513563368054
 10
23.688476562499996
 20
6.7687513563368054
 10
23.243370225694441
 20
5.926081000434027
 10
23.243370225694441
 20
5.926081000434027
 10
23.071115451388888
 20
6.0859334309895825
 10
22.934689670138887
 20
6.2285603841145827
 10
22.744520399305554
 20
6.4952107747395829
 10
22.744520399305554
 20
6.4952107747395829
 10
22.744520399305554
 20
4.2875935872395825
 10
22.744520399305554
 20
4.2875935872395825
 97
        0
 75
     2
 76
     1
 98
        1
 10
0.0
 20
0.0
  0
HATCH
  5
4B
100
AcDbEntity
  8
レイヤー_1
 62
     7
100
AcDbHatch
 10
0.0
 20
0.0
 30
0.0
210
0.0
220
0.0
230
1.0
  2
SOLID
 70
     1
 71
     0
 91
        1
 92
        1
 93
        1
 72
     4
 94
        3
 73
     0
 74
     0
 95
       47
 96
       43
 40
0.0
 40
0.0
 40
0.0
 40
0.0
 40
1.0
 40
1.0
 40
1.0
 40
2.0
 40
2.0
 40
2.0
 40
3.0
 40
3.0
 40
3.0
 40
4.0
 40
4.0
 40
4.0
 40
5.0
 40
5.0
 40
5.0
 40
6.0
 40
6.0
 40
6.0
 40
7.0
 40
7.0
 40
7.0
 40
8.0
 40
8.0
 40
8.0
 40
9.0
 40
9.0
 40
9.0
 40
10.0
 40
10.0
 40
10.0
 40
11.0
 40
11.0
 40
11.0
 40
12.0
 40
12.0
 40
12.0
 40
13.0
 40
13.0
 40
13.0
 40
14.0
 40
14.0
 40
14.0
 40
14.0
 10
29.184781901041664
 20
7.7003051757812493
 10
29.648491753472218
 20
7.5108249240451386
 10
29.992312282986109
 20
7.3385701497395823
 10
30.418815104166665
 20
7.0174872504340273
 10
30.66892903645833
 20
7.3681979709201384
 10
30.829470486111109
 20
7.7065063476562496
 10
30.976920572916665
 20
8.2287828233506932
 10
30.976920572916665
 20
8.2287828233506932
 10
29.261952039930552
 20
8.2287828233506932
 10
29.261952039930552
 20
8.2287828233506932
 10
28.787906901041666
 20
7.6293362087673602
 10
28.270453559027775
 20
7.1780287000868048
 10
27.659982638888888
 20
6.8280069986979157
 10
27.659982638888888
 20
6.8280069986979157
 10
27.054334852430554
 20
7.5156480577256941
 10
27.054334852430554
 20
7.5156480577256941
 10
28.152631293402774
 20
8.1040703667534721
 10
28.681108940972219
 20
8.8275404188368043
 10
29.066270616319443
 20
9.8190388997395832
 10
29.066270616319443
 20
9.8190388997395832
 10
30.081195746527776
 20
9.68812527126736
 10
30.081195746527776
 20
9.68812527126736
 10
30.009537760416663
 20
9.4752183702256936
 10
29.962684461805551
 20
9.3622192382812486
 10
29.83177083333333
 20
9.0955688476562493
 10
29.83177083333333
 20
9.0955688476562493
 10
32.146874999999994
 20
9.0955688476562493
 10
32.146874999999994
 20
9.0955688476562493
 10
31.743109809027775
 20
6.5365519205729159
 10
30.401589626736108
 20
5.0530938042534714
 10
27.926633029513887
 20
4.4708726671006938
 10
27.926633029513887
 20
4.4708726671006938
 10
27.42227105034722
 20
5.3211222330729164
 10
27.42227105034722
 20
5.3211222330729164
 10
27.801920572916664
 20
5.3858900282118052
 10
28.734163411458329
 20
5.5402303059895832
 10
29.731174045138886
 20
6.3112426757812496
 10
29.214409722222218
 20
6.7274102105034714
 10
28.798931206597221
 20
6.9348049587673604
 10
28.555707465277774
 20
7.0588283962673604
 10
28.555707465277774
 20
7.0588283962673604
 10
29.184781901041664
 20
7.7003051757812493
 10
29.184781901041664
 20
7.7003051757812493
 97
        0
 75
     2
 76
     1
 98
        1
 10
0.0
 20
0.0
  0
HATCH
  5
4A
100
AcDbEntity
  8
レイヤー_1
 62
     7
100
AcDbHatch
 10
0.0
 20
0.0
 30
0.0
210
0.0
220
0.0
230
1.0
  2
SOLID
 70
     1
 71
     0
 91
        1
 92
        1
 93
        1
 72
     4
 94
        3
 73
     0
 74
     0
 95
       68
 96
       64
 40
0.0
 40
0.0
 40
0.0
 40
0.0
 40
1.0
 40
1.0
 40
1.0
 40
2.0
 40
2.0
 40
2.0
 40
3.0
 40
3.0
 40
3.0
 40
4.0
 40
4.0
 40
4.0
 40
5.0
 40
5.0
 40
5.0
 40
6.0
 40
6.0
 40
6.0
 40
7.0
 40
7.0
 40
7.0
 40
8.0
 40
8.0
 40
8.0
 40
9.0
 40
9.0
 40
9.0
 40
10.0
 40
10.0
 40
10.0
 40
11.0
 40
11.0
 40
11.0
 40
12.0
 40
12.0
 40
12.0
 40
13.0
 40
13.0
 40
13.0
 40
14.0
 40
14.0
 40
14.0
 40
15.0
 40
15.0
 40
15.0
 40
16.0
 40
16.0
 40
16.0
 40
17.0
 40
17.0
 40
17.0
 40
18.0
 40
18.0
 40
18.0
 40
19.0
 40
19.0
 40
19.0
 40
20.0
 40
20.0
 40
20.0
 40
21.0
 40
21.0
 40
21.0
 40
21.0
 10
37.68521050347222
 20
8.7042060004340271
 10
37.68521050347222
 20
8.7042060004340271
 10
37.68521050347222
 20
7.7953898111979161
 10
37.68521050347222
 20
7.7953898111979161
 10
37.68521050347222
 20
7.166315375434027
 10
37.631467013888887
 20
5.955708821614583
 10
37.523980034722221
 20
5.480974663628472
 10
37.328987630208331
 20
4.6203898111979163
 10
36.83013780381944
 20
4.5432196723090277
 10
36.301660156249994
 20
4.5432196723090277
 10
35.720128038194439
 20
4.5432196723090277
 10
35.428672960069441
 20
4.6079874674479164
 10
35.275021701388887
 20
4.643816460503472
 10
35.275021701388887
 20
4.643816460503472
 10
35.221967230902777
 20
5.5753702799479159
 10
35.221967230902777
 20
5.5753702799479159
 10
35.441075303819439
 20
5.5347181532118048
 10
35.773871527777771
 20
5.4747734917534716
 10
36.129405381944444
 20
5.4747734917534716
 10
36.41397026909722
 20
5.4747734917534716
 10
36.526969401041661
 20
5.5402303059895832
 10
36.5869140625
 20
5.7000827365451388
 10
36.686821831597221
 20
6.0204766167534718
 10
36.734364149305556
 20
7.3613077799479161
 10
36.734364149305556
 20
7.5046237521701382
 10
36.734364149305556
 20
7.5046237521701382
 10
36.734364149305556
 20
7.8139933268229163
 10
36.734364149305556
 20
7.8139933268229163
 10
36.734364149305556
 20
7.8139933268229163
 10
35.441075303819439
 20
7.8139933268229163
 10
35.441075303819439
 20
7.8139933268229163
 10
35.316362847222216
 20
7.0891452365451384
 10
35.12068142361111
 20
6.5668687608506939
 10
34.89468315972222
 20
6.1513902452256941
 10
34.348980034722217
 20
5.1419772677951388
 10
33.624820963541666
 20
4.6906697591145825
 10
33.327853732638886
 20
4.5067016601562493
 10
33.327853732638886
 20
4.5067016601562493
 10
32.674663628472217
 20
5.2253485785590277
 10
32.674663628472217
 20
5.2253485785590277
 10
33.874245876736111
 20
5.8895629882812495
 10
34.241493055555551
 20
6.638526746961805
 10
34.455088975694444
 20
7.8139933268229163
 10
34.455088975694444
 20
7.8139933268229163
 10
32.953716362847217
 20
7.8139933268229163
 10
32.953716362847217
 20
7.8139933268229163
 10
32.953716362847217
 20
7.8139933268229163
 10
32.953716362847217
 20
8.7042060004340271
 10
32.953716362847217
 20
8.7042060004340271
 10
32.953716362847217
 20
8.7042060004340271
 10
34.56257595486111
 20
8.7042060004340271
 10
34.56257595486111
 20
8.7042060004340271
 10
34.591514756944441
 20
9.1017700195312496
 10
34.598404947916663
 20
9.3505059136284707
 10
34.598404947916663
 20
9.7308444552951379
 10
34.598404947916663
 20
9.7308444552951379
 10
35.600927734374999
 20
9.7184421115451372
 10
35.600927734374999
 20
9.7184421115451372
 10
35.583013237847219
 20
9.2078789605034714
 10
35.565787760416661
 20
9.0004842122395825
 10
35.542361111111106
 20
8.7042060004340271
 10
35.542361111111106
 20
8.7042060004340271
 10
37.68521050347222
 20
8.7042060004340271
 10
37.68521050347222
 20
8.7042060004340271
 97
        0
 75
     2
 76
     1
 98
        1
 10
0.0
 20
0.0
  0
HATCH
  5
49
100
AcDbEntity
  8
レイヤー_1
 62
     7
100
AcDbHatch
 10
0.0
 20
0.0
 30
0.0
210
0.0
220
0.0
230
1.0
  2
SOLID
 70
     1
 71
     0
 91
        3
 92
        1
 93
        1
 72
     4
 94
        3
 73
     0
 74
     0
 95
       17
 96
       13
 40
0.0
 40
0.0
 40
0.0
 40
0.0
 40
1.0
 40
1.0
 40
1.0
 40
2.0
 40
2.0
 40
2.0
 40
3.0
 40
3.0
 40
3.0
 40
4.0
 40
4.0
 40
4.0
 40
4.0
 10
38.806244574652773
 20
5.5808824327256943
 10
40.675553385416663
 20
5.7483140733506941
 10
41.981933593749993
 20
6.0914455837673609
 10
42.789463975694439
 20
8.7986016167534711
 10
42.789463975694439
 20
8.7986016167534711
 10
43.685188802083331
 20
8.3714097764756943
 10
43.685188802083331
 20
8.3714097764756943
 10
42.724007161458331
 20
5.5161146375868046
 10
41.263286675347217
 20
4.8277845594618052
 10
39.066693793402777
 20
4.560445149739583
 10
39.066693793402777
 20
4.560445149739583
 10
38.806244574652773
 20
5.5808824327256943
 10
38.806244574652773
 20
5.5808824327256943
 97
        0
 92
        1
 93
        1
 72
     4
 94
        3
 73
     0
 74
     0
 95
       17
 96
       13
 40
0.0
 40
0.0
 40
0.0
 40
0.0
 40
1.0
 40
1.0
 40
1.0
 40
2.0
 40
2.0
 40
2.0
 40
3.0
 40
3.0
 40
3.0
 40
4.0
 40
4.0
 40
4.0
 40
4.0
 10
40.242849392361109
 20
6.7094957139756941
 10
39.732286241319443
 20
6.9940606011284716
 10
39.12043728298611
 20
7.2310831705729157
 10
38.492051866319443
 20
7.4040269639756939
 10
38.492051866319443
 20
7.4040269639756939
 10
38.824159071180553
 20
8.1984659830729161
 10
38.824159071180553
 20
8.1984659830729161
 10
39.287179904513884
 20
8.1040703667534721
 10
40.040966796874997
 20
7.8670477973090271
 10
40.605273437499996
 20
7.558367241753472
 10
40.605273437499996
 20
7.558367241753472
 10
40.242849392361109
 20
6.7094957139756941
 10
40.242849392361109
 20
6.7094957139756941
 97
        0
 92
        1
 93
        1
 72
     4
 94
        3
 73
     0
 74
     0
 95
       17
 96
       13
 40
0.0
 40
0.0
 40
0.0
 40
0.0
 40
1.0
 40
1.0
 40
1.0
 40
2.0
 40
2.0
 40
2.0
 40
3.0
 40
3.0
 40
3.0
 40
4.0
 40
4.0
 40
4.0
 40
4.0
 10
40.765125868055549
 20
8.1392103407118039
 10
40.189105902777776
 20
8.436866590711805
 10
39.572433810763883
 20
8.6380601671006936
 10
38.948871527777776
 20
8.7924004448784707
 10
38.948871527777776
 20
8.7924004448784707
 10
39.287179904513884
 20
9.5813273111979154
 10
39.287179904513884
 20
9.5813273111979154
 10
39.85079752604166
 20
9.4752183702256936
 10
40.563243272569444
 20
9.2616224500868043
 10
41.139263237847217
 20
8.9825697157118043
 10
41.139263237847217
 20
8.9825697157118043
 10
40.765125868055549
 20
8.1392103407118039
 10
40.765125868055549
 20
8.1392103407118039
 97
        0
 75
     2
 76
     1
 98
        1
 10
0.0
 20
0.0
  0
HATCH
  5
48
100
AcDbEntity
  8
レイヤー_1
 62
     7
100
AcDbHatch
 10
0.0
 20
0.0
 30
0.0
210
0.0
220
0.0
230
1.0
  2
SOLID
 70
     1
 71
     0
 91
        1
 92
        3
 72
     0
 73
     1
 93
       12
 10
47.924034288194441
 20
8.5195488823784711
 10
47.924034288194441
 20
4.6617309570312493
 10
44.290836588541666
 20
4.6617309570312493
 10
44.290836588541666
 20
5.480974663628472
 10
47.020730251736104
 20
5.480974663628472
 10
47.020730251736104
 20
6.2285603841145827
 10
44.445176866319443
 20
6.2285603841145827
 10
44.445176866319443
 20
7.0119750976562489
 10
47.020730251736104
 20
7.0119750976562489
 10
47.020730251736104
 20
7.7189086914062495
 10
44.350092230902774
 20
7.7189086914062495
 10
44.350092230902774
 20
8.5195488823784711
 97
        0
 75
     2
 76
     1
 98
        1
 10
0.0
 20
0.0
  0
HATCH
  5
47
100
AcDbEntity
  8
レイヤー_1
 62
     7
100
AcDbHatch
 10
0.0
 20
0.0
 30
0.0
210
0.0
220
0.0
230
1.0
  2
SOLID
 70
     1
 71
     0
 91
        1
 92
        3
 72
     0
 73
     1
 93
        4
 10
53.175737847222216
 20
7.48670925564236
 10
53.175737847222216
 20
6.7391235351562493
 10
48.77152777777777
 20
6.7391235351562493
 10
48.77152777777777
 20
7.48670925564236
 97
        0
 75
     2
 76
     1
 98
        1
 10
0.0
 20
0.0
  0
ENDBLK
  5
75
100
AcDbEntity
  8
レイヤー_1
100
AcDbBlockEnd
  0
BLOCK
  5
52
100
AcDbEntity
  8
レイヤー_1
 62
     7
100
AcDbBlockBegin
  2
AI9-BLK7
 70
     0
 10
0.0
 20
0.0
 30
0.0
  3
AI9-BLK7
  1

  0
MTEXT
  5
5C
100
AcDbEntity
  8
レイヤー_1
 62
     7
100
AcDbMText
 10
-18.209052
 20
3.733332
 30
0.0
 40
2.849493
 41
0.0
 71
     1
 72
     2
  1
\fHGPGothicE|b0|i0|c128;\H2.8495;\C7;\U+FF10\U+FF17\U+FF13
  7
STD
210
0.0
220
0.0
230
1.0
 73
     1
 44
1.0
  0
MTEXT
  5
5B
100
AcDbEntity
  8
レイヤー_1
 62
     7
100
AcDbMText
 10
-10.470679
 20
3.733332
 30
0.0
 40
2.849493
 41
0.0
 71
     1
 72
     2
  1
\fHGPGothicE|b0|i0|c128;\H2.8495;\C7;\U+002D
  7
STD
210
0.0
220
0.0
230
1.0
 73
     1
 44
1.0
  0
MTEXT
  5
5A
100
AcDbEntity
  8
レイヤー_1
 62
     7
100
AcDbMText
 10
-9.088162
 20
3.733332
 30
0.0
 40
2.849493
 41
0.0
 71
     1
 72
     2
  1
\fHGPGothicE|b0|i0|c128;\H2.8495;\C7;\U+FF14\U+FF18\U+FF12
  7
STD
210
0.0
220
0.0
230
1.0
 73
     1
 44
1.0
  0
MTEXT
  5
59
100
AcDbEntity
  8
レイヤー_1
 62
     7
100
AcDbMText
 10
-1.349788
 20
3.733332
 30
0.0
 40
2.849493
 41
0.0
 71
     1
 72
     2
  1
\fHGPGothicE|b0|i0|c128;\H2.8495;\C7;\U+002D
  7
STD
210
0.0
220
0.0
230
1.0
 73
     1
 44
1.0
  0
MTEXT
  5
58
100
AcDbEntity
  8
レイヤー_1
 62
     7
100
AcDbMText
 10
0.032728
 20
3.733332
 30
0.0
 40
2.849493
 41
0.0
 71
     1
 72
     2
  1
\fHGPGothicE|b0|i0|c128;\H2.8495;\C7;\U+FF14\U+FF11\U+FF12\U+FF18\U+FF08\U+4EE3\U+FF09
  7
STD
210
0.0
220
0.0
230
1.0
 73
     1
 44
1.0
  0
MTEXT
  5
57
100
AcDbEntity
  8
レイヤー_1
 62
     7
100
AcDbMText
 10
-18.209052
 20
-0.801791
 30
0.0
 40
2.849493
 41
0.0
 71
     1
 72
     2
  1
\fHGPGothicE|b0|i0|c128;\H2.8495;\C7;\U+FF10\U+FF17\U+FF13
  7
STD
210
0.0
220
0.0
230
1.0
 73
     1
 44
1.0
  0
MTEXT
  5
56
100
AcDbEntity
  8
レイヤー_1
 62
     7
100
AcDbMText
 10
-10.470679
 20
-0.801791
 30
0.0
 40
2.849493
 41
0.0
 71
     1
 72
     2
  1
\fHGPGothicE|b0|i0|c128;\H2.8495;\C7;\U+002D
  7
STD
210
0.0
220
0.0
230
1.0
 73
     1
 44
1.0
  0
MTEXT
  5
55
100
AcDbEntity
  8
レイヤー_1
 62
     7
100
AcDbMText
 10
-9.088162
 20
-0.801791
 30
0.0
 40
2.849493
 41
0.0
 71
     1
 72
     2
  1
\fHGPGothicE|b0|i0|c128;\H2.8495;\C7;\U+FF14\U+FF18\U+FF16
  7
STD
210
0.0
220
0.0
230
1.0
 73
     1
 44
1.0
  0
MTEXT
  5
54
100
AcDbEntity
  8
レイヤー_1
 62
     7
100
AcDbMText
 10
-1.349788
 20
-0.801791
 30
0.0
 40
2.849493
 41
0.0
 71
     1
 72
     2
  1
\fHGPGothicE|b0|i0|c128;\H2.8495;\C7;\U+002D
  7
STD
210
0.0
220
0.0
230
1.0
 73
     1
 44
1.0
  0
MTEXT
  5
53
100
AcDbEntity
  8
レイヤー_1
 62
     7
100
AcDbMText
 10
0.032728
 20
-0.801791
 30
0.0
 40
2.849493
 41
0.0
 71
     1
 72
     2
  1
\fHGPGothicE|b0|i0|c128;\H2.8495;\C7;\U+FF12\U+FF15\U+FF16\U+FF10\U+FF08\U+4EE3\U+FF09
  7
STD
210
0.0
220
0.0
230
1.0
 73
     1
 44
1.0
  0
ENDBLK
  5
5D
100
AcDbEntity
  8
レイヤー_1
100
AcDbBlockEnd
  0
BLOCK
  5
60
100
AcDbEntity
  8
レイヤー_1
 62
     7
100
AcDbBlockBegin
  2
AI9-BLK8
 70
     0
 10
0.0
 20
0.0
 30
0.0
  3
AI9-BLK8
  1

  0
MTEXT
  5
67
100
AcDbEntity
  8
レイヤー_1
 62
     7
100
AcDbMText
 10
-23.486938
 20
6.000894
 30
0.0
 40
2.849493
 41
0.0
 71
     1
 72
     2
  1
\fHGPGothicE|b0|i0|c128;\H2.8495;\C7;\U+548C\U+6B4C\U+5C71\U+770C\U+6D77\U+5357\U+5E02\U+5357\U+8D64\U+5742\U+FF12\U+FF10
  7
STD
210
0.0
220
0.0
230
1.0
 73
     1
 44
1.0
  0
MTEXT
  5
66
100
AcDbEntity
  8
レイヤー_1
 62
     7
100
AcDbMText
 10
19.746943
 20
6.000894
 30
0.0
 40
2.849493
 41
0.0
 71
     1
 72
     2
  1
\fHGPGothicE|b0|i0|c128;\H2.8495;\C7;\U+002D
  7
STD
210
0.0
220
0.0
230
1.0
 73
     1
 44
1.0
  0
MTEXT
  5
65
100
AcDbEntity
  8
レイヤー_1
 62
     7
100
AcDbMText
 10
21.018528
 20
6.000894
 30
0.0
 40
2.849493
 41
0.0
 71
     1
 72
     2
  1
\fHGPGothicE|b0|i0|c128;\H2.8495;\C7;\U+FF11
  7
STD
210
0.0
220
0.0
230
1.0
 73
     1
 44
1.0
  0
MTEXT
  5
64
100
AcDbEntity
  8
レイヤー_1
 62
     7
100
AcDbMText
 10
-23.486938
 20
1.46577
 30
0.0
 40
2.849493
 41
0.0
 71
     1
 72
     2
  1
\fHGPGothicE|b0|i0|c128;\H2.8495;\C7;\U+FF34\U+FF25\U+FF2C
  7
STD
210
0.0
220
0.0
230
1.0
 73
     1
 44
1.0
  0
MTEXT
  5
63
100
AcDbEntity
  8
レイヤー_1
 62
     7
100
AcDbMText
 10
-15.378906
 20
1.46577
 30
0.0
 40
2.849493
 41
0.0
 71
     1
 72
     2
  1
\fHGPGothicE|b0|i0|c128;\H2.8495;\C7;\U+002E\U+0020\U+0020
  7
STD
210
0.0
220
0.0
230
1.0
 73
     1
 44
1.0
  0
MTEXT
  5
62
100
AcDbEntity
  8
レイヤー_1
 62
     7
100
AcDbMText
 10
-23.486938
 20
-3.069353
 30
0.0
 40
2.849493
 41
0.0
 71
     1
 72
     2
  1
\fHGPGothicE|b0|i0|c128;\H2.8495;\C7;\U+FF26\U+FF21\U+FF38
  7
STD
210
0.0
220
0.0
230
1.0
 73
     1
 44
1.0
  0
MTEXT
  5
61
100
AcDbEntity
  8
レイヤー_1
 62
     7
100
AcDbMText
 10
-14.465956
 20
-3.069353
 30
0.0
 40
2.849493
 41
0.0
 71
     1
 72
     2
  1
\fHGPGothicE|b0|i0|c128;\H2.8495;\C7;\U+002E\U+0020
  7
STD
210
0.0
220
0.0
230
1.0
 73
     1
 44
1.0
  0
ENDBLK
  5
68
100
AcDbEntity
  8
レイヤー_1
100
AcDbBlockEnd
  0
BLOCK
  5
83
100
AcDbEntity
  8
レイヤー_1
 62
     7
100
AcDbBlockBegin
  2
AI9-BLK9
 70
     0
 10
0.0
 20
0.0
 30
0.0
  3
AI9-BLK9
  1

  0
MTEXT
  5
84
100
AcDbEntity
  8
レイヤー_1
 62
     7
100
AcDbMText
 10
-0.754115
 20
2.789552
 30
0.0
 40
2.75533
 41
0.0
 71
     1
 72
     2
  1
\fMS Gothic|b0|i0|c128;\H2.7553;\C7;\U+0052\U+0031\U+0030
  7
STD
210
0.0
220
0.0
230
1.0
 11
0.70093
 21
-0.71323
 31
0.0
 73
     1
 44
1.0
  0
ENDBLK
  5
85
100
AcDbEntity
  8
レイヤー_1
100
AcDbBlockEnd
  0
BLOCK
  5
94
100
AcDbEntity
  8
レイヤー_1
 62
     7
100
AcDbBlockBegin
  2
AI9-BLK10
 70
     0
 10
0.0
 20
0.0
 30
0.0
  3
AI9-BLK10
  1

  0
MTEXT
  5
95
100
AcDbEntity
  8
レイヤー_1
 62
     7
100
AcDbMText
 10
-0.731981
 20
2.791906
 30
0.0
 40
2.755235
 41
0.0
 71
     1
 72
     2
  1
\fMS Gothic|b0|i0|c128;\H2.7552;\C7;\U+0052\U+0031\U+0030
  7
STD
210
0.0
220
0.0
230
0.9999999999999999
 11
0.6959
 21
-0.7181
 31
0.0
 73
     1
 44
1.0
  0
ENDBLK
  5
96
100
AcDbEntity
  8
レイヤー_1
100
AcDbBlockEnd
  0
BLOCK
  5
AA
100
AcDbEntity
  8
レイヤー_1
 62
     7
100
AcDbBlockBegin
  2
AI9-BLK11
 70
     0
 10
0.0
 20
0.0
 30
0.0
  3
AI9-BLK11
  1

  0
MTEXT
  5
AC
100
AcDbEntity
  8
レイヤー_1
 62
     7
100
AcDbMText
 10
-3.904934
 20
0.691518
 30
0.0
 40
2.755666
 41
0.0
 71
     1
 72
     2
  1
\fMS Gothic|b0|i0|c128;\H2.7557;\C7;\U+03C6
  7
STD
210
0.0
220
0.0
230
1.0
 11
0.981959
 21
0.189092
 31
0.0
 73
     1
 44
1.0
  0
MTEXT
  5
AB
100
AcDbEntity
  8
レイヤー_1
 62
     7
100
AcDbMText
 10
-0.267946
 20
1.391906
 30
0.0
 40
2.755666
 41
0.0
 71
     1
 72
     2
  1
\fMS Gothic|b0|i0|c128;\H2.7557;\C7;\U+0031\U+0032
  7
STD
210
0.0
220
0.0
230
1.0
 11
0.981959
 21
0.189092
 31
0.0
 73
     1
 44
1.0
  0
ENDBLK
  5
AD
100
AcDbEntity
  8
レイヤー_1
100
AcDbBlockEnd
  0
BLOCK
  5
B6
100
AcDbEntity
  8
レイヤー_1
 62
     7
100
AcDbBlockBegin
  2
AI9-BLK12
 70
     0
 10
0.0
 20
0.0
 30
0.0
  3
AI9-BLK12
  1

  0
MTEXT
  5
B7
100
AcDbEntity
  8
レイヤー_1
 62
     7
100
AcDbMText
 10
-2.220657
 20
-0.215542
 30
0.0
 40
2.75644
 41
0.0
 71
     1
 72
     2
  1
\fMS Gothic|b0|i0|c128;\H2.7564;\C7;\U+0038\U+0030
  7
STD
210
0.0
220
0.0
230
0.9999999999999999
 11
0.707107
 21
0.707107
 31
0.0
 73
     1
 44
1.0
  0
ENDBLK
  5
B8
100
AcDbEntity
  8
レイヤー_1
100
AcDbBlockEnd
  0
BLOCK
  5
CF
100
AcDbEntity
  8
レイヤー_1
 62
     7
100
AcDbBlockBegin
  2
AI9-BLK13
 70
     0
 10
0.0
 20
0.0
 30
0.0
  3
AI9-BLK13
  1

  0
MTEXT
  5
D0
100
AcDbEntity
  8
レイヤー_1
 62
     7
100
AcDbMText
 10
-2.778383
 20
1.41776
 30
0.0
 40
2.756352
 41
0.0
 71
     1
 72
     2
  1
\fMS Gothic|b0|i0|c128;\H2.7564;\C7;\U+0031\U+0030\U+0030
  7
STD
210
0.0
220
0.0
230
1.0
 73
     1
 44
1.0
  0
ENDBLK
  5
D1
100
AcDbEntity
  8
レイヤー_1
100
AcDbBlockEnd
  0
BLOCK
  5
ED
100
AcDbEntity
  8
レイヤー_1
 62
     7
100
AcDbBlockBegin
  2
AI9-BLK14
 70
     0
 10
0.0
 20
0.0
 30
0.0
  3
AI9-BLK14
  1

  0
MTEXT
  5
EE
100
AcDbEntity
  8
レイヤー_1
 62
     7
100
AcDbMText
 10
-1.41776
 20
-2.77847
 30
0.0
 40
2.756352
 41
0.0
 71
     1
 72
     2
  1
\fMS Gothic|b0|i0|c128;\H2.7564;\C7;\U+0033\U+0034\U+0038
  7
STD
210
0.0
220
0.0
230
1.0
 11
0.0
 21
1.0
 31
0.0
 73
     1
 44
1.0
  0
ENDBLK
  5
EF
100
AcDbEntity
  8
レイヤー_1
100
AcDbBlockEnd
  0
BLOCK
  5
101
100
AcDbEntity
  8
レイヤー_1
 62
     7
100
AcDbBlockBegin
  2
AI9-BLK15
 70
     0
 10
0.0
 20
0.0
 30
0.0
  3
AI9-BLK15
  1

  0
MTEXT
  5
102
100
AcDbEntity
  8
レイヤー_1
 62
     7
100
AcDbMText
 10
-1.852256
 20
1.41776
 30
0.0
 40
2.756352
 41
0.0
 71
     1
 72
     2
  1
\fMS Gothic|b0|i0|c128;\H2.7564;\C7;\U+0039\U+0030
  7
STD
210
0.0
220
0.0
230
1.0
 73
     1
 44
1.0
  0
ENDBLK
  5
103
100
AcDbEntity
  8
レイヤー_1
100
AcDbBlockEnd
  0
BLOCK
  5
115
100
AcDbEntity
  8
レイヤー_1
 62
     7
100
AcDbBlockBegin
  2
AI9-BLK16
 70
     0
 10
0.0
 20
0.0
 30
0.0
  3
AI9-BLK16
  1

  0
MTEXT
  5
116
100
AcDbEntity
  8
レイヤー_1
 62
     7
100
AcDbMText
 10
-1.41776
 20
-2.77847
 30
0.0
 40
2.756352
 41
0.0
 71
     1
 72
     2
  1
\fMS Gothic|b0|i0|c128;\H2.7564;\C7;\U+0033\U+0034\U+0038
  7
STD
210
0.0
220
0.0
230
1.0
 11
0.0
 21
1.0
 31
0.0
 73
     1
 44
1.0
  0
ENDBLK
  5
117
100
AcDbEntity
  8
レイヤー_1
100
AcDbBlockEnd
  0
BLOCK
  5
129
100
AcDbEntity
  8
レイヤー_1
 62
     7
100
AcDbBlockBegin
  2
AI9-BLK17
 70
     0
 10
0.0
 20
0.0
 30
0.0
  3
AI9-BLK17
  1

  0
MTEXT
  5
12A
100
AcDbEntity
  8
レイヤー_1
 62
     7
100
AcDbMText
 10
-2.77847
 20
1.41776
 30
0.0
 40
2.756352
 41
0.0
 71
     1
 72
     2
  1
\fMS Gothic|b0|i0|c128;\H2.7564;\C7;\U+0033\U+0030\U+0030
  7
STD
210
0.0
220
0.0
230
1.0
 73
     1
 44
1.0
  0
ENDBLK
  5
12B
100
AcDbEntity
  8
レイヤー_1
100
AcDbBlockEnd
  0
BLOCK
  5
13D
100
AcDbEntity
  8
レイヤー_1
 62
     7
100
AcDbBlockBegin
  2
AI9-BLK18
 70
     0
 10
0.0
 20
0.0
 30
0.0
  3
AI9-BLK18
  1

  0
MTEXT
  5
13E
100
AcDbEntity
  8
レイヤー_1
 62
     7
100
AcDbMText
 10
-2.778383
 20
1.41776
 30
0.0
 40
2.756352
 41
0.0
 71
     1
 72
     2
  1
\fMS Gothic|b0|i0|c128;\H2.7564;\C7;\U+0033\U+0030\U+0030
  7
STD
210
0.0
220
0.0
230
1.0
 73
     1
 44
1.0
  0
ENDBLK
  5
13F
100
AcDbEntity
  8
レイヤー_1
100
AcDbBlockEnd
  0
BLOCK
  5
151
100
AcDbEntity
  8
レイヤー_1
 62
     7
100
AcDbBlockBegin
  2
AI9-BLK19
 70
     0
 10
0.0
 20
0.0
 30
0.0
  3
AI9-BLK19
  1

  0
MTEXT
  5
152
100
AcDbEntity
  8
レイヤー_1
 62
     7
100
AcDbMText
 10
-1.41776
 20
-0.926214
 30
0.0
 40
2.756352
 41
0.0
 71
     1
 72
     2
  1
\fMS Gothic|b0|i0|c128;\H2.7564;\C7;\U+0032
  7
STD
210
0.0
220
0.0
230
1.0
 11
0.0
 21
1.0
 31
0.0
 73
     1
 44
1.0
  0
ENDBLK
  5
153
100
AcDbEntity
  8
レイヤー_1
100
AcDbBlockEnd
  0
BLOCK
  5
17D
100
AcDbEntity
  8
レイヤー_1
 62
     7
100
AcDbBlockBegin
  2
AI9-BLK20
 70
     0
 10
0.0
 20
0.0
 30
0.0
  3
AI9-BLK20
  1

  0
MTEXT
  5
17E
100
AcDbEntity
  8
レイヤー_1
 62
     7
100
AcDbMText
 10
-1.41776
 20
-0.926214
 30
0.0
 40
2.756352
 41
0.0
 71
     1
 72
     2
  1
\fMS Gothic|b0|i0|c128;\H2.7564;\C7;\U+0034
  7
STD
210
0.0
220
0.0
230
1.0
 11
0.0
 21
1.0
 31
0.0
 73
     1
 44
1.0
  0
ENDBLK
  5
17F
100
AcDbEntity
  8
レイヤー_1
100
AcDbBlockEnd
  0
BLOCK
  5
183
100
AcDbEntity
  8
レイヤー_1
 62
     7
100
AcDbBlockBegin
  2
AI9-BLK21
 70
     0
 10
0.0
 20
0.0
 30
0.0
  3
AI9-BLK21
  1

  0
MTEXT
  5
184
100
AcDbEntity
  8
レイヤー_1
 62
     7
100
AcDbMText
 10
-1.41776
 20
-1.852256
 30
0.0
 40
2.756352
 41
0.0
 71
     1
 72
     2
  1
\fMS Gothic|b0|i0|c128;\H2.7564;\C7;\U+0034\U+0030
  7
STD
210
0.0
220
0.0
230
1.0
 11
0.0
 21
1.0
 31
0.0
 73
     1
 44
1.0
  0
ENDBLK
  5
185
100
AcDbEntity
  8
レイヤー_1
100
AcDbBlockEnd
  0
BLOCK
  5
197
100
AcDbEntity
  8
レイヤー_1
 62
     7
100
AcDbBlockBegin
  2
AI9-BLK22
 70
     0
 10
0.0
 20
0.0
 30
0.0
  3
AI9-BLK22
  1

  0
MTEXT
  5
198
100
AcDbEntity
  8
レイヤー_1
 62
     7
100
AcDbMText
 10
-1.41776
 20
-2.77847
 30
0.0
 40
2.756352
 41
0.0
 71
     1
 72
     2
  1
\fMS Gothic|b0|i0|c128;\H2.7564;\C7;\U+0033\U+0030\U+0034
  7
STD
210
0.0
220
0.0
230
1.0
 11
0.0
 21
1.0
 31
0.0
 73
     1
 44
1.0
  0
ENDBLK
  5
199
100
AcDbEntity
  8
レイヤー_1
100
AcDbBlockEnd
  0
BLOCK
  5
1AB
100
AcDbEntity
  8
レイヤー_1
 62
     7
100
AcDbBlockBegin
  2
AI9-BLK23
 70
     0
 10
0.0
 20
0.0
 30
0.0
  3
AI9-BLK23
  1

  0
MTEXT
  5
1AC
100
AcDbEntity
  8
レイヤー_1
 62
     7
100
AcDbMText
 10
-2.778383
 20
1.41776
 30
0.0
 40
2.756352
 41
0.0
 71
     1
 72
     2
  1
\fMS Gothic|b0|i0|c128;\H2.7564;\C7;\U+0031\U+0036\U+0032
  7
STD
210
0.0
220
0.0
230
1.0
 73
     1
 44
1.0
  0
ENDBLK
  5
1AD
100
AcDbEntity
  8
レイヤー_1
100
AcDbBlockEnd
  0
BLOCK
  5
1BF
100
AcDbEntity
  8
レイヤー_1
 62
     7
100
AcDbBlockBegin
  2
AI9-BLK24
 70
     0
 10
0.0
 20
0.0
 30
0.0
  3
AI9-BLK24
  1

  0
MTEXT
  5
1C0
100
AcDbEntity
  8
レイヤー_1
 62
     7
100
AcDbMText
 10
-1.41776
 20
-2.778383
 30
0.0
 40
2.756352
 41
0.0
 71
     1
 72
     2
  1
\fMS Gothic|b0|i0|c128;\H2.7564;\C7;\U+0031\U+0035\U+0030
  7
STD
210
0.0
220
0.0
230
1.0
 11
0.0
 21
1.0
 31
0.0
 73
     1
 44
1.0
  0
ENDBLK
  5
1C1
100
AcDbEntity
  8
レイヤー_1
100
AcDbBlockEnd
  0
BLOCK
  5
1D3
100
AcDbEntity
  8
レイヤー_1
 62
     7
100
AcDbBlockBegin
  2
AI9-BLK25
 70
     0
 10
0.0
 20
0.0
 30
0.0
  3
AI9-BLK25
  1

  0
MTEXT
  5
1D4
100
AcDbEntity
  8
レイヤー_1
 62
     7
100
AcDbMText
 10
-2.778383
 20
1.41776
 30
0.0
 40
2.756352
 41
0.0
 71
     1
 72
     2
  1
\fMS Gothic|b0|i0|c128;\H2.7564;\C7;\U+0031\U+0035\U+0030
  7
STD
210
0.0
220
0.0
230
1.0
 73
     1
 44
1.0
  0
ENDBLK
  5
1D5
100
AcDbEntity
  8
レイヤー_1
100
AcDbBlockEnd
  0
BLOCK
  5
1E7
100
AcDbEntity
  8
レイヤー_1
 62
     7
100
AcDbBlockBegin
  2
AI9-BLK26
 70
     0
 10
0.0
 20
0.0
 30
0.0
  3
AI9-BLK26
  1

  0
MTEXT
  5
1E8
100
AcDbEntity
  8
レイヤー_1
 62
     7
100
AcDbMText
 10
-1.41776
 20
-2.778383
 30
0.0
 40
2.756352
 41
0.0
 71
     1
 72
     2
  1
\fMS Gothic|b0|i0|c128;\H2.7564;\C7;\U+0033\U+0030\U+0030
  7
STD
210
0.0
220
0.0
230
1.0
 11
0.0
 21
1.0
 31
0.0
 73
     1
 44
1.0
  0
ENDBLK
  5
1E9
100
AcDbEntity
  8
レイヤー_1
100
AcDbBlockEnd
  0
BLOCK
  5
1FB
100
AcDbEntity
  8
レイヤー_1
 62
     7
100
AcDbBlockBegin
  2
AI9-BLK27
 70
     0
 10
0.0
 20
0.0
 30
0.0
  3
AI9-BLK27
  1

  0
MTEXT
  5
1FC
100
AcDbEntity
  8
レイヤー_1
 62
     7
100
AcDbMText
 10
-2.778383
 20
1.41776
 30
0.0
 40
2.756352
 41
0.0
 71
     1
 72
     2
  1
\fMS Gothic|b0|i0|c128;\H2.7564;\C7;\U+0033\U+0030\U+0030
  7
STD
210
0.0
220
0.0
230
1.0
 73
     1
 44
1.0
  0
ENDBLK
  5
1FD
100
AcDbEntity
  8
レイヤー_1
100
AcDbBlockEnd
  0
BLOCK
  5
20F
100
AcDbEntity
  8
レイヤー_1
 62
     7
100
AcDbBlockBegin
  2
AI9-BLK28
 70
     0
 10
0.0
 20
0.0
 30
0.0
  3
AI9-BLK28
  1

  0
MTEXT
  5
211
100
AcDbEntity
  8
レイヤー_1
 62
     7
100
AcDbMText
 10
-2.77847
 20
1.41776
 30
0.0
 40
2.756352
 41
0.0
 71
     1
 72
     2
  1
\fMS Gothic|b0|i0|c128;\H2.7564;\C7;\U+03C6
  7
STD
210
0.0
220
0.0
230
1.0
 73
     1
 44
1.0
  0
MTEXT
  5
210
100
AcDbEntity
  8
レイヤー_1
 62
     7
100
AcDbMText
 10
0.926042
 20
1.41776
 30
0.0
 40
2.756352
 41
0.0
 71
     1
 72
     2
  1
\fMS Gothic|b0|i0|c128;\H2.7564;\C7;\U+0039
  7
STD
210
0.0
220
0.0
230
1.0
 73
     1
 44
1.0
  0
ENDBLK
  5
212
100
AcDbEntity
  8
レイヤー_1
100
AcDbBlockEnd
  0
BLOCK
  5
238
100
AcDbEntity
  8
レイヤー_1
 62
     7
100
AcDbBlockBegin
  2
AI9-BLK29
 70
     0
 10
0.0
 20
0.0
 30
0.0
  3
AI9-BLK29
  1

  0
MTEXT
  5
23A
100
AcDbEntity
  8
レイヤー_1
 62
     7
100
AcDbMText
 10
-3.344819
 20
-1.332088
 30
0.0
 40
2.755944
 41
0.0
 71
     1
 72
     2
  1
\fMS Gothic|b0|i0|c128;\H2.7559;\C7;\U+03C6
  7
STD
210
0.0
220
0.0
230
1.0
 11
0.7083
 21
0.7059
 31
0.0
 73
     1
 44
1.0
  0
MTEXT
  5
239
100
AcDbEntity
  8
レイヤー_1
 62
     7
100
AcDbMText
 10
-1.002154
 20
1.002825
 30
0.0
 40
2.755944
 41
0.0
 71
     1
 72
     2
  1
\fMS Gothic|b0|i0|c128;\H2.7559;\C7;\U+0032\U+0030
  7
STD
210
0.0
220
0.0
230
1.0
 11
0.7083
 21
0.7059
 31
0.0
 73
     1
 44
1.0
  0
ENDBLK
  5
23B
100
AcDbEntity
  8
レイヤー_1
100
AcDbBlockEnd
  0
BLOCK
  5
23F
100
AcDbEntity
  8
レイヤー_1
 62
     7
100
AcDbBlockBegin
  2
AI9-BLK30
 70
     0
 10
0.0
 20
0.0
 30
0.0
  3
AI9-BLK30
  1

  0
MTEXT
  5
240
100
AcDbEntity
  8
レイヤー_1
 62
     7
100
AcDbMText
 10
-1.41776
 20
-0.926214
 30
0.0
 40
2.756352
 41
0.0
 71
     1
 72
     2
  1
\fMS Gothic|b0|i0|c128;\H2.7564;\C7;\U+0034
  7
STD
210
0.0
220
0.0
230
1.0
 11
0.0
 21
1.0
 31
0.0
 73
     1
 44
1.0
  0
ENDBLK
  5
241
100
AcDbEntity
  8
レイヤー_1
100
AcDbBlockEnd
  0
BLOCK
  5
258
100
AcDbEntity
  8
レイヤー_1
 62
     7
100
AcDbBlockBegin
  2
AI9-BLK31
 70
     0
 10
0.0
 20
0.0
 30
0.0
  3
AI9-BLK31
  1

  0
MTEXT
  5
259
100
AcDbEntity
  8
レイヤー_1
 62
     7
100
AcDbMText
 10
-1.41776
 20
-2.77847
 30
0.0
 40
2.756352
 41
0.0
 71
     1
 72
     2
  1
\fMS Gothic|b0|i0|c128;\H2.7564;\C7;\U+0032\U+0034\U+0030
  7
STD
210
0.0
220
0.0
230
1.0
 11
0.0
 21
1.0
 31
0.0
 73
     1
 44
1.0
  0
ENDBLK
  5
25A
100
AcDbEntity
  8
レイヤー_1
100
AcDbBlockEnd
  0
BLOCK
  5
26C
100
AcDbEntity
  8
レイヤー_1
 62
     7
100
AcDbBlockBegin
  2
AI9-BLK32
 70
     0
 10
0.0
 20
0.0
 30
0.0
  3
AI9-BLK32
  1

  0
MTEXT
  5
26D
100
AcDbEntity
  8
レイヤー_1
 62
     7
100
AcDbMText
 10
-1.41776
 20
-2.77847
 30
0.0
 40
2.756352
 41
0.0
 71
     1
 72
     2
  1
\fMS Gothic|b0|i0|c128;\H2.7564;\C7;\U+0032\U+0034\U+0034
  7
STD
210
0.0
220
0.0
230
1.0
 11
0.0
 21
1.0
 31
0.0
 73
     1
 44
1.0
  0
ENDBLK
  5
26E
100
AcDbEntity
  8
レイヤー_1
100
AcDbBlockEnd
  0
BLOCK
  5
293
100
AcDbEntity
  8
レイヤー_1
 62
     7
100
AcDbBlockBegin
  2
AI9-BLK33
 70
     0
 10
0.0
 20
0.0
 30
0.0
  3
AI9-BLK33
  1

  0
MTEXT
  5
294
100
AcDbEntity
  8
レイヤー_1
 62
     7
100
AcDbMText
 10
-25.93175
 20
1.41776
 30
0.0
 40
2.756352
 41
0.0
 71
     1
 72
     2
  1
\fMS Gothic|b0|i0|c128;\H2.7564;\C7;\U+5730\U+4E2D\U+57CB\U+3081\U+8FBC\U+307F\U+7528\U+30B9\U+30C6\U+30F3\U+30EC\U+30B9\U+30DA\U+30B0
  7
STD
210
0.0
220
0.0
230
1.0
 73
     1
 44
1.0
  0
ENDBLK
  5
295
100
AcDbEntity
  8
レイヤー_1
100
AcDbBlockEnd
  0
BLOCK
  5
41D
100
AcDbEntity
  8
レイヤー_1
 62
     7
100
AcDbBlockBegin
  2
AI9-BLK34
 70
     0
 10
0.0
 20
0.0
 30
0.0
  3
AI9-BLK34
  1

  0
MTEXT
  5
41E
100
AcDbEntity
  8
レイヤー_1
 62
     7
100
AcDbMText
 10
-12.7
 20
1.215134
 30
0.0
 40
2.362351
 41
0.0
 71
     1
 72
     2
  1
\fMS Gothic|b0|i0|c128;\H2.3624;\C7;\U+6750\U+8CEA\U+FF0F\U+30B9\U+30C6\U+30F3\U+30EC\U+30B9
  7
STD
210
0.0
220
0.0
230
1.0
 73
     1
 44
1.0
  0
ENDBLK
  5
41F
100
AcDbEntity
  8
レイヤー_1
100
AcDbBlockEnd
  0
BLOCK
  5
422
100
AcDbEntity
  8
レイヤー_1
 62
     7
100
AcDbBlockBegin
  2
AI9-BLK35
 70
     0
 10
0.0
 20
0.0
 30
0.0
  3
AI9-BLK35
  1

  0
MTEXT
  5
424
100
AcDbEntity
  8
レイヤー_1
 62
     7
100
AcDbMText
 10
-10.31875
 20
1.215134
 30
0.0
 40
2.362351
 41
0.0
 71
     1
 72
     2
  1
\fMS Gothic|b0|i0|c128;\H2.3624;\C7;\U+91CD\U+91CF\U+FF0F\U+7D04
  7
STD
210
0.0
220
0.0
230
1.0
 73
     1
 44
1.0
  0
MTEXT
  5
423
100
AcDbEntity
  8
レイヤー_1
 62
     7
100
AcDbMText
 10
2.38125
 20
1.215134
 30
0.0
 40
2.362351
 41
0.0
 71
     1
 72
     2
  1
\fMS Gothic|b0|i0|c128;\H2.3624;\C7;\U+0033\U+002E\U+0035\U+006B\U+0067
  7
STD
210
0.0
220
0.0
230
1.0
 73
     1
 44
1.0
  0
ENDBLK
  5
425
100
AcDbEntity
  8
レイヤー_1
100
AcDbBlockEnd
  0
BLOCK
  5
428
100
AcDbEntity
  8
レイヤー_1
 62
     7
100
AcDbBlockBegin
  2
AI9-BLK36
 70
     0
 10
0.0
 20
0.0
 30
0.0
  3
AI9-BLK36
  1

  0
MTEXT
  5
429
100
AcDbEntity
  8
レイヤー_1
 62
     7
100
AcDbMText
 10
-28.575
 20
1.215134
 30
0.0
 40
2.362351
 41
0.0
 71
     1
 72
     2
  1
\fMS Gothic|b0|i0|c128;\H2.3624;\C7;\U+5730\U+4E2D\U+57CB\U+3081\U+8FBC\U+307F\U+7528\U+30B9\U+30C6\U+30F3\U+30EC\U+30B9\U+30DA\U+30B0\U+3000\U+FF12\U+672C\U+4ED8
  7
STD
210
0.0
220
0.0
230
1.0
 73
     1
 44
1.0
  0
ENDBLK
  5
42A
100
AcDbEntity
  8
レイヤー_1
100
AcDbBlockEnd
  0
BLOCK
  5
42D
100
AcDbEntity
  8
レイヤー_1
 62
     7
100
AcDbBlockBegin
  2
AI9-BLK37
 70
     0
 10
0.0
 20
0.0
 30
0.0
  3
AI9-BLK37
  1

  0
MTEXT
  5
42E
100
AcDbEntity
  8
レイヤー_1
 62
     7
100
AcDbMText
 10
-7.9375
 20
1.215134
 30
0.0
 40
2.362351
 41
0.0
 71
     1
 72
     2
  1
\fMS Gothic|b0|i0|c128;\H2.3624;\C7;\U+0032\U+0030\U+0030\U+0038\U+002E\U+0031\U+0030\U+002E\U+0032\U+0038
  7
STD
210
0.0
220
0.0
230
1.0
 73
     1
 44
1.0
  0
ENDBLK
  5
42F
100
AcDbEntity
  8
レイヤー_1
100
AcDbBlockEnd
  0
BLOCK
  5
432
100
AcDbEntity
  8
レイヤー_1
 62
     7
100
AcDbBlockBegin
  2
AI9-BLK38
 70
     0
 10
0.0
 20
0.0
 30
0.0
  3
AI9-BLK38
  1

  0
MTEXT
  5
433
100
AcDbEntity
  8
レイヤー_1
 62
     7
100
AcDbMText
 10
-7.9375
 20
1.215134
 30
0.0
 40
2.362351
 41
0.0
 71
     1
 72
     2
  1
\fMS Gothic|b0|i0|c128;\H2.3624;\C7;\U+0032\U+0030\U+0030\U+0038\U+002E\U+0031\U+0030\U+002E\U+0032\U+0038
  7
STD
210
0.0
220
0.0
230
1.0
 73
     1
 44
1.0
  0
ENDBLK
  5
434
100
AcDbEntity
  8
レイヤー_1
100
AcDbBlockEnd
  0
BLOCK
  5
437
100
AcDbEntity
  8
レイヤー_1
 62
     7
100
AcDbBlockBegin
  2
AI9-BLK39
 70
     0
 10
0.0
 20
0.0
 30
0.0
  3
AI9-BLK39
  1

  0
MTEXT
  5
438
100
AcDbEntity
  8
レイヤー_1
 62
     7
100
AcDbMText
 10
-4.7625
 20
1.215134
 30
0.0
 40
2.362351
 41
0.0
 71
     1
 72
     2
  1
\fMS Gothic|b0|i0|c128;\H2.3624;\C7;\U+0032\U+0034\U+0037\U+0031\U+0038\U+0039
  7
STD
210
0.0
220
0.0
230
1.0
 73
     1
 44
1.0
  0
ENDBLK
  5
439
100
AcDbEntity
  8
レイヤー_1
100
AcDbBlockEnd
  0
BLOCK
  5
43E
100
AcDbEntity
  8
レイヤー_1
 62
     7
100
AcDbBlockBegin
  2
AI9-BLK40
 70
     0
 10
0.0
 20
0.0
 30
0.0
  3
AI9-BLK40
  1

  0
MTEXT
  5
43F
100
AcDbEntity
  8
レイヤー_1
 62
     7
100
AcDbMText
 10
-1.5875
 20
1.215134
 30
0.0
 40
2.362351
 41
0.0
 71
     1
 72
     2
  1
\fMS Gothic|b0|i0|c128;\H2.3624;\C7;\U+3000
  7
STD
210
0.0
220
0.0
230
1.0
 73
     1
 44
1.0
  0
ENDBLK
  5
440
100
AcDbEntity
  8
レイヤー_1
100
AcDbBlockEnd
  0
BLOCK
  5
450
100
AcDbEntity
  8
レイヤー_1
 62
     7
100
AcDbBlockBegin
  2
AI9-BLK41
 70
     0
 10
0.0
 20
0.0
 30
0.0
  3
AI9-BLK41
  1

  0
MTEXT
  5
451
100
AcDbEntity
  8
レイヤー_1
 62
     7
100
AcDbMText
 10
-1.5875
 20
1.215134
 30
0.0
 40
2.362351
 41
0.0
 71
     1
 72
     2
  1
\fMS Gothic|b0|i0|c128;\H2.3624;\C7;\U+756A
  7
STD
210
0.0
220
0.0
230
1.0
 73
     1
 44
1.0
  0
ENDBLK
  5
452
100
AcDbEntity
  8
レイヤー_1
100
AcDbBlockEnd
  0
BLOCK
  5
455
100
AcDbEntity
  8
レイヤー_1
 62
     7
100
AcDbBlockBegin
  2
AI9-BLK42
 70
     0
 10
0.0
 20
0.0
 30
0.0
  3
AI9-BLK42
  1

  0
MTEXT
  5
456
100
AcDbEntity
  8
レイヤー_1
 62
     7
100
AcDbMText
 10
-1.5875
 20
1.215134
 30
0.0
 40
2.362351
 41
0.0
 71
     1
 72
     2
  1
\fMS Gothic|b0|i0|c128;\H2.3624;\C7;\U+54C1
  7
STD
210
0.0
220
0.0
230
1.0
 73
     1
 44
1.0
  0
ENDBLK
  5
457
100
AcDbEntity
  8
レイヤー_1
100
AcDbBlockEnd
  0
BLOCK
  5
45A
100
AcDbEntity
  8
レイヤー_1
 62
     7
100
AcDbBlockBegin
  2
AI9-BLK43
 70
     0
 10
0.0
 20
0.0
 30
0.0
  3
AI9-BLK43
  1

  0
MTEXT
  5
45B
100
AcDbEntity
  8
レイヤー_1
 62
     7
100
AcDbMText
 10
-1.5875
 20
1.215134
 30
0.0
 40
2.362351
 41
0.0
 71
     1
 72
     2
  1
\fMS Gothic|b0|i0|c128;\H2.3624;\C7;
  7
STD
210
0.0
220
0.0
230
1.0
 73
     1
 44
1.0
  0
ENDBLK
  5
45C
100
AcDbEntity
  8
レイヤー_1
100
AcDbBlockEnd
  0
BLOCK
  5
45F
100
AcDbEntity
  8
レイヤー_1
 62
     7
100
AcDbBlockBegin
  2
AI9-BLK44
 70
     0
 10
0.0
 20
0.0
 30
0.0
  3
AI9-BLK44
  1

  0
MTEXT
  5
460
100
AcDbEntity
  8
レイヤー_1
 62
     7
100
AcDbMText
 10
-3.175
 20
1.215134
 30
0.0
 40
2.362351
 41
0.0
 71
     1
 72
     2
  1
\fMS Gothic|b0|i0|c128;\H2.3624;\C7;\U+3000\U+3000
  7
STD
210
0.0
220
0.0
230
1.0
 73
     1
 44
1.0
  0
ENDBLK
  5
461
100
AcDbEntity
  8
レイヤー_1
100
AcDbBlockEnd
  0
BLOCK
  5
464
100
AcDbEntity
  8
レイヤー_1
 62
     7
100
AcDbBlockBegin
  2
AI9-BLK45
 70
     0
 10
0.0
 20
0.0
 30
0.0
  3
AI9-BLK45
  1

  0
MTEXT
  5
465
100
AcDbEntity
  8
レイヤー_1
 62
     7
100
AcDbMText
 10
-3.175
 20
1.215134
 30
0.0
 40
2.362351
 41
0.0
 71
     1
 72
     2
  1
\fMS Gothic|b0|i0|c128;\H2.3624;\C7;\U+54C1\U+3000
  7
STD
210
0.0
220
0.0
230
1.0
 73
     1
 44
1.0
  0
ENDBLK
  5
466
100
AcDbEntity
  8
レイヤー_1
100
AcDbBlockEnd
  0
BLOCK
  5
469
100
AcDbEntity
  8
レイヤー_1
 62
     7
100
AcDbBlockBegin
  2
AI9-BLK46
 70
     0
 10
0.0
 20
0.0
 30
0.0
  3
AI9-BLK46
  1

  0
MTEXT
  5
46A
100
AcDbEntity
  8
レイヤー_1
 62
     7
100
AcDbMText
 10
-1.5875
 20
1.215134
 30
0.0
 40
2.362351
 41
0.0
 71
     1
 72
     2
  1
\fMS Gothic|b0|i0|c128;\H2.3624;\C7;\U+3000
  7
STD
210
0.0
220
0.0
230
1.0
 73
     1
 44
1.0
  0
ENDBLK
  5
46B
100
AcDbEntity
  8
レイヤー_1
100
AcDbBlockEnd
  0
BLOCK
  5
471
100
AcDbEntity
  8
レイヤー_1
 62
     7
100
AcDbBlockBegin
  2
AI9-BLK47
 70
     0
 10
0.0
 20
0.0
 30
0.0
  3
AI9-BLK47
  1

  0
MTEXT
  5
474
100
AcDbEntity
  8
レイヤー_1
 62
     7
100
AcDbMText
 10
-3.96875
 20
1.215134
 30
0.0
 40
2.362351
 41
0.0
 71
     1
 72
     2
  1
\fMS Gothic|b0|i0|c128;\H2.3624;\C7;\U+82B1
  7
STD
210
0.0
220
0.0
230
1.0
 73
     1
 44
1.0
  0
MTEXT
  5
473
100
AcDbEntity
  8
レイヤー_1
 62
     7
100
AcDbMText
 10
-0.79375
 20
1.215134
 30
0.0
 40
2.362351
 41
0.0
 71
     1
 72
     2
  1
\fMS Gothic|b0|i0|c128;\H2.3624;\C7;\U+0020
  7
STD
210
0.0
220
0.0
230
1.0
 73
     1
 44
1.0
  0
MTEXT
  5
472
100
AcDbEntity
  8
レイヤー_1
 62
     7
100
AcDbMText
 10
0.79375
 20
1.215134
 30
0.0
 40
2.362351
 41
0.0
 71
     1
 72
     2
  1
\fMS Gothic|b0|i0|c128;\H2.3624;\C7;\U+7530
  7
STD
210
0.0
220
0.0
230
1.0
 73
     1
 44
1.0
  0
ENDBLK
  5
475
100
AcDbEntity
  8
レイヤー_1
100
AcDbBlockEnd
  0
BLOCK
  5
478
100
AcDbEntity
  8
レイヤー_1
 62
     7
100
AcDbBlockBegin
  2
AI9-BLK48
 70
     0
 10
0.0
 20
0.0
 30
0.0
  3
AI9-BLK48
  1

  0
MTEXT
  5
479
100
AcDbEntity
  8
レイヤー_1
 62
     7
100
AcDbMText
 10
-1.5875
 20
1.215134
 30
0.0
 40
2.362351
 41
0.0
 71
     1
 72
     2
  1
\fMS Gothic|b0|i0|c128;\H2.3624;\C7;\U+756A
  7
STD
210
0.0
220
0.0
230
1.0
 73
     1
 44
1.0
  0
ENDBLK
  5
47A
100
AcDbEntity
  8
レイヤー_1
100
AcDbBlockEnd
  0
BLOCK
  5
47D
100
AcDbEntity
  8
レイヤー_1
 62
     7
100
AcDbBlockBegin
  2
AI9-BLK49
 70
     0
 10
0.0
 20
0.0
 30
0.0
  3
AI9-BLK49
  1

  0
MTEXT
  5
47E
100
AcDbEntity
  8
レイヤー_1
 62
     7
100
AcDbMText
 10
-3.175
 20
1.215134
 30
0.0
 40
2.362351
 41
0.0
 71
     1
 72
     2
  1
\fMS Gothic|b0|i0|c128;\H2.3624;\C7;\U+56F3\U+3000
  7
STD
210
0.0
220
0.0
230
1.0
 73
     1
 44
1.0
  0
ENDBLK
  5
47F
100
AcDbEntity
  8
レイヤー_1
100
AcDbBlockEnd
  0
BLOCK
  5
482
100
AcDbEntity
  8
レイヤー_1
 62
     7
100
AcDbBlockBegin
  2
AI9-BLK50
 70
     0
 10
0.0
 20
0.0
 30
0.0
  3
AI9-BLK50
  1

  0
MTEXT
  5
483
100
AcDbEntity
  8
レイヤー_1
 62
     7
100
AcDbMText
 10
-1.5875
 20
1.215134
 30
0.0
 40
2.362351
 41
0.0
 71
     1
 72
     2
  1
\fMS Gothic|b0|i0|c128;\H2.3624;\C7;\U+5EA6
  7
STD
210
0.0
220
0.0
230
1.0
 73
     1
 44
1.0
  0
ENDBLK
  5
484
100
AcDbEntity
  8
レイヤー_1
100
AcDbBlockEnd
  0
BLOCK
  5
487
100
AcDbEntity
  8
レイヤー_1
 62
     7
100
AcDbBlockBegin
  2
AI9-BLK51
 70
     0
 10
0.0
 20
0.0
 30
0.0
  3
AI9-BLK51
  1

  0
MTEXT
  5
488
100
AcDbEntity
  8
レイヤー_1
 62
     7
100
AcDbMText
 10
-1.5875
 20
1.215134
 30
0.0
 40
2.362351
 41
0.0
 71
     1
 72
     2
  1
\fMS Gothic|b0|i0|c128;\H2.3624;\C7;\U+5C3A
  7
STD
210
0.0
220
0.0
230
1.0
 73
     1
 44
1.0
  0
ENDBLK
  5
489
100
AcDbEntity
  8
レイヤー_1
100
AcDbBlockEnd
  0
BLOCK
  5
48C
100
AcDbEntity
  8
レイヤー_1
 62
     7
100
AcDbBlockBegin
  2
AI9-BLK52
 70
     0
 10
0.0
 20
0.0
 30
0.0
  3
AI9-BLK52
  1

  0
MTEXT
  5
48F
100
AcDbEntity
  8
レイヤー_1
 62
     7
100
AcDbMText
 10
-3.96875
 20
1.215134
 30
0.0
 40
2.362351
 41
0.0
 71
     1
 72
     2
  1
\fMS Gothic|b0|i0|c128;\H2.3624;\C7;\U+53CB
  7
STD
210
0.0
220
0.0
230
1.0
 73
     1
 44
1.0
  0
MTEXT
  5
48E
100
AcDbEntity
  8
レイヤー_1
 62
     7
100
AcDbMText
 10
-0.79375
 20
1.215134
 30
0.0
 40
2.362351
 41
0.0
 71
     1
 72
     2
  1
\fMS Gothic|b0|i0|c128;\H2.3624;\C7;\U+0020
  7
STD
210
0.0
220
0.0
230
1.0
 73
     1
 44
1.0
  0
MTEXT
  5
48D
100
AcDbEntity
  8
レイヤー_1
 62
     7
100
AcDbMText
 10
0.79375
 20
1.215134
 30
0.0
 40
2.362351
 41
0.0
 71
     1
 72
     2
  1
\fMS Gothic|b0|i0|c128;\H2.3624;\C7;\U+5C45
  7
STD
210
0.0
220
0.0
230
1.0
 73
     1
 44
1.0
  0
ENDBLK
  5
490
100
AcDbEntity
  8
レイヤー_1
100
AcDbBlockEnd
  0
BLOCK
  5
493
100
AcDbEntity
  8
レイヤー_1
 62
     7
100
AcDbBlockBegin
  2
AI9-BLK53
 70
     0
 10
0.0
 20
0.0
 30
0.0
  3
AI9-BLK53
  1

  0
MTEXT
  5
496
100
AcDbEntity
  8
レイヤー_1
 62
     7
100
AcDbMText
 10
-3.96875
 20
1.215134
 30
0.0
 40
2.362351
 41
0.0
 71
     1
 72
     2
  1
\fMS Gothic|b0|i0|c128;\H2.3624;\C7;\U+627F
  7
STD
210
0.0
220
0.0
230
1.0
 73
     1
 44
1.0
  0
MTEXT
  5
495
100
AcDbEntity
  8
レイヤー_1
 62
     7
100
AcDbMText
 10
-0.79375
 20
1.215134
 30
0.0
 40
2.362351
 41
0.0
 71
     1
 72
     2
  1
\fMS Gothic|b0|i0|c128;\H2.3624;\C7;\U+0020
  7
STD
210
0.0
220
0.0
230
1.0
 73
     1
 44
1.0
  0
MTEXT
  5
494
100
AcDbEntity
  8
レイヤー_1
 62
     7
100
AcDbMText
 10
0.79375
 20
1.215134
 30
0.0
 40
2.362351
 41
0.0
 71
     1
 72
     2
  1
\fMS Gothic|b0|i0|c128;\H2.3624;\C7;\U+8A8D
  7
STD
210
0.0
220
0.0
230
1.0
 73
     1
 44
1.0
  0
ENDBLK
  5
497
100
AcDbEntity
  8
レイヤー_1
100
AcDbBlockEnd
  0
BLOCK
  5
49A
100
AcDbEntity
  8
レイヤー_1
 62
     7
100
AcDbBlockBegin
  2
AI9-BLK54
 70
     0
 10
0.0
 20
0.0
 30
0.0
  3
AI9-BLK54
  1

  0
MTEXT
  5
49D
100
AcDbEntity
  8
レイヤー_1
 62
     7
100
AcDbMText
 10
-3.96875
 20
1.215134
 30
0.0
 40
2.362351
 41
0.0
 71
     1
 72
     2
  1
\fMS Gothic|b0|i0|c128;\H2.3624;\C7;\U+691C
  7
STD
210
0.0
220
0.0
230
1.0
 73
     1
 44
1.0
  0
MTEXT
  5
49C
100
AcDbEntity
  8
レイヤー_1
 62
     7
100
AcDbMText
 10
-0.79375
 20
1.215134
 30
0.0
 40
2.362351
 41
0.0
 71
     1
 72
     2
  1
\fMS Gothic|b0|i0|c128;\H2.3624;\C7;\U+0020
  7
STD
210
0.0
220
0.0
230
1.0
 73
     1
 44
1.0
  0
MTEXT
  5
49B
100
AcDbEntity
  8
レイヤー_1
 62
     7
100
AcDbMText
 10
0.79375
 20
1.215134
 30
0.0
 40
2.362351
 41
0.0
 71
     1
 72
     2
  1
\fMS Gothic|b0|i0|c128;\H2.3624;\C7;\U+56F3
  7
STD
210
0.0
220
0.0
230
1.0
 73
     1
 44
1.0
  0
ENDBLK
  5
49E
100
AcDbEntity
  8
レイヤー_1
100
AcDbBlockEnd
  0
BLOCK
  5
4A1
100
AcDbEntity
  8
レイヤー_1
 62
     7
100
AcDbBlockBegin
  2
AI9-BLK55
 70
     0
 10
0.0
 20
0.0
 30
0.0
  3
AI9-BLK55
  1

  0
MTEXT
  5
4A4
100
AcDbEntity
  8
レイヤー_1
 62
     7
100
AcDbMText
 10
-3.96875
 20
1.215134
 30
0.0
 40
2.362351
 41
0.0
 71
     1
 72
     2
  1
\fMS Gothic|b0|i0|c128;\H2.3624;\C7;\U+85E4
  7
STD
210
0.0
220
0.0
230
1.0
 73
     1
 44
1.0
  0
MTEXT
  5
4A3
100
AcDbEntity
  8
レイヤー_1
 62
     7
100
AcDbMText
 10
-0.79375
 20
1.215134
 30
0.0
 40
2.362351
 41
0.0
 71
     1
 72
     2
  1
\fMS Gothic|b0|i0|c128;\H2.3624;\C7;\U+0020
  7
STD
210
0.0
220
0.0
230
1.0
 73
     1
 44
1.0
  0
MTEXT
  5
4A2
100
AcDbEntity
  8
レイヤー_1
 62
     7
100
AcDbMText
 10
0.79375
 20
1.215134
 30
0.0
 40
2.362351
 41
0.0
 71
     1
 72
     2
  1
\fMS Gothic|b0|i0|c128;\H2.3624;\C7;\U+7530
  7
STD
210
0.0
220
0.0
230
1.0
 73
     1
 44
1.0
  0
ENDBLK
  5
4A5
100
AcDbEntity
  8
レイヤー_1
100
AcDbBlockEnd
  0
BLOCK
  5
4A8
100
AcDbEntity
  8
レイヤー_1
 62
     7
100
AcDbBlockBegin
  2
AI9-BLK56
 70
     0
 10
0.0
 20
0.0
 30
0.0
  3
AI9-BLK56
  1

  0
MTEXT
  5
4AB
100
AcDbEntity
  8
レイヤー_1
 62
     7
100
AcDbMText
 10
-3.96875
 20
1.215134
 30
0.0
 40
2.362351
 41
0.0
 71
     1
 72
     2
  1
\fMS Gothic|b0|i0|c128;\H2.3624;\C7;\U+65E5
  7
STD
210
0.0
220
0.0
230
1.0
 73
     1
 44
1.0
  0
MTEXT
  5
4AA
100
AcDbEntity
  8
レイヤー_1
 62
     7
100
AcDbMText
 10
-0.79375
 20
1.215134
 30
0.0
 40
2.362351
 41
0.0
 71
     1
 72
     2
  1
\fMS Gothic|b0|i0|c128;\H2.3624;\C7;\U+0020
  7
STD
210
0.0
220
0.0
230
1.0
 73
     1
 44
1.0
  0
MTEXT
  5
4A9
100
AcDbEntity
  8
レイヤー_1
 62
     7
100
AcDbMText
 10
0.79375
 20
1.215134
 30
0.0
 40
2.362351
 41
0.0
 71
     1
 72
     2
  1
\fMS Gothic|b0|i0|c128;\H2.3624;\C7;\U+4ED8
  7
STD
210
0.0
220
0.0
230
1.0
 73
     1
 44
1.0
  0
ENDBLK
  5
4AC
100
AcDbEntity
  8
レイヤー_1
100
AcDbBlockEnd
  0
BLOCK
  5
4B1
100
AcDbEntity
  8
レイヤー_1
 62
     7
100
AcDbBlockBegin
  2
AI9-BLK57
 70
     0
 10
0.0
 20
0.0
 30
0.0
  3
AI9-BLK57
  1

  0
MTEXT
  5
4B4
100
AcDbEntity
  8
レイヤー_1
 62
     7
100
AcDbMText
 10
-3.96875
 20
1.215134
 30
0.0
 40
2.362351
 41
0.0
 71
     1
 72
     2
  1
\fMS Gothic|b0|i0|c128;\H2.3624;\C7;\U+88FD
  7
STD
210
0.0
220
0.0
230
1.0
 73
     1
 44
1.0
  0
MTEXT
  5
4B3
100
AcDbEntity
  8
レイヤー_1
 62
     7
100
AcDbMText
 10
-0.79375
 20
1.215134
 30
0.0
 40
2.362351
 41
0.0
 71
     1
 72
     2
  1
\fMS Gothic|b0|i0|c128;\H2.3624;\C7;\U+0020
  7
STD
210
0.0
220
0.0
230
1.0
 73
     1
 44
1.0
  0
MTEXT
  5
4B2
100
AcDbEntity
  8
レイヤー_1
 62
     7
100
AcDbMText
 10
0.79375
 20
1.215134
 30
0.0
 40
2.362351
 41
0.0
 71
     1
 72
     2
  1
\fMS Gothic|b0|i0|c128;\H2.3624;\C7;\U+56F3
  7
STD
210
0.0
220
0.0
230
1.0
 73
     1
 44
1.0
  0
ENDBLK
  5
4B5
100
AcDbEntity
  8
レイヤー_1
100
AcDbBlockEnd
  0
BLOCK
  5
4BC
100
AcDbEntity
  8
レイヤー_1
 62
     7
100
AcDbBlockBegin
  2
AI9-BLK58
 70
     0
 10
0.0
 20
0.0
 30
0.0
  3
AI9-BLK58
  1

  0
MTEXT
  5
4BD
100
AcDbEntity
  8
レイヤー_1
 62
     7
100
AcDbMText
 10
-4.7625
 20
1.215134
 30
0.0
 40
2.362351
 41
0.0
 71
     1
 72
     2
  1
\fMS Gothic|b0|i0|c128;\H2.3624;\C7;\U+65E5\U+3000\U+4ED8
  7
STD
210
0.0
220
0.0
230
1.0
 73
     1
 44
1.0
  0
ENDBLK
  5
4BE
100
AcDbEntity
  8
レイヤー_1
100
AcDbBlockEnd
  0
BLOCK
  5
4C1
100
AcDbEntity
  8
レイヤー_1
 62
     7
100
AcDbBlockBegin
  2
AI9-BLK59
 70
     0
 10
0.0
 20
0.0
 30
0.0
  3
AI9-BLK59
  1

  0
INSERT
  5
4C3
100
AcDbEntity
  8
レイヤー_1
 62
     7
100
AcDbBlockReference
  2
AI9-BLK60
 10
0.0
 20
0.0
 30
0.0
  0
ENDBLK
  5
4CB
100
AcDbEntity
  8
レイヤー_1
100
AcDbBlockEnd
  0
BLOCK
  5
4C4
100
AcDbEntity
  8
レイヤー_1
 62
     7
100
AcDbBlockBegin
  2
AI9-BLK60
 70
     0
 10
0.0
 20
0.0
 30
0.0
  3
AI9-BLK60
  1

  0
INSERT
  5
4C6
100
AcDbEntity
  8
レイヤー_1
 62
     7
100
AcDbBlockReference
  2
AI9-BLK61
 10
0.0
 20
0.0
 30
0.0
  0
ENDBLK
  5
4CA
100
AcDbEntity
  8
レイヤー_1
100
AcDbBlockEnd
  0
BLOCK
  5
4C7
100
AcDbEntity
  8
レイヤー_1
 62
     7
100
AcDbBlockBegin
  2
AI9-BLK61
 70
     0
 10
0.0
 20
0.0
 30
0.0
  3
AI9-BLK61
  1

  0
MTEXT
  5
4C8
100
AcDbEntity
  8
レイヤー_1
 62
     7
100
AcDbMText
 10
-4.7625
 20
1.215134
 30
0.0
 40
2.362351
 41
0.0
 71
     1
 72
     2
  1
\fMS Gothic|b0|i0|c128;\H2.3624;\C7;\U+8A18\U+3000\U+4E8B
  7
STD
210
0.0
220
0.0
230
1.0
 73
     1
 44
1.0
  0
ENDBLK
  5
4C9
100
AcDbEntity
  8
レイヤー_1
100
AcDbBlockEnd
  0
BLOCK
  5
4D7
100
AcDbEntity
  8
レイヤー_1
 62
     7
100
AcDbBlockBegin
  2
AI9-BLK62
 70
     0
 10
0.0
 20
0.0
 30
0.0
  3
AI9-BLK62
  1

  0
MTEXT
  5
4D8
100
AcDbEntity
  8
レイヤー_1
 62
     7
100
AcDbMText
 10
-1.5875
 20
1.215134
 30
0.0
 40
2.362351
 41
0.0
 71
     1
 72
     2
  1
\fMS Gothic|b0|i0|c128;\H2.3624;\C7;\U+2462
  7
STD
210
0.0
220
0.0
230
1.0
 73
     1
 44
1.0
  0
ENDBLK
  5
4D9
100
AcDbEntity
  8
レイヤー_1
100
AcDbBlockEnd
  0
BLOCK
  5
4E2
100
AcDbEntity
  8
レイヤー_1
 62
     7
100
AcDbBlockBegin
  2
AI9-BLK63
 70
     0
 10
0.0
 20
0.0
 30
0.0
  3
AI9-BLK63
  1

  0
MTEXT
  5
4E3
100
AcDbEntity
  8
レイヤー_1
 62
     7
100
AcDbMText
 10
-1.5875
 20
1.215134
 30
0.0
 40
2.362351
 41
0.0
 71
     1
 72
     2
  1
\fMS Gothic|b0|i0|c128;\H2.3624;\C7;\U+2460
  7
STD
210
0.0
220
0.0
230
1.0
 73
     1
 44
1.0
  0
ENDBLK
  5
4E4
100
AcDbEntity
  8
レイヤー_1
100
AcDbBlockEnd
  0
BLOCK
  5
4E7
100
AcDbEntity
  8
レイヤー_1
 62
     7
100
AcDbBlockBegin
  2
AI9-BLK64
 70
     0
 10
0.0
 20
0.0
 30
0.0
  3
AI9-BLK64
  1

  0
MTEXT
  5
4E8
100
AcDbEntity
  8
レイヤー_1
 62
     7
100
AcDbMText
 10
-1.5875
 20
1.215134
 30
0.0
 40
2.362351
 41
0.0
 71
     1
 72
     2
  1
\fMS Gothic|b0|i0|c128;\H2.3624;\C7;\U+2461
  7
STD
210
0.0
220
0.0
230
1.0
 73
     1
 44
1.0
  0
ENDBLK
  5
4E9
100
AcDbEntity
  8
レイヤー_1
100
AcDbBlockEnd
  0
BLOCK
  5
4EC
100
AcDbEntity
  8
レイヤー_1
 62
     7
100
AcDbBlockBegin
  2
AI9-BLK65
 70
     0
 10
0.0
 20
0.0
 30
0.0
  3
AI9-BLK65
  1

  0
MTEXT
  5
4ED
100
AcDbEntity
  8
レイヤー_1
 62
     7
100
AcDbMText
 10
-1.5875
 20
1.215134
 30
0.0
 40
2.362351
 41
0.0
 71
     1
 72
     2
  1
\fMS Gothic|b0|i0|c128;\H2.3624;\C7;\U+6B04
  7
STD
210
0.0
220
0.0
230
1.0
 73
     1
 44
1.0
  0
ENDBLK
  5
4EE
100
AcDbEntity
  8
レイヤー_1
100
AcDbBlockEnd
  0
BLOCK
  5
4F1
100
AcDbEntity
  8
レイヤー_1
 62
     7
100
AcDbBlockBegin
  2
AI9-BLK66
 70
     0
 10
0.0
 20
0.0
 30
0.0
  3
AI9-BLK66
  1

  0
MTEXT
  5
4F2
100
AcDbEntity
  8
レイヤー_1
 62
     7
100
AcDbMText
 10
-1.5875
 20
1.215134
 30
0.0
 40
2.362351
 41
0.0
 71
     1
 72
     2
  1
\fMS Gothic|b0|i0|c128;\H2.3624;\C7;\U+3000
  7
STD
210
0.0
220
0.0
230
1.0
 73
     1
 44
1.0
  0
ENDBLK
  5
4F3
100
AcDbEntity
  8
レイヤー_1
100
AcDbBlockEnd
  0
BLOCK
  5
4F6
100
AcDbEntity
  8
レイヤー_1
 62
     7
100
AcDbBlockBegin
  2
AI9-BLK67
 70
     0
 10
0.0
 20
0.0
 30
0.0
  3
AI9-BLK67
  1

  0
MTEXT
  5
4F7
100
AcDbEntity
  8
レイヤー_1
 62
     7
100
AcDbMText
 10
-3.175
 20
1.215134
 30
0.0
 40
2.362351
 41
0.0
 71
     1
 72
     2
  1
\fMS Gothic|b0|i0|c128;\H2.3624;\C7;\U+8003\U+3000
  7
STD
210
0.0
220
0.0
230
1.0
 73
     1
 44
1.0
  0
ENDBLK
  5
4F8
100
AcDbEntity
  8
レイヤー_1
100
AcDbBlockEnd
  0
BLOCK
  5
4FB
100
AcDbEntity
  8
レイヤー_1
 62
     7
100
AcDbBlockBegin
  2
AI9-BLK68
 70
     0
 10
0.0
 20
0.0
 30
0.0
  3
AI9-BLK68
  1

  0
MTEXT
  5
4FC
100
AcDbEntity
  8
レイヤー_1
 62
     7
100
AcDbMText
 10
-1.5875
 20
1.215134
 30
0.0
 40
2.362351
 41
0.0
 71
     1
 72
     2
  1
\fMS Gothic|b0|i0|c128;\H2.3624;\C7;\U+3000
  7
STD
210
0.0
220
0.0
230
1.0
 73
     1
 44
1.0
  0
ENDBLK
  5
4FD
100
AcDbEntity
  8
レイヤー_1
100
AcDbBlockEnd
  0
BLOCK
  5
500
100
AcDbEntity
  8
レイヤー_1
 62
     7
100
AcDbBlockBegin
  2
AI9-BLK69
 70
     0
 10
0.0
 20
0.0
 30
0.0
  3
AI9-BLK69
  1

  0
MTEXT
  5
501
100
AcDbEntity
  8
レイヤー_1
 62
     7
100
AcDbMText
 10
-3.175
 20
1.215134
 30
0.0
 40
2.362351
 41
0.0
 71
     1
 72
     2
  1
\fMS Gothic|b0|i0|c128;\H2.3624;\C7;\U+5099\U+3000
  7
STD
210
0.0
220
0.0
230
1.0
 73
     1
 44
1.0
  0
ENDBLK
  5
502
100
AcDbEntity
  8
レイヤー_1
100
AcDbBlockEnd
  0
BLOCK
  5
505
100
AcDbEntity
  8
レイヤー_1
 62
     7
100
AcDbBlockBegin
  2
AI9-BLK70
 70
     0
 10
0.0
 20
0.0
 30
0.0
  3
AI9-BLK70
  1

  0
MTEXT
  5
508
100
AcDbEntity
  8
レイヤー_1
 62
     7
100
AcDbMText
 10
-3.96875
 20
1.215134
 30
0.0
 40
2.362351
 41
0.0
 71
     1
 72
     2
  1
\fMS Gothic|b0|i0|c128;\H2.3624;\C7;\U+7B26
  7
STD
210
0.0
220
0.0
230
1.0
 73
     1
 44
1.0
  0
MTEXT
  5
507
100
AcDbEntity
  8
レイヤー_1
 62
     7
100
AcDbMText
 10
-0.79375
 20
1.215134
 30
0.0
 40
2.362351
 41
0.0
 71
     1
 72
     2
  1
\fMS Gothic|b0|i0|c128;\H2.3624;\C7;\U+0020
  7
STD
210
0.0
220
0.0
230
1.0
 73
     1
 44
1.0
  0
MTEXT
  5
506
100
AcDbEntity
  8
レイヤー_1
 62
     7
100
AcDbMText
 10
0.79375
 20
1.215134
 30
0.0
 40
2.362351
 41
0.0
 71
     1
 72
     2
  1
\fMS Gothic|b0|i0|c128;\H2.3624;\C7;\U+53F7
  7
STD
210
0.0
220
0.0
230
1.0
 73
     1
 44
1.0
  0
ENDBLK
  5
509
100
AcDbEntity
  8
レイヤー_1
100
AcDbBlockEnd
  0
BLOCK
  5
50D
100
AcDbEntity
  8
レイヤー_1
 62
     7
100
AcDbBlockBegin
  2
AI9-BLK71
 70
     0
 10
0.0
 20
0.0
 30
0.0
  3
AI9-BLK71
  1

  0
MTEXT
  5
50E
100
AcDbEntity
  8
レイヤー_1
 62
     7
100
AcDbMText
 10
4.7625
 20
-1.215134
 30
0.0
 40
2.362351
 41
0.0
 71
     1
 72
     2
  1
\fMS Gothic|b0|i0|c128;\H2.3624;\C7;\U+56F3\U+3000\U+756A
  7
STD
210
0.0
220
0.0
230
1.0
 11
-1.0
 21
0.0
 31
0.0
 73
     1
 44
1.0
  0
ENDBLK
  5
50F
100
AcDbEntity
  8
レイヤー_1
100
AcDbBlockEnd
  0
BLOCK
  5
51A
100
AcDbEntity
  8
レイヤー_1
 62
     7
100
AcDbBlockBegin
  2
AI9-BLK72
 70
     0
 10
0.0
 20
0.0
 30
0.0
  3
AI9-BLK72
  1

  0
MTEXT
  5
51B
100
AcDbEntity
  8
レイヤー_1
 62
     7
100
AcDbMText
 10
-7.9375
 20
1.215134
 30
0.0
 40
2.362351
 41
0.0
 71
     1
 72
     2
  1
\fMS Gothic|b0|i0|c128;\H2.3624;\C7;\U+0032\U+0030\U+0030\U+0038\U+002E\U+0031\U+0030\U+002E\U+0032\U+0038
  7
STD
210
0.0
220
0.0
230
1.0
 73
     1
 44
1.0
  0
ENDBLK
  5
51C
100
AcDbEntity
  8
レイヤー_1
100
AcDbBlockEnd
  0
BLOCK
  5
51F
100
AcDbEntity
  8
レイヤー_1
 62
     7
100
AcDbBlockBegin
  2
AI9-BLK73
 70
     0
 10
0.0
 20
0.0
 30
0.0
  3
AI9-BLK73
  1

  0
MTEXT
  5
525
100
AcDbEntity
  8
レイヤー_1
 62
     7
100
AcDbMText
 10
-19.05
 20
1.215134
 30
0.0
 40
2.362351
 41
0.0
 71
     1
 72
     2
  1
\fMS Gothic|b0|i0|c128;\H2.3624;\C7;\U+0032\U+0030\U+0030\U+0038
  7
STD
210
0.0
220
0.0
230
1.0
 73
     1
 44
1.0
  0
MTEXT
  5
524
100
AcDbEntity
  8
レイヤー_1
 62
     7
100
AcDbMText
 10
-12.7
 20
1.215134
 30
0.0
 40
2.362351
 41
0.0
 71
     1
 72
     2
  1
\fMS Gothic|b0|i0|c128;\H2.3624;\C7;\U+3000\U+5E74\U+3000
  7
STD
210
0.0
220
0.0
230
1.0
 73
     1
 44
1.0
  0
MTEXT
  5
523
100
AcDbEntity
  8
レイヤー_1
 62
     7
100
AcDbMText
 10
-3.175
 20
1.215134
 30
0.0
 40
2.362351
 41
0.0
 71
     1
 72
     2
  1
\fMS Gothic|b0|i0|c128;\H2.3624;\C7;\U+0031\U+0030
  7
STD
210
0.0
220
0.0
230
1.0
 73
     1
 44
1.0
  0
MTEXT
  5
522
100
AcDbEntity
  8
レイヤー_1
 62
     7
100
AcDbMText
 10
0.0
 20
1.215134
 30
0.0
 40
2.362351
 41
0.0
 71
     1
 72
     2
  1
\fMS Gothic|b0|i0|c128;\H2.3624;\C7;\U+3000\U+6708\U+3000
  7
STD
210
0.0
220
0.0
230
1.0
 73
     1
 44
1.0
  0
MTEXT
  5
521
100
AcDbEntity
  8
レイヤー_1
 62
     7
100
AcDbMText
 10
9.525
 20
1.215134
 30
0.0
 40
2.362351
 41
0.0
 71
     1
 72
     2
  1
\fMS Gothic|b0|i0|c128;\H2.3624;\C7;\U+0032\U+0038
  7
STD
210
0.0
220
0.0
230
1.0
 73
     1
 44
1.0
  0
MTEXT
  5
520
100
AcDbEntity
  8
レイヤー_1
 62
     7
100
AcDbMText
 10
12.7
 20
1.215134
 30
0.0
 40
2.362351
 41
0.0
 71
     1
 72
     2
  1
\fMS Gothic|b0|i0|c128;\H2.3624;\C7;\U+3000\U+65E5
  7
STD
210
0.0
220
0.0
230
1.0
 73
     1
 44
1.0
  0
ENDBLK
  5
526
100
AcDbEntity
  8
レイヤー_1
100
AcDbBlockEnd
  0
BLOCK
  5
529
100
AcDbEntity
  8
レイヤー_1
 62
     7
100
AcDbBlockBegin
  2
AI9-BLK74
 70
     0
 10
0.0
 20
0.0
 30
0.0
  3
AI9-BLK74
  1

  0
MTEXT
  5
52A
100
AcDbEntity
  8
レイヤー_1
 62
     7
100
AcDbMText
 10
-6.35
 20
1.215134
 30
0.0
 40
2.362351
 41
0.0
 71
     1
 72
     2
  1
\fMS Gothic|b0|i0|c128;\H2.3624;\C7;\U+FF37\U+FF22\U+FF0D\U+FF11
  7
STD
210
0.0
220
0.0
230
1.0
 73
     1
 44
1.0
  0
ENDBLK
  5
52B
100
AcDbEntity
  8
レイヤー_1
100
AcDbBlockEnd
  0
BLOCK
  5
52E
100
AcDbEntity
  8
レイヤー_1
 62
     7
100
AcDbBlockBegin
  2
AI9-BLK75
 70
     0
 10
0.0
 20
0.0
 30
0.0
  3
AI9-BLK75
  1

  0
MTEXT
  5
52F
100
AcDbEntity
  8
レイヤー_1
 62
     7
100
AcDbMText
 10
-20.6375
 20
1.215134
 30
0.0
 40
2.362351
 41
0.0
 71
     1
 72
     2
  1
\fMS Gothic|b0|i0|c128;\H2.3624;\C7;\U+548C\U+98A8\U+30E9\U+30A4\U+30C8\U+7528\U+30D9\U+30FC\U+30B9\U+30D7\U+30EC\U+30FC\U+30C8
  7
STD
210
0.0
220
0.0
230
1.0
 73
     1
 44
1.0
  0
ENDBLK
  5
530
100
AcDbEntity
  8
レイヤー_1
100
AcDbBlockEnd
  0
BLOCK
  5
533
100
AcDbEntity
  8
レイヤー_1
 62
     7
100
AcDbBlockBegin
  2
AI9-BLK76
 70
     0
 10
0.0
 20
0.0
 30
0.0
  3
AI9-BLK76
  1

  0
MTEXT
  5
534
100
AcDbEntity
  8
レイヤー_1
 62
     7
100
AcDbMText
 10
4.7625
 20
-1.215134
 30
0.0
 40
2.362351
 41
0.0
 71
     1
 72
     2
  1
\fMS Gothic|b0|i0|c128;\H2.3624;\C7;\U+0032\U+0034\U+0037\U+0031\U+0038\U+0039
  7
STD
210
0.0
220
0.0
230
1.0
 11
-1.0
 21
0.0
 31
0.0
 73
     1
 44
1.0
  0
ENDBLK
  5
535
100
AcDbEntity
  8
レイヤー_1
100
AcDbBlockEnd
  0
BLOCK
  5
538
100
AcDbEntity
  8
レイヤー_1
 62
     7
100
AcDbBlockBegin
  2
AI9-BLK77
 70
     0
 10
0.0
 20
0.0
 30
0.0
  3
AI9-BLK77
  1

  0
MTEXT
  5
539
100
AcDbEntity
  8
レイヤー_1
 62
     7
100
AcDbMText
 10
-4.7625
 20
1.215134
 30
0.0
 40
2.362351
 41
0.0
 71
     1
 72
     2
  1
\fMS Gothic|b0|i0|c128;\H2.3624;\C7;\U+FF11\U+FF1A\U+FF14
  7
STD
210
0.0
220
0.0
230
1.0
 73
     1
 44
1.0
  0
ENDBLK
  5
53A
100
AcDbEntity
  8
レイヤー_1
100
AcDbBlockEnd
  0
ENDSEC
  0
SECTION
  2
ENTITIES
  0
INSERT
  5
537
100
AcDbEntity
  8
レイヤー_1
 62
     7
100
AcDbBlockReference
  2
AI9-BLK77
 10
200.554167
 20
15.170133
 30
0.0
  0
INSERT
  5
532
100
AcDbEntity
  8
レイヤー_1
 62
     7
100
AcDbBlockReference
  2
AI9-BLK76
 10
26.017361
 20
284.3382
 30
0.0
  0
INSERT
  5
52D
100
AcDbEntity
  8
レイヤー_1
 62
     7
100
AcDbBlockReference
  2
AI9-BLK75
 10
250.03125
 20
18.609717
 30
0.0
  0
INSERT
  5
528
100
AcDbEntity
  8
レイヤー_1
 62
     7
100
AcDbBlockReference
  2
AI9-BLK74
 10
250.295833
 20
31.5743
 30
0.0
  0
INSERT
  5
51E
100
AcDbEntity
  8
レイヤー_1
 62
     7
100
AcDbBlockReference
  2
AI9-BLK73
 10
188.9125
 20
31.5743
 30
0.0
  0
INSERT
  5
519
100
AcDbEntity
  8
レイヤー_1
 62
     7
100
AcDbBlockReference
  2
AI9-BLK72
 10
46.566667
 20
31.838883
 30
0.0
  0
LINE
  5
517
100
AcDbEntity
  8
レイヤー_1
 62
     7
100
AcDbLine
 10
181.76875
 20
19.314583
 30
0.0
 11
216.69375
 21
19.314583
 31
0.0
  0
LINE
  5
516
100
AcDbEntity
  8
レイヤー_1
 62
     7
100
AcDbLine
 10
148.695833
 20
27.78125
 30
0.0
 11
281.78125
 21
27.78125
 31
0.0
  0
LINE
  5
515
100
AcDbEntity
  8
レイヤー_1
 62
     7
100
AcDbLine
 10
281.78125
 20
35.71875
 30
0.0
 11
281.78125
 21
10.847917
 31
0.0
  0
POLYLINE
  5
510
100
AcDbEntity
  8
レイヤー_1
 62
     7
100
AcDb2dPolyline
 66
     1
 10
0.0
 20
0.0
 30
0.0
  0
VERTEX
  5
511
100
AcDbEntity
  8
レイヤー_1
 62
     7
100
AcDbVertex
100
AcDb2dVertex
 10
14.816667
 20
287.602083
 30
0.0
  0
VERTEX
  5
512
100
AcDbEntity
  8
レイヤー_1
 62
     7
100
AcDbVertex
100
AcDb2dVertex
 10
404.547917
 20
287.602083
 30
0.0
  0
VERTEX
  5
513
100
AcDbEntity
  8
レイヤー_1
 62
     7
100
AcDbVertex
100
AcDb2dVertex
 10
404.547917
 20
10.847917
 30
0.0
  0
SEQEND
  5
514
100
AcDbEntity
  8
レイヤー_1
 62
     7
  0
INSERT
  5
50C
100
AcDbEntity
  8
レイヤー_1
 62
     7
100
AcDbBlockReference
  2
AI9-BLK71
 10
44.714583
 20
284.3382
 30
0.0
  0
LINE
  5
50A
100
AcDbEntity
  8
レイヤー_1
 62
     7
100
AcDbLine
 10
52.652083
 20
280.722917
 30
0.0
 11
52.652083
 21
287.602083
 31
0.0
  0
INSERT
  5
504
100
AcDbEntity
  8
レイヤー_1
 62
     7
100
AcDbBlockReference
  2
AI9-BLK70
 10
29.897917
 20
12.788883
 30
0.0
  0
INSERT
  5
4FF
100
AcDbEntity
  8
レイヤー_1
 62
     7
100
AcDbBlockReference
  2
AI9-BLK69
 10
20.902083
 20
32.36805
 30
0.0
  0
INSERT
  5
4FA
100
AcDbEntity
  8
レイヤー_1
 62
     7
100
AcDbBlockReference
  2
AI9-BLK68
 10
19.579167
 20
28.134717
 30
0.0
  0
INSERT
  5
4F5
100
AcDbEntity
  8
レイヤー_1
 62
     7
100
AcDbBlockReference
  2
AI9-BLK67
 10
20.902083
 20
23.901383
 30
0.0
  0
INSERT
  5
4F0
100
AcDbEntity
  8
レイヤー_1
 62
     7
100
AcDbBlockReference
  2
AI9-BLK66
 10
19.579167
 20
19.66805
 30
0.0
  0
INSERT
  5
4EB
100
AcDbEntity
  8
レイヤー_1
 62
     7
100
AcDbBlockReference
  2
AI9-BLK65
 10
19.579167
 20
15.434717
 30
0.0
  0
INSERT
  5
4E6
100
AcDbEntity
  8
レイヤー_1
 62
     7
100
AcDbBlockReference
  2
AI9-BLK64
 10
29.36875
 20
25.2243
 30
0.0
  0
INSERT
  5
4E1
100
AcDbEntity
  8
レイヤー_1
 62
     7
100
AcDbBlockReference
  2
AI9-BLK63
 10
29.36875
 20
18.345133
 30
0.0
  0
LINE
  5
4DF
100
AcDbEntity
  8
レイヤー_1
 62
     7
100
AcDbLine
 10
37.835417
 20
287.602083
 30
0.0
 11
37.835417
 21
280.722917
 31
0.0
  0
LINE
  5
4DE
100
AcDbEntity
  8
レイヤー_1
 62
     7
100
AcDbLine
 10
52.652083
 20
280.722917
 30
0.0
 11
52.652083
 21
287.602083
 31
0.0
  0
LINE
  5
4DD
100
AcDbEntity
  8
レイヤー_1
 62
     7
100
AcDbLine
 10
37.835417
 20
287.602083
 30
0.0
 11
37.835417
 21
280.722917
 31
0.0
  0
LINE
  5
4DC
100
AcDbEntity
  8
レイヤー_1
 62
     7
100
AcDbLine
 10
14.816667
 20
280.722917
 30
0.0
 11
52.652083
 21
280.722917
 31
0.0
  0
LINE
  5
4DB
100
AcDbEntity
  8
レイヤー_1
 62
     7
100
AcDbLine
 10
14.816667
 20
10.847917
 30
0.0
 11
14.816667
 21
287.602083
 31
0.0
  0
LINE
  5
4DA
100
AcDbEntity
  8
レイヤー_1
 62
     7
100
AcDbLine
 10
24.60625
 20
35.71875
 30
0.0
 11
24.60625
 21
10.847917
 31
0.0
  0
INSERT
  5
4D6
100
AcDbEntity
  8
レイヤー_1
 62
     7
100
AcDbBlockReference
  2
AI9-BLK62
 10
29.36875
 20
32.103467
 30
0.0
  0
LINE
  5
4D4
100
AcDbEntity
  8
レイヤー_1
 62
     7
100
AcDbLine
 10
34.660417
 20
35.71875
 30
0.0
 11
34.660417
 21
10.847917
 31
0.0
  0
LINE
  5
4D3
100
AcDbEntity
  8
レイヤー_1
 62
     7
100
AcDbLine
 10
14.816667
 20
10.847917
 30
0.0
 11
14.816667
 21
35.71875
 31
0.0
  0
LINE
  5
4D2
100
AcDbEntity
  8
レイヤー_1
 62
     7
100
AcDbLine
 10
24.60625
 20
35.71875
 30
0.0
 11
24.60625
 21
10.847917
 31
0.0
  0
LINE
  5
4D1
100
AcDbEntity
  8
レイヤー_1
 62
     7
100
AcDbLine
 10
34.660417
 20
35.71875
 30
0.0
 11
34.660417
 21
10.847917
 31
0.0
  0
POLYLINE
  5
4CC
100
AcDbEntity
  8
レイヤー_1
 62
     7
100
AcDb2dPolyline
 66
     1
 10
0.0
 20
0.0
 30
0.0
  0
VERTEX
  5
4CD
100
AcDbEntity
  8
レイヤー_1
 62
     7
100
AcDbVertex
100
AcDb2dVertex
 10
14.816667
 20
10.847917
 30
0.0
  0
VERTEX
  5
4CE
100
AcDbEntity
  8
レイヤー_1
 62
     7
100
AcDbVertex
100
AcDb2dVertex
 10
14.816667
 20
35.71875
 30
0.0
  0
VERTEX
  5
4CF
100
AcDbEntity
  8
レイヤー_1
 62
     7
100
AcDbVertex
100
AcDb2dVertex
 10
404.547917
 20
35.71875
 30
0.0
  0
SEQEND
  5
4D0
100
AcDbEntity
  8
レイヤー_1
 62
     7
  0
INSERT
  5
4C0
100
AcDbEntity
  8
レイヤー_1
 62
     7
100
AcDbBlockReference
  2
AI9-BLK59
 10
103.1875
 20
12.5243
 30
0.0
  0
INSERT
  5
4BB
100
AcDbEntity
  8
レイヤー_1
 62
     7
100
AcDbBlockReference
  2
AI9-BLK58
 10
45.508333
 20
12.788883
 30
0.0
  0
LINE
  5
4B9
100
AcDbEntity
  8
レイヤー_1
 62
     7
100
AcDbLine
 10
24.60625
 20
28.839583
 30
0.0
 11
148.695833
 21
28.839583
 31
0.0
  0
LINE
  5
4B8
100
AcDbEntity
  8
レイヤー_1
 62
     7
100
AcDbLine
 10
24.60625
 20
21.695833
 30
0.0
 11
148.695833
 21
21.695833
 31
0.0
  0
LINE
  5
4B7
100
AcDbEntity
  8
レイヤー_1
 62
     7
100
AcDbLine
 10
24.60625
 20
14.816667
 30
0.0
 11
148.695833
 21
14.816667
 31
0.0
  0
LINE
  5
4B6
100
AcDbEntity
  8
レイヤー_1
 62
     7
100
AcDbLine
 10
404.547917
 20
10.847917
 30
0.0
 11
14.816667
 21
10.847917
 31
0.0
  0
INSERT
  5
4B0
100
AcDbEntity
  8
レイヤー_1
 62
     7
100
AcDbBlockReference
  2
AI9-BLK57
 10
153.9875
 20
24.43055
 30
0.0
  0
LINE
  5
4AE
100
AcDbEntity
  8
レイヤー_1
 62
     7
100
AcDbLine
 10
24.60625
 20
14.816667
 30
0.0
 11
148.695833
 21
14.816667
 31
0.0
  0
LINE
  5
4AD
100
AcDbEntity
  8
レイヤー_1
 62
     7
100
AcDbLine
 10
58.7375
 20
35.71875
 30
0.0
 11
58.7375
 21
10.847917
 31
0.0
  0
INSERT
  5
4A7
100
AcDbEntity
  8
レイヤー_1
 62
     7
100
AcDbBlockReference
  2
AI9-BLK56
 10
153.9875
 20
31.838883
 30
0.0
  0
INSERT
  5
4A0
100
AcDbEntity
  8
レイヤー_1
 62
     7
100
AcDbBlockReference
  2
AI9-BLK55
 10
165.364583
 20
16.49305
 30
0.0
  0
INSERT
  5
499
100
AcDbEntity
  8
レイヤー_1
 62
     7
100
AcDbBlockReference
  2
AI9-BLK54
 10
165.1
 20
24.43055
 30
0.0
  0
INSERT
  5
492
100
AcDbEntity
  8
レイヤー_1
 62
     7
100
AcDbBlockReference
  2
AI9-BLK53
 10
175.947917
 20
24.695133
 30
0.0
  0
INSERT
  5
48B
100
AcDbEntity
  8
レイヤー_1
 62
     7
100
AcDbBlockReference
  2
AI9-BLK52
 10
176.2125
 20
16.49305
 30
0.0
  0
INSERT
  5
486
100
AcDbEntity
  8
レイヤー_1
 62
     7
100
AcDbBlockReference
  2
AI9-BLK51
 10
184.15
 20
17.2868
 30
0.0
  0
INSERT
  5
481
100
AcDbEntity
  8
レイヤー_1
 62
     7
100
AcDbBlockReference
  2
AI9-BLK50
 10
184.15
 20
13.053467
 30
0.0
  0
INSERT
  5
47C
100
AcDbEntity
  8
レイヤー_1
 62
     7
100
AcDbBlockReference
  2
AI9-BLK49
 10
185.7375
 20
25.488883
 30
0.0
  0
INSERT
  5
477
100
AcDbEntity
  8
レイヤー_1
 62
     7
100
AcDbBlockReference
  2
AI9-BLK48
 10
184.15
 20
21.25555
 30
0.0
  0
INSERT
  5
470
100
AcDbEntity
  8
レイヤー_1
 62
     7
100
AcDbBlockReference
  2
AI9-BLK47
 10
153.9875
 20
16.49305
 30
0.0
  0
LINE
  5
46E
100
AcDbEntity
  8
レイヤー_1
 62
     7
100
AcDbLine
 10
148.695833
 20
35.71875
 30
0.0
 11
148.695833
 21
10.847917
 31
0.0
  0
LINE
  5
46D
100
AcDbEntity
  8
レイヤー_1
 62
     7
100
AcDbLine
 10
148.695833
 20
21.695833
 30
0.0
 11
181.76875
 21
21.695833
 31
0.0
  0
LINE
  5
46C
100
AcDbEntity
  8
レイヤー_1
 62
     7
100
AcDbLine
 10
159.808333
 20
35.71875
 30
0.0
 11
159.808333
 21
10.847917
 31
0.0
  0
INSERT
  5
468
100
AcDbEntity
  8
レイヤー_1
 62
     7
100
AcDbBlockReference
  2
AI9-BLK46
 10
219.075
 20
19.403467
 30
0.0
  0
INSERT
  5
463
100
AcDbEntity
  8
レイヤー_1
 62
     7
100
AcDbBlockReference
  2
AI9-BLK45
 10
220.6625
 20
23.6368
 30
0.0
  0
INSERT
  5
45E
100
AcDbEntity
  8
レイヤー_1
 62
     7
100
AcDbBlockReference
  2
AI9-BLK44
 10
220.927083
 20
19.403467
 30
0.0
  0
INSERT
  5
459
100
AcDbEntity
  8
レイヤー_1
 62
     7
100
AcDbBlockReference
  2
AI9-BLK43
 10
219.075
 20
15.170133
 30
0.0
  0
INSERT
  5
454
100
AcDbEntity
  8
レイヤー_1
 62
     7
100
AcDbBlockReference
  2
AI9-BLK42
 10
219.075
 20
33.690967
 30
0.0
  0
INSERT
  5
44F
100
AcDbEntity
  8
レイヤー_1
 62
     7
100
AcDbBlockReference
  2
AI9-BLK41
 10
219.339583
 20
29.457633
 30
0.0
  0
LINE
  5
44D
100
AcDbEntity
  8
レイヤー_1
 62
     7
100
AcDbLine
 10
170.65625
 20
27.78125
 30
0.0
 11
170.65625
 21
10.847917
 31
0.0
  0
LINE
  5
44C
100
AcDbEntity
  8
レイヤー_1
 62
     7
100
AcDbLine
 10
181.76875
 20
27.78125
 30
0.0
 11
181.76875
 21
10.847917
 31
0.0
  0
LINE
  5
44B
100
AcDbEntity
  8
レイヤー_1
 62
     7
100
AcDbLine
 10
186.795833
 20
27.78125
 30
0.0
 11
186.795833
 21
10.847917
 31
0.0
  0
LINE
  5
44A
100
AcDbEntity
  8
レイヤー_1
 62
     7
100
AcDbLine
 10
148.695833
 20
35.71875
 30
0.0
 11
148.695833
 21
10.847917
 31
0.0
  0
LINE
  5
449
100
AcDbEntity
  8
レイヤー_1
 62
     7
100
AcDbLine
 10
148.695833
 20
21.695833
 30
0.0
 11
181.76875
 21
21.695833
 31
0.0
  0
LINE
  5
448
100
AcDbEntity
  8
レイヤー_1
 62
     7
100
AcDbLine
 10
159.808333
 20
35.71875
 30
0.0
 11
159.808333
 21
10.847917
 31
0.0
  0
LINE
  5
447
100
AcDbEntity
  8
レイヤー_1
 62
     7
100
AcDbLine
 10
170.65625
 20
27.78125
 30
0.0
 11
170.65625
 21
10.847917
 31
0.0
  0
LINE
  5
446
100
AcDbEntity
  8
レイヤー_1
 62
     7
100
AcDbLine
 10
181.76875
 20
27.78125
 30
0.0
 11
181.76875
 21
10.847917
 31
0.0
  0
LINE
  5
445
100
AcDbEntity
  8
レイヤー_1
 62
     7
100
AcDbLine
 10
186.795833
 20
27.78125
 30
0.0
 11
186.795833
 21
10.847917
 31
0.0
  0
LINE
  5
444
100
AcDbEntity
  8
レイヤー_1
 62
     7
100
AcDbLine
 10
181.76875
 20
19.314583
 30
0.0
 11
216.69375
 21
19.314583
 31
0.0
  0
LINE
  5
443
100
AcDbEntity
  8
レイヤー_1
 62
     7
100
AcDbLine
 10
148.695833
 20
27.78125
 30
0.0
 11
281.78125
 21
27.78125
 31
0.0
  0
LINE
  5
442
100
AcDbEntity
  8
レイヤー_1
 62
     7
100
AcDbLine
 10
216.69375
 20
35.71875
 30
0.0
 11
216.69375
 21
10.847917
 31
0.0
  0
LINE
  5
441
100
AcDbEntity
  8
レイヤー_1
 62
     7
100
AcDbLine
 10
221.720833
 20
35.71875
 30
0.0
 11
221.720833
 21
10.847917
 31
0.0
  0
INSERT
  5
43D
100
AcDbEntity
  8
レイヤー_1
 62
     7
100
AcDbBlockReference
  2
AI9-BLK40
 10
219.075
 20
19.403467
 30
0.0
  0
LINE
  5
43B
100
AcDbEntity
  8
レイヤー_1
 62
     7
100
AcDbLine
 10
216.69375
 20
35.71875
 30
0.0
 11
216.69375
 21
10.847917
 31
0.0
  0
LINE
  5
43A
100
AcDbEntity
  8
レイヤー_1
 62
     7
100
AcDbLine
 10
221.720833
 20
35.71875
 30
0.0
 11
221.720833
 21
10.847917
 31
0.0
  0
INSERT
  5
436
100
AcDbEntity
  8
レイヤー_1
 62
     7
100
AcDbBlockReference
  2
AI9-BLK39
 10
198.702083
 20
23.372217
 30
0.0
  0
INSERT
  5
431
100
AcDbEntity
  8
レイヤー_1
 62
     7
100
AcDbBlockReference
  2
AI9-BLK38
 10
46.566667
 20
25.2243
 30
0.0
  0
INSERT
  5
42C
100
AcDbEntity
  8
レイヤー_1
 62
     7
100
AcDbBlockReference
  2
AI9-BLK37
 10
46.566667
 20
18.08055
 30
0.0
  0
INSERT
  5
427
100
AcDbEntity
  8
レイヤー_1
 62
     7
100
AcDbBlockReference
  2
AI9-BLK36
 10
90.752083
 20
32.103467
 30
0.0
  0
INSERT
  5
421
100
AcDbEntity
  8
レイヤー_1
 62
     7
100
AcDbBlockReference
  2
AI9-BLK35
 10
72.495833
 20
25.2243
 30
0.0
  0
INSERT
  5
41C
100
AcDbEntity
  8
レイヤー_1
 62
     7
100
AcDbBlockReference
  2
AI9-BLK34
 10
74.877083
 20
18.08055
 30
0.0
  0
LINE
  5
41A
100
AcDbEntity
  8
レイヤー_1
 62
     7
100
AcDbLine
 10
281.78125
 20
35.71875
 30
0.0
 11
281.78125
 21
10.847917
 31
0.0
  0
LINE
  5
419
100
AcDbEntity
  8
レイヤー_1
 62
     7
100
AcDbLine
 10
88.10625
 20
132.291667
 30
0.0
 11
94.191667
 21
144.4625
 31
0.0
  0
POLYLINE
  5
413
100
AcDbEntity
  8
レイヤー_1
 62
     7
100
AcDb2dPolyline
 66
     1
 10
0.0
 20
0.0
 30
0.0
 70
     1
  0
VERTEX
  5
414
100
AcDbEntity
  8
レイヤー_1
 62
     7
100
AcDbVertex
100
AcDb2dVertex
 10
71.172917
 20
57.414583
 30
0.0
  0
VERTEX
  5
415
100
AcDbEntity
  8
レイヤー_1
 62
     7
100
AcDbVertex
100
AcDb2dVertex
 10
146.05
 20
57.414583
 30
0.0
  0
VERTEX
  5
416
100
AcDbEntity
  8
レイヤー_1
 62
     7
100
AcDbVertex
100
AcDb2dVertex
 10
146.05
 20
57.94375
 30
0.0
  0
VERTEX
  5
417
100
AcDbEntity
  8
レイヤー_1
 62
     7
100
AcDbVertex
100
AcDb2dVertex
 10
71.172917
 20
57.94375
 30
0.0
  0
SEQEND
  5
418
100
AcDbEntity
  8
レイヤー_1
 62
     7
  0
POLYLINE
  5
40D
100
AcDbEntity
  8
レイヤー_1
 62
     7
100
AcDb2dPolyline
 66
     1
 10
0.0
 20
0.0
 30
0.0
 70
     1
  0
VERTEX
  5
40E
100
AcDbEntity
  8
レイヤー_1
 62
     7
100
AcDbVertex
100
AcDb2dVertex
 10
89.958333
 20
57.94375
 30
0.0
  0
VERTEX
  5
40F
100
AcDbEntity
  8
レイヤー_1
 62
     7
100
AcDbVertex
100
AcDb2dVertex
 10
127.264583
 20
57.94375
 30
0.0
  0
VERTEX
  5
410
100
AcDbEntity
  8
レイヤー_1
 62
     7
100
AcDbVertex
100
AcDb2dVertex
 10
127.264583
 20
58.472917
 30
0.0
  0
VERTEX
  5
411
100
AcDbEntity
  8
レイヤー_1
 62
     7
100
AcDbVertex
100
AcDb2dVertex
 10
89.958333
 20
58.472917
 30
0.0
  0
SEQEND
  5
412
100
AcDbEntity
  8
レイヤー_1
 62
     7
  0
LINE
  5
40C
100
AcDbEntity
  8
レイヤー_1
 62
     7
100
AcDbLine
 10
106.627083
 20
58.472917
 30
0.0
 11
106.627083
 21
68.527083
 31
0.0
  0
POLYLINE
  5
407
100
AcDbEntity
  8
レイヤー_1
 62
     7
100
AcDb2dPolyline
 66
     1
 10
0.0
 20
0.0
 30
0.0
  0
VERTEX
  5
408
100
AcDbEntity
  8
レイヤー_1
 62
     7
100
AcDbVertex
100
AcDb2dVertex
 10
96.04375
 20
58.472917
 30
0.0
  0
VERTEX
  5
409
100
AcDbEntity
  8
レイヤー_1
 62
     7
100
AcDbVertex
100
AcDb2dVertex
 10
96.04375
 20
68.527083
 30
0.0
  0
VERTEX
  5
40A
100
AcDbEntity
  8
レイヤー_1
 62
     7
100
AcDbVertex
100
AcDb2dVertex
 10
106.627083
 20
68.527083
 30
0.0
  0
SEQEND
  5
40B
100
AcDbEntity
  8
レイヤー_1
 62
     7
  0
POLYLINE
  5
402
100
AcDbEntity
  8
レイヤー_1
 62
     7
100
AcDb2dPolyline
 66
     1
 10
0.0
 20
0.0
 30
0.0
  0
VERTEX
  5
403
100
AcDbEntity
  8
レイヤー_1
 62
     7
100
AcDbVertex
100
AcDb2dVertex
 10
96.04375
 20
68.527083
 30
0.0
  0
VERTEX
  5
404
100
AcDbEntity
  8
レイヤー_1
 62
     7
100
AcDbVertex
100
AcDb2dVertex
 10
96.572917
 20
68.527083
 30
0.0
  0
VERTEX
  5
405
100
AcDbEntity
  8
レイヤー_1
 62
     7
100
AcDbVertex
100
AcDb2dVertex
 10
88.10625
 20
102.129167
 30
0.0
  0
SEQEND
  5
406
100
AcDbEntity
  8
レイヤー_1
 62
     7
  0
LINE
  5
401
100
AcDbEntity
  8
レイヤー_1
 62
     7
100
AcDbLine
 10
88.635417
 20
102.129167
 30
0.0
 11
97.102083
 21
68.527083
 31
0.0
  0
LINE
  5
400
100
AcDbEntity
  8
レイヤー_1
 62
     7
100
AcDbLine
 10
88.10625
 20
102.129167
 30
0.0
 11
88.10625
 21
132.291667
 31
0.0
  0
POLYLINE
  5
3FA
100
AcDbEntity
  8
レイヤー_1
 62
     7
100
AcDb2dPolyline
 66
     1
 10
0.0
 20
0.0
 30
0.0
  0
VERTEX
  5
3FB
100
AcDbEntity
  8
レイヤー_1
 62
     7
100
AcDbVertex
100
AcDb2dVertex
 10
88.635417
 20
102.129167
 30
0.0
  0
VERTEX
  5
3FC
100
AcDbEntity
  8
レイヤー_1
 62
     7
100
AcDbVertex
100
AcDb2dVertex
 10
88.635417
 20
132.027083
 30
0.0
  0
VERTEX
  5
3FD
100
AcDbEntity
  8
レイヤー_1
 62
     7
100
AcDbVertex
100
AcDb2dVertex
 10
94.720833
 20
144.197917
 30
0.0
  0
VERTEX
  5
3FE
100
AcDbEntity
  8
レイヤー_1
 62
     7
100
AcDbVertex
100
AcDb2dVertex
 10
94.191667
 20
144.4625
 30
0.0
  0
SEQEND
  5
3FF
100
AcDbEntity
  8
レイヤー_1
 62
     7
  0
LINE
  5
3F9
100
AcDbEntity
  8
レイヤー_1
 62
     7
100
AcDbLine
 10
129.116667
 20
132.291667
 30
0.0
 11
123.03125
 21
144.4625
 31
0.0
  0
LINE
  5
3F8
100
AcDbEntity
  8
レイヤー_1
 62
     7
100
AcDbLine
 10
127.264583
 20
58.472917
 30
0.0
 11
127.264583
 21
57.94375
 31
0.0
  0
LINE
  5
3F7
100
AcDbEntity
  8
レイヤー_1
 62
     7
100
AcDbLine
 10
110.595833
 20
58.472917
 30
0.0
 11
110.595833
 21
68.527083
 31
0.0
  0
POLYLINE
  5
3F2
100
AcDbEntity
  8
レイヤー_1
 62
     7
100
AcDb2dPolyline
 66
     1
 10
0.0
 20
0.0
 30
0.0
  0
VERTEX
  5
3F3
100
AcDbEntity
  8
レイヤー_1
 62
     7
100
AcDbVertex
100
AcDb2dVertex
 10
121.179167
 20
58.472917
 30
0.0
  0
VERTEX
  5
3F4
100
AcDbEntity
  8
レイヤー_1
 62
     7
100
AcDbVertex
100
AcDb2dVertex
 10
121.179167
 20
68.527083
 30
0.0
  0
VERTEX
  5
3F5
100
AcDbEntity
  8
レイヤー_1
 62
     7
100
AcDbVertex
100
AcDb2dVertex
 10
110.595833
 20
68.527083
 30
0.0
  0
SEQEND
  5
3F6
100
AcDbEntity
  8
レイヤー_1
 62
     7
  0
POLYLINE
  5
3ED
100
AcDbEntity
  8
レイヤー_1
 62
     7
100
AcDb2dPolyline
 66
     1
 10
0.0
 20
0.0
 30
0.0
  0
VERTEX
  5
3EE
100
AcDbEntity
  8
レイヤー_1
 62
     7
100
AcDbVertex
100
AcDb2dVertex
 10
121.179167
 20
68.527083
 30
0.0
  0
VERTEX
  5
3EF
100
AcDbEntity
  8
レイヤー_1
 62
     7
100
AcDbVertex
100
AcDb2dVertex
 10
120.65
 20
68.527083
 30
0.0
  0
VERTEX
  5
3F0
100
AcDbEntity
  8
レイヤー_1
 62
     7
100
AcDbVertex
100
AcDb2dVertex
 10
129.116667
 20
102.129167
 30
0.0
  0
SEQEND
  5
3F1
100
AcDbEntity
  8
レイヤー_1
 62
     7
  0
LINE
  5
3EC
100
AcDbEntity
  8
レイヤー_1
 62
     7
100
AcDbLine
 10
128.5875
 20
102.129167
 30
0.0
 11
120.120833
 21
68.527083
 31
0.0
  0
LINE
  5
3EB
100
AcDbEntity
  8
レイヤー_1
 62
     7
100
AcDbLine
 10
129.116667
 20
102.129167
 30
0.0
 11
129.116667
 21
132.291667
 31
0.0
  0
POLYLINE
  5
3E5
100
AcDbEntity
  8
レイヤー_1
 62
     7
100
AcDb2dPolyline
 66
     1
 10
0.0
 20
0.0
 30
0.0
  0
VERTEX
  5
3E6
100
AcDbEntity
  8
レイヤー_1
 62
     7
100
AcDbVertex
100
AcDb2dVertex
 10
128.5875
 20
102.129167
 30
0.0
  0
VERTEX
  5
3E7
100
AcDbEntity
  8
レイヤー_1
 62
     7
100
AcDbVertex
100
AcDb2dVertex
 10
128.5875
 20
132.027083
 30
0.0
  0
VERTEX
  5
3E8
100
AcDbEntity
  8
レイヤー_1
 62
     7
100
AcDbVertex
100
AcDb2dVertex
 10
122.502083
 20
144.197917
 30
0.0
  0
VERTEX
  5
3E9
100
AcDbEntity
  8
レイヤー_1
 62
     7
100
AcDbVertex
100
AcDb2dVertex
 10
123.03125
 20
144.4625
 30
0.0
  0
SEQEND
  5
3EA
100
AcDbEntity
  8
レイヤー_1
 62
     7
  0
LINE
  5
3E4
100
AcDbEntity
  8
レイヤー_1
 62
     7
100
AcDbLine
 10
88.10625
 20
102.129167
 30
0.0
 11
88.635417
 21
102.129167
 31
0.0
  0
LINE
  5
3E3
100
AcDbEntity
  8
レイヤー_1
 62
     7
100
AcDbLine
 10
128.5875
 20
102.129167
 30
0.0
 11
129.116667
 21
102.129167
 31
0.0
  0
LINE
  5
3E2
100
AcDbEntity
  8
レイヤー_1
 62
     7
100
AcDbLine
 10
88.10625
 20
107.685417
 30
0.0
 11
88.635417
 21
107.685417
 31
0.0
  0
LINE
  5
3E1
100
AcDbEntity
  8
レイヤー_1
 62
     7
100
AcDbLine
 10
128.5875
 20
107.685417
 30
0.0
 11
129.116667
 21
107.685417
 31
0.0
  0
LINE
  5
3E0
100
AcDbEntity
  8
レイヤー_1
 62
     7
100
AcDbLine
 10
88.10625
 20
126.735417
 30
0.0
 11
88.635417
 21
126.735417
 31
0.0
  0
LINE
  5
3DF
100
AcDbEntity
  8
レイヤー_1
 62
     7
100
AcDbLine
 10
128.5875
 20
126.735417
 30
0.0
 11
129.116667
 21
126.735417
 31
0.0
  0
LINE
  5
3DE
100
AcDbEntity
  8
レイヤー_1
 62
     7
100
AcDbLine
 10
88.10625
 20
132.291667
 30
0.0
 11
88.635417
 21
132.027083
 31
0.0
  0
LINE
  5
3DD
100
AcDbEntity
  8
レイヤー_1
 62
     7
100
AcDbLine
 10
128.5875
 20
132.027083
 30
0.0
 11
129.116667
 21
132.291667
 31
0.0
  0
POLYLINE
  5
3D6
100
AcDbEntity
  8
レイヤー_1
 62
     7
100
AcDb2dPolyline
 66
     1
 10
0.0
 20
0.0
 30
0.0
  0
VERTEX
  5
3D7
100
AcDbEntity
  8
レイヤー_1
 62
     7
100
AcDbVertex
100
AcDb2dVertex
 10
89.958333
 20
212.460417
 30
0.0
  0
VERTEX
  5
3D8
100
AcDbEntity
  8
レイヤー_1
 62
     7
100
AcDbVertex
100
AcDb2dVertex
 10
89.958333
 20
201.083333
 30
0.0
  0
VERTEX
  5
3D9
100
AcDbEntity
  8
レイヤー_1
 62
     7
100
AcDbVertex
100
AcDb2dVertex
 10
90.222917
 20
200.025
 30
0.0
  0
VERTEX
  5
3DA
100
AcDbEntity
  8
レイヤー_1
 62
     7
100
AcDbVertex
100
AcDb2dVertex
 10
91.016667
 20
198.966667
 30
0.0
  0
VERTEX
  5
3DB
100
AcDbEntity
  8
レイヤー_1
 62
     7
100
AcDbVertex
100
AcDb2dVertex
 10
92.339583
 20
198.702083
 30
0.0
  0
SEQEND
  5
3DC
100
AcDbEntity
  8
レイヤー_1
 62
     7
  0
POLYLINE
  5
3CF
100
AcDbEntity
  8
レイヤー_1
 62
     7
100
AcDb2dPolyline
 66
     1
 10
0.0
 20
0.0
 30
0.0
  0
VERTEX
  5
3D0
100
AcDbEntity
  8
レイヤー_1
 62
     7
100
AcDbVertex
100
AcDb2dVertex
 10
124.883333
 20
236.272917
 30
0.0
  0
VERTEX
  5
3D1
100
AcDbEntity
  8
レイヤー_1
 62
     7
100
AcDbVertex
100
AcDb2dVertex
 10
92.339583
 20
236.272917
 30
0.0
  0
VERTEX
  5
3D2
100
AcDbEntity
  8
レイヤー_1
 62
     7
100
AcDbVertex
100
AcDb2dVertex
 10
91.016667
 20
235.74375
 30
0.0
  0
VERTEX
  5
3D3
100
AcDbEntity
  8
レイヤー_1
 62
     7
100
AcDbVertex
100
AcDb2dVertex
 10
90.222917
 20
234.95
 30
0.0
  0
VERTEX
  5
3D4
100
AcDbEntity
  8
レイヤー_1
 62
     7
100
AcDbVertex
100
AcDb2dVertex
 10
89.958333
 20
233.627083
 30
0.0
  0
SEQEND
  5
3D5
100
AcDbEntity
  8
レイヤー_1
 62
     7
  0
POLYLINE
  5
3C8
100
AcDbEntity
  8
レイヤー_1
 62
     7
100
AcDb2dPolyline
 66
     1
 10
0.0
 20
0.0
 30
0.0
  0
VERTEX
  5
3C9
100
AcDbEntity
  8
レイヤー_1
 62
     7
100
AcDbVertex
100
AcDb2dVertex
 10
92.339583
 20
198.702083
 30
0.0
  0
VERTEX
  5
3CA
100
AcDbEntity
  8
レイヤー_1
 62
     7
100
AcDbVertex
100
AcDb2dVertex
 10
124.883333
 20
198.702083
 30
0.0
  0
VERTEX
  5
3CB
100
AcDbEntity
  8
レイヤー_1
 62
     7
100
AcDbVertex
100
AcDb2dVertex
 10
126.20625
 20
198.966667
 30
0.0
  0
VERTEX
  5
3CC
100
AcDbEntity
  8
レイヤー_1
 62
     7
100
AcDbVertex
100
AcDb2dVertex
 10
127.0
 20
200.025
 30
0.0
  0
VERTEX
  5
3CD
100
AcDbEntity
  8
レイヤー_1
 62
     7
100
AcDbVertex
100
AcDb2dVertex
 10
127.264583
 20
201.083333
 30
0.0
  0
SEQEND
  5
3CE
100
AcDbEntity
  8
レイヤー_1
 62
     7
  0
POLYLINE
  5
3C3
100
AcDbEntity
  8
レイヤー_1
 62
     7
100
AcDb2dPolyline
 66
     1
 10
0.0
 20
0.0
 30
0.0
  0
VERTEX
  5
3C4
100
AcDbEntity
  8
レイヤー_1
 62
     7
100
AcDbVertex
100
AcDb2dVertex
 10
98.160417
 20
229.922917
 30
0.0
  0
VERTEX
  5
3C5
100
AcDbEntity
  8
レイヤー_1
 62
     7
100
AcDbVertex
100
AcDb2dVertex
 10
96.572917
 20
229.39375
 30
0.0
  0
VERTEX
  5
3C6
100
AcDbEntity
  8
レイヤー_1
 62
     7
100
AcDbVertex
100
AcDb2dVertex
 10
96.04375
 20
227.80625
 30
0.0
  0
SEQEND
  5
3C7
100
AcDbEntity
  8
レイヤー_1
 62
     7
  0
POLYLINE
  5
3BE
100
AcDbEntity
  8
レイヤー_1
 62
     7
100
AcDb2dPolyline
 66
     1
 10
0.0
 20
0.0
 30
0.0
  0
VERTEX
  5
3BF
100
AcDbEntity
  8
レイヤー_1
 62
     7
100
AcDbVertex
100
AcDb2dVertex
 10
121.179167
 20
227.80625
 30
0.0
  0
VERTEX
  5
3C0
100
AcDbEntity
  8
レイヤー_1
 62
     7
100
AcDbVertex
100
AcDb2dVertex
 10
120.385417
 20
229.39375
 30
0.0
  0
VERTEX
  5
3C1
100
AcDbEntity
  8
レイヤー_1
 62
     7
100
AcDbVertex
100
AcDb2dVertex
 10
119.0625
 20
229.922917
 30
0.0
  0
SEQEND
  5
3C2
100
AcDbEntity
  8
レイヤー_1
 62
     7
  0
POLYLINE
  5
3B9
100
AcDbEntity
  8
レイヤー_1
 62
     7
100
AcDb2dPolyline
 66
     1
 10
0.0
 20
0.0
 30
0.0
  0
VERTEX
  5
3BA
100
AcDbEntity
  8
レイヤー_1
 62
     7
100
AcDbVertex
100
AcDb2dVertex
 10
119.0625
 20
204.7875
 30
0.0
  0
VERTEX
  5
3BB
100
AcDbEntity
  8
レイヤー_1
 62
     7
100
AcDbVertex
100
AcDb2dVertex
 10
120.385417
 20
205.58125
 30
0.0
  0
VERTEX
  5
3BC
100
AcDbEntity
  8
レイヤー_1
 62
     7
100
AcDbVertex
100
AcDb2dVertex
 10
121.179167
 20
206.904167
 30
0.0
  0
SEQEND
  5
3BD
100
AcDbEntity
  8
レイヤー_1
 62
     7
  0
POLYLINE
  5
3B4
100
AcDbEntity
  8
レイヤー_1
 62
     7
100
AcDb2dPolyline
 66
     1
 10
0.0
 20
0.0
 30
0.0
  0
VERTEX
  5
3B5
100
AcDbEntity
  8
レイヤー_1
 62
     7
100
AcDbVertex
100
AcDb2dVertex
 10
96.04375
 20
206.904167
 30
0.0
  0
VERTEX
  5
3B6
100
AcDbEntity
  8
レイヤー_1
 62
     7
100
AcDbVertex
100
AcDb2dVertex
 10
96.572917
 20
205.58125
 30
0.0
  0
VERTEX
  5
3B7
100
AcDbEntity
  8
レイヤー_1
 62
     7
100
AcDbVertex
100
AcDb2dVertex
 10
98.160417
 20
204.7875
 30
0.0
  0
SEQEND
  5
3B8
100
AcDbEntity
  8
レイヤー_1
 62
     7
  0
POLYLINE
  5
3AF
100
AcDbEntity
  8
レイヤー_1
 62
     7
100
AcDb2dPolyline
 66
     1
 10
0.0
 20
0.0
 30
0.0
  0
VERTEX
  5
3B0
100
AcDbEntity
  8
レイヤー_1
 62
     7
100
AcDbVertex
100
AcDb2dVertex
 10
98.425
 20
229.658333
 30
0.0
  0
VERTEX
  5
3B1
100
AcDbEntity
  8
レイヤー_1
 62
     7
100
AcDbVertex
100
AcDb2dVertex
 10
96.8375
 20
229.129167
 30
0.0
  0
VERTEX
  5
3B2
100
AcDbEntity
  8
レイヤー_1
 62
     7
100
AcDbVertex
100
AcDb2dVertex
 10
96.308333
 20
227.541667
 30
0.0
  0
SEQEND
  5
3B3
100
AcDbEntity
  8
レイヤー_1
 62
     7
  0
POLYLINE
  5
3AA
100
AcDbEntity
  8
レイヤー_1
 62
     7
100
AcDb2dPolyline
 66
     1
 10
0.0
 20
0.0
 30
0.0
  0
VERTEX
  5
3AB
100
AcDbEntity
  8
レイヤー_1
 62
     7
100
AcDbVertex
100
AcDb2dVertex
 10
120.914583
 20
227.541667
 30
0.0
  0
VERTEX
  5
3AC
100
AcDbEntity
  8
レイヤー_1
 62
     7
100
AcDbVertex
100
AcDb2dVertex
 10
120.385417
 20
229.129167
 30
0.0
  0
VERTEX
  5
3AD
100
AcDbEntity
  8
レイヤー_1
 62
     7
100
AcDbVertex
100
AcDb2dVertex
 10
118.797917
 20
229.658333
 30
0.0
  0
SEQEND
  5
3AE
100
AcDbEntity
  8
レイヤー_1
 62
     7
  0
POLYLINE
  5
3A5
100
AcDbEntity
  8
レイヤー_1
 62
     7
100
AcDb2dPolyline
 66
     1
 10
0.0
 20
0.0
 30
0.0
  0
VERTEX
  5
3A6
100
AcDbEntity
  8
レイヤー_1
 62
     7
100
AcDbVertex
100
AcDb2dVertex
 10
118.797917
 20
205.052083
 30
0.0
  0
VERTEX
  5
3A7
100
AcDbEntity
  8
レイヤー_1
 62
     7
100
AcDbVertex
100
AcDb2dVertex
 10
120.385417
 20
205.845833
 30
0.0
  0
VERTEX
  5
3A8
100
AcDbEntity
  8
レイヤー_1
 62
     7
100
AcDbVertex
100
AcDb2dVertex
 10
120.914583
 20
207.16875
 30
0.0
  0
SEQEND
  5
3A9
100
AcDbEntity
  8
レイヤー_1
 62
     7
  0
POLYLINE
  5
3A0
100
AcDbEntity
  8
レイヤー_1
 62
     7
100
AcDb2dPolyline
 66
     1
 10
0.0
 20
0.0
 30
0.0
  0
VERTEX
  5
3A1
100
AcDbEntity
  8
レイヤー_1
 62
     7
100
AcDbVertex
100
AcDb2dVertex
 10
96.308333
 20
207.16875
 30
0.0
  0
VERTEX
  5
3A2
100
AcDbEntity
  8
レイヤー_1
 62
     7
100
AcDbVertex
100
AcDb2dVertex
 10
96.8375
 20
205.845833
 30
0.0
  0
VERTEX
  5
3A3
100
AcDbEntity
  8
レイヤー_1
 62
     7
100
AcDbVertex
100
AcDb2dVertex
 10
98.425
 20
205.052083
 30
0.0
  0
SEQEND
  5
3A4
100
AcDbEntity
  8
レイヤー_1
 62
     7
  0
LINE
  5
39F
100
AcDbEntity
  8
レイヤー_1
 62
     7
100
AcDbLine
 10
106.627083
 20
229.658333
 30
0.0
 11
106.627083
 21
229.922917
 31
0.0
  0
LINE
  5
39E
100
AcDbEntity
  8
レイヤー_1
 62
     7
100
AcDbLine
 10
118.797917
 20
229.658333
 30
0.0
 11
110.595833
 21
229.658333
 31
0.0
  0
LINE
  5
39D
100
AcDbEntity
  8
レイヤー_1
 62
     7
100
AcDbLine
 10
106.627083
 20
229.658333
 30
0.0
 11
98.425
 21
229.658333
 31
0.0
  0
LINE
  5
39C
100
AcDbEntity
  8
レイヤー_1
 62
     7
100
AcDbLine
 10
119.0625
 20
229.922917
 30
0.0
 11
110.595833
 21
229.922917
 31
0.0
  0
LINE
  5
39B
100
AcDbEntity
  8
レイヤー_1
 62
     7
100
AcDbLine
 10
106.627083
 20
229.922917
 30
0.0
 11
98.160417
 21
229.922917
 31
0.0
  0
LINE
  5
39A
100
AcDbEntity
  8
レイヤー_1
 62
     7
100
AcDbLine
 10
110.595833
 20
229.658333
 30
0.0
 11
110.595833
 21
229.922917
 31
0.0
  0
LINE
  5
399
100
AcDbEntity
  8
レイヤー_1
 62
     7
100
AcDbLine
 10
98.425
 20
205.052083
 30
0.0
 11
106.627083
 21
205.052083
 31
0.0
  0
LINE
  5
398
100
AcDbEntity
  8
レイヤー_1
 62
     7
100
AcDbLine
 10
110.595833
 20
205.052083
 30
0.0
 11
118.797917
 21
205.052083
 31
0.0
  0
LINE
  5
397
100
AcDbEntity
  8
レイヤー_1
 62
     7
100
AcDbLine
 10
98.160417
 20
204.7875
 30
0.0
 11
106.627083
 21
204.7875
 31
0.0
  0
POLYLINE
  5
392
100
AcDbEntity
  8
レイヤー_1
 62
     7
100
AcDb2dPolyline
 66
     1
 10
0.0
 20
0.0
 30
0.0
  0
VERTEX
  5
393
100
AcDbEntity
  8
レイヤー_1
 62
     7
100
AcDbVertex
100
AcDb2dVertex
 10
119.0625
 20
204.7875
 30
0.0
  0
VERTEX
  5
394
100
AcDbEntity
  8
レイヤー_1
 62
     7
100
AcDbVertex
100
AcDb2dVertex
 10
110.595833
 20
204.7875
 30
0.0
  0
VERTEX
  5
395
100
AcDbEntity
  8
レイヤー_1
 62
     7
100
AcDbVertex
100
AcDb2dVertex
 10
110.595833
 20
205.052083
 30
0.0
  0
SEQEND
  5
396
100
AcDbEntity
  8
レイヤー_1
 62
     7
  0
LINE
  5
391
100
AcDbEntity
  8
レイヤー_1
 62
     7
100
AcDbLine
 10
96.04375
 20
206.904167
 30
0.0
 11
96.04375
 21
212.460417
 31
0.0
  0
LINE
  5
390
100
AcDbEntity
  8
レイヤー_1
 62
     7
100
AcDbLine
 10
96.04375
 20
222.514583
 30
0.0
 11
96.04375
 21
227.80625
 31
0.0
  0
LINE
  5
38F
100
AcDbEntity
  8
レイヤー_1
 62
     7
100
AcDbLine
 10
96.308333
 20
207.16875
 30
0.0
 11
96.308333
 21
212.460417
 31
0.0
  0
LINE
  5
38E
100
AcDbEntity
  8
レイヤー_1
 62
     7
100
AcDbLine
 10
96.308333
 20
222.514583
 30
0.0
 11
96.308333
 21
227.541667
 31
0.0
  0
LINE
  5
38D
100
AcDbEntity
  8
レイヤー_1
 62
     7
100
AcDbLine
 10
89.958333
 20
222.514583
 30
0.0
 11
89.958333
 21
233.627083
 31
0.0
  0
POLYLINE
  5
388
100
AcDbEntity
  8
レイヤー_1
 62
     7
100
AcDb2dPolyline
 66
     1
 10
0.0
 20
0.0
 30
0.0
  0
VERTEX
  5
389
100
AcDbEntity
  8
レイヤー_1
 62
     7
100
AcDbVertex
100
AcDb2dVertex
 10
88.10625
 20
206.110417
 30
0.0
  0
VERTEX
  5
38A
100
AcDbEntity
  8
レイヤー_1
 62
     7
100
AcDbVertex
100
AcDb2dVertex
 10
88.10625
 20
228.6
 30
0.0
  0
VERTEX
  5
38B
100
AcDbEntity
  8
レイヤー_1
 62
     7
100
AcDbVertex
100
AcDb2dVertex
 10
88.635417
 20
228.6
 30
0.0
  0
SEQEND
  5
38C
100
AcDbEntity
  8
レイヤー_1
 62
     7
  0
POLYLINE
  5
383
100
AcDbEntity
  8
レイヤー_1
 62
     7
100
AcDb2dPolyline
 66
     1
 10
0.0
 20
0.0
 30
0.0
  0
VERTEX
  5
384
100
AcDbEntity
  8
レイヤー_1
 62
     7
100
AcDbVertex
100
AcDb2dVertex
 10
88.10625
 20
206.110417
 30
0.0
  0
VERTEX
  5
385
100
AcDbEntity
  8
レイヤー_1
 62
     7
100
AcDbVertex
100
AcDb2dVertex
 10
88.635417
 20
206.110417
 30
0.0
  0
VERTEX
  5
386
100
AcDbEntity
  8
レイヤー_1
 62
     7
100
AcDbVertex
100
AcDb2dVertex
 10
88.635417
 20
212.460417
 30
0.0
  0
SEQEND
  5
387
100
AcDbEntity
  8
レイヤー_1
 62
     7
  0
LINE
  5
382
100
AcDbEntity
  8
レイヤー_1
 62
     7
100
AcDbLine
 10
88.635417
 20
222.514583
 30
0.0
 11
88.635417
 21
228.6
 31
0.0
  0
LINE
  5
381
100
AcDbEntity
  8
レイヤー_1
 62
     7
100
AcDbLine
 10
88.635417
 20
222.514583
 30
0.0
 11
88.635417
 21
212.460417
 31
0.0
  0
LINE
  5
380
100
AcDbEntity
  8
レイヤー_1
 62
     7
100
AcDbLine
 10
120.914583
 20
207.16875
 30
0.0
 11
120.914583
 21
212.460417
 31
0.0
  0
LINE
  5
37F
100
AcDbEntity
  8
レイヤー_1
 62
     7
100
AcDbLine
 10
120.914583
 20
222.514583
 30
0.0
 11
120.914583
 21
227.541667
 31
0.0
  0
LINE
  5
37E
100
AcDbEntity
  8
レイヤー_1
 62
     7
100
AcDbLine
 10
121.179167
 20
206.904167
 30
0.0
 11
121.179167
 21
212.460417
 31
0.0
  0
LINE
  5
37D
100
AcDbEntity
  8
レイヤー_1
 62
     7
100
AcDbLine
 10
121.179167
 20
222.514583
 30
0.0
 11
121.179167
 21
227.80625
 31
0.0
  0
LINE
  5
37C
100
AcDbEntity
  8
レイヤー_1
 62
     7
100
AcDbLine
 10
127.264583
 20
201.083333
 30
0.0
 11
127.264583
 21
212.460417
 31
0.0
  0
POLYLINE
  5
375
100
AcDbEntity
  8
レイヤー_1
 62
     7
100
AcDb2dPolyline
 66
     1
 10
0.0
 20
0.0
 30
0.0
  0
VERTEX
  5
376
100
AcDbEntity
  8
レイヤー_1
 62
     7
100
AcDbVertex
100
AcDb2dVertex
 10
127.264583
 20
222.514583
 30
0.0
  0
VERTEX
  5
377
100
AcDbEntity
  8
レイヤー_1
 62
     7
100
AcDbVertex
100
AcDb2dVertex
 10
127.264583
 20
233.627083
 30
0.0
  0
VERTEX
  5
378
100
AcDbEntity
  8
レイヤー_1
 62
     7
100
AcDbVertex
100
AcDb2dVertex
 10
127.0
 20
234.95
 30
0.0
  0
VERTEX
  5
379
100
AcDbEntity
  8
レイヤー_1
 62
     7
100
AcDbVertex
100
AcDb2dVertex
 10
126.20625
 20
235.74375
 30
0.0
  0
VERTEX
  5
37A
100
AcDbEntity
  8
レイヤー_1
 62
     7
100
AcDbVertex
100
AcDb2dVertex
 10
124.883333
 20
236.272917
 30
0.0
  0
SEQEND
  5
37B
100
AcDbEntity
  8
レイヤー_1
 62
     7
  0
POLYLINE
  5
36D
100
AcDbEntity
  8
レイヤー_1
 62
     7
100
AcDb2dPolyline
 66
     1
 10
0.0
 20
0.0
 30
0.0
  0
VERTEX
  5
36E
100
AcDbEntity
  8
レイヤー_1
 62
     7
100
AcDbVertex
100
AcDb2dVertex
 10
91.810417
 20
212.460417
 30
0.0
  0
VERTEX
  5
36F
100
AcDbEntity
  8
レイヤー_1
 62
     7
100
AcDbVertex
100
AcDb2dVertex
 10
93.133333
 20
214.047917
 30
0.0
  0
VERTEX
  5
370
100
AcDbEntity
  8
レイヤー_1
 62
     7
100
AcDbVertex
100
AcDb2dVertex
 10
93.927083
 20
216.164583
 30
0.0
  0
VERTEX
  5
371
100
AcDbEntity
  8
レイヤー_1
 62
     7
100
AcDbVertex
100
AcDb2dVertex
 10
93.927083
 20
218.545833
 30
0.0
  0
VERTEX
  5
372
100
AcDbEntity
  8
レイヤー_1
 62
     7
100
AcDbVertex
100
AcDb2dVertex
 10
93.133333
 20
220.6625
 30
0.0
  0
VERTEX
  5
373
100
AcDbEntity
  8
レイヤー_1
 62
     7
100
AcDbVertex
100
AcDb2dVertex
 10
91.810417
 20
222.514583
 30
0.0
  0
SEQEND
  5
374
100
AcDbEntity
  8
レイヤー_1
 62
     7
  0
POLYLINE
  5
368
100
AcDbEntity
  8
レイヤー_1
 62
     7
100
AcDb2dPolyline
 66
     1
 10
0.0
 20
0.0
 30
0.0
  0
VERTEX
  5
369
100
AcDbEntity
  8
レイヤー_1
 62
     7
100
AcDbVertex
100
AcDb2dVertex
 10
96.8375
 20
212.460417
 30
0.0
  0
VERTEX
  5
36A
100
AcDbEntity
  8
レイヤー_1
 62
     7
100
AcDbVertex
100
AcDb2dVertex
 10
96.8375
 20
222.514583
 30
0.0
  0
VERTEX
  5
36B
100
AcDbEntity
  8
レイヤー_1
 62
     7
100
AcDbVertex
100
AcDb2dVertex
 10
88.635417
 20
222.514583
 30
0.0
  0
SEQEND
  5
36C
100
AcDbEntity
  8
レイヤー_1
 62
     7
  0
LINE
  5
367
100
AcDbEntity
  8
レイヤー_1
 62
     7
100
AcDbLine
 10
96.8375
 20
212.460417
 30
0.0
 11
88.635417
 21
212.460417
 31
0.0
  0
POLYLINE
  5
35F
100
AcDbEntity
  8
レイヤー_1
 62
     7
100
AcDb2dPolyline
 66
     1
 10
0.0
 20
0.0
 30
0.0
  0
VERTEX
  5
360
100
AcDbEntity
  8
レイヤー_1
 62
     7
100
AcDbVertex
100
AcDb2dVertex
 10
91.545833
 20
212.460417
 30
0.0
  0
VERTEX
  5
361
100
AcDbEntity
  8
レイヤー_1
 62
     7
100
AcDbVertex
100
AcDb2dVertex
 10
92.86875
 20
214.047917
 30
0.0
  0
VERTEX
  5
362
100
AcDbEntity
  8
レイヤー_1
 62
     7
100
AcDbVertex
100
AcDb2dVertex
 10
93.6625
 20
216.164583
 30
0.0
  0
VERTEX
  5
363
100
AcDbEntity
  8
レイヤー_1
 62
     7
100
AcDbVertex
100
AcDb2dVertex
 10
93.6625
 20
218.545833
 30
0.0
  0
VERTEX
  5
364
100
AcDbEntity
  8
レイヤー_1
 62
     7
100
AcDbVertex
100
AcDb2dVertex
 10
92.86875
 20
220.6625
 30
0.0
  0
VERTEX
  5
365
100
AcDbEntity
  8
レイヤー_1
 62
     7
100
AcDbVertex
100
AcDb2dVertex
 10
91.545833
 20
222.514583
 30
0.0
  0
SEQEND
  5
366
100
AcDbEntity
  8
レイヤー_1
 62
     7
  0
POLYLINE
  5
35A
100
AcDbEntity
  8
レイヤー_1
 62
     7
100
AcDb2dPolyline
 66
     1
 10
0.0
 20
0.0
 30
0.0
  0
VERTEX
  5
35B
100
AcDbEntity
  8
レイヤー_1
 62
     7
100
AcDbVertex
100
AcDb2dVertex
 10
129.116667
 20
206.110417
 30
0.0
  0
VERTEX
  5
35C
100
AcDbEntity
  8
レイヤー_1
 62
     7
100
AcDbVertex
100
AcDb2dVertex
 10
129.116667
 20
228.6
 30
0.0
  0
VERTEX
  5
35D
100
AcDbEntity
  8
レイヤー_1
 62
     7
100
AcDbVertex
100
AcDb2dVertex
 10
128.5875
 20
228.6
 30
0.0
  0
SEQEND
  5
35E
100
AcDbEntity
  8
レイヤー_1
 62
     7
  0
POLYLINE
  5
355
100
AcDbEntity
  8
レイヤー_1
 62
     7
100
AcDb2dPolyline
 66
     1
 10
0.0
 20
0.0
 30
0.0
  0
VERTEX
  5
356
100
AcDbEntity
  8
レイヤー_1
 62
     7
100
AcDbVertex
100
AcDb2dVertex
 10
129.116667
 20
206.110417
 30
0.0
  0
VERTEX
  5
357
100
AcDbEntity
  8
レイヤー_1
 62
     7
100
AcDbVertex
100
AcDb2dVertex
 10
128.5875
 20
206.110417
 30
0.0
  0
VERTEX
  5
358
100
AcDbEntity
  8
レイヤー_1
 62
     7
100
AcDbVertex
100
AcDb2dVertex
 10
128.5875
 20
212.460417
 30
0.0
  0
SEQEND
  5
359
100
AcDbEntity
  8
レイヤー_1
 62
     7
  0
LINE
  5
354
100
AcDbEntity
  8
レイヤー_1
 62
     7
100
AcDbLine
 10
128.5875
 20
222.514583
 30
0.0
 11
128.5875
 21
228.6
 31
0.0
  0
LINE
  5
353
100
AcDbEntity
  8
レイヤー_1
 62
     7
100
AcDbLine
 10
128.5875
 20
222.514583
 30
0.0
 11
128.5875
 21
212.460417
 31
0.0
  0
POLYLINE
  5
34B
100
AcDbEntity
  8
レイヤー_1
 62
     7
100
AcDb2dPolyline
 66
     1
 10
0.0
 20
0.0
 30
0.0
  0
VERTEX
  5
34C
100
AcDbEntity
  8
レイヤー_1
 62
     7
100
AcDbVertex
100
AcDb2dVertex
 10
125.4125
 20
222.514583
 30
0.0
  0
VERTEX
  5
34D
100
AcDbEntity
  8
レイヤー_1
 62
     7
100
AcDbVertex
100
AcDb2dVertex
 10
124.089583
 20
220.6625
 30
0.0
  0
VERTEX
  5
34E
100
AcDbEntity
  8
レイヤー_1
 62
     7
100
AcDbVertex
100
AcDb2dVertex
 10
123.295833
 20
218.545833
 30
0.0
  0
VERTEX
  5
34F
100
AcDbEntity
  8
レイヤー_1
 62
     7
100
AcDbVertex
100
AcDb2dVertex
 10
123.295833
 20
216.164583
 30
0.0
  0
VERTEX
  5
350
100
AcDbEntity
  8
レイヤー_1
 62
     7
100
AcDbVertex
100
AcDb2dVertex
 10
124.089583
 20
214.047917
 30
0.0
  0
VERTEX
  5
351
100
AcDbEntity
  8
レイヤー_1
 62
     7
100
AcDbVertex
100
AcDb2dVertex
 10
125.4125
 20
212.460417
 30
0.0
  0
SEQEND
  5
352
100
AcDbEntity
  8
レイヤー_1
 62
     7
  0
POLYLINE
  5
346
100
AcDbEntity
  8
レイヤー_1
 62
     7
100
AcDb2dPolyline
 66
     1
 10
0.0
 20
0.0
 30
0.0
  0
VERTEX
  5
347
100
AcDbEntity
  8
レイヤー_1
 62
     7
100
AcDbVertex
100
AcDb2dVertex
 10
120.385417
 20
212.460417
 30
0.0
  0
VERTEX
  5
348
100
AcDbEntity
  8
レイヤー_1
 62
     7
100
AcDbVertex
100
AcDb2dVertex
 10
120.385417
 20
222.514583
 30
0.0
  0
VERTEX
  5
349
100
AcDbEntity
  8
レイヤー_1
 62
     7
100
AcDbVertex
100
AcDb2dVertex
 10
128.5875
 20
222.514583
 30
0.0
  0
SEQEND
  5
34A
100
AcDbEntity
  8
レイヤー_1
 62
     7
  0
LINE
  5
345
100
AcDbEntity
  8
レイヤー_1
 62
     7
100
AcDbLine
 10
120.385417
 20
212.460417
 30
0.0
 11
128.5875
 21
212.460417
 31
0.0
  0
POLYLINE
  5
33D
100
AcDbEntity
  8
レイヤー_1
 62
     7
100
AcDb2dPolyline
 66
     1
 10
0.0
 20
0.0
 30
0.0
  0
VERTEX
  5
33E
100
AcDbEntity
  8
レイヤー_1
 62
     7
100
AcDbVertex
100
AcDb2dVertex
 10
125.677083
 20
222.514583
 30
0.0
  0
VERTEX
  5
33F
100
AcDbEntity
  8
レイヤー_1
 62
     7
100
AcDbVertex
100
AcDb2dVertex
 10
124.354167
 20
220.6625
 30
0.0
  0
VERTEX
  5
340
100
AcDbEntity
  8
レイヤー_1
 62
     7
100
AcDbVertex
100
AcDb2dVertex
 10
123.560417
 20
218.545833
 30
0.0
  0
VERTEX
  5
341
100
AcDbEntity
  8
レイヤー_1
 62
     7
100
AcDbVertex
100
AcDb2dVertex
 10
123.560417
 20
216.164583
 30
0.0
  0
VERTEX
  5
342
100
AcDbEntity
  8
レイヤー_1
 62
     7
100
AcDbVertex
100
AcDb2dVertex
 10
124.354167
 20
214.047917
 30
0.0
  0
VERTEX
  5
343
100
AcDbEntity
  8
レイヤー_1
 62
     7
100
AcDbVertex
100
AcDb2dVertex
 10
125.677083
 20
212.460417
 30
0.0
  0
SEQEND
  5
344
100
AcDbEntity
  8
レイヤー_1
 62
     7
  0
POLYLINE
  5
333
100
AcDbEntity
  8
レイヤー_1
 62
     7
100
AcDb2dPolyline
 66
     1
 10
0.0
 20
0.0
 30
0.0
 70
     1
  0
VERTEX
  5
334
100
AcDbEntity
  8
レイヤー_1
 62
     7
100
AcDbVertex
100
AcDb2dVertex
 10
118.797917
 20
217.4875
 30
0.0
  0
VERTEX
  5
335
100
AcDbEntity
  8
レイヤー_1
 62
     7
100
AcDbVertex
100
AcDb2dVertex
 10
118.533333
 20
218.28125
 30
0.0
  0
VERTEX
  5
336
100
AcDbEntity
  8
レイヤー_1
 62
     7
100
AcDbVertex
100
AcDb2dVertex
 10
117.475
 20
218.545833
 30
0.0
  0
VERTEX
  5
337
100
AcDbEntity
  8
レイヤー_1
 62
     7
100
AcDbVertex
100
AcDb2dVertex
 10
116.68125
 20
218.28125
 30
0.0
  0
VERTEX
  5
338
100
AcDbEntity
  8
レイヤー_1
 62
     7
100
AcDbVertex
100
AcDb2dVertex
 10
116.416667
 20
217.4875
 30
0.0
  0
VERTEX
  5
339
100
AcDbEntity
  8
レイヤー_1
 62
     7
100
AcDbVertex
100
AcDb2dVertex
 10
116.68125
 20
216.429167
 30
0.0
  0
VERTEX
  5
33A
100
AcDbEntity
  8
レイヤー_1
 62
     7
100
AcDbVertex
100
AcDb2dVertex
 10
117.475
 20
216.164583
 30
0.0
  0
VERTEX
  5
33B
100
AcDbEntity
  8
レイヤー_1
 62
     7
100
AcDbVertex
100
AcDb2dVertex
 10
118.533333
 20
216.429167
 30
0.0
  0
SEQEND
  5
33C
100
AcDbEntity
  8
レイヤー_1
 62
     7
  0
POLYLINE
  5
329
100
AcDbEntity
  8
レイヤー_1
 62
     7
100
AcDb2dPolyline
 66
     1
 10
0.0
 20
0.0
 30
0.0
 70
     1
  0
VERTEX
  5
32A
100
AcDbEntity
  8
レイヤー_1
 62
     7
100
AcDbVertex
100
AcDb2dVertex
 10
100.80625
 20
217.4875
 30
0.0
  0
VERTEX
  5
32B
100
AcDbEntity
  8
レイヤー_1
 62
     7
100
AcDbVertex
100
AcDb2dVertex
 10
100.541667
 20
218.28125
 30
0.0
  0
VERTEX
  5
32C
100
AcDbEntity
  8
レイヤー_1
 62
     7
100
AcDbVertex
100
AcDb2dVertex
 10
99.483333
 20
218.545833
 30
0.0
  0
VERTEX
  5
32D
100
AcDbEntity
  8
レイヤー_1
 62
     7
100
AcDbVertex
100
AcDb2dVertex
 10
98.689583
 20
218.28125
 30
0.0
  0
VERTEX
  5
32E
100
AcDbEntity
  8
レイヤー_1
 62
     7
100
AcDbVertex
100
AcDb2dVertex
 10
98.425
 20
217.4875
 30
0.0
  0
VERTEX
  5
32F
100
AcDbEntity
  8
レイヤー_1
 62
     7
100
AcDbVertex
100
AcDb2dVertex
 10
98.689583
 20
216.429167
 30
0.0
  0
VERTEX
  5
330
100
AcDbEntity
  8
レイヤー_1
 62
     7
100
AcDbVertex
100
AcDb2dVertex
 10
99.483333
 20
216.164583
 30
0.0
  0
VERTEX
  5
331
100
AcDbEntity
  8
レイヤー_1
 62
     7
100
AcDbVertex
100
AcDb2dVertex
 10
100.541667
 20
216.429167
 30
0.0
  0
SEQEND
  5
332
100
AcDbEntity
  8
レイヤー_1
 62
     7
  0
POLYLINE
  5
322
100
AcDbEntity
  8
レイヤー_1
 62
     7
100
AcDb2dPolyline
 66
     1
 10
0.0
 20
0.0
 30
0.0
  0
VERTEX
  5
323
100
AcDbEntity
  8
レイヤー_1
 62
     7
100
AcDbVertex
100
AcDb2dVertex
 10
73.554167
 20
179.916667
 30
0.0
  0
VERTEX
  5
324
100
AcDbEntity
  8
レイヤー_1
 62
     7
100
AcDbVertex
100
AcDb2dVertex
 10
143.66875
 20
179.916667
 30
0.0
  0
VERTEX
  5
325
100
AcDbEntity
  8
レイヤー_1
 62
     7
100
AcDbVertex
100
AcDb2dVertex
 10
144.727083
 20
180.18125
 30
0.0
  0
VERTEX
  5
326
100
AcDbEntity
  8
レイヤー_1
 62
     7
100
AcDbVertex
100
AcDb2dVertex
 10
145.785417
 20
181.239583
 30
0.0
  0
VERTEX
  5
327
100
AcDbEntity
  8
レイヤー_1
 62
     7
100
AcDbVertex
100
AcDb2dVertex
 10
146.05
 20
182.297917
 30
0.0
  0
SEQEND
  5
328
100
AcDbEntity
  8
レイヤー_1
 62
     7
  0
POLYLINE
  5
31B
100
AcDbEntity
  8
レイヤー_1
 62
     7
100
AcDb2dPolyline
 66
     1
 10
0.0
 20
0.0
 30
0.0
  0
VERTEX
  5
31C
100
AcDbEntity
  8
レイヤー_1
 62
     7
100
AcDbVertex
100
AcDb2dVertex
 10
71.172917
 20
252.4125
 30
0.0
  0
VERTEX
  5
31D
100
AcDbEntity
  8
レイヤー_1
 62
     7
100
AcDbVertex
100
AcDb2dVertex
 10
71.172917
 20
182.297917
 30
0.0
  0
VERTEX
  5
31E
100
AcDbEntity
  8
レイヤー_1
 62
     7
100
AcDbVertex
100
AcDb2dVertex
 10
71.4375
 20
181.239583
 30
0.0
  0
VERTEX
  5
31F
100
AcDbEntity
  8
レイヤー_1
 62
     7
100
AcDbVertex
100
AcDb2dVertex
 10
72.23125
 20
180.18125
 30
0.0
  0
VERTEX
  5
320
100
AcDbEntity
  8
レイヤー_1
 62
     7
100
AcDbVertex
100
AcDb2dVertex
 10
73.554167
 20
179.916667
 30
0.0
  0
SEQEND
  5
321
100
AcDbEntity
  8
レイヤー_1
 62
     7
  0
POLYLINE
  5
314
100
AcDbEntity
  8
レイヤー_1
 62
     7
100
AcDb2dPolyline
 66
     1
 10
0.0
 20
0.0
 30
0.0
  0
VERTEX
  5
315
100
AcDbEntity
  8
レイヤー_1
 62
     7
100
AcDbVertex
100
AcDb2dVertex
 10
143.66875
 20
254.79375
 30
0.0
  0
VERTEX
  5
316
100
AcDbEntity
  8
レイヤー_1
 62
     7
100
AcDbVertex
100
AcDb2dVertex
 10
73.554167
 20
254.79375
 30
0.0
  0
VERTEX
  5
317
100
AcDbEntity
  8
レイヤー_1
 62
     7
100
AcDbVertex
100
AcDb2dVertex
 10
72.23125
 20
254.529167
 30
0.0
  0
VERTEX
  5
318
100
AcDbEntity
  8
レイヤー_1
 62
     7
100
AcDbVertex
100
AcDb2dVertex
 10
71.4375
 20
253.735417
 30
0.0
  0
VERTEX
  5
319
100
AcDbEntity
  8
レイヤー_1
 62
     7
100
AcDbVertex
100
AcDb2dVertex
 10
71.172917
 20
252.4125
 30
0.0
  0
SEQEND
  5
31A
100
AcDbEntity
  8
レイヤー_1
 62
     7
  0
POLYLINE
  5
30D
100
AcDbEntity
  8
レイヤー_1
 62
     7
100
AcDb2dPolyline
 66
     1
 10
0.0
 20
0.0
 30
0.0
  0
VERTEX
  5
30E
100
AcDbEntity
  8
レイヤー_1
 62
     7
100
AcDbVertex
100
AcDb2dVertex
 10
146.05
 20
182.297917
 30
0.0
  0
VERTEX
  5
30F
100
AcDbEntity
  8
レイヤー_1
 62
     7
100
AcDbVertex
100
AcDb2dVertex
 10
146.05
 20
252.4125
 30
0.0
  0
VERTEX
  5
310
100
AcDbEntity
  8
レイヤー_1
 62
     7
100
AcDbVertex
100
AcDb2dVertex
 10
145.785417
 20
253.735417
 30
0.0
  0
VERTEX
  5
311
100
AcDbEntity
  8
レイヤー_1
 62
     7
100
AcDbVertex
100
AcDb2dVertex
 10
144.727083
 20
254.529167
 30
0.0
  0
VERTEX
  5
312
100
AcDbEntity
  8
レイヤー_1
 62
     7
100
AcDbVertex
100
AcDb2dVertex
 10
143.66875
 20
254.79375
 30
0.0
  0
SEQEND
  5
313
100
AcDbEntity
  8
レイヤー_1
 62
     7
  0
POLYLINE
  5
305
100
AcDbEntity
  8
レイヤー_1
 62
     7
100
AcDb2dPolyline
 66
     1
 10
0.0
 20
0.0
 30
0.0
 70
     1
  0
VERTEX
  5
306
100
AcDbEntity
  8
レイヤー_1
 62
     7
100
AcDbVertex
100
AcDb2dVertex
 10
98.689583
 20
215.9
 30
0.0
  0
VERTEX
  5
307
100
AcDbEntity
  8
レイヤー_1
 62
     7
100
AcDbVertex
100
AcDb2dVertex
 10
100.541667
 20
215.9
 30
0.0
  0
VERTEX
  5
308
100
AcDbEntity
  8
レイヤー_1
 62
     7
100
AcDbVertex
100
AcDb2dVertex
 10
101.6
 20
217.4875
 30
0.0
  0
VERTEX
  5
309
100
AcDbEntity
  8
レイヤー_1
 62
     7
100
AcDbVertex
100
AcDb2dVertex
 10
100.541667
 20
219.075
 30
0.0
  0
VERTEX
  5
30A
100
AcDbEntity
  8
レイヤー_1
 62
     7
100
AcDbVertex
100
AcDb2dVertex
 10
98.689583
 20
219.075
 30
0.0
  0
VERTEX
  5
30B
100
AcDbEntity
  8
レイヤー_1
 62
     7
100
AcDbVertex
100
AcDb2dVertex
 10
97.63125
 20
217.4875
 30
0.0
  0
SEQEND
  5
30C
100
AcDbEntity
  8
レイヤー_1
 62
     7
  0
POLYLINE
  5
2FD
100
AcDbEntity
  8
レイヤー_1
 62
     7
100
AcDb2dPolyline
 66
     1
 10
0.0
 20
0.0
 30
0.0
 70
     1
  0
VERTEX
  5
2FE
100
AcDbEntity
  8
レイヤー_1
 62
     7
100
AcDbVertex
100
AcDb2dVertex
 10
116.68125
 20
215.9
 30
0.0
  0
VERTEX
  5
2FF
100
AcDbEntity
  8
レイヤー_1
 62
     7
100
AcDbVertex
100
AcDb2dVertex
 10
118.533333
 20
215.9
 30
0.0
  0
VERTEX
  5
300
100
AcDbEntity
  8
レイヤー_1
 62
     7
100
AcDbVertex
100
AcDb2dVertex
 10
119.591667
 20
217.4875
 30
0.0
  0
VERTEX
  5
301
100
AcDbEntity
  8
レイヤー_1
 62
     7
100
AcDbVertex
100
AcDb2dVertex
 10
118.533333
 20
219.075
 30
0.0
  0
VERTEX
  5
302
100
AcDbEntity
  8
レイヤー_1
 62
     7
100
AcDbVertex
100
AcDb2dVertex
 10
116.68125
 20
219.075
 30
0.0
  0
VERTEX
  5
303
100
AcDbEntity
  8
レイヤー_1
 62
     7
100
AcDbVertex
100
AcDb2dVertex
 10
115.622917
 20
217.4875
 30
0.0
  0
SEQEND
  5
304
100
AcDbEntity
  8
レイヤー_1
 62
     7
  0
LINE
  5
2FC
100
AcDbEntity
  8
レイヤー_1
 62
     7
100
AcDbLine
 10
98.425
 20
218.810417
 30
0.0
 11
97.895833
 21
217.752083
 31
0.0
  0
LINE
  5
2FB
100
AcDbEntity
  8
レイヤー_1
 62
     7
100
AcDbLine
 10
97.895833
 20
217.222917
 30
0.0
 11
98.425
 21
215.9
 31
0.0
  0
LINE
  5
2FA
100
AcDbEntity
  8
レイヤー_1
 62
     7
100
AcDbLine
 10
98.954167
 20
215.9
 30
0.0
 11
100.277083
 21
215.9
 31
0.0
  0
LINE
  5
2F9
100
AcDbEntity
  8
レイヤー_1
 62
     7
100
AcDbLine
 10
100.541667
 20
215.9
 30
0.0
 11
101.335417
 21
217.222917
 31
0.0
  0
LINE
  5
2F8
100
AcDbEntity
  8
レイヤー_1
 62
     7
100
AcDbLine
 10
101.335417
 20
217.752083
 30
0.0
 11
100.541667
 21
218.810417
 31
0.0
  0
LINE
  5
2F7
100
AcDbEntity
  8
レイヤー_1
 62
     7
100
AcDbLine
 10
100.277083
 20
219.075
 30
0.0
 11
98.954167
 21
219.075
 31
0.0
  0
LINE
  5
2F6
100
AcDbEntity
  8
レイヤー_1
 62
     7
100
AcDbLine
 10
116.416667
 20
218.810417
 30
0.0
 11
115.8875
 21
217.752083
 31
0.0
  0
LINE
  5
2F5
100
AcDbEntity
  8
レイヤー_1
 62
     7
100
AcDbLine
 10
115.8875
 20
217.222917
 30
0.0
 11
116.416667
 21
215.9
 31
0.0
  0
LINE
  5
2F4
100
AcDbEntity
  8
レイヤー_1
 62
     7
100
AcDbLine
 10
116.945833
 20
215.9
 30
0.0
 11
118.26875
 21
215.9
 31
0.0
  0
LINE
  5
2F3
100
AcDbEntity
  8
レイヤー_1
 62
     7
100
AcDbLine
 10
118.797917
 20
215.9
 30
0.0
 11
119.327083
 21
217.222917
 31
0.0
  0
LINE
  5
2F2
100
AcDbEntity
  8
レイヤー_1
 62
     7
100
AcDbLine
 10
119.327083
 20
217.752083
 30
0.0
 11
118.797917
 21
218.810417
 31
0.0
  0
LINE
  5
2F1
100
AcDbEntity
  8
レイヤー_1
 62
     7
100
AcDbLine
 10
118.26875
 20
219.075
 30
0.0
 11
116.945833
 21
219.075
 31
0.0
  0
POLYLINE
  5
2E7
100
AcDbEntity
  8
レイヤー_1
 62
     7
100
AcDb2dPolyline
 66
     1
 10
0.0
 20
0.0
 30
0.0
 70
     1
  0
VERTEX
  5
2E8
100
AcDbEntity
  8
レイヤー_1
 62
     7
100
AcDbVertex
100
AcDb2dVertex
 10
101.070833
 20
217.4875
 30
0.0
  0
VERTEX
  5
2E9
100
AcDbEntity
  8
レイヤー_1
 62
     7
100
AcDbVertex
100
AcDb2dVertex
 10
100.80625
 20
218.545833
 30
0.0
  0
VERTEX
  5
2EA
100
AcDbEntity
  8
レイヤー_1
 62
     7
100
AcDbVertex
100
AcDb2dVertex
 10
99.483333
 20
219.075
 30
0.0
  0
VERTEX
  5
2EB
100
AcDbEntity
  8
レイヤー_1
 62
     7
100
AcDbVertex
100
AcDb2dVertex
 10
98.425
 20
218.545833
 30
0.0
  0
VERTEX
  5
2EC
100
AcDbEntity
  8
レイヤー_1
 62
     7
100
AcDbVertex
100
AcDb2dVertex
 10
97.895833
 20
217.4875
 30
0.0
  0
VERTEX
  5
2ED
100
AcDbEntity
  8
レイヤー_1
 62
     7
100
AcDbVertex
100
AcDb2dVertex
 10
98.425
 20
216.164583
 30
0.0
  0
VERTEX
  5
2EE
100
AcDbEntity
  8
レイヤー_1
 62
     7
100
AcDbVertex
100
AcDb2dVertex
 10
99.483333
 20
215.9
 30
0.0
  0
VERTEX
  5
2EF
100
AcDbEntity
  8
レイヤー_1
 62
     7
100
AcDbVertex
100
AcDb2dVertex
 10
100.80625
 20
216.164583
 30
0.0
  0
SEQEND
  5
2F0
100
AcDbEntity
  8
レイヤー_1
 62
     7
  0
POLYLINE
  5
2DD
100
AcDbEntity
  8
レイヤー_1
 62
     7
100
AcDb2dPolyline
 66
     1
 10
0.0
 20
0.0
 30
0.0
 70
     1
  0
VERTEX
  5
2DE
100
AcDbEntity
  8
レイヤー_1
 62
     7
100
AcDbVertex
100
AcDb2dVertex
 10
119.0625
 20
217.4875
 30
0.0
  0
VERTEX
  5
2DF
100
AcDbEntity
  8
レイヤー_1
 62
     7
100
AcDbVertex
100
AcDb2dVertex
 10
118.797917
 20
218.545833
 30
0.0
  0
VERTEX
  5
2E0
100
AcDbEntity
  8
レイヤー_1
 62
     7
100
AcDbVertex
100
AcDb2dVertex
 10
117.475
 20
219.075
 30
0.0
  0
VERTEX
  5
2E1
100
AcDbEntity
  8
レイヤー_1
 62
     7
100
AcDbVertex
100
AcDb2dVertex
 10
116.416667
 20
218.545833
 30
0.0
  0
VERTEX
  5
2E2
100
AcDbEntity
  8
レイヤー_1
 62
     7
100
AcDbVertex
100
AcDb2dVertex
 10
115.8875
 20
217.4875
 30
0.0
  0
VERTEX
  5
2E3
100
AcDbEntity
  8
レイヤー_1
 62
     7
100
AcDbVertex
100
AcDb2dVertex
 10
116.416667
 20
216.164583
 30
0.0
  0
VERTEX
  5
2E4
100
AcDbEntity
  8
レイヤー_1
 62
     7
100
AcDbVertex
100
AcDb2dVertex
 10
117.475
 20
215.9
 30
0.0
  0
VERTEX
  5
2E5
100
AcDbEntity
  8
レイヤー_1
 62
     7
100
AcDbVertex
100
AcDb2dVertex
 10
118.797917
 20
216.164583
 30
0.0
  0
SEQEND
  5
2E6
100
AcDbEntity
  8
レイヤー_1
 62
     7
  0
LINE
  5
2DC
100
AcDbEntity
  8
レイヤー_1
 62
     7
100
AcDbLine
 10
50.535417
 20
57.414583
 30
0.0
 11
50.8
 21
57.414583
 31
0.0
  0
POLYLINE
  5
2D6
100
AcDbEntity
  8
レイヤー_1
 62
     7
100
AcDb2dPolyline
 66
     1
 10
0.0
 20
0.0
 30
0.0
 70
     1
  0
VERTEX
  5
2D7
100
AcDbEntity
  8
レイヤー_1
 62
     7
100
AcDbVertex
100
AcDb2dVertex
 10
183.620833
 20
57.414583
 30
0.0
  0
VERTEX
  5
2D8
100
AcDbEntity
  8
レイヤー_1
 62
     7
100
AcDbVertex
100
AcDb2dVertex
 10
258.497917
 20
57.414583
 30
0.0
  0
VERTEX
  5
2D9
100
AcDbEntity
  8
レイヤー_1
 62
     7
100
AcDbVertex
100
AcDb2dVertex
 10
258.497917
 20
57.94375
 30
0.0
  0
VERTEX
  5
2DA
100
AcDbEntity
  8
レイヤー_1
 62
     7
100
AcDbVertex
100
AcDb2dVertex
 10
183.620833
 20
57.94375
 30
0.0
  0
SEQEND
  5
2DB
100
AcDbEntity
  8
レイヤー_1
 62
     7
  0
POLYLINE
  5
2D0
100
AcDbEntity
  8
レイヤー_1
 62
     7
100
AcDb2dPolyline
 66
     1
 10
0.0
 20
0.0
 30
0.0
 70
     1
  0
VERTEX
  5
2D1
100
AcDbEntity
  8
レイヤー_1
 62
     7
100
AcDbVertex
100
AcDb2dVertex
 10
202.40625
 20
57.94375
 30
0.0
  0
VERTEX
  5
2D2
100
AcDbEntity
  8
レイヤー_1
 62
     7
100
AcDbVertex
100
AcDb2dVertex
 10
239.7125
 20
57.94375
 30
0.0
  0
VERTEX
  5
2D3
100
AcDbEntity
  8
レイヤー_1
 62
     7
100
AcDbVertex
100
AcDb2dVertex
 10
239.7125
 20
58.472917
 30
0.0
  0
VERTEX
  5
2D4
100
AcDbEntity
  8
レイヤー_1
 62
     7
100
AcDbVertex
100
AcDb2dVertex
 10
202.40625
 20
58.472917
 30
0.0
  0
SEQEND
  5
2D5
100
AcDbEntity
  8
レイヤー_1
 62
     7
  0
LINE
  5
2CF
100
AcDbEntity
  8
レイヤー_1
 62
     7
100
AcDbLine
 10
208.491667
 20
68.527083
 30
0.0
 11
208.491667
 21
58.472917
 31
0.0
  0
LINE
  5
2CE
100
AcDbEntity
  8
レイヤー_1
 62
     7
100
AcDbLine
 10
239.7125
 20
58.472917
 30
0.0
 11
239.7125
 21
57.94375
 31
0.0
  0
POLYLINE
  5
2C9
100
AcDbEntity
  8
レイヤー_1
 62
     7
100
AcDb2dPolyline
 66
     1
 10
0.0
 20
0.0
 30
0.0
  0
VERTEX
  5
2CA
100
AcDbEntity
  8
レイヤー_1
 62
     7
100
AcDbVertex
100
AcDb2dVertex
 10
233.627083
 20
58.472917
 30
0.0
  0
VERTEX
  5
2CB
100
AcDbEntity
  8
レイヤー_1
 62
     7
100
AcDbVertex
100
AcDb2dVertex
 10
233.627083
 20
68.527083
 30
0.0
  0
VERTEX
  5
2CC
100
AcDbEntity
  8
レイヤー_1
 62
     7
100
AcDbVertex
100
AcDb2dVertex
 10
208.491667
 20
68.527083
 30
0.0
  0
SEQEND
  5
2CD
100
AcDbEntity
  8
レイヤー_1
 62
     7
  0
LINE
  5
2C8
100
AcDbEntity
  8
レイヤー_1
 62
     7
100
AcDbLine
 10
221.191667
 20
68.527083
 30
0.0
 11
216.164583
 21
68.527083
 31
0.0
  0
LINE
  5
2C7
100
AcDbEntity
  8
レイヤー_1
 62
     7
100
AcDbLine
 10
216.164583
 20
102.129167
 30
0.0
 11
209.814583
 21
107.685417
 31
0.0
  0
POLYLINE
  5
2C2
100
AcDbEntity
  8
レイヤー_1
 62
     7
100
AcDb2dPolyline
 66
     1
 10
0.0
 20
0.0
 30
0.0
  0
VERTEX
  5
2C3
100
AcDbEntity
  8
レイヤー_1
 62
     7
100
AcDbVertex
100
AcDb2dVertex
 10
216.164583
 20
132.291667
 30
0.0
  0
VERTEX
  5
2C4
100
AcDbEntity
  8
レイヤー_1
 62
     7
100
AcDbVertex
100
AcDb2dVertex
 10
209.814583
 20
126.735417
 30
0.0
  0
VERTEX
  5
2C5
100
AcDbEntity
  8
レイヤー_1
 62
     7
100
AcDbVertex
100
AcDb2dVertex
 10
209.814583
 20
107.685417
 30
0.0
  0
SEQEND
  5
2C6
100
AcDbEntity
  8
レイヤー_1
 62
     7
  0
LINE
  5
2C1
100
AcDbEntity
  8
レイヤー_1
 62
     7
100
AcDbLine
 10
216.164583
 20
68.527083
 30
0.0
 11
216.164583
 21
102.129167
 31
0.0
  0
LINE
  5
2C0
100
AcDbEntity
  8
レイヤー_1
 62
     7
100
AcDbLine
 10
216.164583
 20
132.291667
 30
0.0
 11
216.164583
 21
139.435417
 31
0.0
  0
LINE
  5
2BF
100
AcDbEntity
  8
レイヤー_1
 62
     7
100
AcDbLine
 10
225.954167
 20
102.129167
 30
0.0
 11
232.304167
 21
107.685417
 31
0.0
  0
POLYLINE
  5
2BA
100
AcDbEntity
  8
レイヤー_1
 62
     7
100
AcDb2dPolyline
 66
     1
 10
0.0
 20
0.0
 30
0.0
  0
VERTEX
  5
2BB
100
AcDbEntity
  8
レイヤー_1
 62
     7
100
AcDbVertex
100
AcDb2dVertex
 10
225.954167
 20
132.291667
 30
0.0
  0
VERTEX
  5
2BC
100
AcDbEntity
  8
レイヤー_1
 62
     7
100
AcDbVertex
100
AcDb2dVertex
 10
232.304167
 20
126.735417
 30
0.0
  0
VERTEX
  5
2BD
100
AcDbEntity
  8
レイヤー_1
 62
     7
100
AcDbVertex
100
AcDb2dVertex
 10
232.304167
 20
107.685417
 30
0.0
  0
SEQEND
  5
2BE
100
AcDbEntity
  8
レイヤー_1
 62
     7
  0
LINE
  5
2B9
100
AcDbEntity
  8
レイヤー_1
 62
     7
100
AcDbLine
 10
225.954167
 20
68.527083
 30
0.0
 11
225.954167
 21
102.129167
 31
0.0
  0
POLYLINE
  5
2AD
100
AcDbEntity
  8
レイヤー_1
 62
     7
100
AcDb2dPolyline
 66
     1
 10
0.0
 20
0.0
 30
0.0
  0
VERTEX
  5
2AE
100
AcDbEntity
  8
レイヤー_1
 62
     7
100
AcDbVertex
100
AcDb2dVertex
 10
225.954167
 20
132.291667
 30
0.0
  0
VERTEX
  5
2AF
100
AcDbEntity
  8
レイヤー_1
 62
     7
100
AcDbVertex
100
AcDb2dVertex
 10
225.954167
 20
139.435417
 30
0.0
  0
VERTEX
  5
2B0
100
AcDbEntity
  8
レイヤー_1
 62
     7
100
AcDbVertex
100
AcDb2dVertex
 10
225.689583
 20
141.2875
 30
0.0
  0
VERTEX
  5
2B1
100
AcDbEntity
  8
レイヤー_1
 62
     7
100
AcDbVertex
100
AcDb2dVertex
 10
224.63125
 20
143.139583
 30
0.0
  0
VERTEX
  5
2B2
100
AcDbEntity
  8
レイヤー_1
 62
     7
100
AcDbVertex
100
AcDb2dVertex
 10
223.04375
 20
144.197917
 30
0.0
  0
VERTEX
  5
2B3
100
AcDbEntity
  8
レイヤー_1
 62
     7
100
AcDbVertex
100
AcDb2dVertex
 10
221.191667
 20
144.4625
 30
0.0
  0
VERTEX
  5
2B4
100
AcDbEntity
  8
レイヤー_1
 62
     7
100
AcDbVertex
100
AcDb2dVertex
 10
219.075
 20
144.197917
 30
0.0
  0
VERTEX
  5
2B5
100
AcDbEntity
  8
レイヤー_1
 62
     7
100
AcDbVertex
100
AcDb2dVertex
 10
217.4875
 20
143.139583
 30
0.0
  0
VERTEX
  5
2B6
100
AcDbEntity
  8
レイヤー_1
 62
     7
100
AcDbVertex
100
AcDb2dVertex
 10
216.429167
 20
141.2875
 30
0.0
  0
VERTEX
  5
2B7
100
AcDbEntity
  8
レイヤー_1
 62
     7
100
AcDbVertex
100
AcDb2dVertex
 10
216.164583
 20
139.435417
 30
0.0
  0
SEQEND
  5
2B8
100
AcDbEntity
  8
レイヤー_1
 62
     7
  0
LINE
  5
2AC
100
AcDbEntity
  8
レイヤー_1
 62
     7
100
AcDbLine
 10
216.164583
 20
132.291667
 30
0.0
 11
225.954167
 21
132.291667
 31
0.0
  0
LINE
  5
2AB
100
AcDbEntity
  8
レイヤー_1
 62
     7
100
AcDbLine
 10
216.164583
 20
102.129167
 30
0.0
 11
225.954167
 21
102.129167
 31
0.0
  0
LINE
  5
2AA
100
AcDbEntity
  8
レイヤー_1
 62
     7
100
AcDbLine
 10
332.845833
 20
134.408333
 30
0.0
 11
337.608333
 21
134.408333
 31
0.0
  0
LINE
  5
2A9
100
AcDbEntity
  8
レイヤー_1
 62
     7
100
AcDbLine
 10
336.285417
 20
79.904167
 30
0.0
 11
335.75625
 21
74.877083
 31
0.0
  0
POLYLINE
  5
2A4
100
AcDbEntity
  8
レイヤー_1
 62
     7
100
AcDb2dPolyline
 66
     1
 10
0.0
 20
0.0
 30
0.0
  0
VERTEX
  5
2A5
100
AcDbEntity
  8
レイヤー_1
 62
     7
100
AcDbVertex
100
AcDb2dVertex
 10
334.697917
 20
74.877083
 30
0.0
  0
VERTEX
  5
2A6
100
AcDbEntity
  8
レイヤー_1
 62
     7
100
AcDbVertex
100
AcDb2dVertex
 10
334.16875
 20
79.904167
 30
0.0
  0
VERTEX
  5
2A7
100
AcDbEntity
  8
レイヤー_1
 62
     7
100
AcDbVertex
100
AcDb2dVertex
 10
334.16875
 20
134.408333
 30
0.0
  0
SEQEND
  5
2A8
100
AcDbEntity
  8
レイヤー_1
 62
     7
  0
LINE
  5
2A3
100
AcDbEntity
  8
レイヤー_1
 62
     7
100
AcDbLine
 10
336.285417
 20
134.408333
 30
0.0
 11
336.285417
 21
79.904167
 31
0.0
  0
POLYLINE
  5
29C
100
AcDbEntity
  8
レイヤー_1
 62
     7
100
AcDb2dPolyline
 66
     1
 10
0.0
 20
0.0
 30
0.0
  0
VERTEX
  5
29D
100
AcDbEntity
  8
レイヤー_1
 62
     7
100
AcDbVertex
100
AcDb2dVertex
 10
334.697917
 20
74.877083
 30
0.0
  0
VERTEX
  5
29E
100
AcDbEntity
  8
レイヤー_1
 62
     7
100
AcDbVertex
100
AcDb2dVertex
 10
334.9625
 20
74.347917
 30
0.0
  0
VERTEX
  5
29F
100
AcDbEntity
  8
レイヤー_1
 62
     7
100
AcDbVertex
100
AcDb2dVertex
 10
335.227083
 20
74.347917
 30
0.0
  0
VERTEX
  5
2A0
100
AcDbEntity
  8
レイヤー_1
 62
     7
100
AcDbVertex
100
AcDb2dVertex
 10
335.491667
 20
74.347917
 30
0.0
  0
VERTEX
  5
2A1
100
AcDbEntity
  8
レイヤー_1
 62
     7
100
AcDbVertex
100
AcDb2dVertex
 10
335.75625
 20
74.877083
 30
0.0
  0
SEQEND
  5
2A2
100
AcDbEntity
  8
レイヤー_1
 62
     7
  0
POLYLINE
  5
297
100
AcDbEntity
  8
レイヤー_1
 62
     7
100
AcDb2dPolyline
 66
     1
 10
0.0
 20
0.0
 30
0.0
  0
VERTEX
  5
298
100
AcDbEntity
  8
レイヤー_1
 62
     7
100
AcDbVertex
100
AcDb2dVertex
 10
337.608333
 20
135.202083
 30
0.0
  0
VERTEX
  5
299
100
AcDbEntity
  8
レイヤー_1
 62
     7
100
AcDbVertex
100
AcDb2dVertex
 10
332.845833
 20
135.202083
 30
0.0
  0
VERTEX
  5
29A
100
AcDbEntity
  8
レイヤー_1
 62
     7
100
AcDbVertex
100
AcDb2dVertex
 10
332.845833
 20
134.408333
 30
0.0
  0
SEQEND
  5
29B
100
AcDbEntity
  8
レイヤー_1
 62
     7
  0
LINE
  5
296
100
AcDbEntity
  8
レイヤー_1
 62
     7
100
AcDbLine
 10
337.608333
 20
134.408333
 30
0.0
 11
337.608333
 21
135.202083
 31
0.0
  0
INSERT
  5
292
100
AcDbEntity
  8
レイヤー_1
 62
     7
100
AcDbBlockReference
  2
AI9-BLK33
 10
338.933834
 20
194.749009
 30
0.0
  0
POLYLINE
  5
283
100
AcDbEntity
  8
レイヤー_1
 62
     7
100
AcDb2dPolyline
 66
     1
 10
0.0
 20
0.0
 30
0.0
 70
     1
  0
VERTEX
  5
284
100
AcDbEntity
  8
レイヤー_1
 62
     7
100
AcDbVertex
100
AcDb2dVertex
 10
337.608333
 20
162.454167
 30
0.0
  0
VERTEX
  5
285
100
AcDbEntity
  8
レイヤー_1
 62
     7
100
AcDbVertex
100
AcDb2dVertex
 10
337.34375
 20
163.777083
 30
0.0
  0
VERTEX
  5
286
100
AcDbEntity
  8
レイヤー_1
 62
     7
100
AcDbVertex
100
AcDb2dVertex
 10
336.55
 20
164.835417
 30
0.0
  0
VERTEX
  5
287
100
AcDbEntity
  8
レイヤー_1
 62
     7
100
AcDbVertex
100
AcDb2dVertex
 10
335.227083
 20
165.1
 30
0.0
  0
VERTEX
  5
288
100
AcDbEntity
  8
レイヤー_1
 62
     7
100
AcDbVertex
100
AcDb2dVertex
 10
333.904167
 20
164.835417
 30
0.0
  0
VERTEX
  5
289
100
AcDbEntity
  8
レイヤー_1
 62
     7
100
AcDbVertex
100
AcDb2dVertex
 10
333.110417
 20
163.777083
 30
0.0
  0
VERTEX
  5
28A
100
AcDbEntity
  8
レイヤー_1
 62
     7
100
AcDbVertex
100
AcDb2dVertex
 10
332.845833
 20
162.454167
 30
0.0
  0
VERTEX
  5
28B
100
AcDbEntity
  8
レイヤー_1
 62
     7
100
AcDbVertex
100
AcDb2dVertex
 10
333.110417
 20
161.395833
 30
0.0
  0
VERTEX
  5
28C
100
AcDbEntity
  8
レイヤー_1
 62
     7
100
AcDbVertex
100
AcDb2dVertex
 10
333.904167
 20
160.3375
 30
0.0
  0
VERTEX
  5
28D
100
AcDbEntity
  8
レイヤー_1
 62
     7
100
AcDbVertex
100
AcDb2dVertex
 10
335.227083
 20
160.072917
 30
0.0
  0
VERTEX
  5
28E
100
AcDbEntity
  8
レイヤー_1
 62
     7
100
AcDbVertex
100
AcDb2dVertex
 10
336.55
 20
160.3375
 30
0.0
  0
VERTEX
  5
28F
100
AcDbEntity
  8
レイヤー_1
 62
     7
100
AcDbVertex
100
AcDb2dVertex
 10
337.34375
 20
161.395833
 30
0.0
  0
SEQEND
  5
290
100
AcDbEntity
  8
レイヤー_1
 62
     7
  0
POLYLINE
  5
27D
100
AcDbEntity
  8
レイヤー_1
 62
     7
100
AcDb2dPolyline
 66
     1
 10
0.0
 20
0.0
 30
0.0
 70
     1
  0
VERTEX
  5
27E
100
AcDbEntity
  8
レイヤー_1
 62
     7
100
AcDbVertex
100
AcDb2dVertex
 10
303.2125
 20
205.316667
 30
0.0
  0
VERTEX
  5
27F
100
AcDbEntity
  8
レイヤー_1
 62
     7
100
AcDbVertex
100
AcDb2dVertex
 10
391.847917
 20
205.316667
 30
0.0
  0
VERTEX
  5
280
100
AcDbEntity
  8
レイヤー_1
 62
     7
100
AcDbVertex
100
AcDb2dVertex
 10
391.847917
 20
63.5
 30
0.0
  0
VERTEX
  5
281
100
AcDbEntity
  8
レイヤー_1
 62
     7
100
AcDbVertex
100
AcDb2dVertex
 10
303.2125
 20
63.5
 30
0.0
  0
SEQEND
  5
282
100
AcDbEntity
  8
レイヤー_1
 62
     7
  0
LINE
  5
27C
100
AcDbEntity
  8
レイヤー_1
 62
     7
100
AcDbLine
 10
340.254167
 20
74.347917
 30
0.0
 11
372.004167
 21
74.347917
 31
0.0
  0
LINE
  5
27B
100
AcDbEntity
  8
レイヤー_1
 62
     7
100
AcDbLine
 10
342.635417
 20
135.202083
 30
0.0
 11
372.004167
 21
135.202083
 31
0.0
  0
LINE
  5
27A
100
AcDbEntity
  8
レイヤー_1
 62
     7
100
AcDbLine
 10
369.09375
 20
75.40625
 30
0.0
 11
369.09375
 21
134.408333
 31
0.0
  0
POLYLINE
  5
275
100
AcDbEntity
  8
レイヤー_1
 62
     7
100
AcDb2dPolyline
 66
     1
 10
0.0
 20
0.0
 30
0.0
  0
VERTEX
  5
276
100
AcDbEntity
  8
レイヤー_1
 62
     7
100
AcDbVertex
100
AcDb2dVertex
 10
369.358333
 20
75.40625
 30
0.0
  0
VERTEX
  5
277
100
AcDbEntity
  8
レイヤー_1
 62
     7
100
AcDbVertex
100
AcDb2dVertex
 10
369.09375
 20
74.347917
 30
0.0
  0
VERTEX
  5
278
100
AcDbEntity
  8
レイヤー_1
 62
     7
100
AcDbVertex
100
AcDb2dVertex
 10
368.829167
 20
75.40625
 30
0.0
  0
SEQEND
  5
279
100
AcDbEntity
  8
レイヤー_1
 62
     7
  0
LINE
  5
274
100
AcDbEntity
  8
レイヤー_1
 62
     7
100
AcDbLine
 10
369.09375
 20
74.347917
 30
0.0
 11
369.09375
 21
75.40625
 31
0.0
  0
POLYLINE
  5
26F
100
AcDbEntity
  8
レイヤー_1
 62
     7
100
AcDb2dPolyline
 66
     1
 10
0.0
 20
0.0
 30
0.0
  0
VERTEX
  5
270
100
AcDbEntity
  8
レイヤー_1
 62
     7
100
AcDbVertex
100
AcDb2dVertex
 10
368.829167
 20
134.408333
 30
0.0
  0
VERTEX
  5
271
100
AcDbEntity
  8
レイヤー_1
 62
     7
100
AcDbVertex
100
AcDb2dVertex
 10
369.09375
 20
135.202083
 30
0.0
  0
VERTEX
  5
272
100
AcDbEntity
  8
レイヤー_1
 62
     7
100
AcDbVertex
100
AcDb2dVertex
 10
369.358333
 20
134.408333
 30
0.0
  0
SEQEND
  5
273
100
AcDbEntity
  8
レイヤー_1
 62
     7
  0
INSERT
  5
26B
100
AcDbEntity
  8
レイヤー_1
 62
     7
100
AcDbBlockReference
  2
AI9-BLK32
 10
366.696825
 20
104.643053
 30
0.0
  0
LINE
  5
269
100
AcDbEntity
  8
レイヤー_1
 62
     7
100
AcDbLine
 10
369.09375
 20
135.202083
 30
0.0
 11
369.09375
 21
134.408333
 31
0.0
  0
LINE
  5
268
100
AcDbEntity
  8
レイヤー_1
 62
     7
100
AcDbLine
 10
340.254167
 20
74.347917
 30
0.0
 11
357.98125
 21
74.347917
 31
0.0
  0
LINE
  5
267
100
AcDbEntity
  8
レイヤー_1
 62
     7
100
AcDbLine
 10
342.635417
 20
134.408333
 30
0.0
 11
357.98125
 21
134.408333
 31
0.0
  0
LINE
  5
266
100
AcDbEntity
  8
レイヤー_1
 62
     7
100
AcDbLine
 10
355.070833
 20
75.40625
 30
0.0
 11
355.070833
 21
133.35
 31
0.0
  0
POLYLINE
  5
261
100
AcDbEntity
  8
レイヤー_1
 62
     7
100
AcDb2dPolyline
 66
     1
 10
0.0
 20
0.0
 30
0.0
  0
VERTEX
  5
262
100
AcDbEntity
  8
レイヤー_1
 62
     7
100
AcDbVertex
100
AcDb2dVertex
 10
355.335417
 20
75.40625
 30
0.0
  0
VERTEX
  5
263
100
AcDbEntity
  8
レイヤー_1
 62
     7
100
AcDbVertex
100
AcDb2dVertex
 10
355.070833
 20
74.347917
 30
0.0
  0
VERTEX
  5
264
100
AcDbEntity
  8
レイヤー_1
 62
     7
100
AcDbVertex
100
AcDb2dVertex
 10
354.80625
 20
75.40625
 30
0.0
  0
SEQEND
  5
265
100
AcDbEntity
  8
レイヤー_1
 62
     7
  0
LINE
  5
260
100
AcDbEntity
  8
レイヤー_1
 62
     7
100
AcDbLine
 10
355.070833
 20
74.347917
 30
0.0
 11
355.070833
 21
75.40625
 31
0.0
  0
POLYLINE
  5
25B
100
AcDbEntity
  8
レイヤー_1
 62
     7
100
AcDb2dPolyline
 66
     1
 10
0.0
 20
0.0
 30
0.0
  0
VERTEX
  5
25C
100
AcDbEntity
  8
レイヤー_1
 62
     7
100
AcDbVertex
100
AcDb2dVertex
 10
354.80625
 20
133.35
 30
0.0
  0
VERTEX
  5
25D
100
AcDbEntity
  8
レイヤー_1
 62
     7
100
AcDbVertex
100
AcDb2dVertex
 10
355.070833
 20
134.408333
 30
0.0
  0
VERTEX
  5
25E
100
AcDbEntity
  8
レイヤー_1
 62
     7
100
AcDbVertex
100
AcDb2dVertex
 10
355.335417
 20
133.35
 30
0.0
  0
SEQEND
  5
25F
100
AcDbEntity
  8
レイヤー_1
 62
     7
  0
INSERT
  5
257
100
AcDbEntity
  8
レイヤー_1
 62
     7
100
AcDbBlockReference
  2
AI9-BLK31
 10
352.673908
 20
104.113886
 30
0.0
  0
LINE
  5
255
100
AcDbEntity
  8
レイヤー_1
 62
     7
100
AcDbLine
 10
355.070833
 20
134.408333
 30
0.0
 11
355.070833
 21
133.35
 31
0.0
  0
LINE
  5
254
100
AcDbEntity
  8
レイヤー_1
 62
     7
100
AcDbLine
 10
342.635417
 20
134.408333
 30
0.0
 11
357.98125
 21
134.408333
 31
0.0
  0
LINE
  5
253
100
AcDbEntity
  8
レイヤー_1
 62
     7
100
AcDbLine
 10
342.635417
 20
135.202083
 30
0.0
 11
357.98125
 21
135.202083
 31
0.0
  0
LINE
  5
252
100
AcDbEntity
  8
レイヤー_1
 62
     7
100
AcDbLine
 10
355.070833
 20
133.35
 30
0.0
 11
355.070833
 21
132.291667
 31
0.0
  0
LINE
  5
251
100
AcDbEntity
  8
レイヤー_1
 62
     7
100
AcDbLine
 10
355.070833
 20
136.260417
 30
0.0
 11
355.070833
 21
141.022917
 31
0.0
  0
POLYLINE
  5
24C
100
AcDbEntity
  8
レイヤー_1
 62
     7
100
AcDb2dPolyline
 66
     1
 10
0.0
 20
0.0
 30
0.0
  0
VERTEX
  5
24D
100
AcDbEntity
  8
レイヤー_1
 62
     7
100
AcDbVertex
100
AcDb2dVertex
 10
355.070833
 20
135.202083
 30
0.0
  0
VERTEX
  5
24E
100
AcDbEntity
  8
レイヤー_1
 62
     7
100
AcDbVertex
100
AcDb2dVertex
 10
355.070833
 20
134.408333
 30
0.0
  0
VERTEX
  5
24F
100
AcDbEntity
  8
レイヤー_1
 62
     7
100
AcDbVertex
100
AcDb2dVertex
 10
354.80625
 20
133.35
 30
0.0
  0
SEQEND
  5
250
100
AcDbEntity
  8
レイヤー_1
 62
     7
  0
POLYLINE
  5
247
100
AcDbEntity
  8
レイヤー_1
 62
     7
100
AcDb2dPolyline
 66
     1
 10
0.0
 20
0.0
 30
0.0
  0
VERTEX
  5
248
100
AcDbEntity
  8
レイヤー_1
 62
     7
100
AcDbVertex
100
AcDb2dVertex
 10
355.335417
 20
133.35
 30
0.0
  0
VERTEX
  5
249
100
AcDbEntity
  8
レイヤー_1
 62
     7
100
AcDbVertex
100
AcDb2dVertex
 10
355.070833
 20
134.408333
 30
0.0
  0
VERTEX
  5
24A
100
AcDbEntity
  8
レイヤー_1
 62
     7
100
AcDbVertex
100
AcDb2dVertex
 10
355.070833
 20
133.35
 30
0.0
  0
SEQEND
  5
24B
100
AcDbEntity
  8
レイヤー_1
 62
     7
  0
POLYLINE
  5
242
100
AcDbEntity
  8
レイヤー_1
 62
     7
100
AcDb2dPolyline
 66
     1
 10
0.0
 20
0.0
 30
0.0
  0
VERTEX
  5
243
100
AcDbEntity
  8
レイヤー_1
 62
     7
100
AcDbVertex
100
AcDb2dVertex
 10
355.335417
 20
136.260417
 30
0.0
  0
VERTEX
  5
244
100
AcDbEntity
  8
レイヤー_1
 62
     7
100
AcDbVertex
100
AcDb2dVertex
 10
355.070833
 20
135.202083
 30
0.0
  0
VERTEX
  5
245
100
AcDbEntity
  8
レイヤー_1
 62
     7
100
AcDbVertex
100
AcDb2dVertex
 10
354.80625
 20
136.260417
 30
0.0
  0
SEQEND
  5
246
100
AcDbEntity
  8
レイヤー_1
 62
     7
  0
INSERT
  5
23E
100
AcDbEntity
  8
レイヤー_1
 62
     7
100
AcDbBlockReference
  2
AI9-BLK30
 10
352.673908
 20
139.038714
 30
0.0
  0
LINE
  5
23C
100
AcDbEntity
  8
レイヤー_1
 62
     7
100
AcDbLine
 10
355.070833
 20
135.202083
 30
0.0
 11
355.070833
 21
136.260417
 31
0.0
  0
INSERT
  5
237
100
AcDbEntity
  8
レイヤー_1
 62
     7
100
AcDbBlockReference
  2
AI9-BLK29
 10
344.563981
 20
175.792457
 30
0.0
  0
LINE
  5
235
100
AcDbEntity
  8
レイヤー_1
 62
     7
100
AcDbLine
 10
350.308333
 20
177.535417
 30
0.0
 11
337.608333
 21
165.1
 31
0.0
  0
LINE
  5
234
100
AcDbEntity
  8
レイヤー_1
 62
     7
100
AcDbLine
 10
332.845833
 20
160.072917
 30
0.0
 11
332.052083
 21
159.279167
 31
0.0
  0
POLYLINE
  5
22F
100
AcDbEntity
  8
レイヤー_1
 62
     7
100
AcDb2dPolyline
 66
     1
 10
0.0
 20
0.0
 30
0.0
  0
VERTEX
  5
230
100
AcDbEntity
  8
レイヤー_1
 62
     7
100
AcDbVertex
100
AcDb2dVertex
 10
337.079167
 20
164.30625
 30
0.0
  0
VERTEX
  5
231
100
AcDbEntity
  8
レイヤー_1
 62
     7
100
AcDbVertex
100
AcDb2dVertex
 10
333.375
 20
160.866667
 30
0.0
  0
VERTEX
  5
232
100
AcDbEntity
  8
レイヤー_1
 62
     7
100
AcDbVertex
100
AcDb2dVertex
 10
332.58125
 20
160.3375
 30
0.0
  0
SEQEND
  5
233
100
AcDbEntity
  8
レイヤー_1
 62
     7
  0
POLYLINE
  5
22A
100
AcDbEntity
  8
レイヤー_1
 62
     7
100
AcDb2dPolyline
 66
     1
 10
0.0
 20
0.0
 30
0.0
  0
VERTEX
  5
22B
100
AcDbEntity
  8
レイヤー_1
 62
     7
100
AcDbVertex
100
AcDb2dVertex
 10
332.845833
 20
159.808333
 30
0.0
  0
VERTEX
  5
22C
100
AcDbEntity
  8
レイヤー_1
 62
     7
100
AcDbVertex
100
AcDb2dVertex
 10
333.375
 20
160.866667
 30
0.0
  0
VERTEX
  5
22D
100
AcDbEntity
  8
レイヤー_1
 62
     7
100
AcDbVertex
100
AcDb2dVertex
 10
332.845833
 20
160.072917
 30
0.0
  0
SEQEND
  5
22E
100
AcDbEntity
  8
レイヤー_1
 62
     7
  0
POLYLINE
  5
224
100
AcDbEntity
  8
レイヤー_1
 62
     7
100
AcDb2dPolyline
 66
     1
 10
0.0
 20
0.0
 30
0.0
  0
VERTEX
  5
225
100
AcDbEntity
  8
レイヤー_1
 62
     7
100
AcDbVertex
100
AcDb2dVertex
 10
337.872917
 20
164.835417
 30
0.0
  0
VERTEX
  5
226
100
AcDbEntity
  8
レイヤー_1
 62
     7
100
AcDbVertex
100
AcDb2dVertex
 10
337.079167
 20
164.30625
 30
0.0
  0
VERTEX
  5
227
100
AcDbEntity
  8
レイヤー_1
 62
     7
100
AcDbVertex
100
AcDb2dVertex
 10
337.608333
 20
165.1
 30
0.0
  0
VERTEX
  5
228
100
AcDbEntity
  8
レイヤー_1
 62
     7
100
AcDbVertex
100
AcDb2dVertex
 10
337.079167
 20
164.30625
 30
0.0
  0
SEQEND
  5
229
100
AcDbEntity
  8
レイヤー_1
 62
     7
  0
LINE
  5
223
100
AcDbEntity
  8
レイヤー_1
 62
     7
100
AcDbLine
 10
337.34375
 20
122.502083
 30
0.0
 11
338.402083
 21
122.502083
 31
0.0
  0
LINE
  5
222
100
AcDbEntity
  8
レイヤー_1
 62
     7
100
AcDbLine
 10
333.110417
 20
122.502083
 30
0.0
 11
323.85
 21
122.502083
 31
0.0
  0
POLYLINE
  5
21D
100
AcDbEntity
  8
レイヤー_1
 62
     7
100
AcDb2dPolyline
 66
     1
 10
0.0
 20
0.0
 30
0.0
  0
VERTEX
  5
21E
100
AcDbEntity
  8
レイヤー_1
 62
     7
100
AcDbVertex
100
AcDb2dVertex
 10
334.16875
 20
122.502083
 30
0.0
  0
VERTEX
  5
21F
100
AcDbEntity
  8
レイヤー_1
 62
     7
100
AcDbVertex
100
AcDb2dVertex
 10
336.285417
 20
122.502083
 30
0.0
  0
VERTEX
  5
220
100
AcDbEntity
  8
レイヤー_1
 62
     7
100
AcDbVertex
100
AcDb2dVertex
 10
337.34375
 20
122.2375
 30
0.0
  0
SEQEND
  5
221
100
AcDbEntity
  8
レイヤー_1
 62
     7
  0
POLYLINE
  5
218
100
AcDbEntity
  8
レイヤー_1
 62
     7
100
AcDb2dPolyline
 66
     1
 10
0.0
 20
0.0
 30
0.0
  0
VERTEX
  5
219
100
AcDbEntity
  8
レイヤー_1
 62
     7
100
AcDbVertex
100
AcDb2dVertex
 10
337.34375
 20
123.03125
 30
0.0
  0
VERTEX
  5
21A
100
AcDbEntity
  8
レイヤー_1
 62
     7
100
AcDbVertex
100
AcDb2dVertex
 10
336.285417
 20
122.502083
 30
0.0
  0
VERTEX
  5
21B
100
AcDbEntity
  8
レイヤー_1
 62
     7
100
AcDbVertex
100
AcDb2dVertex
 10
337.34375
 20
122.502083
 30
0.0
  0
SEQEND
  5
21C
100
AcDbEntity
  8
レイヤー_1
 62
     7
  0
POLYLINE
  5
213
100
AcDbEntity
  8
レイヤー_1
 62
     7
100
AcDb2dPolyline
 66
     1
 10
0.0
 20
0.0
 30
0.0
  0
VERTEX
  5
214
100
AcDbEntity
  8
レイヤー_1
 62
     7
100
AcDbVertex
100
AcDb2dVertex
 10
333.110417
 20
123.03125
 30
0.0
  0
VERTEX
  5
215
100
AcDbEntity
  8
レイヤー_1
 62
     7
100
AcDbVertex
100
AcDb2dVertex
 10
334.16875
 20
122.502083
 30
0.0
  0
VERTEX
  5
216
100
AcDbEntity
  8
レイヤー_1
 62
     7
100
AcDbVertex
100
AcDb2dVertex
 10
333.110417
 20
122.2375
 30
0.0
  0
SEQEND
  5
217
100
AcDbEntity
  8
レイヤー_1
 62
     7
  0
INSERT
  5
20E
100
AcDbEntity
  8
レイヤー_1
 62
     7
100
AcDbBlockReference
  2
AI9-BLK28
 10
326.893053
 20
125.428175
 30
0.0
  0
LINE
  5
20C
100
AcDbEntity
  8
レイヤー_1
 62
     7
100
AcDbLine
 10
334.16875
 20
122.502083
 30
0.0
 11
333.110417
 21
122.502083
 31
0.0
  0
LINE
  5
20B
100
AcDbEntity
  8
レイヤー_1
 62
     7
100
AcDbLine
 10
146.05
 20
257.439583
 30
0.0
 11
146.05
 21
278.341667
 31
0.0
  0
LINE
  5
20A
100
AcDbEntity
  8
レイヤー_1
 62
     7
100
AcDbLine
 10
71.172917
 20
257.439583
 30
0.0
 11
71.172917
 21
278.341667
 31
0.0
  0
LINE
  5
209
100
AcDbEntity
  8
レイヤー_1
 62
     7
100
AcDbLine
 10
144.991667
 20
275.166667
 30
0.0
 11
71.966667
 21
275.166667
 31
0.0
  0
POLYLINE
  5
204
100
AcDbEntity
  8
レイヤー_1
 62
     7
100
AcDb2dPolyline
 66
     1
 10
0.0
 20
0.0
 30
0.0
  0
VERTEX
  5
205
100
AcDbEntity
  8
レイヤー_1
 62
     7
100
AcDbVertex
100
AcDb2dVertex
 10
144.991667
 20
275.43125
 30
0.0
  0
VERTEX
  5
206
100
AcDbEntity
  8
レイヤー_1
 62
     7
100
AcDbVertex
100
AcDb2dVertex
 10
146.05
 20
275.166667
 30
0.0
  0
VERTEX
  5
207
100
AcDbEntity
  8
レイヤー_1
 62
     7
100
AcDbVertex
100
AcDb2dVertex
 10
144.991667
 20
274.902083
 30
0.0
  0
SEQEND
  5
208
100
AcDbEntity
  8
レイヤー_1
 62
     7
  0
LINE
  5
203
100
AcDbEntity
  8
レイヤー_1
 62
     7
100
AcDbLine
 10
146.05
 20
275.166667
 30
0.0
 11
144.991667
 21
275.166667
 31
0.0
  0
POLYLINE
  5
1FE
100
AcDbEntity
  8
レイヤー_1
 62
     7
100
AcDb2dPolyline
 66
     1
 10
0.0
 20
0.0
 30
0.0
  0
VERTEX
  5
1FF
100
AcDbEntity
  8
レイヤー_1
 62
     7
100
AcDbVertex
100
AcDb2dVertex
 10
71.966667
 20
274.902083
 30
0.0
  0
VERTEX
  5
200
100
AcDbEntity
  8
レイヤー_1
 62
     7
100
AcDbVertex
100
AcDb2dVertex
 10
71.172917
 20
275.166667
 30
0.0
  0
VERTEX
  5
201
100
AcDbEntity
  8
レイヤー_1
 62
     7
100
AcDbVertex
100
AcDb2dVertex
 10
71.966667
 20
275.43125
 30
0.0
  0
SEQEND
  5
202
100
AcDbEntity
  8
レイヤー_1
 62
     7
  0
INSERT
  5
1FA
100
AcDbEntity
  8
レイヤー_1
 62
     7
100
AcDbBlockReference
  2
AI9-BLK27
 10
108.347133
 20
277.563592
 30
0.0
  0
LINE
  5
1F8
100
AcDbEntity
  8
レイヤー_1
 62
     7
100
AcDbLine
 10
71.172917
 20
275.166667
 30
0.0
 11
71.966667
 21
275.166667
 31
0.0
  0
LINE
  5
1F7
100
AcDbEntity
  8
レイヤー_1
 62
     7
100
AcDbLine
 10
68.527083
 20
254.79375
 30
0.0
 11
46.83125
 21
254.79375
 31
0.0
  0
LINE
  5
1F6
100
AcDbEntity
  8
レイヤー_1
 62
     7
100
AcDbLine
 10
68.527083
 20
179.916667
 30
0.0
 11
46.83125
 21
179.916667
 31
0.0
  0
LINE
  5
1F5
100
AcDbEntity
  8
レイヤー_1
 62
     7
100
AcDbLine
 10
50.00625
 20
254.0
 30
0.0
 11
50.00625
 21
180.975
 31
0.0
  0
POLYLINE
  5
1F0
100
AcDbEntity
  8
レイヤー_1
 62
     7
100
AcDb2dPolyline
 66
     1
 10
0.0
 20
0.0
 30
0.0
  0
VERTEX
  5
1F1
100
AcDbEntity
  8
レイヤー_1
 62
     7
100
AcDbVertex
100
AcDb2dVertex
 10
49.741667
 20
254.0
 30
0.0
  0
VERTEX
  5
1F2
100
AcDbEntity
  8
レイヤー_1
 62
     7
100
AcDbVertex
100
AcDb2dVertex
 10
50.00625
 20
254.79375
 30
0.0
  0
VERTEX
  5
1F3
100
AcDbEntity
  8
レイヤー_1
 62
     7
100
AcDbVertex
100
AcDb2dVertex
 10
50.270833
 20
254.0
 30
0.0
  0
SEQEND
  5
1F4
100
AcDbEntity
  8
レイヤー_1
 62
     7
  0
LINE
  5
1EF
100
AcDbEntity
  8
レイヤー_1
 62
     7
100
AcDbLine
 10
50.00625
 20
254.79375
 30
0.0
 11
50.00625
 21
254.0
 31
0.0
  0
POLYLINE
  5
1EA
100
AcDbEntity
  8
レイヤー_1
 62
     7
100
AcDb2dPolyline
 66
     1
 10
0.0
 20
0.0
 30
0.0
  0
VERTEX
  5
1EB
100
AcDbEntity
  8
レイヤー_1
 62
     7
100
AcDbVertex
100
AcDb2dVertex
 10
50.270833
 20
180.975
 30
0.0
  0
VERTEX
  5
1EC
100
AcDbEntity
  8
レイヤー_1
 62
     7
100
AcDbVertex
100
AcDb2dVertex
 10
50.00625
 20
179.916667
 30
0.0
  0
VERTEX
  5
1ED
100
AcDbEntity
  8
レイヤー_1
 62
     7
100
AcDbVertex
100
AcDb2dVertex
 10
49.741667
 20
180.975
 30
0.0
  0
SEQEND
  5
1EE
100
AcDbEntity
  8
レイヤー_1
 62
     7
  0
INSERT
  5
1E6
100
AcDbEntity
  8
レイヤー_1
 62
     7
100
AcDbBlockReference
  2
AI9-BLK26
 10
47.609325
 20
217.355294
 30
0.0
  0
LINE
  5
1E4
100
AcDbEntity
  8
レイヤー_1
 62
     7
100
AcDbLine
 10
50.00625
 20
179.916667
 30
0.0
 11
50.00625
 21
180.975
 31
0.0
  0
LINE
  5
1E3
100
AcDbEntity
  8
レイヤー_1
 62
     7
100
AcDbLine
 10
89.958333
 20
195.527083
 30
0.0
 11
89.958333
 21
166.952083
 31
0.0
  0
LINE
  5
1E2
100
AcDbEntity
  8
レイヤー_1
 62
     7
100
AcDbLine
 10
127.264583
 20
196.05625
 30
0.0
 11
127.264583
 21
166.952083
 31
0.0
  0
LINE
  5
1E1
100
AcDbEntity
  8
レイヤー_1
 62
     7
100
AcDbLine
 10
90.752083
 20
169.8625
 30
0.0
 11
126.470833
 21
169.8625
 31
0.0
  0
POLYLINE
  5
1DC
100
AcDbEntity
  8
レイヤー_1
 62
     7
100
AcDb2dPolyline
 66
     1
 10
0.0
 20
0.0
 30
0.0
  0
VERTEX
  5
1DD
100
AcDbEntity
  8
レイヤー_1
 62
     7
100
AcDbVertex
100
AcDb2dVertex
 10
90.752083
 20
169.597917
 30
0.0
  0
VERTEX
  5
1DE
100
AcDbEntity
  8
レイヤー_1
 62
     7
100
AcDbVertex
100
AcDb2dVertex
 10
89.958333
 20
169.8625
 30
0.0
  0
VERTEX
  5
1DF
100
AcDbEntity
  8
レイヤー_1
 62
     7
100
AcDbVertex
100
AcDb2dVertex
 10
90.752083
 20
170.127083
 30
0.0
  0
SEQEND
  5
1E0
100
AcDbEntity
  8
レイヤー_1
 62
     7
  0
LINE
  5
1DB
100
AcDbEntity
  8
レイヤー_1
 62
     7
100
AcDbLine
 10
89.958333
 20
169.8625
 30
0.0
 11
90.752083
 21
169.8625
 31
0.0
  0
POLYLINE
  5
1D6
100
AcDbEntity
  8
レイヤー_1
 62
     7
100
AcDb2dPolyline
 66
     1
 10
0.0
 20
0.0
 30
0.0
  0
VERTEX
  5
1D7
100
AcDbEntity
  8
レイヤー_1
 62
     7
100
AcDbVertex
100
AcDb2dVertex
 10
126.470833
 20
170.127083
 30
0.0
  0
VERTEX
  5
1D8
100
AcDbEntity
  8
レイヤー_1
 62
     7
100
AcDbVertex
100
AcDb2dVertex
 10
127.264583
 20
169.8625
 30
0.0
  0
VERTEX
  5
1D9
100
AcDbEntity
  8
レイヤー_1
 62
     7
100
AcDbVertex
100
AcDb2dVertex
 10
126.470833
 20
169.597917
 30
0.0
  0
SEQEND
  5
1DA
100
AcDbEntity
  8
レイヤー_1
 62
     7
  0
INSERT
  5
1D2
100
AcDbEntity
  8
レイヤー_1
 62
     7
100
AcDbBlockReference
  2
AI9-BLK25
 10
108.347133
 20
172.259425
 30
0.0
  0
LINE
  5
1D0
100
AcDbEntity
  8
レイヤー_1
 62
     7
100
AcDbLine
 10
127.264583
 20
169.8625
 30
0.0
 11
126.470833
 21
169.8625
 31
0.0
  0
LINE
  5
1CF
100
AcDbEntity
  8
レイヤー_1
 62
     7
100
AcDbLine
 10
130.439583
 20
236.272917
 30
0.0
 11
163.5125
 21
236.272917
 31
0.0
  0
LINE
  5
1CE
100
AcDbEntity
  8
レイヤー_1
 62
     7
100
AcDbLine
 10
130.439583
 20
198.702083
 30
0.0
 11
163.5125
 21
198.702083
 31
0.0
  0
LINE
  5
1CD
100
AcDbEntity
  8
レイヤー_1
 62
     7
100
AcDbLine
 10
160.602083
 20
235.214583
 30
0.0
 11
160.602083
 21
199.760417
 31
0.0
  0
POLYLINE
  5
1C8
100
AcDbEntity
  8
レイヤー_1
 62
     7
100
AcDb2dPolyline
 66
     1
 10
0.0
 20
0.0
 30
0.0
  0
VERTEX
  5
1C9
100
AcDbEntity
  8
レイヤー_1
 62
     7
100
AcDbVertex
100
AcDb2dVertex
 10
160.3375
 20
235.214583
 30
0.0
  0
VERTEX
  5
1CA
100
AcDbEntity
  8
レイヤー_1
 62
     7
100
AcDbVertex
100
AcDb2dVertex
 10
160.602083
 20
236.272917
 30
0.0
  0
VERTEX
  5
1CB
100
AcDbEntity
  8
レイヤー_1
 62
     7
100
AcDbVertex
100
AcDb2dVertex
 10
160.866667
 20
235.214583
 30
0.0
  0
SEQEND
  5
1CC
100
AcDbEntity
  8
レイヤー_1
 62
     7
  0
LINE
  5
1C7
100
AcDbEntity
  8
レイヤー_1
 62
     7
100
AcDbLine
 10
160.602083
 20
236.272917
 30
0.0
 11
160.602083
 21
235.214583
 31
0.0
  0
POLYLINE
  5
1C2
100
AcDbEntity
  8
レイヤー_1
 62
     7
100
AcDb2dPolyline
 66
     1
 10
0.0
 20
0.0
 30
0.0
  0
VERTEX
  5
1C3
100
AcDbEntity
  8
レイヤー_1
 62
     7
100
AcDbVertex
100
AcDb2dVertex
 10
160.866667
 20
199.760417
 30
0.0
  0
VERTEX
  5
1C4
100
AcDbEntity
  8
レイヤー_1
 62
     7
100
AcDbVertex
100
AcDb2dVertex
 10
160.602083
 20
198.702083
 30
0.0
  0
VERTEX
  5
1C5
100
AcDbEntity
  8
レイヤー_1
 62
     7
100
AcDbVertex
100
AcDb2dVertex
 10
160.3375
 20
199.760417
 30
0.0
  0
SEQEND
  5
1C6
100
AcDbEntity
  8
レイヤー_1
 62
     7
  0
INSERT
  5
1BE
100
AcDbEntity
  8
レイヤー_1
 62
     7
100
AcDbBlockReference
  2
AI9-BLK24
 10
158.205158
 20
217.090711
 30
0.0
  0
LINE
  5
1BC
100
AcDbEntity
  8
レイヤー_1
 62
     7
100
AcDbLine
 10
160.602083
 20
198.702083
 30
0.0
 11
160.602083
 21
199.760417
 31
0.0
  0
LINE
  5
1BB
100
AcDbEntity
  8
レイヤー_1
 62
     7
100
AcDbLine
 10
88.10625
 20
137.31875
 30
0.0
 11
88.10625
 21
155.045833
 31
0.0
  0
LINE
  5
1BA
100
AcDbEntity
  8
レイヤー_1
 62
     7
100
AcDbLine
 10
129.116667
 20
137.31875
 30
0.0
 11
129.116667
 21
155.045833
 31
0.0
  0
LINE
  5
1B9
100
AcDbEntity
  8
レイヤー_1
 62
     7
100
AcDbLine
 10
89.164583
 20
152.135417
 30
0.0
 11
128.058333
 21
152.135417
 31
0.0
  0
POLYLINE
  5
1B4
100
AcDbEntity
  8
レイヤー_1
 62
     7
100
AcDb2dPolyline
 66
     1
 10
0.0
 20
0.0
 30
0.0
  0
VERTEX
  5
1B5
100
AcDbEntity
  8
レイヤー_1
 62
     7
100
AcDbVertex
100
AcDb2dVertex
 10
89.164583
 20
151.870833
 30
0.0
  0
VERTEX
  5
1B6
100
AcDbEntity
  8
レイヤー_1
 62
     7
100
AcDbVertex
100
AcDb2dVertex
 10
88.10625
 20
152.135417
 30
0.0
  0
VERTEX
  5
1B7
100
AcDbEntity
  8
レイヤー_1
 62
     7
100
AcDbVertex
100
AcDb2dVertex
 10
89.164583
 20
152.4
 30
0.0
  0
SEQEND
  5
1B8
100
AcDbEntity
  8
レイヤー_1
 62
     7
  0
LINE
  5
1B3
100
AcDbEntity
  8
レイヤー_1
 62
     7
100
AcDbLine
 10
88.10625
 20
152.135417
 30
0.0
 11
89.164583
 21
152.135417
 31
0.0
  0
POLYLINE
  5
1AE
100
AcDbEntity
  8
レイヤー_1
 62
     7
100
AcDb2dPolyline
 66
     1
 10
0.0
 20
0.0
 30
0.0
  0
VERTEX
  5
1AF
100
AcDbEntity
  8
レイヤー_1
 62
     7
100
AcDbVertex
100
AcDb2dVertex
 10
128.058333
 20
152.4
 30
0.0
  0
VERTEX
  5
1B0
100
AcDbEntity
  8
レイヤー_1
 62
     7
100
AcDbVertex
100
AcDb2dVertex
 10
129.116667
 20
152.135417
 30
0.0
  0
VERTEX
  5
1B1
100
AcDbEntity
  8
レイヤー_1
 62
     7
100
AcDbVertex
100
AcDb2dVertex
 10
128.058333
 20
151.870833
 30
0.0
  0
SEQEND
  5
1B2
100
AcDbEntity
  8
レイヤー_1
 62
     7
  0
INSERT
  5
1AA
100
AcDbEntity
  8
レイヤー_1
 62
     7
100
AcDbBlockReference
  2
AI9-BLK23
 10
108.347133
 20
154.532342
 30
0.0
  0
LINE
  5
1A8
100
AcDbEntity
  8
レイヤー_1
 62
     7
100
AcDbLine
 10
129.116667
 20
152.135417
 30
0.0
 11
128.058333
 21
152.135417
 31
0.0
  0
LINE
  5
1A7
100
AcDbEntity
  8
レイヤー_1
 62
     7
100
AcDbLine
 10
89.164583
 20
144.4625
 30
0.0
 11
57.94375
 21
144.4625
 31
0.0
  0
LINE
  5
1A6
100
AcDbEntity
  8
レイヤー_1
 62
     7
100
AcDbLine
 10
91.016667
 20
68.527083
 30
0.0
 11
57.94375
 21
68.527083
 31
0.0
  0
LINE
  5
1A5
100
AcDbEntity
  8
レイヤー_1
 62
     7
100
AcDbLine
 10
60.854167
 20
143.404167
 30
0.0
 11
60.854167
 21
69.585417
 31
0.0
  0
POLYLINE
  5
1A0
100
AcDbEntity
  8
レイヤー_1
 62
     7
100
AcDb2dPolyline
 66
     1
 10
0.0
 20
0.0
 30
0.0
  0
VERTEX
  5
1A1
100
AcDbEntity
  8
レイヤー_1
 62
     7
100
AcDbVertex
100
AcDb2dVertex
 10
60.589583
 20
143.404167
 30
0.0
  0
VERTEX
  5
1A2
100
AcDbEntity
  8
レイヤー_1
 62
     7
100
AcDbVertex
100
AcDb2dVertex
 10
60.854167
 20
144.4625
 30
0.0
  0
VERTEX
  5
1A3
100
AcDbEntity
  8
レイヤー_1
 62
     7
100
AcDbVertex
100
AcDb2dVertex
 10
61.11875
 20
143.404167
 30
0.0
  0
SEQEND
  5
1A4
100
AcDbEntity
  8
レイヤー_1
 62
     7
  0
LINE
  5
19F
100
AcDbEntity
  8
レイヤー_1
 62
     7
100
AcDbLine
 10
60.854167
 20
144.4625
 30
0.0
 11
60.854167
 21
143.404167
 31
0.0
  0
POLYLINE
  5
19A
100
AcDbEntity
  8
レイヤー_1
 62
     7
100
AcDb2dPolyline
 66
     1
 10
0.0
 20
0.0
 30
0.0
  0
VERTEX
  5
19B
100
AcDbEntity
  8
レイヤー_1
 62
     7
100
AcDbVertex
100
AcDb2dVertex
 10
61.11875
 20
69.585417
 30
0.0
  0
VERTEX
  5
19C
100
AcDbEntity
  8
レイヤー_1
 62
     7
100
AcDbVertex
100
AcDb2dVertex
 10
60.854167
 20
68.527083
 30
0.0
  0
VERTEX
  5
19D
100
AcDbEntity
  8
レイヤー_1
 62
     7
100
AcDbVertex
100
AcDb2dVertex
 10
60.589583
 20
69.585417
 30
0.0
  0
SEQEND
  5
19E
100
AcDbEntity
  8
レイヤー_1
 62
     7
  0
INSERT
  5
196
100
AcDbEntity
  8
レイヤー_1
 62
     7
100
AcDbBlockReference
  2
AI9-BLK22
 10
58.721825
 20
106.230553
 30
0.0
  0
LINE
  5
194
100
AcDbEntity
  8
レイヤー_1
 62
     7
100
AcDbLine
 10
60.854167
 20
68.527083
 30
0.0
 11
60.854167
 21
69.585417
 31
0.0
  0
LINE
  5
193
100
AcDbEntity
  8
レイヤー_1
 62
     7
100
AcDbLine
 10
91.016667
 20
68.527083
 30
0.0
 11
57.94375
 21
68.527083
 31
0.0
  0
LINE
  5
192
100
AcDbEntity
  8
レイヤー_1
 62
     7
100
AcDbLine
 10
84.93125
 20
58.472917
 30
0.0
 11
57.94375
 21
58.472917
 31
0.0
  0
LINE
  5
191
100
AcDbEntity
  8
レイヤー_1
 62
     7
100
AcDbLine
 10
60.854167
 20
67.46875
 30
0.0
 11
60.854167
 21
59.53125
 31
0.0
  0
POLYLINE
  5
18C
100
AcDbEntity
  8
レイヤー_1
 62
     7
100
AcDb2dPolyline
 66
     1
 10
0.0
 20
0.0
 30
0.0
  0
VERTEX
  5
18D
100
AcDbEntity
  8
レイヤー_1
 62
     7
100
AcDbVertex
100
AcDb2dVertex
 10
60.589583
 20
67.46875
 30
0.0
  0
VERTEX
  5
18E
100
AcDbEntity
  8
レイヤー_1
 62
     7
100
AcDbVertex
100
AcDb2dVertex
 10
60.854167
 20
68.527083
 30
0.0
  0
VERTEX
  5
18F
100
AcDbEntity
  8
レイヤー_1
 62
     7
100
AcDbVertex
100
AcDb2dVertex
 10
61.11875
 20
67.46875
 30
0.0
  0
SEQEND
  5
190
100
AcDbEntity
  8
レイヤー_1
 62
     7
  0
LINE
  5
18B
100
AcDbEntity
  8
レイヤー_1
 62
     7
100
AcDbLine
 10
60.854167
 20
68.527083
 30
0.0
 11
60.854167
 21
67.46875
 31
0.0
  0
POLYLINE
  5
186
100
AcDbEntity
  8
レイヤー_1
 62
     7
100
AcDb2dPolyline
 66
     1
 10
0.0
 20
0.0
 30
0.0
  0
VERTEX
  5
187
100
AcDbEntity
  8
レイヤー_1
 62
     7
100
AcDbVertex
100
AcDb2dVertex
 10
61.11875
 20
59.53125
 30
0.0
  0
VERTEX
  5
188
100
AcDbEntity
  8
レイヤー_1
 62
     7
100
AcDbVertex
100
AcDb2dVertex
 10
60.854167
 20
58.472917
 30
0.0
  0
VERTEX
  5
189
100
AcDbEntity
  8
レイヤー_1
 62
     7
100
AcDbVertex
100
AcDb2dVertex
 10
60.589583
 20
59.53125
 30
0.0
  0
SEQEND
  5
18A
100
AcDbEntity
  8
レイヤー_1
 62
     7
  0
INSERT
  5
182
100
AcDbEntity
  8
レイヤー_1
 62
     7
100
AcDbBlockReference
  2
AI9-BLK21
 10
58.721825
 20
63.500172
 30
0.0
  0
LINE
  5
180
100
AcDbEntity
  8
レイヤー_1
 62
     7
100
AcDbLine
 10
60.854167
 20
58.472917
 30
0.0
 11
60.854167
 21
59.53125
 31
0.0
  0
INSERT
  5
17C
100
AcDbEntity
  8
レイヤー_1
 62
     7
100
AcDbBlockReference
  2
AI9-BLK20
 10
55.282241
 20
58.605381
 30
0.0
  0
LINE
  5
17A
100
AcDbEntity
  8
レイヤー_1
 62
     7
100
AcDbLine
 10
84.93125
 20
58.472917
 30
0.0
 11
57.94375
 21
58.472917
 31
0.0
  0
LINE
  5
179
100
AcDbEntity
  8
レイヤー_1
 62
     7
100
AcDbLine
 10
66.145833
 20
57.414583
 30
0.0
 11
57.94375
 21
57.414583
 31
0.0
  0
LINE
  5
178
100
AcDbEntity
  8
レイヤー_1
 62
     7
100
AcDbLine
 10
60.854167
 20
59.53125
 30
0.0
 11
60.854167
 21
60.589583
 31
0.0
  0
LINE
  5
177
100
AcDbEntity
  8
レイヤー_1
 62
     7
100
AcDbLine
 10
60.854167
 20
56.620833
 30
0.0
 11
60.854167
 21
55.5625
 31
0.0
  0
POLYLINE
  5
172
100
AcDbEntity
  8
レイヤー_1
 62
     7
100
AcDb2dPolyline
 66
     1
 10
0.0
 20
0.0
 30
0.0
  0
VERTEX
  5
173
100
AcDbEntity
  8
レイヤー_1
 62
     7
100
AcDbVertex
100
AcDb2dVertex
 10
60.854167
 20
57.414583
 30
0.0
  0
VERTEX
  5
174
100
AcDbEntity
  8
レイヤー_1
 62
     7
100
AcDbVertex
100
AcDb2dVertex
 10
60.854167
 20
58.472917
 30
0.0
  0
VERTEX
  5
175
100
AcDbEntity
  8
レイヤー_1
 62
     7
100
AcDbVertex
100
AcDb2dVertex
 10
61.11875
 20
59.53125
 30
0.0
  0
SEQEND
  5
176
100
AcDbEntity
  8
レイヤー_1
 62
     7
  0
POLYLINE
  5
16D
100
AcDbEntity
  8
レイヤー_1
 62
     7
100
AcDb2dPolyline
 66
     1
 10
0.0
 20
0.0
 30
0.0
  0
VERTEX
  5
16E
100
AcDbEntity
  8
レイヤー_1
 62
     7
100
AcDbVertex
100
AcDb2dVertex
 10
60.589583
 20
59.53125
 30
0.0
  0
VERTEX
  5
16F
100
AcDbEntity
  8
レイヤー_1
 62
     7
100
AcDbVertex
100
AcDb2dVertex
 10
60.854167
 20
58.472917
 30
0.0
  0
VERTEX
  5
170
100
AcDbEntity
  8
レイヤー_1
 62
     7
100
AcDbVertex
100
AcDb2dVertex
 10
60.854167
 20
59.53125
 30
0.0
  0
SEQEND
  5
171
100
AcDbEntity
  8
レイヤー_1
 62
     7
  0
POLYLINE
  5
168
100
AcDbEntity
  8
レイヤー_1
 62
     7
100
AcDb2dPolyline
 66
     1
 10
0.0
 20
0.0
 30
0.0
  0
VERTEX
  5
169
100
AcDbEntity
  8
レイヤー_1
 62
     7
100
AcDbVertex
100
AcDb2dVertex
 10
60.589583
 20
56.620833
 30
0.0
  0
VERTEX
  5
16A
100
AcDbEntity
  8
レイヤー_1
 62
     7
100
AcDbVertex
100
AcDb2dVertex
 10
60.854167
 20
57.414583
 30
0.0
  0
VERTEX
  5
16B
100
AcDbEntity
  8
レイヤー_1
 62
     7
100
AcDbVertex
100
AcDb2dVertex
 10
61.11875
 20
56.620833
 30
0.0
  0
SEQEND
  5
16C
100
AcDbEntity
  8
レイヤー_1
 62
     7
  0
LINE
  5
167
100
AcDbEntity
  8
レイヤー_1
 62
     7
100
AcDbLine
 10
60.854167
 20
57.414583
 30
0.0
 11
60.854167
 21
56.620833
 31
0.0
  0
LINE
  5
166
100
AcDbEntity
  8
レイヤー_1
 62
     7
100
AcDbLine
 10
151.077083
 20
57.94375
 30
0.0
 11
157.691667
 21
57.94375
 31
0.0
  0
LINE
  5
165
100
AcDbEntity
  8
レイヤー_1
 62
     7
100
AcDbLine
 10
151.077083
 20
57.414583
 30
0.0
 11
157.691667
 21
57.414583
 31
0.0
  0
LINE
  5
164
100
AcDbEntity
  8
レイヤー_1
 62
     7
100
AcDbLine
 10
154.78125
 20
59.002083
 30
0.0
 11
154.78125
 21
60.060417
 31
0.0
  0
LINE
  5
163
100
AcDbEntity
  8
レイヤー_1
 62
     7
100
AcDbLine
 10
154.78125
 20
56.620833
 30
0.0
 11
154.78125
 21
51.858333
 31
0.0
  0
POLYLINE
  5
15E
100
AcDbEntity
  8
レイヤー_1
 62
     7
100
AcDb2dPolyline
 66
     1
 10
0.0
 20
0.0
 30
0.0
  0
VERTEX
  5
15F
100
AcDbEntity
  8
レイヤー_1
 62
     7
100
AcDbVertex
100
AcDb2dVertex
 10
154.78125
 20
57.414583
 30
0.0
  0
VERTEX
  5
160
100
AcDbEntity
  8
レイヤー_1
 62
     7
100
AcDbVertex
100
AcDb2dVertex
 10
154.78125
 20
57.94375
 30
0.0
  0
VERTEX
  5
161
100
AcDbEntity
  8
レイヤー_1
 62
     7
100
AcDbVertex
100
AcDb2dVertex
 10
155.045833
 20
59.002083
 30
0.0
  0
SEQEND
  5
162
100
AcDbEntity
  8
レイヤー_1
 62
     7
  0
POLYLINE
  5
159
100
AcDbEntity
  8
レイヤー_1
 62
     7
100
AcDb2dPolyline
 66
     1
 10
0.0
 20
0.0
 30
0.0
  0
VERTEX
  5
15A
100
AcDbEntity
  8
レイヤー_1
 62
     7
100
AcDbVertex
100
AcDb2dVertex
 10
154.516667
 20
59.002083
 30
0.0
  0
VERTEX
  5
15B
100
AcDbEntity
  8
レイヤー_1
 62
     7
100
AcDbVertex
100
AcDb2dVertex
 10
154.78125
 20
57.94375
 30
0.0
  0
VERTEX
  5
15C
100
AcDbEntity
  8
レイヤー_1
 62
     7
100
AcDbVertex
100
AcDb2dVertex
 10
154.78125
 20
59.002083
 30
0.0
  0
SEQEND
  5
15D
100
AcDbEntity
  8
レイヤー_1
 62
     7
  0
POLYLINE
  5
154
100
AcDbEntity
  8
レイヤー_1
 62
     7
100
AcDb2dPolyline
 66
     1
 10
0.0
 20
0.0
 30
0.0
  0
VERTEX
  5
155
100
AcDbEntity
  8
レイヤー_1
 62
     7
100
AcDbVertex
100
AcDb2dVertex
 10
154.516667
 20
56.620833
 30
0.0
  0
VERTEX
  5
156
100
AcDbEntity
  8
レイヤー_1
 62
     7
100
AcDbVertex
100
AcDb2dVertex
 10
154.78125
 20
57.414583
 30
0.0
  0
VERTEX
  5
157
100
AcDbEntity
  8
レイヤー_1
 62
     7
100
AcDbVertex
100
AcDb2dVertex
 10
155.045833
 20
56.620833
 30
0.0
  0
SEQEND
  5
158
100
AcDbEntity
  8
レイヤー_1
 62
     7
  0
INSERT
  5
150
100
AcDbEntity
  8
レイヤー_1
 62
     7
100
AcDbBlockReference
  2
AI9-BLK19
 10
152.384325
 20
53.578297
 30
0.0
  0
LINE
  5
14E
100
AcDbEntity
  8
レイヤー_1
 62
     7
100
AcDbLine
 10
154.78125
 20
57.414583
 30
0.0
 11
154.78125
 21
56.620833
 31
0.0
  0
LINE
  5
14D
100
AcDbEntity
  8
レイヤー_1
 62
     7
100
AcDbLine
 10
71.172917
 20
52.3875
 30
0.0
 11
71.172917
 21
41.539583
 31
0.0
  0
LINE
  5
14C
100
AcDbEntity
  8
レイヤー_1
 62
     7
100
AcDbLine
 10
146.05
 20
52.3875
 30
0.0
 11
146.05
 21
41.539583
 31
0.0
  0
LINE
  5
14B
100
AcDbEntity
  8
レイヤー_1
 62
     7
100
AcDbLine
 10
71.966667
 20
44.45
 30
0.0
 11
144.991667
 21
44.45
 31
0.0
  0
POLYLINE
  5
146
100
AcDbEntity
  8
レイヤー_1
 62
     7
100
AcDb2dPolyline
 66
     1
 10
0.0
 20
0.0
 30
0.0
  0
VERTEX
  5
147
100
AcDbEntity
  8
レイヤー_1
 62
     7
100
AcDbVertex
100
AcDb2dVertex
 10
71.966667
 20
44.185417
 30
0.0
  0
VERTEX
  5
148
100
AcDbEntity
  8
レイヤー_1
 62
     7
100
AcDbVertex
100
AcDb2dVertex
 10
71.172917
 20
44.45
 30
0.0
  0
VERTEX
  5
149
100
AcDbEntity
  8
レイヤー_1
 62
     7
100
AcDbVertex
100
AcDb2dVertex
 10
71.966667
 20
44.714583
 30
0.0
  0
SEQEND
  5
14A
100
AcDbEntity
  8
レイヤー_1
 62
     7
  0
LINE
  5
145
100
AcDbEntity
  8
レイヤー_1
 62
     7
100
AcDbLine
 10
71.172917
 20
44.45
 30
0.0
 11
71.966667
 21
44.45
 31
0.0
  0
POLYLINE
  5
140
100
AcDbEntity
  8
レイヤー_1
 62
     7
100
AcDb2dPolyline
 66
     1
 10
0.0
 20
0.0
 30
0.0
  0
VERTEX
  5
141
100
AcDbEntity
  8
レイヤー_1
 62
     7
100
AcDbVertex
100
AcDb2dVertex
 10
144.991667
 20
44.714583
 30
0.0
  0
VERTEX
  5
142
100
AcDbEntity
  8
レイヤー_1
 62
     7
100
AcDbVertex
100
AcDb2dVertex
 10
146.05
 20
44.45
 30
0.0
  0
VERTEX
  5
143
100
AcDbEntity
  8
レイヤー_1
 62
     7
100
AcDbVertex
100
AcDb2dVertex
 10
144.991667
 20
44.185417
 30
0.0
  0
SEQEND
  5
144
100
AcDbEntity
  8
レイヤー_1
 62
     7
  0
INSERT
  5
13C
100
AcDbEntity
  8
レイヤー_1
 62
     7
100
AcDbBlockReference
  2
AI9-BLK18
 10
108.347133
 20
46.846925
 30
0.0
  0
LINE
  5
13A
100
AcDbEntity
  8
レイヤー_1
 62
     7
100
AcDbLine
 10
146.05
 20
44.45
 30
0.0
 11
144.991667
 21
44.45
 31
0.0
  0
LINE
  5
139
100
AcDbEntity
  8
レイヤー_1
 62
     7
100
AcDbLine
 10
258.497917
 20
52.3875
 30
0.0
 11
258.497917
 21
41.539583
 31
0.0
  0
LINE
  5
138
100
AcDbEntity
  8
レイヤー_1
 62
     7
100
AcDbLine
 10
183.620833
 20
52.3875
 30
0.0
 11
183.620833
 21
41.539583
 31
0.0
  0
LINE
  5
137
100
AcDbEntity
  8
レイヤー_1
 62
     7
100
AcDbLine
 10
257.704167
 20
44.45
 30
0.0
 11
184.679167
 21
44.45
 31
0.0
  0
POLYLINE
  5
132
100
AcDbEntity
  8
レイヤー_1
 62
     7
100
AcDb2dPolyline
 66
     1
 10
0.0
 20
0.0
 30
0.0
  0
VERTEX
  5
133
100
AcDbEntity
  8
レイヤー_1
 62
     7
100
AcDbVertex
100
AcDb2dVertex
 10
257.704167
 20
44.714583
 30
0.0
  0
VERTEX
  5
134
100
AcDbEntity
  8
レイヤー_1
 62
     7
100
AcDbVertex
100
AcDb2dVertex
 10
258.497917
 20
44.45
 30
0.0
  0
VERTEX
  5
135
100
AcDbEntity
  8
レイヤー_1
 62
     7
100
AcDbVertex
100
AcDb2dVertex
 10
257.704167
 20
44.185417
 30
0.0
  0
SEQEND
  5
136
100
AcDbEntity
  8
レイヤー_1
 62
     7
  0
LINE
  5
131
100
AcDbEntity
  8
レイヤー_1
 62
     7
100
AcDbLine
 10
258.497917
 20
44.45
 30
0.0
 11
257.704167
 21
44.45
 31
0.0
  0
POLYLINE
  5
12C
100
AcDbEntity
  8
レイヤー_1
 62
     7
100
AcDb2dPolyline
 66
     1
 10
0.0
 20
0.0
 30
0.0
  0
VERTEX
  5
12D
100
AcDbEntity
  8
レイヤー_1
 62
     7
100
AcDbVertex
100
AcDb2dVertex
 10
184.679167
 20
44.185417
 30
0.0
  0
VERTEX
  5
12E
100
AcDbEntity
  8
レイヤー_1
 62
     7
100
AcDbVertex
100
AcDb2dVertex
 10
183.620833
 20
44.45
 30
0.0
  0
VERTEX
  5
12F
100
AcDbEntity
  8
レイヤー_1
 62
     7
100
AcDbVertex
100
AcDb2dVertex
 10
184.679167
 20
44.714583
 30
0.0
  0
SEQEND
  5
130
100
AcDbEntity
  8
レイヤー_1
 62
     7
  0
INSERT
  5
128
100
AcDbEntity
  8
レイヤー_1
 62
     7
100
AcDbBlockReference
  2
AI9-BLK17
 10
220.795136
 20
46.846925
 30
0.0
  0
LINE
  5
126
100
AcDbEntity
  8
レイヤー_1
 62
     7
100
AcDbLine
 10
183.620833
 20
44.45
 30
0.0
 11
184.679167
 21
44.45
 31
0.0
  0
LINE
  5
125
100
AcDbEntity
  8
レイヤー_1
 62
     7
100
AcDbLine
 10
89.164583
 20
144.4625
 30
0.0
 11
41.010417
 21
144.4625
 31
0.0
  0
LINE
  5
124
100
AcDbEntity
  8
レイヤー_1
 62
     7
100
AcDbLine
 10
66.145833
 20
57.414583
 30
0.0
 11
41.010417
 21
57.414583
 31
0.0
  0
LINE
  5
123
100
AcDbEntity
  8
レイヤー_1
 62
     7
100
AcDbLine
 10
44.185417
 20
143.404167
 30
0.0
 11
44.185417
 21
58.472917
 31
0.0
  0
POLYLINE
  5
11E
100
AcDbEntity
  8
レイヤー_1
 62
     7
100
AcDb2dPolyline
 66
     1
 10
0.0
 20
0.0
 30
0.0
  0
VERTEX
  5
11F
100
AcDbEntity
  8
レイヤー_1
 62
     7
100
AcDbVertex
100
AcDb2dVertex
 10
43.920833
 20
143.404167
 30
0.0
  0
VERTEX
  5
120
100
AcDbEntity
  8
レイヤー_1
 62
     7
100
AcDbVertex
100
AcDb2dVertex
 10
44.185417
 20
144.4625
 30
0.0
  0
VERTEX
  5
121
100
AcDbEntity
  8
レイヤー_1
 62
     7
100
AcDbVertex
100
AcDb2dVertex
 10
44.45
 20
143.404167
 30
0.0
  0
SEQEND
  5
122
100
AcDbEntity
  8
レイヤー_1
 62
     7
  0
LINE
  5
11D
100
AcDbEntity
  8
レイヤー_1
 62
     7
100
AcDbLine
 10
44.185417
 20
144.4625
 30
0.0
 11
44.185417
 21
143.404167
 31
0.0
  0
POLYLINE
  5
118
100
AcDbEntity
  8
レイヤー_1
 62
     7
100
AcDb2dPolyline
 66
     1
 10
0.0
 20
0.0
 30
0.0
  0
VERTEX
  5
119
100
AcDbEntity
  8
レイヤー_1
 62
     7
100
AcDbVertex
100
AcDb2dVertex
 10
44.45
 20
58.472917
 30
0.0
  0
VERTEX
  5
11A
100
AcDbEntity
  8
レイヤー_1
 62
     7
100
AcDbVertex
100
AcDb2dVertex
 10
44.185417
 20
57.414583
 30
0.0
  0
VERTEX
  5
11B
100
AcDbEntity
  8
レイヤー_1
 62
     7
100
AcDbVertex
100
AcDb2dVertex
 10
43.920833
 20
58.472917
 30
0.0
  0
SEQEND
  5
11C
100
AcDbEntity
  8
レイヤー_1
 62
     7
  0
INSERT
  5
114
100
AcDbEntity
  8
レイヤー_1
 62
     7
100
AcDbBlockReference
  2
AI9-BLK16
 10
41.788491
 20
100.938886
 30
0.0
  0
LINE
  5
112
100
AcDbEntity
  8
レイヤー_1
 62
     7
100
AcDbLine
 10
44.185417
 20
57.414583
 30
0.0
 11
44.185417
 21
58.472917
 31
0.0
  0
LINE
  5
111
100
AcDbEntity
  8
レイヤー_1
 62
     7
100
AcDbLine
 10
232.304167
 20
131.7625
 30
0.0
 11
232.304167
 21
155.045833
 31
0.0
  0
LINE
  5
110
100
AcDbEntity
  8
レイヤー_1
 62
     7
100
AcDbLine
 10
209.814583
 20
131.7625
 30
0.0
 11
209.814583
 21
155.045833
 31
0.0
  0
LINE
  5
10F
100
AcDbEntity
  8
レイヤー_1
 62
     7
100
AcDbLine
 10
231.245833
 20
152.135417
 30
0.0
 11
210.872917
 21
152.135417
 31
0.0
  0
POLYLINE
  5
10A
100
AcDbEntity
  8
レイヤー_1
 62
     7
100
AcDb2dPolyline
 66
     1
 10
0.0
 20
0.0
 30
0.0
  0
VERTEX
  5
10B
100
AcDbEntity
  8
レイヤー_1
 62
     7
100
AcDbVertex
100
AcDb2dVertex
 10
231.245833
 20
152.4
 30
0.0
  0
VERTEX
  5
10C
100
AcDbEntity
  8
レイヤー_1
 62
     7
100
AcDbVertex
100
AcDb2dVertex
 10
232.304167
 20
152.135417
 30
0.0
  0
VERTEX
  5
10D
100
AcDbEntity
  8
レイヤー_1
 62
     7
100
AcDbVertex
100
AcDb2dVertex
 10
231.245833
 20
151.870833
 30
0.0
  0
SEQEND
  5
10E
100
AcDbEntity
  8
レイヤー_1
 62
     7
  0
LINE
  5
109
100
AcDbEntity
  8
レイヤー_1
 62
     7
100
AcDbLine
 10
232.304167
 20
152.135417
 30
0.0
 11
231.245833
 21
152.135417
 31
0.0
  0
POLYLINE
  5
104
100
AcDbEntity
  8
レイヤー_1
 62
     7
100
AcDb2dPolyline
 66
     1
 10
0.0
 20
0.0
 30
0.0
  0
VERTEX
  5
105
100
AcDbEntity
  8
レイヤー_1
 62
     7
100
AcDbVertex
100
AcDb2dVertex
 10
210.872917
 20
151.870833
 30
0.0
  0
VERTEX
  5
106
100
AcDbEntity
  8
レイヤー_1
 62
     7
100
AcDbVertex
100
AcDb2dVertex
 10
209.814583
 20
152.135417
 30
0.0
  0
VERTEX
  5
107
100
AcDbEntity
  8
レイヤー_1
 62
     7
100
AcDbVertex
100
AcDb2dVertex
 10
210.872917
 20
152.4
 30
0.0
  0
SEQEND
  5
108
100
AcDbEntity
  8
レイヤー_1
 62
     7
  0
INSERT
  5
100
100
AcDbEntity
  8
レイヤー_1
 62
     7
100
AcDbBlockReference
  2
AI9-BLK15
 10
220.927256
 20
154.532342
 30
0.0
  0
LINE
  5
FE
100
AcDbEntity
  8
レイヤー_1
 62
     7
100
AcDbLine
 10
209.814583
 20
152.135417
 30
0.0
 11
210.872917
 21
152.135417
 31
0.0
  0
LINE
  5
FD
100
AcDbEntity
  8
レイヤー_1
 62
     7
100
AcDbLine
 10
263.525
 20
57.414583
 30
0.0
 11
277.01875
 21
57.414583
 31
0.0
  0
LINE
  5
FC
100
AcDbEntity
  8
レイヤー_1
 62
     7
100
AcDbLine
 10
225.954167
 20
144.4625
 30
0.0
 11
277.01875
 21
144.4625
 31
0.0
  0
LINE
  5
FB
100
AcDbEntity
  8
レイヤー_1
 62
     7
100
AcDbLine
 10
274.108333
 20
58.472917
 30
0.0
 11
274.108333
 21
143.404167
 31
0.0
  0
POLYLINE
  5
F6
100
AcDbEntity
  8
レイヤー_1
 62
     7
100
AcDb2dPolyline
 66
     1
 10
0.0
 20
0.0
 30
0.0
  0
VERTEX
  5
F7
100
AcDbEntity
  8
レイヤー_1
 62
     7
100
AcDbVertex
100
AcDb2dVertex
 10
274.372917
 20
58.472917
 30
0.0
  0
VERTEX
  5
F8
100
AcDbEntity
  8
レイヤー_1
 62
     7
100
AcDbVertex
100
AcDb2dVertex
 10
274.108333
 20
57.414583
 30
0.0
  0
VERTEX
  5
F9
100
AcDbEntity
  8
レイヤー_1
 62
     7
100
AcDbVertex
100
AcDb2dVertex
 10
273.84375
 20
58.472917
 30
0.0
  0
SEQEND
  5
FA
100
AcDbEntity
  8
レイヤー_1
 62
     7
  0
LINE
  5
F5
100
AcDbEntity
  8
レイヤー_1
 62
     7
100
AcDbLine
 10
274.108333
 20
57.414583
 30
0.0
 11
274.108333
 21
58.472917
 31
0.0
  0
POLYLINE
  5
F0
100
AcDbEntity
  8
レイヤー_1
 62
     7
100
AcDb2dPolyline
 66
     1
 10
0.0
 20
0.0
 30
0.0
  0
VERTEX
  5
F1
100
AcDbEntity
  8
レイヤー_1
 62
     7
100
AcDbVertex
100
AcDb2dVertex
 10
273.84375
 20
143.404167
 30
0.0
  0
VERTEX
  5
F2
100
AcDbEntity
  8
レイヤー_1
 62
     7
100
AcDbVertex
100
AcDb2dVertex
 10
274.108333
 20
144.4625
 30
0.0
  0
VERTEX
  5
F3
100
AcDbEntity
  8
レイヤー_1
 62
     7
100
AcDbVertex
100
AcDb2dVertex
 10
274.372917
 20
143.404167
 30
0.0
  0
SEQEND
  5
F4
100
AcDbEntity
  8
レイヤー_1
 62
     7
  0
INSERT
  5
EC
100
AcDbEntity
  8
レイヤー_1
 62
     7
100
AcDbBlockReference
  2
AI9-BLK14
 10
271.711408
 20
100.938886
 30
0.0
  0
LINE
  5
EA
100
AcDbEntity
  8
レイヤー_1
 62
     7
100
AcDbLine
 10
274.108333
 20
144.4625
 30
0.0
 11
274.108333
 21
143.404167
 31
0.0
  0
POLYLINE
  5
E0
100
AcDbEntity
  8
レイヤー_1
 62
     7
100
AcDb2dPolyline
 66
     1
 10
0.0
 20
0.0
 30
0.0
 70
     1
  0
VERTEX
  5
E1
100
AcDbEntity
  8
レイヤー_1
 62
     7
100
AcDbVertex
100
AcDb2dVertex
 10
117.210417
 20
224.366667
 30
0.0
  0
VERTEX
  5
E2
100
AcDbEntity
  8
レイヤー_1
 62
     7
100
AcDbVertex
100
AcDb2dVertex
 10
116.68125
 20
225.425
 30
0.0
  0
VERTEX
  5
E3
100
AcDbEntity
  8
レイヤー_1
 62
     7
100
AcDbVertex
100
AcDb2dVertex
 10
115.622917
 20
225.954167
 30
0.0
  0
VERTEX
  5
E4
100
AcDbEntity
  8
レイヤー_1
 62
     7
100
AcDbVertex
100
AcDb2dVertex
 10
114.564583
 20
225.425
 30
0.0
  0
VERTEX
  5
E5
100
AcDbEntity
  8
レイヤー_1
 62
     7
100
AcDbVertex
100
AcDb2dVertex
 10
114.035417
 20
224.366667
 30
0.0
  0
VERTEX
  5
E6
100
AcDbEntity
  8
レイヤー_1
 62
     7
100
AcDbVertex
100
AcDb2dVertex
 10
114.564583
 20
223.308333
 30
0.0
  0
VERTEX
  5
E7
100
AcDbEntity
  8
レイヤー_1
 62
     7
100
AcDbVertex
100
AcDb2dVertex
 10
115.622917
 20
223.04375
 30
0.0
  0
VERTEX
  5
E8
100
AcDbEntity
  8
レイヤー_1
 62
     7
100
AcDbVertex
100
AcDb2dVertex
 10
116.68125
 20
223.308333
 30
0.0
  0
SEQEND
  5
E9
100
AcDbEntity
  8
レイヤー_1
 62
     7
  0
LINE
  5
DF
100
AcDbEntity
  8
レイヤー_1
 62
     7
100
AcDbLine
 10
96.04375
 20
201.877083
 30
0.0
 11
96.04375
 21
184.414583
 31
0.0
  0
LINE
  5
DE
100
AcDbEntity
  8
レイヤー_1
 62
     7
100
AcDbLine
 10
121.179167
 20
201.877083
 30
0.0
 11
121.179167
 21
184.414583
 31
0.0
  0
LINE
  5
DD
100
AcDbEntity
  8
レイヤー_1
 62
     7
100
AcDbLine
 10
97.102083
 20
187.325
 30
0.0
 11
120.120833
 21
187.325
 31
0.0
  0
POLYLINE
  5
D8
100
AcDbEntity
  8
レイヤー_1
 62
     7
100
AcDb2dPolyline
 66
     1
 10
0.0
 20
0.0
 30
0.0
  0
VERTEX
  5
D9
100
AcDbEntity
  8
レイヤー_1
 62
     7
100
AcDbVertex
100
AcDb2dVertex
 10
97.102083
 20
187.060417
 30
0.0
  0
VERTEX
  5
DA
100
AcDbEntity
  8
レイヤー_1
 62
     7
100
AcDbVertex
100
AcDb2dVertex
 10
96.04375
 20
187.325
 30
0.0
  0
VERTEX
  5
DB
100
AcDbEntity
  8
レイヤー_1
 62
     7
100
AcDbVertex
100
AcDb2dVertex
 10
97.102083
 20
187.589583
 30
0.0
  0
SEQEND
  5
DC
100
AcDbEntity
  8
レイヤー_1
 62
     7
  0
LINE
  5
D7
100
AcDbEntity
  8
レイヤー_1
 62
     7
100
AcDbLine
 10
96.04375
 20
187.325
 30
0.0
 11
97.102083
 21
187.325
 31
0.0
  0
POLYLINE
  5
D2
100
AcDbEntity
  8
レイヤー_1
 62
     7
100
AcDb2dPolyline
 66
     1
 10
0.0
 20
0.0
 30
0.0
  0
VERTEX
  5
D3
100
AcDbEntity
  8
レイヤー_1
 62
     7
100
AcDbVertex
100
AcDb2dVertex
 10
120.120833
 20
187.589583
 30
0.0
  0
VERTEX
  5
D4
100
AcDbEntity
  8
レイヤー_1
 62
     7
100
AcDbVertex
100
AcDb2dVertex
 10
121.179167
 20
187.325
 30
0.0
  0
VERTEX
  5
D5
100
AcDbEntity
  8
レイヤー_1
 62
     7
100
AcDbVertex
100
AcDb2dVertex
 10
120.120833
 20
187.060417
 30
0.0
  0
SEQEND
  5
D6
100
AcDbEntity
  8
レイヤー_1
 62
     7
  0
INSERT
  5
CE
100
AcDbEntity
  8
レイヤー_1
 62
     7
100
AcDbBlockReference
  2
AI9-BLK13
 10
108.347133
 20
189.721925
 30
0.0
  0
LINE
  5
CC
100
AcDbEntity
  8
レイヤー_1
 62
     7
100
AcDbLine
 10
121.179167
 20
187.325
 30
0.0
 11
120.120833
 21
187.325
 31
0.0
  0
POLYLINE
  5
C2
100
AcDbEntity
  8
レイヤー_1
 62
     7
100
AcDb2dPolyline
 66
     1
 10
0.0
 20
0.0
 30
0.0
 70
     1
  0
VERTEX
  5
C3
100
AcDbEntity
  8
レイヤー_1
 62
     7
100
AcDbVertex
100
AcDb2dVertex
 10
102.922917
 20
210.34375
 30
0.0
  0
VERTEX
  5
C4
100
AcDbEntity
  8
レイヤー_1
 62
     7
100
AcDbVertex
100
AcDb2dVertex
 10
102.658333
 20
211.402083
 30
0.0
  0
VERTEX
  5
C5
100
AcDbEntity
  8
レイヤー_1
 62
     7
100
AcDbVertex
100
AcDb2dVertex
 10
101.6
 20
211.93125
 30
0.0
  0
VERTEX
  5
C6
100
AcDbEntity
  8
レイヤー_1
 62
     7
100
AcDbVertex
100
AcDb2dVertex
 10
100.541667
 20
211.402083
 30
0.0
  0
VERTEX
  5
C7
100
AcDbEntity
  8
レイヤー_1
 62
     7
100
AcDbVertex
100
AcDb2dVertex
 10
100.0125
 20
210.34375
 30
0.0
  0
VERTEX
  5
C8
100
AcDbEntity
  8
レイヤー_1
 62
     7
100
AcDbVertex
100
AcDb2dVertex
 10
100.541667
 20
209.285417
 30
0.0
  0
VERTEX
  5
C9
100
AcDbEntity
  8
レイヤー_1
 62
     7
100
AcDbVertex
100
AcDb2dVertex
 10
101.6
 20
208.75625
 30
0.0
  0
VERTEX
  5
CA
100
AcDbEntity
  8
レイヤー_1
 62
     7
100
AcDbVertex
100
AcDb2dVertex
 10
102.658333
 20
209.285417
 30
0.0
  0
SEQEND
  5
CB
100
AcDbEntity
  8
レイヤー_1
 62
     7
  0
LINE
  5
C1
100
AcDbEntity
  8
レイヤー_1
 62
     7
100
AcDbLine
 10
97.895833
 20
213.783333
 30
0.0
 11
91.810417
 21
220.133333
 31
0.0
  0
LINE
  5
C0
100
AcDbEntity
  8
レイヤー_1
 62
     7
100
AcDbLine
 10
112.183333
 20
228.070833
 30
0.0
 11
105.833333
 21
234.15625
 31
0.0
  0
POLYLINE
  5
BA
100
AcDbEntity
  8
レイヤー_1
 62
     7
100
AcDb2dPolyline
 66
     1
 10
0.0
 20
0.0
 30
0.0
  0
VERTEX
  5
BB
100
AcDbEntity
  8
レイヤー_1
 62
     7
100
AcDbVertex
100
AcDb2dVertex
 10
107.420833
 20
231.245833
 30
0.0
  0
VERTEX
  5
BC
100
AcDbEntity
  8
レイヤー_1
 62
     7
100
AcDbVertex
100
AcDb2dVertex
 10
94.720833
 20
218.545833
 30
0.0
  0
VERTEX
  5
BD
100
AcDbEntity
  8
レイヤー_1
 62
     7
100
AcDbVertex
100
AcDb2dVertex
 10
93.927083
 20
218.016667
 30
0.0
  0
VERTEX
  5
BE
100
AcDbEntity
  8
レイヤー_1
 62
     7
100
AcDbVertex
100
AcDb2dVertex
 10
94.45625
 20
218.810417
 30
0.0
  0
SEQEND
  5
BF
100
AcDbEntity
  8
レイヤー_1
 62
     7
  0
LINE
  5
B9
100
AcDbEntity
  8
レイヤー_1
 62
     7
100
AcDbLine
 10
93.927083
 20
218.016667
 30
0.0
 11
94.720833
 21
218.545833
 31
0.0
  0
INSERT
  5
B5
100
AcDbEntity
  8
レイヤー_1
 62
     7
100
AcDbBlockReference
  2
AI9-BLK12
 10
99.225554
 20
226.531306
 30
0.0
  0
POLYLINE
  5
AE
100
AcDbEntity
  8
レイヤー_1
 62
     7
100
AcDb2dPolyline
 66
     1
 10
0.0
 20
0.0
 30
0.0
  0
VERTEX
  5
AF
100
AcDbEntity
  8
レイヤー_1
 62
     7
100
AcDbVertex
100
AcDb2dVertex
 10
107.15625
 20
231.510417
 30
0.0
  0
VERTEX
  5
B0
100
AcDbEntity
  8
レイヤー_1
 62
     7
100
AcDbVertex
100
AcDb2dVertex
 10
107.95
 20
232.039583
 30
0.0
  0
VERTEX
  5
B1
100
AcDbEntity
  8
レイヤー_1
 62
     7
100
AcDbVertex
100
AcDb2dVertex
 10
107.420833
 20
231.245833
 30
0.0
  0
VERTEX
  5
B2
100
AcDbEntity
  8
レイヤー_1
 62
     7
100
AcDbVertex
100
AcDb2dVertex
 10
107.95
 20
232.039583
 30
0.0
  0
SEQEND
  5
B3
100
AcDbEntity
  8
レイヤー_1
 62
     7
  0
INSERT
  5
A9
100
AcDbEntity
  8
レイヤー_1
 62
     7
100
AcDbBlockReference
  2
AI9-BLK11
 10
108.423442
 20
214.474678
 30
0.0
  0
LINE
  5
A7
100
AcDbEntity
  8
レイヤー_1
 62
     7
100
AcDbLine
 10
113.770833
 20
212.725
 30
0.0
 11
103.98125
 21
210.872917
 31
0.0
  0
LINE
  5
A6
100
AcDbEntity
  8
レイヤー_1
 62
     7
100
AcDbLine
 10
98.954167
 20
209.814583
 30
0.0
 11
98.160417
 21
209.55
 31
0.0
  0
POLYLINE
  5
A1
100
AcDbEntity
  8
レイヤー_1
 62
     7
100
AcDb2dPolyline
 66
     1
 10
0.0
 20
0.0
 30
0.0
  0
VERTEX
  5
A2
100
AcDbEntity
  8
レイヤー_1
 62
     7
100
AcDbVertex
100
AcDb2dVertex
 10
102.922917
 20
210.608333
 30
0.0
  0
VERTEX
  5
A3
100
AcDbEntity
  8
レイヤー_1
 62
     7
100
AcDbVertex
100
AcDb2dVertex
 10
100.0125
 20
210.079167
 30
0.0
  0
VERTEX
  5
A4
100
AcDbEntity
  8
レイヤー_1
 62
     7
100
AcDbVertex
100
AcDb2dVertex
 10
98.954167
 20
210.079167
 30
0.0
  0
SEQEND
  5
A5
100
AcDbEntity
  8
レイヤー_1
 62
     7
  0
POLYLINE
  5
9C
100
AcDbEntity
  8
レイヤー_1
 62
     7
100
AcDb2dPolyline
 66
     1
 10
0.0
 20
0.0
 30
0.0
  0
VERTEX
  5
9D
100
AcDbEntity
  8
レイヤー_1
 62
     7
100
AcDbVertex
100
AcDb2dVertex
 10
99.21875
 20
209.55
 30
0.0
  0
VERTEX
  5
9E
100
AcDbEntity
  8
レイヤー_1
 62
     7
100
AcDbVertex
100
AcDb2dVertex
 10
100.0125
 20
210.079167
 30
0.0
  0
VERTEX
  5
9F
100
AcDbEntity
  8
レイヤー_1
 62
     7
100
AcDbVertex
100
AcDb2dVertex
 10
98.954167
 20
209.814583
 30
0.0
  0
SEQEND
  5
A0
100
AcDbEntity
  8
レイヤー_1
 62
     7
  0
POLYLINE
  5
97
100
AcDbEntity
  8
レイヤー_1
 62
     7
100
AcDb2dPolyline
 66
     1
 10
0.0
 20
0.0
 30
0.0
  0
VERTEX
  5
98
100
AcDbEntity
  8
レイヤー_1
 62
     7
100
AcDbVertex
100
AcDb2dVertex
 10
103.98125
 20
210.608333
 30
0.0
  0
VERTEX
  5
99
100
AcDbEntity
  8
レイヤー_1
 62
     7
100
AcDbVertex
100
AcDb2dVertex
 10
102.922917
 20
210.608333
 30
0.0
  0
VERTEX
  5
9A
100
AcDbEntity
  8
レイヤー_1
 62
     7
100
AcDbVertex
100
AcDb2dVertex
 10
103.98125
 20
211.1375
 30
0.0
  0
SEQEND
  5
9B
100
AcDbEntity
  8
レイヤー_1
 62
     7
  0
INSERT
  5
93
100
AcDbEntity
  8
レイヤー_1
 62
     7
100
AcDbBlockReference
  2
AI9-BLK10
 10
86.318676
 20
243.335879
 30
0.0
  0
LINE
  5
91
100
AcDbEntity
  8
レイヤー_1
 62
     7
100
AcDbLine
 10
102.922917
 20
210.608333
 30
0.0
 11
103.98125
 21
210.872917
 31
0.0
  0
LINE
  5
90
100
AcDbEntity
  8
レイヤー_1
 62
     7
100
AcDbLine
 10
82.285417
 20
244.210417
 30
0.0
 11
89.958333
 21
236.272917
 31
0.0
  0
POLYLINE
  5
8B
100
AcDbEntity
  8
レイヤー_1
 62
     7
100
AcDb2dPolyline
 66
     1
 10
0.0
 20
0.0
 30
0.0
  0
VERTEX
  5
8C
100
AcDbEntity
  8
レイヤー_1
 62
     7
100
AcDbVertex
100
AcDb2dVertex
 10
92.339583
 20
233.627083
 30
0.0
  0
VERTEX
  5
8D
100
AcDbEntity
  8
レイヤー_1
 62
     7
100
AcDbVertex
100
AcDb2dVertex
 10
90.4875
 20
235.479167
 30
0.0
  0
VERTEX
  5
8E
100
AcDbEntity
  8
レイヤー_1
 62
     7
100
AcDbVertex
100
AcDb2dVertex
 10
90.222917
 20
236.272917
 30
0.0
  0
SEQEND
  5
8F
100
AcDbEntity
  8
レイヤー_1
 62
     7
  0
POLYLINE
  5
86
100
AcDbEntity
  8
レイヤー_1
 62
     7
100
AcDb2dPolyline
 66
     1
 10
0.0
 20
0.0
 30
0.0
  0
VERTEX
  5
87
100
AcDbEntity
  8
レイヤー_1
 62
     7
100
AcDbVertex
100
AcDb2dVertex
 10
89.69375
 20
236.008333
 30
0.0
  0
VERTEX
  5
88
100
AcDbEntity
  8
レイヤー_1
 62
     7
100
AcDbVertex
100
AcDb2dVertex
 10
90.4875
 20
235.479167
 30
0.0
  0
VERTEX
  5
89
100
AcDbEntity
  8
レイヤー_1
 62
     7
100
AcDbVertex
100
AcDb2dVertex
 10
89.958333
 20
236.272917
 30
0.0
  0
SEQEND
  5
8A
100
AcDbEntity
  8
レイヤー_1
 62
     7
  0
INSERT
  5
82
100
AcDbEntity
  8
レイヤー_1
 62
     7
100
AcDbBlockReference
  2
AI9-BLK9
 10
65.954544
 20
263.460491
 30
0.0
  0
LINE
  5
80
100
AcDbEntity
  8
レイヤー_1
 62
     7
100
AcDbLine
 10
62.177083
 20
264.054167
 30
0.0
 11
71.172917
 21
254.79375
 31
0.0
  0
POLYLINE
  5
7B
100
AcDbEntity
  8
レイヤー_1
 62
     7
100
AcDb2dPolyline
 66
     1
 10
0.0
 20
0.0
 30
0.0
  0
VERTEX
  5
7C
100
AcDbEntity
  8
レイヤー_1
 62
     7
100
AcDbVertex
100
AcDb2dVertex
 10
73.554167
 20
252.4125
 30
0.0
  0
VERTEX
  5
7D
100
AcDbEntity
  8
レイヤー_1
 62
     7
100
AcDbVertex
100
AcDb2dVertex
 10
71.966667
 20
254.264583
 30
0.0
  0
VERTEX
  5
7E
100
AcDbEntity
  8
レイヤー_1
 62
     7
100
AcDbVertex
100
AcDb2dVertex
 10
71.4375
 20
255.058333
 30
0.0
  0
SEQEND
  5
7F
100
AcDbEntity
  8
レイヤー_1
 62
     7
  0
POLYLINE
  5
76
100
AcDbEntity
  8
レイヤー_1
 62
     7
100
AcDb2dPolyline
 66
     1
 10
0.0
 20
0.0
 30
0.0
  0
VERTEX
  5
77
100
AcDbEntity
  8
レイヤー_1
 62
     7
100
AcDbVertex
100
AcDb2dVertex
 10
70.908333
 20
254.79375
 30
0.0
  0
VERTEX
  5
78
100
AcDbEntity
  8
レイヤー_1
 62
     7
100
AcDbVertex
100
AcDb2dVertex
 10
71.966667
 20
254.264583
 30
0.0
  0
VERTEX
  5
79
100
AcDbEntity
  8
レイヤー_1
 62
     7
100
AcDbVertex
100
AcDb2dVertex
 10
71.172917
 20
254.79375
 30
0.0
  0
SEQEND
  5
7A
100
AcDbEntity
  8
レイヤー_1
 62
     7
  0
INSERT
  5
45
100
AcDbEntity
  8
レイヤー_1
 62
     7
100
AcDbBlockReference
  2
AI9-BLK6
 10
341.336271
 20
23.619402
 30
0.0
  0
INSERT
  5
3F
100
AcDbEntity
  8
レイヤー_1
 62
     7
100
AcDbBlockReference
  2
AI9-BLK5
 10
388.528567
 20
39.547629
 30
0.0
  0
INSERT
  5
38
100
AcDbEntity
  8
レイヤー_1
 62
     7
100
AcDbBlockReference
  2
AI9-BLK4
 10
388.528567
 20
43.057492
 30
0.0
  0
INSERT
  5
2A
100
AcDbEntity
  8
レイヤー_1
 62
     7
100
AcDbBlockReference
  2
AI9-BLK1
 10
392.067714
 20
39.270299
 30
0.0
  0
ENDSEC
  0
SECTION
  2
OBJECTS
  0
DICTIONARY
  5
19
100
AcDbDictionary
280
     0
281
     1
  3
ACAD_GROUP
350
1A
  3
ACAD_MLINESTYLE
350
1B
  3
ACAD_LAYOUT
350
1E
  3
ACAD_PLOTSETTINGS
350
22
  3
ACAD_PLOTSTYLENAME
350
1F
  3
ACAD_WIPEOUT_VARS
350
23
  0
DICTIONARY
  5
1A
102
{ACAD_REACTORS
330
19
102
}
100
AcDbDictionary
280
     0
281
     1
  0
DICTIONARY
  5
1B
102
{ACAD_REACTORS
330
19
102
}
100
AcDbDictionary
280
     0
281
     1
  3
Standard
350
1C
  0
MLINESTYLE
  5
1C
102
{ACAD_REACTORS
330
1B
102
}
100
AcDbMlineStyle
  2
Standard
 70
     0
  3

 62
     0
 51
90.0
 52
90.0
 71
     2
 49
0.5
 62
   256
  6
ByLayer
 49
-0.5
 62
   256
  6
ByLayer
  0
ACDBDICTIONARYWDFLT
  5
1F
102
{ACAD_REACTORS
330
19
102
}
100
AcDbDictionary
281
     1
  3
Normal
350
1D
100
AcDbDictionaryWithDefault
340
1D
  0
ACDBPLACEHOLDER
  5
1D
102
{ACAD_REACTORS
330
1F
102
}
  0
LAYOUT
  5
20
102
{ACAD_REACTORS
330
1E
102
}
100
AcDbPlotSettings
  1

  2

  4

  6

 40
0.0
 41
0.0
 42
0.0
 43
0.0
 44
0.0
 45
0.0
 46
0.0
 47
0.0
 48
0.0
 49
0.0
140
0.0
141
0.0
142
1.0
143
1.0
 70
  1024
 72
     0
 73
     0
 74
     0
  7

 75
     0
147
1.0
148
0.0
149
0.0
100
AcDbLayout
  1
Model
 70
     0
 71
     0
 10
0.0
 20
0.0
 11
0.0
 21
0.0
 12
0.0
 22
0.0
 32
0.0
 14
0.0
 24
0.0
 34
0.0
 15
0.0
 25
0.0
 35
0.0
146
0.0
 13
0.0
 23
0.0
 33
0.0
 16
0.0
 26
0.0
 36
0.0
 17
0.0
 27
0.0
 37
0.0
 76
     0
330
A
331
0
345
0
346
0
  0
LAYOUT
  5
21
102
{ACAD_REACTORS
330
1E
102
}
100
AcDbPlotSettings
  1

  2

  4

  6

 40
0.0
 41
0.0
 42
0.0
 43
0.0
 44
0.0
 45
0.0
 46
0.0
 47
0.0
 48
0.0
 49
0.0
140
0.0
141
0.0
142
1.0
143
1.0
 70
     0
 72
     0
 73
     0
 74
     0
  7

 75
     0
147
1.0
148
0.0
149
0.0
100
AcDbLayout
  1
Layout1
 70
     0
 71
     0
 10
0.0
 20
0.0
 11
0.0
 21
0.0
 12
0.0
 22
0.0
 32
0.0
 14
0.0
 24
0.0
 34
0.0
 15
0.0
 25
0.0
 35
0.0
146
0.0
 13
0.0
 23
0.0
 33
0.0
 16
0.0
 26
0.0
 36
0.0
 17
0.0
 27
0.0
 37
0.0
 76
     0
330
B
331
0
345
0
346
0
  0
DICTIONARY
  5
1E
102
{ACAD_REACTORS
330
19
102
}
100
AcDbDictionary
280
     0
281
     1
  3
Layout1
350
21
  3
Model
350
20
  0
DICTIONARY
  5
22
102
{ACAD_REACTORS
330
19
102
}
100
AcDbDictionary
280
     0
281
     1
  0
WIPEOUTVARIABLES
  5
23
100
AcDbWipeoutVariables
 70
     1
  0
ENDSEC
  0
EOF
