  0
SECTION
  2
HEADER
  9
$ACADVER
  1
AC1021
  9
$ACADMAINTVER
 70
    25
  9
$DWGCODEPAGE
  3
ANSI_932
  9
$INSBASE
 10
0.0
 20
0.0
 30
0.0
  9
$EXTMIN
 10
1.000000000000000E+20
 20
1.000000000000000E+20
 30
1.000000000000000E+20
  9
$EXTMAX
 10
-1.000000000000000E+20
 20
-1.000000000000000E+20
 30
-1.000000000000000E+20
  9
$LIMMIN
 10
0.0
 20
0.0
  9
$LIMMAX
 10
12.0
 20
9.0
  9
$ORTHOMODE
 70
     0
  9
$REGENMODE
 70
     1
  9
$FILLMODE
 70
     1
  9
$QTEXTMODE
 70
     0
  9
$MIRRTEXT
 70
     1
  9
$LTSCALE
 40
1.0
  9
$ATTMODE
 70
     1
  9
$TEXTSIZE
 40
0.2
  9
$TRACEWID
 40
0.05
  9
$TEXTSTYLE
  7
Standard
  9
$CLAYER
  8
0
  9
$CELTYPE
  6
ByLayer
  9
$CECOLOR
 62
   256
  9
$CELTSCALE
 40
1.0
  9
$DISPSILH
 70
     0
  9
$DIMSCALE
 40
1.0
  9
$DIMASZ
 40
0.18
  9
$DIMEXO
 40
0.0625
  9
$DIMDLI
 40
0.38
  9
$DIMRND
 40
0.0
  9
$DIMDLE
 40
0.0
  9
$DIMEXE
 40
0.18
  9
$DIMTP
 40
0.0
  9
$DIMTM
 40
0.0
  9
$DIMTXT
 40
0.18
  9
$DIMCEN
 40
0.09
  9
$DIMTSZ
 40
0.0
  9
$DIMTOL
 70
     0
  9
$DIMLIM
 70
     0
  9
$DIMTIH
 70
     1
  9
$DIMTOH
 70
     1
  9
$DIMSE1
 70
     0
  9
$DIMSE2
 70
     0
  9
$DIMTAD
 70
     0
  9
$DIMZIN
 70
     0
  9
$DIMBLK
  1

  9
$DIMASO
 70
     1
  9
$DIMSHO
 70
     1
  9
$DIMPOST
  1

  9
$DIMAPOST
  1

  9
$DIMALT
 70
     0
  9
$DIMALTD
 70
     2
  9
$DIMALTF
 40
25.4
  9
$DIMLFAC
 40
1.0
  9
$DIMTOFL
 70
     0
  9
$DIMTVP
 40
0.0
  9
$DIMTIX
 70
     0
  9
$DIMSOXD
 70
     0
  9
$DIMSAH
 70
     0
  9
$DIMBLK1
  1

  9
$DIMBLK2
  1

  9
$DIMSTYLE
  2
Standard
  9
$DIMCLRD
 70
     0
  9
$DIMCLRE
 70
     0
  9
$DIMCLRT
 70
     0
  9
$DIMTFAC
 40
1.0
  9
$DIMGAP
 40
0.09
  9
$DIMJUST
 70
     0
  9
$DIMSD1
 70
     0
  9
$DIMSD2
 70
     0
  9
$DIMTOLJ
 70
     1
  9
$DIMTZIN
 70
     0
  9
$DIMALTZ
 70
     0
  9
$DIMALTTZ
 70
     0
  9
$DIMUPT
 70
     0
  9
$DIMDEC
 70
     4
  9
$DIMTDEC
 70
     4
  9
$DIMALTU
 70
     2
  9
$DIMALTTD
 70
     2
  9
$DIMTXSTY
  7
Standard
  9
$DIMAUNIT
 70
     0
  9
$DIMADEC
 70
     0
  9
$DIMALTRND
 40
0.0
  9
$DIMAZIN
 70
     0
  9
$DIMDSEP
 70
    46
  9
$DIMATFIT
 70
     3
  9
$DIMFRAC
 70
     0
  9
$DIMLDRBLK
  1

  9
$DIMLUNIT
 70
     2
  9
$DIMLWD
 70
    -2
  9
$DIMLWE
 70
    -2
  9
$DIMTMOVE
 70
     0
  9
$DIMFXL
 40
1.0
  9
$DIMFXLON
 70
     0
  9
$DIMJOGANG
 40
0.7853981633974483
  9
$DIMTFILL
 70
     0
  9
$DIMTFILLCLR
 70
     0
  9
$DIMARCSYM
 70
     0
  9
$DIMLTYPE
  6

  9
$DIMLTEX1
  6

  9
$DIMLTEX2
  6

  9
$LUNITS
 70
     2
  9
$LUPREC
 70
     4
  9
$SKETCHINC
 40
0.1
  9
$FILLETRAD
 40
0.5
  9
$AUNITS
 70
     0
  9
$AUPREC
 70
     0
  9
$MENU
  1
.
  9
$ELEVATION
 40
0.0
  9
$PELEVATION
 40
0.0
  9
$THICKNESS
 40
0.0
  9
$LIMCHECK
 70
     0
  9
$CHAMFERA
 40
0.5
  9
$CHAMFERB
 40
0.5
  9
$CHAMFERC
 40
1.0
  9
$CHAMFERD
 40
0.0
  9
$SKPOLY
 70
     0
  9
$TDCREATE
 40
2458520.414615417
  9
$TDUCREATE
 40
2458520.039615417
  9
$TDUPDATE
 40
2458520.41461706
  9
$TDUUPDATE
 40
2458520.03961706
  9
$TDINDWG
 40
0.0000000116
  9
$TDUSRTIMER
 40
0.0000000116
  9
$USRTIMER
 70
     1
  9
$ANGBASE
 50
0.0
  9
$ANGDIR
 70
     0
  9
$PDMODE
 70
     0
  9
$PDSIZE
 40
0.0
  9
$PLINEWID
 40
0.0
  9
$SPLFRAME
 70
     0
  9
$SPLINETYPE
 70
     6
  9
$SPLINESEGS
 70
     8
  9
$HANDSEED
  5
FA
  9
$SURFTAB1
 70
     6
  9
$SURFTAB2
 70
     6
  9
$SURFTYPE
 70
     6
  9
$SURFU
 70
     6
  9
$SURFV
 70
     6
  9
$UCSBASE
  2

  9
$UCSNAME
  2

  9
$UCSORG
 10
0.0
 20
0.0
 30
0.0
  9
$UCSXDIR
 10
1.0
 20
0.0
 30
0.0
  9
$UCSYDIR
 10
0.0
 20
1.0
 30
0.0
  9
$UCSORTHOREF
  2

  9
$UCSORTHOVIEW
 70
     0
  9
$UCSORGTOP
 10
0.0
 20
0.0
 30
0.0
  9
$UCSORGBOTTOM
 10
0.0
 20
0.0
 30
0.0
  9
$UCSORGLEFT
 10
0.0
 20
0.0
 30
0.0
  9
$UCSORGRIGHT
 10
0.0
 20
0.0
 30
0.0
  9
$UCSORGFRONT
 10
0.0
 20
0.0
 30
0.0
  9
$UCSORGBACK
 10
0.0
 20
0.0
 30
0.0
  9
$PUCSBASE
  2

  9
$PUCSNAME
  2

  9
$PUCSORG
 10
0.0
 20
0.0
 30
0.0
  9
$PUCSXDIR
 10
1.0
 20
0.0
 30
0.0
  9
$PUCSYDIR
 10
0.0
 20
1.0
 30
0.0
  9
$PUCSORTHOREF
  2

  9
$PUCSORTHOVIEW
 70
     0
  9
$PUCSORGTOP
 10
0.0
 20
0.0
 30
0.0
  9
$PUCSORGBOTTOM
 10
0.0
 20
0.0
 30
0.0
  9
$PUCSORGLEFT
 10
0.0
 20
0.0
 30
0.0
  9
$PUCSORGRIGHT
 10
0.0
 20
0.0
 30
0.0
  9
$PUCSORGFRONT
 10
0.0
 20
0.0
 30
0.0
  9
$PUCSORGBACK
 10
0.0
 20
0.0
 30
0.0
  9
$USERI1
 70
     0
  9
$USERI2
 70
     0
  9
$USERI3
 70
     0
  9
$USERI4
 70
     0
  9
$USERI5
 70
     0
  9
$USERR1
 40
0.0
  9
$USERR2
 40
0.0
  9
$USERR3
 40
0.0
  9
$USERR4
 40
0.0
  9
$USERR5
 40
0.0
  9
$WORLDVIEW
 70
     1
  9
$SHADEDGE
 70
     3
  9
$SHADEDIF
 70
    70
  9
$TILEMODE
 70
     1
  9
$MAXACTVP
 70
    64
  9
$PINSBASE
 10
0.0
 20
0.0
 30
0.0
  9
$PLIMCHECK
 70
     0
  9
$PEXTMIN
 10
1.000000000000000E+20
 20
1.000000000000000E+20
 30
1.000000000000000E+20
  9
$PEXTMAX
 10
-1.000000000000000E+20
 20
-1.000000000000000E+20
 30
-1.000000000000000E+20
  9
$PLIMMIN
 10
0.0
 20
0.0
  9
$PLIMMAX
 10
12.0
 20
9.0
  9
$UNITMODE
 70
     0
  9
$VISRETAIN
 70
     1
  9
$PLINEGEN
 70
     0
  9
$PSLTSCALE
 70
     1
  9
$TREEDEPTH
 70
  3020
  9
$CMLSTYLE
  2
Standard
  9
$CMLJUST
 70
     0
  9
$CMLSCALE
 40
1.0
  9
$PROXYGRAPHICS
 70
     1
  9
$MEASUREMENT
 70
     0
  9
$CELWEIGHT
370
    -1
  9
$ENDCAPS
280
     0
  9
$JOINSTYLE
280
     0
  9
$LWDISPLAY
290
     1
  9
$INSUNITS
 70
     1
  9
$HYPERLINKBASE
  1

  9
$STYLESHEET
  1

  9
$XEDIT
290
     1
  9
$CEPSNTYPE
380
     0
  9
$PSTYLEMODE
290
     1
  9
$FINGERPRINTGUID
  2
{3E10103F-0636-48AB-AF67-76A1C96AE653}
  9
$VERSIONGUID
  2
{FAEB1C32-E019-11D5-929B-00C0DF256EC4}
  9
$EXTNAMES
290
     1
  9
$PSVPSCALE
 40
0.0
  9
$OLESTARTUP
290
     0
  9
$SORTENTS
280
   127
  9
$INDEXCTL
280
     0
  9
$HIDETEXT
280
     1
  9
$XCLIPFRAME
290
     0
  9
$HALOGAP
280
     0
  9
$OBSCOLOR
 70
   257
  9
$OBSLTYPE
280
     0
  9
$INTERSECTIONDISPLAY
280
     0
  9
$INTERSECTIONCOLOR
 70
   257
  9
$DIMASSOC
280
     2
  9
$PROJECTNAME
  1

  9
$CAMERADISPLAY
290
     0
  9
$LENSLENGTH
 40
50.0
  9
$CAMERAHEIGHT
 40
0.0
  9
$STEPSPERSEC
 40
2.0
  9
$STEPSIZE
 40
6.0
  9
$3DDWFPREC
 40
2.0
  9
$PSOLWIDTH
 40
0.25
  9
$PSOLHEIGHT
 40
4.0
  9
$LOFTANG1
 40
1.570796326794897
  9
$LOFTANG2
 40
1.570796326794897
  9
$LOFTMAG1
 40
0.0
  9
$LOFTMAG2
 40
0.0
  9
$LOFTPARAM
 70
     7
  9
$LOFTNORMALS
280
     1
  9
$LATITUDE
 40
37.795
  9
$LONGITUDE
 40
-122.394
  9
$NORTHDIRECTION
 40
0.0
  9
$TIMEZONE
 70
 -8000
  9
$LIGHTGLYPHDISPLAY
280
     1
  9
$TILEMODELIGHTSYNCH
280
     1
  9
$CMATERIAL
347
3C
  9
$SOLIDHIST
280
     1
  9
$SHOWHIST
280
     1
  9
$DWFFRAME
280
     2
  9
$DGNFRAME
280
     2
  9
$REALWORLDSCALE
290
     1
  9
$INTERFERECOLOR
 62
   256
  9
$CSHADOW
280
     0
  9
$SHADOWPLANELOCATION
 40
0.0
  0
ENDSEC
  0
SECTION
  2
CLASSES
  0
CLASS
  1
ACDBDICTIONARYWDFLT
  2
AcDbDictionaryWithDefault
  3
ObjectDBX Classes
 90
        0
 91
        4
280
     0
281
     0
  0
CLASS
  1
VISUALSTYLE
  2
AcDbVisualStyle
  3
ObjectDBX Classes
 90
     4095
 91
        4
280
     0
281
     0
  0
CLASS
  1
MATERIAL
  2
AcDbMaterial
  3
ObjectDBX Classes
 90
     1153
 91
        4
280
     0
281
     0
  0
CLASS
  1
SUN
  2
AcDbSun
  3
SCENEOE
 90
     1024
 91
        4
280
     0
281
     0
  0
ENDSEC
  0
SECTION
  2
TABLES
  0
TABLE
  2
VPORT
  5
8
330
0
100
AcDbSymbolTable
 70
     1
  0
VPORT
  5
29
330
8
100
AcDbSymbolTableRecord
100
AcDbViewportTableRecord
  2
*Active
 70
     0
 10
0.0
 20
0.0
 11
1.0
 21
1.0
 12
0.0
 22
0.0
 13
0.0
 23
0.0
 14
0.5
 24
0.5
 15
0.5
 25
0.5
 16
0.0
 26
0.0
 36
1.0
 17
148.3916656437123
 27
104.8915941359208
 37
0.0
 40
297.0000052006764
 41
0.7070706878738762
 42
50.0
 43
0.0
 44
0.0
 50
0.0
 51
0.0
 71
     0
 72
   100
 73
     1
 74
     3
 75
     0
 76
     0
 77
     0
 78
     0
281
     0
 65
     1
110
0.0
120
0.0
130
0.0
111
1.0
121
0.0
131
0.0
112
0.0
122
1.0
132
0.0
 79
     0
146
0.0
 60
     3
 61
     5
292
     1
282
     1
141
0.0
142
0.0
 63
   250
361
3F
  0
ENDTAB
  0
TABLE
  2
LTYPE
  5
5
330
0
100
AcDbSymbolTable
 70
     1
  0
LTYPE
  5
14
330
5
100
AcDbSymbolTableRecord
100
AcDbLinetypeTableRecord
  2
ByBlock
 70
     0
  3

 72
    65
 73
     0
 40
0.0
  0
LTYPE
  5
15
330
5
100
AcDbSymbolTableRecord
100
AcDbLinetypeTableRecord
  2
ByLayer
 70
     0
  3

 72
    65
 73
     0
 40
0.0
  0
LTYPE
  5
16
330
5
100
AcDbSymbolTableRecord
100
AcDbLinetypeTableRecord
  2
Continuous
 70
     0
  3
Solid line
 72
    65
 73
     0
 40
0.0
  0
ENDTAB
  0
TABLE
  2
LAYER
  5
2
330
0
100
AcDbSymbolTable
 70
     2
  0
LAYER
  5
10
330
2
100
AcDbSymbolTableRecord
100
AcDbLayerTableRecord
  2
0
 70
     0
 62
     7
  6
Continuous
370
    -3
390
F
347
3E
  0
LAYER
  5
40
330
2
100
AcDbSymbolTableRecord
100
AcDbLayerTableRecord
  2
_U+30EC_U+30A4_U+30E4_U+30FC 1
 70
     0
 62
     7
  6
Continuous
370
    -3
390
F
347
3E
  0
ENDTAB
  0
TABLE
  2
STYLE
  5
3
330
0
100
AcDbSymbolTable
 70
     1
  0
STYLE
  5
11
330
3
100
AcDbSymbolTableRecord
100
AcDbTextStyleTableRecord
  2
Standard
 70
     0
 40
0.0
 41
1.0
 50
0.0
 71
     0
 42
0.2
  3
txt
  4

  0
ENDTAB
  0
TABLE
  2
VIEW
  5
6
330
0
100
AcDbSymbolTable
 70
     0
  0
ENDTAB
  0
TABLE
  2
UCS
  5
7
330
0
100
AcDbSymbolTable
 70
     0
  0
ENDTAB
  0
TABLE
  2
APPID
  5
9
330
0
100
AcDbSymbolTable
 70
     1
  0
APPID
  5
12
330
9
100
AcDbSymbolTableRecord
100
AcDbRegAppTableRecord
  2
ACAD
 70
     0
  0
ENDTAB
  0
TABLE
  2
DIMSTYLE
  5
A
330
0
100
AcDbSymbolTable
 70
     1
100
AcDbDimStyleTable
  0
DIMSTYLE
105
27
330
A
100
AcDbSymbolTableRecord
100
AcDbDimStyleTableRecord
  2
Standard
 70
     0
178
     0
340
11
  0
ENDTAB
  0
TABLE
  2
BLOCK_RECORD
  5
1
330
0
100
AcDbSymbolTable
 70
     3
  0
BLOCK_RECORD
  5
1F
330
1
100
AcDbSymbolTableRecord
100
AcDbBlockTableRecord
  2
*Model_Space
340
22
 70
     0
280
     1
281
     0
  0
BLOCK_RECORD
  5
1B
330
1
100
AcDbSymbolTableRecord
100
AcDbBlockTableRecord
  2
*Paper_Space
340
1E
 70
     0
280
     1
281
     0
  0
BLOCK_RECORD
  5
23
330
1
100
AcDbSymbolTableRecord
100
AcDbBlockTableRecord
  2
*Paper_Space0
340
26
 70
     0
280
     1
281
     0
  0
BLOCK_RECORD
  5
41
330
1
100
AcDbSymbolTableRecord
100
AcDbBlockTableRecord
  2
block 2
340
0
102
{BLKREFS
331
42
102
}
 70
     0
280
     1
281
     0
  0
BLOCK_RECORD
  5
9B
330
1
100
AcDbSymbolTableRecord
100
AcDbBlockTableRecord
  2
block 3
340
0
102
{BLKREFS
331
9C
102
}
 70
     0
280
     1
281
     0
  0
ENDTAB
  0
ENDSEC
  0
SECTION
  2
BLOCKS
  0
BLOCK
  5
20
330
1F
100
AcDbEntity
  8
0
100
AcDbBlockBegin
  2
*Model_Space
 70
     0
 10
0.0
 20
0.0
 30
0.0
  3
*Model_Space
  1

  0
ENDBLK
  5
21
330
1F
100
AcDbEntity
  8
0
100
AcDbBlockEnd
  0
BLOCK
  5
1C
330
1B
100
AcDbEntity
 67
     1
  8
0
100
AcDbBlockBegin
  2
*Paper_Space
 70
     0
 10
0.0
 20
0.0
 30
0.0
  3
*Paper_Space
  1

  0
ENDBLK
  5
1D
330
1B
100
AcDbEntity
 67
     1
  8
0
100
AcDbBlockEnd
  0
BLOCK
  5
24
330
23
100
AcDbEntity
  8
0
100
AcDbBlockBegin
  2
*Paper_Space0
 70
     0
 10
0.0
 20
0.0
 30
0.0
  3
*Paper_Space0
  1

  0
ENDBLK
  5
25
330
23
100
AcDbEntity
  8
0
100
AcDbBlockEnd
  0
BLOCK
  5
43
330
41
100
AcDbEntity
  8
0
100
AcDbBlockBegin
  2
block 2
 70
     0
 10
0.0
 20
0.0
 30
0.0
  3
block 2
  1

  0
SPLINE
  5
45
330
41
100
AcDbEntity
  8
_U+30EC_U+30A4_U+30E4_U+30FC 1
370
     0
100
AcDbSpline
210
0.0
220
0.0
230
1.0
 70
    11
 71
     3
 72
    23
 73
    19
 74
     0
 42
0.0000000001
 43
0.0000000001
 12
1.0
 22
0.0
 32
0.0
 13
1.0
 23
0.0
 33
0.0
 40
0.0
 40
0.0
 40
0.0
 40
0.0
 40
1.0
 40
1.0
 40
1.0
 40
2.0
 40
2.0
 40
2.0
 40
3.0
 40
3.0
 40
3.0
 40
4.0
 40
4.0
 40
4.0
 40
5.0
 40
5.0
 40
5.0
 40
6.0
 40
6.0
 40
6.0
 40
6.0
 10
167.9794107652968
 20
64.87734982158204
 30
0.0
 10
168.2305582261715
 20
64.91800194830799
 30
0.0
 10
168.5223578137722
 20
64.94935231722376
 30
0.0
 10
168.8413736557063
 20
64.94935231722376
 30
0.0
 10
170.2149332256755
 20
64.94935231722376
 30
0.0
 10
170.6100856778336
 20
64.13665429225333
 30
0.0
 10
170.6100856778336
 20
63.29742903204647
 30
0.0
 10
170.6100856778336
 20
62.75413747402256
 30
0.0
 10
170.4664251960987
 20
62.29146115035351
 30
0.0
 10
170.1432752395822
 20
61.9548753214446
 30
0.0
 10
169.8425184037199
 20
61.64516123732064
 30
0.0
 10
169.3440130870043
 20
61.47462901080078
 30
0.0
 10
168.7201062946255
 20
61.47462901080078
 30
0.0
 10
168.4372639552865
 20
61.47462901080078
 30
0.0
 10
168.1947292331249
 20
61.48358625906243
 30
0.0
 10
167.9794107652968
 20
61.51045800384738
 30
0.0
 10
167.9794107652968
 20
61.51045800384738
 30
0.0
 10
167.9794107652968
 20
64.87734982158204
 30
0.0
 10
167.9794107652968
 20
64.87734982158204
 30
0.0
  0
SPLINE
  5
46
330
41
100
AcDbEntity
  8
_U+30EC_U+30A4_U+30E4_U+30FC 1
370
     0
100
AcDbSpline
210
0.0
220
0.0
230
1.0
 70
    11
 71
     3
 72
    20
 73
    16
 74
     0
 42
0.0000000001
 43
0.0000000001
 12
1.0
 22
0.0
 32
0.0
 13
1.0
 23
0.0
 33
0.0
 40
0.0
 40
0.0
 40
0.0
 40
0.0
 40
1.0
 40
1.0
 40
1.0
 40
2.0
 40
2.0
 40
2.0
 40
3.0
 40
3.0
 40
3.0
 40
4.0
 40
4.0
 40
4.0
 40
5.0
 40
5.0
 40
5.0
 40
5.0
 10
168.3518255872523
 20
61.79777896731721
 30
0.0
 10
168.4641357000715
 20
61.77986447079391
 30
0.0
 10
168.6257106783297
 20
61.77538584666308
 30
0.0
 10
168.7872856565879
 20
61.77538584666308
 30
0.0
 10
169.7122937943775
 20
61.77538584666308
 30
0.0
 10
170.2194118498063
 20
62.30076290816369
 30
0.0
 10
170.2194118498063
 20
63.27917002597464
 30
0.0
 10
170.2194118498063
 20
64.16834917071762
 30
0.0
 10
169.7436441632933
 20
64.64859548136145
 30
0.0
 10
168.8548095280988
 20
64.64859548136145
 30
0.0
 10
168.6391465507222
 20
64.64859548136145
 30
0.0
 10
168.4686143242023
 20
64.62620236070732
 30
0.0
 10
168.3518255872523
 20
64.60380924005321
 30
0.0
 10
168.3518255872523
 20
64.60380924005321
 30
0.0
 10
168.3518255872523
 20
61.79777896731721
 30
0.0
 10
168.3518255872523
 20
61.79777896731721
 30
0.0
  0
HATCH
  5
47
330
41
100
AcDbEntity
  8
_U+30EC_U+30A4_U+30E4_U+30FC 1
 62
     7
100
AcDbHatch
 10
0.0
 20
0.0
 30
0.0
210
0.0
220
0.0
230
1.0
  2
SOLID
 70
     1
 71
     0
 91
        2
 92
        1
 93
        1
 72
     4
 94
        3
 73
     0
 74
     1
 95
       23
 96
       19
 40
0.0
 40
0.0
 40
0.0
 40
0.0
 40
1.0
 40
1.0
 40
1.0
 40
2.0
 40
2.0
 40
2.0
 40
3.0
 40
3.0
 40
3.0
 40
4.0
 40
4.0
 40
4.0
 40
5.0
 40
5.0
 40
5.0
 40
6.0
 40
6.0
 40
6.0
 40
6.0
 10
167.9794107652968
 20
64.87734982158204
 10
168.2305582261715
 20
64.91800194830799
 10
168.5223578137722
 20
64.94935231722376
 10
168.8413736557063
 20
64.94935231722376
 10
170.2149332256755
 20
64.94935231722376
 10
170.6100856778336
 20
64.13665429225333
 10
170.6100856778336
 20
63.29742903204647
 10
170.6100856778336
 20
62.75413747402256
 10
170.4664251960987
 20
62.29146115035351
 10
170.1432752395822
 20
61.9548753214446
 10
169.8425184037199
 20
61.64516123732064
 10
169.3440130870043
 20
61.47462901080078
 10
168.7201062946255
 20
61.47462901080078
 10
168.4372639552865
 20
61.47462901080078
 10
168.1947292331249
 20
61.48358625906243
 10
167.9794107652968
 20
61.51045800384738
 10
167.9794107652968
 20
61.51045800384738
 10
167.9794107652968
 20
64.87734982158204
 10
167.9794107652968
 20
64.87734982158204
 97
        0
 92
        1
 93
        1
 72
     4
 94
        3
 73
     0
 74
     1
 95
       20
 96
       16
 40
0.0
 40
0.0
 40
0.0
 40
0.0
 40
1.0
 40
1.0
 40
1.0
 40
2.0
 40
2.0
 40
2.0
 40
3.0
 40
3.0
 40
3.0
 40
4.0
 40
4.0
 40
4.0
 40
5.0
 40
5.0
 40
5.0
 40
5.0
 10
168.3518255872523
 20
61.79777896731721
 10
168.4641357000715
 20
61.77986447079391
 10
168.6257106783297
 20
61.77538584666308
 10
168.7872856565879
 20
61.77538584666308
 10
169.7122937943775
 20
61.77538584666308
 10
170.2194118498063
 20
62.30076290816369
 10
170.2194118498063
 20
63.27917002597464
 10
170.2194118498063
 20
64.16834917071762
 10
169.7436441632933
 20
64.64859548136145
 10
168.8548095280988
 20
64.64859548136145
 10
168.6391465507222
 20
64.64859548136145
 10
168.4686143242023
 20
64.62620236070732
 10
168.3518255872523
 20
64.60380924005321
 10
168.3518255872523
 20
64.60380924005321
 10
168.3518255872523
 20
61.79777896731721
 10
168.3518255872523
 20
61.79777896731721
 97
        0
 75
     2
 76
     1
 98
        0
  0
SPLINE
  5
48
330
41
100
AcDbEntity
  8
_U+30EC_U+30A4_U+30E4_U+30FC 1
370
     0
100
AcDbSpline
210
0.0
220
0.0
230
1.0
 70
    11
 71
     3
 72
    35
 73
    31
 74
     0
 42
0.0000000001
 43
0.0000000001
 12
1.0
 22
0.0
 32
0.0
 13
1.0
 23
0.0
 33
0.0
 40
0.0
 40
0.0
 40
0.0
 40
0.0
 40
1.0
 40
1.0
 40
1.0
 40
2.0
 40
2.0
 40
2.0
 40
3.0
 40
3.0
 40
3.0
 40
4.0
 40
4.0
 40
4.0
 40
5.0
 40
5.0
 40
5.0
 40
6.0
 40
6.0
 40
6.0
 40
7.0
 40
7.0
 40
7.0
 40
8.0
 40
8.0
 40
8.0
 40
9.0
 40
9.0
 40
9.0
 40
10.0
 40
10.0
 40
10.0
 40
10.0
 10
173.4188720269578
 20
61.60485362014322
 30
0.0
 10
173.2617756728304
 20
61.52837250037067
 30
0.0
 10
172.9565402128373
 20
61.45223589014665
 30
0.0
 10
172.5658663848099
 20
61.45223589014665
 30
0.0
 10
171.6859889978771
 20
61.45223589014665
 30
0.0
 10
170.9766438374642
 20
62.0223991929555
 30
0.0
 10
170.9766438374642
 20
63.1806402950965
 30
0.0
 10
170.9766438374642
 20
64.28479339811906
 30
0.0
 10
171.663595877223
 20
64.97174543787789
 30
0.0
 10
172.6647406252366
 20
64.97174543787789
 30
0.0
 10
173.0733289497872
 20
64.97174543787789
 30
0.0
 10
173.311385047818
 20
64.88665157939222
 30
0.0
 10
173.4188720269578
 20
64.8325635802738
 30
0.0
 10
173.4188720269578
 20
64.8325635802738
 30
0.0
 10
173.3203422960796
 20
64.518370872019
 30
0.0
 10
173.3203422960796
 20
64.518370872019
 30
0.0
 10
173.1632459419523
 20
64.59485199179156
 30
0.0
 10
172.9431043404448
 20
64.6575527296231
 30
0.0
 10
172.6736978734982
 20
64.6575527296231
 30
0.0
 10
171.8971733511229
 20
64.6575527296231
 30
0.0
 10
171.3673176654915
 20
64.13665429225333
 30
0.0
 10
171.3673176654915
 20
63.19407616748897
 30
0.0
 10
171.3673176654915
 20
62.29628428403286
 30
0.0
 10
171.8520426002662
 20
61.76642859840144
 30
0.0
 10
172.6513047528441
 20
61.76642859840144
 30
0.0
 10
172.911753971529
 20
61.76642859840144
 30
0.0
 10
173.1677245660831
 20
61.82465071210216
 30
0.0
 10
173.3382567926029
 20
61.90561045600553
 30
0.0
 10
173.3382567926029
 20
61.90561045600553
 30
0.0
 10
173.4188720269578
 20
61.60485362014322
 30
0.0
 10
173.4188720269578
 20
61.60485362014322
 30
0.0
  0
HATCH
  5
49
330
41
100
AcDbEntity
  8
_U+30EC_U+30A4_U+30E4_U+30FC 1
 62
     7
100
AcDbHatch
 10
0.0
 20
0.0
 30
0.0
210
0.0
220
0.0
230
1.0
  2
SOLID
 70
     1
 71
     0
 91
        1
 92
        1
 93
        1
 72
     4
 94
        3
 73
     0
 74
     1
 95
       35
 96
       31
 40
0.0
 40
0.0
 40
0.0
 40
0.0
 40
1.0
 40
1.0
 40
1.0
 40
2.0
 40
2.0
 40
2.0
 40
3.0
 40
3.0
 40
3.0
 40
4.0
 40
4.0
 40
4.0
 40
5.0
 40
5.0
 40
5.0
 40
6.0
 40
6.0
 40
6.0
 40
7.0
 40
7.0
 40
7.0
 40
8.0
 40
8.0
 40
8.0
 40
9.0
 40
9.0
 40
9.0
 40
10.0
 40
10.0
 40
10.0
 40
10.0
 10
173.4188720269578
 20
61.60485362014322
 10
173.2617756728304
 20
61.52837250037067
 10
172.9565402128373
 20
61.45223589014665
 10
172.5658663848099
 20
61.45223589014665
 10
171.6859889978771
 20
61.45223589014665
 10
170.9766438374642
 20
62.0223991929555
 10
170.9766438374642
 20
63.1806402950965
 10
170.9766438374642
 20
64.28479339811906
 10
171.663595877223
 20
64.97174543787789
 10
172.6647406252366
 20
64.97174543787789
 10
173.0733289497872
 20
64.97174543787789
 10
173.311385047818
 20
64.88665157939222
 10
173.4188720269578
 20
64.8325635802738
 10
173.4188720269578
 20
64.8325635802738
 10
173.3203422960796
 20
64.518370872019
 10
173.3203422960796
 20
64.518370872019
 10
173.1632459419523
 20
64.59485199179156
 10
172.9431043404448
 20
64.6575527296231
 10
172.6736978734982
 20
64.6575527296231
 10
171.8971733511229
 20
64.6575527296231
 10
171.3673176654915
 20
64.13665429225333
 10
171.3673176654915
 20
63.19407616748897
 10
171.3673176654915
 20
62.29628428403286
 10
171.8520426002662
 20
61.76642859840144
 10
172.6513047528441
 20
61.76642859840144
 10
172.911753971529
 20
61.76642859840144
 10
173.1677245660831
 20
61.82465071210216
 10
173.3382567926029
 20
61.90561045600553
 10
173.3382567926029
 20
61.90561045600553
 10
173.4188720269578
 20
61.60485362014322
 10
173.4188720269578
 20
61.60485362014322
 97
        0
 75
     2
 76
     1
 98
        0
  0
SPLINE
  5
4A
330
41
100
AcDbEntity
  8
_U+30EC_U+30A4_U+30E4_U+30FC 1
370
     0
100
AcDbSpline
210
0.0
220
0.0
230
1.0
 70
    11
 71
     3
 72
    35
 73
    31
 74
     0
 42
0.0000000001
 43
0.0000000001
 12
1.0
 22
0.0
 32
0.0
 13
1.0
 23
0.0
 33
0.0
 40
0.0
 40
0.0
 40
0.0
 40
0.0
 40
1.0
 40
1.0
 40
1.0
 40
2.0
 40
2.0
 40
2.0
 40
3.0
 40
3.0
 40
3.0
 40
4.0
 40
4.0
 40
4.0
 40
5.0
 40
5.0
 40
5.0
 40
6.0
 40
6.0
 40
6.0
 40
7.0
 40
7.0
 40
7.0
 40
8.0
 40
8.0
 40
8.0
 40
9.0
 40
9.0
 40
9.0
 40
10.0
 40
10.0
 40
10.0
 40
10.0
 10
175.276123003056
 20
63.33325802509307
 30
0.0
 10
175.5992729595724
 20
63.25677690532051
 30
0.0
 10
175.9809895393381
 20
62.98737043837398
 30
0.0
 10
175.9809895393381
 20
62.47129513468356
 30
0.0
 10
175.9809895393381
 20
62.16605967469042
 30
0.0
 10
175.8642008023881
 20
61.95039669731378
 30
0.0
 10
175.7071044482607
 20
61.79777896731721
 30
0.0
 10
175.4780055984916
 20
61.57350325122745
 30
0.0
 10
175.1100694006669
 20
61.47462901080078
 30
0.0
 10
174.593649587428
 20
61.47462901080078
 30
0.0
 10
174.310807248089
 20
61.47462901080078
 30
0.0
 10
174.0999674043917
 20
61.4970221314549
 30
0.0
 10
173.9607855467876
 20
61.51045800384738
 30
0.0
 10
173.9607855467876
 20
61.51045800384738
 30
0.0
 10
173.9607855467876
 20
64.87287119745122
 30
0.0
 10
173.9607855467876
 20
64.87287119745122
 30
0.0
 10
174.1492322698307
 20
64.91352332417716
 30
0.0
 10
174.4186387367773
 20
64.94487369309294
 30
0.0
 10
174.6970024519855
 20
64.94487369309294
 30
0.0
 10
175.1190266489286
 20
64.94487369309294
 30
0.0
 10
175.3973903641368
 20
64.86391394918957
 30
0.0
 10
175.5992729595724
 20
64.6933817226697
 30
0.0
 10
175.7608479378306
 20
64.55419986506561
 30
0.0
 10
175.8552435541265
 20
64.35679589376079
 30
0.0
 10
175.8552435541265
 20
64.10082529920673
 30
0.0
 10
175.8552435541265
 20
63.76423947029782
 30
0.0
 10
175.6261447043574
 20
63.47243988269716
 30
0.0
 10
175.276123003056
 20
63.34669389748554
 30
0.0
 10
175.276123003056
 20
63.34669389748554
 30
0.0
 10
175.276123003056
 20
63.33325802509307
 30
0.0
 10
175.276123003056
 20
63.33325802509307
 30
0.0
  0
SPLINE
  5
4B
330
41
100
AcDbEntity
  8
_U+30EC_U+30A4_U+30E4_U+30FC 1
370
     0
100
AcDbSpline
210
0.0
220
0.0
230
1.0
 70
    11
 71
     3
 72
    23
 73
    19
 74
     0
 42
0.0000000001
 43
0.0000000001
 12
1.0
 22
0.0
 32
0.0
 13
1.0
 23
0.0
 33
0.0
 40
0.0
 40
0.0
 40
0.0
 40
0.0
 40
1.0
 40
1.0
 40
1.0
 40
2.0
 40
2.0
 40
2.0
 40
3.0
 40
3.0
 40
3.0
 40
4.0
 40
4.0
 40
4.0
 40
5.0
 40
5.0
 40
5.0
 40
6.0
 40
6.0
 40
6.0
 40
6.0
 10
174.7328314450321
 20
63.45900401030468
 30
0.0
 10
175.186206010891
 20
63.45900401030468
 30
0.0
 10
175.4780055984916
 20
63.71910871944105
 30
0.0
 10
175.4780055984916
 20
64.06947493029095
 30
0.0
 10
175.4780055984916
 20
64.06947493029095
 30
0.0
 10
175.4780055984916
 20
64.07395355442178
 30
0.0
 10
175.4780055984916
 20
64.07395355442178
 30
0.0
 10
175.4780055984916
 20
64.47806325484159
 30
0.0
 10
175.1817273867601
 20
64.65307410549228
 30
0.0
 10
174.7149169485088
 20
64.65307410549228
 30
0.0
 10
174.5175129772039
 20
64.65307410549228
 30
0.0
 10
174.400724240254
 20
64.6396382330998
 30
0.0
 10
174.3332003687431
 20
64.6217237365765
 30
0.0
 10
174.3332003687431
 20
64.6217237365765
 30
0.0
 10
174.3332003687431
 20
63.45900401030468
 30
0.0
 10
174.3332003687431
 20
63.45900401030468
 30
0.0
 10
174.3332003687431
 20
63.45900401030468
 30
0.0
 10
174.7328314450321
 20
63.45900401030468
 30
0.0
 10
174.7328314450321
 20
63.45900401030468
 30
0.0
  0
SPLINE
  5
4C
330
41
100
AcDbEntity
  8
_U+30EC_U+30A4_U+30E4_U+30FC 1
370
     0
100
AcDbSpline
210
0.0
220
0.0
230
1.0
 70
    11
 71
     3
 72
    20
 73
    16
 74
     0
 42
0.0000000001
 43
0.0000000001
 12
1.0
 22
0.0
 32
0.0
 13
1.0
 23
0.0
 33
0.0
 40
0.0
 40
0.0
 40
0.0
 40
0.0
 40
1.0
 40
1.0
 40
1.0
 40
2.0
 40
2.0
 40
2.0
 40
3.0
 40
3.0
 40
3.0
 40
4.0
 40
4.0
 40
4.0
 40
5.0
 40
5.0
 40
5.0
 40
5.0
 10
174.3332003687431
 20
61.79330034318639
 30
0.0
 10
174.4186387367773
 20
61.77538584666308
 30
0.0
 10
174.5399060978581
 20
61.77090722253227
 30
0.0
 10
174.6970024519855
 20
61.77090722253227
 30
0.0
 10
175.1682915143677
 20
61.77090722253227
 30
0.0
 10
175.5903157113108
 20
61.9548753214446
 30
0.0
 10
175.5903157113108
 20
62.47129513468356
 30
0.0
 10
175.5903157113108
 20
62.98289181424315
 30
0.0
 10
175.1458983937135
 20
63.17168304683484
 30
0.0
 10
174.6925238278546
 20
63.17168304683484
 30
0.0
 10
174.6925238278546
 20
63.17168304683484
 30
0.0
 10
174.3332003687431
 20
63.17168304683484
 30
0.0
 10
174.3332003687431
 20
63.17168304683484
 30
0.0
 10
174.3332003687431
 20
63.17168304683484
 30
0.0
 10
174.3332003687431
 20
61.79330034318639
 30
0.0
 10
174.3332003687431
 20
61.79330034318639
 30
0.0
  0
HATCH
  5
4D
330
41
100
AcDbEntity
  8
_U+30EC_U+30A4_U+30E4_U+30FC 1
 62
     7
100
AcDbHatch
 10
0.0
 20
0.0
 30
0.0
210
0.0
220
0.0
230
1.0
  2
SOLID
 70
     1
 71
     0
 91
        3
 92
        1
 93
        1
 72
     4
 94
        3
 73
     0
 74
     1
 95
       35
 96
       31
 40
0.0
 40
0.0
 40
0.0
 40
0.0
 40
1.0
 40
1.0
 40
1.0
 40
2.0
 40
2.0
 40
2.0
 40
3.0
 40
3.0
 40
3.0
 40
4.0
 40
4.0
 40
4.0
 40
5.0
 40
5.0
 40
5.0
 40
6.0
 40
6.0
 40
6.0
 40
7.0
 40
7.0
 40
7.0
 40
8.0
 40
8.0
 40
8.0
 40
9.0
 40
9.0
 40
9.0
 40
10.0
 40
10.0
 40
10.0
 40
10.0
 10
175.276123003056
 20
63.33325802509307
 10
175.5992729595724
 20
63.25677690532051
 10
175.9809895393381
 20
62.98737043837398
 10
175.9809895393381
 20
62.47129513468356
 10
175.9809895393381
 20
62.16605967469042
 10
175.8642008023881
 20
61.95039669731378
 10
175.7071044482607
 20
61.79777896731721
 10
175.4780055984916
 20
61.57350325122745
 10
175.1100694006669
 20
61.47462901080078
 10
174.593649587428
 20
61.47462901080078
 10
174.310807248089
 20
61.47462901080078
 10
174.0999674043917
 20
61.4970221314549
 10
173.9607855467876
 20
61.51045800384738
 10
173.9607855467876
 20
61.51045800384738
 10
173.9607855467876
 20
64.87287119745122
 10
173.9607855467876
 20
64.87287119745122
 10
174.1492322698307
 20
64.91352332417716
 10
174.4186387367773
 20
64.94487369309294
 10
174.6970024519855
 20
64.94487369309294
 10
175.1190266489286
 20
64.94487369309294
 10
175.3973903641368
 20
64.86391394918957
 10
175.5992729595724
 20
64.6933817226697
 10
175.7608479378306
 20
64.55419986506561
 10
175.8552435541265
 20
64.35679589376079
 10
175.8552435541265
 20
64.10082529920673
 10
175.8552435541265
 20
63.76423947029782
 10
175.6261447043574
 20
63.47243988269716
 10
175.276123003056
 20
63.34669389748554
 10
175.276123003056
 20
63.34669389748554
 10
175.276123003056
 20
63.33325802509307
 10
175.276123003056
 20
63.33325802509307
 97
        0
 92
        1
 93
        1
 72
     4
 94
        3
 73
     0
 74
     1
 95
       23
 96
       19
 40
0.0
 40
0.0
 40
0.0
 40
0.0
 40
1.0
 40
1.0
 40
1.0
 40
2.0
 40
2.0
 40
2.0
 40
3.0
 40
3.0
 40
3.0
 40
4.0
 40
4.0
 40
4.0
 40
5.0
 40
5.0
 40
5.0
 40
6.0
 40
6.0
 40
6.0
 40
6.0
 10
174.7328314450321
 20
63.45900401030468
 10
175.186206010891
 20
63.45900401030468
 10
175.4780055984916
 20
63.71910871944105
 10
175.4780055984916
 20
64.06947493029095
 10
175.4780055984916
 20
64.06947493029095
 10
175.4780055984916
 20
64.07395355442178
 10
175.4780055984916
 20
64.07395355442178
 10
175.4780055984916
 20
64.47806325484159
 10
175.1817273867601
 20
64.65307410549228
 10
174.7149169485088
 20
64.65307410549228
 10
174.5175129772039
 20
64.65307410549228
 10
174.400724240254
 20
64.6396382330998
 10
174.3332003687431
 20
64.6217237365765
 10
174.3332003687431
 20
64.6217237365765
 10
174.3332003687431
 20
63.45900401030468
 10
174.3332003687431
 20
63.45900401030468
 10
174.3332003687431
 20
63.45900401030468
 10
174.7328314450321
 20
63.45900401030468
 10
174.7328314450321
 20
63.45900401030468
 97
        0
 92
        1
 93
        1
 72
     4
 94
        3
 73
     0
 74
     1
 95
       20
 96
       16
 40
0.0
 40
0.0
 40
0.0
 40
0.0
 40
1.0
 40
1.0
 40
1.0
 40
2.0
 40
2.0
 40
2.0
 40
3.0
 40
3.0
 40
3.0
 40
4.0
 40
4.0
 40
4.0
 40
5.0
 40
5.0
 40
5.0
 40
5.0
 10
174.3332003687431
 20
61.79330034318639
 10
174.4186387367773
 20
61.77538584666308
 10
174.5399060978581
 20
61.77090722253227
 10
174.6970024519855
 20
61.77090722253227
 10
175.1682915143677
 20
61.77090722253227
 10
175.5903157113108
 20
61.9548753214446
 10
175.5903157113108
 20
62.47129513468356
 10
175.5903157113108
 20
62.98289181424315
 10
175.1458983937135
 20
63.17168304683484
 10
174.6925238278546
 20
63.17168304683484
 10
174.6925238278546
 20
63.17168304683484
 10
174.3332003687431
 20
63.17168304683484
 10
174.3332003687431
 20
63.17168304683484
 10
174.3332003687431
 20
63.17168304683484
 10
174.3332003687431
 20
61.79330034318639
 10
174.3332003687431
 20
61.79330034318639
 97
        0
 75
     2
 76
     1
 98
        0
  0
POLYLINE
  5
4E
330
41
100
AcDbEntity
  8
_U+30EC_U+30A4_U+30E4_U+30FC 1
370
     0
100
AcDb2dPolyline
 66
     1
 10
0.0
 20
0.0
 30
0.0
  0
VERTEX
  5
4F
330
4E
100
AcDbEntity
  8
_U+30EC_U+30A4_U+30E4_U+30FC 1
370
     0
100
AcDbVertex
100
AcDb2dVertex
 10
176.3344563361247
 20
63.01458669270745
 30
0.0
  0
VERTEX
  5
50
330
4E
100
AcDbEntity
  8
_U+30EC_U+30A4_U+30E4_U+30FC 1
370
     0
100
AcDbVertex
100
AcDb2dVertex
 10
177.5602213097766
 20
63.01458669270745
 30
0.0
  0
VERTEX
  5
51
330
4E
100
AcDbEntity
  8
_U+30EC_U+30A4_U+30E4_U+30FC 1
370
     0
100
AcDbVertex
100
AcDb2dVertex
 10
177.5602213097766
 20
62.72726572923762
 30
0.0
  0
VERTEX
  5
52
330
4E
100
AcDbEntity
  8
_U+30EC_U+30A4_U+30E4_U+30FC 1
370
     0
100
AcDbVertex
100
AcDb2dVertex
 10
176.3344563361247
 20
62.72726572923762
 30
0.0
  0
VERTEX
  5
53
330
4E
100
AcDbEntity
  8
_U+30EC_U+30A4_U+30E4_U+30FC 1
370
     0
100
AcDbVertex
100
AcDb2dVertex
 10
176.3344563361247
 20
63.01458669270745
 30
0.0
  0
SEQEND
  5
54
330
4E
100
AcDbEntity
  8
_U+30EC_U+30A4_U+30E4_U+30FC 1
370
     0
  0
HATCH
  5
55
330
41
100
AcDbEntity
  8
_U+30EC_U+30A4_U+30E4_U+30FC 1
 62
     7
100
AcDbHatch
 10
0.0
 20
0.0
 30
0.0
210
0.0
220
0.0
230
1.0
  2
SOLID
 70
     1
 71
     0
 91
        1
 92
        1
 93
        4
 72
     1
 10
176.3344563361247
 20
63.01458669270745
 11
177.5602213097766
 21
63.01458669270745
 72
     1
 10
177.5602213097766
 20
63.01458669270745
 11
177.5602213097766
 21
62.72726572923762
 72
     1
 10
177.5602213097766
 20
62.72726572923762
 11
176.3344563361247
 21
62.72726572923762
 72
     1
 10
176.3344563361247
 20
62.72726572923762
 11
176.3344563361247
 21
63.01458669270745
 97
        0
 75
     2
 76
     1
 98
        0
  0
SPLINE
  5
56
330
41
100
AcDbEntity
  8
_U+30EC_U+30A4_U+30E4_U+30FC 1
370
     0
100
AcDbSpline
210
0.0
220
0.0
230
1.0
 70
    11
 71
     3
 72
    17
 73
    13
 74
     0
 42
0.0000000001
 43
0.0000000001
 12
1.0
 22
0.0
 32
0.0
 13
1.0
 23
0.0
 33
0.0
 40
0.0
 40
0.0
 40
0.0
 40
0.0
 40
1.0
 40
1.0
 40
1.0
 40
2.0
 40
2.0
 40
2.0
 40
3.0
 40
3.0
 40
3.0
 40
4.0
 40
4.0
 40
4.0
 40
4.0
 10
177.8912949859091
 20
63.17168304683484
 30
0.0
 10
177.8912949859091
 20
64.34783864549914
 30
0.0
 10
178.3491481758988
 20
64.91800194830799
 30
0.0
 10
178.9778781019569
 20
64.91800194830799
 30
0.0
 10
179.6152207667282
 20
64.91800194830799
 30
0.0
 10
180.0058945947555
 20
64.31648827658337
 30
0.0
 10
180.0058945947555
 20
63.2164692881431
 30
0.0
 10
180.0058945947555
 20
62.04927093774045
 30
0.0
 10
179.5973062702049
 20
61.44775726601583
 30
0.0
 10
178.9282687269693
 20
61.44775726601583
 30
0.0
 10
178.3177978069831
 20
61.44775726601583
 30
0.0
 10
177.8912949859091
 20
62.04927093774045
 30
0.0
 10
177.8912949859091
 20
63.17168304683484
 30
0.0
  0
SPLINE
  5
57
330
41
100
AcDbEntity
  8
_U+30EC_U+30A4_U+30E4_U+30FC 1
370
     0
100
AcDbSpline
210
0.0
220
0.0
230
1.0
 70
    11
 71
     3
 72
    17
 73
    13
 74
     0
 42
0.0000000001
 43
0.0000000001
 12
1.0
 22
0.0
 32
0.0
 13
1.0
 23
0.0
 33
0.0
 40
0.0
 40
0.0
 40
0.0
 40
0.0
 40
1.0
 40
1.0
 40
1.0
 40
2.0
 40
2.0
 40
2.0
 40
3.0
 40
3.0
 40
3.0
 40
4.0
 40
4.0
 40
4.0
 40
4.0
 10
179.6286566391206
 20
63.1985547916198
 30
0.0
 10
179.6286566391206
 20
64.03812456137518
 30
0.0
 10
179.426774043685
 20
64.61724511244567
 30
0.0
 10
178.9554849813028
 20
64.61724511244567
 30
0.0
 10
178.5558539050138
 20
64.61724511244567
 30
0.0
 10
178.2730115656748
 20
64.08291080268343
 30
0.0
 10
178.2730115656748
 20
63.1985547916198
 30
0.0
 10
178.2730115656748
 20
62.31419878055616
 30
0.0
 10
178.5200249119672
 20
61.75299272600896
 30
0.0
 10
178.9420491089103
 20
61.75299272600896
 30
0.0
 10
179.4402099160775
 20
61.75299272600896
 30
0.0
 10
179.6286566391206
 20
62.39929263904183
 30
0.0
 10
179.6286566391206
 20
63.1985547916198
 30
0.0
  0
HATCH
  5
58
330
41
100
AcDbEntity
  8
_U+30EC_U+30A4_U+30E4_U+30FC 1
 62
     7
100
AcDbHatch
 10
0.0
 20
0.0
 30
0.0
210
0.0
220
0.0
230
1.0
  2
SOLID
 70
     1
 71
     0
 91
        2
 92
        1
 93
        1
 72
     4
 94
        3
 73
     0
 74
     1
 95
       17
 96
       13
 40
0.0
 40
0.0
 40
0.0
 40
0.0
 40
1.0
 40
1.0
 40
1.0
 40
2.0
 40
2.0
 40
2.0
 40
3.0
 40
3.0
 40
3.0
 40
4.0
 40
4.0
 40
4.0
 40
4.0
 10
177.8912949859091
 20
63.17168304683484
 10
177.8912949859091
 20
64.34783864549914
 10
178.3491481758988
 20
64.91800194830799
 10
178.9778781019569
 20
64.91800194830799
 10
179.6152207667282
 20
64.91800194830799
 10
180.0058945947555
 20
64.31648827658337
 10
180.0058945947555
 20
63.2164692881431
 10
180.0058945947555
 20
62.04927093774045
 10
179.5973062702049
 20
61.44775726601583
 10
178.9282687269693
 20
61.44775726601583
 10
178.3177978069831
 20
61.44775726601583
 10
177.8912949859091
 20
62.04927093774045
 10
177.8912949859091
 20
63.17168304683484
 97
        0
 92
        1
 93
        1
 72
     4
 94
        3
 73
     0
 74
     1
 95
       17
 96
       13
 40
0.0
 40
0.0
 40
0.0
 40
0.0
 40
1.0
 40
1.0
 40
1.0
 40
2.0
 40
2.0
 40
2.0
 40
3.0
 40
3.0
 40
3.0
 40
4.0
 40
4.0
 40
4.0
 40
4.0
 10
179.6286566391206
 20
63.1985547916198
 10
179.6286566391206
 20
64.03812456137518
 10
179.426774043685
 20
64.61724511244567
 10
178.9554849813028
 20
64.61724511244567
 10
178.5558539050138
 20
64.61724511244567
 10
178.2730115656748
 20
64.08291080268343
 10
178.2730115656748
 20
63.1985547916198
 10
178.2730115656748
 20
62.31419878055616
 10
178.5200249119672
 20
61.75299272600896
 10
178.9420491089103
 20
61.75299272600896
 10
179.4402099160775
 20
61.75299272600896
 10
179.6286566391206
 20
62.39929263904183
 10
179.6286566391206
 20
63.1985547916198
 97
        0
 75
     2
 76
     1
 98
        0
  0
SPLINE
  5
59
330
41
100
AcDbEntity
  8
_U+30EC_U+30A4_U+30E4_U+30FC 1
370
     0
100
AcDbSpline
210
0.0
220
0.0
230
1.0
 70
    11
 71
     3
 72
    32
 73
    28
 74
     0
 42
0.0000000001
 43
0.0000000001
 12
1.0
 22
0.0
 32
0.0
 13
1.0
 23
0.0
 33
0.0
 40
0.0
 40
0.0
 40
0.0
 40
0.0
 40
1.0
 40
1.0
 40
1.0
 40
2.0
 40
2.0
 40
2.0
 40
3.0
 40
3.0
 40
3.0
 40
4.0
 40
4.0
 40
4.0
 40
5.0
 40
5.0
 40
5.0
 40
6.0
 40
6.0
 40
6.0
 40
7.0
 40
7.0
 40
7.0
 40
8.0
 40
8.0
 40
8.0
 40
9.0
 40
9.0
 40
9.0
 40
9.0
 10
180.7500352195694
 20
63.28364865010547
 30
0.0
 10
180.902652949566
 20
63.50826887574375
 30
0.0
 10
181.1765380406434
 20
63.69671559878692
 30
0.0
 10
181.5355169902064
 20
63.69671559878692
 30
0.0
 10
182.1056802930153
 20
63.69671559878692
 30
0.0
 10
182.4873968727809
 20
63.27021277771299
 30
0.0
 10
182.4873968727809
 20
62.62391286468012
 30
0.0
 10
182.4873968727809
 20
62.00896332056303
 30
0.0
 10
182.1101589171461
 20
61.44775726601583
 30
0.0
 10
181.4549017558516
 20
61.44775726601583
 30
0.0
 10
180.7993000850085
 20
61.44775726601583
 30
0.0
 10
180.3593613915421
 20
61.9907043144912
 30
0.0
 10
180.3593613915421
 20
62.86162445316236
 30
0.0
 10
180.3593613915421
 20
63.76423947029782
 30
0.0
 10
180.7813855884852
 20
64.70681759506218
 30
0.0
 10
181.8724473286638
 20
64.88665157939222
 30
0.0
 10
181.9981933138754
 20
64.90456607591551
 30
0.0
 10
182.1101589171461
 20
64.91800194830799
 30
0.0
 10
182.1866400369186
 20
64.91800194830799
 30
0.0
 10
182.1866400369186
 20
64.91800194830799
 30
0.0
 10
182.1911186610494
 20
64.60828786418404
 30
0.0
 10
182.1911186610494
 20
64.60828786418404
 30
0.0
 10
181.2571532749982
 20
64.60828786418404
 30
0.0
 10
180.812735957401
 20
63.93029307268686
 30
0.0
 10
180.736599347177
 20
63.28364865010547
 30
0.0
 10
180.736599347177
 20
63.28364865010547
 30
0.0
 10
180.7500352195694
 20
63.28364865010547
 30
0.0
 10
180.7500352195694
 20
63.28364865010547
 30
0.0
  0
SPLINE
  5
5A
330
41
100
AcDbEntity
  8
_U+30EC_U+30A4_U+30E4_U+30FC 1
370
     0
100
AcDbSpline
210
0.0
220
0.0
230
1.0
 70
    11
 71
     3
 72
    17
 73
    13
 74
     0
 42
0.0000000001
 43
0.0000000001
 12
1.0
 22
0.0
 32
0.0
 13
1.0
 23
0.0
 33
0.0
 40
0.0
 40
0.0
 40
0.0
 40
0.0
 40
1.0
 40
1.0
 40
1.0
 40
2.0
 40
2.0
 40
2.0
 40
3.0
 40
3.0
 40
3.0
 40
4.0
 40
4.0
 40
4.0
 40
4.0
 10
182.1101589171461
 20
62.59704111989517
 30
0.0
 10
182.1101589171461
 20
63.1131164235856
 30
0.0
 10
181.8317952019379
 20
63.41387325944791
 30
0.0
 10
181.4280300110666
 20
63.41387325944791
 30
0.0
 10
181.0328775589085
 20
63.41387325944791
 30
0.0
 10
180.7321207230461
 20
63.02802256509993
 30
0.0
 10
180.7321207230461
 20
62.77653059467669
 30
0.0
 10
180.736599347177
 20
62.1615810505596
 30
0.0
 10
180.9970485658619
 20
61.73955685361649
 30
0.0
 10
181.4638590041132
 20
61.73955685361649
 30
0.0
 10
181.8545328321405
 20
61.73955685361649
 30
0.0
 10
182.1101589171461
 20
62.08957855491787
 30
0.0
 10
182.1101589171461
 20
62.59704111989517
 30
0.0
  0
HATCH
  5
5B
330
41
100
AcDbEntity
  8
_U+30EC_U+30A4_U+30E4_U+30FC 1
 62
     7
100
AcDbHatch
 10
0.0
 20
0.0
 30
0.0
210
0.0
220
0.0
230
1.0
  2
SOLID
 70
     1
 71
     0
 91
        2
 92
        1
 93
        1
 72
     4
 94
        3
 73
     0
 74
     1
 95
       32
 96
       28
 40
0.0
 40
0.0
 40
0.0
 40
0.0
 40
1.0
 40
1.0
 40
1.0
 40
2.0
 40
2.0
 40
2.0
 40
3.0
 40
3.0
 40
3.0
 40
4.0
 40
4.0
 40
4.0
 40
5.0
 40
5.0
 40
5.0
 40
6.0
 40
6.0
 40
6.0
 40
7.0
 40
7.0
 40
7.0
 40
8.0
 40
8.0
 40
8.0
 40
9.0
 40
9.0
 40
9.0
 40
9.0
 10
180.7500352195694
 20
63.28364865010547
 10
180.902652949566
 20
63.50826887574375
 10
181.1765380406434
 20
63.69671559878692
 10
181.5355169902064
 20
63.69671559878692
 10
182.1056802930153
 20
63.69671559878692
 10
182.4873968727809
 20
63.27021277771299
 10
182.4873968727809
 20
62.62391286468012
 10
182.4873968727809
 20
62.00896332056303
 10
182.1101589171461
 20
61.44775726601583
 10
181.4549017558516
 20
61.44775726601583
 10
180.7993000850085
 20
61.44775726601583
 10
180.3593613915421
 20
61.9907043144912
 10
180.3593613915421
 20
62.86162445316236
 10
180.3593613915421
 20
63.76423947029782
 10
180.7813855884852
 20
64.70681759506218
 10
181.8724473286638
 20
64.88665157939222
 10
181.9981933138754
 20
64.90456607591551
 10
182.1101589171461
 20
64.91800194830799
 10
182.1866400369186
 20
64.91800194830799
 10
182.1866400369186
 20
64.91800194830799
 10
182.1911186610494
 20
64.60828786418404
 10
182.1911186610494
 20
64.60828786418404
 10
181.2571532749982
 20
64.60828786418404
 10
180.812735957401
 20
63.93029307268686
 10
180.736599347177
 20
63.28364865010547
 10
180.736599347177
 20
63.28364865010547
 10
180.7500352195694
 20
63.28364865010547
 10
180.7500352195694
 20
63.28364865010547
 97
        0
 92
        1
 93
        1
 72
     4
 94
        3
 73
     0
 74
     1
 95
       17
 96
       13
 40
0.0
 40
0.0
 40
0.0
 40
0.0
 40
1.0
 40
1.0
 40
1.0
 40
2.0
 40
2.0
 40
2.0
 40
3.0
 40
3.0
 40
3.0
 40
4.0
 40
4.0
 40
4.0
 40
4.0
 10
182.1101589171461
 20
62.59704111989517
 10
182.1101589171461
 20
63.1131164235856
 10
181.8317952019379
 20
63.41387325944791
 10
181.4280300110666
 20
63.41387325944791
 10
181.0328775589085
 20
63.41387325944791
 10
180.7321207230461
 20
63.02802256509993
 10
180.7321207230461
 20
62.77653059467669
 10
180.736599347177
 20
62.1615810505596
 10
180.9970485658619
 20
61.73955685361649
 10
181.4638590041132
 20
61.73955685361649
 10
181.8545328321405
 20
61.73955685361649
 10
182.1101589171461
 20
62.08957855491787
 10
182.1101589171461
 20
62.59704111989517
 97
        0
 75
     2
 76
     1
 98
        0
  0
POLYLINE
  5
5C
330
41
100
AcDbEntity
  8
_U+30EC_U+30A4_U+30E4_U+30FC 1
370
     0
100
AcDb2dPolyline
 66
     1
 10
0.0
 20
0.0
 30
0.0
  0
VERTEX
  5
5D
330
5C
100
AcDbEntity
  8
_U+30EC_U+30A4_U+30E4_U+30FC 1
370
     0
100
AcDbVertex
100
AcDb2dVertex
 10
170.3585937074104
 20
56.11681651214023
 30
0.0
  0
VERTEX
  5
5E
330
5C
100
AcDbEntity
  8
_U+30EC_U+30A4_U+30E4_U+30FC 1
370
     0
100
AcDbVertex
100
AcDb2dVertex
 10
169.9861788854548
 20
56.11681651214023
 30
0.0
  0
VERTEX
  5
5F
330
5C
100
AcDbEntity
  8
_U+30EC_U+30A4_U+30E4_U+30FC 1
370
     0
100
AcDbVertex
100
AcDb2dVertex
 10
169.9861788854548
 20
57.75082530079423
 30
0.0
  0
VERTEX
  5
60
330
5C
100
AcDbEntity
  8
_U+30EC_U+30A4_U+30E4_U+30FC 1
370
     0
100
AcDbVertex
100
AcDb2dVertex
 10
168.3518255872523
 20
57.75082530079423
 30
0.0
  0
VERTEX
  5
61
330
5C
100
AcDbEntity
  8
_U+30EC_U+30A4_U+30E4_U+30FC 1
370
     0
100
AcDbVertex
100
AcDb2dVertex
 10
168.3518255872523
 20
56.11681651214023
 30
0.0
  0
VERTEX
  5
62
330
5C
100
AcDbEntity
  8
_U+30EC_U+30A4_U+30E4_U+30FC 1
370
     0
100
AcDbVertex
100
AcDb2dVertex
 10
167.9794107652968
 20
56.11681651214023
 30
0.0
  0
VERTEX
  5
63
330
5C
100
AcDbEntity
  8
_U+30EC_U+30A4_U+30E4_U+30FC 1
370
     0
100
AcDbVertex
100
AcDb2dVertex
 10
167.9794107652968
 20
59.53331770486249
 30
0.0
  0
VERTEX
  5
64
330
5C
100
AcDbEntity
  8
_U+30EC_U+30A4_U+30E4_U+30FC 1
370
     0
100
AcDbVertex
100
AcDb2dVertex
 10
168.3518255872523
 20
59.53331770486249
 30
0.0
  0
VERTEX
  5
65
330
5C
100
AcDbEntity
  8
_U+30EC_U+30A4_U+30E4_U+30FC 1
370
     0
100
AcDbVertex
100
AcDb2dVertex
 10
168.3518255872523
 20
58.07431976685919
 30
0.0
  0
VERTEX
  5
66
330
5C
100
AcDbEntity
  8
_U+30EC_U+30A4_U+30E4_U+30FC 1
370
     0
100
AcDbVertex
100
AcDb2dVertex
 10
169.9861788854548
 20
58.07431976685919
 30
0.0
  0
VERTEX
  5
67
330
5C
100
AcDbEntity
  8
_U+30EC_U+30A4_U+30E4_U+30FC 1
370
     0
100
AcDbVertex
100
AcDb2dVertex
 10
169.9861788854548
 20
59.53331770486249
 30
0.0
  0
VERTEX
  5
68
330
5C
100
AcDbEntity
  8
_U+30EC_U+30A4_U+30E4_U+30FC 1
370
     0
100
AcDbVertex
100
AcDb2dVertex
 10
170.3585937074104
 20
59.53331770486249
 30
0.0
  0
VERTEX
  5
69
330
5C
100
AcDbEntity
  8
_U+30EC_U+30A4_U+30E4_U+30FC 1
370
     0
100
AcDbVertex
100
AcDb2dVertex
 10
170.3585937074104
 20
56.11681651214023
 30
0.0
  0
SEQEND
  5
6A
330
5C
100
AcDbEntity
  8
_U+30EC_U+30A4_U+30E4_U+30FC 1
370
     0
  0
HATCH
  5
6B
330
41
100
AcDbEntity
  8
_U+30EC_U+30A4_U+30E4_U+30FC 1
 62
     7
100
AcDbHatch
 10
0.0
 20
0.0
 30
0.0
210
0.0
220
0.0
230
1.0
  2
SOLID
 70
     1
 71
     0
 91
        1
 92
        1
 93
       12
 72
     1
 10
170.3585937074104
 20
56.11681651214023
 11
169.9861788854548
 21
56.11681651214023
 72
     1
 10
169.9861788854548
 20
56.11681651214023
 11
169.9861788854548
 21
57.75082530079423
 72
     1
 10
169.9861788854548
 20
57.75082530079423
 11
168.3518255872523
 21
57.75082530079423
 72
     1
 10
168.3518255872523
 20
57.75082530079423
 11
168.3518255872523
 21
56.11681651214023
 72
     1
 10
168.3518255872523
 20
56.11681651214023
 11
167.9794107652968
 21
56.11681651214023
 72
     1
 10
167.9794107652968
 20
56.11681651214023
 11
167.9794107652968
 21
59.53331770486249
 72
     1
 10
167.9794107652968
 20
59.53331770486249
 11
168.3518255872523
 21
59.53331770486249
 72
     1
 10
168.3518255872523
 20
59.53331770486249
 11
168.3518255872523
 21
58.07431976685919
 72
     1
 10
168.3518255872523
 20
58.07431976685919
 11
169.9861788854548
 21
58.07431976685919
 72
     1
 10
169.9861788854548
 20
58.07431976685919
 11
169.9861788854548
 21
59.53331770486249
 72
     1
 10
169.9861788854548
 20
59.53331770486249
 11
170.3585937074104
 21
59.53331770486249
 72
     1
 10
170.3585937074104
 20
59.53331770486249
 11
170.3585937074104
 21
56.11681651214023
 97
        0
 75
     2
 76
     1
 98
        0
  0
SPLINE
  5
6C
330
41
100
AcDbEntity
  8
_U+30EC_U+30A4_U+30E4_U+30FC 1
370
     0
100
AcDbSpline
210
0.0
220
0.0
230
1.0
 70
    11
 71
     3
 72
    23
 73
    19
 74
     0
 42
0.0000000001
 43
0.0000000001
 12
1.0
 22
0.0
 32
0.0
 13
1.0
 23
0.0
 33
0.0
 40
0.0
 40
0.0
 40
0.0
 40
0.0
 40
1.0
 40
1.0
 40
1.0
 40
2.0
 40
2.0
 40
2.0
 40
3.0
 40
3.0
 40
3.0
 40
4.0
 40
4.0
 40
4.0
 40
5.0
 40
5.0
 40
5.0
 40
6.0
 40
6.0
 40
6.0
 40
6.0
 10
171.1206488287476
 20
59.49266557813655
 30
0.0
 10
171.3717962896223
 20
59.53331770486249
 30
0.0
 10
171.663595877223
 20
59.56466807377826
 30
0.0
 10
171.9826117191571
 20
59.56466807377826
 30
0.0
 10
173.3561712891263
 20
59.56466807377826
 30
0.0
 10
173.7513237412844
 20
58.75197004880783
 30
0.0
 10
173.7513237412844
 20
57.91274478860097
 30
0.0
 10
173.7513237412844
 20
57.36945323057707
 30
0.0
 10
173.6076632595495
 20
56.90677690690801
 30
0.0
 10
173.284513303033
 20
56.57019107799911
 30
0.0
 10
172.9837564671707
 20
56.26047699387514
 30
0.0
 10
172.4852511504551
 20
56.08994476735528
 30
0.0
 10
171.8613443580763
 20
56.08994476735528
 30
0.0
 10
171.5785020187373
 20
56.08994476735528
 30
0.0
 10
171.3359672965757
 20
56.09890201561693
 30
0.0
 10
171.1206488287476
 20
56.12577376040188
 30
0.0
 10
171.1206488287476
 20
56.12577376040188
 30
0.0
 10
171.1206488287476
 20
59.49266557813655
 30
0.0
 10
171.1206488287476
 20
59.49266557813655
 30
0.0
  0
SPLINE
  5
6D
330
41
100
AcDbEntity
  8
_U+30EC_U+30A4_U+30E4_U+30FC 1
370
     0
100
AcDbSpline
210
0.0
220
0.0
230
1.0
 70
    11
 71
     3
 72
    20
 73
    16
 74
     0
 42
0.0000000001
 43
0.0000000001
 12
1.0
 22
0.0
 32
0.0
 13
1.0
 23
0.0
 33
0.0
 40
0.0
 40
0.0
 40
0.0
 40
0.0
 40
1.0
 40
1.0
 40
1.0
 40
2.0
 40
2.0
 40
2.0
 40
3.0
 40
3.0
 40
3.0
 40
4.0
 40
4.0
 40
4.0
 40
5.0
 40
5.0
 40
5.0
 40
5.0
 10
171.4930636507031
 20
56.41309472387172
 30
0.0
 10
171.6053737635223
 20
56.39518022734842
 30
0.0
 10
171.7669487417805
 20
56.39070160321759
 30
0.0
 10
171.9285237200387
 20
56.39070160321759
 30
0.0
 10
172.8535318578283
 20
56.39070160321759
 30
0.0
 10
173.3606499132571
 20
56.91607866471819
 30
0.0
 10
173.3606499132571
 20
57.89448578252915
 30
0.0
 10
173.3606499132571
 20
58.78366492727213
 30
0.0
 10
172.8848822267441
 20
59.26391123791596
 30
0.0
 10
171.9960475915496
 20
59.26391123791596
 30
0.0
 10
171.780384614173
 20
59.26391123791596
 30
0.0
 10
171.6098523876531
 20
59.24151811726183
 30
0.0
 10
171.4930636507031
 20
59.21912499660771
 30
0.0
 10
171.4930636507031
 20
59.21912499660771
 30
0.0
 10
171.4930636507031
 20
56.41309472387172
 30
0.0
 10
171.4930636507031
 20
56.41309472387172
 30
0.0
  0
HATCH
  5
6E
330
41
100
AcDbEntity
  8
_U+30EC_U+30A4_U+30E4_U+30FC 1
 62
     7
100
AcDbHatch
 10
0.0
 20
0.0
 30
0.0
210
0.0
220
0.0
230
1.0
  2
SOLID
 70
     1
 71
     0
 91
        2
 92
        1
 93
        1
 72
     4
 94
        3
 73
     0
 74
     1
 95
       23
 96
       19
 40
0.0
 40
0.0
 40
0.0
 40
0.0
 40
1.0
 40
1.0
 40
1.0
 40
2.0
 40
2.0
 40
2.0
 40
3.0
 40
3.0
 40
3.0
 40
4.0
 40
4.0
 40
4.0
 40
5.0
 40
5.0
 40
5.0
 40
6.0
 40
6.0
 40
6.0
 40
6.0
 10
171.1206488287476
 20
59.49266557813655
 10
171.3717962896223
 20
59.53331770486249
 10
171.663595877223
 20
59.56466807377826
 10
171.9826117191571
 20
59.56466807377826
 10
173.3561712891263
 20
59.56466807377826
 10
173.7513237412844
 20
58.75197004880783
 10
173.7513237412844
 20
57.91274478860097
 10
173.7513237412844
 20
57.36945323057707
 10
173.6076632595495
 20
56.90677690690801
 10
173.284513303033
 20
56.57019107799911
 10
172.9837564671707
 20
56.26047699387514
 10
172.4852511504551
 20
56.08994476735528
 10
171.8613443580763
 20
56.08994476735528
 10
171.5785020187373
 20
56.08994476735528
 10
171.3359672965757
 20
56.09890201561693
 10
171.1206488287476
 20
56.12577376040188
 10
171.1206488287476
 20
56.12577376040188
 10
171.1206488287476
 20
59.49266557813655
 10
171.1206488287476
 20
59.49266557813655
 97
        0
 92
        1
 93
        1
 72
     4
 94
        3
 73
     0
 74
     1
 95
       20
 96
       16
 40
0.0
 40
0.0
 40
0.0
 40
0.0
 40
1.0
 40
1.0
 40
1.0
 40
2.0
 40
2.0
 40
2.0
 40
3.0
 40
3.0
 40
3.0
 40
4.0
 40
4.0
 40
4.0
 40
5.0
 40
5.0
 40
5.0
 40
5.0
 10
171.4930636507031
 20
56.41309472387172
 10
171.6053737635223
 20
56.39518022734842
 10
171.7669487417805
 20
56.39070160321759
 10
171.9285237200387
 20
56.39070160321759
 10
172.8535318578283
 20
56.39070160321759
 10
173.3606499132571
 20
56.91607866471819
 10
173.3606499132571
 20
57.89448578252915
 10
173.3606499132571
 20
58.78366492727213
 10
172.8848822267441
 20
59.26391123791596
 10
171.9960475915496
 20
59.26391123791596
 10
171.780384614173
 20
59.26391123791596
 10
171.6098523876531
 20
59.24151811726183
 10
171.4930636507031
 20
59.21912499660771
 10
171.4930636507031
 20
59.21912499660771
 10
171.4930636507031
 20
56.41309472387172
 10
171.4930636507031
 20
56.41309472387172
 97
        0
 75
     2
 76
     1
 98
        0
  0
SPLINE
  5
6F
330
41
100
AcDbEntity
  8
_U+30EC_U+30A4_U+30E4_U+30FC 1
370
     0
100
AcDbSpline
210
0.0
220
0.0
230
1.0
 70
    11
 71
     3
 72
    35
 73
    31
 74
     0
 42
0.0000000001
 43
0.0000000001
 12
1.0
 22
0.0
 32
0.0
 13
1.0
 23
0.0
 33
0.0
 40
0.0
 40
0.0
 40
0.0
 40
0.0
 40
1.0
 40
1.0
 40
1.0
 40
2.0
 40
2.0
 40
2.0
 40
3.0
 40
3.0
 40
3.0
 40
4.0
 40
4.0
 40
4.0
 40
5.0
 40
5.0
 40
5.0
 40
6.0
 40
6.0
 40
6.0
 40
7.0
 40
7.0
 40
7.0
 40
8.0
 40
8.0
 40
8.0
 40
9.0
 40
9.0
 40
9.0
 40
10.0
 40
10.0
 40
10.0
 40
10.0
 10
176.5601100904086
 20
56.22016937669773
 30
0.0
 10
176.4030137362812
 20
56.14368825692518
 30
0.0
 10
176.0977782762881
 20
56.06755164670115
 30
0.0
 10
175.7071044482607
 20
56.06755164670115
 30
0.0
 10
174.8272270613279
 20
56.06755164670115
 30
0.0
 10
174.117881900915
 20
56.63771494951001
 30
0.0
 10
174.117881900915
 20
57.795956051651
 30
0.0
 10
174.117881900915
 20
58.90010915467357
 30
0.0
 10
174.8048339406738
 20
59.58706119443239
 30
0.0
 10
175.8059786886874
 20
59.58706119443239
 30
0.0
 10
176.214567013238
 20
59.58706119443239
 30
0.0
 10
176.4526231112688
 20
59.50196733594672
 30
0.0
 10
176.5601100904086
 20
59.4478793368283
 30
0.0
 10
176.5601100904086
 20
59.4478793368283
 30
0.0
 10
176.4615803595304
 20
59.13368662857351
 30
0.0
 10
176.4615803595304
 20
59.13368662857351
 30
0.0
 10
176.3044840054031
 20
59.21016774834606
 30
0.0
 10
176.0843424038956
 20
59.27286848617761
 30
0.0
 10
175.814935936949
 20
59.27286848617761
 30
0.0
 10
175.0384114145737
 20
59.27286848617761
 30
0.0
 10
174.5085557289423
 20
58.75197004880783
 30
0.0
 10
174.5085557289423
 20
57.80939192404347
 30
0.0
 10
174.5085557289423
 20
56.91160004058737
 30
0.0
 10
174.993280663717
 20
56.38174435495594
 30
0.0
 10
175.7925428162949
 20
56.38174435495594
 30
0.0
 10
176.0529920349798
 20
56.38174435495594
 30
0.0
 10
176.3089626295339
 20
56.43996646865666
 30
0.0
 10
176.4794948560537
 20
56.52092621256003
 30
0.0
 10
176.4794948560537
 20
56.52092621256003
 30
0.0
 10
176.5601100904086
 20
56.22016937669773
 30
0.0
 10
176.5601100904086
 20
56.22016937669773
 30
0.0
  0
HATCH
  5
70
330
41
100
AcDbEntity
  8
_U+30EC_U+30A4_U+30E4_U+30FC 1
 62
     7
100
AcDbHatch
 10
0.0
 20
0.0
 30
0.0
210
0.0
220
0.0
230
1.0
  2
SOLID
 70
     1
 71
     0
 91
        1
 92
        1
 93
        1
 72
     4
 94
        3
 73
     0
 74
     1
 95
       35
 96
       31
 40
0.0
 40
0.0
 40
0.0
 40
0.0
 40
1.0
 40
1.0
 40
1.0
 40
2.0
 40
2.0
 40
2.0
 40
3.0
 40
3.0
 40
3.0
 40
4.0
 40
4.0
 40
4.0
 40
5.0
 40
5.0
 40
5.0
 40
6.0
 40
6.0
 40
6.0
 40
7.0
 40
7.0
 40
7.0
 40
8.0
 40
8.0
 40
8.0
 40
9.0
 40
9.0
 40
9.0
 40
10.0
 40
10.0
 40
10.0
 40
10.0
 10
176.5601100904086
 20
56.22016937669773
 10
176.4030137362812
 20
56.14368825692518
 10
176.0977782762881
 20
56.06755164670115
 10
175.7071044482607
 20
56.06755164670115
 10
174.8272270613279
 20
56.06755164670115
 10
174.117881900915
 20
56.63771494951001
 10
174.117881900915
 20
57.795956051651
 10
174.117881900915
 20
58.90010915467357
 10
174.8048339406738
 20
59.58706119443239
 10
175.8059786886874
 20
59.58706119443239
 10
176.214567013238
 20
59.58706119443239
 10
176.4526231112688
 20
59.50196733594672
 10
176.5601100904086
 20
59.4478793368283
 10
176.5601100904086
 20
59.4478793368283
 10
176.4615803595304
 20
59.13368662857351
 10
176.4615803595304
 20
59.13368662857351
 10
176.3044840054031
 20
59.21016774834606
 10
176.0843424038956
 20
59.27286848617761
 10
175.814935936949
 20
59.27286848617761
 10
175.0384114145737
 20
59.27286848617761
 10
174.5085557289423
 20
58.75197004880783
 10
174.5085557289423
 20
57.80939192404347
 10
174.5085557289423
 20
56.91160004058737
 10
174.993280663717
 20
56.38174435495594
 10
175.7925428162949
 20
56.38174435495594
 10
176.0529920349798
 20
56.38174435495594
 10
176.3089626295339
 20
56.43996646865666
 10
176.4794948560537
 20
56.52092621256003
 10
176.4794948560537
 20
56.52092621256003
 10
176.5601100904086
 20
56.22016937669773
 10
176.5601100904086
 20
56.22016937669773
 97
        0
 75
     2
 76
     1
 98
        0
  0
POLYLINE
  5
71
330
41
100
AcDbEntity
  8
_U+30EC_U+30A4_U+30E4_U+30FC 1
370
     0
100
AcDb2dPolyline
 66
     1
 10
0.0
 20
0.0
 30
0.0
  0
VERTEX
  5
72
330
71
100
AcDbEntity
  8
_U+30EC_U+30A4_U+30E4_U+30FC 1
370
     0
100
AcDbVertex
100
AcDb2dVertex
 10
176.8729247604693
 20
57.62990244926196
 30
0.0
  0
VERTEX
  5
73
330
71
100
AcDbEntity
  8
_U+30EC_U+30A4_U+30E4_U+30FC 1
370
     0
100
AcDbVertex
100
AcDb2dVertex
 10
178.0986897341212
 20
57.62990244926196
 30
0.0
  0
VERTEX
  5
74
330
71
100
AcDbEntity
  8
_U+30EC_U+30A4_U+30E4_U+30FC 1
370
     0
100
AcDbVertex
100
AcDb2dVertex
 10
178.0986897341212
 20
57.34258148579212
 30
0.0
  0
VERTEX
  5
75
330
71
100
AcDbEntity
  8
_U+30EC_U+30A4_U+30E4_U+30FC 1
370
     0
100
AcDbVertex
100
AcDb2dVertex
 10
176.8729247604693
 20
57.34258148579212
 30
0.0
  0
VERTEX
  5
76
330
71
100
AcDbEntity
  8
_U+30EC_U+30A4_U+30E4_U+30FC 1
370
     0
100
AcDbVertex
100
AcDb2dVertex
 10
176.8729247604693
 20
57.62990244926196
 30
0.0
  0
SEQEND
  5
77
330
71
100
AcDbEntity
  8
_U+30EC_U+30A4_U+30E4_U+30FC 1
370
     0
  0
HATCH
  5
78
330
41
100
AcDbEntity
  8
_U+30EC_U+30A4_U+30E4_U+30FC 1
 62
     7
100
AcDbHatch
 10
0.0
 20
0.0
 30
0.0
210
0.0
220
0.0
230
1.0
  2
SOLID
 70
     1
 71
     0
 91
        1
 92
        1
 93
        4
 72
     1
 10
176.8729247604693
 20
57.62990244926196
 11
178.0986897341212
 21
57.62990244926196
 72
     1
 10
178.0986897341212
 20
57.62990244926196
 11
178.0986897341212
 21
57.34258148579212
 72
     1
 10
178.0986897341212
 20
57.34258148579212
 11
176.8729247604693
 21
57.34258148579212
 72
     1
 10
176.8729247604693
 20
57.34258148579212
 11
176.8729247604693
 21
57.62990244926196
 97
        0
 75
     2
 76
     1
 98
        0
  0
POLYLINE
  5
79
330
41
100
AcDbEntity
  8
_U+30EC_U+30A4_U+30E4_U+30FC 1
370
     0
100
AcDb2dPolyline
 66
     1
 10
0.0
 20
0.0
 30
0.0
  0
VERTEX
  5
7A
330
79
100
AcDbEntity
  8
_U+30EC_U+30A4_U+30E4_U+30FC 1
370
     0
100
AcDbVertex
100
AcDb2dVertex
 10
181.0111734573514
 20
56.11681651214023
 30
0.0
  0
VERTEX
  5
7B
330
79
100
AcDbEntity
  8
_U+30EC_U+30A4_U+30E4_U+30FC 1
370
     0
100
AcDbVertex
100
AcDb2dVertex
 10
180.6387586353959
 20
56.11681651214023
 30
0.0
  0
VERTEX
  5
7C
330
79
100
AcDbEntity
  8
_U+30EC_U+30A4_U+30E4_U+30FC 1
370
     0
100
AcDbVertex
100
AcDb2dVertex
 10
180.6387586353959
 20
57.75082530079423
 30
0.0
  0
VERTEX
  5
7D
330
79
100
AcDbEntity
  8
_U+30EC_U+30A4_U+30E4_U+30FC 1
370
     0
100
AcDbVertex
100
AcDb2dVertex
 10
179.0044053371934
 20
57.75082530079423
 30
0.0
  0
VERTEX
  5
7E
330
79
100
AcDbEntity
  8
_U+30EC_U+30A4_U+30E4_U+30FC 1
370
     0
100
AcDbVertex
100
AcDb2dVertex
 10
179.0044053371934
 20
56.11681651214023
 30
0.0
  0
VERTEX
  5
7F
330
79
100
AcDbEntity
  8
_U+30EC_U+30A4_U+30E4_U+30FC 1
370
     0
100
AcDbVertex
100
AcDb2dVertex
 10
178.6319905152378
 20
56.11681651214023
 30
0.0
  0
VERTEX
  5
80
330
79
100
AcDbEntity
  8
_U+30EC_U+30A4_U+30E4_U+30FC 1
370
     0
100
AcDbVertex
100
AcDb2dVertex
 10
178.6319905152378
 20
59.53331770486249
 30
0.0
  0
VERTEX
  5
81
330
79
100
AcDbEntity
  8
_U+30EC_U+30A4_U+30E4_U+30FC 1
370
     0
100
AcDbVertex
100
AcDb2dVertex
 10
179.0044053371934
 20
59.53331770486249
 30
0.0
  0
VERTEX
  5
82
330
79
100
AcDbEntity
  8
_U+30EC_U+30A4_U+30E4_U+30FC 1
370
     0
100
AcDbVertex
100
AcDb2dVertex
 10
179.0044053371934
 20
58.07431976685919
 30
0.0
  0
VERTEX
  5
83
330
79
100
AcDbEntity
  8
_U+30EC_U+30A4_U+30E4_U+30FC 1
370
     0
100
AcDbVertex
100
AcDb2dVertex
 10
180.6387586353959
 20
58.07431976685919
 30
0.0
  0
VERTEX
  5
84
330
79
100
AcDbEntity
  8
_U+30EC_U+30A4_U+30E4_U+30FC 1
370
     0
100
AcDbVertex
100
AcDb2dVertex
 10
180.6387586353959
 20
59.53331770486249
 30
0.0
  0
VERTEX
  5
85
330
79
100
AcDbEntity
  8
_U+30EC_U+30A4_U+30E4_U+30FC 1
370
     0
100
AcDbVertex
100
AcDb2dVertex
 10
181.0111734573514
 20
59.53331770486249
 30
0.0
  0
VERTEX
  5
86
330
79
100
AcDbEntity
  8
_U+30EC_U+30A4_U+30E4_U+30FC 1
370
     0
100
AcDbVertex
100
AcDb2dVertex
 10
181.0111734573514
 20
56.11681651214023
 30
0.0
  0
SEQEND
  5
87
330
79
100
AcDbEntity
  8
_U+30EC_U+30A4_U+30E4_U+30FC 1
370
     0
  0
HATCH
  5
88
330
41
100
AcDbEntity
  8
_U+30EC_U+30A4_U+30E4_U+30FC 1
 62
     7
100
AcDbHatch
 10
0.0
 20
0.0
 30
0.0
210
0.0
220
0.0
230
1.0
  2
SOLID
 70
     1
 71
     0
 91
        1
 92
        1
 93
       12
 72
     1
 10
181.0111734573514
 20
56.11681651214023
 11
180.6387586353959
 21
56.11681651214023
 72
     1
 10
180.6387586353959
 20
56.11681651214023
 11
180.6387586353959
 21
57.75082530079423
 72
     1
 10
180.6387586353959
 20
57.75082530079423
 11
179.0044053371934
 21
57.75082530079423
 72
     1
 10
179.0044053371934
 20
57.75082530079423
 11
179.0044053371934
 21
56.11681651214023
 72
     1
 10
179.0044053371934
 20
56.11681651214023
 11
178.6319905152378
 21
56.11681651214023
 72
     1
 10
178.6319905152378
 20
56.11681651214023
 11
178.6319905152378
 21
59.53331770486249
 72
     1
 10
178.6319905152378
 20
59.53331770486249
 11
179.0044053371934
 21
59.53331770486249
 72
     1
 10
179.0044053371934
 20
59.53331770486249
 11
179.0044053371934
 21
58.07431976685919
 72
     1
 10
179.0044053371934
 20
58.07431976685919
 11
180.6387586353959
 21
58.07431976685919
 72
     1
 10
180.6387586353959
 20
58.07431976685919
 11
180.6387586353959
 21
59.53331770486249
 72
     1
 10
180.6387586353959
 20
59.53331770486249
 11
181.0111734573514
 21
59.53331770486249
 72
     1
 10
181.0111734573514
 20
59.53331770486249
 11
181.0111734573514
 21
56.11681651214023
 97
        0
 75
     2
 76
     1
 98
        0
  0
SPLINE
  5
89
330
41
100
AcDbEntity
  8
_U+30EC_U+30A4_U+30E4_U+30FC 1
370
     0
100
AcDbSpline
210
0.0
220
0.0
230
1.0
 70
    11
 71
     3
 72
    17
 73
    13
 74
     0
 42
0.0000000001
 43
0.0000000001
 12
1.0
 22
0.0
 32
0.0
 13
1.0
 23
0.0
 33
0.0
 40
0.0
 40
0.0
 40
0.0
 40
0.0
 40
1.0
 40
1.0
 40
1.0
 40
2.0
 40
2.0
 40
2.0
 40
3.0
 40
3.0
 40
3.0
 40
4.0
 40
4.0
 40
4.0
 40
4.0
 10
181.5710014737045
 20
57.78699880338935
 30
0.0
 10
181.5710014737045
 20
58.96315440205365
 30
0.0
 10
182.0288546636942
 20
59.53331770486249
 30
0.0
 10
182.6575845897523
 20
59.53331770486249
 30
0.0
 10
183.2949272545235
 20
59.53331770486249
 30
0.0
 10
183.6856010825508
 20
58.93180403313787
 30
0.0
 10
183.6856010825508
 20
57.8317850446976
 30
0.0
 10
183.6856010825508
 20
56.66458669429495
 30
0.0
 10
183.2770127580002
 20
56.06307302257033
 30
0.0
 10
182.6079752147647
 20
56.06307302257033
 30
0.0
 10
181.9975042947784
 20
56.06307302257033
 30
0.0
 10
181.5710014737045
 20
56.66458669429495
 30
0.0
 10
181.5710014737045
 20
57.78699880338935
 30
0.0
  0
SPLINE
  5
8A
330
41
100
AcDbEntity
  8
_U+30EC_U+30A4_U+30E4_U+30FC 1
370
     0
100
AcDbSpline
210
0.0
220
0.0
230
1.0
 70
    11
 71
     3
 72
    17
 73
    13
 74
     0
 42
0.0000000001
 43
0.0000000001
 12
1.0
 22
0.0
 32
0.0
 13
1.0
 23
0.0
 33
0.0
 40
0.0
 40
0.0
 40
0.0
 40
0.0
 40
1.0
 40
1.0
 40
1.0
 40
2.0
 40
2.0
 40
2.0
 40
3.0
 40
3.0
 40
3.0
 40
4.0
 40
4.0
 40
4.0
 40
4.0
 10
183.308363126916
 20
57.8138705481743
 30
0.0
 10
183.308363126916
 20
58.65344031792969
 30
0.0
 10
183.1064805314803
 20
59.23256086900018
 30
0.0
 10
182.6351914690981
 20
59.23256086900018
 30
0.0
 10
182.2355603928092
 20
59.23256086900018
 30
0.0
 10
181.9527180534702
 20
58.69822655923793
 30
0.0
 10
181.9527180534702
 20
57.8138705481743
 30
0.0
 10
181.9527180534702
 20
56.92951453711066
 30
0.0
 10
182.1997313997626
 20
56.36830848256347
 30
0.0
 10
182.6217555967057
 20
56.36830848256347
 30
0.0
 10
183.1199164038728
 20
56.36830848256347
 30
0.0
 10
183.308363126916
 20
57.01460839559634
 30
0.0
 10
183.308363126916
 20
57.8138705481743
 30
0.0
  0
HATCH
  5
8B
330
41
100
AcDbEntity
  8
_U+30EC_U+30A4_U+30E4_U+30FC 1
 62
     7
100
AcDbHatch
 10
0.0
 20
0.0
 30
0.0
210
0.0
220
0.0
230
1.0
  2
SOLID
 70
     1
 71
     0
 91
        2
 92
        1
 93
        1
 72
     4
 94
        3
 73
     0
 74
     1
 95
       17
 96
       13
 40
0.0
 40
0.0
 40
0.0
 40
0.0
 40
1.0
 40
1.0
 40
1.0
 40
2.0
 40
2.0
 40
2.0
 40
3.0
 40
3.0
 40
3.0
 40
4.0
 40
4.0
 40
4.0
 40
4.0
 10
181.5710014737045
 20
57.78699880338935
 10
181.5710014737045
 20
58.96315440205365
 10
182.0288546636942
 20
59.53331770486249
 10
182.6575845897523
 20
59.53331770486249
 10
183.2949272545235
 20
59.53331770486249
 10
183.6856010825508
 20
58.93180403313787
 10
183.6856010825508
 20
57.8317850446976
 10
183.6856010825508
 20
56.66458669429495
 10
183.2770127580002
 20
56.06307302257033
 10
182.6079752147647
 20
56.06307302257033
 10
181.9975042947784
 20
56.06307302257033
 10
181.5710014737045
 20
56.66458669429495
 10
181.5710014737045
 20
57.78699880338935
 97
        0
 92
        1
 93
        1
 72
     4
 94
        3
 73
     0
 74
     1
 95
       17
 96
       13
 40
0.0
 40
0.0
 40
0.0
 40
0.0
 40
1.0
 40
1.0
 40
1.0
 40
2.0
 40
2.0
 40
2.0
 40
3.0
 40
3.0
 40
3.0
 40
4.0
 40
4.0
 40
4.0
 40
4.0
 10
183.308363126916
 20
57.8138705481743
 10
183.308363126916
 20
58.65344031792969
 10
183.1064805314803
 20
59.23256086900018
 10
182.6351914690981
 20
59.23256086900018
 10
182.2355603928092
 20
59.23256086900018
 10
181.9527180534702
 20
58.69822655923793
 10
181.9527180534702
 20
57.8138705481743
 10
181.9527180534702
 20
56.92951453711066
 10
182.1997313997626
 20
56.36830848256347
 10
182.6217555967057
 20
56.36830848256347
 10
183.1199164038728
 20
56.36830848256347
 10
183.308363126916
 20
57.01460839559634
 10
183.308363126916
 20
57.8138705481743
 97
        0
 75
     2
 76
     1
 98
        0
  0
SPLINE
  5
8C
330
41
100
AcDbEntity
  8
_U+30EC_U+30A4_U+30E4_U+30FC 1
370
     0
100
AcDbSpline
210
0.0
220
0.0
230
1.0
 70
    11
 71
     3
 72
    17
 73
    13
 74
     0
 42
0.0000000001
 43
0.0000000001
 12
1.0
 22
0.0
 32
0.0
 13
1.0
 23
0.0
 33
0.0
 40
0.0
 40
0.0
 40
0.0
 40
0.0
 40
1.0
 40
1.0
 40
1.0
 40
2.0
 40
2.0
 40
2.0
 40
3.0
 40
3.0
 40
3.0
 40
4.0
 40
4.0
 40
4.0
 40
4.0
 10
184.0435465034683
 20
57.78699880338935
 30
0.0
 10
184.0435465034683
 20
58.96315440205365
 30
0.0
 10
184.501399693458
 20
59.53331770486249
 30
0.0
 10
185.1301296195161
 20
59.53331770486249
 30
0.0
 10
185.7674722842873
 20
59.53331770486249
 30
0.0
 10
186.1581461123146
 20
58.93180403313787
 30
0.0
 10
186.1581461123146
 20
57.8317850446976
 30
0.0
 10
186.1581461123146
 20
56.66458669429495
 30
0.0
 10
185.749557787764
 20
56.06307302257033
 30
0.0
 10
185.0805202445285
 20
56.06307302257033
 30
0.0
 10
184.4700493245422
 20
56.06307302257033
 30
0.0
 10
184.0435465034683
 20
56.66458669429495
 30
0.0
 10
184.0435465034683
 20
57.78699880338935
 30
0.0
  0
SPLINE
  5
8D
330
41
100
AcDbEntity
  8
_U+30EC_U+30A4_U+30E4_U+30FC 1
370
     0
100
AcDbSpline
210
0.0
220
0.0
230
1.0
 70
    11
 71
     3
 72
    17
 73
    13
 74
     0
 42
0.0000000001
 43
0.0000000001
 12
1.0
 22
0.0
 32
0.0
 13
1.0
 23
0.0
 33
0.0
 40
0.0
 40
0.0
 40
0.0
 40
0.0
 40
1.0
 40
1.0
 40
1.0
 40
2.0
 40
2.0
 40
2.0
 40
3.0
 40
3.0
 40
3.0
 40
4.0
 40
4.0
 40
4.0
 40
4.0
 10
185.7809081566798
 20
57.8138705481743
 30
0.0
 10
185.7809081566798
 20
58.65344031792969
 30
0.0
 10
185.5790255612442
 20
59.23256086900018
 30
0.0
 10
185.107736498862
 20
59.23256086900018
 30
0.0
 10
184.708105422573
 20
59.23256086900018
 30
0.0
 10
184.425263083234
 20
58.69822655923793
 30
0.0
 10
184.425263083234
 20
57.8138705481743
 30
0.0
 10
184.425263083234
 20
56.92951453711066
 30
0.0
 10
184.6722764295264
 20
56.36830848256347
 30
0.0
 10
185.0943006264695
 20
56.36830848256347
 30
0.0
 10
185.5924614336366
 20
56.36830848256347
 30
0.0
 10
185.7809081566798
 20
57.01460839559634
 30
0.0
 10
185.7809081566798
 20
57.8138705481743
 30
0.0
  0
HATCH
  5
8E
330
41
100
AcDbEntity
  8
_U+30EC_U+30A4_U+30E4_U+30FC 1
 62
     7
100
AcDbHatch
 10
0.0
 20
0.0
 30
0.0
210
0.0
220
0.0
230
1.0
  2
SOLID
 70
     1
 71
     0
 91
        2
 92
        1
 93
        1
 72
     4
 94
        3
 73
     0
 74
     1
 95
       17
 96
       13
 40
0.0
 40
0.0
 40
0.0
 40
0.0
 40
1.0
 40
1.0
 40
1.0
 40
2.0
 40
2.0
 40
2.0
 40
3.0
 40
3.0
 40
3.0
 40
4.0
 40
4.0
 40
4.0
 40
4.0
 10
184.0435465034683
 20
57.78699880338935
 10
184.0435465034683
 20
58.96315440205365
 10
184.501399693458
 20
59.53331770486249
 10
185.1301296195161
 20
59.53331770486249
 10
185.7674722842873
 20
59.53331770486249
 10
186.1581461123146
 20
58.93180403313787
 10
186.1581461123146
 20
57.8317850446976
 10
186.1581461123146
 20
56.66458669429495
 10
185.749557787764
 20
56.06307302257033
 10
185.0805202445285
 20
56.06307302257033
 10
184.4700493245422
 20
56.06307302257033
 10
184.0435465034683
 20
56.66458669429495
 10
184.0435465034683
 20
57.78699880338935
 97
        0
 92
        1
 93
        1
 72
     4
 94
        3
 73
     0
 74
     1
 95
       17
 96
       13
 40
0.0
 40
0.0
 40
0.0
 40
0.0
 40
1.0
 40
1.0
 40
1.0
 40
2.0
 40
2.0
 40
2.0
 40
3.0
 40
3.0
 40
3.0
 40
4.0
 40
4.0
 40
4.0
 40
4.0
 10
185.7809081566798
 20
57.8138705481743
 10
185.7809081566798
 20
58.65344031792969
 10
185.5790255612442
 20
59.23256086900018
 10
185.107736498862
 20
59.23256086900018
 10
184.708105422573
 20
59.23256086900018
 10
184.425263083234
 20
58.69822655923793
 10
184.425263083234
 20
57.8138705481743
 10
184.425263083234
 20
56.92951453711066
 10
184.6722764295264
 20
56.36830848256347
 10
185.0943006264695
 20
56.36830848256347
 10
185.5924614336366
 20
56.36830848256347
 10
185.7809081566798
 20
57.01460839559634
 10
185.7809081566798
 20
57.8138705481743
 97
        0
 75
     2
 76
     1
 98
        0
  0
POLYLINE
  5
8F
330
41
100
AcDbEntity
  8
_U+30EC_U+30A4_U+30E4_U+30FC 1
370
     0
100
AcDb2dPolyline
 66
     1
 10
0.0
 20
0.0
 30
0.0
  0
VERTEX
  5
90
330
8F
100
AcDbEntity
  8
_U+30EC_U+30A4_U+30E4_U+30FC 1
370
     0
100
AcDbVertex
100
AcDb2dVertex
 10
187.5038004088532
 20
56.11681651214023
 30
0.0
  0
VERTEX
  5
91
330
8F
100
AcDbEntity
  8
_U+30EC_U+30A4_U+30E4_U+30FC 1
370
     0
100
AcDbVertex
100
AcDb2dVertex
 10
187.5038004088532
 20
59.12920800444269
 30
0.0
  0
VERTEX
  5
92
330
8F
100
AcDbEntity
  8
_U+30EC_U+30A4_U+30E4_U+30FC 1
370
     0
100
AcDbVertex
100
AcDb2dVertex
 10
187.4948431605916
 20
59.12920800444269
 30
0.0
  0
VERTEX
  5
93
330
8F
100
AcDbEntity
  8
_U+30EC_U+30A4_U+30E4_U+30FC 1
370
     0
100
AcDbVertex
100
AcDb2dVertex
 10
186.942594354306
 20
58.81053667205708
 30
0.0
  0
VERTEX
  5
94
330
8F
100
AcDbEntity
  8
_U+30EC_U+30A4_U+30E4_U+30FC 1
370
     0
100
AcDbVertex
100
AcDb2dVertex
 10
186.8530218716895
 20
59.08890038726526
 30
0.0
  0
VERTEX
  5
95
330
8F
100
AcDbEntity
  8
_U+30EC_U+30A4_U+30E4_U+30FC 1
370
     0
100
AcDbVertex
100
AcDb2dVertex
 10
187.5485866501615
 20
59.47922970574407
 30
0.0
  0
VERTEX
  5
96
330
8F
100
AcDbEntity
  8
_U+30EC_U+30A4_U+30E4_U+30FC 1
370
     0
100
AcDbVertex
100
AcDb2dVertex
 10
187.8676024920956
 20
59.47922970574407
 30
0.0
  0
VERTEX
  5
97
330
8F
100
AcDbEntity
  8
_U+30EC_U+30A4_U+30E4_U+30FC 1
370
     0
100
AcDbVertex
100
AcDb2dVertex
 10
187.8676024920956
 20
56.11681651214023
 30
0.0
  0
VERTEX
  5
98
330
8F
100
AcDbEntity
  8
_U+30EC_U+30A4_U+30E4_U+30FC 1
370
     0
100
AcDbVertex
100
AcDb2dVertex
 10
187.5038004088532
 20
56.11681651214023
 30
0.0
  0
SEQEND
  5
99
330
8F
100
AcDbEntity
  8
_U+30EC_U+30A4_U+30E4_U+30FC 1
370
     0
  0
HATCH
  5
9A
330
41
100
AcDbEntity
  8
_U+30EC_U+30A4_U+30E4_U+30FC 1
 62
     7
100
AcDbHatch
 10
0.0
 20
0.0
 30
0.0
210
0.0
220
0.0
230
1.0
  2
SOLID
 70
     1
 71
     0
 91
        1
 92
        1
 93
        8
 72
     1
 10
187.5038004088532
 20
56.11681651214023
 11
187.5038004088532
 21
59.12920800444269
 72
     1
 10
187.5038004088532
 20
59.12920800444269
 11
187.4948431605916
 21
59.12920800444269
 72
     1
 10
187.4948431605916
 20
59.12920800444269
 11
186.942594354306
 21
58.81053667205708
 72
     1
 10
186.942594354306
 20
58.81053667205708
 11
186.8530218716895
 21
59.08890038726526
 72
     1
 10
186.8530218716895
 20
59.08890038726526
 11
187.5485866501615
 21
59.47922970574407
 72
     1
 10
187.5485866501615
 20
59.47922970574407
 11
187.8676024920956
 21
59.47922970574407
 72
     1
 10
187.8676024920956
 20
59.47922970574407
 11
187.8676024920956
 21
56.11681651214023
 72
     1
 10
187.8676024920956
 20
56.11681651214023
 11
187.5038004088532
 21
56.11681651214023
 97
        0
 75
     2
 76
     1
 98
        0
  0
ENDBLK
  5
44
330
41
100
AcDbEntity
  8
0
100
AcDbBlockEnd
  0
BLOCK
  5
9D
330
9B
100
AcDbEntity
  8
0
100
AcDbBlockBegin
  2
block 3
 70
     0
 10
0.0
 20
0.0
 30
0.0
  3
block 3
  1

  0
SPLINE
  5
9F
330
9B
100
AcDbEntity
  8
_U+30EC_U+30A4_U+30E4_U+30FC 1
 62
     7
370
     5
100
AcDbSpline
210
0.0
220
0.0
230
1.0
 70
    11
 71
     3
 72
    23
 73
    19
 74
     0
 42
0.0000000001
 43
0.0000000001
 12
1.0
 22
0.0
 32
0.0
 13
1.0
 23
0.0
 33
0.0
 40
0.0
 40
0.0
 40
0.0
 40
0.0
 40
1.0
 40
1.0
 40
1.0
 40
2.0
 40
2.0
 40
2.0
 40
3.0
 40
3.0
 40
3.0
 40
4.0
 40
4.0
 40
4.0
 40
5.0
 40
5.0
 40
5.0
 40
6.0
 40
6.0
 40
6.0
 40
6.0
 10
119.6757305107762
 20
126.5221587062441
 30
0.0
 10
118.1822811044328
 20
124.6667945869117
 30
0.0
 10
116.8607403048148
 20
122.4431657547523
 30
0.0
 10
114.7957556352747
 20
118.582224742142
 30
0.0
 10
111.6858784923921
 20
112.7755379458385
 30
0.0
 10
111.1687444166528
 20
102.5873536645659
 30
0.0
 10
113.2571888605745
 20
88.30397912571556
 30
0.0
 10
113.2571888605745
 20
88.30397912571556
 30
0.0
 10
114.358913860299
 20
88.46488106605506
 30
0.0
 10
114.358913860299
 20
88.46488106605506
 30
0.0
 10
112.3042626432824
 20
102.5081173744489
 30
0.0
 10
112.7810770755623
 20
112.4647786620971
 30
0.0
 10
115.7769011657992
 20
118.057538366639
 30
0.0
 10
117.3916355690483
 20
121.0763282896233
 30
0.0
 10
118.5395391508739
 20
123.0696637943246
 30
0.0
 10
119.6757305107762
 20
124.6693698646238
 30
0.0
 10
119.6757305107762
 20
124.6693698646238
 30
0.0
 10
119.6757305107762
 20
126.5221587062441
 30
0.0
 10
119.6757305107762
 20
126.5221587062441
 30
0.0
  0
HATCH
  5
A0
330
9B
100
AcDbEntity
  8
_U+30EC_U+30A4_U+30E4_U+30FC 1
 62
     7
100
AcDbHatch
 10
0.0
 20
0.0
 30
0.0
210
0.0
220
0.0
230
1.0
  2
SOLID
 70
     1
 71
     0
 91
        1
 92
        1
 93
        1
 72
     4
 94
        3
 73
     0
 74
     1
 95
       23
 96
       19
 40
0.0
 40
0.0
 40
0.0
 40
0.0
 40
1.0
 40
1.0
 40
1.0
 40
2.0
 40
2.0
 40
2.0
 40
3.0
 40
3.0
 40
3.0
 40
4.0
 40
4.0
 40
4.0
 40
5.0
 40
5.0
 40
5.0
 40
6.0
 40
6.0
 40
6.0
 40
6.0
 10
119.6757305107762
 20
126.5221587062441
 10
118.1822811044328
 20
124.6667945869117
 10
116.8607403048148
 20
122.4431657547523
 10
114.7957556352747
 20
118.582224742142
 10
111.6858784923921
 20
112.7755379458385
 10
111.1687444166528
 20
102.5873536645659
 10
113.2571888605745
 20
88.30397912571556
 10
113.2571888605745
 20
88.30397912571556
 10
114.358913860299
 20
88.46488106605506
 10
114.358913860299
 20
88.46488106605506
 10
112.3042626432824
 20
102.5081173744489
 10
112.7810770755623
 20
112.4647786620971
 10
115.7769011657992
 20
118.057538366639
 10
117.3916355690483
 20
121.0763282896233
 10
118.5395391508739
 20
123.0696637943246
 10
119.6757305107762
 20
124.6693698646238
 10
119.6757305107762
 20
124.6693698646238
 10
119.6757305107762
 20
126.5221587062441
 10
119.6757305107762
 20
126.5221587062441
 97
        0
 75
     2
 76
     1
 98
        0
  0
SPLINE
  5
A1
330
9B
100
AcDbEntity
  8
_U+30EC_U+30A4_U+30E4_U+30FC 1
 62
     7
370
     5
100
AcDbSpline
210
0.0
220
0.0
230
1.0
 70
     8
 71
     3
 72
    20
 73
    16
 74
     0
 42
0.0000000001
 43
0.0000000001
 12
1.0
 22
0.0
 32
0.0
 13
1.0
 23
0.0
 33
0.0
 40
0.0
 40
0.0
 40
0.0
 40
0.0
 40
1.0
 40
1.0
 40
1.0
 40
2.0
 40
2.0
 40
2.0
 40
3.0
 40
3.0
 40
3.0
 40
4.0
 40
4.0
 40
4.0
 40
5.0
 40
5.0
 40
5.0
 40
5.0
 10
119.6757305107762
 20
127.2993634086382
 30
0.0
 10
117.8436144464062
 20
125.2410815167049
 30
0.0
 10
116.4473200375842
 20
122.9651004636589
 30
0.0
 10
114.0450798210927
 20
118.4718053005146
 30
0.0
 10
110.934147194489
 20
112.6649421153267
 30
0.0
 10
110.4166899136606
 20
102.4771082085734
 30
0.0
 10
112.5050990270476
 20
88.19475912850199
 30
0.0
 10
112.5050990270476
 20
88.19475912850199
 30
0.0
 10
113.607176776709
 20
88.3553082910727
 30
0.0
 10
113.607176776709
 20
88.3553082910727
 30
0.0
 10
111.5522138610012
 20
102.3985445994666
 30
0.0
 10
112.029342928074
 20
112.3541801788105
 30
0.0
 10
115.0252022960877
 20
117.9469778139041
 30
0.0
 10
116.9947605791734
 20
121.6289193866366
 30
0.0
 10
118.2697699910897
 20
123.785873220497
 30
0.0
 10
119.6757305107762
 20
125.5635556751446
 30
0.0
  0
SPLINE
  5
A2
330
9B
100
AcDbEntity
  8
_U+30EC_U+30A4_U+30E4_U+30FC 1
 62
     7
370
     5
100
AcDbSpline
210
0.0
220
0.0
230
1.0
 70
     8
 71
     3
 72
    23
 73
    19
 74
     0
 42
0.0000000001
 43
0.0000000001
 12
1.0
 22
0.0
 32
0.0
 13
1.0
 23
0.0
 33
0.0
 40
0.0
 40
0.0
 40
0.0
 40
0.0
 40
1.0
 40
1.0
 40
1.0
 40
2.0
 40
2.0
 40
2.0
 40
3.0
 40
3.0
 40
3.0
 40
4.0
 40
4.0
 40
4.0
 40
5.0
 40
5.0
 40
5.0
 40
6.0
 40
6.0
 40
6.0
 40
6.0
 10
172.6271797154277
 20
88.19408885074131
 30
0.0
 10
172.6271797154277
 20
88.19408885074131
 30
0.0
 10
172.8693969314705
 20
88.14896857411465
 30
0.0
 10
172.8693969314705
 20
88.14896857411465
 30
0.0
 10
173.990771625084
 20
88.14896857411465
 30
0.0
 10
174.8992449352403
 20
89.05536049543511
 30
0.0
 10
174.8992449352403
 20
90.1702088003263
 30
0.0
 10
174.8992449352403
 20
90.1702088003263
 30
0.0
 10
174.8992449352403
 20
135.0708107103721
 30
0.0
 10
174.8992449352403
 20
135.0708107103721
 30
0.0
 10
174.8992449352403
 20
136.188904570736
 30
0.0
 10
173.990771625084
 20
137.0939592114949
 30
0.0
 10
172.8693969314705
 20
137.0939592114949
 30
0.0
 10
172.8693969314705
 20
137.0939592114949
 30
0.0
 10
134.1709809743049
 20
140.6645961232183
 30
0.0
 10
134.1709809743049
 20
140.6645961232183
 30
0.0
 10
133.1842968328106
 20
140.6645961232183
 30
0.0
 10
132.3643707426176
 20
139.959925877445
 30
0.0
 10
132.1845246360947
 20
139.025943387246
 30
0.0
  0
SPLINE
  5
A3
330
9B
100
AcDbEntity
  8
_U+30EC_U+30A4_U+30E4_U+30FC 1
 62
     7
370
     5
100
AcDbSpline
210
0.0
220
0.0
230
1.0
 70
     8
 71
     3
 72
    23
 73
    19
 74
     0
 42
0.0000000001
 43
0.0000000001
 12
1.0
 22
0.0
 32
0.0
 13
1.0
 23
0.0
 33
0.0
 40
0.0
 40
0.0
 40
0.0
 40
0.0
 40
1.0
 40
1.0
 40
1.0
 40
2.0
 40
2.0
 40
2.0
 40
3.0
 40
3.0
 40
3.0
 40
4.0
 40
4.0
 40
4.0
 40
5.0
 40
5.0
 40
5.0
 40
6.0
 40
6.0
 40
6.0
 40
6.0
 10
164.0916157665214
 20
84.8643958801333
 30
0.0
 10
164.7241463059398
 20
85.15688392822686
 30
0.0
 10
168.0338367770581
 20
86.68204805598336
 30
0.0
 10
170.2897138463169
 20
87.64354386478689
 30
0.0
 10
170.2897138463169
 20
87.64354386478689
 30
0.0
 10
173.6059263571245
 20
88.19994496170303
 30
0.0
 10
173.6755294109043
 20
88.82591383462211
 30
0.0
 10
173.7451324646841
 20
89.4518827075412
 30
0.0
 10
173.6755294109043
 20
133.6810426902724
 30
0.0
 10
173.6755294109043
 20
133.6810426902724
 30
0.0
 10
173.6755294109043
 20
133.6810426902724
 30
0.0
 10
173.766828297464
 20
135.6738843060975
 30
0.0
 10
172.0067141757015
 20
135.7672293037161
 30
0.0
 10
172.0067141757015
 20
135.7672293037161
 30
0.0
 10
133.8970843146259
 20
139.661754759914
 30
0.0
 10
133.8970843146259
 20
139.661754759914
 30
0.0
 10
133.8970843146259
 20
139.661754759914
 30
0.0
 10
131.8910135324717
 20
138.6587017299484
 30
0.0
 10
127.4802330894445
 20
137.9822536557173
 30
0.0
  0
POLYLINE
  5
A4
330
9B
100
AcDbEntity
  8
_U+30EC_U+30A4_U+30E4_U+30FC 1
 62
     7
370
     5
100
AcDb2dPolyline
 66
     1
 10
0.0
 20
0.0
 30
0.0
  0
VERTEX
  5
A5
330
A4
100
AcDbEntity
  8
_U+30EC_U+30A4_U+30E4_U+30FC 1
 62
     7
370
     5
100
AcDbVertex
100
AcDb2dVertex
 10
169.6702670130871
 20
98.20451081757639
 30
0.0
  0
VERTEX
  5
A6
330
A4
100
AcDbEntity
  8
_U+30EC_U+30A4_U+30E4_U+30FC 1
 62
     7
370
     5
100
AcDbVertex
100
AcDb2dVertex
 10
169.7488306221939
 20
88.38596467917948
 30
0.0
  0
SEQEND
  5
A7
330
A4
100
AcDbEntity
  8
_U+30EC_U+30A4_U+30E4_U+30FC 1
 62
     7
370
     5
  0
POLYLINE
  5
A8
330
9B
100
AcDbEntity
  8
_U+30EC_U+30A4_U+30E4_U+30FC 1
 62
     7
370
     5
100
AcDb2dPolyline
 66
     1
 10
0.0
 20
0.0
 30
0.0
  0
VERTEX
  5
A9
330
A8
100
AcDbEntity
  8
_U+30EC_U+30A4_U+30E4_U+30FC 1
 62
     7
370
     5
100
AcDbVertex
100
AcDb2dVertex
 10
169.6702670130871
 20
128.9597119773903
 30
0.0
  0
VERTEX
  5
AA
330
A8
100
AcDbEntity
  8
_U+30EC_U+30A4_U+30E4_U+30FC 1
 62
     7
370
     5
100
AcDbVertex
100
AcDb2dVertex
 10
169.6702670130871
 20
100.8448054724391
 30
0.0
  0
SEQEND
  5
AB
330
A8
100
AcDbEntity
  8
_U+30EC_U+30A4_U+30E4_U+30FC 1
 62
     7
370
     5
  0
SPLINE
  5
AC
330
9B
100
AcDbEntity
  8
_U+30EC_U+30A4_U+30E4_U+30FC 1
 62
     7
370
     5
100
AcDbSpline
210
0.0
220
0.0
230
1.0
 70
     8
 71
     3
 72
    11
 73
     7
 74
     0
 42
0.0000000001
 43
0.0000000001
 12
1.0
 22
0.0
 32
0.0
 13
1.0
 23
0.0
 33
0.0
 40
0.0
 40
0.0
 40
0.0
 40
0.0
 40
1.0
 40
1.0
 40
1.0
 40
2.0
 40
2.0
 40
2.0
 40
2.0
 10
164.2177027367239
 20
132.5682757742171
 30
0.0
 10
164.2177027367239
 20
132.5682757742171
 30
0.0
 10
166.9996334701095
 20
132.7074818817767
 30
0.0
 10
168.807619535095
 20
133.4028774195912
 30
0.0
 10
170.6159583778494
 20
134.0982729574058
 30
0.0
 10
172.1455675054924
 20
134.7936332174434
 30
0.0
 10
172.1455675054924
 20
134.7936332174434
 30
0.0
  0
SPLINE
  5
AD
330
9B
100
AcDbEntity
  8
_U+30EC_U+30A4_U+30E4_U+30FC 1
 62
     7
370
     5
100
AcDbSpline
210
0.0
220
0.0
230
1.0
 70
    11
 71
     3
 72
    29
 73
    25
 74
     0
 42
0.0000000001
 43
0.0000000001
 12
1.0
 22
0.0
 32
0.0
 13
1.0
 23
0.0
 33
0.0
 40
0.0
 40
0.0
 40
0.0
 40
0.0
 40
1.0
 40
1.0
 40
1.0
 40
2.0
 40
2.0
 40
2.0
 40
3.0
 40
3.0
 40
3.0
 40
4.0
 40
4.0
 40
4.0
 40
5.0
 40
5.0
 40
5.0
 40
6.0
 40
6.0
 40
6.0
 40
7.0
 40
7.0
 40
7.0
 40
8.0
 40
8.0
 40
8.0
 40
8.0
 10
119.6757305107762
 20
92.18693347109757
 30
0.0
 10
119.6757305107762
 20
90.9894314452431
 30
0.0
 10
120.6448463193853
 20
90.01791463754498
 30
0.0
 10
121.8423504555011
 20
90.01791463754498
 30
0.0
 10
121.8423504555011
 20
90.01791463754498
 30
0.0
 10
161.9249999595187
 20
82.29437455681112
 30
0.0
 10
161.9249999595187
 20
82.29437455681112
 30
0.0
 10
163.1204538468534
 20
82.29437455681112
 30
0.0
 10
164.0916157665214
 20
83.26345508764337
 30
0.0
 10
164.0916157665214
 20
84.46099450153604
 30
0.0
 10
164.0916157665214
 20
84.46099450153604
 30
0.0
 10
164.0916157665214
 20
132.5302110529659
 30
0.0
 10
164.0916157665214
 20
132.5302110529659
 30
0.0
 10
164.0916157665214
 20
133.7277536567811
 30
0.0
 10
163.1204538468534
 20
134.699088775411
 30
0.0
 10
161.9249999595187
 20
134.699088775411
 30
0.0
 10
161.9249999595187
 20
134.699088775411
 30
0.0
 10
121.8423504555011
 20
138.51970728905
 30
0.0
 10
121.8423504555011
 20
138.51970728905
 30
0.0
 10
120.6448463193853
 20
138.51970728905
 30
0.0
 10
119.6757305107762
 20
137.5504150915565
 30
0.0
 10
119.6757305107762
 20
136.3529109554407
 30
0.0
 10
119.6757305107762
 20
136.3529109554407
 30
0.0
 10
119.6757305107762
 20
92.18693347109757
 30
0.0
 10
119.6757305107762
 20
92.18693347109757
 30
0.0
  0
SPLINE
  5
AE
330
9B
100
AcDbEntity
  8
_U+30EC_U+30A4_U+30E4_U+30FC 1
370
     0
100
AcDbSpline
210
0.0
220
0.0
230
1.0
 70
    11
 71
     3
 72
    29
 73
    25
 74
     0
 42
0.0000000001
 43
0.0000000001
 12
1.0
 22
0.0
 32
0.0
 13
1.0
 23
0.0
 33
0.0
 40
0.0
 40
0.0
 40
0.0
 40
0.0
 40
1.0
 40
1.0
 40
1.0
 40
2.0
 40
2.0
 40
2.0
 40
3.0
 40
3.0
 40
3.0
 40
4.0
 40
4.0
 40
4.0
 40
5.0
 40
5.0
 40
5.0
 40
6.0
 40
6.0
 40
6.0
 40
7.0
 40
7.0
 40
7.0
 40
8.0
 40
8.0
 40
8.0
 40
8.0
 10
122.4249276628605
 20
92.89319456419047
 30
0.0
 10
122.4249276628605
 20
92.4942381854798
 30
0.0
 10
122.7463434879939
 20
92.17144652704825
 30
0.0
 10
123.1442415333982
 20
92.17144652704825
 30
0.0
 10
123.1442415333982
 20
92.17144652704825
 30
0.0
 10
160.4060758605474
 20
85.66710641521
 30
0.0
 10
160.4060758605474
 20
85.66710641521
 30
0.0
 10
160.8036211281829
 20
85.66710641521
 30
0.0
 10
161.1274711199208
 20
85.9909564069479
 30
0.0
 10
161.1274711199208
 20
86.38987750788169
 30
0.0
 10
161.1274711199208
 20
86.38987750788169
 30
0.0
 10
161.1274711199208
 20
130.6503994342573
 30
0.0
 10
161.1274711199208
 20
130.6503994342573
 30
0.0
 10
161.1274711199208
 20
131.0503788684974
 30
0.0
 10
160.8036211281829
 20
131.3742288602353
 30
0.0
 10
160.4060758605474
 20
131.3742288602353
 30
0.0
 10
160.4060758605474
 20
131.3742288602353
 30
0.0
 10
123.1442415333982
 20
135.5021520882565
 30
0.0
 10
123.1442415333982
 20
135.5021520882565
 30
0.0
 10
122.7463434879939
 20
135.5021520882565
 30
0.0
 10
122.4249276628605
 20
135.1795015409324
 30
0.0
 10
122.4249276628605
 20
134.7795221066923
 30
0.0
 10
122.4249276628605
 20
134.7795221066923
 30
0.0
 10
122.4249276628605
 20
92.89319456419047
 30
0.0
 10
122.4249276628605
 20
92.89319456419047
 30
0.0
  0
POLYLINE
  5
AF
330
9B
100
AcDbEntity
  8
_U+30EC_U+30A4_U+30E4_U+30FC 1
 62
     7
370
     5
100
AcDb2dPolyline
 66
     1
 10
0.0
 20
0.0
 30
0.0
  0
VERTEX
  5
B0
330
AF
100
AcDbEntity
  8
_U+30EC_U+30A4_U+30E4_U+30FC 1
 62
     7
370
     5
100
AcDbVertex
100
AcDb2dVertex
 10
156.5747721830788
 20
131.7986557938517
 30
0.0
  0
VERTEX
  5
B1
330
AF
100
AcDbEntity
  8
_U+30EC_U+30A4_U+30E4_U+30FC 1
 62
     7
370
     5
100
AcDbVertex
100
AcDb2dVertex
 10
156.5747721830788
 20
86.33579667592808
 30
0.0
  0
SEQEND
  5
B2
330
AF
100
AcDbEntity
  8
_U+30EC_U+30A4_U+30E4_U+30FC 1
 62
     7
370
     5
  0
POLYLINE
  5
B3
330
9B
100
AcDbEntity
  8
_U+30EC_U+30A4_U+30E4_U+30FC 1
 62
     7
370
     5
100
AcDb2dPolyline
 66
     1
 10
0.0
 20
0.0
 30
0.0
  0
VERTEX
  5
B4
330
B3
100
AcDbEntity
  8
_U+30EC_U+30A4_U+30E4_U+30FC 1
 62
     7
370
     5
100
AcDbVertex
100
AcDb2dVertex
 10
152.777926888491
 20
132.2191316164578
 30
0.0
  0
VERTEX
  5
B5
330
B3
100
AcDbEntity
  8
_U+30EC_U+30A4_U+30E4_U+30FC 1
 62
     7
370
     5
100
AcDbVertex
100
AcDb2dVertex
 10
152.777926888491
 20
86.99863082568443
 30
0.0
  0
SEQEND
  5
B6
330
B3
100
AcDbEntity
  8
_U+30EC_U+30A4_U+30E4_U+30FC 1
 62
     7
370
     5
  0
POLYLINE
  5
B7
330
9B
100
AcDbEntity
  8
_U+30EC_U+30A4_U+30E4_U+30FC 1
 62
     7
370
     5
100
AcDb2dPolyline
 66
     1
 10
0.0
 20
0.0
 30
0.0
  0
VERTEX
  5
B8
330
B7
100
AcDbEntity
  8
_U+30EC_U+30A4_U+30E4_U+30FC 1
 62
     7
370
     5
100
AcDbVertex
100
AcDb2dVertex
 10
149.0747833718549
 20
132.6294474393231
 30
0.0
  0
VERTEX
  5
B9
330
B7
100
AcDbEntity
  8
_U+30EC_U+30A4_U+30E4_U+30FC 1
 62
     7
370
     5
100
AcDbVertex
100
AcDb2dVertex
 10
149.0747833718549
 20
87.64491969808512
 30
0.0
  0
SEQEND
  5
BA
330
B7
100
AcDbEntity
  8
_U+30EC_U+30A4_U+30E4_U+30FC 1
 62
     7
370
     5
  0
POLYLINE
  5
BB
330
9B
100
AcDbEntity
  8
_U+30EC_U+30A4_U+30E4_U+30FC 1
 62
     7
370
     5
100
AcDb2dPolyline
 66
     1
 10
0.0
 20
0.0
 30
0.0
  0
VERTEX
  5
BC
330
BB
100
AcDbEntity
  8
_U+30EC_U+30A4_U+30E4_U+30FC 1
 62
     7
370
     5
100
AcDbVertex
100
AcDb2dVertex
 10
145.6651862366188
 20
133.0072018741302
 30
0.0
  0
VERTEX
  5
BD
330
BB
100
AcDbEntity
  8
_U+30EC_U+30A4_U+30E4_U+30FC 1
 62
     7
370
     5
100
AcDbVertex
100
AcDb2dVertex
 10
145.6651862366188
 20
88.24023422370828
 30
0.0
  0
SEQEND
  5
BE
330
BB
100
AcDbEntity
  8
_U+30EC_U+30A4_U+30E4_U+30FC 1
 62
     7
370
     5
  0
POLYLINE
  5
BF
330
9B
100
AcDbEntity
  8
_U+30EC_U+30A4_U+30E4_U+30FC 1
 62
     7
370
     5
100
AcDb2dPolyline
 66
     1
 10
0.0
 20
0.0
 30
0.0
  0
VERTEX
  5
C0
330
BF
100
AcDbEntity
  8
_U+30EC_U+30A4_U+30E4_U+30FC 1
 62
     7
370
     5
100
AcDbVertex
100
AcDb2dVertex
 10
141.6750580050821
 20
133.4490207517474
 30
0.0
  0
VERTEX
  5
C1
330
BF
100
AcDbEntity
  8
_U+30EC_U+30A4_U+30E4_U+30FC 1
 62
     7
370
     5
100
AcDbVertex
100
AcDb2dVertex
 10
141.6750580050821
 20
88.9368624429027
 30
0.0
  0
SEQEND
  5
C2
330
BF
100
AcDbEntity
  8
_U+30EC_U+30A4_U+30E4_U+30FC 1
 62
     7
370
     5
  0
POLYLINE
  5
C3
330
9B
100
AcDbEntity
  8
_U+30EC_U+30A4_U+30E4_U+30FC 1
 62
     7
370
     5
100
AcDb2dPolyline
 66
     1
 10
0.0
 20
0.0
 30
0.0
  0
VERTEX
  5
C4
330
C3
100
AcDbEntity
  8
_U+30EC_U+30A4_U+30E4_U+30FC 1
 62
     7
370
     5
100
AcDbVertex
100
AcDb2dVertex
 10
138.2675422586818
 20
133.8267751865545
 30
0.0
  0
VERTEX
  5
C5
330
C3
100
AcDbEntity
  8
_U+30EC_U+30A4_U+30E4_U+30FC 1
 62
     7
370
     5
100
AcDbVertex
100
AcDb2dVertex
 10
138.2675422586818
 20
89.53146937217745
 30
0.0
  0
SEQEND
  5
C6
330
C3
100
AcDbEntity
  8
_U+30EC_U+30A4_U+30E4_U+30FC 1
 62
     7
370
     5
  0
POLYLINE
  5
C7
330
9B
100
AcDbEntity
  8
_U+30EC_U+30A4_U+30E4_U+30FC 1
 62
     7
370
     5
100
AcDb2dPolyline
 66
     1
 10
0.0
 20
0.0
 30
0.0
  0
VERTEX
  5
C8
330
C7
100
AcDbEntity
  8
_U+30EC_U+30A4_U+30E4_U+30FC 1
 62
     7
370
     5
100
AcDbVertex
100
AcDb2dVertex
 10
134.7621306814456
 20
134.2150423988712
 30
0.0
  0
VERTEX
  5
C9
330
C7
100
AcDbEntity
  8
_U+30EC_U+30A4_U+30E4_U+30FC 1
 62
     7
370
     5
100
AcDbVertex
100
AcDb2dVertex
 10
134.7621306814456
 20
90.14332713434544
 30
0.0
  0
SEQEND
  5
CA
330
C7
100
AcDbEntity
  8
_U+30EC_U+30A4_U+30E4_U+30FC 1
 62
     7
370
     5
  0
POLYLINE
  5
CB
330
9B
100
AcDbEntity
  8
_U+30EC_U+30A4_U+30E4_U+30FC 1
 62
     7
370
     5
100
AcDb2dPolyline
 66
     1
 10
0.0
 20
0.0
 30
0.0
  0
VERTEX
  5
CC
330
CB
100
AcDbEntity
  8
_U+30EC_U+30A4_U+30E4_U+30FC 1
 62
     7
370
     5
100
AcDbVertex
100
AcDb2dVertex
 10
131.7435524251226
 20
134.5498990569949
 30
0.0
  0
VERTEX
  5
CD
330
CB
100
AcDbEntity
  8
_U+30EC_U+30A4_U+30E4_U+30FC 1
 62
     7
370
     5
100
AcDbVertex
100
AcDb2dVertex
 10
131.7435524251226
 20
90.67041239867615
 30
0.0
  0
SEQEND
  5
CE
330
CB
100
AcDbEntity
  8
_U+30EC_U+30A4_U+30E4_U+30FC 1
 62
     7
370
     5
  0
POLYLINE
  5
CF
330
9B
100
AcDbEntity
  8
_U+30EC_U+30A4_U+30E4_U+30FC 1
 62
     7
370
     5
100
AcDb2dPolyline
 66
     1
 10
0.0
 20
0.0
 30
0.0
  0
VERTEX
  5
D0
330
CF
100
AcDbEntity
  8
_U+30EC_U+30A4_U+30E4_U+30FC 1
 62
     7
370
     5
100
AcDbVertex
100
AcDb2dVertex
 10
128.9206599971406
 20
134.8622132156938
 30
0.0
  0
VERTEX
  5
D1
330
CF
100
AcDbEntity
  8
_U+30EC_U+30A4_U+30E4_U+30FC 1
 62
     7
370
     5
100
AcDbVertex
100
AcDb2dVertex
 10
128.9206599971406
 20
91.16306655277415
 30
0.0
  0
SEQEND
  5
D2
330
CF
100
AcDbEntity
  8
_U+30EC_U+30A4_U+30E4_U+30FC 1
 62
     7
370
     5
  0
POLYLINE
  5
D3
330
9B
100
AcDbEntity
  8
_U+30EC_U+30A4_U+30E4_U+30FC 1
 62
     7
370
     5
100
AcDb2dPolyline
 66
     1
 10
0.0
 20
0.0
 30
0.0
  0
VERTEX
  5
D4
330
D3
100
AcDbEntity
  8
_U+30EC_U+30A4_U+30E4_U+30FC 1
 62
     7
370
     5
100
AcDbVertex
100
AcDb2dVertex
 10
125.9020464630407
 20
135.1965407071644
 30
0.0
  0
VERTEX
  5
D5
330
D3
100
AcDbEntity
  8
_U+30EC_U+30A4_U+30E4_U+30FC 1
 62
     7
370
     5
100
AcDbVertex
100
AcDb2dVertex
 10
125.9020464630407
 20
91.69015181710488
 30
0.0
  0
SEQEND
  5
D6
330
D3
100
AcDbEntity
  8
_U+30EC_U+30A4_U+30E4_U+30FC 1
 62
     7
370
     5
  0
SPLINE
  5
D7
330
9B
100
AcDbEntity
  8
_U+30EC_U+30A4_U+30E4_U+30FC 1
 62
     7
370
     5
100
AcDbSpline
210
0.0
220
0.0
230
1.0
 70
    11
 71
     3
 72
    29
 73
    25
 74
     0
 42
0.0000000001
 43
0.0000000001
 12
1.0
 22
0.0
 32
0.0
 13
1.0
 23
0.0
 33
0.0
 40
0.0
 40
0.0
 40
0.0
 40
0.0
 40
1.0
 40
1.0
 40
1.0
 40
2.0
 40
2.0
 40
2.0
 40
3.0
 40
3.0
 40
3.0
 40
4.0
 40
4.0
 40
4.0
 40
5.0
 40
5.0
 40
5.0
 40
6.0
 40
6.0
 40
6.0
 40
7.0
 40
7.0
 40
7.0
 40
8.0
 40
8.0
 40
8.0
 40
8.0
 10
122.4249276628605
 20
92.89319456419047
 30
0.0
 10
122.4249276628605
 20
92.4942381854798
 30
0.0
 10
122.7463434879939
 20
92.17144652704825
 30
0.0
 10
123.1442415333982
 20
92.17144652704825
 30
0.0
 10
123.1442415333982
 20
92.17144652704825
 30
0.0
 10
160.4060758605474
 20
85.66710641521
 30
0.0
 10
160.4060758605474
 20
85.66710641521
 30
0.0
 10
160.8036211281829
 20
85.66710641521
 30
0.0
 10
161.1274711199208
 20
85.9909564069479
 30
0.0
 10
161.1274711199208
 20
86.38987750788169
 30
0.0
 10
161.1274711199208
 20
86.38987750788169
 30
0.0
 10
161.1274711199208
 20
130.6503994342573
 30
0.0
 10
161.1274711199208
 20
130.6503994342573
 30
0.0
 10
161.1274711199208
 20
131.0503788684974
 30
0.0
 10
160.8036211281829
 20
131.3742288602353
 30
0.0
 10
160.4060758605474
 20
131.3742288602353
 30
0.0
 10
160.4060758605474
 20
131.3742288602353
 30
0.0
 10
123.1442415333982
 20
135.5021520882565
 30
0.0
 10
123.1442415333982
 20
135.5021520882565
 30
0.0
 10
122.7463434879939
 20
135.5021520882565
 30
0.0
 10
122.4249276628605
 20
135.1795015409324
 30
0.0
 10
122.4249276628605
 20
134.7795221066923
 30
0.0
 10
122.4249276628605
 20
134.7795221066923
 30
0.0
 10
122.4249276628605
 20
92.89319456419047
 30
0.0
 10
122.4249276628605
 20
92.89319456419047
 30
0.0
  0
ENDBLK
  5
9E
330
9B
100
AcDbEntity
  8
0
100
AcDbBlockEnd
  0
ENDSEC
  0
SECTION
  2
ENTITIES
  0
INSERT
  5
42
330
1F
100
AcDbEntity
  8
_U+30EC_U+30A4_U+30E4_U+30FC 1
100
AcDbBlockReference
  2
block 2
 10
0.0
 20
0.0
 30
0.0
  0
INSERT
  5
9C
330
1F
100
AcDbEntity
  8
_U+30EC_U+30A4_U+30E4_U+30FC 1
100
AcDbBlockReference
  2
block 3
 10
0.0
 20
0.0
 30
0.0
  0
ENDSEC
  0
SECTION
  2
OBJECTS
  0
DICTIONARY
  5
C
330
0
100
AcDbDictionary
281
     1
  3
ACAD_GROUP
350
D
  3
ACAD_LAYOUT
350
1A
  3
ACAD_MATERIAL
350
3B
  3
ACAD_MLEADERSTYLE
350
F9
  3
ACAD_MLINESTYLE
350
17
  3
ACAD_PLOTSETTINGS
350
19
  3
ACAD_PLOTSTYLENAME
350
E
  3
ACAD_TABLESTYLE
350
F8
  3
ACAD_VISUALSTYLE
350
2A
  0
SUN
  5
3F
330
29
100
AcDbSun
 90
        1
290
     0
 63
     7
421
 16777215
 40
1.0
291
     1
 91
  2455826
 92
 54000000
292
     0
 70
     2
 71
   256
280
     1
  0
DICTIONARY
  5
D
102
{ACAD_REACTORS
330
C
102
}
330
C
100
AcDbDictionary
281
     1
  0
DICTIONARY
  5
1A
102
{ACAD_REACTORS
330
C
102
}
330
C
100
AcDbDictionary
281
     1
  3
Layout1
350
1E
  3
Layout2
350
26
  3
Model
350
22
  0
DICTIONARY
  5
3B
102
{ACAD_REACTORS
330
C
102
}
330
C
100
AcDbDictionary
281
     1
  3
ByBlock
350
3D
  3
ByLayer
350
3C
  3
Global
350
3E
  0
DICTIONARY
  5
F9
102
{ACAD_REACTORS
330
C
102
}
330
C
100
AcDbDictionary
281
     1
  0
DICTIONARY
  5
17
102
{ACAD_REACTORS
330
C
102
}
330
C
100
AcDbDictionary
281
     1
  3
Standard
350
18
  0
DICTIONARY
  5
19
102
{ACAD_REACTORS
330
C
102
}
330
C
100
AcDbDictionary
281
     1
  0
ACDBDICTIONARYWDFLT
  5
E
102
{ACAD_REACTORS
330
C
102
}
330
C
100
AcDbDictionary
281
     1
  3
Normal
350
F
100
AcDbDictionaryWithDefault
340
F
  0
DICTIONARY
  5
F8
102
{ACAD_REACTORS
330
C
102
}
330
C
100
AcDbDictionary
281
     1
  0
DICTIONARY
  5
2A
102
{ACAD_REACTORS
330
C
102
}
330
C
100
AcDbDictionary
281
     1
  3
2dWireframe
350
2F
  3
3D Hidden
350
31
  3
3dWireframe
350
30
  3
Basic
350
32
  3
Brighten
350
36
  3
ColorChange
350
3A
  3
Conceptual
350
34
  3
Dim
350
35
  3
Facepattern
350
39
  3
Flat
350
2B
  3
FlatWithEdges
350
2C
  3
Gouraud
350
2D
  3
GouraudWithEdges
350
2E
  3
Linepattern
350
38
  3
Realistic
350
33
  3
Thicken
350
37
  0
LAYOUT
  5
1E
102
{ACAD_REACTORS
330
1A
102
}
330
1A
100
AcDbPlotSettings
  1

  2
none_device
  4

  6

 40
0.0
 41
0.0
 42
0.0
 43
0.0
 44
0.0
 45
0.0
 46
0.0
 47
0.0
 48
0.0
 49
0.0
140
0.0
141
0.0
142
1.0
143
1.0
 70
   688
 72
     0
 73
     0
 74
     5
  7

 75
    16
 76
     0
 77
     2
 78
   300
147
1.0
148
0.0
149
0.0
100
AcDbLayout
  1
Layout1
 70
     1
 71
     1
 10
0.0
 20
0.0
 11
12.0
 21
9.0
 12
0.0
 22
0.0
 32
0.0
 14
1.000000000000000E+20
 24
1.000000000000000E+20
 34
1.000000000000000E+20
 15
-1.000000000000000E+20
 25
-1.000000000000000E+20
 35
-1.000000000000000E+20
146
0.0
 13
0.0
 23
0.0
 33
0.0
 16
1.0
 26
0.0
 36
0.0
 17
0.0
 27
1.0
 37
0.0
 76
     0
330
1B
  0
LAYOUT
  5
26
102
{ACAD_REACTORS
330
1A
102
}
330
1A
100
AcDbPlotSettings
  1

  2
none_device
  4

  6

 40
0.0
 41
0.0
 42
0.0
 43
0.0
 44
0.0
 45
0.0
 46
0.0
 47
0.0
 48
0.0
 49
0.0
140
0.0
141
0.0
142
1.0
143
1.0
 70
   688
 72
     0
 73
     0
 74
     5
  7

 75
    16
 76
     0
 77
     2
 78
   300
147
1.0
148
0.0
149
0.0
100
AcDbLayout
  1
Layout2
 70
     1
 71
     2
 10
0.0
 20
0.0
 11
0.0
 21
0.0
 12
0.0
 22
0.0
 32
0.0
 14
0.0
 24
0.0
 34
0.0
 15
0.0
 25
0.0
 35
0.0
146
0.0
 13
0.0
 23
0.0
 33
0.0
 16
1.0
 26
0.0
 36
0.0
 17
0.0
 27
1.0
 37
0.0
 76
     0
330
23
  0
LAYOUT
  5
22
102
{ACAD_REACTORS
330
1A
102
}
330
1A
100
AcDbPlotSettings
  1

  2
none_device
  4

  6

 40
0.0
 41
0.0
 42
0.0
 43
0.0
 44
0.0
 45
0.0
 46
0.0
 47
0.0
 48
0.0
 49
0.0
140
0.0
141
0.0
142
1.0
143
1.0
 70
  1712
 72
     0
 73
     0
 74
     0
  7

 75
     0
 76
     0
 77
     2
 78
   300
147
1.0
148
0.0
149
0.0
100
AcDbLayout
  1
Model
 70
     1
 71
     0
 10
0.0
 20
0.0
 11
12.0
 21
9.0
 12
0.0
 22
0.0
 32
0.0
 14
1.000000000000000E+20
 24
1.000000000000000E+20
 34
1.000000000000000E+20
 15
-1.000000000000000E+20
 25
-1.000000000000000E+20
 35
-1.000000000000000E+20
146
0.0
 13
0.0
 23
0.0
 33
0.0
 16
1.0
 26
0.0
 36
0.0
 17
0.0
 27
1.0
 37
0.0
 76
     0
330
1F
331
29
  0
MATERIAL
  5
3D
102
{ACAD_REACTORS
330
3B
102
}
330
3B
100
AcDbMaterial
  1
ByBlock
 72
     1
 94
      127
  0
MATERIAL
  5
3C
102
{ACAD_REACTORS
330
3B
102
}
330
3B
100
AcDbMaterial
  1
ByLayer
 72
     1
 94
      127
  0
MATERIAL
  5
3E
102
{ACAD_REACTORS
330
3B
102
}
330
3B
100
AcDbMaterial
  1
Global
 72
     1
 94
      127
  0
MLINESTYLE
  5
18
102
{ACAD_REACTORS
330
17
102
}
330
17
100
AcDbMlineStyle
  2
Standard
 70
     0
  3

 62
   256
 51
90.0
 52
90.0
 71
     2
 49
0.5
 62
   256
  6
BYLAYER
 49
-0.5
 62
   256
  6
BYLAYER
  0
ACDBPLACEHOLDER
  5
F
102
{ACAD_REACTORS
330
E
102
}
330
E
  0
VISUALSTYLE
  5
2F
102
{ACAD_REACTORS
330
2A
102
}
102
{ACAD_XDICTIONARY
360
E0
102
}
330
2A
100
AcDbVisualStyle
  2
2dWireframe
 70
     4
 71
     0
 72
     2
 73
     0
 90
        0
 40
-0.6
 41
-30.0
 62
     5
 63
     7
421
 16777215
 74
     1
 91
        4
 64
     7
 65
   257
 75
     1
175
     1
 42
1.0
 92
        0
 66
   257
 43
1.0
 76
     1
 77
     6
 78
     2
 67
     7
 79
     5
170
     0
171
     0
290
     0
174
     0
 93
        1
 44
0.0
173
     0
291
     0
 45
0.0
  0
VISUALSTYLE
  5
31
102
{ACAD_REACTORS
330
2A
102
}
102
{ACAD_XDICTIONARY
360
E4
102
}
330
2A
100
AcDbVisualStyle
  2
3D Hidden
 70
     6
 71
     1
 72
     2
 73
     2
 90
        0
 40
-0.6
 41
-30.0
 62
     5
 63
     7
421
 16777215
 74
     2
 91
        2
 64
     7
 65
   257
 75
     2
175
     1
 42
40.0
 92
        0
 66
   257
 43
1.0
 76
     1
 77
     6
 78
     2
 67
     7
 79
     3
170
     0
171
     0
290
     0
174
     0
 93
        1
 44
0.0
173
     0
291
     0
 45
0.0
  0
VISUALSTYLE
  5
30
102
{ACAD_REACTORS
330
2A
102
}
102
{ACAD_XDICTIONARY
360
E2
102
}
330
2A
100
AcDbVisualStyle
  2
3dWireframe
 70
     5
 71
     0
 72
     2
 73
     0
 90
        0
 40
-0.6
 41
-30.0
 62
     5
 63
     7
421
 16777215
 74
     1
 91
        4
 64
     7
 65
   257
 75
     1
175
     1
 42
1.0
 92
        0
 66
   257
 43
1.0
 76
     1
 77
     6
 78
     2
 67
     7
 79
     5
170
     0
171
     0
290
     0
174
     0
 93
        1
 44
0.0
173
     0
291
     0
 45
0.0
  0
VISUALSTYLE
  5
32
102
{ACAD_REACTORS
330
2A
102
}
102
{ACAD_XDICTIONARY
360
E6
102
}
330
2A
100
AcDbVisualStyle
  2
Basic
 70
     7
 71
     1
 72
     0
 73
     1
 90
        0
 40
-0.6
 41
-30.0
 62
     5
 63
     7
421
 16777215
 74
     0
 91
        4
 64
     7
 65
   257
 75
     1
175
     1
 42
1.0
 92
        8
 66
     7
 43
1.0
 76
     1
 77
     6
 78
     2
 67
     7
 79
     5
170
     0
171
     0
290
     0
174
     0
 93
        1
 44
0.0
173
     0
291
     1
 45
0.0
  0
VISUALSTYLE
  5
36
102
{ACAD_REACTORS
330
2A
102
}
102
{ACAD_XDICTIONARY
360
EE
102
}
330
2A
100
AcDbVisualStyle
  2
Brighten
 70
    12
 71
     2
 72
     2
 73
     0
 90
        0
 40
-0.6
 41
-30.0
 62
     5
 63
     7
421
 16777215
 74
     1
 91
        4
 64
     7
 65
   257
 75
     1
175
     1
 42
1.0
 92
        8
 66
     7
 43
1.0
 76
     1
 77
     6
 78
     2
 67
     7
 79
     5
170
     0
171
     0
290
     0
174
     0
 93
        1
 44
50.0
173
     0
291
     1
 45
0.0
  0
VISUALSTYLE
  5
3A
102
{ACAD_REACTORS
330
2A
102
}
102
{ACAD_XDICTIONARY
360
F6
102
}
330
2A
100
AcDbVisualStyle
  2
ColorChange
 70
    16
 71
     2
 72
     2
 73
     3
 90
        0
 40
-0.6
 41
-30.0
 62
     5
 63
     8
421
  8421504
 74
     1
 91
        4
 64
     7
 65
   257
 75
     1
175
     1
 42
1.0
 92
        8
 66
     8
424
  8421504
 43
1.0
 76
     1
 77
     6
 78
     2
 67
     7
 79
     5
170
     0
171
     0
290
     0
174
     0
 93
        1
 44
0.0
173
     0
291
     1
 45
0.0
  0
VISUALSTYLE
  5
34
102
{ACAD_REACTORS
330
2A
102
}
102
{ACAD_XDICTIONARY
360
EA
102
}
330
2A
100
AcDbVisualStyle
  2
Conceptual
 70
     9
 71
     3
 72
     2
 73
     0
 90
        0
 40
-0.6
 41
-30.0
 62
     5
 63
     7
421
 16777215
 74
     2
 91
        2
 64
     7
 65
   257
 75
     1
175
     1
 42
40.0
 92
        8
 66
     7
 43
1.0
 76
     1
 77
     6
 78
     2
 67
     7
 79
     3
170
     0
171
     0
290
     0
174
     0
 93
        1
 44
0.0
173
     0
291
     0
 45
0.0
  0
VISUALSTYLE
  5
35
102
{ACAD_REACTORS
330
2A
102
}
102
{ACAD_XDICTIONARY
360
EC
102
}
330
2A
100
AcDbVisualStyle
  2
Dim
 70
    11
 71
     2
 72
     2
 73
     0
 90
        0
 40
-0.6
 41
-30.0
 62
     5
 63
     7
421
 16777215
 74
     1
 91
        4
 64
     7
 65
   257
 75
     1
175
     1
 42
1.0
 92
        8
 66
     7
 43
1.0
 76
     1
 77
     6
 78
     2
 67
     7
 79
     5
170
     0
171
     0
290
     0
174
     0
 93
        1
 44
-50.0
173
     0
291
     1
 45
0.0
  0
VISUALSTYLE
  5
39
102
{ACAD_REACTORS
330
2A
102
}
102
{ACAD_XDICTIONARY
360
F4
102
}
330
2A
100
AcDbVisualStyle
  2
Facepattern
 70
    15
 71
     2
 72
     2
 73
     0
 90
        0
 40
-0.6
 41
-30.0
 62
     5
 63
     7
421
 16777215
 74
     1
 91
        4
 64
     7
 65
   257
 75
     1
175
     1
 42
1.0
 92
        8
 66
     7
 43
1.0
 76
     1
 77
     6
 78
     2
 67
     7
 79
     5
170
     0
171
     0
290
     0
174
     0
 93
        1
 44
0.0
173
     0
291
     1
 45
0.0
  0
VISUALSTYLE
  5
2B
102
{ACAD_REACTORS
330
2A
102
}
102
{ACAD_XDICTIONARY
360
D8
102
}
330
2A
100
AcDbVisualStyle
  2
Flat
 70
     0
 71
     2
 72
     1
 73
     1
 90
        2
 40
-0.6
 41
30.0
 62
     5
 63
     7
421
 16777215
 74
     0
 91
        4
 64
     7
 65
   257
 75
     1
175
     1
 42
1.0
 92
        8
 66
     7
 43
1.0
 76
     1
 77
     6
 78
     2
 67
     7
 79
     5
170
     0
171
     0
290
     0
174
     0
 93
       13
 44
0.0
173
     0
291
     1
 45
0.0
  0
VISUALSTYLE
  5
2C
102
{ACAD_REACTORS
330
2A
102
}
102
{ACAD_XDICTIONARY
360
DA
102
}
330
2A
100
AcDbVisualStyle
  2
FlatWithEdges
 70
     1
 71
     2
 72
     1
 73
     1
 90
        2
 40
-0.6
 41
30.0
 62
     5
 63
     7
421
 16777215
 74
     1
 91
        4
 64
     7
 65
   257
 75
     1
175
     1
 42
1.0
 92
        0
 66
   257
 43
1.0
 76
     1
 77
     6
 78
     2
 67
     7
 79
     5
170
     0
171
     0
290
     0
174
     0
 93
       13
 44
0.0
173
     0
291
     1
 45
0.0
  0
VISUALSTYLE
  5
2D
102
{ACAD_REACTORS
330
2A
102
}
102
{ACAD_XDICTIONARY
360
DC
102
}
330
2A
100
AcDbVisualStyle
  2
Gouraud
 70
     2
 71
     2
 72
     2
 73
     1
 90
        2
 40
-0.6
 41
30.0
 62
     5
 63
     7
421
 16777215
 74
     0
 91
        4
 64
     7
 65
   257
 75
     1
175
     1
 42
1.0
 92
        0
 66
     7
 43
1.0
 76
     1
 77
     6
 78
     2
 67
     7
 79
     5
170
     0
171
     0
290
     0
174
     0
 93
       13
 44
0.0
173
     0
291
     1
 45
0.0
  0
VISUALSTYLE
  5
2E
102
{ACAD_REACTORS
330
2A
102
}
102
{ACAD_XDICTIONARY
360
DE
102
}
330
2A
100
AcDbVisualStyle
  2
GouraudWithEdges
 70
     3
 71
     2
 72
     2
 73
     1
 90
        2
 40
-0.6
 41
30.0
 62
     5
 63
     7
421
 16777215
 74
     1
 91
        4
 64
     7
 65
   257
 75
     1
175
     1
 42
1.0
 92
        0
 66
   257
 43
1.0
 76
     1
 77
     6
 78
     2
 67
     7
 79
     5
170
     0
171
     0
290
     0
174
     0
 93
       13
 44
0.0
173
     0
291
     1
 45
0.0
  0
VISUALSTYLE
  5
38
102
{ACAD_REACTORS
330
2A
102
}
102
{ACAD_XDICTIONARY
360
F2
102
}
330
2A
100
AcDbVisualStyle
  2
Linepattern
 70
    14
 71
     2
 72
     2
 73
     0
 90
        0
 40
-0.6
 41
-30.0
 62
     5
 63
     7
421
 16777215
 74
     1
 91
        4
 64
     7
 65
   257
 75
     7
175
     7
 42
1.0
 92
        8
 66
     7
 43
1.0
 76
     1
 77
     6
 78
     2
 67
     7
 79
     5
170
     0
171
     0
290
     0
174
     0
 93
        1
 44
0.0
173
     0
291
     1
 45
0.0
  0
VISUALSTYLE
  5
33
102
{ACAD_REACTORS
330
2A
102
}
102
{ACAD_XDICTIONARY
360
E8
102
}
330
2A
100
AcDbVisualStyle
  2
Realistic
 70
     8
 71
     2
 72
     2
 73
     0
 90
        0
 40
-0.6
 41
-30.0
 62
     5
 63
     7
421
 16777215
 74
     1
 91
        0
 64
     7
 65
   257
 75
     1
175
     1
 42
1.0
 92
        8
 66
     8
424
  7895160
 43
1.0
 76
     1
 77
     6
 78
     2
 67
     7
 79
     5
170
     0
171
     0
290
     0
174
     0
 93
       13
 44
0.0
173
     0
291
     0
 45
0.0
  0
VISUALSTYLE
  5
37
102
{ACAD_REACTORS
330
2A
102
}
102
{ACAD_XDICTIONARY
360
F0
102
}
330
2A
100
AcDbVisualStyle
  2
Thicken
 70
    13
 71
     2
 72
     2
 73
     0
 90
        0
 40
-0.6
 41
-30.0
 62
     5
 63
     7
421
 16777215
 74
     1
 91
        4
 64
     7
 65
   257
 75
     1
175
     1
 42
1.0
 92
       12
 66
     7
 43
1.0
 76
     1
 77
     6
 78
     2
 67
     7
 79
     5
170
     0
171
     0
290
     0
174
     0
 93
        1
 44
0.0
173
     0
291
     1
 45
0.0
  0
DICTIONARY
  5
E0
330
2F
100
AcDbDictionary
280
     1
281
     1
  3
ACAD_XREC_ROUNDTRIP
360
E1
  0
DICTIONARY
  5
E4
330
31
100
AcDbDictionary
280
     1
281
     1
  3
ACAD_XREC_ROUNDTRIP
360
E5
  0
DICTIONARY
  5
E2
330
30
100
AcDbDictionary
280
     1
281
     1
  3
ACAD_XREC_ROUNDTRIP
360
E3
  0
DICTIONARY
  5
E6
330
32
100
AcDbDictionary
280
     1
281
     1
  3
ACAD_XREC_ROUNDTRIP
360
E7
  0
DICTIONARY
  5
EE
330
36
100
AcDbDictionary
280
     1
281
     1
  3
ACAD_XREC_ROUNDTRIP
360
EF
  0
DICTIONARY
  5
F6
330
3A
100
AcDbDictionary
280
     1
281
     1
  3
ACAD_XREC_ROUNDTRIP
360
F7
  0
DICTIONARY
  5
EA
330
34
100
AcDbDictionary
280
     1
281
     1
  3
ACAD_XREC_ROUNDTRIP
360
EB
  0
DICTIONARY
  5
EC
330
35
100
AcDbDictionary
280
     1
281
     1
  3
ACAD_XREC_ROUNDTRIP
360
ED
  0
DICTIONARY
  5
F4
330
39
100
AcDbDictionary
280
     1
281
     1
  3
ACAD_XREC_ROUNDTRIP
360
F5
  0
DICTIONARY
  5
D8
330
2B
100
AcDbDictionary
280
     1
281
     1
  3
ACAD_XREC_ROUNDTRIP
360
D9
  0
DICTIONARY
  5
DA
330
2C
100
AcDbDictionary
280
     1
281
     1
  3
ACAD_XREC_ROUNDTRIP
360
DB
  0
DICTIONARY
  5
DC
330
2D
100
AcDbDictionary
280
     1
281
     1
  3
ACAD_XREC_ROUNDTRIP
360
DD
  0
DICTIONARY
  5
DE
330
2E
100
AcDbDictionary
280
     1
281
     1
  3
ACAD_XREC_ROUNDTRIP
360
DF
  0
DICTIONARY
  5
F2
330
38
100
AcDbDictionary
280
     1
281
     1
  3
ACAD_XREC_ROUNDTRIP
360
F3
  0
DICTIONARY
  5
E8
330
33
100
AcDbDictionary
280
     1
281
     1
  3
ACAD_XREC_ROUNDTRIP
360
E9
  0
DICTIONARY
  5
F0
330
37
100
AcDbDictionary
280
     1
281
     1
  3
ACAD_XREC_ROUNDTRIP
360
F1
  0
XRECORD
  5
E1
102
{ACAD_REACTORS
330
E0
102
}
330
E0
100
AcDbXrecord
280
     1
102
RTVSPropertyOp0
 70
     1
102
RTVSPropertyOp1
 70
     1
102
RTVSPropertyOp2
 70
     1
102
RTVSPropertyOp3
 70
     1
102
RTVSPropertyOp4
 70
     1
102
RTVSPropertyOp5
 70
     1
102
RTVSPropertyOp6
 70
     1
102
RTVSPropertyOp7
 70
     1
102
RTVSPropertyOp8
 70
     1
102
RTVSPropertyOp9
 70
     1
102
RTVSPropertyOp10
 70
     1
102
RTVSPropertyOp11
 70
     1
102
RTVSPropertyOp12
 70
     1
102
RTVSPropertyOp13
 70
     1
102
RTVSPropertyOp14
 70
     1
102
RTVSPropertyOp15
 70
     1
102
RTVSPropertyOp16
 70
     1
102
RTVSPropertyOp17
 70
     1
102
RTVSPropertyOp18
 70
     1
102
RTVSPropertyOp19
 70
     1
102
RTVSPropertyOp20
 70
     1
102
RTVSPropertyOp21
 70
     1
102
RTVSPropertyOp22
 70
     1
102
RTVSPropertyOp23
 70
     1
102
RTVSPropertyOp24
 70
     1
102
RTVSPropertyOp25
 70
     1
102
RTVSPropertyOp26
 70
     1
102
RTVSPropertyOp27
 70
     1
102
RTVSPropertyOp28
 70
     1
102
RTVSPropertyOp29
 70
     1
102
RTVSPropertyOp30
 70
     1
102
RTVSPropertyOp31
 70
     1
102
RTVSPropertyOp32
 70
     1
  0
XRECORD
  5
E5
102
{ACAD_REACTORS
330
E4
102
}
330
E4
100
AcDbXrecord
280
     1
102
RTVSPropertyOp0
 70
     1
102
RTVSPropertyOp1
 70
     1
102
RTVSPropertyOp2
 70
     1
102
RTVSPropertyOp3
 70
     1
102
RTVSPropertyOp4
 70
     1
102
RTVSPropertyOp5
 70
     1
102
RTVSPropertyOp6
 70
     1
102
RTVSPropertyOp7
 70
     1
102
RTVSPropertyOp8
 70
     1
102
RTVSPropertyOp9
 70
     1
102
RTVSPropertyOp10
 70
     1
102
RTVSPropertyOp11
 70
     1
102
RTVSPropertyOp12
 70
     1
102
RTVSPropertyOp13
 70
     1
102
RTVSPropertyOp14
 70
     1
102
RTVSPropertyOp15
 70
     1
102
RTVSPropertyOp16
 70
     1
102
RTVSPropertyOp17
 70
     1
102
RTVSPropertyOp18
 70
     1
102
RTVSPropertyOp19
 70
     1
102
RTVSPropertyOp20
 70
     1
102
RTVSPropertyOp21
 70
     1
102
RTVSPropertyOp22
 70
     1
102
RTVSPropertyOp23
 70
     1
102
RTVSPropertyOp24
 70
     1
102
RTVSPropertyOp25
 70
     1
102
RTVSPropertyOp26
 70
     1
102
RTVSPropertyOp27
 70
     1
102
RTVSPropertyOp28
 70
     1
102
RTVSPropertyOp29
 70
     1
102
RTVSPropertyOp30
 70
     1
102
RTVSPropertyOp31
 70
     1
102
RTVSPropertyOp32
 70
     1
  0
XRECORD
  5
E3
102
{ACAD_REACTORS
330
E2
102
}
330
E2
100
AcDbXrecord
280
     1
102
RTVSPropertyOp0
 70
     1
102
RTVSPropertyOp1
 70
     1
102
RTVSPropertyOp2
 70
     1
102
RTVSPropertyOp3
 70
     1
102
RTVSPropertyOp4
 70
     1
102
RTVSPropertyOp5
 70
     1
102
RTVSPropertyOp6
 70
     1
102
RTVSPropertyOp7
 70
     1
102
RTVSPropertyOp8
 70
     1
102
RTVSPropertyOp9
 70
     1
102
RTVSPropertyOp10
 70
     1
102
RTVSPropertyOp11
 70
     1
102
RTVSPropertyOp12
 70
     1
102
RTVSPropertyOp13
 70
     1
102
RTVSPropertyOp14
 70
     1
102
RTVSPropertyOp15
 70
     1
102
RTVSPropertyOp16
 70
     1
102
RTVSPropertyOp17
 70
     1
102
RTVSPropertyOp18
 70
     1
102
RTVSPropertyOp19
 70
     1
102
RTVSPropertyOp20
 70
     1
102
RTVSPropertyOp21
 70
     1
102
RTVSPropertyOp22
 70
     1
102
RTVSPropertyOp23
 70
     1
102
RTVSPropertyOp24
 70
     1
102
RTVSPropertyOp25
 70
     1
102
RTVSPropertyOp26
 70
     1
102
RTVSPropertyOp27
 70
     1
102
RTVSPropertyOp28
 70
     1
102
RTVSPropertyOp29
 70
     1
102
RTVSPropertyOp30
 70
     1
102
RTVSPropertyOp31
 70
     1
102
RTVSPropertyOp32
 70
     1
  0
XRECORD
  5
E7
102
{ACAD_REACTORS
330
E6
102
}
330
E6
100
AcDbXrecord
280
     1
102
RTVSPropertyOp0
 70
     1
102
RTVSPropertyOp1
 70
     1
102
RTVSPropertyOp2
 70
     1
102
RTVSPropertyOp3
 70
     1
102
RTVSPropertyOp4
 70
     1
102
RTVSPropertyOp5
 70
     1
102
RTVSPropertyOp6
 70
     1
102
RTVSPropertyOp7
 70
     1
102
RTVSPropertyOp8
 70
     1
102
RTVSPropertyOp9
 70
     1
102
RTVSPropertyOp10
 70
     1
102
RTVSPropertyOp11
 70
     1
102
RTVSPropertyOp12
 70
     1
102
RTVSPropertyOp13
 70
     1
102
RTVSPropertyOp14
 70
     1
102
RTVSPropertyOp15
 70
     1
102
RTVSPropertyOp16
 70
     1
102
RTVSPropertyOp17
 70
     1
102
RTVSPropertyOp18
 70
     1
102
RTVSPropertyOp19
 70
     1
102
RTVSPropertyOp20
 70
     1
102
RTVSPropertyOp21
 70
     1
102
RTVSPropertyOp22
 70
     1
102
RTVSPropertyOp23
 70
     1
102
RTVSPropertyOp24
 70
     1
102
RTVSPropertyOp25
 70
     1
102
RTVSPropertyOp26
 70
     1
102
RTVSPropertyOp27
 70
     1
102
RTVSPropertyOp28
 70
     1
102
RTVSPropertyOp29
 70
     1
102
RTVSPropertyOp30
 70
     1
102
RTVSPropertyOp31
 70
     1
102
RTVSPropertyOp32
 70
     1
  0
XRECORD
  5
EF
102
{ACAD_REACTORS
330
EE
102
}
330
EE
100
AcDbXrecord
280
     1
102
RTVSPropertyOp0
 70
     1
102
RTVSPropertyOp1
 70
     1
102
RTVSPropertyOp2
 70
     1
102
RTVSPropertyOp3
 70
     1
102
RTVSPropertyOp4
 70
     1
102
RTVSPropertyOp5
 70
     1
102
RTVSPropertyOp6
 70
     1
102
RTVSPropertyOp7
 70
     1
102
RTVSPropertyOp8
 70
     1
102
RTVSPropertyOp9
 70
     1
102
RTVSPropertyOp10
 70
     1
102
RTVSPropertyOp11
 70
     1
102
RTVSPropertyOp12
 70
     1
102
RTVSPropertyOp13
 70
     1
102
RTVSPropertyOp14
 70
     1
102
RTVSPropertyOp15
 70
     1
102
RTVSPropertyOp16
 70
     1
102
RTVSPropertyOp17
 70
     1
102
RTVSPropertyOp18
 70
     1
102
RTVSPropertyOp19
 70
     1
102
RTVSPropertyOp20
 70
     1
102
RTVSPropertyOp21
 70
     1
102
RTVSPropertyOp22
 70
     1
102
RTVSPropertyOp23
 70
     1
102
RTVSPropertyOp24
 70
     1
102
RTVSPropertyOp25
 70
     1
102
RTVSPropertyOp26
 70
     1
102
RTVSPropertyOp27
 70
     1
102
RTVSPropertyOp28
 70
     1
102
RTVSPropertyOp29
 70
     1
102
RTVSPropertyOp30
 70
     1
102
RTVSPropertyOp31
 70
     1
102
RTVSPropertyOp32
 70
     1
  0
XRECORD
  5
F7
102
{ACAD_REACTORS
330
F6
102
}
330
F6
100
AcDbXrecord
280
     1
102
RTVSPropertyOp0
 70
     1
102
RTVSPropertyOp1
 70
     1
102
RTVSPropertyOp2
 70
     1
102
RTVSPropertyOp3
 70
     1
102
RTVSPropertyOp4
 70
     1
102
RTVSPropertyOp5
 70
     1
102
RTVSPropertyOp6
 70
     1
102
RTVSPropertyOp7
 70
     1
102
RTVSPropertyOp8
 70
     1
102
RTVSPropertyOp9
 70
     1
102
RTVSPropertyOp10
 70
     1
102
RTVSPropertyOp11
 70
     1
102
RTVSPropertyOp12
 70
     1
102
RTVSPropertyOp13
 70
     1
102
RTVSPropertyOp14
 70
     1
102
RTVSPropertyOp15
 70
     1
102
RTVSPropertyOp16
 70
     1
102
RTVSPropertyOp17
 70
     1
102
RTVSPropertyOp18
 70
     1
102
RTVSPropertyOp19
 70
     1
102
RTVSPropertyOp20
 70
     1
102
RTVSPropertyOp21
 70
     1
102
RTVSPropertyOp22
 70
     1
102
RTVSPropertyOp23
 70
     1
102
RTVSPropertyOp24
 70
     1
102
RTVSPropertyOp25
 70
     1
102
RTVSPropertyOp26
 70
     1
102
RTVSPropertyOp27
 70
     1
102
RTVSPropertyOp28
 70
     1
102
RTVSPropertyOp29
 70
     1
102
RTVSPropertyOp30
 70
     1
102
RTVSPropertyOp31
 70
     1
102
RTVSPropertyOp32
 70
     1
  0
XRECORD
  5
EB
102
{ACAD_REACTORS
330
EA
102
}
330
EA
100
AcDbXrecord
280
     1
102
RTVSPropertyOp0
 70
     1
102
RTVSPropertyOp1
 70
     1
102
RTVSPropertyOp2
 70
     1
102
RTVSPropertyOp3
 70
     1
102
RTVSPropertyOp4
 70
     1
102
RTVSPropertyOp5
 70
     1
102
RTVSPropertyOp6
 70
     1
102
RTVSPropertyOp7
 70
     1
102
RTVSPropertyOp8
 70
     1
102
RTVSPropertyOp9
 70
     1
102
RTVSPropertyOp10
 70
     1
102
RTVSPropertyOp11
 70
     1
102
RTVSPropertyOp12
 70
     1
102
RTVSPropertyOp13
 70
     1
102
RTVSPropertyOp14
 70
     1
102
RTVSPropertyOp15
 70
     1
102
RTVSPropertyOp16
 70
     1
102
RTVSPropertyOp17
 70
     1
102
RTVSPropertyOp18
 70
     1
102
RTVSPropertyOp19
 70
     1
102
RTVSPropertyOp20
 70
     1
102
RTVSPropertyOp21
 70
     1
102
RTVSPropertyOp22
 70
     1
102
RTVSPropertyOp23
 70
     1
102
RTVSPropertyOp24
 70
     1
102
RTVSPropertyOp25
 70
     1
102
RTVSPropertyOp26
 70
     1
102
RTVSPropertyOp27
 70
     1
102
RTVSPropertyOp28
 70
     1
102
RTVSPropertyOp29
 70
     1
102
RTVSPropertyOp30
 70
     1
102
RTVSPropertyOp31
 70
     1
102
RTVSPropertyOp32
 70
     1
  0
XRECORD
  5
ED
102
{ACAD_REACTORS
330
EC
102
}
330
EC
100
AcDbXrecord
280
     1
102
RTVSPropertyOp0
 70
     1
102
RTVSPropertyOp1
 70
     1
102
RTVSPropertyOp2
 70
     1
102
RTVSPropertyOp3
 70
     1
102
RTVSPropertyOp4
 70
     1
102
RTVSPropertyOp5
 70
     1
102
RTVSPropertyOp6
 70
     1
102
RTVSPropertyOp7
 70
     1
102
RTVSPropertyOp8
 70
     1
102
RTVSPropertyOp9
 70
     1
102
RTVSPropertyOp10
 70
     1
102
RTVSPropertyOp11
 70
     1
102
RTVSPropertyOp12
 70
     1
102
RTVSPropertyOp13
 70
     1
102
RTVSPropertyOp14
 70
     1
102
RTVSPropertyOp15
 70
     1
102
RTVSPropertyOp16
 70
     1
102
RTVSPropertyOp17
 70
     1
102
RTVSPropertyOp18
 70
     1
102
RTVSPropertyOp19
 70
     1
102
RTVSPropertyOp20
 70
     1
102
RTVSPropertyOp21
 70
     1
102
RTVSPropertyOp22
 70
     1
102
RTVSPropertyOp23
 70
     1
102
RTVSPropertyOp24
 70
     1
102
RTVSPropertyOp25
 70
     1
102
RTVSPropertyOp26
 70
     1
102
RTVSPropertyOp27
 70
     1
102
RTVSPropertyOp28
 70
     1
102
RTVSPropertyOp29
 70
     1
102
RTVSPropertyOp30
 70
     1
102
RTVSPropertyOp31
 70
     1
102
RTVSPropertyOp32
 70
     1
  0
XRECORD
  5
F5
102
{ACAD_REACTORS
330
F4
102
}
330
F4
100
AcDbXrecord
280
     1
102
RTVSPropertyOp0
 70
     1
102
RTVSPropertyOp1
 70
     1
102
RTVSPropertyOp2
 70
     1
102
RTVSPropertyOp3
 70
     1
102
RTVSPropertyOp4
 70
     1
102
RTVSPropertyOp5
 70
     1
102
RTVSPropertyOp6
 70
     1
102
RTVSPropertyOp7
 70
     1
102
RTVSPropertyOp8
 70
     1
102
RTVSPropertyOp9
 70
     1
102
RTVSPropertyOp10
 70
     1
102
RTVSPropertyOp11
 70
     1
102
RTVSPropertyOp12
 70
     1
102
RTVSPropertyOp13
 70
     1
102
RTVSPropertyOp14
 70
     1
102
RTVSPropertyOp15
 70
     1
102
RTVSPropertyOp16
 70
     1
102
RTVSPropertyOp17
 70
     1
102
RTVSPropertyOp18
 70
     1
102
RTVSPropertyOp19
 70
     1
102
RTVSPropertyOp20
 70
     1
102
RTVSPropertyOp21
 70
     1
102
RTVSPropertyOp22
 70
     1
102
RTVSPropertyOp23
 70
     1
102
RTVSPropertyOp24
 70
     1
102
RTVSPropertyOp25
 70
     1
102
RTVSPropertyOp26
 70
     1
102
RTVSPropertyOp27
 70
     1
102
RTVSPropertyOp28
 70
     1
102
RTVSPropertyOp29
 70
     1
102
RTVSPropertyOp30
 70
     1
102
RTVSPropertyOp31
 70
     1
102
RTVSPropertyOp32
 70
     1
  0
XRECORD
  5
D9
102
{ACAD_REACTORS
330
D8
102
}
330
D8
100
AcDbXrecord
280
     1
102
RTVSPropertyOp0
 70
     1
102
RTVSPropertyOp1
 70
     1
102
RTVSPropertyOp2
 70
     1
102
RTVSPropertyOp3
 70
     1
102
RTVSPropertyOp4
 70
     1
102
RTVSPropertyOp5
 70
     1
102
RTVSPropertyOp6
 70
     1
102
RTVSPropertyOp7
 70
     1
102
RTVSPropertyOp8
 70
     1
102
RTVSPropertyOp9
 70
     1
102
RTVSPropertyOp10
 70
     1
102
RTVSPropertyOp11
 70
     1
102
RTVSPropertyOp12
 70
     1
102
RTVSPropertyOp13
 70
     1
102
RTVSPropertyOp14
 70
     1
102
RTVSPropertyOp15
 70
     1
102
RTVSPropertyOp16
 70
     1
102
RTVSPropertyOp17
 70
     1
102
RTVSPropertyOp18
 70
     1
102
RTVSPropertyOp19
 70
     1
102
RTVSPropertyOp20
 70
     1
102
RTVSPropertyOp21
 70
     1
102
RTVSPropertyOp22
 70
     1
102
RTVSPropertyOp23
 70
     1
102
RTVSPropertyOp24
 70
     1
102
RTVSPropertyOp25
 70
     1
102
RTVSPropertyOp26
 70
     1
102
RTVSPropertyOp27
 70
     1
102
RTVSPropertyOp28
 70
     1
102
RTVSPropertyOp29
 70
     1
102
RTVSPropertyOp30
 70
     1
102
RTVSPropertyOp31
 70
     1
102
RTVSPropertyOp32
 70
     1
  0
XRECORD
  5
DB
102
{ACAD_REACTORS
330
DA
102
}
330
DA
100
AcDbXrecord
280
     1
102
RTVSPropertyOp0
 70
     1
102
RTVSPropertyOp1
 70
     1
102
RTVSPropertyOp2
 70
     1
102
RTVSPropertyOp3
 70
     1
102
RTVSPropertyOp4
 70
     1
102
RTVSPropertyOp5
 70
     1
102
RTVSPropertyOp6
 70
     1
102
RTVSPropertyOp7
 70
     1
102
RTVSPropertyOp8
 70
     1
102
RTVSPropertyOp9
 70
     1
102
RTVSPropertyOp10
 70
     1
102
RTVSPropertyOp11
 70
     1
102
RTVSPropertyOp12
 70
     1
102
RTVSPropertyOp13
 70
     1
102
RTVSPropertyOp14
 70
     1
102
RTVSPropertyOp15
 70
     1
102
RTVSPropertyOp16
 70
     1
102
RTVSPropertyOp17
 70
     1
102
RTVSPropertyOp18
 70
     1
102
RTVSPropertyOp19
 70
     1
102
RTVSPropertyOp20
 70
     1
102
RTVSPropertyOp21
 70
     1
102
RTVSPropertyOp22
 70
     1
102
RTVSPropertyOp23
 70
     1
102
RTVSPropertyOp24
 70
     1
102
RTVSPropertyOp25
 70
     1
102
RTVSPropertyOp26
 70
     1
102
RTVSPropertyOp27
 70
     1
102
RTVSPropertyOp28
 70
     1
102
RTVSPropertyOp29
 70
     1
102
RTVSPropertyOp30
 70
     1
102
RTVSPropertyOp31
 70
     1
102
RTVSPropertyOp32
 70
     1
  0
XRECORD
  5
DD
102
{ACAD_REACTORS
330
DC
102
}
330
DC
100
AcDbXrecord
280
     1
102
RTVSPropertyOp0
 70
     1
102
RTVSPropertyOp1
 70
     1
102
RTVSPropertyOp2
 70
     1
102
RTVSPropertyOp3
 70
     1
102
RTVSPropertyOp4
 70
     1
102
RTVSPropertyOp5
 70
     1
102
RTVSPropertyOp6
 70
     1
102
RTVSPropertyOp7
 70
     1
102
RTVSPropertyOp8
 70
     1
102
RTVSPropertyOp9
 70
     1
102
RTVSPropertyOp10
 70
     1
102
RTVSPropertyOp11
 70
     1
102
RTVSPropertyOp12
 70
     1
102
RTVSPropertyOp13
 70
     1
102
RTVSPropertyOp14
 70
     1
102
RTVSPropertyOp15
 70
     1
102
RTVSPropertyOp16
 70
     1
102
RTVSPropertyOp17
 70
     1
102
RTVSPropertyOp18
 70
     1
102
RTVSPropertyOp19
 70
     1
102
RTVSPropertyOp20
 70
     1
102
RTVSPropertyOp21
 70
     1
102
RTVSPropertyOp22
 70
     1
102
RTVSPropertyOp23
 70
     1
102
RTVSPropertyOp24
 70
     1
102
RTVSPropertyOp25
 70
     1
102
RTVSPropertyOp26
 70
     1
102
RTVSPropertyOp27
 70
     1
102
RTVSPropertyOp28
 70
     1
102
RTVSPropertyOp29
 70
     1
102
RTVSPropertyOp30
 70
     1
102
RTVSPropertyOp31
 70
     1
102
RTVSPropertyOp32
 70
     1
  0
XRECORD
  5
DF
102
{ACAD_REACTORS
330
DE
102
}
330
DE
100
AcDbXrecord
280
     1
102
RTVSPropertyOp0
 70
     1
102
RTVSPropertyOp1
 70
     1
102
RTVSPropertyOp2
 70
     1
102
RTVSPropertyOp3
 70
     1
102
RTVSPropertyOp4
 70
     1
102
RTVSPropertyOp5
 70
     1
102
RTVSPropertyOp6
 70
     1
102
RTVSPropertyOp7
 70
     1
102
RTVSPropertyOp8
 70
     1
102
RTVSPropertyOp9
 70
     1
102
RTVSPropertyOp10
 70
     1
102
RTVSPropertyOp11
 70
     1
102
RTVSPropertyOp12
 70
     1
102
RTVSPropertyOp13
 70
     1
102
RTVSPropertyOp14
 70
     1
102
RTVSPropertyOp15
 70
     1
102
RTVSPropertyOp16
 70
     1
102
RTVSPropertyOp17
 70
     1
102
RTVSPropertyOp18
 70
     1
102
RTVSPropertyOp19
 70
     1
102
RTVSPropertyOp20
 70
     1
102
RTVSPropertyOp21
 70
     1
102
RTVSPropertyOp22
 70
     1
102
RTVSPropertyOp23
 70
     1
102
RTVSPropertyOp24
 70
     1
102
RTVSPropertyOp25
 70
     1
102
RTVSPropertyOp26
 70
     1
102
RTVSPropertyOp27
 70
     1
102
RTVSPropertyOp28
 70
     1
102
RTVSPropertyOp29
 70
     1
102
RTVSPropertyOp30
 70
     1
102
RTVSPropertyOp31
 70
     1
102
RTVSPropertyOp32
 70
     1
  0
XRECORD
  5
F3
102
{ACAD_REACTORS
330
F2
102
}
330
F2
100
AcDbXrecord
280
     1
102
RTVSPropertyOp0
 70
     1
102
RTVSPropertyOp1
 70
     1
102
RTVSPropertyOp2
 70
     1
102
RTVSPropertyOp3
 70
     1
102
RTVSPropertyOp4
 70
     1
102
RTVSPropertyOp5
 70
     1
102
RTVSPropertyOp6
 70
     1
102
RTVSPropertyOp7
 70
     1
102
RTVSPropertyOp8
 70
     1
102
RTVSPropertyOp9
 70
     1
102
RTVSPropertyOp10
 70
     1
102
RTVSPropertyOp11
 70
     1
102
RTVSPropertyOp12
 70
     1
102
RTVSPropertyOp13
 70
     1
102
RTVSPropertyOp14
 70
     1
102
RTVSPropertyOp15
 70
     1
102
RTVSPropertyOp16
 70
     1
102
RTVSPropertyOp17
 70
     1
102
RTVSPropertyOp18
 70
     1
102
RTVSPropertyOp19
 70
     1
102
RTVSPropertyOp20
 70
     1
102
RTVSPropertyOp21
 70
     1
102
RTVSPropertyOp22
 70
     1
102
RTVSPropertyOp23
 70
     1
102
RTVSPropertyOp24
 70
     1
102
RTVSPropertyOp25
 70
     1
102
RTVSPropertyOp26
 70
     1
102
RTVSPropertyOp27
 70
     1
102
RTVSPropertyOp28
 70
     1
102
RTVSPropertyOp29
 70
     1
102
RTVSPropertyOp30
 70
     1
102
RTVSPropertyOp31
 70
     1
102
RTVSPropertyOp32
 70
     1
  0
XRECORD
  5
E9
102
{ACAD_REACTORS
330
E8
102
}
330
E8
100
AcDbXrecord
280
     1
102
RTVSPropertyOp0
 70
     1
102
RTVSPropertyOp1
 70
     1
102
RTVSPropertyOp2
 70
     1
102
RTVSPropertyOp3
 70
     1
102
RTVSPropertyOp4
 70
     1
102
RTVSPropertyOp5
 70
     1
102
RTVSPropertyOp6
 70
     1
102
RTVSPropertyOp7
 70
     1
102
RTVSPropertyOp8
 70
     1
102
RTVSPropertyOp9
 70
     1
102
RTVSPropertyOp10
 70
     1
102
RTVSPropertyOp11
 70
     1
102
RTVSPropertyOp12
 70
     1
102
RTVSPropertyOp13
 70
     1
102
RTVSPropertyOp14
 70
     1
102
RTVSPropertyOp15
 70
     1
102
RTVSPropertyOp16
 70
     1
102
RTVSPropertyOp17
 70
     1
102
RTVSPropertyOp18
 70
     1
102
RTVSPropertyOp19
 70
     1
102
RTVSPropertyOp20
 70
     1
102
RTVSPropertyOp21
 70
     1
102
RTVSPropertyOp22
 70
     1
102
RTVSPropertyOp23
 70
     1
102
RTVSPropertyOp24
 70
     1
102
RTVSPropertyOp25
 70
     1
102
RTVSPropertyOp26
 70
     1
102
RTVSPropertyOp27
 70
     1
102
RTVSPropertyOp28
 70
     1
102
RTVSPropertyOp29
 70
     1
102
RTVSPropertyOp30
 70
     1
102
RTVSPropertyOp31
 70
     1
102
RTVSPropertyOp32
 70
     1
  0
XRECORD
  5
F1
102
{ACAD_REACTORS
330
F0
102
}
330
F0
100
AcDbXrecord
280
     1
102
RTVSPropertyOp0
 70
     1
102
RTVSPropertyOp1
 70
     1
102
RTVSPropertyOp2
 70
     1
102
RTVSPropertyOp3
 70
     1
102
RTVSPropertyOp4
 70
     1
102
RTVSPropertyOp5
 70
     1
102
RTVSPropertyOp6
 70
     1
102
RTVSPropertyOp7
 70
     1
102
RTVSPropertyOp8
 70
     1
102
RTVSPropertyOp9
 70
     1
102
RTVSPropertyOp10
 70
     1
102
RTVSPropertyOp11
 70
     1
102
RTVSPropertyOp12
 70
     1
102
RTVSPropertyOp13
 70
     1
102
RTVSPropertyOp14
 70
     1
102
RTVSPropertyOp15
 70
     1
102
RTVSPropertyOp16
 70
     1
102
RTVSPropertyOp17
 70
     1
102
RTVSPropertyOp18
 70
     1
102
RTVSPropertyOp19
 70
     1
102
RTVSPropertyOp20
 70
     1
102
RTVSPropertyOp21
 70
     1
102
RTVSPropertyOp22
 70
     1
102
RTVSPropertyOp23
 70
     1
102
RTVSPropertyOp24
 70
     1
102
RTVSPropertyOp25
 70
     1
102
RTVSPropertyOp26
 70
     1
102
RTVSPropertyOp27
 70
     1
102
RTVSPropertyOp28
 70
     1
102
RTVSPropertyOp29
 70
     1
102
RTVSPropertyOp30
 70
     1
102
RTVSPropertyOp31
 70
     1
102
RTVSPropertyOp32
 70
     1
  0
ENDSEC
  0
EOF
