  0
SECTION
  2
HEADER
  9
$ACADVER
  1
AC1021
  9
$ACADMAINTVER
 70
    25
  9
$DWGCODEPAGE
  3
ANSI_932
  9
$INSBASE
 10
0.0
 20
0.0
 30
0.0
  9
$EXTMIN
 10
1.000000000000000E+20
 20
1.000000000000000E+20
 30
1.000000000000000E+20
  9
$EXTMAX
 10
-1.000000000000000E+20
 20
-1.000000000000000E+20
 30
-1.000000000000000E+20
  9
$LIMMIN
 10
0.0
 20
0.0
  9
$LIMMAX
 10
12.0
 20
9.0
  9
$ORTHOMODE
 70
     0
  9
$REGENMODE
 70
     1
  9
$FILLMODE
 70
     1
  9
$QTEXTMODE
 70
     0
  9
$MIRRTEXT
 70
     1
  9
$LTSCALE
 40
1.0
  9
$ATTMODE
 70
     1
  9
$TEXTSIZE
 40
0.2
  9
$TRACEWID
 40
0.05
  9
$TEXTSTYLE
  7
Standard
  9
$CLAYER
  8
0
  9
$CELTYPE
  6
ByLayer
  9
$CECOLOR
 62
   256
  9
$CELTSCALE
 40
1.0
  9
$DISPSILH
 70
     0
  9
$DIMSCALE
 40
1.0
  9
$DIMASZ
 40
0.18
  9
$DIMEXO
 40
0.0625
  9
$DIMDLI
 40
0.38
  9
$DIMRND
 40
0.0
  9
$DIMDLE
 40
0.0
  9
$DIMEXE
 40
0.18
  9
$DIMTP
 40
0.0
  9
$DIMTM
 40
0.0
  9
$DIMTXT
 40
0.18
  9
$DIMCEN
 40
0.09
  9
$DIMTSZ
 40
0.0
  9
$DIMTOL
 70
     0
  9
$DIMLIM
 70
     0
  9
$DIMTIH
 70
     1
  9
$DIMTOH
 70
     1
  9
$DIMSE1
 70
     0
  9
$DIMSE2
 70
     0
  9
$DIMTAD
 70
     0
  9
$DIMZIN
 70
     0
  9
$DIMBLK
  1

  9
$DIMASO
 70
     1
  9
$DIMSHO
 70
     1
  9
$DIMPOST
  1

  9
$DIMAPOST
  1

  9
$DIMALT
 70
     0
  9
$DIMALTD
 70
     2
  9
$DIMALTF
 40
25.4
  9
$DIMLFAC
 40
1.0
  9
$DIMTOFL
 70
     0
  9
$DIMTVP
 40
0.0
  9
$DIMTIX
 70
     0
  9
$DIMSOXD
 70
     0
  9
$DIMSAH
 70
     0
  9
$DIMBLK1
  1

  9
$DIMBLK2
  1

  9
$DIMSTYLE
  2
Standard
  9
$DIMCLRD
 70
     0
  9
$DIMCLRE
 70
     0
  9
$DIMCLRT
 70
     0
  9
$DIMTFAC
 40
1.0
  9
$DIMGAP
 40
0.09
  9
$DIMJUST
 70
     0
  9
$DIMSD1
 70
     0
  9
$DIMSD2
 70
     0
  9
$DIMTOLJ
 70
     1
  9
$DIMTZIN
 70
     0
  9
$DIMALTZ
 70
     0
  9
$DIMALTTZ
 70
     0
  9
$DIMUPT
 70
     0
  9
$DIMDEC
 70
     4
  9
$DIMTDEC
 70
     4
  9
$DIMALTU
 70
     2
  9
$DIMALTTD
 70
     2
  9
$DIMTXSTY
  7
Standard
  9
$DIMAUNIT
 70
     0
  9
$DIMADEC
 70
     0
  9
$DIMALTRND
 40
0.0
  9
$DIMAZIN
 70
     0
  9
$DIMDSEP
 70
    46
  9
$DIMATFIT
 70
     3
  9
$DIMFRAC
 70
     0
  9
$DIMLDRBLK
  1

  9
$DIMLUNIT
 70
     2
  9
$DIMLWD
 70
    -2
  9
$DIMLWE
 70
    -2
  9
$DIMTMOVE
 70
     0
  9
$DIMFXL
 40
1.0
  9
$DIMFXLON
 70
     0
  9
$DIMJOGANG
 40
0.7853981633974483
  9
$DIMTFILL
 70
     0
  9
$DIMTFILLCLR
 70
     0
  9
$DIMARCSYM
 70
     0
  9
$DIMLTYPE
  6

  9
$DIMLTEX1
  6

  9
$DIMLTEX2
  6

  9
$LUNITS
 70
     2
  9
$LUPREC
 70
     4
  9
$SKETCHINC
 40
0.1
  9
$FILLETRAD
 40
0.5
  9
$AUNITS
 70
     0
  9
$AUPREC
 70
     0
  9
$MENU
  1
.
  9
$ELEVATION
 40
0.0
  9
$PELEVATION
 40
0.0
  9
$THICKNESS
 40
0.0
  9
$LIMCHECK
 70
     0
  9
$CHAMFERA
 40
0.5
  9
$CHAMFERB
 40
0.5
  9
$CHAMFERC
 40
1.0
  9
$CHAMFERD
 40
0.0
  9
$SKPOLY
 70
     0
  9
$TDCREATE
 40
2458520.568257547
  9
$TDUCREATE
 40
2458520.193257547
  9
$TDUPDATE
 40
2458520.568257685
  9
$TDUUPDATE
 40
2458520.193257685
  9
$TDINDWG
 40
0.0000000116
  9
$TDUSRTIMER
 40
0.0000000116
  9
$USRTIMER
 70
     1
  9
$ANGBASE
 50
0.0
  9
$ANGDIR
 70
     0
  9
$PDMODE
 70
     0
  9
$PDSIZE
 40
0.0
  9
$PLINEWID
 40
0.0
  9
$SPLFRAME
 70
     0
  9
$SPLINETYPE
 70
     6
  9
$SPLINESEGS
 70
     8
  9
$HANDSEED
  5
233
  9
$SURFTAB1
 70
     6
  9
$SURFTAB2
 70
     6
  9
$SURFTYPE
 70
     6
  9
$SURFU
 70
     6
  9
$SURFV
 70
     6
  9
$UCSBASE
  2

  9
$UCSNAME
  2

  9
$UCSORG
 10
0.0
 20
0.0
 30
0.0
  9
$UCSXDIR
 10
1.0
 20
0.0
 30
0.0
  9
$UCSYDIR
 10
0.0
 20
1.0
 30
0.0
  9
$UCSORTHOREF
  2

  9
$UCSORTHOVIEW
 70
     0
  9
$UCSORGTOP
 10
0.0
 20
0.0
 30
0.0
  9
$UCSORGBOTTOM
 10
0.0
 20
0.0
 30
0.0
  9
$UCSORGLEFT
 10
0.0
 20
0.0
 30
0.0
  9
$UCSORGRIGHT
 10
0.0
 20
0.0
 30
0.0
  9
$UCSORGFRONT
 10
0.0
 20
0.0
 30
0.0
  9
$UCSORGBACK
 10
0.0
 20
0.0
 30
0.0
  9
$PUCSBASE
  2

  9
$PUCSNAME
  2

  9
$PUCSORG
 10
0.0
 20
0.0
 30
0.0
  9
$PUCSXDIR
 10
1.0
 20
0.0
 30
0.0
  9
$PUCSYDIR
 10
0.0
 20
1.0
 30
0.0
  9
$PUCSORTHOREF
  2

  9
$PUCSORTHOVIEW
 70
     0
  9
$PUCSORGTOP
 10
0.0
 20
0.0
 30
0.0
  9
$PUCSORGBOTTOM
 10
0.0
 20
0.0
 30
0.0
  9
$PUCSORGLEFT
 10
0.0
 20
0.0
 30
0.0
  9
$PUCSORGRIGHT
 10
0.0
 20
0.0
 30
0.0
  9
$PUCSORGFRONT
 10
0.0
 20
0.0
 30
0.0
  9
$PUCSORGBACK
 10
0.0
 20
0.0
 30
0.0
  9
$USERI1
 70
     0
  9
$USERI2
 70
     0
  9
$USERI3
 70
     0
  9
$USERI4
 70
     0
  9
$USERI5
 70
     0
  9
$USERR1
 40
0.0
  9
$USERR2
 40
0.0
  9
$USERR3
 40
0.0
  9
$USERR4
 40
0.0
  9
$USERR5
 40
0.0
  9
$WORLDVIEW
 70
     1
  9
$SHADEDGE
 70
     3
  9
$SHADEDIF
 70
    70
  9
$TILEMODE
 70
     1
  9
$MAXACTVP
 70
    64
  9
$PINSBASE
 10
0.0
 20
0.0
 30
0.0
  9
$PLIMCHECK
 70
     0
  9
$PEXTMIN
 10
1.000000000000000E+20
 20
1.000000000000000E+20
 30
1.000000000000000E+20
  9
$PEXTMAX
 10
-1.000000000000000E+20
 20
-1.000000000000000E+20
 30
-1.000000000000000E+20
  9
$PLIMMIN
 10
0.0
 20
0.0
  9
$PLIMMAX
 10
12.0
 20
9.0
  9
$UNITMODE
 70
     0
  9
$VISRETAIN
 70
     1
  9
$PLINEGEN
 70
     0
  9
$PSLTSCALE
 70
     1
  9
$TREEDEPTH
 70
  3020
  9
$CMLSTYLE
  2
Standard
  9
$CMLJUST
 70
     0
  9
$CMLSCALE
 40
1.0
  9
$PROXYGRAPHICS
 70
     1
  9
$MEASUREMENT
 70
     0
  9
$CELWEIGHT
370
    -1
  9
$ENDCAPS
280
     0
  9
$JOINSTYLE
280
     0
  9
$LWDISPLAY
290
     1
  9
$INSUNITS
 70
     1
  9
$HYPERLINKBASE
  1

  9
$STYLESHEET
  1

  9
$XEDIT
290
     1
  9
$CEPSNTYPE
380
     0
  9
$PSTYLEMODE
290
     1
  9
$FINGERPRINTGUID
  2
{ACA99D95-8BF2-406A-A6D2-E1A400F9E6F3}
  9
$VERSIONGUID
  2
{FAEB1C32-E019-11D5-929B-00C0DF256EC4}
  9
$EXTNAMES
290
     1
  9
$PSVPSCALE
 40
0.0
  9
$OLESTARTUP
290
     0
  9
$SORTENTS
280
   127
  9
$INDEXCTL
280
     0
  9
$HIDETEXT
280
     1
  9
$XCLIPFRAME
290
     0
  9
$HALOGAP
280
     0
  9
$OBSCOLOR
 70
   257
  9
$OBSLTYPE
280
     0
  9
$INTERSECTIONDISPLAY
280
     0
  9
$INTERSECTIONCOLOR
 70
   257
  9
$DIMASSOC
280
     2
  9
$PROJECTNAME
  1

  9
$CAMERADISPLAY
290
     0
  9
$LENSLENGTH
 40
50.0
  9
$CAMERAHEIGHT
 40
0.0
  9
$STEPSPERSEC
 40
2.0
  9
$STEPSIZE
 40
6.0
  9
$3DDWFPREC
 40
2.0
  9
$PSOLWIDTH
 40
0.25
  9
$PSOLHEIGHT
 40
4.0
  9
$LOFTANG1
 40
1.570796326794897
  9
$LOFTANG2
 40
1.570796326794897
  9
$LOFTMAG1
 40
0.0
  9
$LOFTMAG2
 40
0.0
  9
$LOFTPARAM
 70
     7
  9
$LOFTNORMALS
280
     1
  9
$LATITUDE
 40
37.795
  9
$LONGITUDE
 40
-122.394
  9
$NORTHDIRECTION
 40
0.0
  9
$TIMEZONE
 70
 -8000
  9
$LIGHTGLYPHDISPLAY
280
     1
  9
$TILEMODELIGHTSYNCH
280
     1
  9
$CMATERIAL
347
3C
  9
$SOLIDHIST
280
     1
  9
$SHOWHIST
280
     1
  9
$DWFFRAME
280
     2
  9
$DGNFRAME
280
     2
  9
$REALWORLDSCALE
290
     1
  9
$INTERFERECOLOR
 62
   256
  9
$CSHADOW
280
     0
  9
$SHADOWPLANELOCATION
 40
0.0
  0
ENDSEC
  0
SECTION
  2
CLASSES
  0
CLASS
  1
ACDBDICTIONARYWDFLT
  2
AcDbDictionaryWithDefault
  3
ObjectDBX Classes
 90
        0
 91
        4
280
     0
281
     0
  0
CLASS
  1
VISUALSTYLE
  2
AcDbVisualStyle
  3
ObjectDBX Classes
 90
     4095
 91
        4
280
     0
281
     0
  0
CLASS
  1
MATERIAL
  2
AcDbMaterial
  3
ObjectDBX Classes
 90
     1153
 91
        4
280
     0
281
     0
  0
CLASS
  1
SUN
  2
AcDbSun
  3
SCENEOE
 90
     1024
 91
        4
280
     0
281
     0
  0
ENDSEC
  0
SECTION
  2
TABLES
  0
TABLE
  2
VPORT
  5
8
330
0
100
AcDbSymbolTable
 70
     1
  0
VPORT
  5
29
330
8
100
AcDbSymbolTableRecord
100
AcDbViewportTableRecord
  2
*Active
 70
     0
 10
0.0
 20
0.0
 11
1.0
 21
1.0
 12
0.0
 22
0.0
 13
0.0
 23
0.0
 14
0.5
 24
0.5
 15
0.5
 25
0.5
 16
0.0
 26
0.0
 36
1.0
 17
148.3916656437123
 27
104.8915941359208
 37
0.0
 40
297.0000052006764
 41
0.7070706878738762
 42
50.0
 43
0.0
 44
0.0
 50
0.0
 51
0.0
 71
     0
 72
   100
 73
     1
 74
     3
 75
     0
 76
     0
 77
     0
 78
     0
281
     0
 65
     1
110
0.0
120
0.0
130
0.0
111
1.0
121
0.0
131
0.0
112
0.0
122
1.0
132
0.0
 79
     0
146
0.0
 60
     3
 61
     5
292
     1
282
     1
141
0.0
142
0.0
 63
   250
361
3F
  0
ENDTAB
  0
TABLE
  2
LTYPE
  5
5
330
0
100
AcDbSymbolTable
 70
     1
  0
LTYPE
  5
14
330
5
100
AcDbSymbolTableRecord
100
AcDbLinetypeTableRecord
  2
ByBlock
 70
     0
  3

 72
    65
 73
     0
 40
0.0
  0
LTYPE
  5
15
330
5
100
AcDbSymbolTableRecord
100
AcDbLinetypeTableRecord
  2
ByLayer
 70
     0
  3

 72
    65
 73
     0
 40
0.0
  0
LTYPE
  5
16
330
5
100
AcDbSymbolTableRecord
100
AcDbLinetypeTableRecord
  2
Continuous
 70
     0
  3
Solid line
 72
    65
 73
     0
 40
0.0
  0
ENDTAB
  0
TABLE
  2
LAYER
  5
2
330
0
100
AcDbSymbolTable
 70
     2
  0
LAYER
  5
10
330
2
100
AcDbSymbolTableRecord
100
AcDbLayerTableRecord
  2
0
 70
     0
 62
     7
  6
Continuous
370
    -3
390
F
347
3E
  0
LAYER
  5
40
330
2
100
AcDbSymbolTableRecord
100
AcDbLayerTableRecord
  2
_U+30EC_U+30A4_U+30E4_U+30FC 1
 70
     0
 62
     7
  6
Continuous
370
    -3
390
F
347
3E
  0
ENDTAB
  0
TABLE
  2
STYLE
  5
3
330
0
100
AcDbSymbolTable
 70
     1
  0
STYLE
  5
11
330
3
100
AcDbSymbolTableRecord
100
AcDbTextStyleTableRecord
  2
Standard
 70
     0
 40
0.0
 41
1.0
 50
0.0
 71
     0
 42
0.2
  3
txt
  4

  0
ENDTAB
  0
TABLE
  2
VIEW
  5
6
330
0
100
AcDbSymbolTable
 70
     0
  0
ENDTAB
  0
TABLE
  2
UCS
  5
7
330
0
100
AcDbSymbolTable
 70
     0
  0
ENDTAB
  0
TABLE
  2
APPID
  5
9
330
0
100
AcDbSymbolTable
 70
     1
  0
APPID
  5
12
330
9
100
AcDbSymbolTableRecord
100
AcDbRegAppTableRecord
  2
ACAD
 70
     0
  0
ENDTAB
  0
TABLE
  2
DIMSTYLE
  5
A
330
0
100
AcDbSymbolTable
 70
     1
100
AcDbDimStyleTable
  0
DIMSTYLE
105
27
330
A
100
AcDbSymbolTableRecord
100
AcDbDimStyleTableRecord
  2
Standard
 70
     0
178
     0
340
11
  0
ENDTAB
  0
TABLE
  2
BLOCK_RECORD
  5
1
330
0
100
AcDbSymbolTable
 70
     9
  0
BLOCK_RECORD
  5
1F
330
1
100
AcDbSymbolTableRecord
100
AcDbBlockTableRecord
  2
*Model_Space
340
22
 70
     0
280
     1
281
     0
  0
BLOCK_RECORD
  5
1B
330
1
100
AcDbSymbolTableRecord
100
AcDbBlockTableRecord
  2
*Paper_Space
340
1E
 70
     0
280
     1
281
     0
  0
BLOCK_RECORD
  5
23
330
1
100
AcDbSymbolTableRecord
100
AcDbBlockTableRecord
  2
*Paper_Space0
340
26
 70
     0
280
     1
281
     0
  0
BLOCK_RECORD
  5
41
330
1
100
AcDbSymbolTableRecord
100
AcDbBlockTableRecord
  2
block 2
340
0
102
{BLKREFS
331
42
102
}
 70
     0
280
     1
281
     0
  0
BLOCK_RECORD
  5
5E
330
1
100
AcDbSymbolTableRecord
100
AcDbBlockTableRecord
  2
block 3
340
0
102
{BLKREFS
331
5F
102
}
 70
     0
280
     1
281
     0
  0
BLOCK_RECORD
  5
7A
330
1
100
AcDbSymbolTableRecord
100
AcDbBlockTableRecord
  2
block 4
340
0
102
{BLKREFS
331
7B
102
}
 70
     0
280
     1
281
     0
  0
BLOCK_RECORD
  5
8F
330
1
100
AcDbSymbolTableRecord
100
AcDbBlockTableRecord
  2
block 5
340
0
102
{BLKREFS
331
90
102
}
 70
     0
280
     1
281
     0
  0
BLOCK_RECORD
  5
E2
330
1
100
AcDbSymbolTableRecord
100
AcDbBlockTableRecord
  2
block 6
340
0
102
{BLKREFS
331
E3
102
}
 70
     0
280
     1
281
     0
  0
BLOCK_RECORD
  5
132
330
1
100
AcDbSymbolTableRecord
100
AcDbBlockTableRecord
  2
block 7
340
0
102
{BLKREFS
331
133
102
}
 70
     0
280
     1
281
     0
  0
BLOCK_RECORD
  5
16C
330
1
100
AcDbSymbolTableRecord
100
AcDbBlockTableRecord
  2
block 8
340
0
102
{BLKREFS
331
16D
102
}
 70
     0
280
     1
281
     0
  0
BLOCK_RECORD
  5
1BF
330
1
100
AcDbSymbolTableRecord
100
AcDbBlockTableRecord
  2
block 9
340
0
102
{BLKREFS
331
1C0
102
}
 70
     0
280
     1
281
     0
  0
ENDTAB
  0
ENDSEC
  0
SECTION
  2
BLOCKS
  0
BLOCK
  5
20
330
1F
100
AcDbEntity
  8
0
100
AcDbBlockBegin
  2
*Model_Space
 70
     0
 10
0.0
 20
0.0
 30
0.0
  3
*Model_Space
  1

  0
ENDBLK
  5
21
330
1F
100
AcDbEntity
  8
0
100
AcDbBlockEnd
  0
BLOCK
  5
1C
330
1B
100
AcDbEntity
 67
     1
  8
0
100
AcDbBlockBegin
  2
*Paper_Space
 70
     0
 10
0.0
 20
0.0
 30
0.0
  3
*Paper_Space
  1

  0
ENDBLK
  5
1D
330
1B
100
AcDbEntity
 67
     1
  8
0
100
AcDbBlockEnd
  0
BLOCK
  5
24
330
23
100
AcDbEntity
  8
0
100
AcDbBlockBegin
  2
*Paper_Space0
 70
     0
 10
0.0
 20
0.0
 30
0.0
  3
*Paper_Space0
  1

  0
ENDBLK
  5
25
330
23
100
AcDbEntity
  8
0
100
AcDbBlockEnd
  0
BLOCK
  5
43
330
41
100
AcDbEntity
  8
0
100
AcDbBlockBegin
  2
block 2
 70
     0
 10
0.0
 20
0.0
 30
0.0
  3
block 2
  1

  0
SPLINE
  5
45
330
41
100
AcDbEntity
  8
_U+30EC_U+30A4_U+30E4_U+30FC 1
370
     0
100
AcDbSpline
210
0.0
220
0.0
230
1.0
 70
    11
 71
     3
 72
    68
 73
    64
 74
     0
 42
0.0000000001
 43
0.0000000001
 12
1.0
 22
0.0
 32
0.0
 13
1.0
 23
0.0
 33
0.0
 40
0.0
 40
0.0
 40
0.0
 40
0.0
 40
1.0
 40
1.0
 40
1.0
 40
2.0
 40
2.0
 40
2.0
 40
3.0
 40
3.0
 40
3.0
 40
4.0
 40
4.0
 40
4.0
 40
5.0
 40
5.0
 40
5.0
 40
6.0
 40
6.0
 40
6.0
 40
7.0
 40
7.0
 40
7.0
 40
8.0
 40
8.0
 40
8.0
 40
9.0
 40
9.0
 40
9.0
 40
10.0
 40
10.0
 40
10.0
 40
11.0
 40
11.0
 40
11.0
 40
12.0
 40
12.0
 40
12.0
 40
13.0
 40
13.0
 40
13.0
 40
14.0
 40
14.0
 40
14.0
 40
15.0
 40
15.0
 40
15.0
 40
16.0
 40
16.0
 40
16.0
 40
17.0
 40
17.0
 40
17.0
 40
18.0
 40
18.0
 40
18.0
 40
19.0
 40
19.0
 40
19.0
 40
20.0
 40
20.0
 40
20.0
 40
21.0
 40
21.0
 40
21.0
 40
21.0
 10
141.5531070374643
 20
122.3262229004301
 30
0.0
 10
141.5534598152331
 20
122.2456103735633
 30
0.0
 10
141.5158889828583
 20
122.2142484299189
 30
0.0
 10
141.4704159284629
 20
122.25231315117
 30
0.0
 10
141.4704159284629
 20
122.25231315117
 30
0.0
 10
139.1691054316186
 20
124.1763983798603
 30
0.0
 10
139.1691054316186
 20
124.1763983798603
 30
0.0
 10
138.4590696163998
 20
124.7703350313744
 30
0.0
 10
137.8813254644726
 20
126.231399438544
 30
0.0
 10
137.8792793534137
 20
127.4402982965913
 30
0.0
 10
137.8771979645779
 20
128.648491599101
 30
0.0
 10
138.4514848943711
 20
129.1464756765027
 30
0.0
 10
139.1615207095899
 20
128.5530652126467
 30
0.0
 10
139.1615207095899
 20
128.5530652126467
 30
0.0
 10
140.0586345755915
 20
127.802883287341
 30
0.0
 10
140.0586345755915
 20
127.802883287341
 30
0.0
 10
140.1054834632852
 20
127.763619121676
 30
0.0
 10
140.1425251290069
 20
127.6686895657612
 30
0.0
 10
140.1428779067756
 20
127.5886090102254
 30
0.0
 10
140.1428779067756
 20
127.5886090102254
 30
0.0
 10
140.1451004067189
 20
126.1993701216841
 30
0.0
 10
140.1451004067189
 20
126.1993701216841
 30
0.0
 10
140.1452767956033
 20
126.1213327746853
 30
0.0
 10
140.108411518766
 20
126.0882774977509
 30
0.0
 10
140.061386242188
 20
126.1277180523002
 30
0.0
 10
140.061386242188
 20
126.1277180523002
 30
0.0
 10
139.2293951523027
 20
126.8220552568084
 30
0.0
 10
139.2293951523027
 20
126.8220552568084
 30
0.0
 10
139.0648948787217
 20
126.9593563644167
 30
0.0
 10
138.9310509932475
 20
126.8436099784807
 30
0.0
 10
138.931756548785
 20
126.5633280411869
 30
0.0
 10
138.9320740487769
 20
126.2820583261404
 30
0.0
 10
139.0667998786731
 20
125.9402872237486
 30
0.0
 10
139.2311237633697
 20
125.8030213939172
 30
0.0
 10
139.2311237633697
 20
125.8030213939172
 30
0.0
 10
140.3962429003117
 20
124.831330307596
 30
0.0
 10
140.3962429003117
 20
124.831330307596
 30
0.0
 10
140.3962429003117
 20
124.831330307596
 30
0.0
 10
140.3910923448876
 20
127.7656652327349
 30
0.0
 10
140.3910923448876
 20
127.7656652327349
 30
0.0
 10
140.39038678935
 20
128.1952779995524
 30
0.0
 10
140.1857404056821
 20
128.7135790974405
 30
0.0
 10
139.9320226343772
 20
128.9256367876692
 30
0.0
 10
139.9320226343772
 20
128.9256367876692
 30
0.0
 10
138.2955923983482
 20
130.2940235015645
 30
0.0
 10
138.2955923983482
 20
130.2940235015645
 30
0.0
 10
138.2480732328939
 20
130.333993222767
 30
0.0
 10
138.2106787894035
 20
130.4282201648075
 30
0.0
 10
138.2106787894035
 20
130.5079832183281
 30
0.0
 10
138.2106787894035
 20
130.5079832183281
 30
0.0
 10
138.2082799005758
 20
131.9029017938519
 30
0.0
 10
138.2082799005758
 20
131.9029017938519
 30
0.0
 10
138.2082799005758
 20
131.9812537362974
 30
0.0
 10
138.2449687885286
 20
132.0153673465382
 30
0.0
 10
138.2926643428674
 20
131.9757534535733
 30
0.0
 10
138.2926643428674
 20
131.9757534535733
 30
0.0
 10
140.2518862373279
 20
130.337100676205
 30
0.0
 10
140.2518862373279
 20
130.337100676205
 30
0.0
 10
140.9665787190946
 20
129.7395274045997
 30
0.0
 10
141.5429470377235
 20
128.2757113308337
 30
0.0
 10
141.5452048154437
 20
127.0599333062952
 30
0.0
 10
141.5452048154437
 20
127.0599333062952
 30
0.0
 10
141.5531070374643
 20
122.3262229004301
 30
0.0
 10
141.5531070374643
 20
122.3262229004301
 30
0.0
  0
HATCH
  5
46
330
41
100
AcDbEntity
  8
_U+30EC_U+30A4_U+30E4_U+30FC 1
 62
     7
100
AcDbHatch
 10
0.0
 20
0.0
 30
0.0
210
0.0
220
0.0
230
1.0
  2
SOLID
 70
     1
 71
     0
 91
        1
 92
        1
 93
        1
 72
     4
 94
        3
 73
     0
 74
     1
 95
       68
 96
       64
 40
0.0
 40
0.0
 40
0.0
 40
0.0
 40
1.0
 40
1.0
 40
1.0
 40
2.0
 40
2.0
 40
2.0
 40
3.0
 40
3.0
 40
3.0
 40
4.0
 40
4.0
 40
4.0
 40
5.0
 40
5.0
 40
5.0
 40
6.0
 40
6.0
 40
6.0
 40
7.0
 40
7.0
 40
7.0
 40
8.0
 40
8.0
 40
8.0
 40
9.0
 40
9.0
 40
9.0
 40
10.0
 40
10.0
 40
10.0
 40
11.0
 40
11.0
 40
11.0
 40
12.0
 40
12.0
 40
12.0
 40
13.0
 40
13.0
 40
13.0
 40
14.0
 40
14.0
 40
14.0
 40
15.0
 40
15.0
 40
15.0
 40
16.0
 40
16.0
 40
16.0
 40
17.0
 40
17.0
 40
17.0
 40
18.0
 40
18.0
 40
18.0
 40
19.0
 40
19.0
 40
19.0
 40
20.0
 40
20.0
 40
20.0
 40
21.0
 40
21.0
 40
21.0
 40
21.0
 10
141.5531070374643
 20
122.3262229004301
 10
141.5534598152331
 20
122.2456103735633
 10
141.5158889828583
 20
122.2142484299189
 10
141.4704159284629
 20
122.25231315117
 10
141.4704159284629
 20
122.25231315117
 10
139.1691054316186
 20
124.1763983798603
 10
139.1691054316186
 20
124.1763983798603
 10
138.4590696163998
 20
124.7703350313744
 10
137.8813254644726
 20
126.231399438544
 10
137.8792793534137
 20
127.4402982965913
 10
137.8771979645779
 20
128.648491599101
 10
138.4514848943711
 20
129.1464756765027
 10
139.1615207095899
 20
128.5530652126467
 10
139.1615207095899
 20
128.5530652126467
 10
140.0586345755915
 20
127.802883287341
 10
140.0586345755915
 20
127.802883287341
 10
140.1054834632852
 20
127.763619121676
 10
140.1425251290069
 20
127.6686895657612
 10
140.1428779067756
 20
127.5886090102254
 10
140.1428779067756
 20
127.5886090102254
 10
140.1451004067189
 20
126.1993701216841
 10
140.1451004067189
 20
126.1993701216841
 10
140.1452767956033
 20
126.1213327746853
 10
140.108411518766
 20
126.0882774977509
 10
140.061386242188
 20
126.1277180523002
 10
140.061386242188
 20
126.1277180523002
 10
139.2293951523027
 20
126.8220552568084
 10
139.2293951523027
 20
126.8220552568084
 10
139.0648948787217
 20
126.9593563644167
 10
138.9310509932475
 20
126.8436099784807
 10
138.931756548785
 20
126.5633280411869
 10
138.9320740487769
 20
126.2820583261404
 10
139.0667998786731
 20
125.9402872237486
 10
139.2311237633697
 20
125.8030213939172
 10
139.2311237633697
 20
125.8030213939172
 10
140.3962429003117
 20
124.831330307596
 10
140.3962429003117
 20
124.831330307596
 10
140.3962429003117
 20
124.831330307596
 10
140.3910923448876
 20
127.7656652327349
 10
140.3910923448876
 20
127.7656652327349
 10
140.39038678935
 20
128.1952779995524
 10
140.1857404056821
 20
128.7135790974405
 10
139.9320226343772
 20
128.9256367876692
 10
139.9320226343772
 20
128.9256367876692
 10
138.2955923983482
 20
130.2940235015645
 10
138.2955923983482
 20
130.2940235015645
 10
138.2480732328939
 20
130.333993222767
 10
138.2106787894035
 20
130.4282201648075
 10
138.2106787894035
 20
130.5079832183281
 10
138.2106787894035
 20
130.5079832183281
 10
138.2082799005758
 20
131.9029017938519
 10
138.2082799005758
 20
131.9029017938519
 10
138.2082799005758
 20
131.9812537362974
 10
138.2449687885286
 20
132.0153673465382
 10
138.2926643428674
 20
131.9757534535733
 10
138.2926643428674
 20
131.9757534535733
 10
140.2518862373279
 20
130.337100676205
 10
140.2518862373279
 20
130.337100676205
 10
140.9665787190946
 20
129.7395274045997
 10
141.5429470377235
 20
128.2757113308337
 10
141.5452048154437
 20
127.0599333062952
 10
141.5452048154437
 20
127.0599333062952
 10
141.5531070374643
 20
122.3262229004301
 10
141.5531070374643
 20
122.3262229004301
 97
        0
 75
     2
 76
     1
 98
        0
  0
SPLINE
  5
47
330
41
100
AcDbEntity
  8
_U+30EC_U+30A4_U+30E4_U+30FC 1
370
     0
100
AcDbSpline
210
0.0
220
0.0
230
1.0
 70
    11
 71
     3
 72
    68
 73
    64
 74
     0
 42
0.0000000001
 43
0.0000000001
 12
1.0
 22
0.0
 32
0.0
 13
1.0
 23
0.0
 33
0.0
 40
0.0
 40
0.0
 40
0.0
 40
0.0
 40
1.0
 40
1.0
 40
1.0
 40
2.0
 40
2.0
 40
2.0
 40
3.0
 40
3.0
 40
3.0
 40
4.0
 40
4.0
 40
4.0
 40
5.0
 40
5.0
 40
5.0
 40
6.0
 40
6.0
 40
6.0
 40
7.0
 40
7.0
 40
7.0
 40
8.0
 40
8.0
 40
8.0
 40
9.0
 40
9.0
 40
9.0
 40
10.0
 40
10.0
 40
10.0
 40
11.0
 40
11.0
 40
11.0
 40
12.0
 40
12.0
 40
12.0
 40
13.0
 40
13.0
 40
13.0
 40
14.0
 40
14.0
 40
14.0
 40
15.0
 40
15.0
 40
15.0
 40
16.0
 40
16.0
 40
16.0
 40
17.0
 40
17.0
 40
17.0
 40
18.0
 40
18.0
 40
18.0
 40
19.0
 40
19.0
 40
19.0
 40
20.0
 40
20.0
 40
20.0
 40
21.0
 40
21.0
 40
21.0
 40
21.0
 10
149.2966496176879
 20
115.8513395687154
 30
0.0
 10
149.2966496176879
 20
115.7700216498804
 30
0.0
 10
149.2594315630818
 20
115.7390124840048
 30
0.0
 10
149.2125865851083
 20
115.7783145687338
 30
0.0
 10
149.2125865851083
 20
115.7783145687338
 30
0.0
 10
146.911272178544
 20
117.7028910450132
 30
0.0
 10
146.911272178544
 20
117.7028910450132
 30
0.0
 10
146.2015891410939
 20
118.2959810298823
 30
0.0
 10
145.6241977669355
 20
119.7570454370518
 30
0.0
 10
145.6221163780997
 20
120.9659117896591
 30
0.0
 10
145.6200349892639
 20
122.174102319832
 30
0.0
 10
146.1940044190652
 20
122.672259807123
 30
0.0
 10
146.9036874565152
 20
122.0790287111464
 30
0.0
 10
146.9036874565152
 20
122.0790287111464
 30
0.0
 10
147.8008013225168
 20
121.3290231747251
 30
0.0
 10
147.8008013225168
 20
121.3290231747251
 30
0.0
 10
147.8469446546729
 20
121.2901145673558
 30
0.0
 10
147.8855385425772
 20
121.1945117896017
 30
0.0
 10
147.8855385425772
 20
121.1143931802008
 30
0.0
 10
147.8855385425772
 20
121.1143931802008
 30
0.0
 10
147.887619931413
 20
119.7253307156387
 30
0.0
 10
147.887619931413
 20
119.7253307156387
 30
0.0
 10
147.887619931413
 20
119.6469787731932
 30
0.0
 10
147.8497315990463
 20
119.6150876628957
 30
0.0
 10
147.8035529891133
 20
119.6538579396844
 30
0.0
 10
147.8035529891133
 20
119.6538579396844
 30
0.0
 10
146.9719146769968
 20
120.3478776442007
 30
0.0
 10
146.9719146769968
 20
120.3478776442007
 30
0.0
 10
146.8072380145314
 20
120.4854962518008
 30
0.0
 10
146.6735705179416
 20
120.3695734769805
 30
0.0
 10
146.6742407957022
 20
120.0893268174635
 30
0.0
 10
146.6742407957022
 20
119.8078454357558
 30
0.0
 10
146.8086138478296
 20
119.4664271111328
 30
0.0
 10
146.9739607880557
 20
119.3288085035326
 30
0.0
 10
146.9739607880557
 20
119.3288085035326
 30
0.0
 10
148.1384096472371
 20
118.3574729014223
 30
0.0
 10
148.1384096472371
 20
118.3574729014223
 30
0.0
 10
148.1384096472371
 20
118.3574729014223
 30
0.0
 10
148.1335765918048
 20
121.291840397896
 30
0.0
 10
148.1335765918048
 20
121.291840397896
 30
0.0
 10
148.1329063140441
 20
121.7211003869446
 30
0.0
 10
147.9275896526155
 20
122.2399306514859
 30
0.0
 10
147.6753888257164
 20
122.4511062337323
 30
0.0
 10
147.6753888257164
 20
122.4511062337323
 30
0.0
 10
146.0362069230909
 20
123.8212217222549
 30
0.0
 10
146.0362069230909
 20
123.8212217222549
 30
0.0
 10
145.9907338686955
 20
123.8598156101592
 30
0.0
 10
145.9528455363288
 20
123.9547128299604
 30
0.0
 10
145.9528455363288
 20
124.0341231057123
 30
0.0
 10
145.9528455363288
 20
124.0341231057123
 30
0.0
 10
145.950764147493
 20
125.429041681236
 30
0.0
 10
145.950764147493
 20
125.429041681236
 30
0.0
 10
145.9500976970352
 20
125.5072525125741
 30
0.0
 10
145.9873119243383
 20
125.5415072339224
 30
0.0
 10
146.0334552564945
 20
125.502948623795
 30
0.0
 10
146.0334552564945
 20
125.502948623795
 30
0.0
 10
147.994405762022
 20
123.8635903322852
 30
0.0
 10
147.994405762022
 20
123.8635903322852
 30
0.0
 10
148.7082162993667
 20
123.2663756779728
 30
0.0
 10
149.2863171406451
 20
121.8008281626884
 30
0.0
 10
149.2890648956592
 20
120.5850501381499
 30
0.0
 10
149.2890648956592
 20
120.5850501381499
 30
0.0
 10
149.2966496176879
 20
115.8513395687154
 30
0.0
 10
149.2966496176879
 20
115.8513395687154
 30
0.0
  0
HATCH
  5
48
330
41
100
AcDbEntity
  8
_U+30EC_U+30A4_U+30E4_U+30FC 1
 62
     7
100
AcDbHatch
 10
0.0
 20
0.0
 30
0.0
210
0.0
220
0.0
230
1.0
  2
SOLID
 70
     1
 71
     0
 91
        1
 92
        1
 93
        1
 72
     4
 94
        3
 73
     0
 74
     1
 95
       68
 96
       64
 40
0.0
 40
0.0
 40
0.0
 40
0.0
 40
1.0
 40
1.0
 40
1.0
 40
2.0
 40
2.0
 40
2.0
 40
3.0
 40
3.0
 40
3.0
 40
4.0
 40
4.0
 40
4.0
 40
5.0
 40
5.0
 40
5.0
 40
6.0
 40
6.0
 40
6.0
 40
7.0
 40
7.0
 40
7.0
 40
8.0
 40
8.0
 40
8.0
 40
9.0
 40
9.0
 40
9.0
 40
10.0
 40
10.0
 40
10.0
 40
11.0
 40
11.0
 40
11.0
 40
12.0
 40
12.0
 40
12.0
 40
13.0
 40
13.0
 40
13.0
 40
14.0
 40
14.0
 40
14.0
 40
15.0
 40
15.0
 40
15.0
 40
16.0
 40
16.0
 40
16.0
 40
17.0
 40
17.0
 40
17.0
 40
18.0
 40
18.0
 40
18.0
 40
19.0
 40
19.0
 40
19.0
 40
20.0
 40
20.0
 40
20.0
 40
21.0
 40
21.0
 40
21.0
 40
21.0
 10
149.2966496176879
 20
115.8513395687154
 10
149.2966496176879
 20
115.7700216498804
 10
149.2594315630818
 20
115.7390124840048
 10
149.2125865851083
 20
115.7783145687338
 10
149.2125865851083
 20
115.7783145687338
 10
146.911272178544
 20
117.7028910450132
 10
146.911272178544
 20
117.7028910450132
 10
146.2015891410939
 20
118.2959810298823
 10
145.6241977669355
 20
119.7570454370518
 10
145.6221163780997
 20
120.9659117896591
 10
145.6200349892639
 20
122.174102319832
 10
146.1940044190652
 20
122.672259807123
 10
146.9036874565152
 20
122.0790287111464
 10
146.9036874565152
 20
122.0790287111464
 10
147.8008013225168
 20
121.3290231747251
 10
147.8008013225168
 20
121.3290231747251
 10
147.8469446546729
 20
121.2901145673558
 10
147.8855385425772
 20
121.1945117896017
 10
147.8855385425772
 20
121.1143931802008
 10
147.8855385425772
 20
121.1143931802008
 10
147.887619931413
 20
119.7253307156387
 10
147.887619931413
 20
119.7253307156387
 10
147.887619931413
 20
119.6469787731932
 10
147.8497315990463
 20
119.6150876628957
 10
147.8035529891133
 20
119.6538579396844
 10
147.8035529891133
 20
119.6538579396844
 10
146.9719146769968
 20
120.3478776442007
 10
146.9719146769968
 20
120.3478776442007
 10
146.8072380145314
 20
120.4854962518008
 10
146.6735705179416
 20
120.3695734769805
 10
146.6742407957022
 20
120.0893268174635
 10
146.6742407957022
 20
119.8078454357558
 10
146.8086138478296
 20
119.4664271111328
 10
146.9739607880557
 20
119.3288085035326
 10
146.9739607880557
 20
119.3288085035326
 10
148.1384096472371
 20
118.3574729014223
 10
148.1384096472371
 20
118.3574729014223
 10
148.1384096472371
 20
118.3574729014223
 10
148.1335765918048
 20
121.291840397896
 10
148.1335765918048
 20
121.291840397896
 10
148.1329063140441
 20
121.7211003869446
 10
147.9275896526155
 20
122.2399306514859
 10
147.6753888257164
 20
122.4511062337323
 10
147.6753888257164
 20
122.4511062337323
 10
146.0362069230909
 20
123.8212217222549
 10
146.0362069230909
 20
123.8212217222549
 10
145.9907338686955
 20
123.8598156101592
 10
145.9528455363288
 20
123.9547128299604
 10
145.9528455363288
 20
124.0341231057123
 10
145.9528455363288
 20
124.0341231057123
 10
145.950764147493
 20
125.429041681236
 10
145.950764147493
 20
125.429041681236
 10
145.9500976970352
 20
125.5072525125741
 10
145.9873119243383
 20
125.5415072339224
 10
146.0334552564945
 20
125.502948623795
 10
146.0334552564945
 20
125.502948623795
 10
147.994405762022
 20
123.8635903322852
 10
147.994405762022
 20
123.8635903322852
 10
148.7082162993667
 20
123.2663756779728
 10
149.2863171406451
 20
121.8008281626884
 10
149.2890648956592
 20
120.5850501381499
 10
149.2890648956592
 20
120.5850501381499
 10
149.2966496176879
 20
115.8513395687154
 10
149.2966496176879
 20
115.8513395687154
 97
        0
 75
     2
 76
     1
 98
        0
  0
SPLINE
  5
49
330
41
100
AcDbEntity
  8
_U+30EC_U+30A4_U+30E4_U+30FC 1
370
     0
100
AcDbSpline
210
0.0
220
0.0
230
1.0
 70
    11
 71
     3
 72
    65
 73
    61
 74
     0
 42
0.0000000001
 43
0.0000000001
 12
1.0
 22
0.0
 32
0.0
 13
1.0
 23
0.0
 33
0.0
 40
0.0
 40
0.0
 40
0.0
 40
0.0
 40
1.0
 40
1.0
 40
1.0
 40
2.0
 40
2.0
 40
2.0
 40
3.0
 40
3.0
 40
3.0
 40
4.0
 40
4.0
 40
4.0
 40
5.0
 40
5.0
 40
5.0
 40
6.0
 40
6.0
 40
6.0
 40
7.0
 40
7.0
 40
7.0
 40
8.0
 40
8.0
 40
8.0
 40
9.0
 40
9.0
 40
9.0
 40
10.0
 40
10.0
 40
10.0
 40
11.0
 40
11.0
 40
11.0
 40
12.0
 40
12.0
 40
12.0
 40
13.0
 40
13.0
 40
13.0
 40
14.0
 40
14.0
 40
14.0
 40
15.0
 40
15.0
 40
15.0
 40
16.0
 40
16.0
 40
16.0
 40
17.0
 40
17.0
 40
17.0
 40
18.0
 40
18.0
 40
18.0
 40
19.0
 40
19.0
 40
19.0
 40
20.0
 40
20.0
 40
20.0
 40
20.0
 10
149.7858504738539
 20
115.2921867910774
 30
0.0
 10
149.7397032174958
 20
115.3307780499753
 30
0.0
 10
149.7024851628897
 20
115.4234527698332
 30
0.0
 10
149.7024851628897
 20
115.5013108234024
 30
0.0
 10
149.7024851628897
 20
115.5013108234024
 30
0.0
 10
149.6997334962932
 20
116.898310787762
 30
0.0
 10
149.6997334962932
 20
116.898310787762
 30
0.0
 10
149.6997334962932
 20
116.9763099524388
 30
0.0
 10
149.7362459953617
 20
117.0126840128696
 30
0.0
 10
149.7824246052948
 20
116.9740874524955
 30
0.0
 10
149.7824246052948
 20
116.9740874524955
 30
0.0
 10
151.73854205539
 20
115.3387155497728
 30
0.0
 10
151.73854205539
 20
115.3387155497728
 30
0.0
 10
151.9032226955469
 20
115.2008852755114
 30
0.0
 10
152.0361806589077
 20
115.3211472168877
 30
0.0
 10
152.0361806589077
 20
115.6039691541168
 30
0.0
 10
152.0355143621805
 20
115.882698869228
 30
0.0
 10
151.9018428845572
 20
116.2258105271411
 30
0.0
 10
151.7364606665543
 20
116.3636055236257
 30
0.0
 10
151.7364606665543
 20
116.3636055236257
 30
0.0
 10
150.86898013313
 20
117.1294534572849
 30
0.0
 10
150.86898013313
 20
117.1294534572849
 30
0.0
 10
150.1627543178139
 20
117.7199654890221
 30
0.0
 10
149.588114610252
 20
119.1674126743169
 30
0.0
 10
149.5860332214162
 20
120.361635977183
 30
0.0
 10
149.5839871103573
 20
121.5557181689417
 30
0.0
 10
150.1551695957852
 20
122.0468229004998
 30
0.0
 10
150.8614306888781
 20
121.456340671477
 30
0.0
 10
150.8614306888781
 20
121.456340671477
 30
0.0
 10
152.8313064719557
 20
119.8093976579384
 30
0.0
 10
152.8313064719557
 20
119.8093976579384
 30
0.0
 10
152.8774850818887
 20
119.7706273811498
 30
0.0
 10
152.9147031364948
 20
119.6769296057624
 30
0.0
 10
152.9147031364948
 20
119.5997771077308
 30
0.0
 10
152.9147031364948
 20
119.5997771077308
 30
0.0
 10
152.9174588064045
 20
118.2182993651974
 30
0.0
 10
152.9174588064045
 20
118.2182993651974
 30
0.0
 10
152.9174588064045
 20
118.138183533908
 30
0.0
 10
152.8802367484852
 20
118.1020238126083
 30
0.0
 10
152.8340934163291
 20
118.1409352005045
 30
0.0
 10
152.8340934163291
 20
118.1409352005045
 30
0.0
 10
150.986137630141
 20
119.6862429388582
 30
0.0
 10
150.986137630141
 20
119.6862429388582
 30
0.0
 10
150.8214609676756
 20
119.8235440464664
 30
0.0
 10
150.6870879155482
 20
119.7043404383965
 30
0.0
 10
150.6877934710857
 20
119.4247640566402
 30
0.0
 10
150.6884637488464
 20
119.1424360082874
 30
0.0
 10
150.8235070787345
 20
118.8027462947314
 30
0.0
 10
150.9875134634393
 20
118.6654479013451
 30
0.0
 10
150.9875134634393
 20
118.6654479013451
 30
0.0
 10
151.8660006632494
 20
117.885665207017
 30
0.0
 10
151.8660006632494
 20
117.885665207017
 30
0.0
 10
152.5722617563423
 20
117.2948329998681
 30
0.0
 10
153.1482772972025
 20
115.8451280368532
 30
0.0
 10
153.1503234082614
 20
114.6503755673338
 30
0.0
 10
153.1524088063455
 20
113.4528714312181
 30
0.0
 10
152.5805167561317
 20
112.9553867916616
 30
0.0
 10
151.8735893622207
 20
113.5462164288366
 30
0.0
 10
151.8735893622207
 20
113.5462164288366
 30
0.0
 10
149.7858504738539
 20
115.2921867910774
 30
0.0
 10
149.7858504738539
 20
115.2921867910774
 30
0.0
  0
HATCH
  5
4A
330
41
100
AcDbEntity
  8
_U+30EC_U+30A4_U+30E4_U+30FC 1
 62
     7
100
AcDbHatch
 10
0.0
 20
0.0
 30
0.0
210
0.0
220
0.0
230
1.0
  2
SOLID
 70
     1
 71
     0
 91
        1
 92
        1
 93
        1
 72
     4
 94
        3
 73
     0
 74
     1
 95
       65
 96
       61
 40
0.0
 40
0.0
 40
0.0
 40
0.0
 40
1.0
 40
1.0
 40
1.0
 40
2.0
 40
2.0
 40
2.0
 40
3.0
 40
3.0
 40
3.0
 40
4.0
 40
4.0
 40
4.0
 40
5.0
 40
5.0
 40
5.0
 40
6.0
 40
6.0
 40
6.0
 40
7.0
 40
7.0
 40
7.0
 40
8.0
 40
8.0
 40
8.0
 40
9.0
 40
9.0
 40
9.0
 40
10.0
 40
10.0
 40
10.0
 40
11.0
 40
11.0
 40
11.0
 40
12.0
 40
12.0
 40
12.0
 40
13.0
 40
13.0
 40
13.0
 40
14.0
 40
14.0
 40
14.0
 40
15.0
 40
15.0
 40
15.0
 40
16.0
 40
16.0
 40
16.0
 40
17.0
 40
17.0
 40
17.0
 40
18.0
 40
18.0
 40
18.0
 40
19.0
 40
19.0
 40
19.0
 40
20.0
 40
20.0
 40
20.0
 40
20.0
 10
149.7858504738539
 20
115.2921867910774
 10
149.7397032174958
 20
115.3307780499753
 10
149.7024851628897
 20
115.4234527698332
 10
149.7024851628897
 20
115.5013108234024
 10
149.7024851628897
 20
115.5013108234024
 10
149.6997334962932
 20
116.898310787762
 10
149.6997334962932
 20
116.898310787762
 10
149.6997334962932
 20
116.9763099524388
 10
149.7362459953617
 20
117.0126840128696
 10
149.7824246052948
 20
116.9740874524955
 10
149.7824246052948
 20
116.9740874524955
 10
151.73854205539
 20
115.3387155497728
 10
151.73854205539
 20
115.3387155497728
 10
151.9032226955469
 20
115.2008852755114
 10
152.0361806589077
 20
115.3211472168877
 10
152.0361806589077
 20
115.6039691541168
 10
152.0355143621805
 20
115.882698869228
 10
151.9018428845572
 20
116.2258105271411
 10
151.7364606665543
 20
116.3636055236257
 10
151.7364606665543
 20
116.3636055236257
 10
150.86898013313
 20
117.1294534572849
 10
150.86898013313
 20
117.1294534572849
 10
150.1627543178139
 20
117.7199654890221
 10
149.588114610252
 20
119.1674126743169
 10
149.5860332214162
 20
120.361635977183
 10
149.5839871103573
 20
121.5557181689417
 10
150.1551695957852
 20
122.0468229004998
 10
150.8614306888781
 20
121.456340671477
 10
150.8614306888781
 20
121.456340671477
 10
152.8313064719557
 20
119.8093976579384
 10
152.8313064719557
 20
119.8093976579384
 10
152.8774850818887
 20
119.7706273811498
 10
152.9147031364948
 20
119.6769296057624
 10
152.9147031364948
 20
119.5997771077308
 10
152.9147031364948
 20
119.5997771077308
 10
152.9174588064045
 20
118.2182993651974
 10
152.9174588064045
 20
118.2182993651974
 10
152.9174588064045
 20
118.138183533908
 10
152.8802367484852
 20
118.1020238126083
 10
152.8340934163291
 20
118.1409352005045
 10
152.8340934163291
 20
118.1409352005045
 10
150.986137630141
 20
119.6862429388582
 10
150.986137630141
 20
119.6862429388582
 10
150.8214609676756
 20
119.8235440464664
 10
150.6870879155482
 20
119.7043404383965
 10
150.6877934710857
 20
119.4247640566402
 10
150.6884637488464
 20
119.1424360082874
 10
150.8235070787345
 20
118.8027462947314
 10
150.9875134634393
 20
118.6654479013451
 10
150.9875134634393
 20
118.6654479013451
 10
151.8660006632494
 20
117.885665207017
 10
151.8660006632494
 20
117.885665207017
 10
152.5722617563423
 20
117.2948329998681
 10
153.1482772972025
 20
115.8451280368532
 10
153.1503234082614
 20
114.6503755673338
 10
153.1524088063455
 20
113.4528714312181
 10
152.5805167561317
 20
112.9553867916616
 10
151.8735893622207
 20
113.5462164288366
 10
151.8735893622207
 20
113.5462164288366
 10
149.7858504738539
 20
115.2921867910774
 10
149.7858504738539
 20
115.2921867910774
 97
        0
 75
     2
 76
     1
 98
        0
  0
SPLINE
  5
4B
330
41
100
AcDbEntity
  8
_U+30EC_U+30A4_U+30E4_U+30FC 1
370
     0
100
AcDbSpline
210
0.0
220
0.0
230
1.0
 70
    11
 71
     3
 72
    65
 73
    61
 74
     0
 42
0.0000000001
 43
0.0000000001
 12
1.0
 22
0.0
 32
0.0
 13
1.0
 23
0.0
 33
0.0
 40
0.0
 40
0.0
 40
0.0
 40
0.0
 40
1.0
 40
1.0
 40
1.0
 40
2.0
 40
2.0
 40
2.0
 40
3.0
 40
3.0
 40
3.0
 40
4.0
 40
4.0
 40
4.0
 40
5.0
 40
5.0
 40
5.0
 40
6.0
 40
6.0
 40
6.0
 40
7.0
 40
7.0
 40
7.0
 40
8.0
 40
8.0
 40
8.0
 40
9.0
 40
9.0
 40
9.0
 40
10.0
 40
10.0
 40
10.0
 40
11.0
 40
11.0
 40
11.0
 40
12.0
 40
12.0
 40
12.0
 40
13.0
 40
13.0
 40
13.0
 40
14.0
 40
14.0
 40
14.0
 40
15.0
 40
15.0
 40
15.0
 40
16.0
 40
16.0
 40
16.0
 40
17.0
 40
17.0
 40
17.0
 40
18.0
 40
18.0
 40
18.0
 40
19.0
 40
19.0
 40
19.0
 40
20.0
 40
20.0
 40
20.0
 40
20.0
 10
156.7842166488864
 20
116.5117721865123
 30
0.0
 10
156.7842166488864
 20
116.5117721865123
 30
0.0
 10
155.8595508391432
 20
117.283970123913
 30
0.0
 10
155.8595508391432
 20
117.283970123913
 30
0.0
 10
155.8134115834579
 20
117.3227377213784
 30
0.0
 10
155.7169227872264
 20
117.339600498726
 30
0.0
 10
155.7169227872264
 20
117.2617451239185
 30
0.0
 10
155.7169227872264
 20
117.2617451239185
 30
0.0
 10
155.721085564898
 20
114.7147927879126
 30
0.0
 10
155.721085564898
 20
114.7147927879126
 30
0.0
 10
155.721085564898
 20
114.7147927879126
 30
0.0
 10
154.5628143615483
 20
115.6832030409842
 30
0.0
 10
154.5628143615483
 20
115.6832030409842
 30
0.0
 10
154.5628143615483
 20
115.6832030409842
 30
0.0
 10
154.5586828167756
 20
118.2301526982283
 30
0.0
 10
154.5586828167756
 20
118.2301526982283
 30
0.0
 10
154.5586828167756
 20
118.3078696406901
 30
0.0
 10
154.5207944844089
 20
118.4039663049051
 30
0.0
 10
154.4753254726814
 20
118.4420310261562
 30
0.0
 10
154.4753254726814
 20
118.4420310261562
 30
0.0
 10
153.4907226951501
 20
119.2650615607145
 30
0.0
 10
153.4907226951501
 20
119.2650615607145
 30
0.0
 10
153.4452456229595
 20
119.3034790597344
 30
0.0
 10
153.4073572905928
 20
119.2704237827999
 30
0.0
 10
153.4073572905928
 20
119.1929185069995
 30
0.0
 10
153.4073572905928
 20
119.1929185069995
 30
0.0
 10
153.4190695125162
 20
112.4045217357415
 30
0.0
 10
153.4190695125162
 20
112.4045217357415
 30
0.0
 10
153.4197397902769
 20
112.3232090140421
 30
0.0
 10
153.4569578448829
 20
112.2291559068821
 30
0.0
 10
153.503101177039
 20
112.1905645696307
 30
0.0
 10
153.503101177039
 20
112.1905645696307
 30
0.0
 10
154.4877392074744
 20
111.3678867920585
 30
0.0
 10
154.4877392074744
 20
111.3678867920585
 30
0.0
 10
154.5332122618698
 20
111.3303487075903
 30
0.0
 10
154.570395038699
 20
111.3606523179283
 30
0.0
 10
154.570395038699
 20
111.441970125373
 30
0.0
 10
154.570395038699
 20
111.441970125373
 30
0.0
 10
154.5662675388043
 20
114.0033811393956
 30
0.0
 10
154.5662675388043
 20
114.0033811393956
 30
0.0
 10
154.5662675388043
 20
114.0033811393956
 30
0.0
 10
155.72451158348
 20
113.0346181085553
 30
0.0
 10
155.72451158348
 20
113.0346181085553
 30
0.0
 10
155.72451158348
 20
113.0346181085553
 30
0.0
 10
155.7286350091498
 20
110.4735220627831
 30
0.0
 10
155.7286350091498
 20
110.4735220627831
 30
0.0
 10
155.7286350091498
 20
110.391889287088
 30
0.0
 10
155.7658530637559
 20
110.2981915117006
 30
0.0
 10
155.8120316736889
 20
110.2595976237964
 30
0.0
 10
155.8120316736889
 20
110.2595976237964
 30
0.0
 10
156.7959288708098
 20
109.4375901447675
 30
0.0
 10
156.7959288708098
 20
109.4375901447675
 30
0.0
 10
156.8421115832011
 20
109.3989962568632
 30
0.0
 10
156.8793255353488
 20
109.4300054227388
 30
0.0
 10
156.8793255353488
 20
109.5109679206733
 30
0.0
 10
156.8793255353488
 20
109.5109679206733
 30
0.0
 10
156.8676133134254
 20
116.2995410808157
 30
0.0
 10
156.8676133134254
 20
116.2995410808157
 30
0.0
 10
156.8676133134254
 20
116.3773991343849
 30
0.0
 10
156.8296897032818
 20
116.473178298608
 30
0.0
 10
156.7842166488864
 20
116.5117721865123
 30
0.0
  0
HATCH
  5
4C
330
41
100
AcDbEntity
  8
_U+30EC_U+30A4_U+30E4_U+30FC 1
 62
     7
100
AcDbHatch
 10
0.0
 20
0.0
 30
0.0
210
0.0
220
0.0
230
1.0
  2
SOLID
 70
     1
 71
     0
 91
        1
 92
        1
 93
        1
 72
     4
 94
        3
 73
     0
 74
     1
 95
       65
 96
       61
 40
0.0
 40
0.0
 40
0.0
 40
0.0
 40
1.0
 40
1.0
 40
1.0
 40
2.0
 40
2.0
 40
2.0
 40
3.0
 40
3.0
 40
3.0
 40
4.0
 40
4.0
 40
4.0
 40
5.0
 40
5.0
 40
5.0
 40
6.0
 40
6.0
 40
6.0
 40
7.0
 40
7.0
 40
7.0
 40
8.0
 40
8.0
 40
8.0
 40
9.0
 40
9.0
 40
9.0
 40
10.0
 40
10.0
 40
10.0
 40
11.0
 40
11.0
 40
11.0
 40
12.0
 40
12.0
 40
12.0
 40
13.0
 40
13.0
 40
13.0
 40
14.0
 40
14.0
 40
14.0
 40
15.0
 40
15.0
 40
15.0
 40
16.0
 40
16.0
 40
16.0
 40
17.0
 40
17.0
 40
17.0
 40
18.0
 40
18.0
 40
18.0
 40
19.0
 40
19.0
 40
19.0
 40
20.0
 40
20.0
 40
20.0
 40
20.0
 10
156.7842166488864
 20
116.5117721865123
 10
156.7842166488864
 20
116.5117721865123
 10
155.8595508391432
 20
117.283970123913
 10
155.8595508391432
 20
117.283970123913
 10
155.8134115834579
 20
117.3227377213784
 10
155.7169227872264
 20
117.339600498726
 10
155.7169227872264
 20
117.2617451239185
 10
155.7169227872264
 20
117.2617451239185
 10
155.721085564898
 20
114.7147927879126
 10
155.721085564898
 20
114.7147927879126
 10
155.721085564898
 20
114.7147927879126
 10
154.5628143615483
 20
115.6832030409842
 10
154.5628143615483
 20
115.6832030409842
 10
154.5628143615483
 20
115.6832030409842
 10
154.5586828167756
 20
118.2301526982283
 10
154.5586828167756
 20
118.2301526982283
 10
154.5586828167756
 20
118.3078696406901
 10
154.5207944844089
 20
118.4039663049051
 10
154.4753254726814
 20
118.4420310261562
 10
154.4753254726814
 20
118.4420310261562
 10
153.4907226951501
 20
119.2650615607145
 10
153.4907226951501
 20
119.2650615607145
 10
153.4452456229595
 20
119.3034790597344
 10
153.4073572905928
 20
119.2704237827999
 10
153.4073572905928
 20
119.1929185069995
 10
153.4073572905928
 20
119.1929185069995
 10
153.4190695125162
 20
112.4045217357415
 10
153.4190695125162
 20
112.4045217357415
 10
153.4197397902769
 20
112.3232090140421
 10
153.4569578448829
 20
112.2291559068821
 10
153.503101177039
 20
112.1905645696307
 10
153.503101177039
 20
112.1905645696307
 10
154.4877392074744
 20
111.3678867920585
 10
154.4877392074744
 20
111.3678867920585
 10
154.5332122618698
 20
111.3303487075903
 10
154.570395038699
 20
111.3606523179283
 10
154.570395038699
 20
111.441970125373
 10
154.570395038699
 20
111.441970125373
 10
154.5662675388043
 20
114.0033811393956
 10
154.5662675388043
 20
114.0033811393956
 10
154.5662675388043
 20
114.0033811393956
 10
155.72451158348
 20
113.0346181085553
 10
155.72451158348
 20
113.0346181085553
 10
155.72451158348
 20
113.0346181085553
 10
155.7286350091498
 20
110.4735220627831
 10
155.7286350091498
 20
110.4735220627831
 10
155.7286350091498
 20
110.391889287088
 10
155.7658530637559
 20
110.2981915117006
 10
155.8120316736889
 20
110.2595976237964
 10
155.8120316736889
 20
110.2595976237964
 10
156.7959288708098
 20
109.4375901447675
 10
156.7959288708098
 20
109.4375901447675
 10
156.8421115832011
 20
109.3989962568632
 10
156.8793255353488
 20
109.4300054227388
 10
156.8793255353488
 20
109.5109679206733
 10
156.8793255353488
 20
109.5109679206733
 10
156.8676133134254
 20
116.2995410808157
 10
156.8676133134254
 20
116.2995410808157
 10
156.8676133134254
 20
116.3773991343849
 10
156.8296897032818
 20
116.473178298608
 10
156.7842166488864
 20
116.5117721865123
 97
        0
 75
     2
 76
     1
 98
        0
  0
SPLINE
  5
4D
330
41
100
AcDbEntity
  8
_U+30EC_U+30A4_U+30E4_U+30FC 1
370
     0
100
AcDbSpline
210
0.0
220
0.0
230
1.0
 70
    11
 71
     3
 72
    29
 73
    25
 74
     0
 42
0.0000000001
 43
0.0000000001
 12
1.0
 22
0.0
 32
0.0
 13
1.0
 23
0.0
 33
0.0
 40
0.0
 40
0.0
 40
0.0
 40
0.0
 40
1.0
 40
1.0
 40
1.0
 40
2.0
 40
2.0
 40
2.0
 40
3.0
 40
3.0
 40
3.0
 40
4.0
 40
4.0
 40
4.0
 40
5.0
 40
5.0
 40
5.0
 40
6.0
 40
6.0
 40
6.0
 40
7.0
 40
7.0
 40
7.0
 40
8.0
 40
8.0
 40
8.0
 40
8.0
 10
159.9234096243544
 20
113.8872819756909
 30
0.0
 10
159.9234096243544
 20
113.8872819756909
 30
0.0
 10
158.3793013304146
 20
115.1778136094333
 30
0.0
 10
158.3793013304146
 20
115.1778136094333
 30
0.0
 10
157.7281794025816
 20
115.722819984418
 30
0.0
 10
157.2003885827134
 20
115.2663608293965
 30
0.0
 10
157.2024699715492
 20
114.1563455799376
 30
0.0
 10
157.2024699715492
 20
114.1563455799376
 30
0.0
 10
157.2072677492045
 20
111.1056998244327
 30
0.0
 10
157.2072677492045
 20
111.1056998244327
 30
0.0
 10
157.2093532497757
 20
109.9967429082801
 30
0.0
 10
157.7405971800426
 20
108.6545293314117
 30
0.0
 10
158.3917191078756
 20
108.1101932341878
 30
0.0
 10
158.3917191078756
 20
108.1101932341878
 30
0.0
 10
159.9351218462779
 20
106.8196616004453
 30
0.0
 10
159.9351218462779
 20
106.8196616004453
 30
0.0
 10
160.5869140518715
 20
106.2746552254607
 30
0.0
 10
161.1133290384415
 20
106.7318199360197
 30
0.0
 10
161.1119532051433
 20
107.8411296299411
 30
0.0
 10
161.1119532051433
 20
107.8411296299411
 30
0.0
 10
161.1064498719503
 20
110.8924456632066
 30
0.0
 10
161.1064498719503
 20
110.8924456632066
 30
0.0
 10
161.1043726932461
 20
112.0014378571361
 30
0.0
 10
160.5745315521874
 20
113.3429458784669
 30
0.0
 10
159.9234096243544
 20
113.8872819756909
 30
0.0
  0
SPLINE
  5
4E
330
41
100
AcDbEntity
  8
_U+30EC_U+30A4_U+30E4_U+30FC 1
370
     0
100
AcDbSpline
210
0.0
220
0.0
230
1.0
 70
    11
 71
     3
 72
    29
 73
    25
 74
     0
 42
0.0000000001
 43
0.0000000001
 12
1.0
 22
0.0
 32
0.0
 13
1.0
 23
0.0
 33
0.0
 40
0.0
 40
0.0
 40
0.0
 40
0.0
 40
1.0
 40
1.0
 40
1.0
 40
2.0
 40
2.0
 40
2.0
 40
3.0
 40
3.0
 40
3.0
 40
4.0
 40
4.0
 40
4.0
 40
5.0
 40
5.0
 40
5.0
 40
6.0
 40
6.0
 40
6.0
 40
7.0
 40
7.0
 40
7.0
 40
8.0
 40
8.0
 40
8.0
 40
8.0
 10
159.9585504713105
 20
109.2005587619258
 30
0.0
 10
159.9585504713105
 20
108.805094883126
 30
0.0
 10
159.7704451838125
 20
108.6417940539589
 30
0.0
 10
159.5389171341637
 20
108.8357512712328
 30
0.0
 10
159.5389171341637
 20
108.8357512712328
 30
0.0
 10
158.7830554867806
 20
109.4682465328743
 30
0.0
 10
158.7830554867806
 20
109.4682465328743
 30
0.0
 10
158.5501868816105
 20
109.6629117924846
 30
0.0
 10
158.360709942
 20
110.1417698490246
 30
0.0
 10
158.3600043864625
 20
110.5362459500718
 30
0.0
 10
158.3600043864625
 20
110.5362459500718
 30
0.0
 10
158.3558810272668
 20
112.7975867257135
 30
0.0
 10
158.3558810272668
 20
112.7975867257135
 30
0.0
 10
158.3558810272668
 20
113.1924156045295
 30
0.0
 10
158.5433077151193
 20
113.3550108781591
 30
0.0
 10
158.7761763202895
 20
113.1600306053557
 30
0.0
 10
158.7761763202895
 20
113.1600306053557
 30
0.0
 10
159.5320421380842
 20
112.5278528437061
 30
0.0
 10
159.5320421380842
 20
112.5278528437061
 30
0.0
 10
159.764236295082
 20
112.3338956264322
 30
0.0
 10
159.9530076791549
 20
111.855705360854
 30
0.0
 10
159.95441879023
 20
111.4609117598149
 30
0.0
 10
159.95441879023
 20
111.4609117598149
 30
0.0
 10
159.9585504713105
 20
109.2005587619258
 30
0.0
 10
159.9585504713105
 20
109.2005587619258
 30
0.0
  0
HATCH
  5
4F
330
41
100
AcDbEntity
  8
_U+30EC_U+30A4_U+30E4_U+30FC 1
 62
     7
100
AcDbHatch
 10
0.0
 20
0.0
 30
0.0
210
0.0
220
0.0
230
1.0
  2
SOLID
 70
     1
 71
     0
 91
        2
 92
        1
 93
        1
 72
     4
 94
        3
 73
     0
 74
     1
 95
       29
 96
       25
 40
0.0
 40
0.0
 40
0.0
 40
0.0
 40
1.0
 40
1.0
 40
1.0
 40
2.0
 40
2.0
 40
2.0
 40
3.0
 40
3.0
 40
3.0
 40
4.0
 40
4.0
 40
4.0
 40
5.0
 40
5.0
 40
5.0
 40
6.0
 40
6.0
 40
6.0
 40
7.0
 40
7.0
 40
7.0
 40
8.0
 40
8.0
 40
8.0
 40
8.0
 10
159.9585504713105
 20
109.2005587619258
 10
159.9585504713105
 20
108.805094883126
 10
159.7704451838125
 20
108.6417940539589
 10
159.5389171341637
 20
108.8357512712328
 10
159.5389171341637
 20
108.8357512712328
 10
158.7830554867806
 20
109.4682465328743
 10
158.7830554867806
 20
109.4682465328743
 10
158.5501868816105
 20
109.6629117924846
 10
158.360709942
 20
110.1417698490246
 10
158.3600043864625
 20
110.5362459500718
 10
158.3600043864625
 20
110.5362459500718
 10
158.3558810272668
 20
112.7975867257135
 10
158.3558810272668
 20
112.7975867257135
 10
158.3558810272668
 20
113.1924156045295
 10
158.5433077151193
 20
113.3550108781591
 10
158.7761763202895
 20
113.1600306053557
 10
158.7761763202895
 20
113.1600306053557
 10
159.5320421380842
 20
112.5278528437061
 10
159.5320421380842
 20
112.5278528437061
 10
159.764236295082
 20
112.3338956264322
 10
159.9530076791549
 20
111.855705360854
 10
159.95441879023
 20
111.4609117598149
 10
159.95441879023
 20
111.4609117598149
 10
159.9585504713105
 20
109.2005587619258
 10
159.9585504713105
 20
109.2005587619258
 97
        0
 92
        1
 93
        2
 72
     4
 94
        3
 73
     0
 74
     0
 95
       29
 96
       25
 40
0.0
 40
0.0
 40
0.0
 40
0.0
 40
0.3527777776895833
 40
0.3527777776895833
 40
0.3527777776895833
 40
0.7055555553791667
 40
0.7055555553791667
 40
0.7055555553791667
 40
1.05833333306875
 40
1.05833333306875
 40
1.05833333306875
 40
1.411111110758333
 40
1.411111110758333
 40
1.411111110758333
 40
1.763888888447917
 40
1.763888888447917
 40
1.763888888447917
 40
2.1166666661375
 40
2.1166666661375
 40
2.1166666661375
 40
2.469444443827083
 40
2.469444443827083
 40
2.469444443827083
 40
2.822222221516667
 40
2.822222221516667
 40
2.822222221516667
 40
2.822222221516667
 10
159.9234096243544
 20
113.8872819756909
 10
159.9234096243544
 20
113.8872819756909
 10
158.3793013304146
 20
115.1778136094333
 10
158.3793013304146
 20
115.1778136094333
 10
157.7281794025816
 20
115.722819984418
 10
157.2003885827134
 20
115.2663608293965
 10
157.2024699715492
 20
114.1563455799376
 10
157.2024699715492
 20
114.1563455799376
 10
157.2072677492045
 20
111.1056998244327
 10
157.2072677492045
 20
111.1056998244327
 10
157.2093532497757
 20
109.9967429082801
 10
157.7405971800426
 20
108.6545293314117
 10
158.3917191078756
 20
108.1101932341878
 10
158.3917191078756
 20
108.1101932341878
 10
159.9351218462779
 20
106.8196616004453
 10
159.9351218462779
 20
106.8196616004453
 10
160.5869140518715
 20
106.2746552254607
 10
161.1133290384415
 20
106.7318199360197
 10
161.1119532051433
 20
107.8411296299411
 10
161.1119532051433
 20
107.8411296299411
 10
161.1064498719503
 20
110.8924456632066
 10
161.1064498719503
 20
110.8924456632066
 10
161.1043726932461
 20
112.0014378571361
 10
160.5745315521874
 20
113.3429458784669
 10
159.9234096243544
 20
113.8872819756909
 72
     1
 10
159.9234096243544
 20
113.8872819756909
 11
159.9234096243544
 21
113.8872819756909
 97
        0
 75
     2
 76
     1
 98
        0
  0
SPLINE
  5
50
330
41
100
AcDbEntity
  8
_U+30EC_U+30A4_U+30E4_U+30FC 1
370
     0
100
AcDbSpline
210
0.0
220
0.0
230
1.0
 70
    11
 71
     3
 72
    47
 73
    43
 74
     0
 42
0.0000000001
 43
0.0000000001
 12
1.0
 22
0.0
 32
0.0
 13
1.0
 23
0.0
 33
0.0
 40
0.0
 40
0.0
 40
0.0
 40
0.0
 40
1.0
 40
1.0
 40
1.0
 40
2.0
 40
2.0
 40
2.0
 40
3.0
 40
3.0
 40
3.0
 40
4.0
 40
4.0
 40
4.0
 40
5.0
 40
5.0
 40
5.0
 40
6.0
 40
6.0
 40
6.0
 40
7.0
 40
7.0
 40
7.0
 40
8.0
 40
8.0
 40
8.0
 40
9.0
 40
9.0
 40
9.0
 40
10.0
 40
10.0
 40
10.0
 40
11.0
 40
11.0
 40
11.0
 40
12.0
 40
12.0
 40
12.0
 40
13.0
 40
13.0
 40
13.0
 40
14.0
 40
14.0
 40
14.0
 40
14.0
 10
138.997200476551
 20
134.1051522932234
 30
0.0
 10
138.997200476551
 20
134.1051522932234
 30
0.0
 10
134.498433606333
 20
137.8670333083609
 30
0.0
 10
134.498433606333
 20
137.8670333083609
 30
0.0
 10
134.4572644407166
 20
137.9014996963705
 30
0.0
 10
134.4235036082446
 20
137.8720427526775
 30
0.0
 10
134.4236447193521
 20
137.8008874767151
 30
0.0
 10
134.4236447193521
 20
137.8008874767151
 30
0.0
 10
134.4265727748329
 20
136.1098825198562
 30
0.0
 10
134.4265727748329
 20
136.1098825198562
 30
0.0
 10
134.4265727748329
 20
136.0385508550094
 30
0.0
 10
134.4606863850737
 20
135.9527905794195
 30
0.0
 10
134.5018555506901
 20
135.9183241914099
 30
0.0
 10
134.5018555506901
 20
135.9183241914099
 30
0.0
 10
136.0855807880637
 20
134.5940317251955
 30
0.0
 10
136.0855807880637
 20
134.5940317251955
 30
0.0
 10
136.0855807880637
 20
134.5940317251955
 30
0.0
 10
136.0988452321697
 20
126.8871780329248
 30
0.0
 10
136.0988452321697
 20
126.8871780329248
 30
0.0
 10
136.0988452321697
 20
126.8060391461059
 30
0.0
 10
136.1362043978833
 20
126.712517759603
 30
0.0
 10
136.1825593967007
 20
126.6735710939299
 30
0.0
 10
136.1825593967007
 20
126.6735710939299
 30
0.0
 10
137.3466554781132
 20
125.7006805631949
 30
0.0
 10
137.3466554781132
 20
125.7006805631949
 30
0.0
 10
137.3935043658069
 20
125.6610636197611
 30
0.0
 10
137.4293465871147
 20
125.6939777855881
 30
0.0
 10
137.4291701982303
 20
125.7745875057538
 30
0.0
 10
137.4291701982303
 20
125.7745875057538
 30
0.0
 10
137.4160821430087
 20
133.4814411980244
 30
0.0
 10
137.4160821430087
 20
133.4814411980244
 30
0.0
 10
137.4160821430087
 20
133.4814411980244
 30
0.0
 10
139.0006540470273
 20
132.156266787388
 30
0.0
 10
139.0006540470273
 20
132.156266787388
 30
0.0
 10
139.0424934904043
 20
132.1214828993865
 30
0.0
 10
139.0750548784625
 20
132.1517895646403
 30
0.0
 10
139.0748784895781
 20
132.2231181745714
 30
0.0
 10
139.0748784895781
 20
132.2231181745714
 30
0.0
 10
139.0719504340973
 20
133.9141231314302
 30
0.0
 10
139.0719504340973
 20
133.9141231314302
 30
0.0
 10
139.0717740452129
 20
133.9852784073927
 30
0.0
 10
139.0390715460472
 20
134.0703684052219
 30
0.0
 10
138.997200476551
 20
134.1051522932234
 30
0.0
  0
HATCH
  5
51
330
41
100
AcDbEntity
  8
_U+30EC_U+30A4_U+30E4_U+30FC 1
 62
     7
100
AcDbHatch
 10
0.0
 20
0.0
 30
0.0
210
0.0
220
0.0
230
1.0
  2
SOLID
 70
     1
 71
     0
 91
        1
 92
        1
 93
        1
 72
     4
 94
        3
 73
     0
 74
     1
 95
       47
 96
       43
 40
0.0
 40
0.0
 40
0.0
 40
0.0
 40
1.0
 40
1.0
 40
1.0
 40
2.0
 40
2.0
 40
2.0
 40
3.0
 40
3.0
 40
3.0
 40
4.0
 40
4.0
 40
4.0
 40
5.0
 40
5.0
 40
5.0
 40
6.0
 40
6.0
 40
6.0
 40
7.0
 40
7.0
 40
7.0
 40
8.0
 40
8.0
 40
8.0
 40
9.0
 40
9.0
 40
9.0
 40
10.0
 40
10.0
 40
10.0
 40
11.0
 40
11.0
 40
11.0
 40
12.0
 40
12.0
 40
12.0
 40
13.0
 40
13.0
 40
13.0
 40
14.0
 40
14.0
 40
14.0
 40
14.0
 10
138.997200476551
 20
134.1051522932234
 10
138.997200476551
 20
134.1051522932234
 10
134.498433606333
 20
137.8670333083609
 10
134.498433606333
 20
137.8670333083609
 10
134.4572644407166
 20
137.9014996963705
 10
134.4235036082446
 20
137.8720427526775
 10
134.4236447193521
 20
137.8008874767151
 10
134.4236447193521
 20
137.8008874767151
 10
134.4265727748329
 20
136.1098825198562
 10
134.4265727748329
 20
136.1098825198562
 10
134.4265727748329
 20
136.0385508550094
 10
134.4606863850737
 20
135.9527905794195
 10
134.5018555506901
 20
135.9183241914099
 10
134.5018555506901
 20
135.9183241914099
 10
136.0855807880637
 20
134.5940317251955
 10
136.0855807880637
 20
134.5940317251955
 10
136.0855807880637
 20
134.5940317251955
 10
136.0988452321697
 20
126.8871780329248
 10
136.0988452321697
 20
126.8871780329248
 10
136.0988452321697
 20
126.8060391461059
 10
136.1362043978833
 20
126.712517759603
 10
136.1825593967007
 20
126.6735710939299
 10
136.1825593967007
 20
126.6735710939299
 10
137.3466554781132
 20
125.7006805631949
 10
137.3466554781132
 20
125.7006805631949
 10
137.3935043658069
 20
125.6610636197611
 10
137.4293465871147
 20
125.6939777855881
 10
137.4291701982303
 20
125.7745875057538
 10
137.4291701982303
 20
125.7745875057538
 10
137.4160821430087
 20
133.4814411980244
 10
137.4160821430087
 20
133.4814411980244
 10
137.4160821430087
 20
133.4814411980244
 10
139.0006540470273
 20
132.156266787388
 10
139.0006540470273
 20
132.156266787388
 10
139.0424934904043
 20
132.1214828993865
 10
139.0750548784625
 20
132.1517895646403
 10
139.0748784895781
 20
132.2231181745714
 10
139.0748784895781
 20
132.2231181745714
 10
139.0719504340973
 20
133.9141231314302
 10
139.0719504340973
 20
133.9141231314302
 10
139.0717740452129
 20
133.9852784073927
 10
139.0390715460472
 20
134.0703684052219
 10
138.997200476551
 20
134.1051522932234
 97
        0
 75
     2
 76
     1
 98
        0
  0
SPLINE
  5
52
330
41
100
AcDbEntity
  8
_U+30EC_U+30A4_U+30E4_U+30FC 1
370
     0
100
AcDbSpline
210
0.0
220
0.0
230
1.0
 70
    11
 71
     3
 72
    29
 73
    25
 74
     0
 42
0.0000000001
 43
0.0000000001
 12
1.0
 22
0.0
 32
0.0
 13
1.0
 23
0.0
 33
0.0
 40
0.0
 40
0.0
 40
0.0
 40
0.0
 40
1.0
 40
1.0
 40
1.0
 40
2.0
 40
2.0
 40
2.0
 40
3.0
 40
3.0
 40
3.0
 40
4.0
 40
4.0
 40
4.0
 40
5.0
 40
5.0
 40
5.0
 40
6.0
 40
6.0
 40
6.0
 40
7.0
 40
7.0
 40
7.0
 40
8.0
 40
8.0
 40
8.0
 40
8.0
 10
142.9706033901899
 20
120.9979765165042
 30
0.0
 10
143.0167504755462
 20
120.9593826285999
 30
0.0
 10
143.0549878324815
 20
120.9896862389379
 30
0.0
 10
143.0549878324815
 20
121.0718481812862
 30
0.0
 10
143.0549878324815
 20
121.0718481812862
 30
0.0
 10
143.0432756105581
 20
127.86955828564
 30
0.0
 10
143.0432756105581
 20
127.86955828564
 30
0.0
 10
143.0432756105581
 20
127.9482630058542
 30
0.0
 10
143.0047170004307
 20
128.0440451212227
 30
0.0
 10
142.9585421422274
 20
128.0824596690973
 30
0.0
 10
142.9585421422274
 20
128.0824596690973
 30
0.0
 10
141.9710075823584
 20
128.9080654813677
 30
0.0
 10
141.9710075823584
 20
128.9080654813677
 30
0.0
 10
141.9239823057803
 20
128.9473296470326
 30
0.0
 10
141.8865878622899
 20
128.9152974256276
 30
0.0
 10
141.8865878622899
 20
128.8365927054133
 30
0.0
 10
141.8865878622899
 20
128.8365927054133
 30
0.0
 10
141.8983000842133
 20
122.0388826010595
 30
0.0
 10
141.8983000842133
 20
122.0388826010595
 30
0.0
 10
141.8984764730977
 20
121.9567206587112
 30
0.0
 10
141.9362236943569
 20
121.8628464944395
 30
0.0
 10
141.9833900820425
 20
121.8235823287745
 30
0.0
 10
141.9833900820425
 20
121.8235823287745
 30
0.0
 10
142.9706033901899
 20
120.9979765165042
 30
0.0
 10
142.9706033901899
 20
120.9979765165042
 30
0.0
  0
HATCH
  5
53
330
41
100
AcDbEntity
  8
_U+30EC_U+30A4_U+30E4_U+30FC 1
 62
     7
100
AcDbHatch
 10
0.0
 20
0.0
 30
0.0
210
0.0
220
0.0
230
1.0
  2
SOLID
 70
     1
 71
     0
 91
        1
 92
        1
 93
        1
 72
     4
 94
        3
 73
     0
 74
     1
 95
       29
 96
       25
 40
0.0
 40
0.0
 40
0.0
 40
0.0
 40
1.0
 40
1.0
 40
1.0
 40
2.0
 40
2.0
 40
2.0
 40
3.0
 40
3.0
 40
3.0
 40
4.0
 40
4.0
 40
4.0
 40
5.0
 40
5.0
 40
5.0
 40
6.0
 40
6.0
 40
6.0
 40
7.0
 40
7.0
 40
7.0
 40
8.0
 40
8.0
 40
8.0
 40
8.0
 10
142.9706033901899
 20
120.9979765165042
 10
143.0167504755462
 20
120.9593826285999
 10
143.0549878324815
 20
120.9896862389379
 10
143.0549878324815
 20
121.0718481812862
 10
143.0549878324815
 20
121.0718481812862
 10
143.0432756105581
 20
127.86955828564
 10
143.0432756105581
 20
127.86955828564
 10
143.0432756105581
 20
127.9482630058542
 10
143.0047170004307
 20
128.0440451212227
 10
142.9585421422274
 20
128.0824596690973
 10
142.9585421422274
 20
128.0824596690973
 10
141.9710075823584
 20
128.9080654813677
 10
141.9710075823584
 20
128.9080654813677
 10
141.9239823057803
 20
128.9473296470326
 10
141.8865878622899
 20
128.9152974256276
 10
141.8865878622899
 20
128.8365927054133
 10
141.8865878622899
 20
128.8365927054133
 10
141.8983000842133
 20
122.0388826010595
 10
141.8983000842133
 20
122.0388826010595
 10
141.8984764730977
 20
121.9567206587112
 10
141.9362236943569
 20
121.8628464944395
 10
141.9833900820425
 20
121.8235823287745
 10
141.9833900820425
 20
121.8235823287745
 10
142.9706033901899
 20
120.9979765165042
 10
142.9706033901899
 20
120.9979765165042
 97
        0
 75
     2
 76
     1
 98
        0
  0
SPLINE
  5
54
330
41
100
AcDbEntity
  8
_U+30EC_U+30A4_U+30E4_U+30FC 1
370
     0
100
AcDbSpline
210
0.0
220
0.0
230
1.0
 70
    11
 71
     3
 72
    29
 73
    25
 74
     0
 42
0.0000000001
 43
0.0000000001
 12
1.0
 22
0.0
 32
0.0
 13
1.0
 23
0.0
 33
0.0
 40
0.0
 40
0.0
 40
0.0
 40
0.0
 40
1.0
 40
1.0
 40
1.0
 40
2.0
 40
2.0
 40
2.0
 40
3.0
 40
3.0
 40
3.0
 40
4.0
 40
4.0
 40
4.0
 40
5.0
 40
5.0
 40
5.0
 40
6.0
 40
6.0
 40
6.0
 40
7.0
 40
7.0
 40
7.0
 40
8.0
 40
8.0
 40
8.0
 40
8.0
 10
144.5879130711511
 20
126.7152694261994
 30
0.0
 10
144.5093532529507
 20
126.7810624800765
 30
0.0
 10
144.4390761305038
 20
126.7729867882071
 30
0.0
 10
144.3970250204655
 20
126.7061324819881
 30
0.0
 10
144.3970250204655
 20
126.7061324819881
 30
0.0
 10
143.0491317215198
 20
124.4645825391748
 30
0.0
 10
143.0491317215198
 20
124.4645825391748
 30
0.0
 10
143.0491317215198
 20
124.4645825391748
 30
0.0
 10
144.3998119648388
 20
119.8097504357072
 30
0.0
 10
144.3998119648388
 20
119.8097504357072
 30
0.0
 10
144.3998119648388
 20
119.8097504357072
 30
0.0
 10
145.8143449843067
 20
118.6272040769876
 30
0.0
 10
145.8143449843067
 20
118.6272040769876
 30
0.0
 10
145.8143449843067
 20
118.6272040769876
 30
0.0
 10
144.2681905793079
 20
123.4448431207461
 30
0.0
 10
144.2681905793079
 20
123.4448431207461
 30
0.0
 10
144.2681905793079
 20
123.4448431207461
 30
0.0
 10
145.801256929085
 20
125.6987784551423
 30
0.0
 10
145.801256929085
 20
125.6987784551423
 30
0.0
 10
145.801256929085
 20
125.6987784551423
 30
0.0
 10
144.5872075156136
 20
126.7135408151324
 30
0.0
 10
144.5872075156136
 20
126.7135408151324
 30
0.0
 10
144.5872075156136
 20
126.7135408151324
 30
0.0
 10
144.5879130711511
 20
126.7152694261994
 30
0.0
 10
144.5879130711511
 20
126.7152694261994
 30
0.0
  0
HATCH
  5
55
330
41
100
AcDbEntity
  8
_U+30EC_U+30A4_U+30E4_U+30FC 1
 62
     7
100
AcDbHatch
 10
0.0
 20
0.0
 30
0.0
210
0.0
220
0.0
230
1.0
  2
SOLID
 70
     1
 71
     0
 91
        1
 92
        1
 93
        1
 72
     4
 94
        3
 73
     0
 74
     1
 95
       29
 96
       25
 40
0.0
 40
0.0
 40
0.0
 40
0.0
 40
1.0
 40
1.0
 40
1.0
 40
2.0
 40
2.0
 40
2.0
 40
3.0
 40
3.0
 40
3.0
 40
4.0
 40
4.0
 40
4.0
 40
5.0
 40
5.0
 40
5.0
 40
6.0
 40
6.0
 40
6.0
 40
7.0
 40
7.0
 40
7.0
 40
8.0
 40
8.0
 40
8.0
 40
8.0
 10
144.5879130711511
 20
126.7152694261994
 10
144.5093532529507
 20
126.7810624800765
 10
144.4390761305038
 20
126.7729867882071
 10
144.3970250204655
 20
126.7061324819881
 10
144.3970250204655
 20
126.7061324819881
 10
143.0491317215198
 20
124.4645825391748
 10
143.0491317215198
 20
124.4645825391748
 10
143.0491317215198
 20
124.4645825391748
 10
144.3998119648388
 20
119.8097504357072
 10
144.3998119648388
 20
119.8097504357072
 10
144.3998119648388
 20
119.8097504357072
 10
145.8143449843067
 20
118.6272040769876
 10
145.8143449843067
 20
118.6272040769876
 10
145.8143449843067
 20
118.6272040769876
 10
144.2681905793079
 20
123.4448431207461
 10
144.2681905793079
 20
123.4448431207461
 10
144.2681905793079
 20
123.4448431207461
 10
145.801256929085
 20
125.6987784551423
 10
145.801256929085
 20
125.6987784551423
 10
145.801256929085
 20
125.6987784551423
 10
144.5872075156136
 20
126.7135408151324
 10
144.5872075156136
 20
126.7135408151324
 10
144.5872075156136
 20
126.7135408151324
 10
144.5879130711511
 20
126.7152694261994
 10
144.5879130711511
 20
126.7152694261994
 97
        0
 75
     2
 76
     1
 98
        0
  0
SPLINE
  5
56
330
41
100
AcDbEntity
  8
_U+30EC_U+30A4_U+30E4_U+30FC 1
370
     0
100
AcDbSpline
210
0.0
220
0.0
230
1.0
 70
    11
 71
     3
 72
    29
 73
    25
 74
     0
 42
0.0000000001
 43
0.0000000001
 12
1.0
 22
0.0
 32
0.0
 13
1.0
 23
0.0
 33
0.0
 40
0.0
 40
0.0
 40
0.0
 40
0.0
 40
1.0
 40
1.0
 40
1.0
 40
2.0
 40
2.0
 40
2.0
 40
3.0
 40
3.0
 40
3.0
 40
4.0
 40
4.0
 40
4.0
 40
5.0
 40
5.0
 40
5.0
 40
6.0
 40
6.0
 40
6.0
 40
7.0
 40
7.0
 40
7.0
 40
8.0
 40
8.0
 40
8.0
 40
8.0
 10
126.961936298605
 20
139.2798729945386
 30
0.0
 10
127.0676990736846
 20
139.1918549412285
 30
0.0
 10
127.1526126826293
 20
139.2669645628615
 30
0.0
 10
127.1522599048606
 20
139.4461018791866
 30
0.0
 10
127.1522599048606
 20
139.4461018791866
 30
0.0
 10
127.1450279606006
 20
143.6870198265473
 30
0.0
 10
127.1450279606006
 20
143.6870198265473
 30
0.0
 10
127.1445340717243
 20
143.8678923394891
 30
0.0
 10
127.0594087961183
 20
144.0835420386534
 30
0.0
 10
126.9536460210387
 20
144.1720892586166
 30
0.0
 10
126.9536460210387
 20
144.1720892586166
 30
0.0
 10
124.4613063624014
 20
146.25601809434
 30
0.0
 10
124.4613063624014
 20
146.25601809434
 30
0.0
 10
124.3545205317924
 20
146.3452355920639
 30
0.0
 10
124.2697480339551
 20
146.2718578161582
 30
0.0
 10
124.2699244228395
 20
146.0909886541059
 30
0.0
 10
124.2699244228395
 20
146.0909886541059
 30
0.0
 10
124.2773327559838
 20
141.850105984522
 30
0.0
 10
124.2773327559838
 20
141.850105984522
 30
0.0
 10
124.2775091448682
 20
141.6709301557598
 30
0.0
 10
124.3629519204662
 20
141.4532309946472
 30
0.0
 10
124.4695613621908
 20
141.3639782191464
 30
0.0
 10
124.4695613621908
 20
141.3639782191464
 30
0.0
 10
126.961936298605
 20
139.2798729945386
 30
0.0
 10
126.961936298605
 20
139.2798729945386
 30
0.0
  0
HATCH
  5
57
330
41
100
AcDbEntity
  8
_U+30EC_U+30A4_U+30E4_U+30FC 1
 62
     7
100
AcDbHatch
 10
0.0
 20
0.0
 30
0.0
210
0.0
220
0.0
230
1.0
  2
SOLID
 70
     1
 71
     0
 91
        1
 92
        1
 93
        1
 72
     4
 94
        3
 73
     0
 74
     1
 95
       29
 96
       25
 40
0.0
 40
0.0
 40
0.0
 40
0.0
 40
1.0
 40
1.0
 40
1.0
 40
2.0
 40
2.0
 40
2.0
 40
3.0
 40
3.0
 40
3.0
 40
4.0
 40
4.0
 40
4.0
 40
5.0
 40
5.0
 40
5.0
 40
6.0
 40
6.0
 40
6.0
 40
7.0
 40
7.0
 40
7.0
 40
8.0
 40
8.0
 40
8.0
 40
8.0
 10
126.961936298605
 20
139.2798729945386
 10
127.0676990736846
 20
139.1918549412285
 10
127.1526126826293
 20
139.2669645628615
 10
127.1522599048606
 20
139.4461018791866
 10
127.1522599048606
 20
139.4461018791866
 10
127.1450279606006
 20
143.6870198265473
 10
127.1450279606006
 20
143.6870198265473
 10
127.1445340717243
 20
143.8678923394891
 10
127.0594087961183
 20
144.0835420386534
 10
126.9536460210387
 20
144.1720892586166
 10
126.9536460210387
 20
144.1720892586166
 10
124.4613063624014
 20
146.25601809434
 10
124.4613063624014
 20
146.25601809434
 10
124.3545205317924
 20
146.3452355920639
 10
124.2697480339551
 20
146.2718578161582
 10
124.2699244228395
 20
146.0909886541059
 10
124.2699244228395
 20
146.0909886541059
 10
124.2773327559838
 20
141.850105984522
 10
124.2773327559838
 20
141.850105984522
 10
124.2775091448682
 20
141.6709301557598
 10
124.3629519204662
 20
141.4532309946472
 10
124.4695613621908
 20
141.3639782191464
 10
124.4695613621908
 20
141.3639782191464
 10
126.961936298605
 20
139.2798729945386
 10
126.961936298605
 20
139.2798729945386
 97
        0
 75
     2
 76
     1
 98
        0
  0
SPLINE
  5
58
330
41
100
AcDbEntity
  8
_U+30EC_U+30A4_U+30E4_U+30FC 1
370
     0
100
AcDbSpline
210
0.0
220
0.0
230
1.0
 70
    11
 71
     3
 72
    29
 73
    25
 74
     0
 42
0.0000000001
 43
0.0000000001
 12
1.0
 22
0.0
 32
0.0
 13
1.0
 23
0.0
 33
0.0
 40
0.0
 40
0.0
 40
0.0
 40
0.0
 40
1.0
 40
1.0
 40
1.0
 40
2.0
 40
2.0
 40
2.0
 40
3.0
 40
3.0
 40
3.0
 40
4.0
 40
4.0
 40
4.0
 40
5.0
 40
5.0
 40
5.0
 40
6.0
 40
6.0
 40
6.0
 40
7.0
 40
7.0
 40
7.0
 40
8.0
 40
8.0
 40
8.0
 40
8.0
 10
129.8473762249913
 20
131.9798779029992
 30
0.0
 10
129.9526098334177
 20
131.8922126274579
 30
0.0
 10
130.0375234423625
 20
131.9667898477775
 30
0.0
 10
130.0372059423706
 20
132.1478353987142
 30
0.0
 10
130.0372059423706
 20
132.1478353987142
 30
0.0
 10
130.0299739981106
 20
136.3873775127767
 30
0.0
 10
130.0299739981106
 20
136.3873775127767
 30
0.0
 10
130.0296212203419
 20
136.5668708415308
 30
0.0
 10
129.9443548336283
 20
136.7832294471222
 30
0.0
 10
129.8390893677294
 20
136.8710711115478
 30
0.0
 10
129.8390893677294
 20
136.8710711115478
 30
0.0
 10
127.3462171221345
 20
138.9555291139244
 30
0.0
 10
127.3462171221345
 20
138.9555291139244
 30
0.0
 10
127.240454347055
 20
139.0438999450032
 30
0.0
 10
127.1534593492744
 20
138.9715452246269
 30
0.0
 10
127.1538121270432
 20
138.7920518958728
 30
0.0
 10
127.1538121270432
 20
138.7920518958728
 30
0.0
 10
127.1612204601875
 20
134.5525097818103
 30
0.0
 10
127.1612204601875
 20
134.5525097818103
 30
0.0
 10
127.1613968490719
 20
134.3714673418633
 30
0.0
 10
127.2490621246132
 20
134.152883125339
 30
0.0
 10
127.3548282572392
 20
134.0643359053758
 30
0.0
 10
127.3548282572392
 20
134.0643359053758
 30
0.0
 10
129.8473762249913
 20
131.9798779029992
 30
0.0
 10
129.8473762249913
 20
131.9798779029992
 30
0.0
  0
HATCH
  5
59
330
41
100
AcDbEntity
  8
_U+30EC_U+30A4_U+30E4_U+30FC 1
 62
     7
100
AcDbHatch
 10
0.0
 20
0.0
 30
0.0
210
0.0
220
0.0
230
1.0
  2
SOLID
 70
     1
 71
     0
 91
        1
 92
        1
 93
        1
 72
     4
 94
        3
 73
     0
 74
     1
 95
       29
 96
       25
 40
0.0
 40
0.0
 40
0.0
 40
0.0
 40
1.0
 40
1.0
 40
1.0
 40
2.0
 40
2.0
 40
2.0
 40
3.0
 40
3.0
 40
3.0
 40
4.0
 40
4.0
 40
4.0
 40
5.0
 40
5.0
 40
5.0
 40
6.0
 40
6.0
 40
6.0
 40
7.0
 40
7.0
 40
7.0
 40
8.0
 40
8.0
 40
8.0
 40
8.0
 10
129.8473762249913
 20
131.9798779029992
 10
129.9526098334177
 20
131.8922126274579
 10
130.0375234423625
 20
131.9667898477775
 10
130.0372059423706
 20
132.1478353987142
 10
130.0372059423706
 20
132.1478353987142
 10
130.0299739981106
 20
136.3873775127767
 10
130.0299739981106
 20
136.3873775127767
 10
130.0296212203419
 20
136.5668708415308
 10
129.9443548336283
 20
136.7832294471222
 10
129.8390893677294
 20
136.8710711115478
 10
129.8390893677294
 20
136.8710711115478
 10
127.3462171221345
 20
138.9555291139244
 10
127.3462171221345
 20
138.9555291139244
 10
127.240454347055
 20
139.0438999450032
 10
127.1534593492744
 20
138.9715452246269
 10
127.1538121270432
 20
138.7920518958728
 10
127.1538121270432
 20
138.7920518958728
 10
127.1612204601875
 20
134.5525097818103
 10
127.1612204601875
 20
134.5525097818103
 10
127.1613968490719
 20
134.3714673418633
 10
127.2490621246132
 20
134.152883125339
 10
127.3548282572392
 20
134.0643359053758
 10
127.3548282572392
 20
134.0643359053758
 10
129.8473762249913
 20
131.9798779029992
 10
129.8473762249913
 20
131.9798779029992
 97
        0
 75
     2
 76
     1
 98
        0
  0
SPLINE
  5
5A
330
41
100
AcDbEntity
  8
_U+30EC_U+30A4_U+30E4_U+30FC 1
370
     0
100
AcDbSpline
210
0.0
220
0.0
230
1.0
 70
    11
 71
     3
 72
    29
 73
    25
 74
     0
 42
0.0000000001
 43
0.0000000001
 12
1.0
 22
0.0
 32
0.0
 13
1.0
 23
0.0
 33
0.0
 40
0.0
 40
0.0
 40
0.0
 40
0.0
 40
1.0
 40
1.0
 40
1.0
 40
2.0
 40
2.0
 40
2.0
 40
3.0
 40
3.0
 40
3.0
 40
4.0
 40
4.0
 40
4.0
 40
5.0
 40
5.0
 40
5.0
 40
6.0
 40
6.0
 40
6.0
 40
7.0
 40
7.0
 40
7.0
 40
8.0
 40
8.0
 40
8.0
 40
8.0
 10
132.7155653184844
 20
134.4691483950482
 30
0.0
 10
132.8206578158032
 20
134.3809539528537
 30
0.0
 10
132.9066297580544
 20
134.4558839509421
 30
0.0
 10
132.9062769802856
 20
134.6344953352742
 30
0.0
 10
132.9062769802856
 20
134.6344953352742
 30
0.0
 10
132.8990450360256
 20
138.875413282635
 30
0.0
 10
132.8990450360256
 20
138.875413282635
 30
0.0
 10
132.8986922582569
 20
139.0562824446873
 30
0.0
 10
132.8124028160138
 20
139.2731702169318
 30
0.0
 10
132.707310318695
 20
139.3611882702418
 30
0.0
 10
132.707310318695
 20
139.3611882702418
 30
0.0
 10
130.2144449231912
 20
141.4456462726184
 30
0.0
 10
130.2144449231912
 20
141.4456462726184
 30
0.0
 10
130.1086787183249
 20
141.5338407148128
 30
0.0
 10
130.0237651093802
 20
141.4602865500227
 30
0.0
 10
130.0242589982564
 20
141.2794173879704
 30
0.0
 10
130.0242589982564
 20
141.2794173879704
 30
0.0
 10
130.0313532565702
 20
137.0384994406097
 30
0.0
 10
130.0313532565702
 20
137.0384994406097
 30
0.0
 10
130.0318437202851
 20
136.8597116673931
 30
0.0
 10
130.1171101069987
 20
136.6419772285036
 30
0.0
 10
130.2226964931939
 20
136.5534300085404
 30
0.0
 10
130.2226964931939
 20
136.5534300085404
 30
0.0
 10
132.7155653184844
 20
134.4691483950482
 30
0.0
 10
132.7155653184844
 20
134.4691483950482
 30
0.0
  0
HATCH
  5
5B
330
41
100
AcDbEntity
  8
_U+30EC_U+30A4_U+30E4_U+30FC 1
 62
     7
100
AcDbHatch
 10
0.0
 20
0.0
 30
0.0
210
0.0
220
0.0
230
1.0
  2
SOLID
 70
     1
 71
     0
 91
        1
 92
        1
 93
        1
 72
     4
 94
        3
 73
     0
 74
     1
 95
       29
 96
       25
 40
0.0
 40
0.0
 40
0.0
 40
0.0
 40
1.0
 40
1.0
 40
1.0
 40
2.0
 40
2.0
 40
2.0
 40
3.0
 40
3.0
 40
3.0
 40
4.0
 40
4.0
 40
4.0
 40
5.0
 40
5.0
 40
5.0
 40
6.0
 40
6.0
 40
6.0
 40
7.0
 40
7.0
 40
7.0
 40
8.0
 40
8.0
 40
8.0
 40
8.0
 10
132.7155653184844
 20
134.4691483950482
 10
132.8206578158032
 20
134.3809539528537
 10
132.9066297580544
 20
134.4558839509421
 10
132.9062769802856
 20
134.6344953352742
 10
132.9062769802856
 20
134.6344953352742
 10
132.8990450360256
 20
138.875413282635
 10
132.8990450360256
 20
138.875413282635
 10
132.8986922582569
 20
139.0562824446873
 10
132.8124028160138
 20
139.2731702169318
 10
132.707310318695
 20
139.3611882702418
 10
132.707310318695
 20
139.3611882702418
 10
130.2144449231912
 20
141.4456462726184
 10
130.2144449231912
 20
141.4456462726184
 10
130.1086787183249
 20
141.5338407148128
 10
130.0237651093802
 20
141.4602865500227
 10
130.0242589982564
 20
141.2794173879704
 10
130.0242589982564
 20
141.2794173879704
 10
130.0313532565702
 20
137.0384994406097
 10
130.0313532565702
 20
137.0384994406097
 10
130.0318437202851
 20
136.8597116673931
 10
130.1171101069987
 20
136.6419772285036
 10
130.2226964931939
 20
136.5534300085404
 10
130.2226964931939
 20
136.5534300085404
 10
132.7155653184844
 20
134.4691483950482
 10
132.7155653184844
 20
134.4691483950482
 97
        0
 75
     2
 76
     1
 98
        0
  0
SPLINE
  5
5C
330
41
100
AcDbEntity
  8
_U+30EC_U+30A4_U+30E4_U+30FC 1
370
     0
100
AcDbSpline
210
0.0
220
0.0
230
1.0
 70
    11
 71
     3
 72
    29
 73
    25
 74
     0
 42
0.0000000001
 43
0.0000000001
 12
1.0
 22
0.0
 32
0.0
 13
1.0
 23
0.0
 33
0.0
 40
0.0
 40
0.0
 40
0.0
 40
0.0
 40
1.0
 40
1.0
 40
1.0
 40
2.0
 40
2.0
 40
2.0
 40
3.0
 40
3.0
 40
3.0
 40
4.0
 40
4.0
 40
4.0
 40
5.0
 40
5.0
 40
5.0
 40
6.0
 40
6.0
 40
6.0
 40
7.0
 40
7.0
 40
7.0
 40
8.0
 40
8.0
 40
8.0
 40
8.0
 10
126.9787990759526
 20
129.4904662998427
 30
0.0
 10
127.0845618510321
 20
129.4019190798795
 30
0.0
 10
127.1695107377538
 20
129.4768490779679
 30
0.0
 10
127.169157959985
 20
129.6573654622514
 30
0.0
 10
127.169157959985
 20
129.6573654622514
 30
0.0
 10
127.1617496268407
 20
133.8979306318434
 30
0.0
 10
127.1617496268407
 20
133.8979306318434
 30
0.0
 10
127.1613968490719
 20
134.0767536828368
 30
0.0
 10
127.0763068512427
 20
134.2941353439575
 30
0.0
 10
126.9705440761632
 20
134.3825061750364
 30
0.0
 10
126.9705440761632
 20
134.3825061750364
 30
0.0
 10
124.4782044175258
 20
136.4662617857841
 30
0.0
 10
124.4782044175258
 20
136.4662617857841
 30
0.0
 10
124.3713865913186
 20
136.5558288973681
 30
0.0
 10
124.2864697001952
 20
136.4805461215109
 30
0.0
 10
124.286822477964
 20
136.3019347371788
 30
0.0
 10
124.286822477964
 20
136.3019347371788
 30
0.0
 10
124.2942308111083
 20
132.0611931787024
 30
0.0
 10
124.2942308111083
 20
132.0611931787024
 30
0.0
 10
124.2945483111002
 20
131.8808562313747
 30
0.0
 10
124.3798146978138
 20
131.6637890221744
 30
0.0
 10
124.4864594173152
 20
131.5745715244505
 30
0.0
 10
124.4864594173152
 20
131.5745715244505
 30
0.0
 10
126.9787990759526
 20
129.4904662998427
 30
0.0
 10
126.9787990759526
 20
129.4904662998427
 30
0.0
  0
HATCH
  5
5D
330
41
100
AcDbEntity
  8
_U+30EC_U+30A4_U+30E4_U+30FC 1
 62
     7
100
AcDbHatch
 10
0.0
 20
0.0
 30
0.0
210
0.0
220
0.0
230
1.0
  2
SOLID
 70
     1
 71
     0
 91
        1
 92
        1
 93
        1
 72
     4
 94
        3
 73
     0
 74
     1
 95
       29
 96
       25
 40
0.0
 40
0.0
 40
0.0
 40
0.0
 40
1.0
 40
1.0
 40
1.0
 40
2.0
 40
2.0
 40
2.0
 40
3.0
 40
3.0
 40
3.0
 40
4.0
 40
4.0
 40
4.0
 40
5.0
 40
5.0
 40
5.0
 40
6.0
 40
6.0
 40
6.0
 40
7.0
 40
7.0
 40
7.0
 40
8.0
 40
8.0
 40
8.0
 40
8.0
 10
126.9787990759526
 20
129.4904662998427
 10
127.0845618510321
 20
129.4019190798795
 10
127.1695107377538
 20
129.4768490779679
 10
127.169157959985
 20
129.6573654622514
 10
127.169157959985
 20
129.6573654622514
 10
127.1617496268407
 20
133.8979306318434
 10
127.1617496268407
 20
133.8979306318434
 10
127.1613968490719
 20
134.0767536828368
 10
127.0763068512427
 20
134.2941353439575
 10
126.9705440761632
 20
134.3825061750364
 10
126.9705440761632
 20
134.3825061750364
 10
124.4782044175258
 20
136.4662617857841
 10
124.4782044175258
 20
136.4662617857841
 10
124.3713865913186
 20
136.5558288973681
 10
124.2864697001952
 20
136.4805461215109
 10
124.286822477964
 20
136.3019347371788
 10
124.286822477964
 20
136.3019347371788
 10
124.2942308111083
 20
132.0611931787024
 10
124.2942308111083
 20
132.0611931787024
 10
124.2945483111002
 20
131.8808562313747
 10
124.3798146978138
 20
131.6637890221744
 10
124.4864594173152
 20
131.5745715244505
 10
124.4864594173152
 20
131.5745715244505
 10
126.9787990759526
 20
129.4904662998427
 10
126.9787990759526
 20
129.4904662998427
 97
        0
 75
     2
 76
     1
 98
        0
  0
ENDBLK
  5
44
330
41
100
AcDbEntity
  8
0
100
AcDbBlockEnd
  0
BLOCK
  5
60
330
5E
100
AcDbEntity
  8
0
100
AcDbBlockBegin
  2
block 3
 70
     0
 10
0.0
 20
0.0
 30
0.0
  3
block 3
  1

  0
POLYLINE
  5
62
330
5E
100
AcDbEntity
  8
_U+30EC_U+30A4_U+30E4_U+30FC 1
 62
     7
370
     5
100
AcDb2dPolyline
 66
     1
 10
0.0
 20
0.0
 30
0.0
  0
VERTEX
  5
63
330
62
100
AcDbEntity
  8
_U+30EC_U+30A4_U+30E4_U+30FC 1
 62
     7
370
     5
100
AcDbVertex
100
AcDb2dVertex
 10
117.7314707007605
 20
126.9819341416185
 30
0.0
  0
VERTEX
  5
64
330
62
100
AcDbEntity
  8
_U+30EC_U+30A4_U+30E4_U+30FC 1
 62
     7
370
     5
100
AcDbVertex
100
AcDb2dVertex
 10
117.6546709804976
 20
163.037268499548
 30
0.0
  0
VERTEX
  5
65
330
62
100
AcDbEntity
  8
_U+30EC_U+30A4_U+30E4_U+30FC 1
 62
     7
370
     5
100
AcDbVertex
100
AcDb2dVertex
 10
166.605161676111
 20
124.2589130999774
 30
0.0
  0
VERTEX
  5
66
330
62
100
AcDbEntity
  8
_U+30EC_U+30A4_U+30E4_U+30FC 1
 62
     7
370
     5
100
AcDbVertex
100
AcDb2dVertex
 10
166.681643896382
 20
88.204107908701
 30
0.0
  0
VERTEX
  5
67
330
62
100
AcDbEntity
  8
_U+30EC_U+30A4_U+30E4_U+30FC 1
 62
     7
370
     5
100
AcDbVertex
100
AcDb2dVertex
 10
117.7314707007605
 20
126.9819341416185
 30
0.0
  0
SEQEND
  5
68
330
62
100
AcDbEntity
  8
_U+30EC_U+30A4_U+30E4_U+30FC 1
 62
     7
370
     5
  0
POLYLINE
  5
69
330
5E
100
AcDbEntity
  8
_U+30EC_U+30A4_U+30E4_U+30FC 1
 62
     7
370
     5
100
AcDb2dPolyline
 66
     1
 10
0.0
 20
0.0
 30
0.0
  0
VERTEX
  5
6A
330
69
100
AcDbEntity
  8
_U+30EC_U+30A4_U+30E4_U+30FC 1
 62
     7
370
     5
100
AcDbVertex
100
AcDb2dVertex
 10
119.6030273196798
 20
163.0413959994427
 30
0.0
  0
VERTEX
  5
6B
330
69
100
AcDbEntity
  8
_U+30EC_U+30A4_U+30E4_U+30FC 1
 62
     7
370
     5
100
AcDbVertex
100
AcDb2dVertex
 10
168.5530241264169
 20
124.2630405998721
 30
0.0
  0
VERTEX
  5
6C
330
69
100
AcDbEntity
  8
_U+30EC_U+30A4_U+30E4_U+30FC 1
 62
     7
370
     5
100
AcDbVertex
100
AcDb2dVertex
 10
168.6295063466879
 20
88.20788263082693
 30
0.0
  0
SEQEND
  5
6D
330
69
100
AcDbEntity
  8
_U+30EC_U+30A4_U+30E4_U+30FC 1
 62
     7
370
     5
  0
POLYLINE
  5
6E
330
5E
100
AcDbEntity
  8
_U+30EC_U+30A4_U+30E4_U+30FC 1
 62
     7
370
     5
100
AcDb2dPolyline
 66
     1
 10
0.0
 20
0.0
 30
0.0
  0
VERTEX
  5
6F
330
6E
100
AcDbEntity
  8
_U+30EC_U+30A4_U+30E4_U+30FC 1
 62
     7
370
     5
100
AcDbVertex
100
AcDb2dVertex
 10
117.6546709804976
 20
163.037268499548
 30
0.0
  0
VERTEX
  5
70
330
6E
100
AcDbEntity
  8
_U+30EC_U+30A4_U+30E4_U+30FC 1
 62
     7
370
     5
100
AcDbVertex
100
AcDb2dVertex
 10
119.6030273196798
 20
163.0413959994427
 30
0.0
  0
SEQEND
  5
71
330
6E
100
AcDbEntity
  8
_U+30EC_U+30A4_U+30E4_U+30FC 1
 62
     7
370
     5
  0
POLYLINE
  5
72
330
5E
100
AcDbEntity
  8
_U+30EC_U+30A4_U+30E4_U+30FC 1
 62
     7
370
     5
100
AcDb2dPolyline
 66
     1
 10
0.0
 20
0.0
 30
0.0
  0
VERTEX
  5
73
330
72
100
AcDbEntity
  8
_U+30EC_U+30A4_U+30E4_U+30FC 1
 62
     7
370
     5
100
AcDbVertex
100
AcDb2dVertex
 10
166.605161676111
 20
124.2589130999774
 30
0.0
  0
VERTEX
  5
74
330
72
100
AcDbEntity
  8
_U+30EC_U+30A4_U+30E4_U+30FC 1
 62
     7
370
     5
100
AcDbVertex
100
AcDb2dVertex
 10
168.5530241264169
 20
124.2630405998721
 30
0.0
  0
SEQEND
  5
75
330
72
100
AcDbEntity
  8
_U+30EC_U+30A4_U+30E4_U+30FC 1
 62
     7
370
     5
  0
POLYLINE
  5
76
330
5E
100
AcDbEntity
  8
_U+30EC_U+30A4_U+30E4_U+30FC 1
 62
     7
370
     5
100
AcDb2dPolyline
 66
     1
 10
0.0
 20
0.0
 30
0.0
  0
VERTEX
  5
77
330
76
100
AcDbEntity
  8
_U+30EC_U+30A4_U+30E4_U+30FC 1
 62
     7
370
     5
100
AcDbVertex
100
AcDb2dVertex
 10
166.681643896382
 20
88.204107908701
 30
0.0
  0
VERTEX
  5
78
330
76
100
AcDbEntity
  8
_U+30EC_U+30A4_U+30E4_U+30FC 1
 62
     7
370
     5
100
AcDbVertex
100
AcDb2dVertex
 10
168.6295063466879
 20
88.20788263082693
 30
0.0
  0
SEQEND
  5
79
330
76
100
AcDbEntity
  8
_U+30EC_U+30A4_U+30E4_U+30FC 1
 62
     7
370
     5
  0
ENDBLK
  5
61
330
5E
100
AcDbEntity
  8
0
100
AcDbBlockEnd
  0
BLOCK
  5
7C
330
7A
100
AcDbEntity
  8
0
100
AcDbBlockBegin
  2
block 4
 70
     0
 10
0.0
 20
0.0
 30
0.0
  3
block 4
  1

  0
POLYLINE
  5
7E
330
7A
100
AcDbEntity
  8
_U+30EC_U+30A4_U+30E4_U+30FC 1
 62
     7
370
     5
100
AcDb2dPolyline
 66
     1
 10
0.0
 20
0.0
 30
0.0
  0
VERTEX
  5
7F
330
7E
100
AcDbEntity
  8
_U+30EC_U+30A4_U+30E4_U+30FC 1
 62
     7
370
     5
100
AcDbVertex
100
AcDb2dVertex
 10
122.284353258507
 20
162.3532324058881
 30
0.0
  0
VERTEX
  5
80
330
7E
100
AcDbEntity
  8
_U+30EC_U+30A4_U+30E4_U+30FC 1
 62
     7
370
     5
100
AcDbVertex
100
AcDb2dVertex
 10
171.2701537793193
 20
123.1611392390951
 30
0.0
  0
VERTEX
  5
81
330
7E
100
AcDbEntity
  8
_U+30EC_U+30A4_U+30E4_U+30FC 1
 62
     7
370
     5
100
AcDbVertex
100
AcDb2dVertex
 10
171.3421557219268
 20
89.00265566610614
 30
0.0
  0
SEQEND
  5
82
330
7E
100
AcDbEntity
  8
_U+30EC_U+30A4_U+30E4_U+30FC 1
 62
     7
370
     5
  0
POLYLINE
  5
83
330
7A
100
AcDbEntity
  8
_U+30EC_U+30A4_U+30E4_U+30FC 1
 62
     7
370
     5
100
AcDb2dPolyline
 66
     1
 10
0.0
 20
0.0
 30
0.0
  0
VERTEX
  5
84
330
83
100
AcDbEntity
  8
_U+30EC_U+30A4_U+30E4_U+30FC 1
 62
     7
370
     5
100
AcDbVertex
100
AcDb2dVertex
 10
120.5085725743552
 20
162.3058543515413
 30
0.0
  0
VERTEX
  5
85
330
83
100
AcDbEntity
  8
_U+30EC_U+30A4_U+30E4_U+30FC 1
 62
     7
370
     5
100
AcDbVertex
100
AcDb2dVertex
 10
122.284353258507
 20
162.3532324058881
 30
0.0
  0
SEQEND
  5
86
330
83
100
AcDbEntity
  8
_U+30EC_U+30A4_U+30E4_U+30FC 1
 62
     7
370
     5
  0
POLYLINE
  5
87
330
7A
100
AcDbEntity
  8
_U+30EC_U+30A4_U+30E4_U+30FC 1
 62
     7
370
     5
100
AcDb2dPolyline
 66
     1
 10
0.0
 20
0.0
 30
0.0
  0
VERTEX
  5
88
330
87
100
AcDbEntity
  8
_U+30EC_U+30A4_U+30E4_U+30FC 1
 62
     7
370
     5
100
AcDbVertex
100
AcDb2dVertex
 10
168.5554230152445
 20
123.1552831281333
 30
0.0
  0
VERTEX
  5
89
330
87
100
AcDbEntity
  8
_U+30EC_U+30A4_U+30E4_U+30FC 1
 62
     7
370
     5
100
AcDbVertex
100
AcDb2dVertex
 10
171.2701537793193
 20
123.1609628502107
 30
0.0
  0
SEQEND
  5
8A
330
87
100
AcDbEntity
  8
_U+30EC_U+30A4_U+30E4_U+30FC 1
 62
     7
370
     5
  0
POLYLINE
  5
8B
330
7A
100
AcDbEntity
  8
_U+30EC_U+30A4_U+30E4_U+30FC 1
 62
     7
370
     5
100
AcDb2dPolyline
 66
     1
 10
0.0
 20
0.0
 30
0.0
  0
VERTEX
  5
8C
330
8B
100
AcDbEntity
  8
_U+30EC_U+30A4_U+30E4_U+30FC 1
 62
     7
370
     5
100
AcDbVertex
100
AcDb2dVertex
 10
168.6277777356208
 20
88.9971523329132
 30
0.0
  0
VERTEX
  5
8D
330
8B
100
AcDbEntity
  8
_U+30EC_U+30A4_U+30E4_U+30FC 1
 62
     7
370
     5
100
AcDbVertex
100
AcDb2dVertex
 10
171.3421557219268
 20
89.00265566610614
 30
0.0
  0
SEQEND
  5
8E
330
8B
100
AcDbEntity
  8
_U+30EC_U+30A4_U+30E4_U+30FC 1
 62
     7
370
     5
  0
ENDBLK
  5
7D
330
7A
100
AcDbEntity
  8
0
100
AcDbBlockEnd
  0
BLOCK
  5
91
330
8F
100
AcDbEntity
  8
0
100
AcDbBlockBegin
  2
block 5
 70
     0
 10
0.0
 20
0.0
 30
0.0
  3
block 5
  1

  0
POLYLINE
  5
93
330
8F
100
AcDbEntity
  8
_U+30EC_U+30A4_U+30E4_U+30FC 1
 62
     7
370
     5
100
AcDb2dPolyline
 66
     1
 10
0.0
 20
0.0
 30
0.0
  0
VERTEX
  5
94
330
93
100
AcDbEntity
  8
_U+30EC_U+30A4_U+30E4_U+30FC 1
 62
     7
370
     5
100
AcDbVertex
100
AcDb2dVertex
 10
170.1629254742337
 20
124.0439303276843
 30
0.0
  0
VERTEX
  5
95
330
93
100
AcDbEntity
  8
_U+30EC_U+30A4_U+30E4_U+30FC 1
 62
     7
370
     5
100
AcDbVertex
100
AcDb2dVertex
 10
179.6434752323648
 20
128.8105577060775
 30
0.0
  0
SEQEND
  5
96
330
93
100
AcDbEntity
  8
_U+30EC_U+30A4_U+30E4_U+30FC 1
 62
     7
370
     5
  0
POLYLINE
  5
97
330
8F
100
AcDbEntity
  8
_U+30EC_U+30A4_U+30E4_U+30FC 1
 62
     7
370
     5
100
AcDb2dPolyline
 66
     1
 10
0.0
 20
0.0
 30
0.0
  0
VERTEX
  5
98
330
97
100
AcDbEntity
  8
_U+30EC_U+30A4_U+30E4_U+30FC 1
 62
     7
370
     5
100
AcDbVertex
100
AcDb2dVertex
 10
178.9003488624346
 20
130.4635332194621
 30
0.0
  0
VERTEX
  5
99
330
97
100
AcDbEntity
  8
_U+30EC_U+30A4_U+30E4_U+30FC 1
 62
     7
370
     5
100
AcDbVertex
100
AcDb2dVertex
 10
168.5829749589861
 20
125.3034527955512
 30
0.0
  0
SEQEND
  5
9A
330
97
100
AcDbEntity
  8
_U+30EC_U+30A4_U+30E4_U+30FC 1
 62
     7
370
     5
  0
SPLINE
  5
9B
330
8F
100
AcDbEntity
  8
_U+30EC_U+30A4_U+30E4_U+30FC 1
 62
     7
370
     5
100
AcDbSpline
210
0.0
220
0.0
230
1.0
 70
     8
 71
     3
 72
    14
 73
    10
 74
     0
 42
0.0000000001
 43
0.0000000001
 12
1.0
 22
0.0
 32
0.0
 13
1.0
 23
0.0
 33
0.0
 40
0.0
 40
0.0
 40
0.0
 40
0.0
 40
1.0
 40
1.0
 40
1.0
 40
2.0
 40
2.0
 40
2.0
 40
3.0
 40
3.0
 40
3.0
 40
3.0
 10
178.9268777506467
 20
130.4752454413856
 30
0.0
 10
178.9541121943963
 20
130.4857582188951
 30
0.0
 10
178.9823696936754
 20
130.4940132186845
 30
0.0
 10
179.0112974707152
 20
130.5003984962994
 30
0.0
 10
179.4081724605901
 20
130.5878873829563
 30
0.0
 10
179.8439588383611
 20
130.2716221132471
 30
0.0
 10
179.9838352236815
 20
129.7950193476285
 30
0.0
 10
180.1064960538855
 20
129.3776479693876
 30
0.0
 10
179.9624921686704
 20
128.9754107574273
 30
0.0
 10
179.6589621764141
 20
128.8229784543615
 30
0.0
  0
SPLINE
  5
9C
330
8F
100
AcDbEntity
  8
_U+30EC_U+30A4_U+30E4_U+30FC 1
 62
     7
370
     5
100
AcDbSpline
210
0.0
220
0.0
230
1.0
 70
     8
 71
     3
 72
    14
 73
    10
 74
     0
 42
0.0000000001
 43
0.0000000001
 12
1.0
 22
0.0
 32
0.0
 13
1.0
 23
0.0
 33
0.0
 40
0.0
 40
0.0
 40
0.0
 40
0.0
 40
1.0
 40
1.0
 40
1.0
 40
2.0
 40
2.0
 40
2.0
 40
3.0
 40
3.0
 40
3.0
 40
3.0
 10
178.4204699111397
 20
130.2261490588516
 30
0.0
 10
178.4473116517703
 20
130.2366618363612
 30
0.0
 10
178.4755691510494
 20
130.2447757250431
 30
0.0
 10
178.504849705858
 20
130.2513021137655
 30
0.0
 10
178.9017246957328
 20
130.3386498893148
 30
0.0
 10
179.337193573512
 20
130.02256100849
 30
0.0
 10
179.4774227366011
 20
129.5459229650945
 30
0.0
 10
179.6000482890282
 20
129.1285515868537
 30
0.0
 10
179.4560444038132
 20
128.7261732637859
 30
0.0
 10
179.1525496893338
 20
128.5738791010046
 30
0.0
  0
SPLINE
  5
9D
330
8F
100
AcDbEntity
  8
_U+30EC_U+30A4_U+30E4_U+30FC 1
 62
     7
370
     5
100
AcDbSpline
210
0.0
220
0.0
230
1.0
 70
     8
 71
     3
 72
    14
 73
    10
 74
     0
 42
0.0000000001
 43
0.0000000001
 12
1.0
 22
0.0
 32
0.0
 13
1.0
 23
0.0
 33
0.0
 40
0.0
 40
0.0
 40
0.0
 40
0.0
 40
1.0
 40
1.0
 40
1.0
 40
2.0
 40
2.0
 40
2.0
 40
3.0
 40
3.0
 40
3.0
 40
3.0
 10
177.7366055587908
 20
129.8876940674864
 30
0.0
 10
177.7634872247717
 20
129.8980304561115
 30
0.0
 10
177.7917447240508
 20
129.9062854559009
 30
0.0
 10
177.8210252788593
 20
129.9128471224002
 30
0.0
 10
178.2179002687342
 20
130.0001596201727
 30
0.0
 10
178.6533338687365
 20
129.6840707393479
 30
0.0
 10
178.7932102540568
 20
129.2074326959524
 30
0.0
 10
178.9158710842608
 20
128.789920206604
 30
0.0
 10
178.772189355496
 20
128.3876829946437
 30
0.0
 10
178.4686899845583
 20
128.2354241096393
 30
0.0
  0
SPLINE
  5
9E
330
8F
100
AcDbEntity
  8
_U+30EC_U+30A4_U+30E4_U+30FC 1
 62
     7
370
     5
100
AcDbSpline
210
0.0
220
0.0
230
1.0
 70
     8
 71
     3
 72
    14
 73
    10
 74
     0
 42
0.0000000001
 43
0.0000000001
 12
1.0
 22
0.0
 32
0.0
 13
1.0
 23
0.0
 33
0.0
 40
0.0
 40
0.0
 40
0.0
 40
0.0
 40
1.0
 40
1.0
 40
1.0
 40
2.0
 40
2.0
 40
2.0
 40
3.0
 40
3.0
 40
3.0
 40
3.0
 10
177.1123699114665
 20
129.5788371309215
 30
0.0
 10
177.1392116851427
 20
129.5891735195467
 30
0.0
 10
177.1674691844218
 20
129.5974285193361
 30
0.0
 10
177.1967497392304
 20
129.603813796951
 30
0.0
 10
177.5933072291133
 20
129.6913026836078
 30
0.0
 10
178.0290936068844
 20
129.375213802783
 30
0.0
 10
178.1689699922048
 20
128.89843464828
 30
0.0
 10
178.2915955446319
 20
128.4810632700392
 30
0.0
 10
178.1475916594168
 20
128.0788260580789
 30
0.0
 10
177.8440969449374
 20
127.9265701212522
 30
0.0
  0
SPLINE
  5
9F
330
8F
100
AcDbEntity
  8
_U+30EC_U+30A4_U+30E4_U+30FC 1
 62
     7
370
     5
100
AcDbSpline
210
0.0
220
0.0
230
1.0
 70
     8
 71
     3
 72
    14
 73
    10
 74
     0
 42
0.0000000001
 43
0.0000000001
 12
1.0
 22
0.0
 32
0.0
 13
1.0
 23
0.0
 33
0.0
 40
0.0
 40
0.0
 40
0.0
 40
0.0
 40
1.0
 40
1.0
 40
1.0
 40
2.0
 40
2.0
 40
2.0
 40
3.0
 40
3.0
 40
3.0
 40
3.0
 10
176.5504608668297
 20
129.300639565353
 30
0.0
 10
176.5773425328105
 20
129.311149359973
 30
0.0
 10
176.6055647543128
 20
129.3194043597624
 30
0.0
 10
176.6348805868982
 20
129.3257896373773
 30
0.0
 10
177.0317555767731
 20
129.4132785240342
 30
0.0
 10
177.4671891767753
 20
129.0970485321018
 30
0.0
 10
177.6070655620957
 20
128.6204104887063
 30
0.0
 10
177.7300438922916
 20
128.2030391104655
 30
0.0
 10
177.5860400070765
 20
127.8008018985052
 30
0.0
 10
177.2825452925971
 20
127.6485430135007
 30
0.0
  0
SPLINE
  5
A0
330
8F
100
AcDbEntity
  8
_U+30EC_U+30A4_U+30E4_U+30FC 1
 62
     7
370
     5
100
AcDbSpline
210
0.0
220
0.0
230
1.0
 70
     8
 71
     3
 72
    14
 73
    10
 74
     0
 42
0.0000000001
 43
0.0000000001
 12
1.0
 22
0.0
 32
0.0
 13
1.0
 23
0.0
 33
0.0
 40
0.0
 40
0.0
 40
0.0
 40
0.0
 40
1.0
 40
1.0
 40
1.0
 40
2.0
 40
2.0
 40
2.0
 40
3.0
 40
3.0
 40
3.0
 40
3.0
 10
175.8666011620542
 20
128.9621463133213
 30
0.0
 10
175.893482828035
 20
128.9726590908308
 30
0.0
 10
175.9217449117641
 20
128.9809493683971
 30
0.0
 10
175.9510254673126
 20
128.9872993682351
 30
0.0
 10
176.3475476894356
 20
129.0746471437845
 30
0.0
 10
176.7833647497767
 20
128.7585582629597
 30
0.0
 10
176.9232058573202
 20
128.2819202195642
 30
0.0
 10
177.0458666875242
 20
127.8645488413233
 30
0.0
 10
176.9018628023091
 20
127.4623469071399
 30
0.0
 10
176.5983328100528
 20
127.3098763554742
 30
0.0
  0
SPLINE
  5
A1
330
8F
100
AcDbEntity
  8
_U+30EC_U+30A4_U+30E4_U+30FC 1
 62
     7
370
     5
100
AcDbSpline
210
0.0
220
0.0
230
1.0
 70
     8
 71
     3
 72
    14
 73
    10
 74
     0
 42
0.0000000001
 43
0.0000000001
 12
1.0
 22
0.0
 32
0.0
 13
1.0
 23
0.0
 33
0.0
 40
0.0
 40
0.0
 40
0.0
 40
0.0
 40
1.0
 40
1.0
 40
1.0
 40
2.0
 40
2.0
 40
2.0
 40
3.0
 40
3.0
 40
3.0
 40
3.0
 10
175.2420081224333
 20
128.6532923432926
 30
0.0
 10
175.269242566183
 20
128.663802154266
 30
0.0
 10
175.2974647876852
 20
128.6719160429479
 30
0.0
 10
175.3264278425018
 20
128.6784424316703
 30
0.0
 10
175.7233028323767
 20
128.7657902072196
 30
0.0
 10
176.1590892101478
 20
128.4497013263948
 30
0.0
 10
176.2989655954681
 20
127.9730632829993
 30
0.0
 10
176.4216310227501
 20
127.5555155158741
 30
0.0
 10
176.277622540457
 20
127.1533135816907
 30
0.0
 10
175.9740925482007
 20
127.0010546966862
 30
0.0
  0
SPLINE
  5
A2
330
8F
100
AcDbEntity
  8
_U+30EC_U+30A4_U+30E4_U+30FC 1
 62
     7
370
     5
100
AcDbSpline
210
0.0
220
0.0
230
1.0
 70
     8
 71
     3
 72
    14
 73
    10
 74
     0
 42
0.0000000001
 43
0.0000000001
 12
1.0
 22
0.0
 32
0.0
 13
1.0
 23
0.0
 33
0.0
 40
0.0
 40
0.0
 40
0.0
 40
0.0
 40
1.0
 40
1.0
 40
1.0
 40
2.0
 40
2.0
 40
2.0
 40
3.0
 40
3.0
 40
3.0
 40
3.0
 10
174.6508231375157
 20
128.3606602175553
 30
0.0
 10
174.6777048034966
 20
128.3709966061805
 30
0.0
 10
174.7059623027756
 20
128.3792516059699
 30
0.0
 10
174.7348900798154
 20
128.3857779946923
 30
0.0
 10
175.1317650696903
 20
128.4731257702417
 30
0.0
 10
175.5675867252382
 20
128.1570368894169
 30
0.0
 10
175.7074278327817
 20
127.680222457137
 30
0.0
 10
175.8300886629857
 20
127.2628510788961
 30
0.0
 10
175.6860893562676
 20
126.8606491447127
 30
0.0
 10
175.3825547855143
 20
126.7083902597083
 30
0.0
  0
SPLINE
  5
A3
330
8F
100
AcDbEntity
  8
_U+30EC_U+30A4_U+30E4_U+30FC 1
 62
     7
370
     5
100
AcDbSpline
210
0.0
220
0.0
230
1.0
 70
     8
 71
     3
 72
    14
 73
    10
 74
     0
 42
0.0000000001
 43
0.0000000001
 12
1.0
 22
0.0
 32
0.0
 13
1.0
 23
0.0
 33
0.0
 40
0.0
 40
0.0
 40
0.0
 40
0.0
 40
1.0
 40
1.0
 40
1.0
 40
2.0
 40
2.0
 40
2.0
 40
3.0
 40
3.0
 40
3.0
 40
3.0
 10
173.9666504678087
 20
128.0219935595288
 30
0.0
 10
173.9938450987211
 20
128.0325063370383
 30
0.0
 10
174.0221025980001
 20
128.0407613368278
 30
0.0
 10
174.0510303750399
 20
128.0471466144426
 30
0.0
 10
174.4479053649148
 20
128.1346355010995
 30
0.0
 10
174.8837270204627
 20
127.8183702313903
 30
0.0
 10
175.0236034057831
 20
127.3417674657717
 30
0.0
 10
175.1462289582102
 20
126.9243960875308
 30
0.0
 10
175.0022250729951
 20
126.5221617882701
 30
0.0
 10
174.6987303585157
 20
126.3697236016817
 30
0.0
  0
SPLINE
  5
A4
330
8F
100
AcDbEntity
  8
_U+30EC_U+30A4_U+30E4_U+30FC 1
 62
     7
370
     5
100
AcDbSpline
210
0.0
220
0.0
230
1.0
 70
     8
 71
     3
 72
    14
 73
    10
 74
     0
 42
0.0000000001
 43
0.0000000001
 12
1.0
 22
0.0
 32
0.0
 13
1.0
 23
0.0
 33
0.0
 40
0.0
 40
0.0
 40
0.0
 40
0.0
 40
1.0
 40
1.0
 40
1.0
 40
2.0
 40
2.0
 40
2.0
 40
3.0
 40
3.0
 40
3.0
 40
3.0
 10
173.3423703931194
 20
127.7131395657498
 30
0.0
 10
173.369604836869
 20
127.7236494004735
 30
0.0
 10
173.3978623361481
 20
127.7319044002629
 30
0.0
 10
173.4267901131878
 20
127.7382896778778
 30
0.0
 10
173.8236651030627
 20
127.8256374534271
 30
0.0
 10
174.2594867586106
 20
127.5095485726023
 30
0.0
 10
174.3993278661541
 20
127.0329105292068
 30
0.0
 10
174.5219886963581
 20
126.615539150966
 30
0.0
 10
174.3779893565945
 20
126.2133019390057
 30
0.0
 10
174.0744548188867
 20
126.0608666651168
 30
0.0
  0
SPLINE
  5
A5
330
8F
100
AcDbEntity
  8
_U+30EC_U+30A4_U+30E4_U+30FC 1
 62
     7
370
     5
100
AcDbSpline
210
0.0
220
0.0
230
1.0
 70
     8
 71
     3
 72
    14
 73
    10
 74
     0
 42
0.0000000001
 43
0.0000000001
 12
1.0
 22
0.0
 32
0.0
 13
1.0
 23
0.0
 33
0.0
 40
0.0
 40
0.0
 40
0.0
 40
0.0
 40
1.0
 40
1.0
 40
1.0
 40
2.0
 40
2.0
 40
2.0
 40
3.0
 40
3.0
 40
3.0
 40
3.0
 10
172.7805012407871
 20
127.4351124633903
 30
0.0
 10
172.8077004067599
 20
127.4456252408998
 30
0.0
 10
172.835957906039
 20
127.4538802406892
 30
0.0
 10
172.8648856830788
 20
127.4602655183041
 30
0.0
 10
173.2617606729536
 20
127.5476132938534
 30
0.0
 10
173.6975823285016
 20
127.2315244130287
 30
0.0
 10
173.8374587138219
 20
126.7548863696332
 30
0.0
 10
173.960084266249
 20
126.3375149913923
 30
0.0
 10
173.816080381034
 20
125.9353130572089
 30
0.0
 10
173.5125856665546
 20
125.7828425055432
 30
0.0
  0
SPLINE
  5
A6
330
8F
100
AcDbEntity
  8
_U+30EC_U+30A4_U+30E4_U+30FC 1
 62
     7
370
     5
100
AcDbSpline
210
0.0
220
0.0
230
1.0
 70
     8
 71
     3
 72
    14
 73
    10
 74
     0
 42
0.0000000001
 43
0.0000000001
 12
1.0
 22
0.0
 32
0.0
 13
1.0
 23
0.0
 33
0.0
 40
0.0
 40
0.0
 40
0.0
 40
0.0
 40
1.0
 40
1.0
 40
1.0
 40
2.0
 40
2.0
 40
2.0
 40
3.0
 40
3.0
 40
3.0
 40
3.0
 10
172.0966415360116
 20
127.0966221942481
 30
0.0
 10
172.1238407019844
 20
127.1071349717577
 30
0.0
 10
172.1520982012635
 20
127.1152488604395
 30
0.0
 10
172.1810612560801
 20
127.1217752491619
 30
0.0
 10
172.577936245955
 20
127.2091230247113
 30
0.0
 10
173.0137226237261
 20
126.8930341438865
 30
0.0
 10
173.1535990090464
 20
126.416396100491
 30
0.0
 10
173.2762245614735
 20
125.9988483333657
 30
0.0
 10
173.1322206762585
 20
125.5966463991823
 30
0.0
 10
172.828725961779
 20
125.4443875141779
 30
0.0
  0
SPLINE
  5
A7
330
8F
100
AcDbEntity
  8
_U+30EC_U+30A4_U+30E4_U+30FC 1
 62
     7
370
     5
100
AcDbSpline
210
0.0
220
0.0
230
1.0
 70
     8
 71
     3
 72
    14
 73
    10
 74
     0
 42
0.0000000001
 43
0.0000000001
 12
1.0
 22
0.0
 32
0.0
 13
1.0
 23
0.0
 33
0.0
 40
0.0
 40
0.0
 40
0.0
 40
0.0
 40
1.0
 40
1.0
 40
1.0
 40
2.0
 40
2.0
 40
2.0
 40
3.0
 40
3.0
 40
3.0
 40
3.0
 10
171.4406865527465
 20
126.7326613702002
 30
0.0
 10
171.4675726906554
 20
126.7431741477097
 30
0.0
 10
171.4958257180064
 20
126.7514291474991
 30
0.0
 10
171.525106272815
 20
126.7578173437666
 30
0.0
 10
171.921628484921
 20
126.8451622006634
 30
0.0
 10
172.357450140469
 20
126.5290733198386
 30
0.0
 10
172.4972912480124
 20
126.0524352764431
 30
0.0
 10
172.6199520782164
 20
125.6350638982022
 30
0.0
 10
172.4759481930014
 20
125.2328266862419
 30
0.0
 10
172.1724226904797
 20
125.0803914123531
 30
0.0
  0
SPLINE
  5
A8
330
8F
100
AcDbEntity
  8
_U+30EC_U+30A4_U+30E4_U+30FC 1
 62
     7
370
     5
100
AcDbSpline
210
0.0
220
0.0
230
1.0
 70
     8
 71
     3
 72
    14
 73
    10
 74
     0
 42
0.0000000001
 43
0.0000000001
 12
1.0
 22
0.0
 32
0.0
 13
1.0
 23
0.0
 33
0.0
 40
0.0
 40
0.0
 40
0.0
 40
0.0
 40
1.0
 40
1.0
 40
1.0
 40
2.0
 40
2.0
 40
2.0
 40
3.0
 40
3.0
 40
3.0
 40
3.0
 10
170.8160935131256
 20
126.4238044336353
 30
0.0
 10
170.8433279568752
 20
126.4343201216251
 30
0.0
 10
170.8715501783774
 20
126.442434010512
 30
0.0
 10
170.9005132331941
 20
126.4489574885492
 30
0.0
 10
171.297388223069
 20
126.5363052640985
 30
0.0
 10
171.73317460084
 20
126.2202163832737
 30
0.0
 10
171.8730509861604
 20
125.743581232909
 30
0.0
 10
171.9957118163643
 20
125.326030572753
 30
0.0
 10
171.8517079311493
 20
124.9238286385695
 30
0.0
 10
171.548177938893
 20
124.7715344757882
 30
0.0
  0
SPLINE
  5
A9
330
8F
100
AcDbEntity
  8
_U+30EC_U+30A4_U+30E4_U+30FC 1
 62
     7
370
     5
100
AcDbSpline
210
0.0
220
0.0
230
1.0
 70
     8
 71
     3
 72
    14
 73
    10
 74
     0
 42
0.0000000001
 43
0.0000000001
 12
1.0
 22
0.0
 32
0.0
 13
1.0
 23
0.0
 33
0.0
 40
0.0
 40
0.0
 40
0.0
 40
0.0
 40
1.0
 40
1.0
 40
1.0
 40
2.0
 40
2.0
 40
2.0
 40
3.0
 40
3.0
 40
3.0
 40
3.0
 10
170.224908528208
 20
126.1311399966574
 30
0.0
 10
170.2517901941888
 20
126.1414763852825
 30
0.0
 10
170.2800476934679
 20
126.1497666628488
 30
0.0
 10
170.3089754705077
 20
126.1562930515712
 30
0.0
 10
170.7058504603826
 20
126.2436408271206
 30
0.0
 10
171.1416721159305
 20
125.9275519462958
 30
0.0
 10
171.281513223474
 20
125.4507375140159
 30
0.0
 10
171.404174053678
 20
125.033366135775
 30
0.0
 10
171.2601701684629
 20
124.6311642015916
 30
0.0
 10
170.9566754539835
 20
124.4788728998919
 30
0.0
  0
SPLINE
  5
AA
330
8F
100
AcDbEntity
  8
_U+30EC_U+30A4_U+30E4_U+30FC 1
 62
     7
370
     5
100
AcDbSpline
210
0.0
220
0.0
230
1.0
 70
     8
 71
     3
 72
    14
 73
    10
 74
     0
 42
0.0000000001
 43
0.0000000001
 12
1.0
 22
0.0
 32
0.0
 13
1.0
 23
0.0
 33
0.0
 40
0.0
 40
0.0
 40
0.0
 40
0.0
 40
1.0
 40
1.0
 40
1.0
 40
2.0
 40
2.0
 40
2.0
 40
3.0
 40
3.0
 40
3.0
 40
3.0
 10
169.5407313234406
 20
125.7925086164077
 30
0.0
 10
169.5679304894133
 20
125.8030213939172
 30
0.0
 10
169.5961879886924
 20
125.8112763937066
 30
0.0
 10
169.6251157657322
 20
125.8176645662239
 30
0.0
 10
170.021990755607
 20
125.9051534550907
 30
0.0
 10
170.457812411155
 20
125.5888852882692
 30
0.0
 10
170.5976887964753
 20
125.1122472448737
 30
0.0
 10
170.7203143489025
 20
124.6948758666328
 30
0.0
 10
170.5763104636874
 20
124.2926739324494
 30
0.0
 10
170.272815749208
 20
124.1402386585606
 30
0.0
  0
SPLINE
  5
AB
330
8F
100
AcDbEntity
  8
_U+30EC_U+30A4_U+30E4_U+30FC 1
 62
     7
370
     5
100
AcDbSpline
210
0.0
220
0.0
230
1.0
 70
     8
 71
     3
 72
    14
 73
    10
 74
     0
 42
0.0000000001
 43
0.0000000001
 12
1.0
 22
0.0
 32
0.0
 13
1.0
 23
0.0
 33
0.0
 40
0.0
 40
0.0
 40
0.0
 40
0.0
 40
1.0
 40
1.0
 40
1.0
 40
2.0
 40
2.0
 40
2.0
 40
3.0
 40
3.0
 40
3.0
 40
3.0
 10
168.9164557838116
 20
125.4836516798428
 30
0.0
 10
168.9436902275612
 20
125.4941673440824
 30
0.0
 10
168.9719477268403
 20
125.5024194571418
 30
0.0
 10
169.0008755038801
 20
125.5088047347567
 30
0.0
 10
169.397750493755
 20
125.5961201218349
 30
0.0
 10
169.8335721493029
 20
125.2800312330248
 30
0.0
 10
169.9734132568464
 20
124.8034284553663
 30
0.0
 10
170.0347613108368
 20
124.5946517025231
 30
0.0
 10
170.029222699867
 20
124.3898289299708
 30
0.0
 10
169.9706615902499
 20
124.2180967121298
 30
0.0
  0
SPLINE
  5
AC
330
8F
100
AcDbEntity
  8
_U+30EC_U+30A4_U+30E4_U+30FC 1
 62
     7
370
     5
100
AcDbSpline
210
0.0
220
0.0
230
1.0
 70
     8
 71
     3
 72
    17
 73
    13
 74
     0
 42
0.0000000001
 43
0.0000000001
 12
1.0
 22
0.0
 32
0.0
 13
1.0
 23
0.0
 33
0.0
 40
0.0
 40
0.0
 40
0.0
 40
0.0
 40
1.0
 40
1.0
 40
1.0
 40
2.0
 40
2.0
 40
2.0
 40
3.0
 40
3.0
 40
3.0
 40
4.0
 40
4.0
 40
4.0
 40
4.0
 10
162.5881870563703
 20
123.002988965352
 30
0.0
 10
162.6719012209012
 20
123.1914428494331
 30
0.0
 10
162.8100532483756
 20
123.3368225679463
 30
0.0
 10
162.9995259347651
 20
123.4152097881687
 30
0.0
 10
163.5717667534993
 20
123.6522411710104
 30
0.0
 10
164.397200470201
 20
123.1914428494331
 30
0.0
 10
164.8430014432896
 20
122.3863334255287
 30
0.0
 10
165.2891242096859
 20
121.5810476127399
 30
0.0
 10
165.1871714345091
 20
120.7363212454018
 30
0.0
 10
164.6149306157749
 20
120.4996426403288
 30
0.0
 10
164.4443978423477
 20
120.4286637532508
 30
0.0
 10
164.2504449146824
 20
120.420232364577
 30
0.0
 10
164.0512975745988
 20
120.4646470856661
 30
0.0
  0
SPLINE
  5
AD
330
8F
100
AcDbEntity
  8
_U+30EC_U+30A4_U+30E4_U+30FC 1
 62
     7
370
     5
100
AcDbSpline
210
0.0
220
0.0
230
1.0
 70
     8
 71
     3
 72
    14
 73
    10
 74
     0
 42
0.0000000001
 43
0.0000000001
 12
1.0
 22
0.0
 32
0.0
 13
1.0
 23
0.0
 33
0.0
 40
0.0
 40
0.0
 40
0.0
 40
0.0
 40
1.0
 40
1.0
 40
1.0
 40
2.0
 40
2.0
 40
2.0
 40
3.0
 40
3.0
 40
3.0
 40
3.0
 10
163.0870148214219
 20
123.448617842872
 30
0.0
 10
163.0973512100471
 20
123.4536272871886
 30
0.0
 10
163.1076875986723
 20
123.4581075648521
 30
0.0
 10
163.1183810260762
 20
123.4625878425156
 30
0.0
 10
163.6906175838005
 20
123.6994428364729
 30
0.0
 10
164.5160470071865
 20
123.2384681260111
 30
0.0
 10
164.9622050513596
 20
122.4333587021067
 30
0.0
 10
165.4083278177559
 20
121.6280756783823
 30
0.0
 10
165.3063397648022
 20
120.7834876330873
 30
0.0
 10
164.7341342238448
 20
120.5466679169069
 30
0.0
  0
SPLINE
  5
AE
330
8F
100
AcDbEntity
  8
_U+30EC_U+30A4_U+30E4_U+30FC 1
 62
     7
370
     5
100
AcDbSpline
210
0.0
220
0.0
230
1.0
 70
     8
 71
     3
 72
    11
 73
     7
 74
     0
 42
0.0000000001
 43
0.0000000001
 12
1.0
 22
0.0
 32
0.0
 13
1.0
 23
0.0
 33
0.0
 40
0.0
 40
0.0
 40
0.0
 40
0.0
 40
1.0
 40
1.0
 40
1.0
 40
2.0
 40
2.0
 40
2.0
 40
2.0
 10
163.7639953597063
 20
120.721822079105
 30
0.0
 10
163.2365615816019
 20
120.5232081952832
 30
0.0
 10
162.5819781676398
 20
120.8134737434334
 30
0.0
 10
162.3015551192385
 20
121.369169284812
 30
0.0
 10
162.0218023485978
 20
121.9252176039594
 30
0.0
 10
162.2229915101317
 20
122.5370400883505
 30
0.0
 10
162.7504338039461
 20
122.7354775832879
 30
0.0
  0
SPLINE
  5
AF
330
8F
100
AcDbEntity
  8
_U+30EC_U+30A4_U+30E4_U+30FC 1
 62
     7
370
     5
100
AcDbSpline
210
0.0
220
0.0
230
1.0
 70
     8
 71
     3
 72
    11
 73
     7
 74
     0
 42
0.0000000001
 43
0.0000000001
 12
1.0
 22
0.0
 32
0.0
 13
1.0
 23
0.0
 33
0.0
 40
0.0
 40
0.0
 40
0.0
 40
0.0
 40
1.0
 40
1.0
 40
1.0
 40
2.0
 40
2.0
 40
2.0
 40
2.0
 10
162.7473251078659
 20
122.7339606388822
 30
0.0
 10
163.0005532483276
 20
122.8293870253365
 30
0.0
 10
163.4353123125361
 20
122.4517737016369
 30
0.0
 10
163.718169527542
 20
121.890398438181
 30
0.0
 10
164.0006782480779
 20
121.3293759524939
 30
0.0
 10
164.0175367421268
 20
120.8169309655675
 30
0.0
 10
163.7639953597063
 20
120.721822079105
 30
0.0
  0
POLYLINE
  5
B0
330
8F
100
AcDbEntity
  8
_U+30EC_U+30A4_U+30E4_U+30FC 1
 62
     7
370
     5
100
AcDb2dPolyline
 66
     1
 10
0.0
 20
0.0
 30
0.0
  0
VERTEX
  5
B1
330
B0
100
AcDbEntity
  8
_U+30EC_U+30A4_U+30E4_U+30FC 1
 62
     7
370
     5
100
AcDbVertex
100
AcDb2dVertex
 10
163.3474706481105
 20
120.6613912473134
 30
0.0
  0
VERTEX
  5
B2
330
B0
100
AcDbEntity
  8
_U+30EC_U+30A4_U+30E4_U+30FC 1
 62
     7
370
     5
100
AcDbVertex
100
AcDb2dVertex
 10
163.8549414684971
 20
120.4114481981344
 30
0.0
  0
VERTEX
  5
B3
330
B0
100
AcDbEntity
  8
_U+30EC_U+30A4_U+30E4_U+30FC 1
 62
     7
370
     5
100
AcDbVertex
100
AcDb2dVertex
 10
164.4375186758566
 20
121.1955320670197
 30
0.0
  0
VERTEX
  5
B4
330
B0
100
AcDbEntity
  8
_U+30EC_U+30A4_U+30E4_U+30FC 1
 62
     7
370
     5
100
AcDbVertex
100
AcDb2dVertex
 10
163.8549414684971
 20
122.488991756243
 30
0.0
  0
VERTEX
  5
B5
330
B0
100
AcDbEntity
  8
_U+30EC_U+30A4_U+30E4_U+30FC 1
 62
     7
370
     5
100
AcDbVertex
100
AcDb2dVertex
 10
162.6567317768438
 20
123.0874086854205
 30
0.0
  0
VERTEX
  5
B6
330
B0
100
AcDbEntity
  8
_U+30EC_U+30A4_U+30E4_U+30FC 1
 62
     7
370
     5
100
AcDbVertex
100
AcDb2dVertex
 10
162.0610665142627
 20
122.347742344869
 30
0.0
  0
VERTEX
  5
B7
330
B0
100
AcDbEntity
  8
_U+30EC_U+30A4_U+30E4_U+30FC 1
 62
     7
370
     5
100
AcDbVertex
100
AcDb2dVertex
 10
162.1919865818633
 20
122.0607548227238
 30
0.0
  0
SEQEND
  5
B8
330
B0
100
AcDbEntity
  8
_U+30EC_U+30A4_U+30E4_U+30FC 1
 62
     7
370
     5
  0
POLYLINE
  5
B9
330
8F
100
AcDbEntity
  8
_U+30EC_U+30A4_U+30E4_U+30FC 1
 62
     7
370
     5
100
AcDb2dPolyline
 66
     1
 10
0.0
 20
0.0
 30
0.0
  0
VERTEX
  5
BA
330
B9
100
AcDbEntity
  8
_U+30EC_U+30A4_U+30E4_U+30FC 1
 62
     7
370
     5
100
AcDbVertex
100
AcDb2dVertex
 10
164.4626364529936
 20
120.6300293036691
 30
0.0
  0
VERTEX
  5
BB
330
B9
100
AcDbEntity
  8
_U+30EC_U+30A4_U+30E4_U+30FC 1
 62
     7
370
     5
100
AcDbVertex
100
AcDb2dVertex
 10
165.0455664381218
 20
121.4139720614468
 30
0.0
  0
VERTEX
  5
BC
330
B9
100
AcDbEntity
  8
_U+30EC_U+30A4_U+30E4_U+30FC 1
 62
     7
370
     5
100
AcDbVertex
100
AcDb2dVertex
 10
164.4626364529936
 20
122.7075756781126
 30
0.0
  0
VERTEX
  5
BD
330
B9
100
AcDbEntity
  8
_U+30EC_U+30A4_U+30E4_U+30FC 1
 62
     7
370
     5
100
AcDbVertex
100
AcDb2dVertex
 10
163.2641092613483
 20
123.3059897909552
 30
0.0
  0
SEQEND
  5
BE
330
B9
100
AcDbEntity
  8
_U+30EC_U+30A4_U+30E4_U+30FC 1
 62
     7
370
     5
  0
POLYLINE
  5
BF
330
8F
100
AcDbEntity
  8
_U+30EC_U+30A4_U+30E4_U+30FC 1
 62
     7
370
     5
100
AcDb2dPolyline
 66
     1
 10
0.0
 20
0.0
 30
0.0
  0
VERTEX
  5
C0
330
BF
100
AcDbEntity
  8
_U+30EC_U+30A4_U+30E4_U+30FC 1
 62
     7
370
     5
100
AcDbVertex
100
AcDb2dVertex
 10
162.6567317768438
 20
123.0874086854205
 30
0.0
  0
VERTEX
  5
C1
330
BF
100
AcDbEntity
  8
_U+30EC_U+30A4_U+30E4_U+30FC 1
 62
     7
370
     5
100
AcDbVertex
100
AcDb2dVertex
 10
163.2641092613483
 20
123.3059897909552
 30
0.0
  0
SEQEND
  5
C2
330
BF
100
AcDbEntity
  8
_U+30EC_U+30A4_U+30E4_U+30FC 1
 62
     7
370
     5
  0
POLYLINE
  5
C3
330
8F
100
AcDbEntity
  8
_U+30EC_U+30A4_U+30E4_U+30FC 1
 62
     7
370
     5
100
AcDb2dPolyline
 66
     1
 10
0.0
 20
0.0
 30
0.0
  0
VERTEX
  5
C4
330
C3
100
AcDbEntity
  8
_U+30EC_U+30A4_U+30E4_U+30FC 1
 62
     7
370
     5
100
AcDbVertex
100
AcDb2dVertex
 10
163.8549414684971
 20
122.488991756243
 30
0.0
  0
VERTEX
  5
C5
330
C3
100
AcDbEntity
  8
_U+30EC_U+30A4_U+30E4_U+30FC 1
 62
     7
370
     5
100
AcDbVertex
100
AcDb2dVertex
 10
164.4626364529936
 20
122.7075756781126
 30
0.0
  0
SEQEND
  5
C6
330
C3
100
AcDbEntity
  8
_U+30EC_U+30A4_U+30E4_U+30FC 1
 62
     7
370
     5
  0
POLYLINE
  5
C7
330
8F
100
AcDbEntity
  8
_U+30EC_U+30A4_U+30E4_U+30FC 1
 62
     7
370
     5
100
AcDb2dPolyline
 66
     1
 10
0.0
 20
0.0
 30
0.0
  0
VERTEX
  5
C8
330
C7
100
AcDbEntity
  8
_U+30EC_U+30A4_U+30E4_U+30FC 1
 62
     7
370
     5
100
AcDbVertex
100
AcDb2dVertex
 10
164.4375186758566
 20
121.1955320670197
 30
0.0
  0
VERTEX
  5
C9
330
C7
100
AcDbEntity
  8
_U+30EC_U+30A4_U+30E4_U+30FC 1
 62
     7
370
     5
100
AcDbVertex
100
AcDb2dVertex
 10
165.0455664381218
 20
121.4139720614468
 30
0.0
  0
SEQEND
  5
CA
330
C7
100
AcDbEntity
  8
_U+30EC_U+30A4_U+30E4_U+30FC 1
 62
     7
370
     5
  0
POLYLINE
  5
CB
330
8F
100
AcDbEntity
  8
_U+30EC_U+30A4_U+30E4_U+30FC 1
 62
     7
370
     5
100
AcDb2dPolyline
 66
     1
 10
0.0
 20
0.0
 30
0.0
  0
VERTEX
  5
CC
330
CB
100
AcDbEntity
  8
_U+30EC_U+30A4_U+30E4_U+30FC 1
 62
     7
370
     5
100
AcDbVertex
100
AcDb2dVertex
 10
163.8549414684971
 20
120.4114481981344
 30
0.0
  0
VERTEX
  5
CD
330
CB
100
AcDbEntity
  8
_U+30EC_U+30A4_U+30E4_U+30FC 1
 62
     7
370
     5
100
AcDbVertex
100
AcDb2dVertex
 10
164.4626364529936
 20
120.6300293036691
 30
0.0
  0
SEQEND
  5
CE
330
CB
100
AcDbEntity
  8
_U+30EC_U+30A4_U+30E4_U+30FC 1
 62
     7
370
     5
  0
SPLINE
  5
CF
330
8F
100
AcDbEntity
  8
_U+30EC_U+30A4_U+30E4_U+30FC 1
 62
     7
370
     5
100
AcDbSpline
210
0.0
220
0.0
230
1.0
 70
     8
 71
     3
 72
    14
 73
    10
 74
     0
 42
0.0000000001
 43
0.0000000001
 12
1.0
 22
0.0
 32
0.0
 13
1.0
 23
0.0
 33
0.0
 40
0.0
 40
0.0
 40
0.0
 40
0.0
 40
1.0
 40
1.0
 40
1.0
 40
2.0
 40
2.0
 40
2.0
 40
3.0
 40
3.0
 40
3.0
 40
3.0
 10
162.6708428875949
 20
121.5223101142384
 30
0.0
 10
162.4555426153099
 20
121.8612942722569
 30
0.0
 10
162.3818120616354
 20
122.1672231533409
 30
0.0
 10
162.5086003917341
 20
122.2356267627069
 30
0.0
 10
162.5086003917341
 20
122.2356267627069
 30
0.0
 10
162.3669953953467
 20
122.1592856535434
 30
0.0
 10
162.3669953953467
 20
122.1592856535434
 30
0.0
 10
162.2395367874873
 20
122.0907409330699
 30
0.0
 10
162.3139376189226
 20
121.7844592742171
 30
0.0
 10
162.5292731689844
 20
121.4454751161986
 30
0.0
  0
SPLINE
  5
D0
330
8F
100
AcDbEntity
  8
_U+30EC_U+30A4_U+30E4_U+30FC 1
 62
     7
370
     5
100
AcDbSpline
210
0.0
220
0.0
230
1.0
 70
     8
 71
     3
 72
    14
 73
    10
 74
     0
 42
0.0000000001
 43
0.0000000001
 12
1.0
 22
0.0
 32
0.0
 13
1.0
 23
0.0
 33
0.0
 40
0.0
 40
0.0
 40
0.0
 40
0.0
 40
1.0
 40
1.0
 40
1.0
 40
2.0
 40
2.0
 40
2.0
 40
3.0
 40
3.0
 40
3.0
 40
3.0
 10
162.8420812165596
 20
121.2844320647516
 30
0.0
 10
163.0994325988829
 20
120.9674612395049
 30
0.0
 10
163.3846887027165
 20
120.775059011929
 30
0.0
 10
163.5121473105759
 20
120.8436362426639
 30
0.0
 10
163.5121473105759
 20
120.8436362426639
 30
0.0
 10
163.3702248141966
 20
120.7671540223929
 30
0.0
 10
163.3702248141966
 20
120.7671540223929
 30
0.0
 10
163.2430837063292
 20
120.6987504130269
 30
0.0
 10
162.9578276024955
 20
120.8911554081183
 30
0.0
 10
162.7004762201722
 20
121.2077734555962
 30
0.0
  0
POLYLINE
  5
D1
330
8F
100
AcDbEntity
  8
_U+30EC_U+30A4_U+30E4_U+30FC 1
 62
     7
370
     5
100
AcDb2dPolyline
 66
     1
 10
0.0
 20
0.0
 30
0.0
  0
VERTEX
  5
D2
330
D1
100
AcDbEntity
  8
_U+30EC_U+30A4_U+30E4_U+30FC 1
 62
     7
370
     5
100
AcDbVertex
100
AcDb2dVertex
 10
162.4875748367149
 20
121.1099129025373
 30
0.0
  0
VERTEX
  5
D3
330
D1
100
AcDbEntity
  8
_U+30EC_U+30A4_U+30E4_U+30FC 1
 62
     7
370
     5
100
AcDbVertex
100
AcDb2dVertex
 10
162.7004762201722
 20
121.2077734555962
 30
0.0
  0
SEQEND
  5
D4
330
D1
100
AcDbEntity
  8
_U+30EC_U+30A4_U+30E4_U+30FC 1
 62
     7
370
     5
  0
POLYLINE
  5
D5
330
8F
100
AcDbEntity
  8
_U+30EC_U+30A4_U+30E4_U+30FC 1
 62
     7
370
     5
100
AcDb2dPolyline
 66
     1
 10
0.0
 20
0.0
 30
0.0
  0
VERTEX
  5
D6
330
D5
100
AcDbEntity
  8
_U+30EC_U+30A4_U+30E4_U+30FC 1
 62
     7
370
     5
100
AcDbVertex
100
AcDb2dVertex
 10
162.5296259467532
 20
121.4454751161986
 30
0.0
  0
VERTEX
  5
D7
330
D5
100
AcDbEntity
  8
_U+30EC_U+30A4_U+30E4_U+30FC 1
 62
     7
370
     5
100
AcDbVertex
100
AcDb2dVertex
 10
162.3473809514027
 20
121.3297287302627
 30
0.0
  0
SEQEND
  5
D8
330
D5
100
AcDbEntity
  8
_U+30EC_U+30A4_U+30E4_U+30FC 1
 62
     7
370
     5
  0
POLYLINE
  5
D9
330
8F
100
AcDbEntity
  8
_U+30EC_U+30A4_U+30E4_U+30FC 1
 62
     7
370
     5
100
AcDb2dPolyline
 66
     1
 10
0.0
 20
0.0
 30
0.0
  0
VERTEX
  5
DA
330
D9
100
AcDbEntity
  8
_U+30EC_U+30A4_U+30E4_U+30FC 1
 62
     7
370
     5
100
AcDbVertex
100
AcDb2dVertex
 10
163.245165095165
 20
121.5021665036412
 30
0.0
  0
VERTEX
  5
DB
330
D9
100
AcDbEntity
  8
_U+30EC_U+30A4_U+30E4_U+30FC 1
 62
     7
370
     5
100
AcDbVertex
100
AcDb2dVertex
 10
162.8417284387908
 20
121.2847495647435
 30
0.0
  0
SEQEND
  5
DC
330
D9
100
AcDbEntity
  8
_U+30EC_U+30A4_U+30E4_U+30FC 1
 62
     7
370
     5
  0
POLYLINE
  5
DD
330
8F
100
AcDbEntity
  8
_U+30EC_U+30A4_U+30E4_U+30FC 1
 62
     7
370
     5
100
AcDb2dPolyline
 66
     1
 10
0.0
 20
0.0
 30
0.0
  0
VERTEX
  5
DE
330
DD
100
AcDbEntity
  8
_U+30EC_U+30A4_U+30E4_U+30FC 1
 62
     7
370
     5
100
AcDbVertex
100
AcDb2dVertex
 10
162.6708428875949
 20
121.5223101142384
 30
0.0
  0
VERTEX
  5
DF
330
DD
100
AcDbEntity
  8
_U+30EC_U+30A4_U+30E4_U+30FC 1
 62
     7
370
     5
100
AcDbVertex
100
AcDb2dVertex
 10
163.074283803865
 20
121.7396917753592
 30
0.0
  0
SEQEND
  5
E0
330
DD
100
AcDbEntity
  8
_U+30EC_U+30A4_U+30E4_U+30FC 1
 62
     7
370
     5
  0
SPLINE
  5
E1
330
8F
100
AcDbEntity
  8
_U+30EC_U+30A4_U+30E4_U+30FC 1
 62
     7
370
     5
100
AcDbSpline
210
0.0
220
0.0
230
1.0
 70
     8
 71
     3
 72
    11
 73
     7
 74
     0
 42
0.0000000001
 43
0.0000000001
 12
1.0
 22
0.0
 32
0.0
 13
1.0
 23
0.0
 33
0.0
 40
0.0
 40
0.0
 40
0.0
 40
0.0
 40
1.0
 40
1.0
 40
1.0
 40
2.0
 40
2.0
 40
2.0
 40
2.0
 10
163.074283803865
 20
121.7396917753592
 30
0.0
 10
163.1094162097393
 20
121.7584595526582
 30
0.0
 10
163.1759148191539
 20
121.7224762202429
 30
0.0
 10
163.2224109290788
 20
121.6585528885403
 30
0.0
 10
163.2685895390118
 20
121.5943120568459
 30
0.0
 10
163.2768445388012
 20
121.5267903919019
 30
0.0
 10
163.2413550952622
 20
121.5078462257185
 30
0.0
  0
ENDBLK
  5
92
330
8F
100
AcDbEntity
  8
0
100
AcDbBlockEnd
  0
BLOCK
  5
E4
330
E2
100
AcDbEntity
  8
0
100
AcDbBlockBegin
  2
block 6
 70
     0
 10
0.0
 20
0.0
 30
0.0
  3
block 6
  1

  0
POLYLINE
  5
E6
330
E2
100
AcDbEntity
  8
_U+30EC_U+30A4_U+30E4_U+30FC 1
 62
     7
370
     5
100
AcDb2dPolyline
 66
     1
 10
0.0
 20
0.0
 30
0.0
  0
VERTEX
  5
E7
330
E6
100
AcDbEntity
  8
_U+30EC_U+30A4_U+30E4_U+30FC 1
 62
     7
370
     5
100
AcDbVertex
100
AcDb2dVertex
 10
171.3270215556463
 20
96.24564187021105
 30
0.0
  0
VERTEX
  5
E8
330
E6
100
AcDbEntity
  8
_U+30EC_U+30A4_U+30E4_U+30FC 1
 62
     7
370
     5
100
AcDbVertex
100
AcDb2dVertex
 10
179.6434752323648
 20
100.4269403746484
 30
0.0
  0
SEQEND
  5
E9
330
E6
100
AcDbEntity
  8
_U+30EC_U+30A4_U+30E4_U+30FC 1
 62
     7
370
     5
  0
POLYLINE
  5
EA
330
E2
100
AcDbEntity
  8
_U+30EC_U+30A4_U+30E4_U+30FC 1
 62
     7
370
     5
100
AcDb2dPolyline
 66
     1
 10
0.0
 20
0.0
 30
0.0
  0
VERTEX
  5
EB
330
EA
100
AcDbEntity
  8
_U+30EC_U+30A4_U+30E4_U+30FC 1
 62
     7
370
     5
100
AcDbVertex
100
AcDb2dVertex
 10
178.9003488624346
 20
102.079915888033
 30
0.0
  0
VERTEX
  5
EC
330
EA
100
AcDbEntity
  8
_U+30EC_U+30A4_U+30E4_U+30FC 1
 62
     7
370
     5
100
AcDbVertex
100
AcDb2dVertex
 10
171.3225412779828
 20
98.28995376250076
 30
0.0
  0
SEQEND
  5
ED
330
EA
100
AcDbEntity
  8
_U+30EC_U+30A4_U+30E4_U+30FC 1
 62
     7
370
     5
  0
SPLINE
  5
EE
330
E2
100
AcDbEntity
  8
_U+30EC_U+30A4_U+30E4_U+30FC 1
 62
     7
370
     5
100
AcDbSpline
210
0.0
220
0.0
230
1.0
 70
     8
 71
     3
 72
    14
 73
    10
 74
     0
 42
0.0000000001
 43
0.0000000001
 12
1.0
 22
0.0
 32
0.0
 13
1.0
 23
0.0
 33
0.0
 40
0.0
 40
0.0
 40
0.0
 40
0.0
 40
1.0
 40
1.0
 40
1.0
 40
2.0
 40
2.0
 40
2.0
 40
3.0
 40
3.0
 40
3.0
 40
3.0
 10
178.9268777506467
 20
102.0916281099564
 30
0.0
 10
178.9541121943963
 20
102.1019644985816
 30
0.0
 10
178.9823696936754
 20
102.110219498371
 30
0.0
 10
179.0112974707152
 20
102.1167811648702
 30
0.0
 10
179.4081724605901
 20
102.2042700515271
 30
0.0
 10
179.8439588383611
 20
101.8880047818179
 30
0.0
 10
179.9838352236815
 20
101.4115431273068
 30
0.0
 10
180.1064960538855
 20
100.9940306379584
 30
0.0
 10
179.9624921686704
 20
100.5916170371138
 30
0.0
 10
179.6589621764141
 20
100.4393581521093
 30
0.0
  0
SPLINE
  5
EF
330
E2
100
AcDbEntity
  8
_U+30EC_U+30A4_U+30E4_U+30FC 1
 62
     7
370
     5
100
AcDbSpline
210
0.0
220
0.0
230
1.0
 70
     8
 71
     3
 72
    14
 73
    10
 74
     0
 42
0.0000000001
 43
0.0000000001
 12
1.0
 22
0.0
 32
0.0
 13
1.0
 23
0.0
 33
0.0
 40
0.0
 40
0.0
 40
0.0
 40
0.0
 40
1.0
 40
1.0
 40
1.0
 40
2.0
 40
2.0
 40
2.0
 40
3.0
 40
3.0
 40
3.0
 40
3.0
 10
178.4204699111397
 20
101.842534016662
 30
0.0
 10
178.4473116517703
 20
101.8532208938165
 30
0.0
 10
178.4755691510494
 20
101.861158393614
 30
0.0
 10
178.504849705858
 20
101.8676847823363
 30
0.0
 10
178.9017246957328
 20
101.9552089467701
 30
0.0
 10
179.337193573512
 20
101.6389436770609
 30
0.0
 10
179.4774227366011
 20
101.162129244781
 30
0.0
 10
179.6000482890282
 20
100.7449342554245
 30
0.0
 10
179.4560444038132
 20
100.3425559323567
 30
0.0
 10
179.1525496893338
 20
100.1902617695754
 30
0.0
  0
SPLINE
  5
F0
330
E2
100
AcDbEntity
  8
_U+30EC_U+30A4_U+30E4_U+30FC 1
 62
     7
370
     5
100
AcDbSpline
210
0.0
220
0.0
230
1.0
 70
     8
 71
     3
 72
    14
 73
    10
 74
     0
 42
0.0000000001
 43
0.0000000001
 12
1.0
 22
0.0
 32
0.0
 13
1.0
 23
0.0
 33
0.0
 40
0.0
 40
0.0
 40
0.0
 40
0.0
 40
1.0
 40
1.0
 40
1.0
 40
2.0
 40
2.0
 40
2.0
 40
3.0
 40
3.0
 40
3.0
 40
3.0
 10
177.7366055587908
 20
101.5039003471728
 30
0.0
 10
177.7634872247717
 20
101.514236735798
 30
0.0
 10
177.7917447240508
 20
101.5224917355874
 30
0.0
 10
177.8210252788593
 20
101.5293709020786
 30
0.0
 10
178.2179002687342
 20
101.6165422887435
 30
0.0
 10
178.6533338687365
 20
101.3006297968031
 30
0.0
 10
178.7932102540568
 20
100.8238153645232
 30
0.0
 10
178.9158710842608
 20
100.406267597398
 30
0.0
 10
178.772189355496
 20
100.0038892743302
 30
0.0
 10
178.4686899845583
 20
99.85163038932573
 30
0.0
  0
SPLINE
  5
F1
330
E2
100
AcDbEntity
  8
_U+30EC_U+30A4_U+30E4_U+30FC 1
 62
     7
370
     5
100
AcDbSpline
210
0.0
220
0.0
230
1.0
 70
     8
 71
     3
 72
    14
 73
    10
 74
     0
 42
0.0000000001
 43
0.0000000001
 12
1.0
 22
0.0
 32
0.0
 13
1.0
 23
0.0
 33
0.0
 40
0.0
 40
0.0
 40
0.0
 40
0.0
 40
1.0
 40
1.0
 40
1.0
 40
2.0
 40
2.0
 40
2.0
 40
3.0
 40
3.0
 40
3.0
 40
3.0
 10
177.1123699114665
 20
101.1952197994923
 30
0.0
 10
177.1392116851427
 20
101.2055561881175
 30
0.0
 10
177.1674691844218
 20
101.2138111879069
 30
0.0
 10
177.1967497392304
 20
101.2200200766374
 30
0.0
 10
177.5933072291133
 20
101.3075089632943
 30
0.0
 10
178.0290936068844
 20
100.9915964713539
 30
0.0
 10
178.1689699922048
 20
100.5148173168509
 30
0.0
 10
178.2915955446319
 20
100.0975870497175
 30
0.0
 10
178.1475916594168
 20
99.69520872664971
 30
0.0
 10
177.8440969449374
 20
99.54294984164527
 30
0.0
  0
SPLINE
  5
F2
330
E2
100
AcDbEntity
  8
_U+30EC_U+30A4_U+30E4_U+30FC 1
 62
     7
370
     5
100
AcDbSpline
210
0.0
220
0.0
230
1.0
 70
     8
 71
     3
 72
    14
 73
    10
 74
     0
 42
0.0000000001
 43
0.0000000001
 12
1.0
 22
0.0
 32
0.0
 13
1.0
 23
0.0
 33
0.0
 40
0.0
 40
0.0
 40
0.0
 40
0.0
 40
1.0
 40
1.0
 40
1.0
 40
2.0
 40
2.0
 40
2.0
 40
3.0
 40
3.0
 40
3.0
 40
3.0
 10
176.5504608668297
 20
100.9168451280046
 30
0.0
 10
176.5773425328105
 20
100.9275320285439
 30
0.0
 10
176.6055647543128
 20
100.9357870283333
 30
0.0
 10
176.6348805868982
 20
100.9423486948325
 30
0.0
 10
177.0317555767731
 20
101.0298375814894
 30
0.0
 10
177.4671891767753
 20
100.7135723117802
 30
0.0
 10
177.6070655620957
 20
100.2367931572772
 30
0.0
 10
177.7300438922916
 20
99.81924539015193
 30
0.0
 10
177.5860400070765
 20
99.41718679504612
 30
0.0
 10
177.2825452925971
 20
99.26492568207159
 30
0.0
  0
SPLINE
  5
F3
330
E2
100
AcDbEntity
  8
_U+30EC_U+30A4_U+30E4_U+30FC 1
 62
     7
370
     5
100
AcDbSpline
210
0.0
220
0.0
230
1.0
 70
     8
 71
     3
 72
    14
 73
    10
 74
     0
 42
0.0000000001
 43
0.0000000001
 12
1.0
 22
0.0
 32
0.0
 13
1.0
 23
0.0
 33
0.0
 40
0.0
 40
0.0
 40
0.0
 40
0.0
 40
1.0
 40
1.0
 40
1.0
 40
2.0
 40
2.0
 40
2.0
 40
3.0
 40
3.0
 40
3.0
 40
3.0
 10
175.8666011620542
 20
100.5785312392
 30
0.0
 10
175.893482828035
 20
100.5888653705173
 30
0.0
 10
175.9217449117641
 20
100.5971556480836
 30
0.0
 10
175.9510254673126
 20
100.603682036806
 30
0.0
 10
176.3475476894356
 20
100.6908534234709
 30
0.0
 10
176.7833647497767
 20
100.3749409315305
 30
0.0
 10
176.9232058573202
 20
99.8984792770194
 30
0.0
 10
177.0458666875242
 20
99.48093150989416
 30
0.0
 10
176.9018628023091
 20
99.07855318682635
 30
0.0
 10
176.5983328100528
 20
98.92625902404504
 30
0.0
  0
SPLINE
  5
F4
330
E2
100
AcDbEntity
  8
_U+30EC_U+30A4_U+30E4_U+30FC 1
 62
     7
370
     5
100
AcDbSpline
210
0.0
220
0.0
230
1.0
 70
     8
 71
     3
 72
    14
 73
    10
 74
     0
 42
0.0000000001
 43
0.0000000001
 12
1.0
 22
0.0
 32
0.0
 13
1.0
 23
0.0
 33
0.0
 40
0.0
 40
0.0
 40
0.0
 40
0.0
 40
1.0
 40
1.0
 40
1.0
 40
2.0
 40
2.0
 40
2.0
 40
3.0
 40
3.0
 40
3.0
 40
3.0
 10
175.2420081224333
 20
100.2698506837216
 30
0.0
 10
175.269242566183
 20
100.2801848228368
 30
0.0
 10
175.2974647876852
 20
100.2884751004031
 30
0.0
 10
175.3264278425018
 20
100.2946487113567
 30
0.0
 10
175.7233028323767
 20
100.3821728757905
 30
0.0
 10
176.1590892101478
 20
100.0659076060813
 30
0.0
 10
176.2989655954681
 20
99.58944595157017
 30
0.0
 10
176.4216310227501
 20
99.17189818444493
 30
0.0
 10
176.277622540457
 20
98.76987263914589
 30
0.0
 10
175.9740925482007
 20
98.61757847636457
 30
0.0
  0
SPLINE
  5
F5
330
E2
100
AcDbEntity
  8
_U+30EC_U+30A4_U+30E4_U+30FC 1
 62
     7
370
     5
100
AcDbSpline
210
0.0
220
0.0
230
1.0
 70
     8
 71
     3
 72
    14
 73
    10
 74
     0
 42
0.0000000001
 43
0.0000000001
 12
1.0
 22
0.0
 32
0.0
 13
1.0
 23
0.0
 33
0.0
 40
0.0
 40
0.0
 40
0.0
 40
0.0
 40
1.0
 40
1.0
 40
1.0
 40
2.0
 40
2.0
 40
2.0
 40
3.0
 40
3.0
 40
3.0
 40
3.0
 10
174.6508231375157
 20
99.97700760834931
 30
0.0
 10
174.6777048034966
 20
99.9873439969745
 30
0.0
 10
174.7059623027756
 20
99.99563427454078
 30
0.0
 10
174.7348900798154
 20
100.0021606632632
 30
0.0
 10
175.1317650696903
 20
100.0893320499281
 30
0.0
 10
175.5675867252382
 20
99.77341955798772
 30
0.0
 10
175.7074278327817
 20
99.29660512570783
 30
0.0
 10
175.8300886629857
 20
98.87941013635135
 30
0.0
 10
175.6860893562676
 20
98.47703401750371
 30
0.0
 10
175.3825547855143
 20
98.32473765050223
 30
0.0
  0
SPLINE
  5
F6
330
E2
100
AcDbEntity
  8
_U+30EC_U+30A4_U+30E4_U+30FC 1
 62
     7
370
     5
100
AcDbSpline
210
0.0
220
0.0
230
1.0
 70
     8
 71
     3
 72
    14
 73
    10
 74
     0
 42
0.0000000001
 43
0.0000000001
 12
1.0
 22
0.0
 32
0.0
 13
1.0
 23
0.0
 33
0.0
 40
0.0
 40
0.0
 40
0.0
 40
0.0
 40
1.0
 40
1.0
 40
1.0
 40
2.0
 40
2.0
 40
2.0
 40
3.0
 40
3.0
 40
3.0
 40
3.0
 10
173.9666504678087
 20
99.63837846165762
 30
0.0
 10
173.9938450987211
 20
99.64906539449359
 30
0.0
 10
174.0221025980001
 20
99.65732039428299
 30
0.0
 10
174.0510303750399
 20
99.66352928301347
 30
0.0
 10
174.4479053649148
 20
99.75101816967035
 30
0.0
 10
174.8837270204627
 20
99.43475289996115
 30
0.0
 10
175.0236034057831
 20
98.95797374545815
 30
0.0
 10
175.1462289582102
 20
98.5407434783248
 30
0.0
 10
175.0022250729951
 20
98.13872012869913
 30
0.0
 10
174.6987303585157
 20
97.98610627025255
 30
0.0
  0
SPLINE
  5
F7
330
E2
100
AcDbEntity
  8
_U+30EC_U+30A4_U+30E4_U+30FC 1
 62
     7
370
     5
100
AcDbSpline
210
0.0
220
0.0
230
1.0
 70
     8
 71
     3
 72
    14
 73
    10
 74
     0
 42
0.0000000001
 43
0.0000000001
 12
1.0
 22
0.0
 32
0.0
 13
1.0
 23
0.0
 33
0.0
 40
0.0
 40
0.0
 40
0.0
 40
0.0
 40
1.0
 40
1.0
 40
1.0
 40
2.0
 40
2.0
 40
2.0
 40
3.0
 40
3.0
 40
3.0
 40
3.0
 10
173.3423703931194
 20
99.32934512840148
 30
0.0
 10
173.369604836869
 20
99.34003206904436
 30
0.0
 10
173.3978623361481
 20
99.34828706883376
 30
0.0
 10
173.4267901131878
 20
99.35484873533302
 30
0.0
 10
173.8236651030627
 20
99.4419848442211
 30
0.0
 10
174.2594867586106
 20
99.1260723522807
 30
0.0
 10
174.3993278661541
 20
98.64929319777768
 30
0.0
 10
174.5219886963581
 20
98.23174543065244
 30
0.0
 10
174.3779893565945
 20
97.829686795443
 30
0.0
 10
174.0744548188867
 20
97.67707294480331
 30
0.0
  0
SPLINE
  5
F8
330
E2
100
AcDbEntity
  8
_U+30EC_U+30A4_U+30E4_U+30FC 1
 62
     7
370
     5
100
AcDbSpline
210
0.0
220
0.0
230
1.0
 70
     8
 71
     3
 72
    14
 73
    10
 74
     0
 42
0.0000000001
 43
0.0000000001
 12
1.0
 22
0.0
 32
0.0
 13
1.0
 23
0.0
 33
0.0
 40
0.0
 40
0.0
 40
0.0
 40
0.0
 40
1.0
 40
1.0
 40
1.0
 40
2.0
 40
2.0
 40
2.0
 40
3.0
 40
3.0
 40
3.0
 40
3.0
 10
172.7805012407871
 20
99.05167152084549
 30
0.0
 10
172.8077004067599
 20
99.06200790947068
 30
0.0
 10
172.835957906039
 20
99.07026290926008
 30
0.0
 10
172.8648856830788
 20
99.07647179799056
 30
0.0
 10
173.2617606729536
 20
99.1639959624243
 30
0.0
 10
173.6975823285016
 20
98.84773069271512
 30
0.0
 10
173.8374587138219
 20
98.371269038204
 30
0.0
 10
173.960084266249
 20
97.95407404884753
 30
0.0
 10
173.816080381034
 20
97.55166044800285
 30
0.0
 10
173.5125856665546
 20
97.3994015629984
 30
0.0
  0
SPLINE
  5
F9
330
E2
100
AcDbEntity
  8
_U+30EC_U+30A4_U+30E4_U+30FC 1
 62
     7
370
     5
100
AcDbSpline
210
0.0
220
0.0
230
1.0
 70
     8
 71
     3
 72
    14
 73
    10
 74
     0
 42
0.0000000001
 43
0.0000000001
 12
1.0
 22
0.0
 32
0.0
 13
1.0
 23
0.0
 33
0.0
 40
0.0
 40
0.0
 40
0.0
 40
0.0
 40
1.0
 40
1.0
 40
1.0
 40
2.0
 40
2.0
 40
2.0
 40
3.0
 40
3.0
 40
3.0
 40
3.0
 10
172.0966415360116
 20
98.71300486281893
 30
0.0
 10
172.1238407019844
 20
98.7236940292129
 30
0.0
 10
172.1520982012635
 20
98.73163152901039
 30
0.0
 10
172.1810612560801
 20
98.73815791773278
 30
0.0
 10
172.577936245955
 20
98.82568208216652
 30
0.0
 10
173.0137226237261
 20
98.50941681245735
 30
0.0
 10
173.1535990090464
 20
98.03260238017745
 30
0.0
 10
173.2762245614735
 20
97.6150546130522
 30
0.0
 10
173.1322206762585
 20
97.21303124004174
 30
0.0
 10
172.828725961779
 20
97.06073490497185
 30
0.0
  0
SPLINE
  5
FA
330
E2
100
AcDbEntity
  8
_U+30EC_U+30A4_U+30E4_U+30FC 1
 62
     7
370
     5
100
AcDbSpline
210
0.0
220
0.0
230
1.0
 70
     8
 71
     3
 72
    14
 73
    10
 74
     0
 42
0.0000000001
 43
0.0000000001
 12
1.0
 22
0.0
 32
0.0
 13
1.0
 23
0.0
 33
0.0
 40
0.0
 40
0.0
 40
0.0
 40
0.0
 40
1.0
 40
1.0
 40
1.0
 40
2.0
 40
2.0
 40
2.0
 40
3.0
 40
3.0
 40
3.0
 40
3.0
 10
171.4406865527465
 20
98.34886764988663
 30
0.0
 10
171.4675726906554
 20
98.35955901753289
 30
0.0
 10
171.4958257180064
 20
98.36781181606999
 30
0.0
 10
171.525106272815
 20
98.37437568419566
 30
0.0
 10
171.921628484921
 20
98.46151179528542
 30
0.0
 10
172.357450140469
 20
98.14559709951693
 30
0.0
 10
172.4972912480124
 20
97.66882012881649
 30
0.0
 10
172.6199520782164
 20
97.25127017788867
 30
0.0
 10
172.4759481930014
 20
96.84920935481276
 30
0.0
 10
172.1724226904797
 20
96.69659769203955
 30
0.0
  0
SPLINE
  5
FB
330
E2
100
AcDbEntity
  8
_U+30EC_U+30A4_U+30E4_U+30FC 1
 62
     7
370
     5
100
AcDbSpline
210
0.0
220
0.0
230
1.0
 70
     8
 71
     3
 72
    11
 73
     7
 74
     0
 42
0.0000000001
 43
0.0000000001
 12
1.0
 22
0.0
 32
0.0
 13
1.0
 23
0.0
 33
0.0
 40
0.0
 40
0.0
 40
0.0
 40
0.0
 40
1.0
 40
1.0
 40
1.0
 40
2.0
 40
2.0
 40
2.0
 40
2.0
 10
171.3235643335123
 20
98.01640988059054
 30
0.0
 10
171.5698782461857
 20
97.90754266114577
 30
0.0
 10
171.7827751551301
 20
97.6670893339469
 30
0.0
 10
171.8730509861604
 20
97.3601395733381
 30
0.0
 10
171.9957118163643
 20
96.9425896302082
 30
0.0
 10
171.8517079311493
 20
96.5402113071404
 30
0.0
 10
171.548177938893
 20
96.38791714435908
 30
0.0
  0
SPLINE
  5
FC
330
E2
100
AcDbEntity
  8
_U+30EC_U+30A4_U+30E4_U+30FC 1
 62
     7
370
     5
100
AcDbSpline
210
0.0
220
0.0
230
1.0
 70
     8
 71
     3
 72
    17
 73
    13
 74
     0
 42
0.0000000001
 43
0.0000000001
 12
1.0
 22
0.0
 32
0.0
 13
1.0
 23
0.0
 33
0.0
 40
0.0
 40
0.0
 40
0.0
 40
0.0
 40
1.0
 40
1.0
 40
1.0
 40
2.0
 40
2.0
 40
2.0
 40
3.0
 40
3.0
 40
3.0
 40
4.0
 40
4.0
 40
4.0
 40
4.0
 10
162.5881870563703
 20
94.6191952450385
 30
0.0
 10
162.6719012209012
 20
94.80800190688831
 30
0.0
 10
162.8100532483756
 20
94.95338162540158
 30
0.0
 10
162.9995259347651
 20
95.03159245673959
 30
0.0
 10
163.5717667534993
 20
95.2686238395813
 30
0.0
 10
164.397200470201
 20
94.80800190688831
 30
0.0
 10
164.8430014432896
 20
94.00253970521513
 30
0.0
 10
165.2891242096859
 20
93.19743028131074
 30
0.0
 10
165.1871714345091
 20
92.35266863619574
 30
0.0
 10
164.6149306157749
 20
92.1159900311228
 30
0.0
 10
164.4443978423477
 20
92.04504642182161
 30
0.0
 10
164.2504449146824
 20
92.03675614425534
 30
0.0
 10
164.0512975745988
 20
92.08085336535255
 30
0.0
  0
SPLINE
  5
FD
330
E2
100
AcDbEntity
  8
_U+30EC_U+30A4_U+30E4_U+30FC 1
 62
     7
370
     5
100
AcDbSpline
210
0.0
220
0.0
230
1.0
 70
     8
 71
     3
 72
    14
 73
    10
 74
     0
 42
0.0000000001
 43
0.0000000001
 12
1.0
 22
0.0
 32
0.0
 13
1.0
 23
0.0
 33
0.0
 40
0.0
 40
0.0
 40
0.0
 40
0.0
 40
1.0
 40
1.0
 40
1.0
 40
2.0
 40
2.0
 40
2.0
 40
3.0
 40
3.0
 40
3.0
 40
3.0
 10
163.0870148214219
 20
95.06500051144283
 30
0.0
 10
163.0973512100471
 20
95.06983356687509
 30
0.0
 10
163.1076875986723
 20
95.07466662230733
 30
0.0
 10
163.1183810260762
 20
95.07879412220204
 30
0.0
 10
163.6906175838005
 20
95.31579235162695
 30
0.0
 10
164.5160470071865
 20
94.85485079458198
 30
0.0
 10
164.9622050513596
 20
94.04974137067758
 30
0.0
 10
165.4083278177559
 20
93.2446340188117
 30
0.0
 10
165.3063397648022
 20
92.3998703016582
 30
0.0
 10
164.7341342238448
 20
92.16283891881648
 30
0.0
  0
SPLINE
  5
FE
330
E2
100
AcDbEntity
  8
_U+30EC_U+30A4_U+30E4_U+30FC 1
 62
     7
370
     5
100
AcDbSpline
210
0.0
220
0.0
230
1.0
 70
     8
 71
     3
 72
    11
 73
     7
 74
     0
 42
0.0000000001
 43
0.0000000001
 12
1.0
 22
0.0
 32
0.0
 13
1.0
 23
0.0
 33
0.0
 40
0.0
 40
0.0
 40
0.0
 40
0.0
 40
1.0
 40
1.0
 40
1.0
 40
2.0
 40
2.0
 40
2.0
 40
2.0
 10
163.7639953597063
 20
92.33820474767586
 30
0.0
 10
163.2365615816019
 20
92.13941447496964
 30
0.0
 10
162.5819781676398
 20
92.4298564120043
 30
0.0
 10
162.3015551192385
 20
92.98555195338287
 30
0.0
 10
162.0218023485978
 20
93.54160027253023
 30
0.0
 10
162.2229915101317
 20
94.15342275692134
 30
0.0
 10
162.7504338039461
 20
94.35186025185878
 30
0.0
  0
SPLINE
  5
FF
330
E2
100
AcDbEntity
  8
_U+30EC_U+30A4_U+30E4_U+30FC 1
 62
     7
370
     5
100
AcDbSpline
210
0.0
220
0.0
230
1.0
 70
     8
 71
     3
 72
    11
 73
     7
 74
     0
 42
0.0000000001
 43
0.0000000001
 12
1.0
 22
0.0
 32
0.0
 13
1.0
 23
0.0
 33
0.0
 40
0.0
 40
0.0
 40
0.0
 40
0.0
 40
1.0
 40
1.0
 40
1.0
 40
2.0
 40
2.0
 40
2.0
 40
2.0
 10
162.7473251078659
 20
94.35048441856054
 30
0.0
 10
163.0005532483276
 20
94.44559330502301
 30
0.0
 10
163.4353123125361
 20
94.06797998132339
 30
0.0
 10
163.718169527542
 20
93.50678110675187
 30
0.0
 10
164.0006782480779
 20
92.94558223218037
 30
0.0
 10
164.0175367421268
 20
92.43327835636144
 30
0.0
 10
163.7639953597063
 20
92.33820474767586
 30
0.0
  0
POLYLINE
  5
100
330
E2
100
AcDbEntity
  8
_U+30EC_U+30A4_U+30E4_U+30FC 1
 62
     7
370
     5
100
AcDb2dPolyline
 66
     1
 10
0.0
 20
0.0
 30
0.0
  0
VERTEX
  5
101
330
100
100
AcDbEntity
  8
_U+30EC_U+30A4_U+30E4_U+30FC 1
 62
     7
370
     5
100
AcDbVertex
100
AcDb2dVertex
 10
163.3474706481105
 20
92.27791502699175
 30
0.0
  0
VERTEX
  5
102
330
100
100
AcDbEntity
  8
_U+30EC_U+30A4_U+30E4_U+30FC 1
 62
     7
370
     5
100
AcDbVertex
100
AcDb2dVertex
 10
163.8549414684971
 20
92.02779558892838
 30
0.0
  0
VERTEX
  5
103
330
100
100
AcDbEntity
  8
_U+30EC_U+30A4_U+30E4_U+30FC 1
 62
     7
370
     5
100
AcDbVertex
100
AcDb2dVertex
 10
164.4375186758566
 20
92.8119147355905
 30
0.0
  0
VERTEX
  5
104
330
100
100
AcDbEntity
  8
_U+30EC_U+30A4_U+30E4_U+30FC 1
 62
     7
370
     5
100
AcDbVertex
100
AcDb2dVertex
 10
163.8549414684971
 20
94.10519803592943
 30
0.0
  0
VERTEX
  5
105
330
100
100
AcDbEntity
  8
_U+30EC_U+30A4_U+30E4_U+30FC 1
 62
     7
370
     5
100
AcDbVertex
100
AcDb2dVertex
 10
162.6567317768438
 20
94.70396774287576
 30
0.0
  0
VERTEX
  5
106
330
100
100
AcDbEntity
  8
_U+30EC_U+30A4_U+30E4_U+30FC 1
 62
     7
370
     5
100
AcDbVertex
100
AcDb2dVertex
 10
162.0610665142627
 20
93.96394790752035
 30
0.0
  0
VERTEX
  5
107
330
100
100
AcDbEntity
  8
_U+30EC_U+30A4_U+30E4_U+30FC 1
 62
     7
370
     5
100
AcDbVertex
100
AcDb2dVertex
 10
162.1919865818633
 20
93.677313880179
 30
0.0
  0
SEQEND
  5
108
330
100
100
AcDbEntity
  8
_U+30EC_U+30A4_U+30E4_U+30FC 1
 62
     7
370
     5
  0
POLYLINE
  5
109
330
E2
100
AcDbEntity
  8
_U+30EC_U+30A4_U+30E4_U+30FC 1
 62
     7
370
     5
100
AcDb2dPolyline
 66
     1
 10
0.0
 20
0.0
 30
0.0
  0
VERTEX
  5
10A
330
109
100
AcDbEntity
  8
_U+30EC_U+30A4_U+30E4_U+30FC 1
 62
     7
370
     5
100
AcDbVertex
100
AcDb2dVertex
 10
164.4626364529936
 20
92.24623558335551
 30
0.0
  0
VERTEX
  5
10B
330
109
100
AcDbEntity
  8
_U+30EC_U+30A4_U+30E4_U+30FC 1
 62
     7
370
     5
100
AcDbVertex
100
AcDb2dVertex
 10
165.0455664381218
 20
93.03031945224076
 30
0.0
  0
VERTEX
  5
10C
330
109
100
AcDbEntity
  8
_U+30EC_U+30A4_U+30E4_U+30FC 1
 62
     7
370
     5
100
AcDbVertex
100
AcDb2dVertex
 10
164.4626364529936
 20
94.32395553034847
 30
0.0
  0
VERTEX
  5
10D
330
109
100
AcDbEntity
  8
_U+30EC_U+30A4_U+30E4_U+30FC 1
 62
     7
370
     5
100
AcDbVertex
100
AcDb2dVertex
 10
163.2641092613483
 20
94.92237245952602
 30
0.0
  0
SEQEND
  5
10E
330
109
100
AcDbEntity
  8
_U+30EC_U+30A4_U+30E4_U+30FC 1
 62
     7
370
     5
  0
POLYLINE
  5
10F
330
E2
100
AcDbEntity
  8
_U+30EC_U+30A4_U+30E4_U+30FC 1
 62
     7
370
     5
100
AcDb2dPolyline
 66
     1
 10
0.0
 20
0.0
 30
0.0
  0
VERTEX
  5
110
330
10F
100
AcDbEntity
  8
_U+30EC_U+30A4_U+30E4_U+30FC 1
 62
     7
370
     5
100
AcDbVertex
100
AcDb2dVertex
 10
162.6567317768438
 20
94.70396774287576
 30
0.0
  0
VERTEX
  5
111
330
10F
100
AcDbEntity
  8
_U+30EC_U+30A4_U+30E4_U+30FC 1
 62
     7
370
     5
100
AcDbVertex
100
AcDb2dVertex
 10
163.2641092613483
 20
94.92237245952602
 30
0.0
  0
SEQEND
  5
112
330
10F
100
AcDbEntity
  8
_U+30EC_U+30A4_U+30E4_U+30FC 1
 62
     7
370
     5
  0
POLYLINE
  5
113
330
E2
100
AcDbEntity
  8
_U+30EC_U+30A4_U+30E4_U+30FC 1
 62
     7
370
     5
100
AcDb2dPolyline
 66
     1
 10
0.0
 20
0.0
 30
0.0
  0
VERTEX
  5
114
330
113
100
AcDbEntity
  8
_U+30EC_U+30A4_U+30E4_U+30FC 1
 62
     7
370
     5
100
AcDbVertex
100
AcDb2dVertex
 10
163.8549414684971
 20
94.10519803592943
 30
0.0
  0
VERTEX
  5
115
330
113
100
AcDbEntity
  8
_U+30EC_U+30A4_U+30E4_U+30FC 1
 62
     7
370
     5
100
AcDbVertex
100
AcDb2dVertex
 10
164.4626364529936
 20
94.32395553034847
 30
0.0
  0
SEQEND
  5
116
330
113
100
AcDbEntity
  8
_U+30EC_U+30A4_U+30E4_U+30FC 1
 62
     7
370
     5
  0
POLYLINE
  5
117
330
E2
100
AcDbEntity
  8
_U+30EC_U+30A4_U+30E4_U+30FC 1
 62
     7
370
     5
100
AcDb2dPolyline
 66
     1
 10
0.0
 20
0.0
 30
0.0
  0
VERTEX
  5
118
330
117
100
AcDbEntity
  8
_U+30EC_U+30A4_U+30E4_U+30FC 1
 62
     7
370
     5
100
AcDbVertex
100
AcDb2dVertex
 10
164.4375186758566
 20
92.8119147355905
 30
0.0
  0
VERTEX
  5
119
330
117
100
AcDbEntity
  8
_U+30EC_U+30A4_U+30E4_U+30FC 1
 62
     7
370
     5
100
AcDbVertex
100
AcDb2dVertex
 10
165.0455664381218
 20
93.03031945224076
 30
0.0
  0
SEQEND
  5
11A
330
117
100
AcDbEntity
  8
_U+30EC_U+30A4_U+30E4_U+30FC 1
 62
     7
370
     5
  0
POLYLINE
  5
11B
330
E2
100
AcDbEntity
  8
_U+30EC_U+30A4_U+30E4_U+30FC 1
 62
     7
370
     5
100
AcDb2dPolyline
 66
     1
 10
0.0
 20
0.0
 30
0.0
  0
VERTEX
  5
11C
330
11B
100
AcDbEntity
  8
_U+30EC_U+30A4_U+30E4_U+30FC 1
 62
     7
370
     5
100
AcDbVertex
100
AcDb2dVertex
 10
163.8549414684971
 20
92.02779558892838
 30
0.0
  0
VERTEX
  5
11D
330
11B
100
AcDbEntity
  8
_U+30EC_U+30A4_U+30E4_U+30FC 1
 62
     7
370
     5
100
AcDbVertex
100
AcDb2dVertex
 10
164.4626364529936
 20
92.24623558335551
 30
0.0
  0
SEQEND
  5
11E
330
11B
100
AcDbEntity
  8
_U+30EC_U+30A4_U+30E4_U+30FC 1
 62
     7
370
     5
  0
SPLINE
  5
11F
330
E2
100
AcDbEntity
  8
_U+30EC_U+30A4_U+30E4_U+30FC 1
 62
     7
370
     5
100
AcDbSpline
210
0.0
220
0.0
230
1.0
 70
     8
 71
     3
 72
    14
 73
    10
 74
     0
 42
0.0000000001
 43
0.0000000001
 12
1.0
 22
0.0
 32
0.0
 13
1.0
 23
0.0
 33
0.0
 40
0.0
 40
0.0
 40
0.0
 40
0.0
 40
1.0
 40
1.0
 40
1.0
 40
2.0
 40
2.0
 40
2.0
 40
3.0
 40
3.0
 40
3.0
 40
3.0
 10
162.6708428875949
 20
93.13851639392487
 30
0.0
 10
162.4555426153099
 20
93.47750055194334
 30
0.0
 10
162.3818120616354
 20
93.78342943302732
 30
0.0
 10
162.5086003917341
 20
93.85197415350082
 30
0.0
 10
162.5086003917341
 20
93.85197415350082
 30
0.0
 10
162.3669953953467
 20
93.7758447109986
 30
0.0
 10
162.3669953953467
 20
93.7758447109986
 30
0.0
 10
162.2395367874873
 20
93.70694721275632
 30
0.0
 10
162.3139376189226
 20
93.40101833167233
 30
0.0
 10
162.5292731689844
 20
93.06203417365387
 30
0.0
  0
SPLINE
  5
120
330
E2
100
AcDbEntity
  8
_U+30EC_U+30A4_U+30E4_U+30FC 1
 62
     7
370
     5
100
AcDbSpline
210
0.0
220
0.0
230
1.0
 70
     8
 71
     3
 72
    14
 73
    10
 74
     0
 42
0.0000000001
 43
0.0000000001
 12
1.0
 22
0.0
 32
0.0
 13
1.0
 23
0.0
 33
0.0
 40
0.0
 40
0.0
 40
0.0
 40
0.0
 40
1.0
 40
1.0
 40
1.0
 40
2.0
 40
2.0
 40
2.0
 40
3.0
 40
3.0
 40
3.0
 40
3.0
 10
162.8420812165596
 20
92.9007794555456
 30
0.0
 10
163.0994325988829
 20
92.58384390807575
 30
0.0
 10
163.3846887027165
 20
92.3916173523584
 30
0.0
 10
163.5121473105759
 20
92.45980724457351
 30
0.0
 10
163.5121473105759
 20
92.45980724457351
 30
0.0
 10
163.3702248141966
 20
92.38332502430252
 30
0.0
 10
163.3702248141966
 20
92.38332502430252
 30
0.0
 10
163.2430837063292
 20
92.31513308159779
 30
0.0
 10
162.9578276024955
 20
92.50736168780475
 30
0.0
 10
162.7004762201722
 20
92.8242972352746
 30
0.0
  0
POLYLINE
  5
121
330
E2
100
AcDbEntity
  8
_U+30EC_U+30A4_U+30E4_U+30FC 1
 62
     7
370
     5
100
AcDb2dPolyline
 66
     1
 10
0.0
 20
0.0
 30
0.0
  0
VERTEX
  5
122
330
121
100
AcDbEntity
  8
_U+30EC_U+30A4_U+30E4_U+30FC 1
 62
     7
370
     5
100
AcDbVertex
100
AcDb2dVertex
 10
162.4875748367149
 20
92.72647195999255
 30
0.0
  0
VERTEX
  5
123
330
121
100
AcDbEntity
  8
_U+30EC_U+30A4_U+30E4_U+30FC 1
 62
     7
370
     5
100
AcDbVertex
100
AcDb2dVertex
 10
162.7004762201722
 20
92.8242972352746
 30
0.0
  0
SEQEND
  5
124
330
121
100
AcDbEntity
  8
_U+30EC_U+30A4_U+30E4_U+30FC 1
 62
     7
370
     5
  0
POLYLINE
  5
125
330
E2
100
AcDbEntity
  8
_U+30EC_U+30A4_U+30E4_U+30FC 1
 62
     7
370
     5
100
AcDb2dPolyline
 66
     1
 10
0.0
 20
0.0
 30
0.0
  0
VERTEX
  5
126
330
125
100
AcDbEntity
  8
_U+30EC_U+30A4_U+30E4_U+30FC 1
 62
     7
370
     5
100
AcDbVertex
100
AcDb2dVertex
 10
162.5296259467532
 20
93.06203417365387
 30
0.0
  0
VERTEX
  5
127
330
125
100
AcDbEntity
  8
_U+30EC_U+30A4_U+30E4_U+30FC 1
 62
     7
370
     5
100
AcDbVertex
100
AcDb2dVertex
 10
162.3473809514027
 20
92.94628778771792
 30
0.0
  0
SEQEND
  5
128
330
125
100
AcDbEntity
  8
_U+30EC_U+30A4_U+30E4_U+30FC 1
 62
     7
370
     5
  0
POLYLINE
  5
129
330
E2
100
AcDbEntity
  8
_U+30EC_U+30A4_U+30E4_U+30FC 1
 62
     7
370
     5
100
AcDb2dPolyline
 66
     1
 10
0.0
 20
0.0
 30
0.0
  0
VERTEX
  5
12A
330
129
100
AcDbEntity
  8
_U+30EC_U+30A4_U+30E4_U+30FC 1
 62
     7
370
     5
100
AcDbVertex
100
AcDb2dVertex
 10
163.245165095165
 20
93.11851389443518
 30
0.0
  0
VERTEX
  5
12B
330
129
100
AcDbEntity
  8
_U+30EC_U+30A4_U+30E4_U+30FC 1
 62
     7
370
     5
100
AcDbVertex
100
AcDb2dVertex
 10
162.8417284387908
 20
92.90113223331437
 30
0.0
  0
SEQEND
  5
12C
330
129
100
AcDbEntity
  8
_U+30EC_U+30A4_U+30E4_U+30FC 1
 62
     7
370
     5
  0
POLYLINE
  5
12D
330
E2
100
AcDbEntity
  8
_U+30EC_U+30A4_U+30E4_U+30FC 1
 62
     7
370
     5
100
AcDb2dPolyline
 66
     1
 10
0.0
 20
0.0
 30
0.0
  0
VERTEX
  5
12E
330
12D
100
AcDbEntity
  8
_U+30EC_U+30A4_U+30E4_U+30FC 1
 62
     7
370
     5
100
AcDbVertex
100
AcDb2dVertex
 10
162.6708428875949
 20
93.13851639392487
 30
0.0
  0
VERTEX
  5
12F
330
12D
100
AcDbEntity
  8
_U+30EC_U+30A4_U+30E4_U+30FC 1
 62
     7
370
     5
100
AcDbVertex
100
AcDb2dVertex
 10
163.074283803865
 20
93.35625083281445
 30
0.0
  0
SEQEND
  5
130
330
12D
100
AcDbEntity
  8
_U+30EC_U+30A4_U+30E4_U+30FC 1
 62
     7
370
     5
  0
SPLINE
  5
131
330
E2
100
AcDbEntity
  8
_U+30EC_U+30A4_U+30E4_U+30FC 1
 62
     7
370
     5
100
AcDbSpline
210
0.0
220
0.0
230
1.0
 70
     8
 71
     3
 72
    11
 73
     7
 74
     0
 42
0.0000000001
 43
0.0000000001
 12
1.0
 22
0.0
 32
0.0
 13
1.0
 23
0.0
 33
0.0
 40
0.0
 40
0.0
 40
0.0
 40
0.0
 40
1.0
 40
1.0
 40
1.0
 40
2.0
 40
2.0
 40
2.0
 40
2.0
 10
163.074283803865
 20
93.35625083281445
 30
0.0
 10
163.1094162097393
 20
93.37484222122903
 30
0.0
 10
163.1759148191539
 20
93.33899999992121
 30
0.0
 10
163.2224109290788
 20
93.27493555711119
 30
0.0
 10
163.2685895390118
 20
93.21087111430117
 30
0.0
 10
163.2768445388012
 20
93.14331417158024
 30
0.0
 10
163.2413550952622
 20
93.12405250540499
 30
0.0
  0
ENDBLK
  5
E5
330
E2
100
AcDbEntity
  8
0
100
AcDbBlockEnd
  0
BLOCK
  5
134
330
132
100
AcDbEntity
  8
0
100
AcDbBlockBegin
  2
block 7
 70
     0
 10
0.0
 20
0.0
 30
0.0
  3
block 7
  1

  0
SPLINE
  5
136
330
132
100
AcDbEntity
  8
_U+30EC_U+30A4_U+30E4_U+30FC 1
 62
     7
370
     5
100
AcDbSpline
210
0.0
220
0.0
230
1.0
 70
     8
 71
     3
 72
    17
 73
    13
 74
     0
 42
0.0000000001
 43
0.0000000001
 12
1.0
 22
0.0
 32
0.0
 13
1.0
 23
0.0
 33
0.0
 40
0.0
 40
0.0
 40
0.0
 40
0.0
 40
1.0
 40
1.0
 40
1.0
 40
2.0
 40
2.0
 40
2.0
 40
3.0
 40
3.0
 40
3.0
 40
4.0
 40
4.0
 40
4.0
 40
4.0
 10
119.4445595459448
 20
128.9862763127057
 30
0.0
 10
119.5282737104758
 20
129.1750829745555
 30
0.0
 10
119.6664214847291
 20
129.3204626930687
 30
0.0
 10
119.8558984243396
 20
129.3986382466299
 30
0.0
 10
120.4281392430738
 20
129.6356696294716
 30
0.0
 10
121.2535686664598
 20
129.1750829745555
 30
0.0
 10
121.6993739328642
 20
128.3695854951054
 30
0.0
 10
122.1454966992604
 20
127.564476071201
 30
0.0
 10
122.0435439240837
 20
126.7197497038629
 30
0.0
 10
121.4713031053494
 20
126.48307109879
 30
0.0
 10
121.3007703319223
 20
126.4120951216309
 30
0.0
 10
121.1068131146483
 20
126.4038372119225
 30
0.0
 10
120.9077053419502
 20
126.4479344330197
 30
0.0
  0
SPLINE
  5
137
330
132
100
AcDbEntity
  8
_U+30EC_U+30A4_U+30E4_U+30FC 1
 62
     7
370
     5
100
AcDbSpline
210
0.0
220
0.0
230
1.0
 70
     8
 71
     3
 72
    14
 73
    10
 74
     0
 42
0.0000000001
 43
0.0000000001
 12
1.0
 22
0.0
 32
0.0
 13
1.0
 23
0.0
 33
0.0
 40
0.0
 40
0.0
 40
0.0
 40
0.0
 40
1.0
 40
1.0
 40
1.0
 40
2.0
 40
2.0
 40
2.0
 40
3.0
 40
3.0
 40
3.0
 40
3.0
 10
119.9434225887733
 20
129.43208157911
 30
0.0
 10
119.9537589773985
 20
129.4368793567654
 30
0.0
 10
119.9640953660237
 20
129.4417124121976
 30
0.0
 10
119.9747492546408
 20
129.4458399120923
 30
0.0
 10
120.546990073375
 20
129.682871294934
 30
0.0
 10
121.3724227031794
 20
129.2219318622491
 30
0.0
 10
121.8185775409341
 20
128.4167871605679
 30
0.0
 10
122.2647003073304
 20
127.6116777366635
 30
0.0
 10
122.1627475321536
 20
126.7669513693254
 30
0.0
 10
121.5905067134194
 20
126.5299228993792
 30
0.0
  0
SPLINE
  5
138
330
132
100
AcDbEntity
  8
_U+30EC_U+30A4_U+30E4_U+30FC 1
 62
     7
370
     5
100
AcDbSpline
210
0.0
220
0.0
230
1.0
 70
     8
 71
     3
 72
    11
 73
     7
 74
     0
 42
0.0000000001
 43
0.0000000001
 12
1.0
 22
0.0
 32
0.0
 13
1.0
 23
0.0
 33
0.0
 40
0.0
 40
0.0
 40
0.0
 40
0.0
 40
1.0
 40
1.0
 40
1.0
 40
2.0
 40
2.0
 40
2.0
 40
2.0
 10
120.6203678492808
 20
126.705285815343
 30
0.0
 10
120.0929298071813
 20
126.5064955426368
 30
0.0
 10
119.4383506572143
 20
126.7969022018946
 30
0.0
 10
119.157927608813
 20
127.3526006769511
 30
0.0
 10
118.8781748381723
 20
127.9086460624205
 30
0.0
 10
119.0793671481971
 20
128.5205038245885
 30
0.0
 10
119.6068373195826
 20
128.718941319526
 30
0.0
  0
SPLINE
  5
139
330
132
100
AcDbEntity
  8
_U+30EC_U+30A4_U+30E4_U+30FC 1
 62
     7
370
     5
100
AcDbSpline
210
0.0
220
0.0
230
1.0
 70
     8
 71
     3
 72
    11
 73
     7
 74
     0
 42
0.0000000001
 43
0.0000000001
 12
1.0
 22
0.0
 32
0.0
 13
1.0
 23
0.0
 33
0.0
 40
0.0
 40
0.0
 40
0.0
 40
0.0
 40
1.0
 40
1.0
 40
1.0
 40
2.0
 40
2.0
 40
2.0
 40
2.0
 10
119.6037328752173
 20
128.7175654862277
 30
0.0
 10
119.856921479869
 20
128.8126390949133
 30
0.0
 10
120.2917200798875
 20
128.4350610489905
 30
0.0
 10
120.5745420171166
 20
127.873862174419
 30
0.0
 10
120.8570464543537
 20
127.3126632998475
 30
0.0
 10
120.8739477033041
 20
126.8003594240286
 30
0.0
 10
120.6203678492808
 20
126.705285815343
 30
0.0
  0
POLYLINE
  5
13A
330
132
100
AcDbEntity
  8
_U+30EC_U+30A4_U+30E4_U+30FC 1
 62
     7
370
     5
100
AcDb2dPolyline
 66
     1
 10
0.0
 20
0.0
 30
0.0
  0
VERTEX
  5
13B
330
13A
100
AcDbEntity
  8
_U+30EC_U+30A4_U+30E4_U+30FC 1
 62
     7
370
     5
100
AcDbVertex
100
AcDb2dVertex
 10
120.203843137685
 20
126.6449960946589
 30
0.0
  0
VERTEX
  5
13C
330
13A
100
AcDbEntity
  8
_U+30EC_U+30A4_U+30E4_U+30FC 1
 62
     7
370
     5
100
AcDbVertex
100
AcDb2dVertex
 10
120.7113171477892
 20
126.3948766565955
 30
0.0
  0
VERTEX
  5
13D
330
13A
100
AcDbEntity
  8
_U+30EC_U+30A4_U+30E4_U+30FC 1
 62
     7
370
     5
100
AcDbVertex
100
AcDb2dVertex
 10
121.2938911654311
 20
127.1789605254808
 30
0.0
  0
VERTEX
  5
13E
330
13A
100
AcDbEntity
  8
_U+30EC_U+30A4_U+30E4_U+30FC 1
 62
     7
370
     5
100
AcDbVertex
100
AcDb2dVertex
 10
120.7113171477892
 20
128.4722791035966
 30
0.0
  0
VERTEX
  5
13F
330
13A
100
AcDbEntity
  8
_U+30EC_U+30A4_U+30E4_U+30FC 1
 62
     7
370
     5
100
AcDbVertex
100
AcDb2dVertex
 10
119.5131042664183
 20
129.071013532766
 30
0.0
  0
VERTEX
  5
140
330
13A
100
AcDbEntity
  8
_U+30EC_U+30A4_U+30E4_U+30FC 1
 62
     7
370
     5
100
AcDbVertex
100
AcDb2dVertex
 10
118.9174742816141
 20
128.331026884978
 30
0.0
  0
VERTEX
  5
141
330
13A
100
AcDbEntity
  8
_U+30EC_U+30A4_U+30E4_U+30FC 1
 62
     7
370
     5
100
AcDbVertex
100
AcDb2dVertex
 10
119.0483548338306
 20
128.0443978990005
 30
0.0
  0
SEQEND
  5
142
330
13A
100
AcDbEntity
  8
_U+30EC_U+30A4_U+30E4_U+30FC 1
 62
     7
370
     5
  0
POLYLINE
  5
143
330
132
100
AcDbEntity
  8
_U+30EC_U+30A4_U+30E4_U+30FC 1
 62
     7
370
     5
100
AcDb2dPolyline
 66
     1
 10
0.0
 20
0.0
 30
0.0
  0
VERTEX
  5
144
330
143
100
AcDbEntity
  8
_U+30EC_U+30A4_U+30E4_U+30FC 1
 62
     7
370
     5
100
AcDbVertex
100
AcDb2dVertex
 10
121.319044220345
 20
126.6132813732458
 30
0.0
  0
VERTEX
  5
145
330
143
100
AcDbEntity
  8
_U+30EC_U+30A4_U+30E4_U+30FC 1
 62
     7
370
     5
100
AcDbVertex
100
AcDb2dVertex
 10
121.9019421474915
 20
127.3974034547178
 30
0.0
  0
VERTEX
  5
146
330
143
100
AcDbEntity
  8
_U+30EC_U+30A4_U+30E4_U+30FC 1
 62
     7
370
     5
100
AcDbVertex
100
AcDb2dVertex
 10
121.319044220345
 20
128.6910395655053
 30
0.0
  0
VERTEX
  5
147
330
143
100
AcDbEntity
  8
_U+30EC_U+30A4_U+30E4_U+30FC 1
 62
     7
370
     5
100
AcDbVertex
100
AcDb2dVertex
 10
120.1204817509228
 20
129.2894535271932
 30
0.0
  0
SEQEND
  5
148
330
143
100
AcDbEntity
  8
_U+30EC_U+30A4_U+30E4_U+30FC 1
 62
     7
370
     5
  0
POLYLINE
  5
149
330
132
100
AcDbEntity
  8
_U+30EC_U+30A4_U+30E4_U+30FC 1
 62
     7
370
     5
100
AcDb2dPolyline
 66
     1
 10
0.0
 20
0.0
 30
0.0
  0
VERTEX
  5
14A
330
149
100
AcDbEntity
  8
_U+30EC_U+30A4_U+30E4_U+30FC 1
 62
     7
370
     5
100
AcDbVertex
100
AcDb2dVertex
 10
119.5131042664183
 20
129.071013532766
 30
0.0
  0
VERTEX
  5
14B
330
149
100
AcDbEntity
  8
_U+30EC_U+30A4_U+30E4_U+30FC 1
 62
     7
370
     5
100
AcDbVertex
100
AcDb2dVertex
 10
120.1204817509228
 20
129.2894535271932
 30
0.0
  0
SEQEND
  5
14C
330
149
100
AcDbEntity
  8
_U+30EC_U+30A4_U+30E4_U+30FC 1
 62
     7
370
     5
  0
POLYLINE
  5
14D
330
132
100
AcDbEntity
  8
_U+30EC_U+30A4_U+30E4_U+30FC 1
 62
     7
370
     5
100
AcDb2dPolyline
 66
     1
 10
0.0
 20
0.0
 30
0.0
  0
VERTEX
  5
14E
330
14D
100
AcDbEntity
  8
_U+30EC_U+30A4_U+30E4_U+30FC 1
 62
     7
370
     5
100
AcDbVertex
100
AcDb2dVertex
 10
120.7113171477892
 20
128.4722791035966
 30
0.0
  0
VERTEX
  5
14F
330
14D
100
AcDbEntity
  8
_U+30EC_U+30A4_U+30E4_U+30FC 1
 62
     7
370
     5
100
AcDbVertex
100
AcDb2dVertex
 10
121.319044220345
 20
128.6910395655053
 30
0.0
  0
SEQEND
  5
150
330
14D
100
AcDbEntity
  8
_U+30EC_U+30A4_U+30E4_U+30FC 1
 62
     7
370
     5
  0
POLYLINE
  5
151
330
132
100
AcDbEntity
  8
_U+30EC_U+30A4_U+30E4_U+30FC 1
 62
     7
370
     5
100
AcDb2dPolyline
 66
     1
 10
0.0
 20
0.0
 30
0.0
  0
VERTEX
  5
152
330
151
100
AcDbEntity
  8
_U+30EC_U+30A4_U+30E4_U+30FC 1
 62
     7
370
     5
100
AcDbVertex
100
AcDb2dVertex
 10
121.2938911654311
 20
127.1789605254808
 30
0.0
  0
VERTEX
  5
153
330
151
100
AcDbEntity
  8
_U+30EC_U+30A4_U+30E4_U+30FC 1
 62
     7
370
     5
100
AcDbVertex
100
AcDb2dVertex
 10
121.9019421474915
 20
127.3974034547178
 30
0.0
  0
SEQEND
  5
154
330
151
100
AcDbEntity
  8
_U+30EC_U+30A4_U+30E4_U+30FC 1
 62
     7
370
     5
  0
POLYLINE
  5
155
330
132
100
AcDbEntity
  8
_U+30EC_U+30A4_U+30E4_U+30FC 1
 62
     7
370
     5
100
AcDb2dPolyline
 66
     1
 10
0.0
 20
0.0
 30
0.0
  0
VERTEX
  5
156
330
155
100
AcDbEntity
  8
_U+30EC_U+30A4_U+30E4_U+30FC 1
 62
     7
370
     5
100
AcDbVertex
100
AcDb2dVertex
 10
120.7113171477892
 20
126.3948766565955
 30
0.0
  0
VERTEX
  5
157
330
155
100
AcDbEntity
  8
_U+30EC_U+30A4_U+30E4_U+30FC 1
 62
     7
370
     5
100
AcDbVertex
100
AcDb2dVertex
 10
121.319044220345
 20
126.6132813732458
 30
0.0
  0
SEQEND
  5
158
330
155
100
AcDbEntity
  8
_U+30EC_U+30A4_U+30E4_U+30FC 1
 62
     7
370
     5
  0
SPLINE
  5
159
330
132
100
AcDbEntity
  8
_U+30EC_U+30A4_U+30E4_U+30FC 1
 62
     7
370
     5
100
AcDbSpline
210
0.0
220
0.0
230
1.0
 70
     8
 71
     3
 72
    14
 73
    10
 74
     0
 42
0.0000000001
 43
0.0000000001
 12
1.0
 22
0.0
 32
0.0
 13
1.0
 23
0.0
 33
0.0
 40
0.0
 40
0.0
 40
0.0
 40
0.0
 40
1.0
 40
1.0
 40
1.0
 40
2.0
 40
2.0
 40
2.0
 40
3.0
 40
3.0
 40
3.0
 40
3.0
 10
119.5272506549463
 20
127.5055621838152
 30
0.0
 10
119.3119151048844
 20
127.8445816196105
 30
0.0
 10
119.2381845512099
 20
128.1505105006945
 30
0.0
 10
119.3649728813086
 20
128.219055221168
 30
0.0
 10
119.3649728813086
 20
128.219055221168
 30
0.0
 10
119.2233678849212
 20
128.1429257786658
 30
0.0
 10
119.2233678849212
 20
128.1429257786658
 30
0.0
 10
119.0959092770619
 20
128.0740312323263
 30
0.0
 10
119.170345386274
 20
127.7680993993395
 30
0.0
 10
119.385645658559
 20
127.4290799635442
 30
0.0
  0
SPLINE
  5
15A
330
132
100
AcDbEntity
  8
_U+30EC_U+30A4_U+30E4_U+30FC 1
 62
     7
370
     5
100
AcDbSpline
210
0.0
220
0.0
230
1.0
 70
     8
 71
     3
 72
    14
 73
    10
 74
     0
 42
0.0000000001
 43
0.0000000001
 12
1.0
 22
0.0
 32
0.0
 13
1.0
 23
0.0
 33
0.0
 40
0.0
 40
0.0
 40
0.0
 40
0.0
 40
1.0
 40
1.0
 40
1.0
 40
2.0
 40
2.0
 40
2.0
 40
3.0
 40
3.0
 40
3.0
 40
3.0
 10
119.6984537061341
 20
127.2678605232128
 30
0.0
 10
119.9558050884574
 20
126.9509249757429
 30
0.0
 10
120.2410643701288
 20
126.7586610917591
 30
0.0
 10
120.3685198001504
 20
126.8268883122407
 30
0.0
 10
120.3685198001504
 20
126.8268883122407
 30
0.0
 10
120.2266004812437
 20
126.7504090104352
 30
0.0
 10
120.2266004812437
 20
126.7504090104352
 30
0.0
 10
120.0994561959037
 20
126.6821788714881
 30
0.0
 10
119.8142032591243
 20
126.8744427554719
 30
0.0
 10
119.5568839875236
 20
127.1913812325472
 30
0.0
  0
POLYLINE
  5
15B
330
132
100
AcDbEntity
  8
_U+30EC_U+30A4_U+30E4_U+30FC 1
 62
     7
370
     5
100
AcDb2dPolyline
 66
     1
 10
0.0
 20
0.0
 30
0.0
  0
VERTEX
  5
15C
330
15B
100
AcDbEntity
  8
_U+30EC_U+30A4_U+30E4_U+30FC 1
 62
     7
370
     5
100
AcDbVertex
100
AcDb2dVertex
 10
119.3439504814643
 20
127.0935530276597
 30
0.0
  0
VERTEX
  5
15D
330
15B
100
AcDbEntity
  8
_U+30EC_U+30A4_U+30E4_U+30FC 1
 62
     7
370
     5
100
AcDbVertex
100
AcDb2dVertex
 10
119.5568839875236
 20
127.1913812325472
 30
0.0
  0
SEQEND
  5
15E
330
15B
100
AcDbEntity
  8
_U+30EC_U+30A4_U+30E4_U+30FC 1
 62
     7
370
     5
  0
POLYLINE
  5
15F
330
132
100
AcDbEntity
  8
_U+30EC_U+30A4_U+30E4_U+30FC 1
 62
     7
370
     5
100
AcDb2dPolyline
 66
     1
 10
0.0
 20
0.0
 30
0.0
  0
VERTEX
  5
160
330
15F
100
AcDbEntity
  8
_U+30EC_U+30A4_U+30E4_U+30FC 1
 62
     7
370
     5
100
AcDbVertex
100
AcDb2dVertex
 10
119.3859984363277
 20
127.4290799635442
 30
0.0
  0
VERTEX
  5
161
330
15F
100
AcDbEntity
  8
_U+30EC_U+30A4_U+30E4_U+30FC 1
 62
     7
370
     5
100
AcDbVertex
100
AcDb2dVertex
 10
119.2037534409772
 20
127.3133335776082
 30
0.0
  0
SEQEND
  5
162
330
15F
100
AcDbEntity
  8
_U+30EC_U+30A4_U+30E4_U+30FC 1
 62
     7
370
     5
  0
POLYLINE
  5
163
330
132
100
AcDbEntity
  8
_U+30EC_U+30A4_U+30E4_U+30FC 1
 62
     7
370
     5
100
AcDb2dPolyline
 66
     1
 10
0.0
 20
0.0
 30
0.0
  0
VERTEX
  5
164
330
163
100
AcDbEntity
  8
_U+30EC_U+30A4_U+30E4_U+30FC 1
 62
     7
370
     5
100
AcDbVertex
100
AcDb2dVertex
 10
120.1015375847395
 20
127.4855978991402
 30
0.0
  0
VERTEX
  5
165
330
163
100
AcDbEntity
  8
_U+30EC_U+30A4_U+30E4_U+30FC 1
 62
     7
370
     5
100
AcDbVertex
100
AcDb2dVertex
 10
119.6981009283653
 20
127.2682133009815
 30
0.0
  0
SEQEND
  5
166
330
163
100
AcDbEntity
  8
_U+30EC_U+30A4_U+30E4_U+30FC 1
 62
     7
370
     5
  0
POLYLINE
  5
167
330
132
100
AcDbEntity
  8
_U+30EC_U+30A4_U+30E4_U+30FC 1
 62
     7
370
     5
100
AcDb2dPolyline
 66
     1
 10
0.0
 20
0.0
 30
0.0
  0
VERTEX
  5
168
330
167
100
AcDbEntity
  8
_U+30EC_U+30A4_U+30E4_U+30FC 1
 62
     7
370
     5
100
AcDbVertex
100
AcDb2dVertex
 10
119.5272506549463
 20
127.5055621838152
 30
0.0
  0
VERTEX
  5
169
330
167
100
AcDbEntity
  8
_U+30EC_U+30A4_U+30E4_U+30FC 1
 62
     7
370
     5
100
AcDbVertex
100
AcDb2dVertex
 10
119.9306520335436
 20
127.7232966227047
 30
0.0
  0
SEQEND
  5
16A
330
167
100
AcDbEntity
  8
_U+30EC_U+30A4_U+30E4_U+30FC 1
 62
     7
370
     5
  0
SPLINE
  5
16B
330
132
100
AcDbEntity
  8
_U+30EC_U+30A4_U+30E4_U+30FC 1
 62
     7
370
     5
100
AcDbSpline
210
0.0
220
0.0
230
1.0
 70
     8
 71
     3
 72
    11
 73
     7
 74
     0
 42
0.0000000001
 43
0.0000000001
 12
1.0
 22
0.0
 32
0.0
 13
1.0
 23
0.0
 33
0.0
 40
0.0
 40
0.0
 40
0.0
 40
0.0
 40
1.0
 40
1.0
 40
1.0
 40
2.0
 40
2.0
 40
2.0
 40
2.0
 10
119.9306520335436
 20
127.7232966227047
 30
0.0
 10
119.9657886993138
 20
127.7419232888962
 30
0.0
 10
120.0322873087284
 20
127.7060840101962
 30
0.0
 10
120.0787865923915
 20
127.6419813470015
 30
0.0
 10
120.1249620285863
 20
127.5779169041915
 30
0.0
 10
120.1332170283757
 20
127.5103952392474
 30
0.0
 10
120.0977628626135
 20
127.4910982952953
 30
0.0
  0
ENDBLK
  5
135
330
132
100
AcDbEntity
  8
0
100
AcDbBlockEnd
  0
BLOCK
  5
16E
330
16C
100
AcDbEntity
  8
0
100
AcDbBlockBegin
  2
block 8
 70
     0
 10
0.0
 20
0.0
 30
0.0
  3
block 8
  1

  0
POLYLINE
  5
170
330
16C
100
AcDbEntity
  8
_U+30EC_U+30A4_U+30E4_U+30FC 1
 62
     7
370
     5
100
AcDb2dPolyline
 66
     1
 10
0.0
 20
0.0
 30
0.0
  0
VERTEX
  5
171
330
170
100
AcDbEntity
  8
_U+30EC_U+30A4_U+30E4_U+30FC 1
 62
     7
370
     5
100
AcDbVertex
100
AcDb2dVertex
 10
126.2057218734532
 20
159.2202483191506
 30
0.0
  0
VERTEX
  5
172
330
170
100
AcDbEntity
  8
_U+30EC_U+30A4_U+30E4_U+30FC 1
 62
     7
370
     5
100
AcDbVertex
100
AcDb2dVertex
 10
135.6862716315842
 20
163.9869109753206
 30
0.0
  0
SEQEND
  5
173
330
170
100
AcDbEntity
  8
_U+30EC_U+30A4_U+30E4_U+30FC 1
 62
     7
370
     5
  0
POLYLINE
  5
174
330
16C
100
AcDbEntity
  8
_U+30EC_U+30A4_U+30E4_U+30FC 1
 62
     7
370
     5
100
AcDb2dPolyline
 66
     1
 10
0.0
 20
0.0
 30
0.0
  0
VERTEX
  5
175
330
174
100
AcDbEntity
  8
_U+30EC_U+30A4_U+30E4_U+30FC 1
 62
     7
370
     5
100
AcDbVertex
100
AcDb2dVertex
 10
134.943180539431
 20
165.6398512109284
 30
0.0
  0
VERTEX
  5
176
330
174
100
AcDbEntity
  8
_U+30EC_U+30A4_U+30E4_U+30FC 1
 62
     7
370
     5
100
AcDbVertex
100
AcDb2dVertex
 10
124.6258066359824
 20
160.4797707870175
 30
0.0
  0
SEQEND
  5
177
330
174
100
AcDbEntity
  8
_U+30EC_U+30A4_U+30E4_U+30FC 1
 62
     7
370
     5
  0
SPLINE
  5
178
330
16C
100
AcDbEntity
  8
_U+30EC_U+30A4_U+30E4_U+30FC 1
 62
     7
370
     5
100
AcDbSpline
210
0.0
220
0.0
230
1.0
 70
     8
 71
     3
 72
    14
 73
    10
 74
     0
 42
0.0000000001
 43
0.0000000001
 12
1.0
 22
0.0
 32
0.0
 13
1.0
 23
0.0
 33
0.0
 40
0.0
 40
0.0
 40
0.0
 40
0.0
 40
1.0
 40
1.0
 40
1.0
 40
2.0
 40
2.0
 40
2.0
 40
3.0
 40
3.0
 40
3.0
 40
3.0
 10
134.969709427643
 20
165.6515673340431
 30
0.0
 10
134.9969085936158
 20
165.661899821477
 30
0.0
 10
135.0251660928949
 20
165.6701548212664
 30
0.0
 10
135.0541291477115
 20
165.6767164877656
 30
0.0
 10
135.4510041375864
 20
165.7642053744225
 30
0.0
 10
135.8867905153575
 20
165.4479753824902
 30
0.0
 10
136.0266669006778
 20
164.9715137279791
 30
0.0
 10
136.1492924531049
 20
164.5539659608538
 30
0.0
 10
136.0052921439657
 20
164.1515562233069
 30
0.0
 10
135.7017938534104
 20
163.9992934750047
 30
0.0
  0
SPLINE
  5
179
330
16C
100
AcDbEntity
  8
_U+30EC_U+30A4_U+30E4_U+30FC 1
 62
     7
370
     5
100
AcDbSpline
210
0.0
220
0.0
230
1.0
 70
     8
 71
     3
 72
    14
 73
    10
 74
     0
 42
0.0000000001
 43
0.0000000001
 12
1.0
 22
0.0
 32
0.0
 13
1.0
 23
0.0
 33
0.0
 40
0.0
 40
0.0
 40
0.0
 40
0.0
 40
1.0
 40
1.0
 40
1.0
 40
2.0
 40
2.0
 40
2.0
 40
3.0
 40
3.0
 40
3.0
 40
3.0
 10
134.4632616627858
 20
165.4024670503179
 30
0.0
 10
134.4901433287667
 20
165.4131562167119
 30
0.0
 10
134.5184008280458
 20
165.4210937165093
 30
0.0
 10
134.5476813828543
 20
165.4276201052317
 30
0.0
 10
134.9445563727292
 20
165.5151442696655
 30
0.0
 10
135.3800252505083
 20
165.1988789999563
 30
0.0
 10
135.5202226996425
 20
164.7220645676764
 30
0.0
 10
135.6428799660246
 20
164.3048695783199
 30
0.0
 10
135.4988760808095
 20
163.9024951122583
 30
0.0
 10
135.1953460885532
 20
163.7502323702477
 30
0.0
  0
SPLINE
  5
17A
330
16C
100
AcDbEntity
  8
_U+30EC_U+30A4_U+30E4_U+30FC 1
 62
     7
370
     5
100
AcDbSpline
210
0.0
220
0.0
230
1.0
 70
     8
 71
     3
 72
    14
 73
    10
 74
     0
 42
0.0000000001
 43
0.0000000001
 12
1.0
 22
0.0
 32
0.0
 13
1.0
 23
0.0
 33
0.0
 40
0.0
 40
0.0
 40
0.0
 40
0.0
 40
1.0
 40
1.0
 40
1.0
 40
2.0
 40
2.0
 40
2.0
 40
3.0
 40
3.0
 40
3.0
 40
3.0
 10
133.7794372357872
 20
165.0638395564122
 30
0.0
 10
133.8062836239912
 20
165.0741720586934
 30
0.0
 10
133.8345411232703
 20
165.0824270584828
 30
0.0
 10
133.8638216780788
 20
165.0893415027508
 30
0.0
 10
134.2606966679537
 20
165.1764776116389
 30
0.0
 10
134.6961655457328
 20
164.8605651196985
 30
0.0
 10
134.8360419310532
 20
164.3837859651955
 30
0.0
 10
134.9586674834803
 20
163.9662381980703
 30
0.0
 10
134.8150199220411
 20
163.5638284456763
 30
0.0
 10
134.5115216615546
 20
163.4115657122211
 30
0.0
  0
SPLINE
  5
17B
330
16C
100
AcDbEntity
  8
_U+30EC_U+30A4_U+30E4_U+30FC 1
 62
     7
370
     5
100
AcDbSpline
210
0.0
220
0.0
230
1.0
 70
     8
 71
     3
 72
    14
 73
    10
 74
     0
 42
0.0000000001
 43
0.0000000001
 12
1.0
 22
0.0
 32
0.0
 13
1.0
 23
0.0
 33
0.0
 40
0.0
 40
0.0
 40
0.0
 40
0.0
 40
1.0
 40
1.0
 40
1.0
 40
2.0
 40
2.0
 40
2.0
 40
3.0
 40
3.0
 40
3.0
 40
3.0
 10
133.1551616961582
 20
164.7551590009339
 30
0.0
 10
133.1820433621391
 20
164.765491511013
 30
0.0
 10
133.2103008614182
 20
164.7737465108023
 30
0.0
 10
133.2395814162267
 20
164.7799553995328
 30
0.0
 10
133.6361036283328
 20
164.8674442861897
 30
0.0
 10
134.0719252838807
 20
164.5515317942493
 30
0.0
 10
134.2118016692011
 20
164.0747526397463
 30
0.0
 10
134.3344272216282
 20
163.6575576503898
 30
0.0
 10
134.1904233364132
 20
163.2551478901979
 30
0.0
 10
133.8869286219337
 20
163.1028851645407
 30
0.0
  0
SPLINE
  5
17C
330
16C
100
AcDbEntity
  8
_U+30EC_U+30A4_U+30E4_U+30FC 1
 62
     7
370
     5
100
AcDbSpline
210
0.0
220
0.0
230
1.0
 70
     8
 71
     3
 72
    14
 73
    10
 74
     0
 42
0.0000000001
 43
0.0000000001
 12
1.0
 22
0.0
 32
0.0
 13
1.0
 23
0.0
 33
0.0
 40
0.0
 40
0.0
 40
0.0
 40
0.0
 40
1.0
 40
1.0
 40
1.0
 40
2.0
 40
2.0
 40
2.0
 40
3.0
 40
3.0
 40
3.0
 40
3.0
 10
132.593292543826
 20
164.4767781850453
 30
0.0
 10
132.62013893203
 20
164.4874673514392
 30
0.0
 10
132.6483964313091
 20
164.4957223512287
 30
0.0
 10
132.6776769861177
 20
164.5022840177279
 30
0.0
 10
133.0745519759925
 20
164.5897729043848
 30
0.0
 10
133.5100208537717
 20
164.2735429124525
 30
0.0
 10
133.649897239092
 20
163.7967284801726
 30
0.0
 10
133.7728755692879
 20
163.3791807130473
 30
0.0
 10
133.6288716840729
 20
162.9771198899714
 30
0.0
 10
133.3253769695935
 20
162.824861004967
 30
0.0
  0
SPLINE
  5
17D
330
16C
100
AcDbEntity
  8
_U+30EC_U+30A4_U+30E4_U+30FC 1
 62
     7
370
     5
100
AcDbSpline
210
0.0
220
0.0
230
1.0
 70
     8
 71
     3
 72
    14
 73
    10
 74
     0
 42
0.0000000001
 43
0.0000000001
 12
1.0
 22
0.0
 32
0.0
 13
1.0
 23
0.0
 33
0.0
 40
0.0
 40
0.0
 40
0.0
 40
0.0
 40
1.0
 40
1.0
 40
1.0
 40
2.0
 40
2.0
 40
2.0
 40
3.0
 40
3.0
 40
3.0
 40
3.0
 10
131.9094328390505
 20
164.1384643047875
 30
0.0
 10
131.9363145050314
 20
164.1488006934127
 30
0.0
 10
131.9645367265336
 20
164.157090970979
 30
0.0
 10
131.9938172813422
 20
164.1636173597014
 30
0.0
 10
132.3903782559804
 20
164.2507887463663
 30
0.0
 10
132.8261611489962
 20
163.9348762544259
 30
0.0
 10
132.9660375343165
 20
163.4584145999148
 30
0.0
 10
133.0886983645205
 20
163.0408668327896
 30
0.0
 10
132.9446944793055
 20
162.6384923347964
 30
0.0
 10
132.6411644870492
 20
162.4861943469404
 30
0.0
  0
SPLINE
  5
17E
330
16C
100
AcDbEntity
  8
_U+30EC_U+30A4_U+30E4_U+30FC 1
 62
     7
370
     5
100
AcDbSpline
210
0.0
220
0.0
230
1.0
 70
     8
 71
     3
 72
    14
 73
    10
 74
     0
 42
0.0000000001
 43
0.0000000001
 12
1.0
 22
0.0
 32
0.0
 13
1.0
 23
0.0
 33
0.0
 40
0.0
 40
0.0
 40
0.0
 40
0.0
 40
1.0
 40
1.0
 40
1.0
 40
2.0
 40
2.0
 40
2.0
 40
3.0
 40
3.0
 40
3.0
 40
3.0
 10
131.2848397994297
 20
163.8297837571071
 30
0.0
 10
131.3120389654024
 20
163.8401201457322
 30
0.0
 10
131.3402964646815
 20
163.8484104232985
 30
0.0
 10
131.3692242417213
 20
163.854619312029
 30
0.0
 10
131.7660992315962
 20
163.9421081986859
 30
0.0
 10
132.2019208871441
 20
163.6258429289767
 30
0.0
 10
132.3417972724644
 20
163.1493812744656
 30
0.0
 10
132.4644228248916
 20
162.7318335073403
 30
0.0
 10
132.3204189396765
 20
162.329811779318
 30
0.0
 10
132.0169242251971
 20
162.17751379926
 30
0.0
  0
SPLINE
  5
17F
330
16C
100
AcDbEntity
  8
_U+30EC_U+30A4_U+30E4_U+30FC 1
 62
     7
370
     5
100
AcDbSpline
210
0.0
220
0.0
230
1.0
 70
     8
 71
     3
 72
    14
 73
    10
 74
     0
 42
0.0000000001
 43
0.0000000001
 12
1.0
 22
0.0
 32
0.0
 13
1.0
 23
0.0
 33
0.0
 40
0.0
 40
0.0
 40
0.0
 40
0.0
 40
1.0
 40
1.0
 40
1.0
 40
2.0
 40
2.0
 40
2.0
 40
3.0
 40
3.0
 40
3.0
 40
3.0
 10
130.6936548145121
 20
163.5369782090216
 30
0.0
 10
130.7205364804929
 20
163.5473145976468
 30
0.0
 10
130.748793979772
 20
163.5555695974362
 30
0.0
 10
130.7777217568118
 20
163.5620959861586
 30
0.0
 10
131.1745967466867
 20
163.6492673728235
 30
0.0
 10
131.6103865895087
 20
163.3333548808831
 30
0.0
 10
131.750259509778
 20
162.8565404486032
 30
0.0
 10
131.872920339982
 20
162.4393454592468
 30
0.0
 10
131.7289199228125
 20
162.036967136179
 30
0.0
 10
131.4253864625107
 20
161.8847082511745
 30
0.0
  0
SPLINE
  5
180
330
16C
100
AcDbEntity
  8
_U+30EC_U+30A4_U+30E4_U+30FC 1
 62
     7
370
     5
100
AcDbSpline
210
0.0
220
0.0
230
1.0
 70
     8
 71
     3
 72
    14
 73
    10
 74
     0
 42
0.0000000001
 43
0.0000000001
 12
1.0
 22
0.0
 32
0.0
 13
1.0
 23
0.0
 33
0.0
 40
0.0
 40
0.0
 40
0.0
 40
0.0
 40
1.0
 40
1.0
 40
1.0
 40
2.0
 40
2.0
 40
2.0
 40
3.0
 40
3.0
 40
3.0
 40
3.0
 10
130.0094423319678
 20
163.198311550995
 30
0.0
 10
130.0366767757174
 20
163.209000717389
 30
0.0
 10
130.0649342749965
 20
163.2172557171784
 30
0.0
 10
130.0938620520363
 20
163.2234646059089
 30
0.0
 10
130.4907370419111
 20
163.3109534925657
 30
0.0
 10
130.9265586974591
 20
162.9947235006334
 30
0.0
 10
131.0664032563115
 20
162.5179090683535
 30
0.0
 10
131.1890606352065
 20
162.1007140789971
 30
0.0
 10
131.0450567499915
 20
161.6986532559212
 30
0.0
 10
130.7415267577352
 20
161.5460415931479
 30
0.0
  0
SPLINE
  5
181
330
16C
100
AcDbEntity
  8
_U+30EC_U+30A4_U+30E4_U+30FC 1
 62
     7
370
     5
100
AcDbSpline
210
0.0
220
0.0
230
1.0
 70
     8
 71
     3
 72
    14
 73
    10
 74
     0
 42
0.0000000001
 43
0.0000000001
 12
1.0
 22
0.0
 32
0.0
 13
1.0
 23
0.0
 33
0.0
 40
0.0
 40
0.0
 40
0.0
 40
0.0
 40
1.0
 40
1.0
 40
1.0
 40
2.0
 40
2.0
 40
2.0
 40
3.0
 40
3.0
 40
3.0
 40
3.0
 10
129.3852020701157
 20
162.8892782255458
 30
0.0
 10
129.4124365138653
 20
162.8999673919398
 30
0.0
 10
129.4406587353675
 20
162.9082223917292
 30
0.0
 10
129.4696217901842
 20
162.9147840582284
 30
0.0
 10
129.8664967800591
 20
163.0019554448934
 30
0.0
 10
130.3022865898358
 20
162.686042952953
 30
0.0
 10
130.4421595431505
 20
162.2092285206731
 30
0.0
 10
130.5648203733545
 20
161.7916807535478
 30
0.0
 10
130.4208199231396
 20
161.3896199304719
 30
0.0
 10
130.1172864958831
 20
161.2370082676987
 30
0.0
  0
SPLINE
  5
182
330
16C
100
AcDbEntity
  8
_U+30EC_U+30A4_U+30E4_U+30FC 1
 62
     7
370
     5
100
AcDbSpline
210
0.0
220
0.0
230
1.0
 70
     8
 71
     3
 72
    14
 73
    10
 74
     0
 42
0.0000000001
 43
0.0000000001
 12
1.0
 22
0.0
 32
0.0
 13
1.0
 23
0.0
 33
0.0
 40
0.0
 40
0.0
 40
0.0
 40
0.0
 40
1.0
 40
1.0
 40
1.0
 40
2.0
 40
2.0
 40
2.0
 40
3.0
 40
3.0
 40
3.0
 40
3.0
 10
128.8232976400066
 20
162.6116068437409
 30
0.0
 10
128.8505320837563
 20
162.6219432323661
 30
0.0
 10
128.8787895830353
 20
162.6301982321555
 30
0.0
 10
128.9077173600751
 20
162.636407120886
 30
0.0
 10
129.30459234995
 20
162.7239312853197
 30
0.0
 10
129.7404140054979
 20
162.4076660156105
 30
0.0
 10
129.8802551130414
 20
161.9312043610994
 30
0.0
 10
130.0029159432454
 20
161.5140093717429
 30
0.0
 10
129.8589120580303
 20
161.1116310486751
 30
0.0
 10
129.555382065774
 20
160.9593368858938
 30
0.0
  0
SPLINE
  5
183
330
16C
100
AcDbEntity
  8
_U+30EC_U+30A4_U+30E4_U+30FC 1
 62
     7
370
     5
100
AcDbSpline
210
0.0
220
0.0
230
1.0
 70
     8
 71
     3
 72
    14
 73
    10
 74
     0
 42
0.0000000001
 43
0.0000000001
 12
1.0
 22
0.0
 32
0.0
 13
1.0
 23
0.0
 33
0.0
 40
0.0
 40
0.0
 40
0.0
 40
0.0
 40
1.0
 40
1.0
 40
1.0
 40
2.0
 40
2.0
 40
2.0
 40
3.0
 40
3.0
 40
3.0
 40
3.0
 10
128.139473213008
 20
162.2729754634912
 30
0.0
 10
128.1666723789807
 20
162.2836293521083
 30
0.0
 10
128.1949298782598
 20
162.2915668519058
 30
0.0
 10
128.2238576552996
 20
162.2980932406282
 30
0.0
 10
128.6207326451745
 20
162.3856174050619
 30
0.0
 10
129.0565543007224
 20
162.0693521353527
 30
0.0
 10
129.1964306860428
 20
161.5925377030728
 30
0.0
 10
129.3190562384699
 20
161.1749899359476
 30
0.0
 10
129.1750523532548
 20
160.7729643906486
 30
0.0
 10
128.8715576387754
 20
160.6207055056441
 30
0.0
  0
SPLINE
  5
184
330
16C
100
AcDbEntity
  8
_U+30EC_U+30A4_U+30E4_U+30FC 1
 62
     7
370
     5
100
AcDbSpline
210
0.0
220
0.0
230
1.0
 70
     8
 71
     3
 72
    14
 73
    10
 74
     0
 42
0.0000000001
 43
0.0000000001
 12
1.0
 22
0.0
 32
0.0
 13
1.0
 23
0.0
 33
0.0
 40
0.0
 40
0.0
 40
0.0
 40
0.0
 40
1.0
 40
1.0
 40
1.0
 40
2.0
 40
2.0
 40
2.0
 40
3.0
 40
3.0
 40
3.0
 40
3.0
 10
127.4835182297428
 20
161.908802972782
 30
0.0
 10
127.5104032572005
 20
161.919492139176
 30
0.0
 10
127.5386254794157
 20
161.9277471389654
 30
0.0
 10
127.5679379498113
 20
161.9343088054646
 30
0.0
 10
127.9644601619174
 20
162.0214840016174
 30
0.0
 10
128.4002465396885
 20
161.7055677001892
 30
0.0
 10
128.5401229250088
 20
161.2287532679093
 30
0.0
 10
128.6627837552128
 20
160.8112055007841
 30
0.0
 10
128.5187798699977
 20
160.4091446777082
 30
0.0
 10
128.2152532570242
 20
160.2565367798365
 30
0.0
  0
SPLINE
  5
185
330
16C
100
AcDbEntity
  8
_U+30EC_U+30A4_U+30E4_U+30FC 1
 62
     7
370
     5
100
AcDbSpline
210
0.0
220
0.0
230
1.0
 70
     8
 71
     3
 72
    14
 73
    10
 74
     0
 42
0.0000000001
 43
0.0000000001
 12
1.0
 22
0.0
 32
0.0
 13
1.0
 23
0.0
 33
0.0
 40
0.0
 40
0.0
 40
0.0
 40
0.0
 40
1.0
 40
1.0
 40
1.0
 40
2.0
 40
2.0
 40
2.0
 40
3.0
 40
3.0
 40
3.0
 40
3.0
 10
126.8589251901219
 20
161.6001224251016
 30
0.0
 10
126.8861243560947
 20
161.6104588137268
 30
0.0
 10
126.9143818553738
 20
161.618749091293
 30
0.0
 10
126.9433096324136
 20
161.6252754800154
 30
0.0
 10
127.3401846222884
 20
161.7124506683612
 30
0.0
 10
127.7760062778364
 20
161.39653437474
 30
0.0
 10
127.9158826631567
 20
160.9200727202289
 30
0.0
 10
128.0385115904016
 20
160.5025249531036
 30
0.0
 10
127.8945043303688
 20
160.1001466300358
 30
0.0
 10
127.5910096158893
 20
159.9478562243581
 30
0.0
  0
SPLINE
  5
186
330
16C
100
AcDbEntity
  8
_U+30EC_U+30A4_U+30E4_U+30FC 1
 62
     7
370
     5
100
AcDbSpline
210
0.0
220
0.0
230
1.0
 70
     8
 71
     3
 72
    14
 73
    10
 74
     0
 42
0.0000000001
 43
0.0000000001
 12
1.0
 22
0.0
 32
0.0
 13
1.0
 23
0.0
 33
0.0
 40
0.0
 40
0.0
 40
0.0
 40
0.0
 40
1.0
 40
1.0
 40
1.0
 40
2.0
 40
2.0
 40
2.0
 40
3.0
 40
3.0
 40
3.0
 40
3.0
 10
126.2677402052043
 20
161.3072815992392
 30
0.0
 10
126.2946218711852
 20
161.3176179878644
 30
0.0
 10
126.3228793704643
 20
161.3259082654307
 30
0.0
 10
126.351807147504
 20
161.3327874319218
 30
0.0
 10
126.7486821373789
 20
161.4199588185868
 30
0.0
 10
127.18446851515
 20
161.1040463266464
 30
0.0
 10
127.3243449004703
 20
160.6272318943665
 30
0.0
 10
127.4470057306743
 20
160.2096841272413
 30
0.0
 10
127.3030018454593
 20
159.8073058041735
 30
0.0
 10
126.999471853203
 20
159.6550506688758
 30
0.0
  0
SPLINE
  5
187
330
16C
100
AcDbEntity
  8
_U+30EC_U+30A4_U+30E4_U+30FC 1
 62
     7
370
     5
100
AcDbSpline
210
0.0
220
0.0
230
1.0
 70
     8
 71
     3
 72
    14
 73
    10
 74
     0
 42
0.0000000001
 43
0.0000000001
 12
1.0
 22
0.0
 32
0.0
 13
1.0
 23
0.0
 33
0.0
 40
0.0
 40
0.0
 40
0.0
 40
0.0
 40
1.0
 40
1.0
 40
1.0
 40
2.0
 40
2.0
 40
2.0
 40
3.0
 40
3.0
 40
3.0
 40
3.0
 10
125.5835630004369
 20
160.9690029967583
 30
0.0
 10
125.6107621664097
 20
160.9793393853835
 30
0.0
 10
125.6390196656888
 20
160.9875943851729
 30
0.0
 10
125.6679474427285
 20
160.9938032739034
 30
0.0
 10
126.0648224326034
 20
161.0812921605603
 30
0.0
 10
126.5006440881513
 20
160.7650268908511
 30
0.0
 10
126.6404851956948
 20
160.2886005141168
 30
0.0
 10
126.7631460258988
 20
159.8713702469835
 30
0.0
 10
126.6191421406837
 20
159.4689919239157
 30
0.0
 10
126.3156121484274
 20
159.3167367800712
 30
0.0
  0
SPLINE
  5
188
330
16C
100
AcDbEntity
  8
_U+30EC_U+30A4_U+30E4_U+30FC 1
 62
     7
370
     5
100
AcDbSpline
210
0.0
220
0.0
230
1.0
 70
     8
 71
     3
 72
    14
 73
    10
 74
     0
 42
0.0000000001
 43
0.0000000001
 12
1.0
 22
0.0
 32
0.0
 13
1.0
 23
0.0
 33
0.0
 40
0.0
 40
0.0
 40
0.0
 40
0.0
 40
1.0
 40
1.0
 40
1.0
 40
2.0
 40
2.0
 40
2.0
 40
3.0
 40
3.0
 40
3.0
 40
3.0
 10
124.959287460808
 20
160.6599696713091
 30
0.0
 10
124.9865219045576
 20
160.6706588377031
 30
0.0
 10
125.0147441260598
 20
160.6789138374924
 30
0.0
 10
125.0437071808765
 20
160.6851227262229
 30
0.0
 10
125.4405821707513
 20
160.7726116128798
 30
0.0
 10
125.8763685485224
 20
160.4563463431706
 30
0.0
 10
126.0162449338427
 20
159.9795671886676
 30
0.0
 10
126.0775577100563
 20
159.770793305105
 30
0.0
 10
126.0720543768633
 20
159.5661506688978
 30
0.0
 10
126.0134932672463
 20
159.3945910924805
 30
0.0
  0
SPLINE
  5
189
330
16C
100
AcDbEntity
  8
_U+30EC_U+30A4_U+30E4_U+30FC 1
 62
     7
370
     5
100
AcDbSpline
210
0.0
220
0.0
230
1.0
 70
     8
 71
     3
 72
    17
 73
    13
 74
     0
 42
0.0000000001
 43
0.0000000001
 12
1.0
 22
0.0
 32
0.0
 13
1.0
 23
0.0
 33
0.0
 40
0.0
 40
0.0
 40
0.0
 40
0.0
 40
1.0
 40
1.0
 40
1.0
 40
2.0
 40
2.0
 40
2.0
 40
3.0
 40
3.0
 40
3.0
 40
4.0
 40
4.0
 40
4.0
 40
4.0
 10
119.4445595459448
 20
158.6196088900297
 30
0.0
 10
119.5282737104758
 20
158.8084155518795
 30
0.0
 10
119.6664214847291
 20
158.9537952703928
 30
0.0
 10
119.8558984243396
 20
159.0319708239539
 30
0.0
 10
120.4281392430738
 20
159.2690022067956
 30
0.0
 10
121.2535686664598
 20
158.8084155518795
 30
0.0
 10
121.6993739328642
 20
158.0029180724295
 30
0.0
 10
122.1454966992604
 20
157.1978086485251
 30
0.0
 10
122.0435439240837
 20
156.3530822811869
 30
0.0
 10
121.4713031053494
 20
156.116403676114
 30
0.0
 10
121.3007703319223
 20
156.045428447556
 30
0.0
 10
121.1068131146483
 20
156.0371697892465
 30
0.0
 10
120.9077053419502
 20
156.0812670103437
 30
0.0
  0
SPLINE
  5
18A
330
16C
100
AcDbEntity
  8
_U+30EC_U+30A4_U+30E4_U+30FC 1
 62
     7
370
     5
100
AcDbSpline
210
0.0
220
0.0
230
1.0
 70
     8
 71
     3
 72
    14
 73
    10
 74
     0
 42
0.0000000001
 43
0.0000000001
 12
1.0
 22
0.0
 32
0.0
 13
1.0
 23
0.0
 33
0.0
 40
0.0
 40
0.0
 40
0.0
 40
0.0
 40
1.0
 40
1.0
 40
1.0
 40
2.0
 40
2.0
 40
2.0
 40
3.0
 40
3.0
 40
3.0
 40
3.0
 10
119.9434225887733
 20
159.065414156434
 30
0.0
 10
119.9537589773985
 20
159.0702119340894
 30
0.0
 10
119.9640953660237
 20
159.0750449895217
 30
0.0
 10
119.9747492546408
 20
159.0791724894164
 30
0.0
 10
120.546990073375
 20
159.3162038722581
 30
0.0
 10
121.3724227031794
 20
158.8552644395732
 30
0.0
 10
121.8185775409341
 20
158.0501197378919
 30
0.0
 10
122.2647003073304
 20
157.2450103139875
 30
0.0
 10
122.1627475321536
 20
156.4002839466494
 30
0.0
 10
121.5905067134194
 20
156.1632562253042
 30
0.0
  0
SPLINE
  5
18B
330
16C
100
AcDbEntity
  8
_U+30EC_U+30A4_U+30E4_U+30FC 1
 62
     7
370
     5
100
AcDbSpline
210
0.0
220
0.0
230
1.0
 70
     8
 71
     3
 72
    11
 73
     7
 74
     0
 42
0.0000000001
 43
0.0000000001
 12
1.0
 22
0.0
 32
0.0
 13
1.0
 23
0.0
 33
0.0
 40
0.0
 40
0.0
 40
0.0
 40
0.0
 40
1.0
 40
1.0
 40
1.0
 40
2.0
 40
2.0
 40
2.0
 40
2.0
 10
120.6203678492808
 20
156.3386183926671
 30
0.0
 10
120.0929298071813
 20
156.1398281199608
 30
0.0
 10
119.4383506572143
 20
156.4302347792186
 30
0.0
 10
119.157927608813
 20
156.9859340028761
 30
0.0
 10
118.8781748381723
 20
157.5419786397445
 30
0.0
 10
119.0793671481971
 20
158.1538364019125
 30
0.0
 10
119.6068373195826
 20
158.35227389685
 30
0.0
  0
SPLINE
  5
18C
330
16C
100
AcDbEntity
  8
_U+30EC_U+30A4_U+30E4_U+30FC 1
 62
     7
370
     5
100
AcDbSpline
210
0.0
220
0.0
230
1.0
 70
     8
 71
     3
 72
    11
 73
     7
 74
     0
 42
0.0000000001
 43
0.0000000001
 12
1.0
 22
0.0
 32
0.0
 13
1.0
 23
0.0
 33
0.0
 40
0.0
 40
0.0
 40
0.0
 40
0.0
 40
1.0
 40
1.0
 40
1.0
 40
2.0
 40
2.0
 40
2.0
 40
2.0
 10
119.6037328752173
 20
158.3508980635517
 30
0.0
 10
119.856921479869
 20
158.4459716722373
 30
0.0
 10
120.2917200798875
 20
158.0683936263146
 30
0.0
 10
120.5745420171166
 20
157.5071947517431
 30
0.0
 10
120.8570464543537
 20
156.9459958771716
 30
0.0
 10
120.8739477033041
 20
156.4336920013526
 30
0.0
 10
120.6203678492808
 20
156.3386183926671
 30
0.0
  0
POLYLINE
  5
18D
330
16C
100
AcDbEntity
  8
_U+30EC_U+30A4_U+30E4_U+30FC 1
 62
     7
370
     5
100
AcDb2dPolyline
 66
     1
 10
0.0
 20
0.0
 30
0.0
  0
VERTEX
  5
18E
330
18D
100
AcDbEntity
  8
_U+30EC_U+30A4_U+30E4_U+30FC 1
 62
     7
370
     5
100
AcDbVertex
100
AcDb2dVertex
 10
120.203843137685
 20
156.278328671983
 30
0.0
  0
VERTEX
  5
18F
330
18D
100
AcDbEntity
  8
_U+30EC_U+30A4_U+30E4_U+30FC 1
 62
     7
370
     5
100
AcDbVertex
100
AcDb2dVertex
 10
120.7113171477892
 20
156.0282092339196
 30
0.0
  0
VERTEX
  5
190
330
18D
100
AcDbEntity
  8
_U+30EC_U+30A4_U+30E4_U+30FC 1
 62
     7
370
     5
100
AcDbVertex
100
AcDb2dVertex
 10
121.2938911654311
 20
156.8122931028048
 30
0.0
  0
VERTEX
  5
191
330
18D
100
AcDbEntity
  8
_U+30EC_U+30A4_U+30E4_U+30FC 1
 62
     7
370
     5
100
AcDbVertex
100
AcDb2dVertex
 10
120.7113171477892
 20
158.1056116809206
 30
0.0
  0
VERTEX
  5
192
330
18D
100
AcDbEntity
  8
_U+30EC_U+30A4_U+30E4_U+30FC 1
 62
     7
370
     5
100
AcDbVertex
100
AcDb2dVertex
 10
119.5131042664183
 20
158.7043461100901
 30
0.0
  0
VERTEX
  5
193
330
18D
100
AcDbEntity
  8
_U+30EC_U+30A4_U+30E4_U+30FC 1
 62
     7
370
     5
100
AcDbVertex
100
AcDb2dVertex
 10
118.9174742816141
 20
157.964359462302
 30
0.0
  0
VERTEX
  5
194
330
18D
100
AcDbEntity
  8
_U+30EC_U+30A4_U+30E4_U+30FC 1
 62
     7
370
     5
100
AcDbVertex
100
AcDb2dVertex
 10
119.0483548338306
 20
157.6777312249255
 30
0.0
  0
SEQEND
  5
195
330
18D
100
AcDbEntity
  8
_U+30EC_U+30A4_U+30E4_U+30FC 1
 62
     7
370
     5
  0
POLYLINE
  5
196
330
16C
100
AcDbEntity
  8
_U+30EC_U+30A4_U+30E4_U+30FC 1
 62
     7
370
     5
100
AcDb2dPolyline
 66
     1
 10
0.0
 20
0.0
 30
0.0
  0
VERTEX
  5
197
330
196
100
AcDbEntity
  8
_U+30EC_U+30A4_U+30E4_U+30FC 1
 62
     7
370
     5
100
AcDbVertex
100
AcDb2dVertex
 10
121.319044220345
 20
156.2466139505698
 30
0.0
  0
VERTEX
  5
198
330
196
100
AcDbEntity
  8
_U+30EC_U+30A4_U+30E4_U+30FC 1
 62
     7
370
     5
100
AcDbVertex
100
AcDb2dVertex
 10
121.9019421474915
 20
157.0307367806428
 30
0.0
  0
VERTEX
  5
199
330
196
100
AcDbEntity
  8
_U+30EC_U+30A4_U+30E4_U+30FC 1
 62
     7
370
     5
100
AcDbVertex
100
AcDb2dVertex
 10
121.319044220345
 20
158.3243728914304
 30
0.0
  0
VERTEX
  5
19A
330
196
100
AcDbEntity
  8
_U+30EC_U+30A4_U+30E4_U+30FC 1
 62
     7
370
     5
100
AcDbVertex
100
AcDb2dVertex
 10
120.1204817509228
 20
158.9227861045172
 30
0.0
  0
SEQEND
  5
19B
330
196
100
AcDbEntity
  8
_U+30EC_U+30A4_U+30E4_U+30FC 1
 62
     7
370
     5
  0
POLYLINE
  5
19C
330
16C
100
AcDbEntity
  8
_U+30EC_U+30A4_U+30E4_U+30FC 1
 62
     7
370
     5
100
AcDb2dPolyline
 66
     1
 10
0.0
 20
0.0
 30
0.0
  0
VERTEX
  5
19D
330
19C
100
AcDbEntity
  8
_U+30EC_U+30A4_U+30E4_U+30FC 1
 62
     7
370
     5
100
AcDbVertex
100
AcDb2dVertex
 10
119.5131042664183
 20
158.7043461100901
 30
0.0
  0
VERTEX
  5
19E
330
19C
100
AcDbEntity
  8
_U+30EC_U+30A4_U+30E4_U+30FC 1
 62
     7
370
     5
100
AcDbVertex
100
AcDb2dVertex
 10
120.1204817509228
 20
158.9227861045172
 30
0.0
  0
SEQEND
  5
19F
330
19C
100
AcDbEntity
  8
_U+30EC_U+30A4_U+30E4_U+30FC 1
 62
     7
370
     5
  0
POLYLINE
  5
1A0
330
16C
100
AcDbEntity
  8
_U+30EC_U+30A4_U+30E4_U+30FC 1
 62
     7
370
     5
100
AcDb2dPolyline
 66
     1
 10
0.0
 20
0.0
 30
0.0
  0
VERTEX
  5
1A1
330
1A0
100
AcDbEntity
  8
_U+30EC_U+30A4_U+30E4_U+30FC 1
 62
     7
370
     5
100
AcDbVertex
100
AcDb2dVertex
 10
120.7113171477892
 20
158.1056116809206
 30
0.0
  0
VERTEX
  5
1A2
330
1A0
100
AcDbEntity
  8
_U+30EC_U+30A4_U+30E4_U+30FC 1
 62
     7
370
     5
100
AcDbVertex
100
AcDb2dVertex
 10
121.319044220345
 20
158.3243728914304
 30
0.0
  0
SEQEND
  5
1A3
330
1A0
100
AcDbEntity
  8
_U+30EC_U+30A4_U+30E4_U+30FC 1
 62
     7
370
     5
  0
POLYLINE
  5
1A4
330
16C
100
AcDbEntity
  8
_U+30EC_U+30A4_U+30E4_U+30FC 1
 62
     7
370
     5
100
AcDb2dPolyline
 66
     1
 10
0.0
 20
0.0
 30
0.0
  0
VERTEX
  5
1A5
330
1A4
100
AcDbEntity
  8
_U+30EC_U+30A4_U+30E4_U+30FC 1
 62
     7
370
     5
100
AcDbVertex
100
AcDb2dVertex
 10
121.2938911654311
 20
156.8122931028048
 30
0.0
  0
VERTEX
  5
1A6
330
1A4
100
AcDbEntity
  8
_U+30EC_U+30A4_U+30E4_U+30FC 1
 62
     7
370
     5
100
AcDbVertex
100
AcDb2dVertex
 10
121.9019421474915
 20
157.0307367806428
 30
0.0
  0
SEQEND
  5
1A7
330
1A4
100
AcDbEntity
  8
_U+30EC_U+30A4_U+30E4_U+30FC 1
 62
     7
370
     5
  0
POLYLINE
  5
1A8
330
16C
100
AcDbEntity
  8
_U+30EC_U+30A4_U+30E4_U+30FC 1
 62
     7
370
     5
100
AcDb2dPolyline
 66
     1
 10
0.0
 20
0.0
 30
0.0
  0
VERTEX
  5
1A9
330
1A8
100
AcDbEntity
  8
_U+30EC_U+30A4_U+30E4_U+30FC 1
 62
     7
370
     5
100
AcDbVertex
100
AcDb2dVertex
 10
120.7113171477892
 20
156.0282092339196
 30
0.0
  0
VERTEX
  5
1AA
330
1A8
100
AcDbEntity
  8
_U+30EC_U+30A4_U+30E4_U+30FC 1
 62
     7
370
     5
100
AcDbVertex
100
AcDb2dVertex
 10
121.319044220345
 20
156.2466139505698
 30
0.0
  0
SEQEND
  5
1AB
330
1A8
100
AcDbEntity
  8
_U+30EC_U+30A4_U+30E4_U+30FC 1
 62
     7
370
     5
  0
SPLINE
  5
1AC
330
16C
100
AcDbEntity
  8
_U+30EC_U+30A4_U+30E4_U+30FC 1
 62
     7
370
     5
100
AcDbSpline
210
0.0
220
0.0
230
1.0
 70
     8
 71
     3
 72
    14
 73
    10
 74
     0
 42
0.0000000001
 43
0.0000000001
 12
1.0
 22
0.0
 32
0.0
 13
1.0
 23
0.0
 33
0.0
 40
0.0
 40
0.0
 40
0.0
 40
0.0
 40
1.0
 40
1.0
 40
1.0
 40
2.0
 40
2.0
 40
2.0
 40
3.0
 40
3.0
 40
3.0
 40
3.0
 10
119.5272506549463
 20
157.1388947611392
 30
0.0
 10
119.3119151048844
 20
157.4779141969345
 30
0.0
 10
119.2381845512099
 20
157.7838430780185
 30
0.0
 10
119.3649728813086
 20
157.852387798492
 30
0.0
 10
119.3649728813086
 20
157.852387798492
 30
0.0
 10
119.2233678849212
 20
157.7762583559898
 30
0.0
 10
119.2233678849212
 20
157.7762583559898
 30
0.0
 10
119.0959092770619
 20
157.7073645582513
 30
0.0
 10
119.170345386274
 20
157.4014319766635
 30
0.0
 10
119.385645658559
 20
157.0624125408682
 30
0.0
  0
SPLINE
  5
1AD
330
16C
100
AcDbEntity
  8
_U+30EC_U+30A4_U+30E4_U+30FC 1
 62
     7
370
     5
100
AcDbSpline
210
0.0
220
0.0
230
1.0
 70
     8
 71
     3
 72
    14
 73
    10
 74
     0
 42
0.0000000001
 43
0.0000000001
 12
1.0
 22
0.0
 32
0.0
 13
1.0
 23
0.0
 33
0.0
 40
0.0
 40
0.0
 40
0.0
 40
0.0
 40
1.0
 40
1.0
 40
1.0
 40
2.0
 40
2.0
 40
2.0
 40
3.0
 40
3.0
 40
3.0
 40
3.0
 10
119.6984537061341
 20
156.9011931005368
 30
0.0
 10
119.9558050884574
 20
156.5842575530669
 30
0.0
 10
120.2410643701288
 20
156.3919936690831
 30
0.0
 10
120.3685198001504
 20
156.4602208895647
 30
0.0
 10
120.3685198001504
 20
156.4602208895647
 30
0.0
 10
120.2266004812437
 20
156.3837423363602
 30
0.0
 10
120.2266004812437
 20
156.3837423363602
 30
0.0
 10
120.0994561959037
 20
156.3155114488121
 30
0.0
 10
119.8142032591243
 20
156.5077753327959
 30
0.0
 10
119.5568839875236
 20
156.8247145584722
 30
0.0
  0
POLYLINE
  5
1AE
330
16C
100
AcDbEntity
  8
_U+30EC_U+30A4_U+30E4_U+30FC 1
 62
     7
370
     5
100
AcDb2dPolyline
 66
     1
 10
0.0
 20
0.0
 30
0.0
  0
VERTEX
  5
1AF
330
1AE
100
AcDbEntity
  8
_U+30EC_U+30A4_U+30E4_U+30FC 1
 62
     7
370
     5
100
AcDbVertex
100
AcDb2dVertex
 10
119.3439504814643
 20
156.7268856049837
 30
0.0
  0
VERTEX
  5
1B0
330
1AE
100
AcDbEntity
  8
_U+30EC_U+30A4_U+30E4_U+30FC 1
 62
     7
370
     5
100
AcDbVertex
100
AcDb2dVertex
 10
119.5568839875236
 20
156.8247145584722
 30
0.0
  0
SEQEND
  5
1B1
330
1AE
100
AcDbEntity
  8
_U+30EC_U+30A4_U+30E4_U+30FC 1
 62
     7
370
     5
  0
POLYLINE
  5
1B2
330
16C
100
AcDbEntity
  8
_U+30EC_U+30A4_U+30E4_U+30FC 1
 62
     7
370
     5
100
AcDb2dPolyline
 66
     1
 10
0.0
 20
0.0
 30
0.0
  0
VERTEX
  5
1B3
330
1B2
100
AcDbEntity
  8
_U+30EC_U+30A4_U+30E4_U+30FC 1
 62
     7
370
     5
100
AcDbVertex
100
AcDb2dVertex
 10
119.3859984363277
 20
157.0624125408682
 30
0.0
  0
VERTEX
  5
1B4
330
1B2
100
AcDbEntity
  8
_U+30EC_U+30A4_U+30E4_U+30FC 1
 62
     7
370
     5
100
AcDbVertex
100
AcDb2dVertex
 10
119.2037534409772
 20
156.9466661549322
 30
0.0
  0
SEQEND
  5
1B5
330
1B2
100
AcDbEntity
  8
_U+30EC_U+30A4_U+30E4_U+30FC 1
 62
     7
370
     5
  0
POLYLINE
  5
1B6
330
16C
100
AcDbEntity
  8
_U+30EC_U+30A4_U+30E4_U+30FC 1
 62
     7
370
     5
100
AcDb2dPolyline
 66
     1
 10
0.0
 20
0.0
 30
0.0
  0
VERTEX
  5
1B7
330
1B6
100
AcDbEntity
  8
_U+30EC_U+30A4_U+30E4_U+30FC 1
 62
     7
370
     5
100
AcDbVertex
100
AcDb2dVertex
 10
120.1015375847395
 20
157.1189312250652
 30
0.0
  0
VERTEX
  5
1B8
330
1B6
100
AcDbEntity
  8
_U+30EC_U+30A4_U+30E4_U+30FC 1
 62
     7
370
     5
100
AcDbVertex
100
AcDb2dVertex
 10
119.6981009283653
 20
156.9015458783056
 30
0.0
  0
SEQEND
  5
1B9
330
1B6
100
AcDbEntity
  8
_U+30EC_U+30A4_U+30E4_U+30FC 1
 62
     7
370
     5
  0
POLYLINE
  5
1BA
330
16C
100
AcDbEntity
  8
_U+30EC_U+30A4_U+30E4_U+30FC 1
 62
     7
370
     5
100
AcDb2dPolyline
 66
     1
 10
0.0
 20
0.0
 30
0.0
  0
VERTEX
  5
1BB
330
1BA
100
AcDbEntity
  8
_U+30EC_U+30A4_U+30E4_U+30FC 1
 62
     7
370
     5
100
AcDbVertex
100
AcDb2dVertex
 10
119.5272506549463
 20
157.1388947611392
 30
0.0
  0
VERTEX
  5
1BC
330
1BA
100
AcDbEntity
  8
_U+30EC_U+30A4_U+30E4_U+30FC 1
 62
     7
370
     5
100
AcDbVertex
100
AcDb2dVertex
 10
119.9306520335436
 20
157.3566292000288
 30
0.0
  0
SEQEND
  5
1BD
330
1BA
100
AcDbEntity
  8
_U+30EC_U+30A4_U+30E4_U+30FC 1
 62
     7
370
     5
  0
SPLINE
  5
1BE
330
16C
100
AcDbEntity
  8
_U+30EC_U+30A4_U+30E4_U+30FC 1
 62
     7
370
     5
100
AcDbSpline
210
0.0
220
0.0
230
1.0
 70
     8
 71
     3
 72
    11
 73
     7
 74
     0
 42
0.0000000001
 43
0.0000000001
 12
1.0
 22
0.0
 32
0.0
 13
1.0
 23
0.0
 33
0.0
 40
0.0
 40
0.0
 40
0.0
 40
0.0
 40
1.0
 40
1.0
 40
1.0
 40
2.0
 40
2.0
 40
2.0
 40
2.0
 10
119.9306520335436
 20
157.3566292000288
 30
0.0
 10
119.9657886993138
 20
157.3752558662202
 30
0.0
 10
120.0322873087284
 20
157.3394173361212
 30
0.0
 10
120.0787865923915
 20
157.2753139243255
 30
0.0
 10
120.1249620285863
 20
157.2112494815155
 30
0.0
 10
120.1332170283757
 20
157.1437278165714
 30
0.0
 10
120.0977628626135
 20
157.1244308726193
 30
0.0
  0
ENDBLK
  5
16F
330
16C
100
AcDbEntity
  8
0
100
AcDbBlockEnd
  0
BLOCK
  5
1C1
330
1BF
100
AcDbEntity
  8
0
100
AcDbBlockBegin
  2
block 9
 70
     0
 10
0.0
 20
0.0
 30
0.0
  3
block 9
  1

  0
SPLINE
  5
1C3
330
1BF
100
AcDbEntity
  8
_U+30EC_U+30A4_U+30E4_U+30FC 1
370
     0
100
AcDbSpline
210
0.0
220
0.0
230
1.0
 70
    11
 71
     3
 72
    23
 73
    19
 74
     0
 42
0.0000000001
 43
0.0000000001
 12
1.0
 22
0.0
 32
0.0
 13
1.0
 23
0.0
 33
0.0
 40
0.0
 40
0.0
 40
0.0
 40
0.0
 40
1.0
 40
1.0
 40
1.0
 40
2.0
 40
2.0
 40
2.0
 40
3.0
 40
3.0
 40
3.0
 40
4.0
 40
4.0
 40
4.0
 40
5.0
 40
5.0
 40
5.0
 40
6.0
 40
6.0
 40
6.0
 40
6.0
 10
166.7894747846915
 20
59.75311479682144
 30
0.0
 10
167.0406222455663
 20
59.79376692354738
 30
0.0
 10
167.3324218331669
 20
59.82511729246315
 30
0.0
 10
167.6514376751011
 20
59.82511729246315
 30
0.0
 10
169.0249972450702
 20
59.82511729246315
 30
0.0
 10
169.4201496972283
 20
59.01241926749272
 30
0.0
 10
169.4201496972283
 20
58.17319400728586
 30
0.0
 10
169.4201496972283
 20
57.62990244926196
 30
0.0
 10
169.2764892154934
 20
57.1672261255929
 30
0.0
 10
168.9533392589769
 20
56.830640296684
 30
0.0
 10
168.6525824231146
 20
56.52092621256003
 30
0.0
 10
168.154077106399
 20
56.35039398604017
 30
0.0
 10
167.5301703140202
 20
56.35039398604017
 30
0.0
 10
167.2473279746812
 20
56.35039398604017
 30
0.0
 10
167.0047932525196
 20
56.35935123430182
 30
0.0
 10
166.7894747846915
 20
56.38622297908677
 30
0.0
 10
166.7894747846915
 20
56.38622297908677
 30
0.0
 10
166.7894747846915
 20
59.75311479682144
 30
0.0
 10
166.7894747846915
 20
59.75311479682144
 30
0.0
  0
SPLINE
  5
1C4
330
1BF
100
AcDbEntity
  8
_U+30EC_U+30A4_U+30E4_U+30FC 1
370
     0
100
AcDbSpline
210
0.0
220
0.0
230
1.0
 70
    11
 71
     3
 72
    20
 73
    16
 74
     0
 42
0.0000000001
 43
0.0000000001
 12
1.0
 22
0.0
 32
0.0
 13
1.0
 23
0.0
 33
0.0
 40
0.0
 40
0.0
 40
0.0
 40
0.0
 40
1.0
 40
1.0
 40
1.0
 40
2.0
 40
2.0
 40
2.0
 40
3.0
 40
3.0
 40
3.0
 40
4.0
 40
4.0
 40
4.0
 40
5.0
 40
5.0
 40
5.0
 40
5.0
 10
167.161889606647
 20
56.67354394255661
 30
0.0
 10
167.2741997194662
 20
56.6556294460333
 30
0.0
 10
167.4357746977244
 20
56.65115082190248
 30
0.0
 10
167.5973496759826
 20
56.65115082190248
 30
0.0
 10
168.5223578137722
 20
56.65115082190248
 30
0.0
 10
169.029475869201
 20
57.17652788340308
 30
0.0
 10
169.029475869201
 20
58.15493500121404
 30
0.0
 10
169.029475869201
 20
59.04411414595702
 30
0.0
 10
168.553708182688
 20
59.52436045660085
 30
0.0
 10
167.6648735474935
 20
59.52436045660085
 30
0.0
 10
167.4492105701169
 20
59.52436045660085
 30
0.0
 10
167.278678343597
 20
59.50196733594672
 30
0.0
 10
167.161889606647
 20
59.47957421529259
 30
0.0
 10
167.161889606647
 20
59.47957421529259
 30
0.0
 10
167.161889606647
 20
56.67354394255661
 30
0.0
 10
167.161889606647
 20
56.67354394255661
 30
0.0
  0
HATCH
  5
1C5
330
1BF
100
AcDbEntity
  8
_U+30EC_U+30A4_U+30E4_U+30FC 1
 62
     7
100
AcDbHatch
 10
0.0
 20
0.0
 30
0.0
210
0.0
220
0.0
230
1.0
  2
SOLID
 70
     1
 71
     0
 91
        2
 92
        1
 93
        1
 72
     4
 94
        3
 73
     0
 74
     1
 95
       23
 96
       19
 40
0.0
 40
0.0
 40
0.0
 40
0.0
 40
1.0
 40
1.0
 40
1.0
 40
2.0
 40
2.0
 40
2.0
 40
3.0
 40
3.0
 40
3.0
 40
4.0
 40
4.0
 40
4.0
 40
5.0
 40
5.0
 40
5.0
 40
6.0
 40
6.0
 40
6.0
 40
6.0
 10
166.7894747846915
 20
59.75311479682144
 10
167.0406222455663
 20
59.79376692354738
 10
167.3324218331669
 20
59.82511729246315
 10
167.6514376751011
 20
59.82511729246315
 10
169.0249972450702
 20
59.82511729246315
 10
169.4201496972283
 20
59.01241926749272
 10
169.4201496972283
 20
58.17319400728586
 10
169.4201496972283
 20
57.62990244926196
 10
169.2764892154934
 20
57.1672261255929
 10
168.9533392589769
 20
56.830640296684
 10
168.6525824231146
 20
56.52092621256003
 10
168.154077106399
 20
56.35039398604017
 10
167.5301703140202
 20
56.35039398604017
 10
167.2473279746812
 20
56.35039398604017
 10
167.0047932525196
 20
56.35935123430182
 10
166.7894747846915
 20
56.38622297908677
 10
166.7894747846915
 20
56.38622297908677
 10
166.7894747846915
 20
59.75311479682144
 10
166.7894747846915
 20
59.75311479682144
 97
        0
 92
        1
 93
        1
 72
     4
 94
        3
 73
     0
 74
     1
 95
       20
 96
       16
 40
0.0
 40
0.0
 40
0.0
 40
0.0
 40
1.0
 40
1.0
 40
1.0
 40
2.0
 40
2.0
 40
2.0
 40
3.0
 40
3.0
 40
3.0
 40
4.0
 40
4.0
 40
4.0
 40
5.0
 40
5.0
 40
5.0
 40
5.0
 10
167.161889606647
 20
56.67354394255661
 10
167.2741997194662
 20
56.6556294460333
 10
167.4357746977244
 20
56.65115082190248
 10
167.5973496759826
 20
56.65115082190248
 10
168.5223578137722
 20
56.65115082190248
 10
169.029475869201
 20
57.17652788340308
 10
169.029475869201
 20
58.15493500121404
 10
169.029475869201
 20
59.04411414595702
 10
168.553708182688
 20
59.52436045660085
 10
167.6648735474935
 20
59.52436045660085
 10
167.4492105701169
 20
59.52436045660085
 10
167.278678343597
 20
59.50196733594672
 10
167.161889606647
 20
59.47957421529259
 10
167.161889606647
 20
59.47957421529259
 10
167.161889606647
 20
56.67354394255661
 10
167.161889606647
 20
56.67354394255661
 97
        0
 75
     2
 76
     1
 98
        0
  0
SPLINE
  5
1C6
330
1BF
100
AcDbEntity
  8
_U+30EC_U+30A4_U+30E4_U+30FC 1
370
     0
100
AcDbSpline
210
0.0
220
0.0
230
1.0
 70
    11
 71
     3
 72
    47
 73
    43
 74
     0
 42
0.0000000001
 43
0.0000000001
 12
1.0
 22
0.0
 32
0.0
 13
1.0
 23
0.0
 33
0.0
 40
0.0
 40
0.0
 40
0.0
 40
0.0
 40
1.0
 40
1.0
 40
1.0
 40
2.0
 40
2.0
 40
2.0
 40
3.0
 40
3.0
 40
3.0
 40
4.0
 40
4.0
 40
4.0
 40
5.0
 40
5.0
 40
5.0
 40
6.0
 40
6.0
 40
6.0
 40
7.0
 40
7.0
 40
7.0
 40
8.0
 40
8.0
 40
8.0
 40
9.0
 40
9.0
 40
9.0
 40
10.0
 40
10.0
 40
10.0
 40
11.0
 40
11.0
 40
11.0
 40
12.0
 40
12.0
 40
12.0
 40
13.0
 40
13.0
 40
13.0
 40
14.0
 40
14.0
 40
14.0
 40
14.0
 10
171.5106336376779
 20
59.3762213507351
 30
0.0
 10
171.4121039067998
 20
59.43892208856665
 30
0.0
 10
171.1964409294231
 20
59.53331770486249
 30
0.0
 10
170.9091199659533
 20
59.53331770486249
 30
0.0
 10
170.4333522794403
 20
59.53331770486249
 30
0.0
 10
170.2538628046588
 20
59.24151811726183
 30
0.0
 10
170.2538628046588
 20
58.99450477096942
 30
0.0
 10
170.2538628046588
 20
58.65791894206051
 30
0.0
 10
170.4602240242252
 20
58.48738671554064
 30
0.0
 10
170.9180772142149
 20
58.29411685881813
 30
0.0
 10
171.4703260205005
 20
58.06088389446671
 30
0.0
 10
171.7531683598395
 20
57.7780415551277
 30
0.0
 10
171.7531683598395
 20
57.2884934866737
 30
0.0
 10
171.7531683598395
 20
56.74554643819832
 30
0.0
 10
171.3580159076813
 20
56.32800086538604
 30
0.0
 10
170.6217990024834
 20
56.32800086538604
 30
0.0
 10
170.3120849183595
 20
56.32800086538604
 30
0.0
 10
169.9754990894506
 20
56.42205197213337
 30
0.0
 10
169.8046223533822
 20
56.54331933321416
 30
0.0
 10
169.8046223533822
 20
56.54331933321416
 30
0.0
 10
169.9079752179397
 20
56.85303341733812
 30
0.0
 10
169.9079752179397
 20
56.85303341733812
 30
0.0
 10
170.091943316852
 20
56.73176605625733
 30
0.0
 10
170.3658284079294
 20
56.64219357364083
 30
0.0
 10
170.6441921231376
 20
56.64219357364083
 30
0.0
 10
171.1020453131273
 20
56.64219357364083
 30
0.0
 10
171.3714517800738
 20
56.88920691993324
 30
0.0
 10
171.3714517800738
 20
57.25714311775793
 30
0.0
 10
171.3714517800738
 20
57.59372894666684
 30
0.0
 10
171.1874836811615
 20
57.80043467578182
 30
0.0
 10
170.7430663635643
 20
57.97992415056334
 30
0.0
 10
170.2266465503253
 20
58.17319400728586
 30
0.0
 10
169.8766248490239
 20
58.47395084314817
 30
0.0
 10
169.8766248490239
 20
58.94523990553034
 30
0.0
 10
169.8766248490239
 20
59.4657938333516
 30
0.0
 10
170.298649045967
 20
59.84751041311728
 30
0.0
 10
170.9225558383457
 20
59.84751041311728
 30
0.0
 10
171.2457057948622
 20
59.84751041311728
 30
0.0
 10
171.4927191411546
 20
59.76689517876243
 30
0.0
 10
171.6229437504971
 20
59.68593543485906
 30
0.0
 10
171.6229437504971
 20
59.68593543485906
 30
0.0
 10
171.5106336376779
 20
59.3762213507351
 30
0.0
 10
171.5106336376779
 20
59.3762213507351
 30
0.0
  0
HATCH
  5
1C7
330
1BF
100
AcDbEntity
  8
_U+30EC_U+30A4_U+30E4_U+30FC 1
 62
     7
100
AcDbHatch
 10
0.0
 20
0.0
 30
0.0
210
0.0
220
0.0
230
1.0
  2
SOLID
 70
     1
 71
     0
 91
        1
 92
        1
 93
        1
 72
     4
 94
        3
 73
     0
 74
     1
 95
       47
 96
       43
 40
0.0
 40
0.0
 40
0.0
 40
0.0
 40
1.0
 40
1.0
 40
1.0
 40
2.0
 40
2.0
 40
2.0
 40
3.0
 40
3.0
 40
3.0
 40
4.0
 40
4.0
 40
4.0
 40
5.0
 40
5.0
 40
5.0
 40
6.0
 40
6.0
 40
6.0
 40
7.0
 40
7.0
 40
7.0
 40
8.0
 40
8.0
 40
8.0
 40
9.0
 40
9.0
 40
9.0
 40
10.0
 40
10.0
 40
10.0
 40
11.0
 40
11.0
 40
11.0
 40
12.0
 40
12.0
 40
12.0
 40
13.0
 40
13.0
 40
13.0
 40
14.0
 40
14.0
 40
14.0
 40
14.0
 10
171.5106336376779
 20
59.3762213507351
 10
171.4121039067998
 20
59.43892208856665
 10
171.1964409294231
 20
59.53331770486249
 10
170.9091199659533
 20
59.53331770486249
 10
170.4333522794403
 20
59.53331770486249
 10
170.2538628046588
 20
59.24151811726183
 10
170.2538628046588
 20
58.99450477096942
 10
170.2538628046588
 20
58.65791894206051
 10
170.4602240242252
 20
58.48738671554064
 10
170.9180772142149
 20
58.29411685881813
 10
171.4703260205005
 20
58.06088389446671
 10
171.7531683598395
 20
57.7780415551277
 10
171.7531683598395
 20
57.2884934866737
 10
171.7531683598395
 20
56.74554643819832
 10
171.3580159076813
 20
56.32800086538604
 10
170.6217990024834
 20
56.32800086538604
 10
170.3120849183595
 20
56.32800086538604
 10
169.9754990894506
 20
56.42205197213337
 10
169.8046223533822
 20
56.54331933321416
 10
169.8046223533822
 20
56.54331933321416
 10
169.9079752179397
 20
56.85303341733812
 10
169.9079752179397
 20
56.85303341733812
 10
170.091943316852
 20
56.73176605625733
 10
170.3658284079294
 20
56.64219357364083
 10
170.6441921231376
 20
56.64219357364083
 10
171.1020453131273
 20
56.64219357364083
 10
171.3714517800738
 20
56.88920691993324
 10
171.3714517800738
 20
57.25714311775793
 10
171.3714517800738
 20
57.59372894666684
 10
171.1874836811615
 20
57.80043467578182
 10
170.7430663635643
 20
57.97992415056334
 10
170.2266465503253
 20
58.17319400728586
 10
169.8766248490239
 20
58.47395084314817
 10
169.8766248490239
 20
58.94523990553034
 10
169.8766248490239
 20
59.4657938333516
 10
170.298649045967
 20
59.84751041311728
 10
170.9225558383457
 20
59.84751041311728
 10
171.2457057948622
 20
59.84751041311728
 10
171.4927191411546
 20
59.76689517876243
 10
171.6229437504971
 20
59.68593543485906
 10
171.6229437504971
 20
59.68593543485906
 10
171.5106336376779
 20
59.3762213507351
 10
171.5106336376779
 20
59.3762213507351
 97
        0
 75
     2
 76
     1
 98
        0
  0
POLYLINE
  5
1C8
330
1BF
100
AcDbEntity
  8
_U+30EC_U+30A4_U+30E4_U+30FC 1
370
     0
100
AcDb2dPolyline
 66
     1
 10
0.0
 20
0.0
 30
0.0
  0
VERTEX
  5
1C9
330
1C8
100
AcDbEntity
  8
_U+30EC_U+30A4_U+30E4_U+30FC 1
370
     0
100
AcDbVertex
100
AcDb2dVertex
 10
174.7283528209013
 20
56.37726573082512
 30
0.0
  0
VERTEX
  5
1CA
330
1C8
100
AcDbEntity
  8
_U+30EC_U+30A4_U+30E4_U+30FC 1
370
     0
100
AcDbVertex
100
AcDb2dVertex
 10
174.3559379989457
 20
56.37726573082512
 30
0.0
  0
VERTEX
  5
1CB
330
1C8
100
AcDbEntity
  8
_U+30EC_U+30A4_U+30E4_U+30FC 1
370
     0
100
AcDbVertex
100
AcDb2dVertex
 10
174.3559379989457
 20
58.01127451947912
 30
0.0
  0
VERTEX
  5
1CC
330
1C8
100
AcDbEntity
  8
_U+30EC_U+30A4_U+30E4_U+30FC 1
370
     0
100
AcDbVertex
100
AcDb2dVertex
 10
172.7215847007432
 20
58.01127451947912
 30
0.0
  0
VERTEX
  5
1CD
330
1C8
100
AcDbEntity
  8
_U+30EC_U+30A4_U+30E4_U+30FC 1
370
     0
100
AcDbVertex
100
AcDb2dVertex
 10
172.7215847007432
 20
56.37726573082512
 30
0.0
  0
VERTEX
  5
1CE
330
1C8
100
AcDbEntity
  8
_U+30EC_U+30A4_U+30E4_U+30FC 1
370
     0
100
AcDbVertex
100
AcDb2dVertex
 10
172.3491698787877
 20
56.37726573082512
 30
0.0
  0
VERTEX
  5
1CF
330
1C8
100
AcDbEntity
  8
_U+30EC_U+30A4_U+30E4_U+30FC 1
370
     0
100
AcDbVertex
100
AcDb2dVertex
 10
172.3491698787877
 20
59.79376692354738
 30
0.0
  0
VERTEX
  5
1D0
330
1C8
100
AcDbEntity
  8
_U+30EC_U+30A4_U+30E4_U+30FC 1
370
     0
100
AcDbVertex
100
AcDb2dVertex
 10
172.7215847007432
 20
59.79376692354738
 30
0.0
  0
VERTEX
  5
1D1
330
1C8
100
AcDbEntity
  8
_U+30EC_U+30A4_U+30E4_U+30FC 1
370
     0
100
AcDbVertex
100
AcDb2dVertex
 10
172.7215847007432
 20
58.33476898554407
 30
0.0
  0
VERTEX
  5
1D2
330
1C8
100
AcDbEntity
  8
_U+30EC_U+30A4_U+30E4_U+30FC 1
370
     0
100
AcDbVertex
100
AcDb2dVertex
 10
174.3559379989457
 20
58.33476898554407
 30
0.0
  0
VERTEX
  5
1D3
330
1C8
100
AcDbEntity
  8
_U+30EC_U+30A4_U+30E4_U+30FC 1
370
     0
100
AcDbVertex
100
AcDb2dVertex
 10
174.3559379989457
 20
59.79376692354738
 30
0.0
  0
VERTEX
  5
1D4
330
1C8
100
AcDbEntity
  8
_U+30EC_U+30A4_U+30E4_U+30FC 1
370
     0
100
AcDbVertex
100
AcDb2dVertex
 10
174.7283528209013
 20
59.79376692354738
 30
0.0
  0
VERTEX
  5
1D5
330
1C8
100
AcDbEntity
  8
_U+30EC_U+30A4_U+30E4_U+30FC 1
370
     0
100
AcDbVertex
100
AcDb2dVertex
 10
174.7283528209013
 20
56.37726573082512
 30
0.0
  0
SEQEND
  5
1D6
330
1C8
100
AcDbEntity
  8
_U+30EC_U+30A4_U+30E4_U+30FC 1
370
     0
  0
HATCH
  5
1D7
330
1BF
100
AcDbEntity
  8
_U+30EC_U+30A4_U+30E4_U+30FC 1
 62
     7
100
AcDbHatch
 10
0.0
 20
0.0
 30
0.0
210
0.0
220
0.0
230
1.0
  2
SOLID
 70
     1
 71
     0
 91
        1
 92
        1
 93
       12
 72
     1
 10
174.7283528209013
 20
56.37726573082512
 11
174.3559379989457
 21
56.37726573082512
 72
     1
 10
174.3559379989457
 20
56.37726573082512
 11
174.3559379989457
 21
58.01127451947912
 72
     1
 10
174.3559379989457
 20
58.01127451947912
 11
172.7215847007432
 21
58.01127451947912
 72
     1
 10
172.7215847007432
 20
58.01127451947912
 11
172.7215847007432
 21
56.37726573082512
 72
     1
 10
172.7215847007432
 20
56.37726573082512
 11
172.3491698787877
 21
56.37726573082512
 72
     1
 10
172.3491698787877
 20
56.37726573082512
 11
172.3491698787877
 21
59.79376692354738
 72
     1
 10
172.3491698787877
 20
59.79376692354738
 11
172.7215847007432
 21
59.79376692354738
 72
     1
 10
172.7215847007432
 20
59.79376692354738
 11
172.7215847007432
 21
58.33476898554407
 72
     1
 10
172.7215847007432
 20
58.33476898554407
 11
174.3559379989457
 21
58.33476898554407
 72
     1
 10
174.3559379989457
 20
58.33476898554407
 11
174.3559379989457
 21
59.79376692354738
 72
     1
 10
174.3559379989457
 20
59.79376692354738
 11
174.7283528209013
 21
59.79376692354738
 72
     1
 10
174.7283528209013
 20
59.79376692354738
 11
174.7283528209013
 21
56.37726573082512
 97
        0
 75
     2
 76
     1
 98
        0
  0
POLYLINE
  5
1D8
330
1BF
100
AcDbEntity
  8
_U+30EC_U+30A4_U+30E4_U+30FC 1
370
     0
100
AcDb2dPolyline
 66
     1
 10
0.0
 20
0.0
 30
0.0
  0
VERTEX
  5
1D9
330
1D8
100
AcDbEntity
  8
_U+30EC_U+30A4_U+30E4_U+30FC 1
370
     0
100
AcDbVertex
100
AcDb2dVertex
 10
175.2613090924694
 20
57.89035166794685
 30
0.0
  0
VERTEX
  5
1DA
330
1D8
100
AcDbEntity
  8
_U+30EC_U+30A4_U+30E4_U+30FC 1
370
     0
100
AcDbVertex
100
AcDb2dVertex
 10
176.4870740661213
 20
57.89035166794685
 30
0.0
  0
VERTEX
  5
1DB
330
1D8
100
AcDbEntity
  8
_U+30EC_U+30A4_U+30E4_U+30FC 1
370
     0
100
AcDbVertex
100
AcDb2dVertex
 10
176.4870740661213
 20
57.60303070447701
 30
0.0
  0
VERTEX
  5
1DC
330
1D8
100
AcDbEntity
  8
_U+30EC_U+30A4_U+30E4_U+30FC 1
370
     0
100
AcDbVertex
100
AcDb2dVertex
 10
175.2613090924694
 20
57.60303070447701
 30
0.0
  0
VERTEX
  5
1DD
330
1D8
100
AcDbEntity
  8
_U+30EC_U+30A4_U+30E4_U+30FC 1
370
     0
100
AcDbVertex
100
AcDb2dVertex
 10
175.2613090924694
 20
57.89035166794685
 30
0.0
  0
SEQEND
  5
1DE
330
1D8
100
AcDbEntity
  8
_U+30EC_U+30A4_U+30E4_U+30FC 1
370
     0
  0
HATCH
  5
1DF
330
1BF
100
AcDbEntity
  8
_U+30EC_U+30A4_U+30E4_U+30FC 1
 62
     7
100
AcDbHatch
 10
0.0
 20
0.0
 30
0.0
210
0.0
220
0.0
230
1.0
  2
SOLID
 70
     1
 71
     0
 91
        1
 92
        1
 93
        4
 72
     1
 10
175.2613090924694
 20
57.89035166794685
 11
176.4870740661213
 21
57.89035166794685
 72
     1
 10
176.4870740661213
 20
57.89035166794685
 11
176.4870740661213
 21
57.60303070447701
 72
     1
 10
176.4870740661213
 20
57.60303070447701
 11
175.2613090924694
 21
57.60303070447701
 72
     1
 10
175.2613090924694
 20
57.60303070447701
 11
175.2613090924694
 21
57.89035166794685
 97
        0
 75
     2
 76
     1
 98
        0
  0
SPLINE
  5
1E0
330
1BF
100
AcDbEntity
  8
_U+30EC_U+30A4_U+30E4_U+30FC 1
370
     0
100
AcDbSpline
210
0.0
220
0.0
230
1.0
 70
    11
 71
     3
 72
    17
 73
    13
 74
     0
 42
0.0000000001
 43
0.0000000001
 12
1.0
 22
0.0
 32
0.0
 13
1.0
 23
0.0
 33
0.0
 40
0.0
 40
0.0
 40
0.0
 40
0.0
 40
1.0
 40
1.0
 40
1.0
 40
2.0
 40
2.0
 40
2.0
 40
3.0
 40
3.0
 40
3.0
 40
4.0
 40
4.0
 40
4.0
 40
4.0
 10
176.8181477422538
 20
58.04744802207424
 30
0.0
 10
176.8181477422538
 20
59.22360362073853
 30
0.0
 10
177.2760009322435
 20
59.79376692354738
 30
0.0
 10
177.9047308583016
 20
59.79376692354738
 30
0.0
 10
178.5420735230728
 20
59.79376692354738
 30
0.0
 10
178.9327473511001
 20
59.19225325182276
 30
0.0
 10
178.9327473511001
 20
58.09223426338249
 30
0.0
 10
178.9327473511001
 20
56.92503591297984
 30
0.0
 10
178.5241590265495
 20
56.32352224125522
 30
0.0
 10
177.855121483314
 20
56.32352224125522
 30
0.0
 10
177.2446505633277
 20
56.32352224125522
 30
0.0
 10
176.8181477422538
 20
56.92503591297984
 30
0.0
 10
176.8181477422538
 20
58.04744802207424
 30
0.0
  0
SPLINE
  5
1E1
330
1BF
100
AcDbEntity
  8
_U+30EC_U+30A4_U+30E4_U+30FC 1
370
     0
100
AcDbSpline
210
0.0
220
0.0
230
1.0
 70
    11
 71
     3
 72
    17
 73
    13
 74
     0
 42
0.0000000001
 43
0.0000000001
 12
1.0
 22
0.0
 32
0.0
 13
1.0
 23
0.0
 33
0.0
 40
0.0
 40
0.0
 40
0.0
 40
0.0
 40
1.0
 40
1.0
 40
1.0
 40
2.0
 40
2.0
 40
2.0
 40
3.0
 40
3.0
 40
3.0
 40
4.0
 40
4.0
 40
4.0
 40
4.0
 10
178.5555093954653
 20
58.07431976685919
 30
0.0
 10
178.5555093954653
 20
58.91388953661458
 30
0.0
 10
178.3536268000296
 20
59.49301008768507
 30
0.0
 10
177.8823377376475
 20
59.49301008768507
 30
0.0
 10
177.4827066613585
 20
59.49301008768507
 30
0.0
 10
177.1998643220195
 20
58.95867577792282
 30
0.0
 10
177.1998643220195
 20
58.07431976685919
 30
0.0
 10
177.1998643220195
 20
57.18996375579555
 30
0.0
 10
177.4468776683119
 20
56.62875770124835
 30
0.0
 10
177.868901865255
 20
56.62875770124835
 30
0.0
 10
178.3670626724221
 20
56.62875770124835
 30
0.0
 10
178.5555093954653
 20
57.27505761428122
 30
0.0
 10
178.5555093954653
 20
58.07431976685919
 30
0.0
  0
HATCH
  5
1E2
330
1BF
100
AcDbEntity
  8
_U+30EC_U+30A4_U+30E4_U+30FC 1
 62
     7
100
AcDbHatch
 10
0.0
 20
0.0
 30
0.0
210
0.0
220
0.0
230
1.0
  2
SOLID
 70
     1
 71
     0
 91
        2
 92
        1
 93
        1
 72
     4
 94
        3
 73
     0
 74
     1
 95
       17
 96
       13
 40
0.0
 40
0.0
 40
0.0
 40
0.0
 40
1.0
 40
1.0
 40
1.0
 40
2.0
 40
2.0
 40
2.0
 40
3.0
 40
3.0
 40
3.0
 40
4.0
 40
4.0
 40
4.0
 40
4.0
 10
176.8181477422538
 20
58.04744802207424
 10
176.8181477422538
 20
59.22360362073853
 10
177.2760009322435
 20
59.79376692354738
 10
177.9047308583016
 20
59.79376692354738
 10
178.5420735230728
 20
59.79376692354738
 10
178.9327473511001
 20
59.19225325182276
 10
178.9327473511001
 20
58.09223426338249
 10
178.9327473511001
 20
56.92503591297984
 10
178.5241590265495
 20
56.32352224125522
 10
177.855121483314
 20
56.32352224125522
 10
177.2446505633277
 20
56.32352224125522
 10
176.8181477422538
 20
56.92503591297984
 10
176.8181477422538
 20
58.04744802207424
 97
        0
 92
        1
 93
        1
 72
     4
 94
        3
 73
     0
 74
     1
 95
       17
 96
       13
 40
0.0
 40
0.0
 40
0.0
 40
0.0
 40
1.0
 40
1.0
 40
1.0
 40
2.0
 40
2.0
 40
2.0
 40
3.0
 40
3.0
 40
3.0
 40
4.0
 40
4.0
 40
4.0
 40
4.0
 10
178.5555093954653
 20
58.07431976685919
 10
178.5555093954653
 20
58.91388953661458
 10
178.3536268000296
 20
59.49301008768507
 10
177.8823377376475
 20
59.49301008768507
 10
177.4827066613585
 20
59.49301008768507
 10
177.1998643220195
 20
58.95867577792282
 10
177.1998643220195
 20
58.07431976685919
 10
177.1998643220195
 20
57.18996375579555
 10
177.4468776683119
 20
56.62875770124835
 10
177.868901865255
 20
56.62875770124835
 10
178.3670626724221
 20
56.62875770124835
 10
178.5555093954653
 20
57.27505761428122
 10
178.5555093954653
 20
58.07431976685919
 97
        0
 75
     2
 76
     1
 98
        0
  0
SPLINE
  5
1E3
330
1BF
100
AcDbEntity
  8
_U+30EC_U+30A4_U+30E4_U+30FC 1
370
     0
100
AcDbSpline
210
0.0
220
0.0
230
1.0
 70
    11
 71
     3
 72
    32
 73
    28
 74
     0
 42
0.0000000001
 43
0.0000000001
 12
1.0
 22
0.0
 32
0.0
 13
1.0
 23
0.0
 33
0.0
 40
0.0
 40
0.0
 40
0.0
 40
0.0
 40
1.0
 40
1.0
 40
1.0
 40
2.0
 40
2.0
 40
2.0
 40
3.0
 40
3.0
 40
3.0
 40
4.0
 40
4.0
 40
4.0
 40
5.0
 40
5.0
 40
5.0
 40
6.0
 40
6.0
 40
6.0
 40
7.0
 40
7.0
 40
7.0
 40
8.0
 40
8.0
 40
8.0
 40
9.0
 40
9.0
 40
9.0
 40
9.0
 10
179.6768879759141
 20
58.15941362534486
 30
0.0
 10
179.8295057059107
 20
58.38403385098314
 30
0.0
 10
180.103390796988
 20
58.57248057402632
 30
0.0
 10
180.4623697465511
 20
58.57248057402632
 30
0.0
 10
181.0325330493599
 20
58.57248057402632
 30
0.0
 10
181.4142496291256
 20
58.14597775295238
 30
0.0
 10
181.4142496291256
 20
57.49967783991951
 30
0.0
 10
181.4142496291256
 20
56.88472829580242
 30
0.0
 10
181.0370116734908
 20
56.32352224125522
 30
0.0
 10
180.3817545121962
 20
56.32352224125522
 30
0.0
 10
179.7261528413532
 20
56.32352224125522
 30
0.0
 10
179.2862141478868
 20
56.8664692897306
 30
0.0
 10
179.2862141478868
 20
57.73738942840176
 30
0.0
 10
179.2862141478868
 20
58.64000444553721
 30
0.0
 10
179.7082383448299
 20
59.58258257030157
 30
0.0
 10
180.7993000850085
 20
59.76241655463161
 30
0.0
 10
180.9250460702201
 20
59.78033105115491
 30
0.0
 10
181.0370116734908
 20
59.79376692354738
 30
0.0
 10
181.1134927932633
 20
59.79376692354738
 30
0.0
 10
181.1134927932633
 20
59.79376692354738
 30
0.0
 10
181.1179714173941
 20
59.48405283942342
 30
0.0
 10
181.1179714173941
 20
59.48405283942342
 30
0.0
 10
180.1840060313429
 20
59.48405283942342
 30
0.0
 10
179.7395887137457
 20
58.80605804792625
 30
0.0
 10
179.6634521035216
 20
58.15941362534486
 30
0.0
 10
179.6634521035216
 20
58.15941362534486
 30
0.0
 10
179.6768879759141
 20
58.15941362534486
 30
0.0
 10
179.6768879759141
 20
58.15941362534486
 30
0.0
  0
SPLINE
  5
1E4
330
1BF
100
AcDbEntity
  8
_U+30EC_U+30A4_U+30E4_U+30FC 1
370
     0
100
AcDbSpline
210
0.0
220
0.0
230
1.0
 70
    11
 71
     3
 72
    17
 73
    13
 74
     0
 42
0.0000000001
 43
0.0000000001
 12
1.0
 22
0.0
 32
0.0
 13
1.0
 23
0.0
 33
0.0
 40
0.0
 40
0.0
 40
0.0
 40
0.0
 40
1.0
 40
1.0
 40
1.0
 40
2.0
 40
2.0
 40
2.0
 40
3.0
 40
3.0
 40
3.0
 40
4.0
 40
4.0
 40
4.0
 40
4.0
 10
181.0370116734908
 20
57.47280609513457
 30
0.0
 10
181.0370116734908
 20
57.98888139882499
 30
0.0
 10
180.7586479582826
 20
58.2896382346873
 30
0.0
 10
180.3548827674113
 20
58.2896382346873
 30
0.0
 10
179.9597303152531
 20
58.2896382346873
 30
0.0
 10
179.6589734793908
 20
57.90378754033932
 30
0.0
 10
179.6589734793908
 20
57.65229556991608
 30
0.0
 10
179.6634521035216
 20
57.03734602579899
 30
0.0
 10
179.9239013222065
 20
56.61532182885588
 30
0.0
 10
180.3907117604579
 20
56.61532182885588
 30
0.0
 10
180.7813855884852
 20
56.61532182885588
 30
0.0
 10
181.0370116734908
 20
56.96534353015726
 30
0.0
 10
181.0370116734908
 20
57.47280609513457
 30
0.0
  0
HATCH
  5
1E5
330
1BF
100
AcDbEntity
  8
_U+30EC_U+30A4_U+30E4_U+30FC 1
 62
     7
100
AcDbHatch
 10
0.0
 20
0.0
 30
0.0
210
0.0
220
0.0
230
1.0
  2
SOLID
 70
     1
 71
     0
 91
        2
 92
        1
 93
        1
 72
     4
 94
        3
 73
     0
 74
     1
 95
       32
 96
       28
 40
0.0
 40
0.0
 40
0.0
 40
0.0
 40
1.0
 40
1.0
 40
1.0
 40
2.0
 40
2.0
 40
2.0
 40
3.0
 40
3.0
 40
3.0
 40
4.0
 40
4.0
 40
4.0
 40
5.0
 40
5.0
 40
5.0
 40
6.0
 40
6.0
 40
6.0
 40
7.0
 40
7.0
 40
7.0
 40
8.0
 40
8.0
 40
8.0
 40
9.0
 40
9.0
 40
9.0
 40
9.0
 10
179.6768879759141
 20
58.15941362534486
 10
179.8295057059107
 20
58.38403385098314
 10
180.103390796988
 20
58.57248057402632
 10
180.4623697465511
 20
58.57248057402632
 10
181.0325330493599
 20
58.57248057402632
 10
181.4142496291256
 20
58.14597775295238
 10
181.4142496291256
 20
57.49967783991951
 10
181.4142496291256
 20
56.88472829580242
 10
181.0370116734908
 20
56.32352224125522
 10
180.3817545121962
 20
56.32352224125522
 10
179.7261528413532
 20
56.32352224125522
 10
179.2862141478868
 20
56.8664692897306
 10
179.2862141478868
 20
57.73738942840176
 10
179.2862141478868
 20
58.64000444553721
 10
179.7082383448299
 20
59.58258257030157
 10
180.7993000850085
 20
59.76241655463161
 10
180.9250460702201
 20
59.78033105115491
 10
181.0370116734908
 20
59.79376692354738
 10
181.1134927932633
 20
59.79376692354738
 10
181.1134927932633
 20
59.79376692354738
 10
181.1179714173941
 20
59.48405283942342
 10
181.1179714173941
 20
59.48405283942342
 10
180.1840060313429
 20
59.48405283942342
 10
179.7395887137457
 20
58.80605804792625
 10
179.6634521035216
 20
58.15941362534486
 10
179.6634521035216
 20
58.15941362534486
 10
179.6768879759141
 20
58.15941362534486
 10
179.6768879759141
 20
58.15941362534486
 97
        0
 92
        1
 93
        1
 72
     4
 94
        3
 73
     0
 74
     1
 95
       17
 96
       13
 40
0.0
 40
0.0
 40
0.0
 40
0.0
 40
1.0
 40
1.0
 40
1.0
 40
2.0
 40
2.0
 40
2.0
 40
3.0
 40
3.0
 40
3.0
 40
4.0
 40
4.0
 40
4.0
 40
4.0
 10
181.0370116734908
 20
57.47280609513457
 10
181.0370116734908
 20
57.98888139882499
 10
180.7586479582826
 20
58.2896382346873
 10
180.3548827674113
 20
58.2896382346873
 10
179.9597303152531
 20
58.2896382346873
 10
179.6589734793908
 20
57.90378754033932
 10
179.6589734793908
 20
57.65229556991608
 10
179.6634521035216
 20
57.03734602579899
 10
179.9239013222065
 20
56.61532182885588
 10
180.3907117604579
 20
56.61532182885588
 10
180.7813855884852
 20
56.61532182885588
 10
181.0370116734908
 20
56.96534353015726
 10
181.0370116734908
 20
57.47280609513457
 97
        0
 75
     2
 76
     1
 98
        0
  0
SPLINE
  5
1E6
330
1BF
100
AcDbEntity
  8
_U+30EC_U+30A4_U+30E4_U+30FC 1
370
     0
100
AcDbSpline
210
0.0
220
0.0
230
1.0
 70
    11
 71
     3
 72
    23
 73
    19
 74
     0
 42
0.0000000001
 43
0.0000000001
 12
1.0
 22
0.0
 32
0.0
 13
1.0
 23
0.0
 33
0.0
 40
0.0
 40
0.0
 40
0.0
 40
0.0
 40
1.0
 40
1.0
 40
1.0
 40
2.0
 40
2.0
 40
2.0
 40
3.0
 40
3.0
 40
3.0
 40
4.0
 40
4.0
 40
4.0
 40
5.0
 40
5.0
 40
5.0
 40
6.0
 40
6.0
 40
6.0
 40
6.0
 10
166.7894747846915
 20
54.36843055337594
 30
0.0
 10
167.0406222455663
 20
54.40908268010188
 30
0.0
 10
167.3324218331669
 20
54.44043304901766
 30
0.0
 10
167.6514376751011
 20
54.44043304901766
 30
0.0
 10
169.0249972450702
 20
54.44043304901766
 30
0.0
 10
169.4201496972283
 20
53.62773502404722
 30
0.0
 10
169.4201496972283
 20
52.78850976384036
 30
0.0
 10
169.4201496972283
 20
52.24521820581646
 30
0.0
 10
169.2764892154934
 20
51.78254188214741
 30
0.0
 10
168.9533392589769
 20
51.4459560532385
 30
0.0
 10
168.6525824231146
 20
51.13624196911454
 30
0.0
 10
168.154077106399
 20
50.96570974259468
 30
0.0
 10
167.5301703140202
 20
50.96570974259468
 30
0.0
 10
167.2473279746812
 20
50.96570974259468
 30
0.0
 10
167.0047932525196
 20
50.97466699085632
 30
0.0
 10
166.7894747846915
 20
51.00153873564127
 30
0.0
 10
166.7894747846915
 20
51.00153873564127
 30
0.0
 10
166.7894747846915
 20
54.36843055337594
 30
0.0
 10
166.7894747846915
 20
54.36843055337594
 30
0.0
  0
SPLINE
  5
1E7
330
1BF
100
AcDbEntity
  8
_U+30EC_U+30A4_U+30E4_U+30FC 1
370
     0
100
AcDbSpline
210
0.0
220
0.0
230
1.0
 70
    11
 71
     3
 72
    20
 73
    16
 74
     0
 42
0.0000000001
 43
0.0000000001
 12
1.0
 22
0.0
 32
0.0
 13
1.0
 23
0.0
 33
0.0
 40
0.0
 40
0.0
 40
0.0
 40
0.0
 40
1.0
 40
1.0
 40
1.0
 40
2.0
 40
2.0
 40
2.0
 40
3.0
 40
3.0
 40
3.0
 40
4.0
 40
4.0
 40
4.0
 40
5.0
 40
5.0
 40
5.0
 40
5.0
 10
167.161889606647
 20
51.28885969911111
 30
0.0
 10
167.2741997194662
 20
51.27094520258781
 30
0.0
 10
167.4357746977244
 20
51.26646657845698
 30
0.0
 10
167.5973496759826
 20
51.26646657845698
 30
0.0
 10
168.5223578137722
 20
51.26646657845698
 30
0.0
 10
169.029475869201
 20
51.79184363995758
 30
0.0
 10
169.029475869201
 20
52.77025075776854
 30
0.0
 10
169.029475869201
 20
53.65942990251152
 30
0.0
 10
168.553708182688
 20
54.13967621315535
 30
0.0
 10
167.6648735474935
 20
54.13967621315535
 30
0.0
 10
167.4492105701169
 20
54.13967621315535
 30
0.0
 10
167.278678343597
 20
54.11728309250122
 30
0.0
 10
167.161889606647
 20
54.0948899718471
 30
0.0
 10
167.161889606647
 20
54.0948899718471
 30
0.0
 10
167.161889606647
 20
51.28885969911111
 30
0.0
 10
167.161889606647
 20
51.28885969911111
 30
0.0
  0
HATCH
  5
1E8
330
1BF
100
AcDbEntity
  8
_U+30EC_U+30A4_U+30E4_U+30FC 1
 62
     7
100
AcDbHatch
 10
0.0
 20
0.0
 30
0.0
210
0.0
220
0.0
230
1.0
  2
SOLID
 70
     1
 71
     0
 91
        2
 92
        1
 93
        1
 72
     4
 94
        3
 73
     0
 74
     1
 95
       23
 96
       19
 40
0.0
 40
0.0
 40
0.0
 40
0.0
 40
1.0
 40
1.0
 40
1.0
 40
2.0
 40
2.0
 40
2.0
 40
3.0
 40
3.0
 40
3.0
 40
4.0
 40
4.0
 40
4.0
 40
5.0
 40
5.0
 40
5.0
 40
6.0
 40
6.0
 40
6.0
 40
6.0
 10
166.7894747846915
 20
54.36843055337594
 10
167.0406222455663
 20
54.40908268010188
 10
167.3324218331669
 20
54.44043304901766
 10
167.6514376751011
 20
54.44043304901766
 10
169.0249972450702
 20
54.44043304901766
 10
169.4201496972283
 20
53.62773502404722
 10
169.4201496972283
 20
52.78850976384036
 10
169.4201496972283
 20
52.24521820581646
 10
169.2764892154934
 20
51.78254188214741
 10
168.9533392589769
 20
51.4459560532385
 10
168.6525824231146
 20
51.13624196911454
 10
168.154077106399
 20
50.96570974259468
 10
167.5301703140202
 20
50.96570974259468
 10
167.2473279746812
 20
50.96570974259468
 10
167.0047932525196
 20
50.97466699085632
 10
166.7894747846915
 20
51.00153873564127
 10
166.7894747846915
 20
51.00153873564127
 10
166.7894747846915
 20
54.36843055337594
 10
166.7894747846915
 20
54.36843055337594
 97
        0
 92
        1
 93
        1
 72
     4
 94
        3
 73
     0
 74
     1
 95
       20
 96
       16
 40
0.0
 40
0.0
 40
0.0
 40
0.0
 40
1.0
 40
1.0
 40
1.0
 40
2.0
 40
2.0
 40
2.0
 40
3.0
 40
3.0
 40
3.0
 40
4.0
 40
4.0
 40
4.0
 40
5.0
 40
5.0
 40
5.0
 40
5.0
 10
167.161889606647
 20
51.28885969911111
 10
167.2741997194662
 20
51.27094520258781
 10
167.4357746977244
 20
51.26646657845698
 10
167.5973496759826
 20
51.26646657845698
 10
168.5223578137722
 20
51.26646657845698
 10
169.029475869201
 20
51.79184363995758
 10
169.029475869201
 20
52.77025075776854
 10
169.029475869201
 20
53.65942990251152
 10
168.553708182688
 20
54.13967621315535
 10
167.6648735474935
 20
54.13967621315535
 10
167.4492105701169
 20
54.13967621315535
 10
167.278678343597
 20
54.11728309250122
 10
167.161889606647
 20
54.0948899718471
 10
167.161889606647
 20
54.0948899718471
 10
167.161889606647
 20
51.28885969911111
 10
167.161889606647
 20
51.28885969911111
 97
        0
 75
     2
 76
     1
 98
        0
  0
SPLINE
  5
1E9
330
1BF
100
AcDbEntity
  8
_U+30EC_U+30A4_U+30E4_U+30FC 1
370
     0
100
AcDbSpline
210
0.0
220
0.0
230
1.0
 70
    11
 71
     3
 72
    47
 73
    43
 74
     0
 42
0.0000000001
 43
0.0000000001
 12
1.0
 22
0.0
 32
0.0
 13
1.0
 23
0.0
 33
0.0
 40
0.0
 40
0.0
 40
0.0
 40
0.0
 40
1.0
 40
1.0
 40
1.0
 40
2.0
 40
2.0
 40
2.0
 40
3.0
 40
3.0
 40
3.0
 40
4.0
 40
4.0
 40
4.0
 40
5.0
 40
5.0
 40
5.0
 40
6.0
 40
6.0
 40
6.0
 40
7.0
 40
7.0
 40
7.0
 40
8.0
 40
8.0
 40
8.0
 40
9.0
 40
9.0
 40
9.0
 40
10.0
 40
10.0
 40
10.0
 40
11.0
 40
11.0
 40
11.0
 40
12.0
 40
12.0
 40
12.0
 40
13.0
 40
13.0
 40
13.0
 40
14.0
 40
14.0
 40
14.0
 40
14.0
 10
171.5106336376779
 20
53.9915371072896
 30
0.0
 10
171.4121039067998
 20
54.05423784512115
 30
0.0
 10
171.1964409294231
 20
54.148633461417
 30
0.0
 10
170.9091199659533
 20
54.148633461417
 30
0.0
 10
170.4333522794403
 20
54.148633461417
 30
0.0
 10
170.2538628046588
 20
53.85683387381633
 30
0.0
 10
170.2538628046588
 20
53.60982052752392
 30
0.0
 10
170.2538628046588
 20
53.27323469861501
 30
0.0
 10
170.4602240242252
 20
53.10270247209515
 30
0.0
 10
170.9180772142149
 20
52.90943261537263
 30
0.0
 10
171.4703260205005
 20
52.67619965102121
 30
0.0
 10
171.7531683598395
 20
52.3933573116822
 30
0.0
 10
171.7531683598395
 20
51.9038092432282
 30
0.0
 10
171.7531683598395
 20
51.36086219475283
 30
0.0
 10
171.3580159076813
 20
50.94331662194055
 30
0.0
 10
170.6217990024834
 20
50.94331662194055
 30
0.0
 10
170.3120849183595
 20
50.94331662194055
 30
0.0
 10
169.9754990894506
 20
51.03736772868787
 30
0.0
 10
169.8046223533822
 20
51.15863508976867
 30
0.0
 10
169.8046223533822
 20
51.15863508976867
 30
0.0
 10
169.9079752179397
 20
51.46834917389263
 30
0.0
 10
169.9079752179397
 20
51.46834917389263
 30
0.0
 10
170.091943316852
 20
51.34708181281183
 30
0.0
 10
170.3658284079294
 20
51.25750933019533
 30
0.0
 10
170.6441921231376
 20
51.25750933019533
 30
0.0
 10
171.1020453131273
 20
51.25750933019533
 30
0.0
 10
171.3714517800738
 20
51.50452267648775
 30
0.0
 10
171.3714517800738
 20
51.87245887431243
 30
0.0
 10
171.3714517800738
 20
52.20904470322134
 30
0.0
 10
171.1874836811615
 20
52.41575043233633
 30
0.0
 10
170.7430663635643
 20
52.59523990711784
 30
0.0
 10
170.2266465503253
 20
52.78850976384036
 30
0.0
 10
169.8766248490239
 20
53.08926659970268
 30
0.0
 10
169.8766248490239
 20
53.56055566208485
 30
0.0
 10
169.8766248490239
 20
54.0811095899061
 30
0.0
 10
170.298649045967
 20
54.46282616967179
 30
0.0
 10
170.9225558383457
 20
54.46282616967179
 30
0.0
 10
171.2457057948622
 20
54.46282616967179
 30
0.0
 10
171.4927191411546
 20
54.38221093531693
 30
0.0
 10
171.6229437504971
 20
54.30125119141356
 30
0.0
 10
171.6229437504971
 20
54.30125119141356
 30
0.0
 10
171.5106336376779
 20
53.9915371072896
 30
0.0
 10
171.5106336376779
 20
53.9915371072896
 30
0.0
  0
HATCH
  5
1EA
330
1BF
100
AcDbEntity
  8
_U+30EC_U+30A4_U+30E4_U+30FC 1
 62
     7
100
AcDbHatch
 10
0.0
 20
0.0
 30
0.0
210
0.0
220
0.0
230
1.0
  2
SOLID
 70
     1
 71
     0
 91
        1
 92
        1
 93
        1
 72
     4
 94
        3
 73
     0
 74
     1
 95
       47
 96
       43
 40
0.0
 40
0.0
 40
0.0
 40
0.0
 40
1.0
 40
1.0
 40
1.0
 40
2.0
 40
2.0
 40
2.0
 40
3.0
 40
3.0
 40
3.0
 40
4.0
 40
4.0
 40
4.0
 40
5.0
 40
5.0
 40
5.0
 40
6.0
 40
6.0
 40
6.0
 40
7.0
 40
7.0
 40
7.0
 40
8.0
 40
8.0
 40
8.0
 40
9.0
 40
9.0
 40
9.0
 40
10.0
 40
10.0
 40
10.0
 40
11.0
 40
11.0
 40
11.0
 40
12.0
 40
12.0
 40
12.0
 40
13.0
 40
13.0
 40
13.0
 40
14.0
 40
14.0
 40
14.0
 40
14.0
 10
171.5106336376779
 20
53.9915371072896
 10
171.4121039067998
 20
54.05423784512115
 10
171.1964409294231
 20
54.148633461417
 10
170.9091199659533
 20
54.148633461417
 10
170.4333522794403
 20
54.148633461417
 10
170.2538628046588
 20
53.85683387381633
 10
170.2538628046588
 20
53.60982052752392
 10
170.2538628046588
 20
53.27323469861501
 10
170.4602240242252
 20
53.10270247209515
 10
170.9180772142149
 20
52.90943261537263
 10
171.4703260205005
 20
52.67619965102121
 10
171.7531683598395
 20
52.3933573116822
 10
171.7531683598395
 20
51.9038092432282
 10
171.7531683598395
 20
51.36086219475283
 10
171.3580159076813
 20
50.94331662194055
 10
170.6217990024834
 20
50.94331662194055
 10
170.3120849183595
 20
50.94331662194055
 10
169.9754990894506
 20
51.03736772868787
 10
169.8046223533822
 20
51.15863508976867
 10
169.8046223533822
 20
51.15863508976867
 10
169.9079752179397
 20
51.46834917389263
 10
169.9079752179397
 20
51.46834917389263
 10
170.091943316852
 20
51.34708181281183
 10
170.3658284079294
 20
51.25750933019533
 10
170.6441921231376
 20
51.25750933019533
 10
171.1020453131273
 20
51.25750933019533
 10
171.3714517800738
 20
51.50452267648775
 10
171.3714517800738
 20
51.87245887431243
 10
171.3714517800738
 20
52.20904470322134
 10
171.1874836811615
 20
52.41575043233633
 10
170.7430663635643
 20
52.59523990711784
 10
170.2266465503253
 20
52.78850976384036
 10
169.8766248490239
 20
53.08926659970268
 10
169.8766248490239
 20
53.56055566208485
 10
169.8766248490239
 20
54.0811095899061
 10
170.298649045967
 20
54.46282616967179
 10
170.9225558383457
 20
54.46282616967179
 10
171.2457057948622
 20
54.46282616967179
 10
171.4927191411546
 20
54.38221093531693
 10
171.6229437504971
 20
54.30125119141356
 10
171.6229437504971
 20
54.30125119141356
 10
171.5106336376779
 20
53.9915371072896
 10
171.5106336376779
 20
53.9915371072896
 97
        0
 75
     2
 76
     1
 98
        0
  0
SPLINE
  5
1EB
330
1BF
100
AcDbEntity
  8
_U+30EC_U+30A4_U+30E4_U+30FC 1
370
     0
100
AcDbSpline
210
0.0
220
0.0
230
1.0
 70
    11
 71
     3
 72
    47
 73
    43
 74
     0
 42
0.0000000001
 43
0.0000000001
 12
1.0
 22
0.0
 32
0.0
 13
1.0
 23
0.0
 33
0.0
 40
0.0
 40
0.0
 40
0.0
 40
0.0
 40
1.0
 40
1.0
 40
1.0
 40
2.0
 40
2.0
 40
2.0
 40
3.0
 40
3.0
 40
3.0
 40
4.0
 40
4.0
 40
4.0
 40
5.0
 40
5.0
 40
5.0
 40
6.0
 40
6.0
 40
6.0
 40
7.0
 40
7.0
 40
7.0
 40
8.0
 40
8.0
 40
8.0
 40
9.0
 40
9.0
 40
9.0
 40
10.0
 40
10.0
 40
10.0
 40
11.0
 40
11.0
 40
11.0
 40
12.0
 40
12.0
 40
12.0
 40
13.0
 40
13.0
 40
13.0
 40
14.0
 40
14.0
 40
14.0
 40
14.0
 10
174.5981282115588
 20
50.99258148737962
 30
0.0
 10
174.5981282115588
 20
50.99258148737962
 30
0.0
 10
174.1581895180924
 20
50.99258148737962
 30
0.0
 10
174.1581895180924
 20
50.99258148737962
 30
0.0
 10
174.1581895180924
 20
50.99258148737962
 30
0.0
 10
173.0402560331288
 20
52.70755001993699
 30
0.0
 10
173.0402560331288
 20
52.70755001993699
 30
0.0
 10
173.0402560331288
 20
52.70755001993699
 30
0.0
 10
172.7215847007432
 20
52.33479068843296
 30
0.0
 10
172.7215847007432
 20
52.33479068843296
 30
0.0
 10
172.7215847007432
 20
52.33479068843296
 30
0.0
 10
172.7215847007432
 20
50.99258148737962
 30
0.0
 10
172.7215847007432
 20
50.99258148737962
 30
0.0
 10
172.7215847007432
 20
50.99258148737962
 30
0.0
 10
172.3491698787877
 20
50.99258148737962
 30
0.0
 10
172.3491698787877
 20
50.99258148737962
 30
0.0
 10
172.3491698787877
 20
50.99258148737962
 30
0.0
 10
172.3491698787877
 20
54.41356130423271
 30
0.0
 10
172.3491698787877
 20
54.41356130423271
 30
0.0
 10
172.3491698787877
 20
54.41356130423271
 30
0.0
 10
172.7215847007432
 20
54.41356130423271
 30
0.0
 10
172.7215847007432
 20
54.41356130423271
 30
0.0
 10
172.7215847007432
 20
54.41356130423271
 30
0.0
 10
172.7215847007432
 20
52.74337901298359
 30
0.0
 10
172.7215847007432
 20
52.74337901298359
 30
0.0
 10
172.7215847007432
 20
52.74337901298359
 30
0.0
 10
172.7394991972665
 20
52.74337901298359
 30
0.0
 10
172.7394991972665
 20
52.74337901298359
 30
0.0
 10
172.8249375653007
 20
52.87360362232603
 30
0.0
 10
172.9193331815966
 20
52.99934960753765
 30
0.0
 10
173.0044270400822
 20
53.1116597203568
 30
0.0
 10
173.0044270400822
 20
53.1116597203568
 30
0.0
 10
174.0458794052733
 20
54.41356130423271
 30
0.0
 10
174.0458794052733
 20
54.41356130423271
 30
0.0
 10
174.0458794052733
 20
54.41356130423271
 30
0.0
 10
174.5040771048115
 20
54.41356130423271
 30
0.0
 10
174.5040771048115
 20
54.41356130423271
 30
0.0
 10
174.5040771048115
 20
54.41356130423271
 30
0.0
 10
173.3007052518137
 20
52.95904199036023
 30
0.0
 10
173.3007052518137
 20
52.95904199036023
 30
0.0
 10
173.3007052518137
 20
52.95904199036023
 30
0.0
 10
174.5981282115588
 20
50.99258148737962
 30
0.0
 10
174.5981282115588
 20
50.99258148737962
 30
0.0
  0
HATCH
  5
1EC
330
1BF
100
AcDbEntity
  8
_U+30EC_U+30A4_U+30E4_U+30FC 1
 62
     7
100
AcDbHatch
 10
0.0
 20
0.0
 30
0.0
210
0.0
220
0.0
230
1.0
  2
SOLID
 70
     1
 71
     0
 91
        1
 92
        1
 93
        1
 72
     4
 94
        3
 73
     0
 74
     1
 95
       47
 96
       43
 40
0.0
 40
0.0
 40
0.0
 40
0.0
 40
1.0
 40
1.0
 40
1.0
 40
2.0
 40
2.0
 40
2.0
 40
3.0
 40
3.0
 40
3.0
 40
4.0
 40
4.0
 40
4.0
 40
5.0
 40
5.0
 40
5.0
 40
6.0
 40
6.0
 40
6.0
 40
7.0
 40
7.0
 40
7.0
 40
8.0
 40
8.0
 40
8.0
 40
9.0
 40
9.0
 40
9.0
 40
10.0
 40
10.0
 40
10.0
 40
11.0
 40
11.0
 40
11.0
 40
12.0
 40
12.0
 40
12.0
 40
13.0
 40
13.0
 40
13.0
 40
14.0
 40
14.0
 40
14.0
 40
14.0
 10
174.5981282115588
 20
50.99258148737962
 10
174.5981282115588
 20
50.99258148737962
 10
174.1581895180924
 20
50.99258148737962
 10
174.1581895180924
 20
50.99258148737962
 10
174.1581895180924
 20
50.99258148737962
 10
173.0402560331288
 20
52.70755001993699
 10
173.0402560331288
 20
52.70755001993699
 10
173.0402560331288
 20
52.70755001993699
 10
172.7215847007432
 20
52.33479068843296
 10
172.7215847007432
 20
52.33479068843296
 10
172.7215847007432
 20
52.33479068843296
 10
172.7215847007432
 20
50.99258148737962
 10
172.7215847007432
 20
50.99258148737962
 10
172.7215847007432
 20
50.99258148737962
 10
172.3491698787877
 20
50.99258148737962
 10
172.3491698787877
 20
50.99258148737962
 10
172.3491698787877
 20
50.99258148737962
 10
172.3491698787877
 20
54.41356130423271
 10
172.3491698787877
 20
54.41356130423271
 10
172.3491698787877
 20
54.41356130423271
 10
172.7215847007432
 20
54.41356130423271
 10
172.7215847007432
 20
54.41356130423271
 10
172.7215847007432
 20
54.41356130423271
 10
172.7215847007432
 20
52.74337901298359
 10
172.7215847007432
 20
52.74337901298359
 10
172.7215847007432
 20
52.74337901298359
 10
172.7394991972665
 20
52.74337901298359
 10
172.7394991972665
 20
52.74337901298359
 10
172.8249375653007
 20
52.87360362232603
 10
172.9193331815966
 20
52.99934960753765
 10
173.0044270400822
 20
53.1116597203568
 10
173.0044270400822
 20
53.1116597203568
 10
174.0458794052733
 20
54.41356130423271
 10
174.0458794052733
 20
54.41356130423271
 10
174.0458794052733
 20
54.41356130423271
 10
174.5040771048115
 20
54.41356130423271
 10
174.5040771048115
 20
54.41356130423271
 10
174.5040771048115
 20
54.41356130423271
 10
173.3007052518137
 20
52.95904199036023
 10
173.3007052518137
 20
52.95904199036023
 10
173.3007052518137
 20
52.95904199036023
 10
174.5981282115588
 20
50.99258148737962
 10
174.5981282115588
 20
50.99258148737962
 97
        0
 75
     2
 76
     1
 98
        0
  0
POLYLINE
  5
1ED
330
1BF
100
AcDbEntity
  8
_U+30EC_U+30A4_U+30E4_U+30FC 1
370
     0
100
AcDb2dPolyline
 66
     1
 10
0.0
 20
0.0
 30
0.0
  0
VERTEX
  5
1EE
330
1ED
100
AcDbEntity
  8
_U+30EC_U+30A4_U+30E4_U+30FC 1
370
     0
100
AcDbVertex
100
AcDb2dVertex
 10
174.718362043994
 20
52.50566742450135
 30
0.0
  0
VERTEX
  5
1EF
330
1ED
100
AcDbEntity
  8
_U+30EC_U+30A4_U+30E4_U+30FC 1
370
     0
100
AcDbVertex
100
AcDb2dVertex
 10
175.9441270176459
 20
52.50566742450135
 30
0.0
  0
VERTEX
  5
1F0
330
1ED
100
AcDbEntity
  8
_U+30EC_U+30A4_U+30E4_U+30FC 1
370
     0
100
AcDbVertex
100
AcDb2dVertex
 10
175.9441270176459
 20
52.21834646103152
 30
0.0
  0
VERTEX
  5
1F1
330
1ED
100
AcDbEntity
  8
_U+30EC_U+30A4_U+30E4_U+30FC 1
370
     0
100
AcDbVertex
100
AcDb2dVertex
 10
174.718362043994
 20
52.21834646103152
 30
0.0
  0
VERTEX
  5
1F2
330
1ED
100
AcDbEntity
  8
_U+30EC_U+30A4_U+30E4_U+30FC 1
370
     0
100
AcDbVertex
100
AcDb2dVertex
 10
174.718362043994
 20
52.50566742450135
 30
0.0
  0
SEQEND
  5
1F3
330
1ED
100
AcDbEntity
  8
_U+30EC_U+30A4_U+30E4_U+30FC 1
370
     0
  0
HATCH
  5
1F4
330
1BF
100
AcDbEntity
  8
_U+30EC_U+30A4_U+30E4_U+30FC 1
 62
     7
100
AcDbHatch
 10
0.0
 20
0.0
 30
0.0
210
0.0
220
0.0
230
1.0
  2
SOLID
 70
     1
 71
     0
 91
        1
 92
        1
 93
        4
 72
     1
 10
174.718362043994
 20
52.50566742450135
 11
175.9441270176459
 21
52.50566742450135
 72
     1
 10
175.9441270176459
 20
52.50566742450135
 11
175.9441270176459
 21
52.21834646103152
 72
     1
 10
175.9441270176459
 20
52.21834646103152
 11
174.718362043994
 21
52.21834646103152
 72
     1
 10
174.718362043994
 20
52.21834646103152
 11
174.718362043994
 21
52.50566742450135
 97
        0
 75
     2
 76
     1
 98
        0
  0
SPLINE
  5
1F5
330
1BF
100
AcDbEntity
  8
_U+30EC_U+30A4_U+30E4_U+30FC 1
370
     0
100
AcDbSpline
210
0.0
220
0.0
230
1.0
 70
    11
 71
     3
 72
    17
 73
    13
 74
     0
 42
0.0000000001
 43
0.0000000001
 12
1.0
 22
0.0
 32
0.0
 13
1.0
 23
0.0
 33
0.0
 40
0.0
 40
0.0
 40
0.0
 40
0.0
 40
1.0
 40
1.0
 40
1.0
 40
2.0
 40
2.0
 40
2.0
 40
3.0
 40
3.0
 40
3.0
 40
4.0
 40
4.0
 40
4.0
 40
4.0
 10
176.2752006937784
 20
52.66276377862874
 30
0.0
 10
176.2752006937784
 20
53.83891937729304
 30
0.0
 10
176.7330538837681
 20
54.40908268010188
 30
0.0
 10
177.3617838098262
 20
54.40908268010188
 30
0.0
 10
177.9991264745975
 20
54.40908268010188
 30
0.0
 10
178.3898003026248
 20
53.80756900837726
 30
0.0
 10
178.3898003026248
 20
52.70755001993699
 30
0.0
 10
178.3898003026248
 20
51.54035166953435
 30
0.0
 10
177.9812119780742
 20
50.93883799780972
 30
0.0
 10
177.3121744348386
 20
50.93883799780972
 30
0.0
 10
176.7017035148524
 20
50.93883799780972
 30
0.0
 10
176.2752006937784
 20
51.54035166953435
 30
0.0
 10
176.2752006937784
 20
52.66276377862874
 30
0.0
  0
SPLINE
  5
1F6
330
1BF
100
AcDbEntity
  8
_U+30EC_U+30A4_U+30E4_U+30FC 1
370
     0
100
AcDbSpline
210
0.0
220
0.0
230
1.0
 70
    11
 71
     3
 72
    17
 73
    13
 74
     0
 42
0.0000000001
 43
0.0000000001
 12
1.0
 22
0.0
 32
0.0
 13
1.0
 23
0.0
 33
0.0
 40
0.0
 40
0.0
 40
0.0
 40
0.0
 40
1.0
 40
1.0
 40
1.0
 40
2.0
 40
2.0
 40
2.0
 40
3.0
 40
3.0
 40
3.0
 40
4.0
 40
4.0
 40
4.0
 40
4.0
 10
178.0125623469899
 20
52.68963552341369
 30
0.0
 10
178.0125623469899
 20
53.52920529316908
 30
0.0
 10
177.8106797515543
 20
54.10832584423957
 30
0.0
 10
177.3393906891721
 20
54.10832584423957
 30
0.0
 10
176.9397596128831
 20
54.10832584423957
 30
0.0
 10
176.6569172735441
 20
53.57399153447732
 30
0.0
 10
176.6569172735441
 20
52.68963552341369
 30
0.0
 10
176.6569172735441
 20
51.80527951235006
 30
0.0
 10
176.9039306198365
 20
51.24407345780286
 30
0.0
 10
177.3259548167796
 20
51.24407345780286
 30
0.0
 10
177.8241156239468
 20
51.24407345780286
 30
0.0
 10
178.0125623469899
 20
51.89037337083573
 30
0.0
 10
178.0125623469899
 20
52.68963552341369
 30
0.0
  0
HATCH
  5
1F7
330
1BF
100
AcDbEntity
  8
_U+30EC_U+30A4_U+30E4_U+30FC 1
 62
     7
100
AcDbHatch
 10
0.0
 20
0.0
 30
0.0
210
0.0
220
0.0
230
1.0
  2
SOLID
 70
     1
 71
     0
 91
        2
 92
        1
 93
        1
 72
     4
 94
        3
 73
     0
 74
     1
 95
       17
 96
       13
 40
0.0
 40
0.0
 40
0.0
 40
0.0
 40
1.0
 40
1.0
 40
1.0
 40
2.0
 40
2.0
 40
2.0
 40
3.0
 40
3.0
 40
3.0
 40
4.0
 40
4.0
 40
4.0
 40
4.0
 10
176.2752006937784
 20
52.66276377862874
 10
176.2752006937784
 20
53.83891937729304
 10
176.7330538837681
 20
54.40908268010188
 10
177.3617838098262
 20
54.40908268010188
 10
177.9991264745975
 20
54.40908268010188
 10
178.3898003026248
 20
53.80756900837726
 10
178.3898003026248
 20
52.70755001993699
 10
178.3898003026248
 20
51.54035166953435
 10
177.9812119780742
 20
50.93883799780972
 10
177.3121744348386
 20
50.93883799780972
 10
176.7017035148524
 20
50.93883799780972
 10
176.2752006937784
 20
51.54035166953435
 10
176.2752006937784
 20
52.66276377862874
 97
        0
 92
        1
 93
        1
 72
     4
 94
        3
 73
     0
 74
     1
 95
       17
 96
       13
 40
0.0
 40
0.0
 40
0.0
 40
0.0
 40
1.0
 40
1.0
 40
1.0
 40
2.0
 40
2.0
 40
2.0
 40
3.0
 40
3.0
 40
3.0
 40
4.0
 40
4.0
 40
4.0
 40
4.0
 10
178.0125623469899
 20
52.68963552341369
 10
178.0125623469899
 20
53.52920529316908
 10
177.8106797515543
 20
54.10832584423957
 10
177.3393906891721
 20
54.10832584423957
 10
176.9397596128831
 20
54.10832584423957
 10
176.6569172735441
 20
53.57399153447732
 10
176.6569172735441
 20
52.68963552341369
 10
176.6569172735441
 20
51.80527951235006
 10
176.9039306198365
 20
51.24407345780286
 10
177.3259548167796
 20
51.24407345780286
 10
177.8241156239468
 20
51.24407345780286
 10
178.0125623469899
 20
51.89037337083573
 10
178.0125623469899
 20
52.68963552341369
 97
        0
 75
     2
 76
     1
 98
        0
  0
SPLINE
  5
1F8
330
1BF
100
AcDbEntity
  8
_U+30EC_U+30A4_U+30E4_U+30FC 1
370
     0
100
AcDbSpline
210
0.0
220
0.0
230
1.0
 70
    11
 71
     3
 72
    32
 73
    28
 74
     0
 42
0.0000000001
 43
0.0000000001
 12
1.0
 22
0.0
 32
0.0
 13
1.0
 23
0.0
 33
0.0
 40
0.0
 40
0.0
 40
0.0
 40
0.0
 40
1.0
 40
1.0
 40
1.0
 40
2.0
 40
2.0
 40
2.0
 40
3.0
 40
3.0
 40
3.0
 40
4.0
 40
4.0
 40
4.0
 40
5.0
 40
5.0
 40
5.0
 40
6.0
 40
6.0
 40
6.0
 40
7.0
 40
7.0
 40
7.0
 40
8.0
 40
8.0
 40
8.0
 40
9.0
 40
9.0
 40
9.0
 40
9.0
 10
179.1339409274387
 20
52.77472938189936
 30
0.0
 10
179.2865586574353
 20
52.99934960753765
 30
0.0
 10
179.5604437485127
 20
53.18779633058082
 30
0.0
 10
179.9194226980757
 20
53.18779633058082
 30
0.0
 10
180.4895860008845
 20
53.18779633058082
 30
0.0
 10
180.8713025806503
 20
52.76129350950688
 30
0.0
 10
180.8713025806503
 20
52.11499359647402
 30
0.0
 10
180.8713025806503
 20
51.50004405235692
 30
0.0
 10
180.4940646250154
 20
50.93883799780972
 30
0.0
 10
179.8388074637209
 20
50.93883799780972
 30
0.0
 10
179.1832057928778
 20
50.93883799780972
 30
0.0
 10
178.7432670994114
 20
51.4817850462851
 30
0.0
 10
178.7432670994114
 20
52.35270518495626
 30
0.0
 10
178.7432670994114
 20
53.25532020209172
 30
0.0
 10
179.1652912963545
 20
54.19789832685607
 30
0.0
 10
180.2563530365331
 20
54.37773231118612
 30
0.0
 10
180.3820990217448
 20
54.39564680770941
 30
0.0
 10
180.4940646250154
 20
54.40908268010188
 30
0.0
 10
180.5705457447879
 20
54.40908268010188
 30
0.0
 10
180.5705457447879
 20
54.40908268010188
 30
0.0
 10
180.5750243689187
 20
54.09936859597792
 30
0.0
 10
180.5750243689187
 20
54.09936859597792
 30
0.0
 10
179.6410589828675
 20
54.09936859597792
 30
0.0
 10
179.1966416652703
 20
53.42137380448076
 30
0.0
 10
179.1205050550463
 20
52.77472938189936
 30
0.0
 10
179.1205050550463
 20
52.77472938189936
 30
0.0
 10
179.1339409274387
 20
52.77472938189936
 30
0.0
 10
179.1339409274387
 20
52.77472938189936
 30
0.0
  0
SPLINE
  5
1F9
330
1BF
100
AcDbEntity
  8
_U+30EC_U+30A4_U+30E4_U+30FC 1
370
     0
100
AcDbSpline
210
0.0
220
0.0
230
1.0
 70
    11
 71
     3
 72
    17
 73
    13
 74
     0
 42
0.0000000001
 43
0.0000000001
 12
1.0
 22
0.0
 32
0.0
 13
1.0
 23
0.0
 33
0.0
 40
0.0
 40
0.0
 40
0.0
 40
0.0
 40
1.0
 40
1.0
 40
1.0
 40
2.0
 40
2.0
 40
2.0
 40
3.0
 40
3.0
 40
3.0
 40
4.0
 40
4.0
 40
4.0
 40
4.0
 10
180.4940646250154
 20
52.08812185168907
 30
0.0
 10
180.4940646250154
 20
52.6041971553795
 30
0.0
 10
180.2157009098072
 20
52.9049539912418
 30
0.0
 10
179.8119357189359
 20
52.9049539912418
 30
0.0
 10
179.4167832667778
 20
52.9049539912418
 30
0.0
 10
179.1160264309154
 20
52.51910329689382
 30
0.0
 10
179.1160264309154
 20
52.26761132647059
 30
0.0
 10
179.1205050550463
 20
51.65266178235349
 30
0.0
 10
179.3809542737312
 20
51.23063758541038
 30
0.0
 10
179.8477647119825
 20
51.23063758541038
 30
0.0
 10
180.2384385400098
 20
51.23063758541038
 30
0.0
 10
180.4940646250154
 20
51.58065928671177
 30
0.0
 10
180.4940646250154
 20
52.08812185168907
 30
0.0
  0
HATCH
  5
1FA
330
1BF
100
AcDbEntity
  8
_U+30EC_U+30A4_U+30E4_U+30FC 1
 62
     7
100
AcDbHatch
 10
0.0
 20
0.0
 30
0.0
210
0.0
220
0.0
230
1.0
  2
SOLID
 70
     1
 71
     0
 91
        2
 92
        1
 93
        1
 72
     4
 94
        3
 73
     0
 74
     1
 95
       32
 96
       28
 40
0.0
 40
0.0
 40
0.0
 40
0.0
 40
1.0
 40
1.0
 40
1.0
 40
2.0
 40
2.0
 40
2.0
 40
3.0
 40
3.0
 40
3.0
 40
4.0
 40
4.0
 40
4.0
 40
5.0
 40
5.0
 40
5.0
 40
6.0
 40
6.0
 40
6.0
 40
7.0
 40
7.0
 40
7.0
 40
8.0
 40
8.0
 40
8.0
 40
9.0
 40
9.0
 40
9.0
 40
9.0
 10
179.1339409274387
 20
52.77472938189936
 10
179.2865586574353
 20
52.99934960753765
 10
179.5604437485127
 20
53.18779633058082
 10
179.9194226980757
 20
53.18779633058082
 10
180.4895860008845
 20
53.18779633058082
 10
180.8713025806503
 20
52.76129350950688
 10
180.8713025806503
 20
52.11499359647402
 10
180.8713025806503
 20
51.50004405235692
 10
180.4940646250154
 20
50.93883799780972
 10
179.8388074637209
 20
50.93883799780972
 10
179.1832057928778
 20
50.93883799780972
 10
178.7432670994114
 20
51.4817850462851
 10
178.7432670994114
 20
52.35270518495626
 10
178.7432670994114
 20
53.25532020209172
 10
179.1652912963545
 20
54.19789832685607
 10
180.2563530365331
 20
54.37773231118612
 10
180.3820990217448
 20
54.39564680770941
 10
180.4940646250154
 20
54.40908268010188
 10
180.5705457447879
 20
54.40908268010188
 10
180.5705457447879
 20
54.40908268010188
 10
180.5750243689187
 20
54.09936859597792
 10
180.5750243689187
 20
54.09936859597792
 10
179.6410589828675
 20
54.09936859597792
 10
179.1966416652703
 20
53.42137380448076
 10
179.1205050550463
 20
52.77472938189936
 10
179.1205050550463
 20
52.77472938189936
 10
179.1339409274387
 20
52.77472938189936
 10
179.1339409274387
 20
52.77472938189936
 97
        0
 92
        1
 93
        1
 72
     4
 94
        3
 73
     0
 74
     1
 95
       17
 96
       13
 40
0.0
 40
0.0
 40
0.0
 40
0.0
 40
1.0
 40
1.0
 40
1.0
 40
2.0
 40
2.0
 40
2.0
 40
3.0
 40
3.0
 40
3.0
 40
4.0
 40
4.0
 40
4.0
 40
4.0
 10
180.4940646250154
 20
52.08812185168907
 10
180.4940646250154
 20
52.6041971553795
 10
180.2157009098072
 20
52.9049539912418
 10
179.8119357189359
 20
52.9049539912418
 10
179.4167832667778
 20
52.9049539912418
 10
179.1160264309154
 20
52.51910329689382
 10
179.1160264309154
 20
52.26761132647059
 10
179.1205050550463
 20
51.65266178235349
 10
179.3809542737312
 20
51.23063758541038
 10
179.8477647119825
 20
51.23063758541038
 10
180.2384385400098
 20
51.23063758541038
 10
180.4940646250154
 20
51.58065928671177
 10
180.4940646250154
 20
52.08812185168907
 97
        0
 75
     2
 76
     1
 98
        0
  0
SPLINE
  5
1FB
330
1BF
100
AcDbEntity
  8
_U+30EC_U+30A4_U+30E4_U+30FC 1
370
     0
100
AcDbSpline
210
0.0
220
0.0
230
1.0
 70
    11
 71
     3
 72
    23
 73
    19
 74
     0
 42
0.0000000001
 43
0.0000000001
 12
1.0
 22
0.0
 32
0.0
 13
1.0
 23
0.0
 33
0.0
 40
0.0
 40
0.0
 40
0.0
 40
0.0
 40
1.0
 40
1.0
 40
1.0
 40
2.0
 40
2.0
 40
2.0
 40
3.0
 40
3.0
 40
3.0
 40
4.0
 40
4.0
 40
4.0
 40
5.0
 40
5.0
 40
5.0
 40
6.0
 40
6.0
 40
6.0
 40
6.0
 10
166.7894747846915
 20
48.98374630993044
 30
0.0
 10
167.0406222455663
 20
49.02405392710786
 30
0.0
 10
167.3324218331669
 20
49.05540429602364
 30
0.0
 10
167.6514376751011
 20
49.05540429602364
 30
0.0
 10
169.0249972450702
 20
49.05540429602364
 30
0.0
 10
169.4201496972283
 20
48.2427062710532
 30
0.0
 10
169.4201496972283
 20
47.40313650129782
 30
0.0
 10
169.4201496972283
 20
46.86018945282244
 30
0.0
 10
169.2764892154934
 20
46.39785763870191
 30
0.0
 10
168.9533392589769
 20
46.06092730024448
 30
0.0
 10
168.6525824231146
 20
45.75121321612052
 30
0.0
 10
168.154077106399
 20
45.58068098960065
 30
0.0
 10
167.5301703140202
 20
45.58068098960065
 30
0.0
 10
167.2473279746812
 20
45.58068098960065
 30
0.0
 10
167.0047932525196
 20
45.5896382378623
 30
0.0
 10
166.7894747846915
 20
45.61650998264725
 30
0.0
 10
166.7894747846915
 20
45.61650998264725
 30
0.0
 10
166.7894747846915
 20
48.98374630993044
 30
0.0
 10
166.7894747846915
 20
48.98374630993044
 30
0.0
  0
SPLINE
  5
1FC
330
1BF
100
AcDbEntity
  8
_U+30EC_U+30A4_U+30E4_U+30FC 1
370
     0
100
AcDbSpline
210
0.0
220
0.0
230
1.0
 70
    11
 71
     3
 72
    20
 73
    16
 74
     0
 42
0.0000000001
 43
0.0000000001
 12
1.0
 22
0.0
 32
0.0
 13
1.0
 23
0.0
 33
0.0
 40
0.0
 40
0.0
 40
0.0
 40
0.0
 40
1.0
 40
1.0
 40
1.0
 40
2.0
 40
2.0
 40
2.0
 40
3.0
 40
3.0
 40
3.0
 40
4.0
 40
4.0
 40
4.0
 40
5.0
 40
5.0
 40
5.0
 40
5.0
 10
167.161889606647
 20
45.90383094611709
 30
0.0
 10
167.2741997194662
 20
45.88591644959379
 30
0.0
 10
167.4357746977244
 20
45.88143782546296
 30
0.0
 10
167.5973496759826
 20
45.88143782546296
 30
0.0
 10
168.5223578137722
 20
45.88143782546296
 30
0.0
 10
169.029475869201
 20
46.40681488696357
 30
0.0
 10
169.029475869201
 20
47.38522200477452
 30
0.0
 10
169.029475869201
 20
48.2744011495175
 30
0.0
 10
168.553708182688
 20
48.75464746016133
 30
0.0
 10
167.6648735474935
 20
48.75464746016133
 30
0.0
 10
167.4492105701169
 20
48.75464746016133
 30
0.0
 10
167.278678343597
 20
48.7322543395072
 30
0.0
 10
167.161889606647
 20
48.70986121885308
 30
0.0
 10
167.161889606647
 20
48.70986121885308
 30
0.0
 10
167.161889606647
 20
45.90383094611709
 30
0.0
 10
167.161889606647
 20
45.90383094611709
 30
0.0
  0
HATCH
  5
1FD
330
1BF
100
AcDbEntity
  8
_U+30EC_U+30A4_U+30E4_U+30FC 1
 62
     7
100
AcDbHatch
 10
0.0
 20
0.0
 30
0.0
210
0.0
220
0.0
230
1.0
  2
SOLID
 70
     1
 71
     0
 91
        2
 92
        1
 93
        1
 72
     4
 94
        3
 73
     0
 74
     1
 95
       23
 96
       19
 40
0.0
 40
0.0
 40
0.0
 40
0.0
 40
1.0
 40
1.0
 40
1.0
 40
2.0
 40
2.0
 40
2.0
 40
3.0
 40
3.0
 40
3.0
 40
4.0
 40
4.0
 40
4.0
 40
5.0
 40
5.0
 40
5.0
 40
6.0
 40
6.0
 40
6.0
 40
6.0
 10
166.7894747846915
 20
48.98374630993044
 10
167.0406222455663
 20
49.02405392710786
 10
167.3324218331669
 20
49.05540429602364
 10
167.6514376751011
 20
49.05540429602364
 10
169.0249972450702
 20
49.05540429602364
 10
169.4201496972283
 20
48.2427062710532
 10
169.4201496972283
 20
47.40313650129782
 10
169.4201496972283
 20
46.86018945282244
 10
169.2764892154934
 20
46.39785763870191
 10
168.9533392589769
 20
46.06092730024448
 10
168.6525824231146
 20
45.75121321612052
 10
168.154077106399
 20
45.58068098960065
 10
167.5301703140202
 20
45.58068098960065
 10
167.2473279746812
 20
45.58068098960065
 10
167.0047932525196
 20
45.5896382378623
 10
166.7894747846915
 20
45.61650998264725
 10
166.7894747846915
 20
45.61650998264725
 10
166.7894747846915
 20
48.98374630993044
 10
166.7894747846915
 20
48.98374630993044
 97
        0
 92
        1
 93
        1
 72
     4
 94
        3
 73
     0
 74
     1
 95
       20
 96
       16
 40
0.0
 40
0.0
 40
0.0
 40
0.0
 40
1.0
 40
1.0
 40
1.0
 40
2.0
 40
2.0
 40
2.0
 40
3.0
 40
3.0
 40
3.0
 40
4.0
 40
4.0
 40
4.0
 40
5.0
 40
5.0
 40
5.0
 40
5.0
 10
167.161889606647
 20
45.90383094611709
 10
167.2741997194662
 20
45.88591644959379
 10
167.4357746977244
 20
45.88143782546296
 10
167.5973496759826
 20
45.88143782546296
 10
168.5223578137722
 20
45.88143782546296
 10
169.029475869201
 20
46.40681488696357
 10
169.029475869201
 20
47.38522200477452
 10
169.029475869201
 20
48.2744011495175
 10
168.553708182688
 20
48.75464746016133
 10
167.6648735474935
 20
48.75464746016133
 10
167.4492105701169
 20
48.75464746016133
 10
167.278678343597
 20
48.7322543395072
 10
167.161889606647
 20
48.70986121885308
 10
167.161889606647
 20
48.70986121885308
 10
167.161889606647
 20
45.90383094611709
 10
167.161889606647
 20
45.90383094611709
 97
        0
 75
     2
 76
     1
 98
        0
  0
SPLINE
  5
1FE
330
1BF
100
AcDbEntity
  8
_U+30EC_U+30A4_U+30E4_U+30FC 1
370
     0
100
AcDbSpline
210
0.0
220
0.0
230
1.0
 70
    11
 71
     3
 72
    35
 73
    31
 74
     0
 42
0.0000000001
 43
0.0000000001
 12
1.0
 22
0.0
 32
0.0
 13
1.0
 23
0.0
 33
0.0
 40
0.0
 40
0.0
 40
0.0
 40
0.0
 40
1.0
 40
1.0
 40
1.0
 40
2.0
 40
2.0
 40
2.0
 40
3.0
 40
3.0
 40
3.0
 40
4.0
 40
4.0
 40
4.0
 40
5.0
 40
5.0
 40
5.0
 40
6.0
 40
6.0
 40
6.0
 40
7.0
 40
7.0
 40
7.0
 40
8.0
 40
8.0
 40
8.0
 40
9.0
 40
9.0
 40
9.0
 40
10.0
 40
10.0
 40
10.0
 40
10.0
 10
172.2289360463525
 20
45.71090559894309
 30
0.0
 10
172.0718396922251
 20
45.63442447917055
 30
0.0
 10
171.766604232232
 20
45.55828786894653
 30
0.0
 10
171.3759304042046
 20
45.55828786894653
 30
0.0
 10
170.4960530172718
 20
45.55828786894653
 30
0.0
 10
169.7867078568589
 20
46.12845117175537
 30
0.0
 10
169.7867078568589
 20
47.28669227389637
 30
0.0
 10
169.7867078568589
 20
48.39084537691895
 30
0.0
 10
170.4736598966177
 20
49.07779741667776
 30
0.0
 10
171.4748046446313
 20
49.07779741667776
 30
0.0
 10
171.8833929691819
 20
49.07779741667776
 30
0.0
 10
172.1214490672127
 20
48.99270355819209
 30
0.0
 10
172.2289360463525
 20
48.93861555907367
 30
0.0
 10
172.2289360463525
 20
48.93861555907367
 30
0.0
 10
172.1304063154743
 20
48.62442285081888
 30
0.0
 10
172.1304063154743
 20
48.62442285081888
 30
0.0
 10
171.973309961347
 20
48.70090397059143
 30
0.0
 10
171.7531683598395
 20
48.76360470842297
 30
0.0
 10
171.4837618928929
 20
48.76360470842297
 30
0.0
 10
170.7072373705176
 20
48.76360470842297
 30
0.0
 10
170.1773816848862
 20
48.2427062710532
 30
0.0
 10
170.1773816848862
 20
47.30012814628885
 30
0.0
 10
170.1773816848862
 20
46.40233626283274
 30
0.0
 10
170.6621066196609
 20
45.87248057720132
 30
0.0
 10
171.4613687722388
 20
45.87248057720132
 30
0.0
 10
171.7218179909237
 20
45.87248057720132
 30
0.0
 10
171.9777885854778
 20
45.93070269090204
 30
0.0
 10
172.1483208119976
 20
46.01166243480541
 30
0.0
 10
172.1483208119976
 20
46.01166243480541
 30
0.0
 10
172.2289360463525
 20
45.71090559894309
 30
0.0
 10
172.2289360463525
 20
45.71090559894309
 30
0.0
  0
HATCH
  5
1FF
330
1BF
100
AcDbEntity
  8
_U+30EC_U+30A4_U+30E4_U+30FC 1
 62
     7
100
AcDbHatch
 10
0.0
 20
0.0
 30
0.0
210
0.0
220
0.0
230
1.0
  2
SOLID
 70
     1
 71
     0
 91
        1
 92
        1
 93
        1
 72
     4
 94
        3
 73
     0
 74
     1
 95
       35
 96
       31
 40
0.0
 40
0.0
 40
0.0
 40
0.0
 40
1.0
 40
1.0
 40
1.0
 40
2.0
 40
2.0
 40
2.0
 40
3.0
 40
3.0
 40
3.0
 40
4.0
 40
4.0
 40
4.0
 40
5.0
 40
5.0
 40
5.0
 40
6.0
 40
6.0
 40
6.0
 40
7.0
 40
7.0
 40
7.0
 40
8.0
 40
8.0
 40
8.0
 40
9.0
 40
9.0
 40
9.0
 40
10.0
 40
10.0
 40
10.0
 40
10.0
 10
172.2289360463525
 20
45.71090559894309
 10
172.0718396922251
 20
45.63442447917055
 10
171.766604232232
 20
45.55828786894653
 10
171.3759304042046
 20
45.55828786894653
 10
170.4960530172718
 20
45.55828786894653
 10
169.7867078568589
 20
46.12845117175537
 10
169.7867078568589
 20
47.28669227389637
 10
169.7867078568589
 20
48.39084537691895
 10
170.4736598966177
 20
49.07779741667776
 10
171.4748046446313
 20
49.07779741667776
 10
171.8833929691819
 20
49.07779741667776
 10
172.1214490672127
 20
48.99270355819209
 10
172.2289360463525
 20
48.93861555907367
 10
172.2289360463525
 20
48.93861555907367
 10
172.1304063154743
 20
48.62442285081888
 10
172.1304063154743
 20
48.62442285081888
 10
171.973309961347
 20
48.70090397059143
 10
171.7531683598395
 20
48.76360470842297
 10
171.4837618928929
 20
48.76360470842297
 10
170.7072373705176
 20
48.76360470842297
 10
170.1773816848862
 20
48.2427062710532
 10
170.1773816848862
 20
47.30012814628885
 10
170.1773816848862
 20
46.40233626283274
 10
170.6621066196609
 20
45.87248057720132
 10
171.4613687722388
 20
45.87248057720132
 10
171.7218179909237
 20
45.87248057720132
 10
171.9777885854778
 20
45.93070269090204
 10
172.1483208119976
 20
46.01166243480541
 10
172.1483208119976
 20
46.01166243480541
 10
172.2289360463525
 20
45.71090559894309
 10
172.2289360463525
 20
45.71090559894309
 97
        0
 75
     2
 76
     1
 98
        0
  0
SPLINE
  5
200
330
1BF
100
AcDbEntity
  8
_U+30EC_U+30A4_U+30E4_U+30FC 1
370
     0
100
AcDbSpline
210
0.0
220
0.0
230
1.0
 70
    11
 71
     3
 72
    26
 73
    22
 74
     0
 42
0.0000000001
 43
0.0000000001
 12
1.0
 22
0.0
 32
0.0
 13
1.0
 23
0.0
 33
0.0
 40
0.0
 40
0.0
 40
0.0
 40
0.0
 40
1.0
 40
1.0
 40
1.0
 40
2.0
 40
2.0
 40
2.0
 40
3.0
 40
3.0
 40
3.0
 40
4.0
 40
4.0
 40
4.0
 40
5.0
 40
5.0
 40
5.0
 40
6.0
 40
6.0
 40
6.0
 40
7.0
 40
7.0
 40
7.0
 40
7.0
 10
172.7708495661823
 20
48.98374630993044
 30
0.0
 10
172.9682535374871
 20
49.01957530297704
 30
0.0
 10
173.228702756172
 20
49.05092567189281
 30
0.0
 10
173.5473740885576
 20
49.05092567189281
 30
0.0
 10
174.6518717011287
 20
49.05092567189281
 30
0.0
 10
174.7414441837452
 20
48.34158051147987
 30
0.0
 10
174.7414441837452
 20
48.07217404453333
 30
0.0
 10
174.7414441837452
 20
47.26877777737307
 30
0.0
 10
174.0996228948432
 20
46.98145681390324
 30
0.0
 10
173.4936305989877
 20
46.98145681390324
 30
0.0
 10
173.3634059896453
 20
46.98145681390324
 30
0.0
 10
173.2466172526953
 20
46.98593543803406
 30
0.0
 10
173.1432643881378
 20
47.01280718281901
 30
0.0
 10
173.1432643881378
 20
47.01280718281901
 30
0.0
 10
173.1432643881378
 20
45.6075527343856
 30
0.0
 10
173.1432643881378
 20
45.6075527343856
 30
0.0
 10
173.1432643881378
 20
45.6075527343856
 30
0.0
 10
172.7708495661823
 20
45.6075527343856
 30
0.0
 10
172.7708495661823
 20
45.6075527343856
 30
0.0
 10
172.7708495661823
 20
45.6075527343856
 30
0.0
 10
172.7708495661823
 20
48.98374630993044
 30
0.0
 10
172.7708495661823
 20
48.98374630993044
 30
0.0
  0
SPLINE
  5
201
330
1BF
100
AcDbEntity
  8
_U+30EC_U+30A4_U+30E4_U+30FC 1
370
     0
100
AcDbSpline
210
0.0
220
0.0
230
1.0
 70
    11
 71
     3
 72
    20
 73
    16
 74
     0
 42
0.0000000001
 43
0.0000000001
 12
1.0
 22
0.0
 32
0.0
 13
1.0
 23
0.0
 33
0.0
 40
0.0
 40
0.0
 40
0.0
 40
0.0
 40
1.0
 40
1.0
 40
1.0
 40
2.0
 40
2.0
 40
2.0
 40
3.0
 40
3.0
 40
3.0
 40
4.0
 40
4.0
 40
4.0
 40
5.0
 40
5.0
 40
5.0
 40
5.0
 10
173.1432643881378
 20
47.32252126694297
 30
0.0
 10
173.2376600044336
 20
47.29564952215802
 30
0.0
 10
173.3589273655144
 20
47.28669227389637
 30
0.0
 10
173.5025878472494
 20
47.28669227389637
 30
0.0
 10
174.0410562715939
 20
47.28669227389637
 30
0.0
 10
174.3690293617897
 20
47.55609874084291
 30
0.0
 10
174.3690293617897
 20
48.04530229974839
 30
0.0
 10
174.3690293617897
 20
48.53450585865387
 30
0.0
 10
174.0186631509398
 20
48.7501688360305
 30
0.0
 10
173.5518527126884
 20
48.7501688360305
 30
0.0
 10
173.3634059896453
 20
48.7501688360305
 30
0.0
 10
173.2242241320412
 20
48.7322543395072
 30
0.0
 10
173.1432643881378
 20
48.7143398429839
 30
0.0
 10
173.1432643881378
 20
48.7143398429839
 30
0.0
 10
173.1432643881378
 20
47.32252126694297
 30
0.0
 10
173.1432643881378
 20
47.32252126694297
 30
0.0
  0
HATCH
  5
202
330
1BF
100
AcDbEntity
  8
_U+30EC_U+30A4_U+30E4_U+30FC 1
 62
     7
100
AcDbHatch
 10
0.0
 20
0.0
 30
0.0
210
0.0
220
0.0
230
1.0
  2
SOLID
 70
     1
 71
     0
 91
        2
 92
        1
 93
        1
 72
     4
 94
        3
 73
     0
 74
     1
 95
       26
 96
       22
 40
0.0
 40
0.0
 40
0.0
 40
0.0
 40
1.0
 40
1.0
 40
1.0
 40
2.0
 40
2.0
 40
2.0
 40
3.0
 40
3.0
 40
3.0
 40
4.0
 40
4.0
 40
4.0
 40
5.0
 40
5.0
 40
5.0
 40
6.0
 40
6.0
 40
6.0
 40
7.0
 40
7.0
 40
7.0
 40
7.0
 10
172.7708495661823
 20
48.98374630993044
 10
172.9682535374871
 20
49.01957530297704
 10
173.228702756172
 20
49.05092567189281
 10
173.5473740885576
 20
49.05092567189281
 10
174.6518717011287
 20
49.05092567189281
 10
174.7414441837452
 20
48.34158051147987
 10
174.7414441837452
 20
48.07217404453333
 10
174.7414441837452
 20
47.26877777737307
 10
174.0996228948432
 20
46.98145681390324
 10
173.4936305989877
 20
46.98145681390324
 10
173.3634059896453
 20
46.98145681390324
 10
173.2466172526953
 20
46.98593543803406
 10
173.1432643881378
 20
47.01280718281901
 10
173.1432643881378
 20
47.01280718281901
 10
173.1432643881378
 20
45.6075527343856
 10
173.1432643881378
 20
45.6075527343856
 10
173.1432643881378
 20
45.6075527343856
 10
172.7708495661823
 20
45.6075527343856
 10
172.7708495661823
 20
45.6075527343856
 10
172.7708495661823
 20
45.6075527343856
 10
172.7708495661823
 20
48.98374630993044
 10
172.7708495661823
 20
48.98374630993044
 97
        0
 92
        1
 93
        1
 72
     4
 94
        3
 73
     0
 74
     1
 95
       20
 96
       16
 40
0.0
 40
0.0
 40
0.0
 40
0.0
 40
1.0
 40
1.0
 40
1.0
 40
2.0
 40
2.0
 40
2.0
 40
3.0
 40
3.0
 40
3.0
 40
4.0
 40
4.0
 40
4.0
 40
5.0
 40
5.0
 40
5.0
 40
5.0
 10
173.1432643881378
 20
47.32252126694297
 10
173.2376600044336
 20
47.29564952215802
 10
173.3589273655144
 20
47.28669227389637
 10
173.5025878472494
 20
47.28669227389637
 10
174.0410562715939
 20
47.28669227389637
 10
174.3690293617897
 20
47.55609874084291
 10
174.3690293617897
 20
48.04530229974839
 10
174.3690293617897
 20
48.53450585865387
 10
174.0186631509398
 20
48.7501688360305
 10
173.5518527126884
 20
48.7501688360305
 10
173.3634059896453
 20
48.7501688360305
 10
173.2242241320412
 20
48.7322543395072
 10
173.1432643881378
 20
48.7143398429839
 10
173.1432643881378
 20
48.7143398429839
 10
173.1432643881378
 20
47.32252126694297
 10
173.1432643881378
 20
47.32252126694297
 97
        0
 75
     2
 76
     1
 98
        0
  0
POLYLINE
  5
203
330
1BF
100
AcDbEntity
  8
_U+30EC_U+30A4_U+30E4_U+30FC 1
370
     0
100
AcDb2dPolyline
 66
     1
 10
0.0
 20
0.0
 30
0.0
  0
VERTEX
  5
204
330
203
100
AcDbEntity
  8
_U+30EC_U+30A4_U+30E4_U+30FC 1
370
     0
100
AcDbVertex
100
AcDb2dVertex
 10
175.0997341142112
 20
47.12063867150733
 30
0.0
  0
VERTEX
  5
205
330
203
100
AcDbEntity
  8
_U+30EC_U+30A4_U+30E4_U+30FC 1
370
     0
100
AcDbVertex
100
AcDb2dVertex
 10
176.3254990878631
 20
47.12063867150733
 30
0.0
  0
VERTEX
  5
206
330
203
100
AcDbEntity
  8
_U+30EC_U+30A4_U+30E4_U+30FC 1
370
     0
100
AcDbVertex
100
AcDb2dVertex
 10
176.3254990878631
 20
46.83331770803749
 30
0.0
  0
VERTEX
  5
207
330
203
100
AcDbEntity
  8
_U+30EC_U+30A4_U+30E4_U+30FC 1
370
     0
100
AcDbVertex
100
AcDb2dVertex
 10
175.0997341142112
 20
46.83331770803749
 30
0.0
  0
VERTEX
  5
208
330
203
100
AcDbEntity
  8
_U+30EC_U+30A4_U+30E4_U+30FC 1
370
     0
100
AcDbVertex
100
AcDb2dVertex
 10
175.0997341142112
 20
47.12063867150733
 30
0.0
  0
SEQEND
  5
209
330
203
100
AcDbEntity
  8
_U+30EC_U+30A4_U+30E4_U+30FC 1
370
     0
  0
HATCH
  5
20A
330
1BF
100
AcDbEntity
  8
_U+30EC_U+30A4_U+30E4_U+30FC 1
 62
     7
100
AcDbHatch
 10
0.0
 20
0.0
 30
0.0
210
0.0
220
0.0
230
1.0
  2
SOLID
 70
     1
 71
     0
 91
        1
 92
        1
 93
        4
 72
     1
 10
175.0997341142112
 20
47.12063867150733
 11
176.3254990878631
 21
47.12063867150733
 72
     1
 10
176.3254990878631
 20
47.12063867150733
 11
176.3254990878631
 21
46.83331770803749
 72
     1
 10
176.3254990878631
 20
46.83331770803749
 11
175.0997341142112
 21
46.83331770803749
 72
     1
 10
175.0997341142112
 20
46.83331770803749
 11
175.0997341142112
 21
47.12063867150733
 97
        0
 75
     2
 76
     1
 98
        0
  0
SPLINE
  5
20B
330
1BF
100
AcDbEntity
  8
_U+30EC_U+30A4_U+30E4_U+30FC 1
370
     0
100
AcDbSpline
210
0.0
220
0.0
230
1.0
 70
    11
 71
     3
 72
    17
 73
    13
 74
     0
 42
0.0000000001
 43
0.0000000001
 12
1.0
 22
0.0
 32
0.0
 13
1.0
 23
0.0
 33
0.0
 40
0.0
 40
0.0
 40
0.0
 40
0.0
 40
1.0
 40
1.0
 40
1.0
 40
2.0
 40
2.0
 40
2.0
 40
3.0
 40
3.0
 40
3.0
 40
4.0
 40
4.0
 40
4.0
 40
4.0
 10
176.6565727639956
 20
47.27773502563472
 30
0.0
 10
176.6565727639956
 20
48.45389062429901
 30
0.0
 10
177.1144259539853
 20
49.02405392710786
 30
0.0
 10
177.7431558800434
 20
49.02405392710786
 30
0.0
 10
178.3804985448146
 20
49.02405392710786
 30
0.0
 10
178.7711723728419
 20
48.42254025538324
 30
0.0
 10
178.7711723728419
 20
47.32252126694297
 30
0.0
 10
178.7711723728419
 20
46.15532291654033
 30
0.0
 10
178.3625840482913
 20
45.5538092448157
 30
0.0
 10
177.6935465050558
 20
45.5538092448157
 30
0.0
 10
177.0830755850695
 20
45.5538092448157
 30
0.0
 10
176.6565727639956
 20
46.15532291654033
 30
0.0
 10
176.6565727639956
 20
47.27773502563472
 30
0.0
  0
SPLINE
  5
20C
330
1BF
100
AcDbEntity
  8
_U+30EC_U+30A4_U+30E4_U+30FC 1
370
     0
100
AcDbSpline
210
0.0
220
0.0
230
1.0
 70
    11
 71
     3
 72
    17
 73
    13
 74
     0
 42
0.0000000001
 43
0.0000000001
 12
1.0
 22
0.0
 32
0.0
 13
1.0
 23
0.0
 33
0.0
 40
0.0
 40
0.0
 40
0.0
 40
0.0
 40
1.0
 40
1.0
 40
1.0
 40
2.0
 40
2.0
 40
2.0
 40
3.0
 40
3.0
 40
3.0
 40
4.0
 40
4.0
 40
4.0
 40
4.0
 10
178.3939344172071
 20
47.30460677041967
 30
0.0
 10
178.3939344172071
 20
48.14417654017505
 30
0.0
 10
178.1920518217714
 20
48.72329709124556
 30
0.0
 10
177.7207627593893
 20
48.72329709124556
 30
0.0
 10
177.3211316831003
 20
48.72329709124556
 30
0.0
 10
177.0382893437613
 20
48.1889627814833
 30
0.0
 10
177.0382893437613
 20
47.30460677041967
 30
0.0
 10
177.0382893437613
 20
46.42025075935604
 30
0.0
 10
177.2853026900537
 20
45.85904470480884
 30
0.0
 10
177.7073268869968
 20
45.85904470480884
 30
0.0
 10
178.2054876941639
 20
45.85904470480884
 30
0.0
 10
178.3939344172071
 20
46.50534461784171
 30
0.0
 10
178.3939344172071
 20
47.30460677041967
 30
0.0
  0
HATCH
  5
20D
330
1BF
100
AcDbEntity
  8
_U+30EC_U+30A4_U+30E4_U+30FC 1
 62
     7
100
AcDbHatch
 10
0.0
 20
0.0
 30
0.0
210
0.0
220
0.0
230
1.0
  2
SOLID
 70
     1
 71
     0
 91
        2
 92
        1
 93
        1
 72
     4
 94
        3
 73
     0
 74
     1
 95
       17
 96
       13
 40
0.0
 40
0.0
 40
0.0
 40
0.0
 40
1.0
 40
1.0
 40
1.0
 40
2.0
 40
2.0
 40
2.0
 40
3.0
 40
3.0
 40
3.0
 40
4.0
 40
4.0
 40
4.0
 40
4.0
 10
176.6565727639956
 20
47.27773502563472
 10
176.6565727639956
 20
48.45389062429901
 10
177.1144259539853
 20
49.02405392710786
 10
177.7431558800434
 20
49.02405392710786
 10
178.3804985448146
 20
49.02405392710786
 10
178.7711723728419
 20
48.42254025538324
 10
178.7711723728419
 20
47.32252126694297
 10
178.7711723728419
 20
46.15532291654033
 10
178.3625840482913
 20
45.5538092448157
 10
177.6935465050558
 20
45.5538092448157
 10
177.0830755850695
 20
45.5538092448157
 10
176.6565727639956
 20
46.15532291654033
 10
176.6565727639956
 20
47.27773502563472
 97
        0
 92
        1
 93
        1
 72
     4
 94
        3
 73
     0
 74
     1
 95
       17
 96
       13
 40
0.0
 40
0.0
 40
0.0
 40
0.0
 40
1.0
 40
1.0
 40
1.0
 40
2.0
 40
2.0
 40
2.0
 40
3.0
 40
3.0
 40
3.0
 40
4.0
 40
4.0
 40
4.0
 40
4.0
 10
178.3939344172071
 20
47.30460677041967
 10
178.3939344172071
 20
48.14417654017505
 10
178.1920518217714
 20
48.72329709124556
 10
177.7207627593893
 20
48.72329709124556
 10
177.3211316831003
 20
48.72329709124556
 10
177.0382893437613
 20
48.1889627814833
 10
177.0382893437613
 20
47.30460677041967
 10
177.0382893437613
 20
46.42025075935604
 10
177.2853026900537
 20
45.85904470480884
 10
177.7073268869968
 20
45.85904470480884
 10
178.2054876941639
 20
45.85904470480884
 10
178.3939344172071
 20
46.50534461784171
 10
178.3939344172071
 20
47.30460677041967
 97
        0
 75
     2
 76
     1
 98
        0
  0
SPLINE
  5
20E
330
1BF
100
AcDbEntity
  8
_U+30EC_U+30A4_U+30E4_U+30FC 1
370
     0
100
AcDbSpline
210
0.0
220
0.0
230
1.0
 70
    11
 71
     3
 72
    32
 73
    28
 74
     0
 42
0.0000000001
 43
0.0000000001
 12
1.0
 22
0.0
 32
0.0
 13
1.0
 23
0.0
 33
0.0
 40
0.0
 40
0.0
 40
0.0
 40
0.0
 40
1.0
 40
1.0
 40
1.0
 40
2.0
 40
2.0
 40
2.0
 40
3.0
 40
3.0
 40
3.0
 40
4.0
 40
4.0
 40
4.0
 40
5.0
 40
5.0
 40
5.0
 40
6.0
 40
6.0
 40
6.0
 40
7.0
 40
7.0
 40
7.0
 40
8.0
 40
8.0
 40
8.0
 40
9.0
 40
9.0
 40
9.0
 40
9.0
 10
179.5153129976559
 20
47.38970062890534
 30
0.0
 10
179.6679307276525
 20
47.61432085454363
 30
0.0
 10
179.9418158187298
 20
47.8027675775868
 30
0.0
 10
180.3007947682929
 20
47.8027675775868
 30
0.0
 10
180.8709580711017
 20
47.8027675775868
 30
0.0
 10
181.2526746508674
 20
47.37626475651287
 30
0.0
 10
181.2526746508674
 20
46.72996484348
 30
0.0
 10
181.2526746508674
 20
46.1150152993629
 30
0.0
 10
180.8754366952325
 20
45.5538092448157
 30
0.0
 10
180.220179533938
 20
45.5538092448157
 30
0.0
 10
179.564577863095
 20
45.5538092448157
 30
0.0
 10
179.1246391696286
 20
46.09675629329108
 30
0.0
 10
179.1246391696286
 20
46.96767643196224
 30
0.0
 10
179.1246391696286
 20
47.87029144909769
 30
0.0
 10
179.5466633665717
 20
48.81286957386205
 30
0.0
 10
180.6377251067503
 20
48.99270355819209
 30
0.0
 10
180.7634710919619
 20
49.01061805471539
 30
0.0
 10
180.8754366952325
 20
49.02405392710786
 30
0.0
 10
180.9519178150051
 20
49.02405392710786
 30
0.0
 10
180.9519178150051
 20
49.02405392710786
 30
0.0
 10
180.9563964391359
 20
48.7143398429839
 30
0.0
 10
180.9563964391359
 20
48.7143398429839
 30
0.0
 10
180.0224310530847
 20
48.7143398429839
 30
0.0
 10
179.5780137354874
 20
48.03634505148673
 30
0.0
 10
179.5018771252634
 20
47.38970062890534
 30
0.0
 10
179.5018771252634
 20
47.38970062890534
 30
0.0
 10
179.5153129976559
 20
47.38970062890534
 30
0.0
 10
179.5153129976559
 20
47.38970062890534
 30
0.0
  0
SPLINE
  5
20F
330
1BF
100
AcDbEntity
  8
_U+30EC_U+30A4_U+30E4_U+30FC 1
370
     0
100
AcDbSpline
210
0.0
220
0.0
230
1.0
 70
    11
 71
     3
 72
    17
 73
    13
 74
     0
 42
0.0000000001
 43
0.0000000001
 12
1.0
 22
0.0
 32
0.0
 13
1.0
 23
0.0
 33
0.0
 40
0.0
 40
0.0
 40
0.0
 40
0.0
 40
1.0
 40
1.0
 40
1.0
 40
2.0
 40
2.0
 40
2.0
 40
3.0
 40
3.0
 40
3.0
 40
4.0
 40
4.0
 40
4.0
 40
4.0
 10
180.8754366952325
 20
46.70309309869505
 30
0.0
 10
180.8754366952325
 20
47.21916840238548
 30
0.0
 10
180.5970729800244
 20
47.51992523824779
 30
0.0
 10
180.1933077891531
 20
47.51992523824779
 30
0.0
 10
179.7981553369949
 20
47.51992523824779
 30
0.0
 10
179.4973985011326
 20
47.13407454389981
 30
0.0
 10
179.4973985011326
 20
46.88258257347657
 30
0.0
 10
179.5018771252634
 20
46.26763302935947
 30
0.0
 10
179.7623263439483
 20
45.84560883241637
 30
0.0
 10
180.2291367821997
 20
45.84560883241637
 30
0.0
 10
180.619810610227
 20
45.84560883241637
 30
0.0
 10
180.8754366952325
 20
46.19563053371775
 30
0.0
 10
180.8754366952325
 20
46.70309309869505
 30
0.0
  0
HATCH
  5
210
330
1BF
100
AcDbEntity
  8
_U+30EC_U+30A4_U+30E4_U+30FC 1
 62
     7
100
AcDbHatch
 10
0.0
 20
0.0
 30
0.0
210
0.0
220
0.0
230
1.0
  2
SOLID
 70
     1
 71
     0
 91
        2
 92
        1
 93
        1
 72
     4
 94
        3
 73
     0
 74
     1
 95
       32
 96
       28
 40
0.0
 40
0.0
 40
0.0
 40
0.0
 40
1.0
 40
1.0
 40
1.0
 40
2.0
 40
2.0
 40
2.0
 40
3.0
 40
3.0
 40
3.0
 40
4.0
 40
4.0
 40
4.0
 40
5.0
 40
5.0
 40
5.0
 40
6.0
 40
6.0
 40
6.0
 40
7.0
 40
7.0
 40
7.0
 40
8.0
 40
8.0
 40
8.0
 40
9.0
 40
9.0
 40
9.0
 40
9.0
 10
179.5153129976559
 20
47.38970062890534
 10
179.6679307276525
 20
47.61432085454363
 10
179.9418158187298
 20
47.8027675775868
 10
180.3007947682929
 20
47.8027675775868
 10
180.8709580711017
 20
47.8027675775868
 10
181.2526746508674
 20
47.37626475651287
 10
181.2526746508674
 20
46.72996484348
 10
181.2526746508674
 20
46.1150152993629
 10
180.8754366952325
 20
45.5538092448157
 10
180.220179533938
 20
45.5538092448157
 10
179.564577863095
 20
45.5538092448157
 10
179.1246391696286
 20
46.09675629329108
 10
179.1246391696286
 20
46.96767643196224
 10
179.1246391696286
 20
47.87029144909769
 10
179.5466633665717
 20
48.81286957386205
 10
180.6377251067503
 20
48.99270355819209
 10
180.7634710919619
 20
49.01061805471539
 10
180.8754366952325
 20
49.02405392710786
 10
180.9519178150051
 20
49.02405392710786
 10
180.9519178150051
 20
49.02405392710786
 10
180.9563964391359
 20
48.7143398429839
 10
180.9563964391359
 20
48.7143398429839
 10
180.0224310530847
 20
48.7143398429839
 10
179.5780137354874
 20
48.03634505148673
 10
179.5018771252634
 20
47.38970062890534
 10
179.5018771252634
 20
47.38970062890534
 10
179.5153129976559
 20
47.38970062890534
 10
179.5153129976559
 20
47.38970062890534
 97
        0
 92
        1
 93
        1
 72
     4
 94
        3
 73
     0
 74
     1
 95
       17
 96
       13
 40
0.0
 40
0.0
 40
0.0
 40
0.0
 40
1.0
 40
1.0
 40
1.0
 40
2.0
 40
2.0
 40
2.0
 40
3.0
 40
3.0
 40
3.0
 40
4.0
 40
4.0
 40
4.0
 40
4.0
 10
180.8754366952325
 20
46.70309309869505
 10
180.8754366952325
 20
47.21916840238548
 10
180.5970729800244
 20
47.51992523824779
 10
180.1933077891531
 20
47.51992523824779
 10
179.7981553369949
 20
47.51992523824779
 10
179.4973985011326
 20
47.13407454389981
 10
179.4973985011326
 20
46.88258257347657
 10
179.5018771252634
 20
46.26763302935947
 10
179.7623263439483
 20
45.84560883241637
 10
180.2291367821997
 20
45.84560883241637
 10
180.619810610227
 20
45.84560883241637
 10
180.8754366952325
 20
46.19563053371775
 10
180.8754366952325
 20
46.70309309869505
 97
        0
 75
     2
 76
     1
 98
        0
  0
ENDBLK
  5
1C2
330
1BF
100
AcDbEntity
  8
0
100
AcDbBlockEnd
  0
ENDSEC
  0
SECTION
  2
ENTITIES
  0
INSERT
  5
42
330
1F
100
AcDbEntity
  8
_U+30EC_U+30A4_U+30E4_U+30FC 1
100
AcDbBlockReference
  2
block 2
 10
0.0
 20
0.0
 30
0.0
  0
INSERT
  5
5F
330
1F
100
AcDbEntity
  8
_U+30EC_U+30A4_U+30E4_U+30FC 1
100
AcDbBlockReference
  2
block 3
 10
0.0
 20
0.0
 30
0.0
  0
INSERT
  5
7B
330
1F
100
AcDbEntity
  8
_U+30EC_U+30A4_U+30E4_U+30FC 1
100
AcDbBlockReference
  2
block 4
 10
0.0
 20
0.0
 30
0.0
  0
INSERT
  5
90
330
1F
100
AcDbEntity
  8
_U+30EC_U+30A4_U+30E4_U+30FC 1
100
AcDbBlockReference
  2
block 5
 10
0.0
 20
0.0
 30
0.0
  0
INSERT
  5
E3
330
1F
100
AcDbEntity
  8
_U+30EC_U+30A4_U+30E4_U+30FC 1
100
AcDbBlockReference
  2
block 6
 10
0.0
 20
0.0
 30
0.0
  0
INSERT
  5
133
330
1F
100
AcDbEntity
  8
_U+30EC_U+30A4_U+30E4_U+30FC 1
100
AcDbBlockReference
  2
block 7
 10
0.0
 20
0.0
 30
0.0
  0
INSERT
  5
16D
330
1F
100
AcDbEntity
  8
_U+30EC_U+30A4_U+30E4_U+30FC 1
100
AcDbBlockReference
  2
block 8
 10
0.0
 20
0.0
 30
0.0
  0
INSERT
  5
1C0
330
1F
100
AcDbEntity
  8
_U+30EC_U+30A4_U+30E4_U+30FC 1
100
AcDbBlockReference
  2
block 9
 10
0.0
 20
0.0
 30
0.0
  0
ENDSEC
  0
SECTION
  2
OBJECTS
  0
DICTIONARY
  5
C
330
0
100
AcDbDictionary
281
     1
  3
ACAD_GROUP
350
D
  3
ACAD_LAYOUT
350
1A
  3
ACAD_MATERIAL
350
3B
  3
ACAD_MLEADERSTYLE
350
232
  3
ACAD_MLINESTYLE
350
17
  3
ACAD_PLOTSETTINGS
350
19
  3
ACAD_PLOTSTYLENAME
350
E
  3
ACAD_TABLESTYLE
350
231
  3
ACAD_VISUALSTYLE
350
2A
  0
SUN
  5
3F
330
29
100
AcDbSun
 90
        1
290
     0
 63
     7
421
 16777215
 40
1.0
291
     1
 91
  2455826
 92
 54000000
292
     0
 70
     2
 71
   256
280
     1
  0
DICTIONARY
  5
D
102
{ACAD_REACTORS
330
C
102
}
330
C
100
AcDbDictionary
281
     1
  0
DICTIONARY
  5
1A
102
{ACAD_REACTORS
330
C
102
}
330
C
100
AcDbDictionary
281
     1
  3
Layout1
350
1E
  3
Layout2
350
26
  3
Model
350
22
  0
DICTIONARY
  5
3B
102
{ACAD_REACTORS
330
C
102
}
330
C
100
AcDbDictionary
281
     1
  3
ByBlock
350
3D
  3
ByLayer
350
3C
  3
Global
350
3E
  0
DICTIONARY
  5
232
102
{ACAD_REACTORS
330
C
102
}
330
C
100
AcDbDictionary
281
     1
  0
DICTIONARY
  5
17
102
{ACAD_REACTORS
330
C
102
}
330
C
100
AcDbDictionary
281
     1
  3
Standard
350
18
  0
DICTIONARY
  5
19
102
{ACAD_REACTORS
330
C
102
}
330
C
100
AcDbDictionary
281
     1
  0
ACDBDICTIONARYWDFLT
  5
E
102
{ACAD_REACTORS
330
C
102
}
330
C
100
AcDbDictionary
281
     1
  3
Normal
350
F
100
AcDbDictionaryWithDefault
340
F
  0
DICTIONARY
  5
231
102
{ACAD_REACTORS
330
C
102
}
330
C
100
AcDbDictionary
281
     1
  0
DICTIONARY
  5
2A
102
{ACAD_REACTORS
330
C
102
}
330
C
100
AcDbDictionary
281
     1
  3
2dWireframe
350
2F
  3
3D Hidden
350
31
  3
3dWireframe
350
30
  3
Basic
350
32
  3
Brighten
350
36
  3
ColorChange
350
3A
  3
Conceptual
350
34
  3
Dim
350
35
  3
Facepattern
350
39
  3
Flat
350
2B
  3
FlatWithEdges
350
2C
  3
Gouraud
350
2D
  3
GouraudWithEdges
350
2E
  3
Linepattern
350
38
  3
Realistic
350
33
  3
Thicken
350
37
  0
LAYOUT
  5
1E
102
{ACAD_REACTORS
330
1A
102
}
330
1A
100
AcDbPlotSettings
  1

  2
none_device
  4

  6

 40
0.0
 41
0.0
 42
0.0
 43
0.0
 44
0.0
 45
0.0
 46
0.0
 47
0.0
 48
0.0
 49
0.0
140
0.0
141
0.0
142
1.0
143
1.0
 70
   688
 72
     0
 73
     0
 74
     5
  7

 75
    16
 76
     0
 77
     2
 78
   300
147
1.0
148
0.0
149
0.0
100
AcDbLayout
  1
Layout1
 70
     1
 71
     1
 10
0.0
 20
0.0
 11
12.0
 21
9.0
 12
0.0
 22
0.0
 32
0.0
 14
1.000000000000000E+20
 24
1.000000000000000E+20
 34
1.000000000000000E+20
 15
-1.000000000000000E+20
 25
-1.000000000000000E+20
 35
-1.000000000000000E+20
146
0.0
 13
0.0
 23
0.0
 33
0.0
 16
1.0
 26
0.0
 36
0.0
 17
0.0
 27
1.0
 37
0.0
 76
     0
330
1B
  0
LAYOUT
  5
26
102
{ACAD_REACTORS
330
1A
102
}
330
1A
100
AcDbPlotSettings
  1

  2
none_device
  4

  6

 40
0.0
 41
0.0
 42
0.0
 43
0.0
 44
0.0
 45
0.0
 46
0.0
 47
0.0
 48
0.0
 49
0.0
140
0.0
141
0.0
142
1.0
143
1.0
 70
   688
 72
     0
 73
     0
 74
     5
  7

 75
    16
 76
     0
 77
     2
 78
   300
147
1.0
148
0.0
149
0.0
100
AcDbLayout
  1
Layout2
 70
     1
 71
     2
 10
0.0
 20
0.0
 11
0.0
 21
0.0
 12
0.0
 22
0.0
 32
0.0
 14
0.0
 24
0.0
 34
0.0
 15
0.0
 25
0.0
 35
0.0
146
0.0
 13
0.0
 23
0.0
 33
0.0
 16
1.0
 26
0.0
 36
0.0
 17
0.0
 27
1.0
 37
0.0
 76
     0
330
23
  0
LAYOUT
  5
22
102
{ACAD_REACTORS
330
1A
102
}
330
1A
100
AcDbPlotSettings
  1

  2
none_device
  4

  6

 40
0.0
 41
0.0
 42
0.0
 43
0.0
 44
0.0
 45
0.0
 46
0.0
 47
0.0
 48
0.0
 49
0.0
140
0.0
141
0.0
142
1.0
143
1.0
 70
  1712
 72
     0
 73
     0
 74
     0
  7

 75
     0
 76
     0
 77
     2
 78
   300
147
1.0
148
0.0
149
0.0
100
AcDbLayout
  1
Model
 70
     1
 71
     0
 10
0.0
 20
0.0
 11
12.0
 21
9.0
 12
0.0
 22
0.0
 32
0.0
 14
1.000000000000000E+20
 24
1.000000000000000E+20
 34
1.000000000000000E+20
 15
-1.000000000000000E+20
 25
-1.000000000000000E+20
 35
-1.000000000000000E+20
146
0.0
 13
0.0
 23
0.0
 33
0.0
 16
1.0
 26
0.0
 36
0.0
 17
0.0
 27
1.0
 37
0.0
 76
     0
330
1F
331
29
  0
MATERIAL
  5
3D
102
{ACAD_REACTORS
330
3B
102
}
330
3B
100
AcDbMaterial
  1
ByBlock
 72
     1
 94
      127
  0
MATERIAL
  5
3C
102
{ACAD_REACTORS
330
3B
102
}
330
3B
100
AcDbMaterial
  1
ByLayer
 72
     1
 94
      127
  0
MATERIAL
  5
3E
102
{ACAD_REACTORS
330
3B
102
}
330
3B
100
AcDbMaterial
  1
Global
 72
     1
 94
      127
  0
MLINESTYLE
  5
18
102
{ACAD_REACTORS
330
17
102
}
330
17
100
AcDbMlineStyle
  2
Standard
 70
     0
  3

 62
   256
 51
90.0
 52
90.0
 71
     2
 49
0.5
 62
   256
  6
BYLAYER
 49
-0.5
 62
   256
  6
BYLAYER
  0
ACDBPLACEHOLDER
  5
F
102
{ACAD_REACTORS
330
E
102
}
330
E
  0
VISUALSTYLE
  5
2F
102
{ACAD_REACTORS
330
2A
102
}
102
{ACAD_XDICTIONARY
360
219
102
}
330
2A
100
AcDbVisualStyle
  2
2dWireframe
 70
     4
 71
     0
 72
     2
 73
     0
 90
        0
 40
-0.6
 41
-30.0
 62
     5
 63
     7
421
 16777215
 74
     1
 91
        4
 64
     7
 65
   257
 75
     1
175
     1
 42
1.0
 92
        0
 66
   257
 43
1.0
 76
     1
 77
     6
 78
     2
 67
     7
 79
     5
170
     0
171
     0
290
     0
174
     0
 93
        1
 44
0.0
173
     0
291
     0
 45
0.0
  0
VISUALSTYLE
  5
31
102
{ACAD_REACTORS
330
2A
102
}
102
{ACAD_XDICTIONARY
360
21D
102
}
330
2A
100
AcDbVisualStyle
  2
3D Hidden
 70
     6
 71
     1
 72
     2
 73
     2
 90
        0
 40
-0.6
 41
-30.0
 62
     5
 63
     7
421
 16777215
 74
     2
 91
        2
 64
     7
 65
   257
 75
     2
175
     1
 42
40.0
 92
        0
 66
   257
 43
1.0
 76
     1
 77
     6
 78
     2
 67
     7
 79
     3
170
     0
171
     0
290
     0
174
     0
 93
        1
 44
0.0
173
     0
291
     0
 45
0.0
  0
VISUALSTYLE
  5
30
102
{ACAD_REACTORS
330
2A
102
}
102
{ACAD_XDICTIONARY
360
21B
102
}
330
2A
100
AcDbVisualStyle
  2
3dWireframe
 70
     5
 71
     0
 72
     2
 73
     0
 90
        0
 40
-0.6
 41
-30.0
 62
     5
 63
     7
421
 16777215
 74
     1
 91
        4
 64
     7
 65
   257
 75
     1
175
     1
 42
1.0
 92
        0
 66
   257
 43
1.0
 76
     1
 77
     6
 78
     2
 67
     7
 79
     5
170
     0
171
     0
290
     0
174
     0
 93
        1
 44
0.0
173
     0
291
     0
 45
0.0
  0
VISUALSTYLE
  5
32
102
{ACAD_REACTORS
330
2A
102
}
102
{ACAD_XDICTIONARY
360
21F
102
}
330
2A
100
AcDbVisualStyle
  2
Basic
 70
     7
 71
     1
 72
     0
 73
     1
 90
        0
 40
-0.6
 41
-30.0
 62
     5
 63
     7
421
 16777215
 74
     0
 91
        4
 64
     7
 65
   257
 75
     1
175
     1
 42
1.0
 92
        8
 66
     7
 43
1.0
 76
     1
 77
     6
 78
     2
 67
     7
 79
     5
170
     0
171
     0
290
     0
174
     0
 93
        1
 44
0.0
173
     0
291
     1
 45
0.0
  0
VISUALSTYLE
  5
36
102
{ACAD_REACTORS
330
2A
102
}
102
{ACAD_XDICTIONARY
360
227
102
}
330
2A
100
AcDbVisualStyle
  2
Brighten
 70
    12
 71
     2
 72
     2
 73
     0
 90
        0
 40
-0.6
 41
-30.0
 62
     5
 63
     7
421
 16777215
 74
     1
 91
        4
 64
     7
 65
   257
 75
     1
175
     1
 42
1.0
 92
        8
 66
     7
 43
1.0
 76
     1
 77
     6
 78
     2
 67
     7
 79
     5
170
     0
171
     0
290
     0
174
     0
 93
        1
 44
50.0
173
     0
291
     1
 45
0.0
  0
VISUALSTYLE
  5
3A
102
{ACAD_REACTORS
330
2A
102
}
102
{ACAD_XDICTIONARY
360
22F
102
}
330
2A
100
AcDbVisualStyle
  2
ColorChange
 70
    16
 71
     2
 72
     2
 73
     3
 90
        0
 40
-0.6
 41
-30.0
 62
     5
 63
     8
421
  8421504
 74
     1
 91
        4
 64
     7
 65
   257
 75
     1
175
     1
 42
1.0
 92
        8
 66
     8
424
  8421504
 43
1.0
 76
     1
 77
     6
 78
     2
 67
     7
 79
     5
170
     0
171
     0
290
     0
174
     0
 93
        1
 44
0.0
173
     0
291
     1
 45
0.0
  0
VISUALSTYLE
  5
34
102
{ACAD_REACTORS
330
2A
102
}
102
{ACAD_XDICTIONARY
360
223
102
}
330
2A
100
AcDbVisualStyle
  2
Conceptual
 70
     9
 71
     3
 72
     2
 73
     0
 90
        0
 40
-0.6
 41
-30.0
 62
     5
 63
     7
421
 16777215
 74
     2
 91
        2
 64
     7
 65
   257
 75
     1
175
     1
 42
40.0
 92
        8
 66
     7
 43
1.0
 76
     1
 77
     6
 78
     2
 67
     7
 79
     3
170
     0
171
     0
290
     0
174
     0
 93
        1
 44
0.0
173
     0
291
     0
 45
0.0
  0
VISUALSTYLE
  5
35
102
{ACAD_REACTORS
330
2A
102
}
102
{ACAD_XDICTIONARY
360
225
102
}
330
2A
100
AcDbVisualStyle
  2
Dim
 70
    11
 71
     2
 72
     2
 73
     0
 90
        0
 40
-0.6
 41
-30.0
 62
     5
 63
     7
421
 16777215
 74
     1
 91
        4
 64
     7
 65
   257
 75
     1
175
     1
 42
1.0
 92
        8
 66
     7
 43
1.0
 76
     1
 77
     6
 78
     2
 67
     7
 79
     5
170
     0
171
     0
290
     0
174
     0
 93
        1
 44
-50.0
173
     0
291
     1
 45
0.0
  0
VISUALSTYLE
  5
39
102
{ACAD_REACTORS
330
2A
102
}
102
{ACAD_XDICTIONARY
360
22D
102
}
330
2A
100
AcDbVisualStyle
  2
Facepattern
 70
    15
 71
     2
 72
     2
 73
     0
 90
        0
 40
-0.6
 41
-30.0
 62
     5
 63
     7
421
 16777215
 74
     1
 91
        4
 64
     7
 65
   257
 75
     1
175
     1
 42
1.0
 92
        8
 66
     7
 43
1.0
 76
     1
 77
     6
 78
     2
 67
     7
 79
     5
170
     0
171
     0
290
     0
174
     0
 93
        1
 44
0.0
173
     0
291
     1
 45
0.0
  0
VISUALSTYLE
  5
2B
102
{ACAD_REACTORS
330
2A
102
}
102
{ACAD_XDICTIONARY
360
211
102
}
330
2A
100
AcDbVisualStyle
  2
Flat
 70
     0
 71
     2
 72
     1
 73
     1
 90
        2
 40
-0.6
 41
30.0
 62
     5
 63
     7
421
 16777215
 74
     0
 91
        4
 64
     7
 65
   257
 75
     1
175
     1
 42
1.0
 92
        8
 66
     7
 43
1.0
 76
     1
 77
     6
 78
     2
 67
     7
 79
     5
170
     0
171
     0
290
     0
174
     0
 93
       13
 44
0.0
173
     0
291
     1
 45
0.0
  0
VISUALSTYLE
  5
2C
102
{ACAD_REACTORS
330
2A
102
}
102
{ACAD_XDICTIONARY
360
213
102
}
330
2A
100
AcDbVisualStyle
  2
FlatWithEdges
 70
     1
 71
     2
 72
     1
 73
     1
 90
        2
 40
-0.6
 41
30.0
 62
     5
 63
     7
421
 16777215
 74
     1
 91
        4
 64
     7
 65
   257
 75
     1
175
     1
 42
1.0
 92
        0
 66
   257
 43
1.0
 76
     1
 77
     6
 78
     2
 67
     7
 79
     5
170
     0
171
     0
290
     0
174
     0
 93
       13
 44
0.0
173
     0
291
     1
 45
0.0
  0
VISUALSTYLE
  5
2D
102
{ACAD_REACTORS
330
2A
102
}
102
{ACAD_XDICTIONARY
360
215
102
}
330
2A
100
AcDbVisualStyle
  2
Gouraud
 70
     2
 71
     2
 72
     2
 73
     1
 90
        2
 40
-0.6
 41
30.0
 62
     5
 63
     7
421
 16777215
 74
     0
 91
        4
 64
     7
 65
   257
 75
     1
175
     1
 42
1.0
 92
        0
 66
     7
 43
1.0
 76
     1
 77
     6
 78
     2
 67
     7
 79
     5
170
     0
171
     0
290
     0
174
     0
 93
       13
 44
0.0
173
     0
291
     1
 45
0.0
  0
VISUALSTYLE
  5
2E
102
{ACAD_REACTORS
330
2A
102
}
102
{ACAD_XDICTIONARY
360
217
102
}
330
2A
100
AcDbVisualStyle
  2
GouraudWithEdges
 70
     3
 71
     2
 72
     2
 73
     1
 90
        2
 40
-0.6
 41
30.0
 62
     5
 63
     7
421
 16777215
 74
     1
 91
        4
 64
     7
 65
   257
 75
     1
175
     1
 42
1.0
 92
        0
 66
   257
 43
1.0
 76
     1
 77
     6
 78
     2
 67
     7
 79
     5
170
     0
171
     0
290
     0
174
     0
 93
       13
 44
0.0
173
     0
291
     1
 45
0.0
  0
VISUALSTYLE
  5
38
102
{ACAD_REACTORS
330
2A
102
}
102
{ACAD_XDICTIONARY
360
22B
102
}
330
2A
100
AcDbVisualStyle
  2
Linepattern
 70
    14
 71
     2
 72
     2
 73
     0
 90
        0
 40
-0.6
 41
-30.0
 62
     5
 63
     7
421
 16777215
 74
     1
 91
        4
 64
     7
 65
   257
 75
     7
175
     7
 42
1.0
 92
        8
 66
     7
 43
1.0
 76
     1
 77
     6
 78
     2
 67
     7
 79
     5
170
     0
171
     0
290
     0
174
     0
 93
        1
 44
0.0
173
     0
291
     1
 45
0.0
  0
VISUALSTYLE
  5
33
102
{ACAD_REACTORS
330
2A
102
}
102
{ACAD_XDICTIONARY
360
221
102
}
330
2A
100
AcDbVisualStyle
  2
Realistic
 70
     8
 71
     2
 72
     2
 73
     0
 90
        0
 40
-0.6
 41
-30.0
 62
     5
 63
     7
421
 16777215
 74
     1
 91
        0
 64
     7
 65
   257
 75
     1
175
     1
 42
1.0
 92
        8
 66
     8
424
  7895160
 43
1.0
 76
     1
 77
     6
 78
     2
 67
     7
 79
     5
170
     0
171
     0
290
     0
174
     0
 93
       13
 44
0.0
173
     0
291
     0
 45
0.0
  0
VISUALSTYLE
  5
37
102
{ACAD_REACTORS
330
2A
102
}
102
{ACAD_XDICTIONARY
360
229
102
}
330
2A
100
AcDbVisualStyle
  2
Thicken
 70
    13
 71
     2
 72
     2
 73
     0
 90
        0
 40
-0.6
 41
-30.0
 62
     5
 63
     7
421
 16777215
 74
     1
 91
        4
 64
     7
 65
   257
 75
     1
175
     1
 42
1.0
 92
       12
 66
     7
 43
1.0
 76
     1
 77
     6
 78
     2
 67
     7
 79
     5
170
     0
171
     0
290
     0
174
     0
 93
        1
 44
0.0
173
     0
291
     1
 45
0.0
  0
DICTIONARY
  5
219
330
2F
100
AcDbDictionary
280
     1
281
     1
  3
ACAD_XREC_ROUNDTRIP
360
21A
  0
DICTIONARY
  5
21D
330
31
100
AcDbDictionary
280
     1
281
     1
  3
ACAD_XREC_ROUNDTRIP
360
21E
  0
DICTIONARY
  5
21B
330
30
100
AcDbDictionary
280
     1
281
     1
  3
ACAD_XREC_ROUNDTRIP
360
21C
  0
DICTIONARY
  5
21F
330
32
100
AcDbDictionary
280
     1
281
     1
  3
ACAD_XREC_ROUNDTRIP
360
220
  0
DICTIONARY
  5
227
330
36
100
AcDbDictionary
280
     1
281
     1
  3
ACAD_XREC_ROUNDTRIP
360
228
  0
DICTIONARY
  5
22F
330
3A
100
AcDbDictionary
280
     1
281
     1
  3
ACAD_XREC_ROUNDTRIP
360
230
  0
DICTIONARY
  5
223
330
34
100
AcDbDictionary
280
     1
281
     1
  3
ACAD_XREC_ROUNDTRIP
360
224
  0
DICTIONARY
  5
225
330
35
100
AcDbDictionary
280
     1
281
     1
  3
ACAD_XREC_ROUNDTRIP
360
226
  0
DICTIONARY
  5
22D
330
39
100
AcDbDictionary
280
     1
281
     1
  3
ACAD_XREC_ROUNDTRIP
360
22E
  0
DICTIONARY
  5
211
330
2B
100
AcDbDictionary
280
     1
281
     1
  3
ACAD_XREC_ROUNDTRIP
360
212
  0
DICTIONARY
  5
213
330
2C
100
AcDbDictionary
280
     1
281
     1
  3
ACAD_XREC_ROUNDTRIP
360
214
  0
DICTIONARY
  5
215
330
2D
100
AcDbDictionary
280
     1
281
     1
  3
ACAD_XREC_ROUNDTRIP
360
216
  0
DICTIONARY
  5
217
330
2E
100
AcDbDictionary
280
     1
281
     1
  3
ACAD_XREC_ROUNDTRIP
360
218
  0
DICTIONARY
  5
22B
330
38
100
AcDbDictionary
280
     1
281
     1
  3
ACAD_XREC_ROUNDTRIP
360
22C
  0
DICTIONARY
  5
221
330
33
100
AcDbDictionary
280
     1
281
     1
  3
ACAD_XREC_ROUNDTRIP
360
222
  0
DICTIONARY
  5
229
330
37
100
AcDbDictionary
280
     1
281
     1
  3
ACAD_XREC_ROUNDTRIP
360
22A
  0
XRECORD
  5
21A
102
{ACAD_REACTORS
330
219
102
}
330
219
100
AcDbXrecord
280
     1
102
RTVSPropertyOp0
 70
     1
102
RTVSPropertyOp1
 70
     1
102
RTVSPropertyOp2
 70
     1
102
RTVSPropertyOp3
 70
     1
102
RTVSPropertyOp4
 70
     1
102
RTVSPropertyOp5
 70
     1
102
RTVSPropertyOp6
 70
     1
102
RTVSPropertyOp7
 70
     1
102
RTVSPropertyOp8
 70
     1
102
RTVSPropertyOp9
 70
     1
102
RTVSPropertyOp10
 70
     1
102
RTVSPropertyOp11
 70
     1
102
RTVSPropertyOp12
 70
     1
102
RTVSPropertyOp13
 70
     1
102
RTVSPropertyOp14
 70
     1
102
RTVSPropertyOp15
 70
     1
102
RTVSPropertyOp16
 70
     1
102
RTVSPropertyOp17
 70
     1
102
RTVSPropertyOp18
 70
     1
102
RTVSPropertyOp19
 70
     1
102
RTVSPropertyOp20
 70
     1
102
RTVSPropertyOp21
 70
     1
102
RTVSPropertyOp22
 70
     1
102
RTVSPropertyOp23
 70
     1
102
RTVSPropertyOp24
 70
     1
102
RTVSPropertyOp25
 70
     1
102
RTVSPropertyOp26
 70
     1
102
RTVSPropertyOp27
 70
     1
102
RTVSPropertyOp28
 70
     1
102
RTVSPropertyOp29
 70
     1
102
RTVSPropertyOp30
 70
     1
102
RTVSPropertyOp31
 70
     1
102
RTVSPropertyOp32
 70
     1
  0
XRECORD
  5
21E
102
{ACAD_REACTORS
330
21D
102
}
330
21D
100
AcDbXrecord
280
     1
102
RTVSPropertyOp0
 70
     1
102
RTVSPropertyOp1
 70
     1
102
RTVSPropertyOp2
 70
     1
102
RTVSPropertyOp3
 70
     1
102
RTVSPropertyOp4
 70
     1
102
RTVSPropertyOp5
 70
     1
102
RTVSPropertyOp6
 70
     1
102
RTVSPropertyOp7
 70
     1
102
RTVSPropertyOp8
 70
     1
102
RTVSPropertyOp9
 70
     1
102
RTVSPropertyOp10
 70
     1
102
RTVSPropertyOp11
 70
     1
102
RTVSPropertyOp12
 70
     1
102
RTVSPropertyOp13
 70
     1
102
RTVSPropertyOp14
 70
     1
102
RTVSPropertyOp15
 70
     1
102
RTVSPropertyOp16
 70
     1
102
RTVSPropertyOp17
 70
     1
102
RTVSPropertyOp18
 70
     1
102
RTVSPropertyOp19
 70
     1
102
RTVSPropertyOp20
 70
     1
102
RTVSPropertyOp21
 70
     1
102
RTVSPropertyOp22
 70
     1
102
RTVSPropertyOp23
 70
     1
102
RTVSPropertyOp24
 70
     1
102
RTVSPropertyOp25
 70
     1
102
RTVSPropertyOp26
 70
     1
102
RTVSPropertyOp27
 70
     1
102
RTVSPropertyOp28
 70
     1
102
RTVSPropertyOp29
 70
     1
102
RTVSPropertyOp30
 70
     1
102
RTVSPropertyOp31
 70
     1
102
RTVSPropertyOp32
 70
     1
  0
XRECORD
  5
21C
102
{ACAD_REACTORS
330
21B
102
}
330
21B
100
AcDbXrecord
280
     1
102
RTVSPropertyOp0
 70
     1
102
RTVSPropertyOp1
 70
     1
102
RTVSPropertyOp2
 70
     1
102
RTVSPropertyOp3
 70
     1
102
RTVSPropertyOp4
 70
     1
102
RTVSPropertyOp5
 70
     1
102
RTVSPropertyOp6
 70
     1
102
RTVSPropertyOp7
 70
     1
102
RTVSPropertyOp8
 70
     1
102
RTVSPropertyOp9
 70
     1
102
RTVSPropertyOp10
 70
     1
102
RTVSPropertyOp11
 70
     1
102
RTVSPropertyOp12
 70
     1
102
RTVSPropertyOp13
 70
     1
102
RTVSPropertyOp14
 70
     1
102
RTVSPropertyOp15
 70
     1
102
RTVSPropertyOp16
 70
     1
102
RTVSPropertyOp17
 70
     1
102
RTVSPropertyOp18
 70
     1
102
RTVSPropertyOp19
 70
     1
102
RTVSPropertyOp20
 70
     1
102
RTVSPropertyOp21
 70
     1
102
RTVSPropertyOp22
 70
     1
102
RTVSPropertyOp23
 70
     1
102
RTVSPropertyOp24
 70
     1
102
RTVSPropertyOp25
 70
     1
102
RTVSPropertyOp26
 70
     1
102
RTVSPropertyOp27
 70
     1
102
RTVSPropertyOp28
 70
     1
102
RTVSPropertyOp29
 70
     1
102
RTVSPropertyOp30
 70
     1
102
RTVSPropertyOp31
 70
     1
102
RTVSPropertyOp32
 70
     1
  0
XRECORD
  5
220
102
{ACAD_REACTORS
330
21F
102
}
330
21F
100
AcDbXrecord
280
     1
102
RTVSPropertyOp0
 70
     1
102
RTVSPropertyOp1
 70
     1
102
RTVSPropertyOp2
 70
     1
102
RTVSPropertyOp3
 70
     1
102
RTVSPropertyOp4
 70
     1
102
RTVSPropertyOp5
 70
     1
102
RTVSPropertyOp6
 70
     1
102
RTVSPropertyOp7
 70
     1
102
RTVSPropertyOp8
 70
     1
102
RTVSPropertyOp9
 70
     1
102
RTVSPropertyOp10
 70
     1
102
RTVSPropertyOp11
 70
     1
102
RTVSPropertyOp12
 70
     1
102
RTVSPropertyOp13
 70
     1
102
RTVSPropertyOp14
 70
     1
102
RTVSPropertyOp15
 70
     1
102
RTVSPropertyOp16
 70
     1
102
RTVSPropertyOp17
 70
     1
102
RTVSPropertyOp18
 70
     1
102
RTVSPropertyOp19
 70
     1
102
RTVSPropertyOp20
 70
     1
102
RTVSPropertyOp21
 70
     1
102
RTVSPropertyOp22
 70
     1
102
RTVSPropertyOp23
 70
     1
102
RTVSPropertyOp24
 70
     1
102
RTVSPropertyOp25
 70
     1
102
RTVSPropertyOp26
 70
     1
102
RTVSPropertyOp27
 70
     1
102
RTVSPropertyOp28
 70
     1
102
RTVSPropertyOp29
 70
     1
102
RTVSPropertyOp30
 70
     1
102
RTVSPropertyOp31
 70
     1
102
RTVSPropertyOp32
 70
     1
  0
XRECORD
  5
228
102
{ACAD_REACTORS
330
227
102
}
330
227
100
AcDbXrecord
280
     1
102
RTVSPropertyOp0
 70
     1
102
RTVSPropertyOp1
 70
     1
102
RTVSPropertyOp2
 70
     1
102
RTVSPropertyOp3
 70
     1
102
RTVSPropertyOp4
 70
     1
102
RTVSPropertyOp5
 70
     1
102
RTVSPropertyOp6
 70
     1
102
RTVSPropertyOp7
 70
     1
102
RTVSPropertyOp8
 70
     1
102
RTVSPropertyOp9
 70
     1
102
RTVSPropertyOp10
 70
     1
102
RTVSPropertyOp11
 70
     1
102
RTVSPropertyOp12
 70
     1
102
RTVSPropertyOp13
 70
     1
102
RTVSPropertyOp14
 70
     1
102
RTVSPropertyOp15
 70
     1
102
RTVSPropertyOp16
 70
     1
102
RTVSPropertyOp17
 70
     1
102
RTVSPropertyOp18
 70
     1
102
RTVSPropertyOp19
 70
     1
102
RTVSPropertyOp20
 70
     1
102
RTVSPropertyOp21
 70
     1
102
RTVSPropertyOp22
 70
     1
102
RTVSPropertyOp23
 70
     1
102
RTVSPropertyOp24
 70
     1
102
RTVSPropertyOp25
 70
     1
102
RTVSPropertyOp26
 70
     1
102
RTVSPropertyOp27
 70
     1
102
RTVSPropertyOp28
 70
     1
102
RTVSPropertyOp29
 70
     1
102
RTVSPropertyOp30
 70
     1
102
RTVSPropertyOp31
 70
     1
102
RTVSPropertyOp32
 70
     1
  0
XRECORD
  5
230
102
{ACAD_REACTORS
330
22F
102
}
330
22F
100
AcDbXrecord
280
     1
102
RTVSPropertyOp0
 70
     1
102
RTVSPropertyOp1
 70
     1
102
RTVSPropertyOp2
 70
     1
102
RTVSPropertyOp3
 70
     1
102
RTVSPropertyOp4
 70
     1
102
RTVSPropertyOp5
 70
     1
102
RTVSPropertyOp6
 70
     1
102
RTVSPropertyOp7
 70
     1
102
RTVSPropertyOp8
 70
     1
102
RTVSPropertyOp9
 70
     1
102
RTVSPropertyOp10
 70
     1
102
RTVSPropertyOp11
 70
     1
102
RTVSPropertyOp12
 70
     1
102
RTVSPropertyOp13
 70
     1
102
RTVSPropertyOp14
 70
     1
102
RTVSPropertyOp15
 70
     1
102
RTVSPropertyOp16
 70
     1
102
RTVSPropertyOp17
 70
     1
102
RTVSPropertyOp18
 70
     1
102
RTVSPropertyOp19
 70
     1
102
RTVSPropertyOp20
 70
     1
102
RTVSPropertyOp21
 70
     1
102
RTVSPropertyOp22
 70
     1
102
RTVSPropertyOp23
 70
     1
102
RTVSPropertyOp24
 70
     1
102
RTVSPropertyOp25
 70
     1
102
RTVSPropertyOp26
 70
     1
102
RTVSPropertyOp27
 70
     1
102
RTVSPropertyOp28
 70
     1
102
RTVSPropertyOp29
 70
     1
102
RTVSPropertyOp30
 70
     1
102
RTVSPropertyOp31
 70
     1
102
RTVSPropertyOp32
 70
     1
  0
XRECORD
  5
224
102
{ACAD_REACTORS
330
223
102
}
330
223
100
AcDbXrecord
280
     1
102
RTVSPropertyOp0
 70
     1
102
RTVSPropertyOp1
 70
     1
102
RTVSPropertyOp2
 70
     1
102
RTVSPropertyOp3
 70
     1
102
RTVSPropertyOp4
 70
     1
102
RTVSPropertyOp5
 70
     1
102
RTVSPropertyOp6
 70
     1
102
RTVSPropertyOp7
 70
     1
102
RTVSPropertyOp8
 70
     1
102
RTVSPropertyOp9
 70
     1
102
RTVSPropertyOp10
 70
     1
102
RTVSPropertyOp11
 70
     1
102
RTVSPropertyOp12
 70
     1
102
RTVSPropertyOp13
 70
     1
102
RTVSPropertyOp14
 70
     1
102
RTVSPropertyOp15
 70
     1
102
RTVSPropertyOp16
 70
     1
102
RTVSPropertyOp17
 70
     1
102
RTVSPropertyOp18
 70
     1
102
RTVSPropertyOp19
 70
     1
102
RTVSPropertyOp20
 70
     1
102
RTVSPropertyOp21
 70
     1
102
RTVSPropertyOp22
 70
     1
102
RTVSPropertyOp23
 70
     1
102
RTVSPropertyOp24
 70
     1
102
RTVSPropertyOp25
 70
     1
102
RTVSPropertyOp26
 70
     1
102
RTVSPropertyOp27
 70
     1
102
RTVSPropertyOp28
 70
     1
102
RTVSPropertyOp29
 70
     1
102
RTVSPropertyOp30
 70
     1
102
RTVSPropertyOp31
 70
     1
102
RTVSPropertyOp32
 70
     1
  0
XRECORD
  5
226
102
{ACAD_REACTORS
330
225
102
}
330
225
100
AcDbXrecord
280
     1
102
RTVSPropertyOp0
 70
     1
102
RTVSPropertyOp1
 70
     1
102
RTVSPropertyOp2
 70
     1
102
RTVSPropertyOp3
 70
     1
102
RTVSPropertyOp4
 70
     1
102
RTVSPropertyOp5
 70
     1
102
RTVSPropertyOp6
 70
     1
102
RTVSPropertyOp7
 70
     1
102
RTVSPropertyOp8
 70
     1
102
RTVSPropertyOp9
 70
     1
102
RTVSPropertyOp10
 70
     1
102
RTVSPropertyOp11
 70
     1
102
RTVSPropertyOp12
 70
     1
102
RTVSPropertyOp13
 70
     1
102
RTVSPropertyOp14
 70
     1
102
RTVSPropertyOp15
 70
     1
102
RTVSPropertyOp16
 70
     1
102
RTVSPropertyOp17
 70
     1
102
RTVSPropertyOp18
 70
     1
102
RTVSPropertyOp19
 70
     1
102
RTVSPropertyOp20
 70
     1
102
RTVSPropertyOp21
 70
     1
102
RTVSPropertyOp22
 70
     1
102
RTVSPropertyOp23
 70
     1
102
RTVSPropertyOp24
 70
     1
102
RTVSPropertyOp25
 70
     1
102
RTVSPropertyOp26
 70
     1
102
RTVSPropertyOp27
 70
     1
102
RTVSPropertyOp28
 70
     1
102
RTVSPropertyOp29
 70
     1
102
RTVSPropertyOp30
 70
     1
102
RTVSPropertyOp31
 70
     1
102
RTVSPropertyOp32
 70
     1
  0
XRECORD
  5
22E
102
{ACAD_REACTORS
330
22D
102
}
330
22D
100
AcDbXrecord
280
     1
102
RTVSPropertyOp0
 70
     1
102
RTVSPropertyOp1
 70
     1
102
RTVSPropertyOp2
 70
     1
102
RTVSPropertyOp3
 70
     1
102
RTVSPropertyOp4
 70
     1
102
RTVSPropertyOp5
 70
     1
102
RTVSPropertyOp6
 70
     1
102
RTVSPropertyOp7
 70
     1
102
RTVSPropertyOp8
 70
     1
102
RTVSPropertyOp9
 70
     1
102
RTVSPropertyOp10
 70
     1
102
RTVSPropertyOp11
 70
     1
102
RTVSPropertyOp12
 70
     1
102
RTVSPropertyOp13
 70
     1
102
RTVSPropertyOp14
 70
     1
102
RTVSPropertyOp15
 70
     1
102
RTVSPropertyOp16
 70
     1
102
RTVSPropertyOp17
 70
     1
102
RTVSPropertyOp18
 70
     1
102
RTVSPropertyOp19
 70
     1
102
RTVSPropertyOp20
 70
     1
102
RTVSPropertyOp21
 70
     1
102
RTVSPropertyOp22
 70
     1
102
RTVSPropertyOp23
 70
     1
102
RTVSPropertyOp24
 70
     1
102
RTVSPropertyOp25
 70
     1
102
RTVSPropertyOp26
 70
     1
102
RTVSPropertyOp27
 70
     1
102
RTVSPropertyOp28
 70
     1
102
RTVSPropertyOp29
 70
     1
102
RTVSPropertyOp30
 70
     1
102
RTVSPropertyOp31
 70
     1
102
RTVSPropertyOp32
 70
     1
  0
XRECORD
  5
212
102
{ACAD_REACTORS
330
211
102
}
330
211
100
AcDbXrecord
280
     1
102
RTVSPropertyOp0
 70
     1
102
RTVSPropertyOp1
 70
     1
102
RTVSPropertyOp2
 70
     1
102
RTVSPropertyOp3
 70
     1
102
RTVSPropertyOp4
 70
     1
102
RTVSPropertyOp5
 70
     1
102
RTVSPropertyOp6
 70
     1
102
RTVSPropertyOp7
 70
     1
102
RTVSPropertyOp8
 70
     1
102
RTVSPropertyOp9
 70
     1
102
RTVSPropertyOp10
 70
     1
102
RTVSPropertyOp11
 70
     1
102
RTVSPropertyOp12
 70
     1
102
RTVSPropertyOp13
 70
     1
102
RTVSPropertyOp14
 70
     1
102
RTVSPropertyOp15
 70
     1
102
RTVSPropertyOp16
 70
     1
102
RTVSPropertyOp17
 70
     1
102
RTVSPropertyOp18
 70
     1
102
RTVSPropertyOp19
 70
     1
102
RTVSPropertyOp20
 70
     1
102
RTVSPropertyOp21
 70
     1
102
RTVSPropertyOp22
 70
     1
102
RTVSPropertyOp23
 70
     1
102
RTVSPropertyOp24
 70
     1
102
RTVSPropertyOp25
 70
     1
102
RTVSPropertyOp26
 70
     1
102
RTVSPropertyOp27
 70
     1
102
RTVSPropertyOp28
 70
     1
102
RTVSPropertyOp29
 70
     1
102
RTVSPropertyOp30
 70
     1
102
RTVSPropertyOp31
 70
     1
102
RTVSPropertyOp32
 70
     1
  0
XRECORD
  5
214
102
{ACAD_REACTORS
330
213
102
}
330
213
100
AcDbXrecord
280
     1
102
RTVSPropertyOp0
 70
     1
102
RTVSPropertyOp1
 70
     1
102
RTVSPropertyOp2
 70
     1
102
RTVSPropertyOp3
 70
     1
102
RTVSPropertyOp4
 70
     1
102
RTVSPropertyOp5
 70
     1
102
RTVSPropertyOp6
 70
     1
102
RTVSPropertyOp7
 70
     1
102
RTVSPropertyOp8
 70
     1
102
RTVSPropertyOp9
 70
     1
102
RTVSPropertyOp10
 70
     1
102
RTVSPropertyOp11
 70
     1
102
RTVSPropertyOp12
 70
     1
102
RTVSPropertyOp13
 70
     1
102
RTVSPropertyOp14
 70
     1
102
RTVSPropertyOp15
 70
     1
102
RTVSPropertyOp16
 70
     1
102
RTVSPropertyOp17
 70
     1
102
RTVSPropertyOp18
 70
     1
102
RTVSPropertyOp19
 70
     1
102
RTVSPropertyOp20
 70
     1
102
RTVSPropertyOp21
 70
     1
102
RTVSPropertyOp22
 70
     1
102
RTVSPropertyOp23
 70
     1
102
RTVSPropertyOp24
 70
     1
102
RTVSPropertyOp25
 70
     1
102
RTVSPropertyOp26
 70
     1
102
RTVSPropertyOp27
 70
     1
102
RTVSPropertyOp28
 70
     1
102
RTVSPropertyOp29
 70
     1
102
RTVSPropertyOp30
 70
     1
102
RTVSPropertyOp31
 70
     1
102
RTVSPropertyOp32
 70
     1
  0
XRECORD
  5
216
102
{ACAD_REACTORS
330
215
102
}
330
215
100
AcDbXrecord
280
     1
102
RTVSPropertyOp0
 70
     1
102
RTVSPropertyOp1
 70
     1
102
RTVSPropertyOp2
 70
     1
102
RTVSPropertyOp3
 70
     1
102
RTVSPropertyOp4
 70
     1
102
RTVSPropertyOp5
 70
     1
102
RTVSPropertyOp6
 70
     1
102
RTVSPropertyOp7
 70
     1
102
RTVSPropertyOp8
 70
     1
102
RTVSPropertyOp9
 70
     1
102
RTVSPropertyOp10
 70
     1
102
RTVSPropertyOp11
 70
     1
102
RTVSPropertyOp12
 70
     1
102
RTVSPropertyOp13
 70
     1
102
RTVSPropertyOp14
 70
     1
102
RTVSPropertyOp15
 70
     1
102
RTVSPropertyOp16
 70
     1
102
RTVSPropertyOp17
 70
     1
102
RTVSPropertyOp18
 70
     1
102
RTVSPropertyOp19
 70
     1
102
RTVSPropertyOp20
 70
     1
102
RTVSPropertyOp21
 70
     1
102
RTVSPropertyOp22
 70
     1
102
RTVSPropertyOp23
 70
     1
102
RTVSPropertyOp24
 70
     1
102
RTVSPropertyOp25
 70
     1
102
RTVSPropertyOp26
 70
     1
102
RTVSPropertyOp27
 70
     1
102
RTVSPropertyOp28
 70
     1
102
RTVSPropertyOp29
 70
     1
102
RTVSPropertyOp30
 70
     1
102
RTVSPropertyOp31
 70
     1
102
RTVSPropertyOp32
 70
     1
  0
XRECORD
  5
218
102
{ACAD_REACTORS
330
217
102
}
330
217
100
AcDbXrecord
280
     1
102
RTVSPropertyOp0
 70
     1
102
RTVSPropertyOp1
 70
     1
102
RTVSPropertyOp2
 70
     1
102
RTVSPropertyOp3
 70
     1
102
RTVSPropertyOp4
 70
     1
102
RTVSPropertyOp5
 70
     1
102
RTVSPropertyOp6
 70
     1
102
RTVSPropertyOp7
 70
     1
102
RTVSPropertyOp8
 70
     1
102
RTVSPropertyOp9
 70
     1
102
RTVSPropertyOp10
 70
     1
102
RTVSPropertyOp11
 70
     1
102
RTVSPropertyOp12
 70
     1
102
RTVSPropertyOp13
 70
     1
102
RTVSPropertyOp14
 70
     1
102
RTVSPropertyOp15
 70
     1
102
RTVSPropertyOp16
 70
     1
102
RTVSPropertyOp17
 70
     1
102
RTVSPropertyOp18
 70
     1
102
RTVSPropertyOp19
 70
     1
102
RTVSPropertyOp20
 70
     1
102
RTVSPropertyOp21
 70
     1
102
RTVSPropertyOp22
 70
     1
102
RTVSPropertyOp23
 70
     1
102
RTVSPropertyOp24
 70
     1
102
RTVSPropertyOp25
 70
     1
102
RTVSPropertyOp26
 70
     1
102
RTVSPropertyOp27
 70
     1
102
RTVSPropertyOp28
 70
     1
102
RTVSPropertyOp29
 70
     1
102
RTVSPropertyOp30
 70
     1
102
RTVSPropertyOp31
 70
     1
102
RTVSPropertyOp32
 70
     1
  0
XRECORD
  5
22C
102
{ACAD_REACTORS
330
22B
102
}
330
22B
100
AcDbXrecord
280
     1
102
RTVSPropertyOp0
 70
     1
102
RTVSPropertyOp1
 70
     1
102
RTVSPropertyOp2
 70
     1
102
RTVSPropertyOp3
 70
     1
102
RTVSPropertyOp4
 70
     1
102
RTVSPropertyOp5
 70
     1
102
RTVSPropertyOp6
 70
     1
102
RTVSPropertyOp7
 70
     1
102
RTVSPropertyOp8
 70
     1
102
RTVSPropertyOp9
 70
     1
102
RTVSPropertyOp10
 70
     1
102
RTVSPropertyOp11
 70
     1
102
RTVSPropertyOp12
 70
     1
102
RTVSPropertyOp13
 70
     1
102
RTVSPropertyOp14
 70
     1
102
RTVSPropertyOp15
 70
     1
102
RTVSPropertyOp16
 70
     1
102
RTVSPropertyOp17
 70
     1
102
RTVSPropertyOp18
 70
     1
102
RTVSPropertyOp19
 70
     1
102
RTVSPropertyOp20
 70
     1
102
RTVSPropertyOp21
 70
     1
102
RTVSPropertyOp22
 70
     1
102
RTVSPropertyOp23
 70
     1
102
RTVSPropertyOp24
 70
     1
102
RTVSPropertyOp25
 70
     1
102
RTVSPropertyOp26
 70
     1
102
RTVSPropertyOp27
 70
     1
102
RTVSPropertyOp28
 70
     1
102
RTVSPropertyOp29
 70
     1
102
RTVSPropertyOp30
 70
     1
102
RTVSPropertyOp31
 70
     1
102
RTVSPropertyOp32
 70
     1
  0
XRECORD
  5
222
102
{ACAD_REACTORS
330
221
102
}
330
221
100
AcDbXrecord
280
     1
102
RTVSPropertyOp0
 70
     1
102
RTVSPropertyOp1
 70
     1
102
RTVSPropertyOp2
 70
     1
102
RTVSPropertyOp3
 70
     1
102
RTVSPropertyOp4
 70
     1
102
RTVSPropertyOp5
 70
     1
102
RTVSPropertyOp6
 70
     1
102
RTVSPropertyOp7
 70
     1
102
RTVSPropertyOp8
 70
     1
102
RTVSPropertyOp9
 70
     1
102
RTVSPropertyOp10
 70
     1
102
RTVSPropertyOp11
 70
     1
102
RTVSPropertyOp12
 70
     1
102
RTVSPropertyOp13
 70
     1
102
RTVSPropertyOp14
 70
     1
102
RTVSPropertyOp15
 70
     1
102
RTVSPropertyOp16
 70
     1
102
RTVSPropertyOp17
 70
     1
102
RTVSPropertyOp18
 70
     1
102
RTVSPropertyOp19
 70
     1
102
RTVSPropertyOp20
 70
     1
102
RTVSPropertyOp21
 70
     1
102
RTVSPropertyOp22
 70
     1
102
RTVSPropertyOp23
 70
     1
102
RTVSPropertyOp24
 70
     1
102
RTVSPropertyOp25
 70
     1
102
RTVSPropertyOp26
 70
     1
102
RTVSPropertyOp27
 70
     1
102
RTVSPropertyOp28
 70
     1
102
RTVSPropertyOp29
 70
     1
102
RTVSPropertyOp30
 70
     1
102
RTVSPropertyOp31
 70
     1
102
RTVSPropertyOp32
 70
     1
  0
XRECORD
  5
22A
102
{ACAD_REACTORS
330
229
102
}
330
229
100
AcDbXrecord
280
     1
102
RTVSPropertyOp0
 70
     1
102
RTVSPropertyOp1
 70
     1
102
RTVSPropertyOp2
 70
     1
102
RTVSPropertyOp3
 70
     1
102
RTVSPropertyOp4
 70
     1
102
RTVSPropertyOp5
 70
     1
102
RTVSPropertyOp6
 70
     1
102
RTVSPropertyOp7
 70
     1
102
RTVSPropertyOp8
 70
     1
102
RTVSPropertyOp9
 70
     1
102
RTVSPropertyOp10
 70
     1
102
RTVSPropertyOp11
 70
     1
102
RTVSPropertyOp12
 70
     1
102
RTVSPropertyOp13
 70
     1
102
RTVSPropertyOp14
 70
     1
102
RTVSPropertyOp15
 70
     1
102
RTVSPropertyOp16
 70
     1
102
RTVSPropertyOp17
 70
     1
102
RTVSPropertyOp18
 70
     1
102
RTVSPropertyOp19
 70
     1
102
RTVSPropertyOp20
 70
     1
102
RTVSPropertyOp21
 70
     1
102
RTVSPropertyOp22
 70
     1
102
RTVSPropertyOp23
 70
     1
102
RTVSPropertyOp24
 70
     1
102
RTVSPropertyOp25
 70
     1
102
RTVSPropertyOp26
 70
     1
102
RTVSPropertyOp27
 70
     1
102
RTVSPropertyOp28
 70
     1
102
RTVSPropertyOp29
 70
     1
102
RTVSPropertyOp30
 70
     1
102
RTVSPropertyOp31
 70
     1
102
RTVSPropertyOp32
 70
     1
  0
ENDSEC
  0
EOF
