  0
SECTION
  2
HEADER
  9
$ACADVER
  1
AC1021
  9
$ACADMAINTVER
 70
    25
  9
$DWGCODEPAGE
  3
ANSI_932
  9
$INSBASE
 10
0.0
 20
0.0
 30
0.0
  9
$EXTMIN
 10
1.000000000000000E+20
 20
1.000000000000000E+20
 30
1.000000000000000E+20
  9
$EXTMAX
 10
-1.000000000000000E+20
 20
-1.000000000000000E+20
 30
-1.000000000000000E+20
  9
$LIMMIN
 10
0.0
 20
0.0
  9
$LIMMAX
 10
12.0
 20
9.0
  9
$ORTHOMODE
 70
     0
  9
$REGENMODE
 70
     1
  9
$FILLMODE
 70
     1
  9
$QTEXTMODE
 70
     0
  9
$MIRRTEXT
 70
     1
  9
$LTSCALE
 40
1.0
  9
$ATTMODE
 70
     1
  9
$TEXTSIZE
 40
0.2
  9
$TRACEWID
 40
0.05
  9
$TEXTSTYLE
  7
Standard
  9
$CLAYER
  8
0
  9
$CELTYPE
  6
ByLayer
  9
$CECOLOR
 62
   256
  9
$CELTSCALE
 40
1.0
  9
$DISPSILH
 70
     0
  9
$DIMSCALE
 40
1.0
  9
$DIMASZ
 40
0.18
  9
$DIMEXO
 40
0.0625
  9
$DIMDLI
 40
0.38
  9
$DIMRND
 40
0.0
  9
$DIMDLE
 40
0.0
  9
$DIMEXE
 40
0.18
  9
$DIMTP
 40
0.0
  9
$DIMTM
 40
0.0
  9
$DIMTXT
 40
0.18
  9
$DIMCEN
 40
0.09
  9
$DIMTSZ
 40
0.0
  9
$DIMTOL
 70
     0
  9
$DIMLIM
 70
     0
  9
$DIMTIH
 70
     1
  9
$DIMTOH
 70
     1
  9
$DIMSE1
 70
     0
  9
$DIMSE2
 70
     0
  9
$DIMTAD
 70
     0
  9
$DIMZIN
 70
     0
  9
$DIMBLK
  1

  9
$DIMASO
 70
     1
  9
$DIMSHO
 70
     1
  9
$DIMPOST
  1

  9
$DIMAPOST
  1

  9
$DIMALT
 70
     0
  9
$DIMALTD
 70
     2
  9
$DIMALTF
 40
25.4
  9
$DIMLFAC
 40
1.0
  9
$DIMTOFL
 70
     0
  9
$DIMTVP
 40
0.0
  9
$DIMTIX
 70
     0
  9
$DIMSOXD
 70
     0
  9
$DIMSAH
 70
     0
  9
$DIMBLK1
  1

  9
$DIMBLK2
  1

  9
$DIMSTYLE
  2
Standard
  9
$DIMCLRD
 70
     0
  9
$DIMCLRE
 70
     0
  9
$DIMCLRT
 70
     0
  9
$DIMTFAC
 40
1.0
  9
$DIMGAP
 40
0.09
  9
$DIMJUST
 70
     0
  9
$DIMSD1
 70
     0
  9
$DIMSD2
 70
     0
  9
$DIMTOLJ
 70
     1
  9
$DIMTZIN
 70
     0
  9
$DIMALTZ
 70
     0
  9
$DIMALTTZ
 70
     0
  9
$DIMUPT
 70
     0
  9
$DIMDEC
 70
     4
  9
$DIMTDEC
 70
     4
  9
$DIMALTU
 70
     2
  9
$DIMALTTD
 70
     2
  9
$DIMTXSTY
  7
Standard
  9
$DIMAUNIT
 70
     0
  9
$DIMADEC
 70
     0
  9
$DIMALTRND
 40
0.0
  9
$DIMAZIN
 70
     0
  9
$DIMDSEP
 70
    46
  9
$DIMATFIT
 70
     3
  9
$DIMFRAC
 70
     0
  9
$DIMLDRBLK
  1

  9
$DIMLUNIT
 70
     2
  9
$DIMLWD
 70
    -2
  9
$DIMLWE
 70
    -2
  9
$DIMTMOVE
 70
     0
  9
$DIMFXL
 40
1.0
  9
$DIMFXLON
 70
     0
  9
$DIMJOGANG
 40
0.7853981633974483
  9
$DIMTFILL
 70
     0
  9
$DIMTFILLCLR
 70
     0
  9
$DIMARCSYM
 70
     0
  9
$DIMLTYPE
  6

  9
$DIMLTEX1
  6

  9
$DIMLTEX2
  6

  9
$LUNITS
 70
     2
  9
$LUPREC
 70
     4
  9
$SKETCHINC
 40
0.1
  9
$FILLETRAD
 40
0.5
  9
$AUNITS
 70
     0
  9
$AUPREC
 70
     0
  9
$MENU
  1
.
  9
$ELEVATION
 40
0.0
  9
$PELEVATION
 40
0.0
  9
$THICKNESS
 40
0.0
  9
$LIMCHECK
 70
     0
  9
$CHAMFERA
 40
0.5
  9
$CHAMFERB
 40
0.5
  9
$CHAMFERC
 40
1.0
  9
$CHAMFERD
 40
0.0
  9
$SKPOLY
 70
     0
  9
$TDCREATE
 40
2458514.613654247
  9
$TDUCREATE
 40
2458514.238654247
  9
$TDUPDATE
 40
2458514.613654398
  9
$TDUUPDATE
 40
2458514.238654398
  9
$TDINDWG
 40
0.0000000116
  9
$TDUSRTIMER
 40
0.0000000116
  9
$USRTIMER
 70
     1
  9
$ANGBASE
 50
0.0
  9
$ANGDIR
 70
     0
  9
$PDMODE
 70
     0
  9
$PDSIZE
 40
0.0
  9
$PLINEWID
 40
0.0
  9
$SPLFRAME
 70
     0
  9
$SPLINETYPE
 70
     6
  9
$SPLINESEGS
 70
     8
  9
$HANDSEED
  5
2E2
  9
$SURFTAB1
 70
     6
  9
$SURFTAB2
 70
     6
  9
$SURFTYPE
 70
     6
  9
$SURFU
 70
     6
  9
$SURFV
 70
     6
  9
$UCSBASE
  2

  9
$UCSNAME
  2

  9
$UCSORG
 10
0.0
 20
0.0
 30
0.0
  9
$UCSXDIR
 10
1.0
 20
0.0
 30
0.0
  9
$UCSYDIR
 10
0.0
 20
1.0
 30
0.0
  9
$UCSORTHOREF
  2

  9
$UCSORTHOVIEW
 70
     0
  9
$UCSORGTOP
 10
0.0
 20
0.0
 30
0.0
  9
$UCSORGBOTTOM
 10
0.0
 20
0.0
 30
0.0
  9
$UCSORGLEFT
 10
0.0
 20
0.0
 30
0.0
  9
$UCSORGRIGHT
 10
0.0
 20
0.0
 30
0.0
  9
$UCSORGFRONT
 10
0.0
 20
0.0
 30
0.0
  9
$UCSORGBACK
 10
0.0
 20
0.0
 30
0.0
  9
$PUCSBASE
  2

  9
$PUCSNAME
  2

  9
$PUCSORG
 10
0.0
 20
0.0
 30
0.0
  9
$PUCSXDIR
 10
1.0
 20
0.0
 30
0.0
  9
$PUCSYDIR
 10
0.0
 20
1.0
 30
0.0
  9
$PUCSORTHOREF
  2

  9
$PUCSORTHOVIEW
 70
     0
  9
$PUCSORGTOP
 10
0.0
 20
0.0
 30
0.0
  9
$PUCSORGBOTTOM
 10
0.0
 20
0.0
 30
0.0
  9
$PUCSORGLEFT
 10
0.0
 20
0.0
 30
0.0
  9
$PUCSORGRIGHT
 10
0.0
 20
0.0
 30
0.0
  9
$PUCSORGFRONT
 10
0.0
 20
0.0
 30
0.0
  9
$PUCSORGBACK
 10
0.0
 20
0.0
 30
0.0
  9
$USERI1
 70
     0
  9
$USERI2
 70
     0
  9
$USERI3
 70
     0
  9
$USERI4
 70
     0
  9
$USERI5
 70
     0
  9
$USERR1
 40
0.0
  9
$USERR2
 40
0.0
  9
$USERR3
 40
0.0
  9
$USERR4
 40
0.0
  9
$USERR5
 40
0.0
  9
$WORLDVIEW
 70
     1
  9
$SHADEDGE
 70
     3
  9
$SHADEDIF
 70
    70
  9
$TILEMODE
 70
     1
  9
$MAXACTVP
 70
    64
  9
$PINSBASE
 10
0.0
 20
0.0
 30
0.0
  9
$PLIMCHECK
 70
     0
  9
$PEXTMIN
 10
1.000000000000000E+20
 20
1.000000000000000E+20
 30
1.000000000000000E+20
  9
$PEXTMAX
 10
-1.000000000000000E+20
 20
-1.000000000000000E+20
 30
-1.000000000000000E+20
  9
$PLIMMIN
 10
0.0
 20
0.0
  9
$PLIMMAX
 10
12.0
 20
9.0
  9
$UNITMODE
 70
     0
  9
$VISRETAIN
 70
     1
  9
$PLINEGEN
 70
     0
  9
$PSLTSCALE
 70
     1
  9
$TREEDEPTH
 70
  3020
  9
$CMLSTYLE
  2
Standard
  9
$CMLJUST
 70
     0
  9
$CMLSCALE
 40
1.0
  9
$PROXYGRAPHICS
 70
     1
  9
$MEASUREMENT
 70
     0
  9
$CELWEIGHT
370
    -1
  9
$ENDCAPS
280
     0
  9
$JOINSTYLE
280
     0
  9
$LWDISPLAY
290
     1
  9
$INSUNITS
 70
     1
  9
$HYPERLINKBASE
  1

  9
$STYLESHEET
  1

  9
$XEDIT
290
     1
  9
$CEPSNTYPE
380
     0
  9
$PSTYLEMODE
290
     1
  9
$FINGERPRINTGUID
  2
{F06CF300-468F-407A-916A-C306CF1245B5}
  9
$VERSIONGUID
  2
{FAEB1C32-E019-11D5-929B-00C0DF256EC4}
  9
$EXTNAMES
290
     1
  9
$PSVPSCALE
 40
0.0
  9
$OLESTARTUP
290
     0
  9
$SORTENTS
280
   127
  9
$INDEXCTL
280
     0
  9
$HIDETEXT
280
     1
  9
$XCLIPFRAME
290
     0
  9
$HALOGAP
280
     0
  9
$OBSCOLOR
 70
   257
  9
$OBSLTYPE
280
     0
  9
$INTERSECTIONDISPLAY
280
     0
  9
$INTERSECTIONCOLOR
 70
   257
  9
$DIMASSOC
280
     2
  9
$PROJECTNAME
  1

  9
$CAMERADISPLAY
290
     0
  9
$LENSLENGTH
 40
50.0
  9
$CAMERAHEIGHT
 40
0.0
  9
$STEPSPERSEC
 40
2.0
  9
$STEPSIZE
 40
6.0
  9
$3DDWFPREC
 40
2.0
  9
$PSOLWIDTH
 40
0.25
  9
$PSOLHEIGHT
 40
4.0
  9
$LOFTANG1
 40
1.570796326794897
  9
$LOFTANG2
 40
1.570796326794897
  9
$LOFTMAG1
 40
0.0
  9
$LOFTMAG2
 40
0.0
  9
$LOFTPARAM
 70
     7
  9
$LOFTNORMALS
280
     1
  9
$LATITUDE
 40
37.795
  9
$LONGITUDE
 40
-122.394
  9
$NORTHDIRECTION
 40
0.0
  9
$TIMEZONE
 70
 -8000
  9
$LIGHTGLYPHDISPLAY
280
     1
  9
$TILEMODELIGHTSYNCH
280
     1
  9
$CMATERIAL
347
3C
  9
$SOLIDHIST
280
     1
  9
$SHOWHIST
280
     1
  9
$DWFFRAME
280
     2
  9
$DGNFRAME
280
     2
  9
$REALWORLDSCALE
290
     1
  9
$INTERFERECOLOR
 62
   256
  9
$CSHADOW
280
     0
  9
$SHADOWPLANELOCATION
 40
0.0
  0
ENDSEC
  0
SECTION
  2
CLASSES
  0
CLASS
  1
ACDBDICTIONARYWDFLT
  2
AcDbDictionaryWithDefault
  3
ObjectDBX Classes
 90
        0
 91
        4
280
     0
281
     0
  0
CLASS
  1
VISUALSTYLE
  2
AcDbVisualStyle
  3
ObjectDBX Classes
 90
     4095
 91
        4
280
     0
281
     0
  0
CLASS
  1
MATERIAL
  2
AcDbMaterial
  3
ObjectDBX Classes
 90
     1153
 91
        4
280
     0
281
     0
  0
CLASS
  1
SUN
  2
AcDbSun
  3
SCENEOE
 90
     1024
 91
        4
280
     0
281
     0
  0
ENDSEC
  0
SECTION
  2
TABLES
  0
TABLE
  2
VPORT
  5
8
330
0
100
AcDbSymbolTable
 70
     1
  0
VPORT
  5
29
330
8
100
AcDbSymbolTableRecord
100
AcDbViewportTableRecord
  2
*Active
 70
     0
 10
0.0
 20
0.0
 11
1.0
 21
1.0
 12
0.0
 22
0.0
 13
0.0
 23
0.0
 14
0.5
 24
0.5
 15
0.5
 25
0.5
 16
0.0
 26
0.0
 36
1.0
 17
148.3916656437123
 27
104.8915941359208
 37
0.0
 40
297.0000052006764
 41
0.7070706878738762
 42
50.0
 43
0.0
 44
0.0
 50
0.0
 51
0.0
 71
     0
 72
   100
 73
     1
 74
     3
 75
     0
 76
     0
 77
     0
 78
     0
281
     0
 65
     1
110
0.0
120
0.0
130
0.0
111
1.0
121
0.0
131
0.0
112
0.0
122
1.0
132
0.0
 79
     0
146
0.0
 60
     3
 61
     5
292
     1
282
     1
141
0.0
142
0.0
 63
   250
361
3F
  0
ENDTAB
  0
TABLE
  2
LTYPE
  5
5
330
0
100
AcDbSymbolTable
 70
     1
  0
LTYPE
  5
14
330
5
100
AcDbSymbolTableRecord
100
AcDbLinetypeTableRecord
  2
ByBlock
 70
     0
  3

 72
    65
 73
     0
 40
0.0
  0
LTYPE
  5
15
330
5
100
AcDbSymbolTableRecord
100
AcDbLinetypeTableRecord
  2
ByLayer
 70
     0
  3

 72
    65
 73
     0
 40
0.0
  0
LTYPE
  5
16
330
5
100
AcDbSymbolTableRecord
100
AcDbLinetypeTableRecord
  2
Continuous
 70
     0
  3
Solid line
 72
    65
 73
     0
 40
0.0
  0
ENDTAB
  0
TABLE
  2
LAYER
  5
2
330
0
100
AcDbSymbolTable
 70
     2
  0
LAYER
  5
10
330
2
100
AcDbSymbolTableRecord
100
AcDbLayerTableRecord
  2
0
 70
     0
 62
     7
  6
Continuous
370
    -3
390
F
347
3E
  0
LAYER
  5
40
330
2
100
AcDbSymbolTableRecord
100
AcDbLayerTableRecord
  2
_U+30EC_U+30A4_U+30E4_U+30FC 1
 70
     0
 62
     7
  6
Continuous
370
    -3
390
F
347
3E
  0
ENDTAB
  0
TABLE
  2
STYLE
  5
3
330
0
100
AcDbSymbolTable
 70
     1
  0
STYLE
  5
11
330
3
100
AcDbSymbolTableRecord
100
AcDbTextStyleTableRecord
  2
Standard
 70
     0
 40
0.0
 41
1.0
 50
0.0
 71
     0
 42
0.2
  3
txt
  4

  0
ENDTAB
  0
TABLE
  2
VIEW
  5
6
330
0
100
AcDbSymbolTable
 70
     0
  0
ENDTAB
  0
TABLE
  2
UCS
  5
7
330
0
100
AcDbSymbolTable
 70
     0
  0
ENDTAB
  0
TABLE
  2
APPID
  5
9
330
0
100
AcDbSymbolTable
 70
     1
  0
APPID
  5
12
330
9
100
AcDbSymbolTableRecord
100
AcDbRegAppTableRecord
  2
ACAD
 70
     0
  0
ENDTAB
  0
TABLE
  2
DIMSTYLE
  5
A
330
0
100
AcDbSymbolTable
 70
     1
100
AcDbDimStyleTable
  0
DIMSTYLE
105
27
330
A
100
AcDbSymbolTableRecord
100
AcDbDimStyleTableRecord
  2
Standard
 70
     0
178
     0
340
11
  0
ENDTAB
  0
TABLE
  2
BLOCK_RECORD
  5
1
330
0
100
AcDbSymbolTable
 70
     3
  0
BLOCK_RECORD
  5
1F
330
1
100
AcDbSymbolTableRecord
100
AcDbBlockTableRecord
  2
*Model_Space
340
22
 70
     0
280
     1
281
     0
  0
BLOCK_RECORD
  5
1B
330
1
100
AcDbSymbolTableRecord
100
AcDbBlockTableRecord
  2
*Paper_Space
340
1E
 70
     0
280
     1
281
     0
  0
BLOCK_RECORD
  5
23
330
1
100
AcDbSymbolTableRecord
100
AcDbBlockTableRecord
  2
*Paper_Space0
340
26
 70
     0
280
     1
281
     0
  0
BLOCK_RECORD
  5
41
330
1
100
AcDbSymbolTableRecord
100
AcDbBlockTableRecord
  2
block 2
340
0
102
{BLKREFS
331
42
102
}
 70
     0
280
     1
281
     0
  0
BLOCK_RECORD
  5
23C
330
1
100
AcDbSymbolTableRecord
100
AcDbBlockTableRecord
  2
block 3
340
0
102
{BLKREFS
331
23D
102
}
 70
     0
280
     1
281
     0
  0
ENDTAB
  0
ENDSEC
  0
SECTION
  2
BLOCKS
  0
BLOCK
  5
20
330
1F
100
AcDbEntity
  8
0
100
AcDbBlockBegin
  2
*Model_Space
 70
     0
 10
0.0
 20
0.0
 30
0.0
  3
*Model_Space
  1

  0
ENDBLK
  5
21
330
1F
100
AcDbEntity
  8
0
100
AcDbBlockEnd
  0
BLOCK
  5
1C
330
1B
100
AcDbEntity
 67
     1
  8
0
100
AcDbBlockBegin
  2
*Paper_Space
 70
     0
 10
0.0
 20
0.0
 30
0.0
  3
*Paper_Space
  1

  0
ENDBLK
  5
1D
330
1B
100
AcDbEntity
 67
     1
  8
0
100
AcDbBlockEnd
  0
BLOCK
  5
24
330
23
100
AcDbEntity
  8
0
100
AcDbBlockBegin
  2
*Paper_Space0
 70
     0
 10
0.0
 20
0.0
 30
0.0
  3
*Paper_Space0
  1

  0
ENDBLK
  5
25
330
23
100
AcDbEntity
  8
0
100
AcDbBlockEnd
  0
BLOCK
  5
43
330
41
100
AcDbEntity
  8
0
100
AcDbBlockBegin
  2
block 2
 70
     0
 10
0.0
 20
0.0
 30
0.0
  3
block 2
  1

  0
SPLINE
  5
45
330
41
100
AcDbEntity
  8
_U+30EC_U+30A4_U+30E4_U+30FC 1
 62
     7
370
     5
100
AcDbSpline
210
0.0
220
0.0
230
1.0
 70
    11
 71
     3
 72
   467
 73
   463
 74
     0
 42
0.0000000001
 43
0.0000000001
 12
1.0
 22
0.0
 32
0.0
 13
1.0
 23
0.0
 33
0.0
 40
0.0
 40
0.0
 40
0.0
 40
0.0
 40
1.0
 40
1.0
 40
1.0
 40
2.0
 40
2.0
 40
2.0
 40
3.0
 40
3.0
 40
3.0
 40
4.0
 40
4.0
 40
4.0
 40
5.0
 40
5.0
 40
5.0
 40
6.0
 40
6.0
 40
6.0
 40
7.0
 40
7.0
 40
7.0
 40
8.0
 40
8.0
 40
8.0
 40
9.0
 40
9.0
 40
9.0
 40
10.0
 40
10.0
 40
10.0
 40
11.0
 40
11.0
 40
11.0
 40
12.0
 40
12.0
 40
12.0
 40
13.0
 40
13.0
 40
13.0
 40
14.0
 40
14.0
 40
14.0
 40
15.0
 40
15.0
 40
15.0
 40
16.0
 40
16.0
 40
16.0
 40
17.0
 40
17.0
 40
17.0
 40
18.0
 40
18.0
 40
18.0
 40
19.0
 40
19.0
 40
19.0
 40
20.0
 40
20.0
 40
20.0
 40
21.0
 40
21.0
 40
21.0
 40
22.0
 40
22.0
 40
22.0
 40
23.0
 40
23.0
 40
23.0
 40
24.0
 40
24.0
 40
24.0
 40
25.0
 40
25.0
 40
25.0
 40
26.0
 40
26.0
 40
26.0
 40
27.0
 40
27.0
 40
27.0
 40
28.0
 40
28.0
 40
28.0
 40
29.0
 40
29.0
 40
29.0
 40
30.0
 40
30.0
 40
30.0
 40
31.0
 40
31.0
 40
31.0
 40
32.0
 40
32.0
 40
32.0
 40
33.0
 40
33.0
 40
33.0
 40
34.0
 40
34.0
 40
34.0
 40
35.0
 40
35.0
 40
35.0
 40
36.0
 40
36.0
 40
36.0
 40
37.0
 40
37.0
 40
37.0
 40
38.0
 40
38.0
 40
38.0
 40
39.0
 40
39.0
 40
39.0
 40
40.0
 40
40.0
 40
40.0
 40
41.0
 40
41.0
 40
41.0
 40
42.0
 40
42.0
 40
42.0
 40
43.0
 40
43.0
 40
43.0
 40
44.0
 40
44.0
 40
44.0
 40
45.0
 40
45.0
 40
45.0
 40
46.0
 40
46.0
 40
46.0
 40
47.0
 40
47.0
 40
47.0
 40
48.0
 40
48.0
 40
48.0
 40
49.0
 40
49.0
 40
49.0
 40
50.0
 40
50.0
 40
50.0
 40
51.0
 40
51.0
 40
51.0
 40
52.0
 40
52.0
 40
52.0
 40
53.0
 40
53.0
 40
53.0
 40
54.0
 40
54.0
 40
54.0
 40
55.0
 40
55.0
 40
55.0
 40
56.0
 40
56.0
 40
56.0
 40
57.0
 40
57.0
 40
57.0
 40
58.0
 40
58.0
 40
58.0
 40
59.0
 40
59.0
 40
59.0
 40
60.0
 40
60.0
 40
60.0
 40
61.0
 40
61.0
 40
61.0
 40
62.0
 40
62.0
 40
62.0
 40
63.0
 40
63.0
 40
63.0
 40
64.0
 40
64.0
 40
64.0
 40
65.0
 40
65.0
 40
65.0
 40
66.0
 40
66.0
 40
66.0
 40
67.0
 40
67.0
 40
67.0
 40
68.0
 40
68.0
 40
68.0
 40
69.0
 40
69.0
 40
69.0
 40
70.0
 40
70.0
 40
70.0
 40
71.0
 40
71.0
 40
71.0
 40
72.0
 40
72.0
 40
72.0
 40
73.0
 40
73.0
 40
73.0
 40
74.0
 40
74.0
 40
74.0
 40
75.0
 40
75.0
 40
75.0
 40
76.0
 40
76.0
 40
76.0
 40
77.0
 40
77.0
 40
77.0
 40
78.0
 40
78.0
 40
78.0
 40
79.0
 40
79.0
 40
79.0
 40
80.0
 40
80.0
 40
80.0
 40
81.0
 40
81.0
 40
81.0
 40
82.0
 40
82.0
 40
82.0
 40
83.0
 40
83.0
 40
83.0
 40
84.0
 40
84.0
 40
84.0
 40
85.0
 40
85.0
 40
85.0
 40
86.0
 40
86.0
 40
86.0
 40
87.0
 40
87.0
 40
87.0
 40
88.0
 40
88.0
 40
88.0
 40
89.0
 40
89.0
 40
89.0
 40
90.0
 40
90.0
 40
90.0
 40
91.0
 40
91.0
 40
91.0
 40
92.0
 40
92.0
 40
92.0
 40
93.0
 40
93.0
 40
93.0
 40
94.0
 40
94.0
 40
94.0
 40
95.0
 40
95.0
 40
95.0
 40
96.0
 40
96.0
 40
96.0
 40
97.0
 40
97.0
 40
97.0
 40
98.0
 40
98.0
 40
98.0
 40
99.0
 40
99.0
 40
99.0
 40
100.0
 40
100.0
 40
100.0
 40
101.0
 40
101.0
 40
101.0
 40
102.0
 40
102.0
 40
102.0
 40
103.0
 40
103.0
 40
103.0
 40
104.0
 40
104.0
 40
104.0
 40
105.0
 40
105.0
 40
105.0
 40
106.0
 40
106.0
 40
106.0
 40
107.0
 40
107.0
 40
107.0
 40
108.0
 40
108.0
 40
108.0
 40
109.0
 40
109.0
 40
109.0
 40
110.0
 40
110.0
 40
110.0
 40
111.0
 40
111.0
 40
111.0
 40
112.0
 40
112.0
 40
112.0
 40
113.0
 40
113.0
 40
113.0
 40
114.0
 40
114.0
 40
114.0
 40
115.0
 40
115.0
 40
115.0
 40
116.0
 40
116.0
 40
116.0
 40
117.0
 40
117.0
 40
117.0
 40
118.0
 40
118.0
 40
118.0
 40
119.0
 40
119.0
 40
119.0
 40
120.0
 40
120.0
 40
120.0
 40
121.0
 40
121.0
 40
121.0
 40
122.0
 40
122.0
 40
122.0
 40
123.0
 40
123.0
 40
123.0
 40
124.0
 40
124.0
 40
124.0
 40
125.0
 40
125.0
 40
125.0
 40
126.0
 40
126.0
 40
126.0
 40
127.0
 40
127.0
 40
127.0
 40
128.0
 40
128.0
 40
128.0
 40
129.0
 40
129.0
 40
129.0
 40
130.0
 40
130.0
 40
130.0
 40
131.0
 40
131.0
 40
131.0
 40
132.0
 40
132.0
 40
132.0
 40
133.0
 40
133.0
 40
133.0
 40
134.0
 40
134.0
 40
134.0
 40
135.0
 40
135.0
 40
135.0
 40
136.0
 40
136.0
 40
136.0
 40
137.0
 40
137.0
 40
137.0
 40
138.0
 40
138.0
 40
138.0
 40
139.0
 40
139.0
 40
139.0
 40
140.0
 40
140.0
 40
140.0
 40
141.0
 40
141.0
 40
141.0
 40
142.0
 40
142.0
 40
142.0
 40
143.0
 40
143.0
 40
143.0
 40
144.0
 40
144.0
 40
144.0
 40
145.0
 40
145.0
 40
145.0
 40
146.0
 40
146.0
 40
146.0
 40
147.0
 40
147.0
 40
147.0
 40
148.0
 40
148.0
 40
148.0
 40
149.0
 40
149.0
 40
149.0
 40
150.0
 40
150.0
 40
150.0
 40
151.0
 40
151.0
 40
151.0
 40
152.0
 40
152.0
 40
152.0
 40
153.0
 40
153.0
 40
153.0
 40
154.0
 40
154.0
 40
154.0
 40
154.0
 10
192.5046900887962
 20
78.7834602122887
 30
0.0
 10
192.5046900887962
 20
78.7834602122887
 30
0.0
 10
189.2132382283237
 20
95.28478145797159
 30
0.0
 10
189.2132382283237
 20
95.28478145797159
 30
0.0
 10
189.2132382283237
 20
95.28478145797159
 30
0.0
 10
179.2252221774162
 20
97.03353613557937
 30
0.0
 10
179.2252221774162
 20
97.03353613557937
 30
0.0
 10
179.2252221774162
 20
97.03353613557937
 30
0.0
 10
180.3021776223304
 20
99.05371802848468
 30
0.0
 10
180.3021776223304
 20
99.05371802848468
 30
0.0
 10
180.3021776223304
 20
99.05371802848468
 30
0.0
 10
164.8453960722213
 20
119.2045958477263
 30
0.0
 10
164.8453960722213
 20
119.2045958477263
 30
0.0
 10
164.8453960722213
 20
119.2045958477263
 30
0.0
 10
156.4297412869226
 20
103.42519902807
 30
0.0
 10
156.4297412869226
 20
103.42519902807
 30
0.0
 10
156.4297412869226
 20
103.42519902807
 30
0.0
 10
165.8803049347075
 20
91.10588184236198
 30
0.0
 10
165.8803049347075
 20
91.10588184236198
 30
0.0
 10
165.8803049347075
 20
91.10588184236198
 30
0.0
 10
151.6975450187621
 20
99.31382107740446
 30
0.0
 10
151.6975450187621
 20
99.31382107740446
 30
0.0
 10
151.8043308493711
 20
99.35068886405115
 30
0.0
 10
151.9083650133836
 20
99.39824079747295
 30
0.0
 10
152.003477739777
 20
99.46576246241699
 30
0.0
 10
152.5849927738992
 20
99.86090884122486
 30
0.0
 10
152.8764577664633
 20
100.7783427067081
 30
0.0
 10
152.8778335997615
 20
102.2187343366273
 30
0.0
 10
152.8778335997615
 20
102.2187343366273
 30
0.0
 10
152.8833369329545
 20
107.7060866966332
 30
0.0
 10
152.8833369329545
 20
107.7060866966332
 30
0.0
 10
152.884042488492
 20
108.4614191773631
 30
0.0
 10
153.1362080376143
 20
108.6936175047726
 30
0.0
 10
153.6405744136357
 20
108.4018350122166
 30
0.0
 10
153.6405744136357
 20
108.4018350122166
 30
0.0
 10
153.8583088525253
 20
108.2757169598786
 30
0.0
 10
153.8583088525253
 20
108.2757169598786
 30
0.0
 10
153.8583088525253
 20
108.2757169598786
 30
0.0
 10
153.858979130286
 20
109.2320974910348
 30
0.0
 10
153.858979130286
 20
109.2320974910348
 30
0.0
 10
153.858979130286
 20
109.2320974910348
 30
0.0
 10
151.142872532913
 20
110.8037577287162
 30
0.0
 10
151.142872532913
 20
110.8037577287162
 30
0.0
 10
151.142872532913
 20
110.8037577287162
 30
0.0
 10
151.1422022551523
 20
109.8475535864443
 30
0.0
 10
151.1422022551523
 20
109.8475535864443
 30
0.0
 10
151.1422022551523
 20
109.8475535864443
 30
0.0
 10
151.3599366940419
 20
109.7214708118832
 30
0.0
 10
151.3599366940419
 20
109.7214708118832
 30
0.0
 10
151.8725580698527
 20
109.4251727638868
 30
0.0
 10
152.128180841109
 20
108.8989341662012
 30
0.0
 10
152.1268050078108
 20
108.1436016854713
 30
0.0
 10
152.1268050078108
 20
108.1436016854713
 30
0.0
 10
152.1219719523785
 20
102.8688332089308
 30
0.0
 10
152.1219719523785
 20
102.8688332089308
 30
0.0
 10
152.12059996197
 20
101.7471083078964
 30
0.0
 10
151.9745108450294
 20
101.0284621447714
 30
0.0
 10
151.6837514080029
 20
100.7129024305998
 30
0.0
 10
151.4019525263033
 20
100.3921568832271
 30
0.0
 10
150.8975861502819
 20
100.4421102152861
 30
0.0
 10
150.1720633910137
 20
100.862056871239
 30
0.0
 10
149.0014056431019
 20
101.5390021317465
 30
0.0
 10
148.417805380213
 20
102.7861420999293
 30
0.0
 10
148.4191812135112
 20
104.6037589980024
 30
0.0
 10
148.4191812135112
 20
104.6037589980024
 30
0.0
 10
148.4253901022417
 20
110.463188861273
 30
0.0
 10
148.4253901022417
 20
110.463188861273
 30
0.0
 10
148.4260956577793
 20
111.2185185514681
 30
0.0
 10
148.6913492621232
 20
111.4433085457332
 30
0.0
 10
149.2205159152897
 20
111.1368857757729
 30
0.0
 10
149.2205159152897
 20
111.1368857757729
 30
0.0
 10
149.4003620218126
 20
111.0331691117523
 30
0.0
 10
149.4003620218126
 20
111.0331691117523
 30
0.0
 10
149.4003620218126
 20
111.0331691117523
 30
0.0
 10
149.4010360737608
 20
111.9890204762554
 30
0.0
 10
149.4010360737608
 20
111.9890204762554
 30
0.0
 10
149.4010360737608
 20
111.9890204762554
 30
0.0
 10
146.0827340508967
 20
113.9093309828198
 30
0.0
 10
146.0827340508967
 20
113.9093309828198
 30
0.0
 10
146.0827340508967
 20
113.9093309828198
 30
0.0
 10
146.0820284953592
 20
112.9533032294323
 30
0.0
 10
146.0820284953592
 20
112.9533032294323
 30
0.0
 10
146.0820284953592
 20
112.9533032294323
 30
0.0
 10
146.2997666300916
 20
112.8273968437555
 30
0.0
 10
146.2997666300916
 20
112.8273968437555
 30
0.0
 10
146.8034237547326
 20
112.5361110829771
 30
0.0
 10
147.0556245816318
 20
112.0119510312259
 30
0.0
 10
147.0546015261023
 20
111.2565860832968
 30
0.0
 10
147.0546015261023
 20
111.2565860832968
 30
0.0
 10
147.0487454151406
 20
105.5563295292559
 30
0.0
 10
147.0487454151406
 20
105.5563295292559
 30
0.0
 10
147.0473343040655
 20
103.8479326283963
 30
0.0
 10
147.4218431833999
 20
102.4492040529697
 30
0.0
 10
148.1697673309854
 20
101.3557340808665
 30
0.0
 10
148.1697673309854
 20
101.3557340808665
 30
0.0
 10
142.1063994301193
 20
104.864214824691
 30
0.0
 10
142.1063994301193
 20
104.864214824691
 30
0.0
 10
142.1063994301193
 20
104.864214824691
 30
0.0
 10
142.5852599734581
 20
107.7322628070766
 30
0.0
 10
142.5852599734581
 20
107.7322628070766
 30
0.0
 10
142.5852599734581
 20
107.7322628070766
 30
0.0
 10
141.8934980466619
 20
108.1324186302011
 30
0.0
 10
141.8934980466619
 20
108.1324186302011
 30
0.0
 10
141.5934252765397
 20
107.4203014261465
 30
0.0
 10
141.315401116966
 20
106.9615844934049
 30
0.0
 10
141.0584025124114
 20
106.7555975542156
 30
0.0
 10
140.6739100222207
 20
106.4822300611898
 30
0.0
 10
140.1564555909776
 20
106.5333828376625
 30
0.0
 10
139.5074150519804
 20
106.9090558836339
 30
0.0
 10
139.5074150519804
 20
106.9090558836339
 30
0.0
 10
137.9316273144044
 20
107.8209864159241
 30
0.0
 10
137.9316273144044
 20
107.8209864159241
 30
0.0
 10
137.9316273144044
 20
107.8209864159241
 30
0.0
 10
142.4770983095509
 20
115.4112117778369
 30
0.0
 10
142.4770983095509
 20
115.4112117778369
 30
0.0
 10
142.4770983095509
 20
115.4112117778369
 30
0.0
 10
142.4777721866027
 20
115.9955175962634
 30
0.0
 10
142.4777721866027
 20
115.9955175962634
 30
0.0
 10
142.4777721866027
 20
115.9955175962634
 30
0.0
 10
136.9304792843902
 20
119.2056541810326
 30
0.0
 10
136.9304792843902
 20
119.2056541810326
 30
0.0
 10
136.9304792843902
 20
119.2056541810326
 30
0.0
 10
136.4405767968887
 20
116.0881570383444
 30
0.0
 10
136.4405767968887
 20
116.0881570383444
 30
0.0
 10
136.4405767968887
 20
116.0881570383444
 30
0.0
 10
137.1702623338284
 20
115.6658114935638
 30
0.0
 10
137.1702623338284
 20
115.6658114935638
 30
0.0
 10
137.3852451061215
 20
116.5096911942568
 30
0.0
 10
137.6718805211377
 20
116.9877050709506
 30
0.0
 10
138.0308637007615
 20
117.0986184014542
 30
0.0
 10
138.3987756358197
 20
117.2281583981494
 30
0.0
 10
138.9493206217742
 20
117.0806972908003
 30
0.0
 10
139.6845094919068
 20
116.6557411905308
 30
0.0
 10
139.6845094919068
 20
116.6557411905308
 30
0.0
 10
140.6449822451809
 20
116.0995517602759
 30
0.0
 10
140.6449822451809
 20
116.0995517602759
 30
0.0
 10
140.6449822451809
 20
116.0995517602759
 30
0.0
 10
136.0867759725815
 20
108.4991311208454
 30
0.0
 10
136.0867759725815
 20
108.4991311208454
 30
0.0
 10
136.0867759725815
 20
108.4991311208454
 30
0.0
 10
136.0867759725815
 20
108.3478952913705
 30
0.0
 10
136.0867759725815
 20
108.3478952913705
 30
0.0
 10
136.0867759725815
 20
108.3478952913705
 30
0.0
 10
130.3500097300497
 20
111.6679574288908
 30
0.0
 10
130.3500097300497
 20
111.6679574288908
 30
0.0
 10
130.3500097300497
 20
111.6679574288908
 30
0.0
 10
130.3503625078185
 20
112.2083071373276
 30
0.0
 10
130.3503625078185
 20
112.2083071373276
 30
0.0
 10
130.3503625078185
 20
112.2083071373276
 30
0.0
 10
130.1457194119081
 20
112.32680518986
 30
0.0
 10
130.1457194119081
 20
112.32680518986
 30
0.0
 10
129.5986283603302
 20
112.6430704595692
 30
0.0
 10
129.3261428117263
 20
113.1672629461959
 30
0.0
 10
129.3271658672558
 20
113.8991709830789
 30
0.0
 10
129.3271658672558
 20
113.8991709830789
 30
0.0
 10
129.3343978115157
 20
121.5110921777716
 30
0.0
 10
129.3343978115157
 20
121.5110921777716
 30
0.0
 10
129.3354208670452
 20
122.2664277472113
 30
0.0
 10
129.6089647489554
 20
122.4864168751112
 30
0.0
 10
130.1553469572382
 20
122.170151605402
 30
0.0
 10
130.1553469572382
 20
122.170151605402
 30
0.0
 10
130.360346118675
 20
122.0514771639852
 30
0.0
 10
130.360346118675
 20
122.0514771639852
 30
0.0
 10
130.360346118675
 20
122.0514771639852
 30
0.0
 10
130.3613691742044
 20
123.007116861827
 30
0.0
 10
130.3613691742044
 20
123.007116861827
 30
0.0
 10
130.3613691742044
 20
123.007116861827
 30
0.0
 10
127.0435648144042
 20
124.927250979507
 30
0.0
 10
127.0435648144042
 20
124.927250979507
 30
0.0
 10
127.0435648144042
 20
124.927250979507
 30
0.0
 10
127.0425417588747
 20
123.9712585038964
 30
0.0
 10
127.0425417588747
 20
123.9712585038964
 30
0.0
 10
127.0425417588747
 20
123.9712585038964
 30
0.0
 10
127.2475409203114
 20
123.8525487847027
 30
0.0
 10
127.2475409203114
 20
123.8525487847027
 30
0.0
 10
127.7937499680516
 20
123.5366362927623
 30
0.0
 10
128.0669378438513
 20
123.0005904731046
 30
0.0
 10
128.0660944124279
 20
122.2450816034904
 30
0.0
 10
128.0660944124279
 20
122.2450816034904
 30
0.0
 10
128.0586860790965
 20
114.6331251310209
 30
0.0
 10
128.0586860790965
 20
114.6331251310209
 30
0.0
 10
128.05780089964
 20
113.9012170941379
 30
0.0
 10
127.7835867399691
 20
113.6935015438816
 30
0.0
 10
127.2375220316782
 20
114.0097315358139
 30
0.0
 10
127.2375220316782
 20
114.0097315358139
 30
0.0
 10
127.0327345369027
 20
114.1280884772388
 30
0.0
 10
127.0327345369027
 20
114.1280884772388
 30
0.0
 10
127.0327345369027
 20
114.1280884772388
 30
0.0
 10
127.0323817591339
 20
113.5877416382696
 30
0.0
 10
127.0323817591339
 20
113.5877416382696
 30
0.0
 10
127.0323817591339
 20
113.5877416382696
 30
0.0
 10
122.9587157519507
 20
115.9450350975513
 30
0.0
 10
122.9587157519507
 20
115.9450350975513
 30
0.0
 10
122.9587157519507
 20
115.9450350975513
 30
0.0
 10
122.9592449186039
 20
116.4502481402178
 30
0.0
 10
122.9592449186039
 20
116.4502481402178
 30
0.0
 10
122.9592449186039
 20
116.4502481402178
 30
0.0
 10
122.7797515898498
 20
116.5542823042303
 30
0.0
 10
122.7797515898498
 20
116.5542823042303
 30
0.0
 10
122.2502321589145
 20
116.8605639630831
 30
0.0
 10
121.9858252212157
 20
117.3857795052393
 30
0.0
 10
121.9863543878688
 20
118.1292233751613
 30
0.0
 10
121.9863543878688
 20
118.1292233751613
 30
0.0
 10
121.9941154987819
 20
125.7771631800461
 30
0.0
 10
121.9941154987819
 20
125.7771631800461
 30
0.0
 10
121.994962165427
 20
126.5323192718916
 30
0.0
 10
122.2600777472129
 20
126.7564389883961
 30
0.0
 10
122.7895588118218
 20
126.4499809406589
 30
0.0
 10
122.7895588118218
 20
126.4499809406589
 30
0.0
 10
122.9690521405759
 20
126.3464759432995
 30
0.0
 10
122.9690521405759
 20
126.3464759432995
 30
0.0
 10
122.9690521405759
 20
126.3464759432995
 30
0.0
 10
122.9701104738822
 20
127.2845473082562
 30
0.0
 10
122.9701104738822
 20
127.2845473082562
 30
0.0
 10
122.9701104738822
 20
127.2845473082562
 30
0.0
 10
120.5102999698725
 20
128.7078997719435
 30
0.0
 10
120.5102999698725
 20
128.7078997719435
 30
0.0
 10
120.5102999698725
 20
128.7078997719435
 30
0.0
 10
118.131622263989
 20
121.3166057938444
 30
0.0
 10
118.131622263989
 20
121.3166057938444
 30
0.0
 10
118.131622263989
 20
121.3166057938444
 30
0.0
 10
115.398476500384
 20
131.6662235853592
 30
0.0
 10
115.398476500384
 20
131.6662235853592
 30
0.0
 10
115.398476500384
 20
131.6662235853592
 30
0.0
 10
113.1694854461392
 20
132.9562260524485
 30
0.0
 10
113.1694854461392
 20
132.9562260524485
 30
0.0
 10
113.1694854461392
 20
132.9562260524485
 30
0.0
 10
113.168288860597
 20
132.018119409715
 30
0.0
 10
113.168288860597
 20
132.018119409715
 30
0.0
 10
113.168288860597
 20
132.018119409715
 30
0.0
 10
113.3476029415951
 20
131.9140852457024
 30
0.0
 10
113.3476029415951
 20
131.9140852457024
 30
0.0
 10
113.876945983646
 20
131.6078035868497
 30
0.0
 10
114.1417056991136
 20
131.0767672115086
 30
0.0
 10
114.141000143576
 20
130.3219286196551
 30
0.0
 10
114.141000143576
 20
130.3219286196551
 30
0.0
 10
114.1332390326629
 20
122.6738124258859
 30
0.0
 10
114.1332390326629
 20
122.6738124258859
 30
0.0
 10
114.1325687549023
 20
121.9305449448482
 30
0.0
 10
113.8671034838971
 20
121.7117874504292
 30
0.0
 10
113.337795719623
 20
122.0180338315051
 30
0.0
 10
113.337795719623
 20
122.0180338315051
 30
0.0
 10
113.1584787797534
 20
122.1219268844101
 30
0.0
 10
113.1584787797534
 20
122.1219268844101
 30
0.0
 10
113.1584787797534
 20
122.1219268844101
 30
0.0
 10
113.1579496131002
 20
121.6172077306199
 30
0.0
 10
113.1579496131002
 20
121.6172077306199
 30
0.0
 10
113.1579496131002
 20
121.6172077306199
 30
0.0
 10
109.0836133281563
 20
123.9746804482535
 30
0.0
 10
109.0836133281563
 20
123.9746804482535
 30
0.0
 10
109.0836133281563
 20
123.9746804482535
 30
0.0
 10
109.0841072170326
 20
124.5148890455827
 30
0.0
 10
109.0841072170326
 20
124.5148890455827
 30
0.0
 10
109.0841072170326
 20
124.5148890455827
 30
0.0
 10
108.8794961111415
 20
124.6333870981152
 30
0.0
 10
108.8794961111415
 20
124.6333870981152
 30
0.0
 10
108.3325847362055
 20
124.9500083020959
 30
0.0
 10
108.0595347431716
 20
125.4739859655586
 30
0.0
 10
108.0602402987091
 20
126.2062499684484
 30
0.0
 10
108.0602402987091
 20
126.2062499684484
 30
0.0
 10
108.0678277507608
 20
133.818167974903
 30
0.0
 10
108.0678277507608
 20
133.818167974903
 30
0.0
 10
108.0686716873829
 20
134.5735357334098
 30
0.0
 10
108.3423919581775
 20
134.7931398944739
 30
0.0
 10
108.8894797219979
 20
134.4765571247728
 30
0.0
 10
108.8894797219979
 20
134.4765571247728
 30
0.0
 10
109.0943024945502
 20
134.3580237944635
 30
0.0
 10
109.0943024945502
 20
134.3580237944635
 30
0.0
 10
109.0943024945502
 20
134.3580237944635
 30
0.0
 10
109.0951491611953
 20
135.3136987700822
 30
0.0
 10
109.0951491611953
 20
135.3136987700822
 30
0.0
 10
109.0951491611953
 20
135.3136987700822
 30
0.0
 10
105.7769920236263
 20
137.2340092766465
 30
0.0
 10
105.7769920236263
 20
137.2340092766465
 30
0.0
 10
105.7769920236263
 20
137.2340092766465
 30
0.0
 10
105.7761453569813
 20
136.2783343010278
 30
0.0
 10
105.7761453569813
 20
136.2783343010278
 30
0.0
 10
105.7761453569813
 20
136.2783343010278
 30
0.0
 10
105.9807944179491
 20
136.159659859611
 30
0.0
 10
105.9807944179491
 20
136.159659859611
 30
0.0
 10
106.5277031155852
 20
135.8433945899018
 30
0.0
 10
106.8003650530735
 20
135.3073134924673
 30
0.0
 10
106.7995183864284
 20
134.5519810117374
 30
0.0
 10
106.7995183864284
 20
134.5519810117374
 30
0.0
 10
106.7921100532841
 20
126.9398834281604
 30
0.0
 10
106.7921100532841
 20
126.9398834281604
 30
0.0
 10
106.7912281088621
 20
126.2079753912774
 30
0.0
 10
106.5175431158444
 20
126.0002277462778
 30
0.0
 10
105.9709492409003
 20
126.3164898329534
 30
0.0
 10
105.9709492409003
 20
126.3164898329534
 30
0.0
 10
105.7659853572405
 20
126.4351642743702
 30
0.0
 10
105.7659853572405
 20
126.4351642743702
 30
0.0
 10
105.7659853572405
 20
126.4351642743702
 30
0.0
 10
105.7654561905873
 20
125.8949909548179
 30
0.0
 10
105.7654561905873
 20
125.8949909548179
 30
0.0
 10
105.7654561905873
 20
125.8949909548179
 30
0.0
 10
101.0064135342228
 20
128.649162273442
 30
0.0
 10
101.0064135342228
 20
128.649162273442
 30
0.0
 10
101.0064135342228
 20
128.649162273442
 30
0.0
 10
101.0069074230991
 20
129.1893708707712
 30
0.0
 10
101.0069074230991
 20
129.1893708707712
 30
0.0
 10
101.0069074230991
 20
129.1893708707712
 30
0.0
 10
100.8019435394393
 20
129.3076925344193
 30
0.0
 10
100.8019435394393
 20
129.3076925344193
 30
0.0
 10
100.2896396636203
 20
129.6041316935231
 30
0.0
 10
100.0340194194358
 20
130.1186580692854
 30
0.0
 10
100.0345460590172
 20
130.8505694117318
 30
0.0
 10
100.0345460590172
 20
130.8505694117318
 30
0.0
 10
100.0423071699303
 20
138.4625225786379
 30
0.0
 10
100.0423071699303
 20
138.4625225786379
 30
0.0
 10
100.0428010588066
 20
139.2178550593677
 30
0.0
 10
100.2996610860363
 20
139.4473017201807
 30
0.0
 10
100.8119271502957
 20
139.1508625610768
 30
0.0
 10
100.8119271502957
 20
139.1508625610768
 30
0.0
 10
101.016749922848
 20
139.0325056196519
 30
0.0
 10
101.016749922848
 20
139.0325056196519
 30
0.0
 10
101.016749922848
 20
139.0325056196519
 30
0.0
 10
101.0177729783775
 20
139.9881805952706
 30
0.0
 10
101.0177729783775
 20
139.9881805952706
 30
0.0
 10
101.0177729783775
 20
139.9881805952706
 30
0.0
 10
97.75098028394251
 20
141.8786813803733
 30
0.0
 10
97.75098028394251
 20
141.8786813803733
 30
0.0
 10
97.75098028394251
 20
141.8786813803733
 30
0.0
 10
97.74992195063618
 20
140.9228300158702
 30
0.0
 10
97.74992195063618
 20
140.9228300158702
 30
0.0
 10
97.74992195063618
 20
140.9228300158702
 30
0.0
 10
97.95541500094916
 20
140.803979185569
 30
0.0
 10
97.95541500094916
 20
140.803979185569
 30
0.0
 10
98.47597387655749
 20
140.5027069710329
 30
0.0
 10
98.73642970324605
 20
139.9740694845195
 30
0.0
 10
98.73558303660097
 20
139.2187017260128
 30
0.0
 10
98.73558303660097
 20
139.2187017260128
 30
0.0
 10
98.73247859223574
 20
135.9079916326897
 30
0.0
 10
98.73247859223574
 20
135.9079916326897
 30
0.0
 10
98.73247859223574
 20
135.9079916326897
 30
0.0
 10
94.87601785728891
 20
138.1398720313138
 30
0.0
 10
94.87601785728891
 20
138.1398720313138
 30
0.0
 10
94.87601785728891
 20
138.1398720313138
 30
0.0
 10
94.87929869053855
 20
141.4500916690853
 30
0.0
 10
94.87929869053855
 20
141.4500916690853
 30
0.0
 10
94.8800042460761
 20
142.2056005386995
 30
0.0
 10
95.14095396164093
 20
142.4326483106849
 30
0.0
 10
95.66186561501804
 20
142.1313760961487
 30
0.0
 10
95.66186561501804
 20
142.1313760961487
 30
0.0
 10
95.86682949867786
 20
142.0127016547319
 30
0.0
 10
95.86682949867786
 20
142.0127016547319
 30
0.0
 10
95.86682949867786
 20
142.0127016547319
 30
0.0
 10
95.86753505421542
 20
142.9685177414581
 30
0.0
 10
95.86753505421542
 20
142.9685177414581
 30
0.0
 10
95.86753505421542
 20
142.9685177414581
 30
0.0
 10
92.60105985977236
 20
144.8590221860074
 30
0.0
 10
92.60105985977236
 20
144.8590221860074
 30
0.0
 10
92.60105985977236
 20
144.8590221860074
 30
0.0
 10
92.60003680424292
 20
143.9030260509502
 30
0.0
 10
92.60003680424292
 20
143.9030260509502
 30
0.0
 10
92.60003680424292
 20
143.9030260509502
 30
0.0
 10
92.80482429901835
 20
143.7846691095253
 30
0.0
 10
92.80482429901835
 20
143.7846691095253
 30
0.0
 10
93.31713053222619
 20
143.4882299504214
 30
0.0
 10
93.57275094609358
 20
142.9619913527357
 30
0.0
 10
93.5720806683329
 20
142.2066588720059
 30
0.0
 10
93.5720806683329
 20
142.2066588720059
 30
0.0
 10
93.56449594630418
 20
134.5947023995364
 30
0.0
 10
93.56449594630418
 20
134.5947023995364
 30
0.0
 10
93.56379039076663
 20
133.8627943626534
 30
0.0
 10
93.30732095286525
 20
133.6450599237638
 30
0.0
 10
92.79501942124575
 20
133.9415343606445
 30
0.0
 10
92.79501942124575
 20
133.9415343606445
 30
0.0
 10
92.59005553240806
 20
134.0598560242926
 30
0.0
 10
92.59005553240806
 20
134.0598560242926
 30
0.0
 10
92.59005553240806
 20
134.0598560242926
 30
0.0
 10
92.58952402673334
 20
133.5200002047321
 30
0.0
 10
92.58952402673334
 20
133.5200002047321
 30
0.0
 10
92.58952402673334
 20
133.5200002047321
 30
0.0
 10
88.13087164048304
 20
136.1003931944564
 30
0.0
 10
88.13087164048304
 20
136.1003931944564
 30
0.0
 10
88.19116136116715
 20
136.1148570829762
 30
0.0
 10
88.25162747073563
 20
136.1308731936788
 30
0.0
 10
88.30983580258395
 20
136.1523926375742
 30
0.0
 10
88.94201356423353
 20
136.400642353463
 30
0.0
 10
89.25916077836465
 20
137.0787870583843
 30
0.0
 10
89.26018608879598
 20
138.1886259189589
 30
0.0
 10
89.26155966719234
 20
139.5098139408081
 30
0.0
 10
88.72463190311272
 20
140.848429184435
 30
0.0
 10
87.64925943054777
 20
142.2026724832187
 30
0.0
 10
87.64925943054777
 20
142.2026724832187
 30
0.0
 10
85.99801252823013
 20
144.2923163187963
 30
0.0
 10
85.99801252823013
 20
144.2923163187963
 30
0.0
 10
85.33175643411664
 20
145.1382421305483
 30
0.0
 10
84.99979255369685
 20
145.9032444079686
 30
0.0
 10
85.00032172035002
 20
146.5875943157945
 30
0.0
 10
85.00134477587947
 20
147.7322523421473
 30
0.0
 10
85.38619004383904
 20
148.0824195554361
 30
0.0
 10
86.15478696867494
 20
147.6376726223381
 30
0.0
 10
86.69291417716839
 20
147.3262404080612
 30
0.0
 10
87.17519666486433
 20
146.7577743114528
 30
0.0
 10
87.60170498731654
 20
145.9323448880668
 30
0.0
 10
87.85732775857284
 20
145.4066354570344
 30
0.0
 10
88.15189719550219
 20
144.61045131068
 30
0.0
 10
88.48400218702947
 20
143.5443921712108
 30
0.0
 10
88.48400218702947
 20
143.5443921712108
 30
0.0
 10
89.12478772623723
 20
143.4566916178927
 30
0.0
 10
89.12478772623723
 20
143.4566916178927
 30
0.0
 10
89.12478772623723
 20
143.4566916178927
 30
0.0
 10
88.24404274870692
 20
147.2962542977151
 30
0.0
 10
88.24404274870692
 20
147.2962542977151
 30
0.0
 10
87.98774969968994
 20
147.196700411366
 30
0.0
 10
87.82134442615751
 20
147.1687956898557
 30
0.0
 10
87.74398026146457
 20
147.2134220776061
 30
0.0
 10
87.735196095022
 20
147.2187527409731
 30
0.0
 10
87.53919276668914
 20
147.4383531829787
 30
0.0
 10
87.15487666538274
 20
147.873469282989
 30
0.0
 10
86.77091334184513
 20
148.3198037160466
 30
0.0
 10
86.40367168454758
 20
148.6448531521983
 30
0.0
 10
86.05350447125886
 20
148.8475945359148
 30
0.0
 10
85.32777220089021
 20
149.2675411918678
 30
0.0
 10
84.74194728249725
 20
149.2933645245423
 30
0.0
 10
84.29751784939116
 20
148.9247470339465
 30
0.0
 10
83.84398886792778
 20
148.5613153765518
 30
0.0
 10
83.61693897786527
 20
147.8662373387291
 30
0.0
 10
83.6160944235404
 20
146.8394423649248
 30
0.0
 10
83.61503609020744
 20
145.6470887842332
 30
0.0
 10
84.11372063185799
 20
144.4142715934628
 30
0.0
 10
85.11229338416005
 20
143.1399360753262
 30
0.0
 10
85.11229338416005
 20
143.1399360753262
 30
0.0
 10
86.59731140182964
 20
141.2880255621088
 30
0.0
 10
86.59731140182964
 20
141.2880255621088
 30
0.0
 10
87.36537916001238
 20
140.3122069758929
 30
0.0
 10
87.7491660946656
 20
139.4588375532198
 30
0.0
 10
87.74831942802054
 20
138.7269295163367
 30
0.0
 10
87.74814303913615
 20
138.2073971876705
 30
0.0
 10
87.6104891537591
 20
137.8503120387011
 30
0.0
 10
87.33694527184889
 20
137.6541323214838
 30
0.0
 10
87.05461942268087
 20
137.4517471878594
 30
0.0
 10
86.69598334375675
 20
137.4756620482592
 30
0.0
 10
86.26054974375448
 20
137.7278628751584
 30
0.0
 10
85.32089087883828
 20
138.2714934168447
 30
0.0
 10
84.48477228905834
 20
139.7003527428528
 30
0.0
 10
83.75233508552215
 20
142.013548321377
 30
0.0
 10
83.75233508552215
 20
142.013548321377
 30
0.0
 10
83.07295565841011
 20
142.1232622074668
 30
0.0
 10
83.07295565841011
 20
142.1232622074668
 30
0.0
 10
83.07295565841011
 20
142.1232622074668
 30
0.0
 10
83.96128535796916
 20
138.5131461884575
 30
0.0
 10
83.96128535796916
 20
138.5131461884575
 30
0.0
 10
83.96128535796916
 20
138.5131461884575
 30
0.0
 10
78.74229104667235
 20
141.5334883336243
 30
0.0
 10
78.74229104667235
 20
141.5334883336243
 30
0.0
 10
78.74229104667235
 20
141.5334883336243
 30
0.0
 10
78.74229104667235
 20
135.4551273775851
 30
0.0
 10
78.74229104667235
 20
135.4551273775851
 30
0.0
 10
78.74229104667235
 20
135.4551273775851
 30
0.0
 10
192.2972920385318
 20
69.74148377630208
 30
0.0
 10
192.2972920385318
 20
69.74148377630208
 30
0.0
 10
192.2972920385318
 20
69.74148377630208
 30
0.0
 10
192.3035009272623
 20
75.81518806579341
 30
0.0
 10
192.3035009272623
 20
75.81518806579341
 30
0.0
 10
192.3035009272623
 20
75.81518806579341
 30
0.0
 10
184.8621125059968
 20
80.1215462892624
 30
0.0
 10
184.8621125059968
 20
80.1215462892624
 30
0.0
 10
184.8621125059968
 20
80.1215462892624
 30
0.0
 10
192.5046900887962
 20
78.7834602122887
 30
0.0
 10
192.5046900887962
 20
78.7834602122887
 30
0.0
  0
SPLINE
  5
46
330
41
100
AcDbEntity
  8
_U+30EC_U+30A4_U+30E4_U+30FC 1
 62
     7
370
     5
100
AcDbSpline
210
0.0
220
0.0
230
1.0
 70
    11
 71
     3
 72
    35
 73
    31
 74
     0
 42
0.0000000001
 43
0.0000000001
 12
1.0
 22
0.0
 32
0.0
 13
1.0
 23
0.0
 33
0.0
 40
0.0
 40
0.0
 40
0.0
 40
0.0
 40
1.0
 40
1.0
 40
1.0
 40
2.0
 40
2.0
 40
2.0
 40
3.0
 40
3.0
 40
3.0
 40
4.0
 40
4.0
 40
4.0
 40
5.0
 40
5.0
 40
5.0
 40
6.0
 40
6.0
 40
6.0
 40
7.0
 40
7.0
 40
7.0
 40
8.0
 40
8.0
 40
8.0
 40
9.0
 40
9.0
 40
9.0
 40
10.0
 40
10.0
 40
10.0
 40
10.0
 10
95.85617561006077
 20
131.629358308522
 30
0.0
 10
95.85617561006077
 20
131.629358308522
 30
0.0
 10
95.85666949893707
 20
132.1695316280743
 30
0.0
 10
95.85666949893707
 20
132.1695316280743
 30
0.0
 10
95.85666949893707
 20
132.1695316280743
 30
0.0
 10
95.65202311526915
 20
132.2880296806067
 30
0.0
 10
95.65202311526915
 20
132.2880296806067
 30
0.0
 10
95.13114673966892
 20
132.5894782840273
 30
0.0
 10
94.87104369074915
 20
133.1062624375097
 30
0.0
 10
94.87171396850982
 20
133.8381704743927
 30
0.0
 10
94.87171396850982
 20
133.8381704743927
 30
0.0
 10
94.87499719850344
 20
137.2018006663571
 30
0.0
 10
94.87499719850344
 20
137.2018006663571
 30
0.0
 10
94.87499719850344
 20
137.2018006663571
 30
0.0
 10
98.7312791478219
 20
134.9698815566315
 30
0.0
 10
98.7312791478219
 20
134.9698815566315
 30
0.0
 10
98.7312791478219
 20
134.9698815566315
 30
0.0
 10
98.72817470345665
 20
131.6067805313202
 30
0.0
 10
98.72817470345665
 20
131.6067805313202
 30
0.0
 10
98.7272927590347
 20
130.8748724944372
 30
0.0
 10
98.46616665458548
 20
130.6595369443753
 30
0.0
 10
97.94543139009276
 20
130.9608091589114
 30
0.0
 10
97.94543139009276
 20
130.9608091589114
 30
0.0
 10
97.74011472866415
 20
131.0796952669895
 30
0.0
 10
97.74011472866415
 20
131.0796952669895
 30
0.0
 10
97.74011472866415
 20
131.0796952669895
 30
0.0
 10
97.73958556201099
 20
130.5396630585446
 30
0.0
 10
97.73958556201099
 20
130.5396630585446
 30
0.0
 10
97.73958556201099
 20
130.5396630585446
 30
0.0
 10
95.85617561006077
 20
131.629358308522
 30
0.0
 10
95.85617561006077
 20
131.629358308522
 30
0.0
  0
SPLINE
  5
47
330
41
100
AcDbEntity
  8
_U+30EC_U+30A4_U+30E4_U+30FC 1
 62
     7
370
     5
100
AcDbSpline
210
0.0
220
0.0
230
1.0
 70
    11
 71
     3
 72
    23
 73
    19
 74
     0
 42
0.0000000001
 43
0.0000000001
 12
1.0
 22
0.0
 32
0.0
 13
1.0
 23
0.0
 33
0.0
 40
0.0
 40
0.0
 40
0.0
 40
0.0
 40
1.0
 40
1.0
 40
1.0
 40
2.0
 40
2.0
 40
2.0
 40
3.0
 40
3.0
 40
3.0
 40
4.0
 40
4.0
 40
4.0
 40
5.0
 40
5.0
 40
5.0
 40
6.0
 40
6.0
 40
6.0
 40
6.0
 10
115.7846623238649
 20
120.09705304718
 30
0.0
 10
115.7846623238649
 20
120.09705304718
 30
0.0
 10
115.7853326016256
 20
120.6017722009702
 30
0.0
 10
115.7853326016256
 20
120.6017722009702
 30
0.0
 10
115.7853326016256
 20
120.6017722009702
 30
0.0
 10
115.5671042738598
 20
120.7282077533002
 30
0.0
 10
115.5671042738598
 20
120.7282077533002
 30
0.0
 10
115.0546592869333
 20
121.0246499697438
 30
0.0
 10
114.7988601267926
 20
121.5446766213592
 30
0.0
 10
114.7997067934377
 20
122.2881557690581
 30
0.0
 10
114.7997067934377
 20
122.2881557690581
 30
0.0
 10
114.8065888601871
 20
129.1211436502896
 30
0.0
 10
114.8065888601871
 20
129.1211436502896
 30
0.0
 10
114.8065888601871
 20
129.1211436502896
 30
0.0
 10
117.4598305261907
 20
119.127619738579
 30
0.0
 10
117.4598305261907
 20
119.127619738579
 30
0.0
 10
117.4598305261907
 20
119.127619738579
 30
0.0
 10
115.7846623238649
 20
120.09705304718
 30
0.0
 10
115.7846623238649
 20
120.09705304718
 30
0.0
  0
SPLINE
  5
48
330
41
100
AcDbEntity
  8
_U+30EC_U+30A4_U+30E4_U+30FC 1
 62
     7
370
     5
100
AcDbSpline
210
0.0
220
0.0
230
1.0
 70
    11
 71
     3
 72
    23
 73
    19
 74
     0
 42
0.0000000001
 43
0.0000000001
 12
1.0
 22
0.0
 32
0.0
 13
1.0
 23
0.0
 33
0.0
 40
0.0
 40
0.0
 40
0.0
 40
0.0
 40
1.0
 40
1.0
 40
1.0
 40
2.0
 40
2.0
 40
2.0
 40
3.0
 40
3.0
 40
3.0
 40
4.0
 40
4.0
 40
4.0
 40
5.0
 40
5.0
 40
5.0
 40
6.0
 40
6.0
 40
6.0
 40
6.0
 10
118.1788239294515
 20
118.711447804752
 30
0.0
 10
118.1788239294515
 20
118.711447804752
 30
0.0
 10
120.6742680324541
 20
126.3280256659925
 30
0.0
 10
120.6742680324541
 20
126.3280256659925
 30
0.0
 10
120.6742680324541
 20
126.3280256659925
 30
0.0
 10
120.6668949770866
 20
118.8928138591658
 30
0.0
 10
120.6668949770866
 20
118.8928138591658
 30
0.0
 10
120.6660130326647
 20
118.1493669857585
 30
0.0
 10
120.3924721921243
 20
117.9357953245405
 30
0.0
 10
119.8459105535872
 20
118.2520253164728
 30
0.0
 10
119.8459105535872
 20
118.2520253164728
 30
0.0
 10
119.6536819473803
 20
118.3631503136378
 30
0.0
 10
119.6536819473803
 20
118.3631503136378
 30
0.0
 10
119.6536819473803
 20
118.3631503136378
 30
0.0
 10
119.6531527807271
 20
117.8582547709632
 30
0.0
 10
119.6531527807271
 20
117.8582547709632
 30
0.0
 10
119.6531527807271
 20
117.8582547709632
 30
0.0
 10
118.1788239294515
 20
118.711447804752
 30
0.0
 10
118.1788239294515
 20
118.711447804752
 30
0.0
  0
POLYLINE
  5
49
330
41
100
AcDbEntity
  8
_U+30EC_U+30A4_U+30E4_U+30FC 1
 62
     7
370
     5
100
AcDb2dPolyline
 66
     1
 10
0.0
 20
0.0
 30
0.0
  0
VERTEX
  5
4A
330
49
100
AcDbEntity
  8
_U+30EC_U+30A4_U+30E4_U+30FC 1
 62
     7
370
     5
100
AcDbVertex
100
AcDb2dVertex
 10
178.6161468320113
 20
95.47633978641787
 30
0.0
  0
VERTEX
  5
4B
330
49
100
AcDbEntity
  8
_U+30EC_U+30A4_U+30E4_U+30FC 1
 62
     7
370
     5
100
AcDbVertex
100
AcDb2dVertex
 10
181.2647317644403
 20
82.20237068062059
 30
0.0
  0
VERTEX
  5
4C
330
49
100
AcDbEntity
  8
_U+30EC_U+30A4_U+30E4_U+30FC 1
 62
     7
370
     5
100
AcDbVertex
100
AcDb2dVertex
 10
173.6620886250666
 20
86.60316751279134
 30
0.0
  0
VERTEX
  5
4D
330
49
100
AcDbEntity
  8
_U+30EC_U+30A4_U+30E4_U+30FC 1
 62
     7
370
     5
100
AcDbVertex
100
AcDb2dVertex
 10
178.556209889096
 20
95.77881386494411
 30
0.0
  0
VERTEX
  5
4E
330
49
100
AcDbEntity
  8
_U+30EC_U+30A4_U+30E4_U+30FC 1
 62
     7
370
     5
100
AcDbVertex
100
AcDb2dVertex
 10
178.6161468320113
 20
95.47633978641787
 30
0.0
  0
SEQEND
  5
4F
330
49
100
AcDbEntity
  8
_U+30EC_U+30A4_U+30E4_U+30FC 1
 62
     7
370
     5
  0
SPLINE
  5
50
330
41
100
AcDbEntity
  8
_U+30EC_U+30A4_U+30E4_U+30FC 1
 62
     7
370
     5
100
AcDbSpline
210
0.0
220
0.0
230
1.0
 70
     8
 71
     3
 72
    17
 73
    13
 74
     0
 42
0.0000000001
 43
0.0000000001
 12
1.0
 22
0.0
 32
0.0
 13
1.0
 23
0.0
 33
0.0
 40
0.0
 40
0.0
 40
0.0
 40
0.0
 40
1.0
 40
1.0
 40
1.0
 40
2.0
 40
2.0
 40
2.0
 40
3.0
 40
3.0
 40
3.0
 40
4.0
 40
4.0
 40
4.0
 40
4.0
 10
87.63514831979666
 20
138.046530521044
 30
0.0
 10
87.47699804605364
 20
138.0711509219559
 30
0.0
 10
87.30473886706272
 20
138.1371203647173
 30
0.0
 10
87.11854055519865
 20
138.2449645286327
 30
0.0
 10
86.17870530139805
 20
138.7885950703191
 30
0.0
 10
85.3427631005025
 20
140.2174508671993
 30
0.0
 10
84.6103258969663
 20
142.5306499748513
 30
0.0
 10
84.6103258969663
 20
142.5306499748513
 30
0.0
 10
83.93098174763115
 20
142.6404027421177
 30
0.0
 10
83.93098174763115
 20
142.6404027421177
 30
0.0
 10
83.93098174763115
 20
142.6404027421177
 30
0.0
 10
83.07295565841011
 20
142.1232622074668
 30
0.0
 10
83.07295565841011
 20
142.1232622074668
 30
0.0
  0
SPLINE
  5
51
330
41
100
AcDbEntity
  8
_U+30EC_U+30A4_U+30E4_U+30FC 1
 62
     7
370
     5
100
AcDbSpline
210
0.0
220
0.0
230
1.0
 70
     8
 71
     3
 72
    20
 73
    16
 74
     0
 42
0.0000000001
 43
0.0000000001
 12
1.0
 22
0.0
 32
0.0
 13
1.0
 23
0.0
 33
0.0
 40
0.0
 40
0.0
 40
0.0
 40
0.0
 40
1.0
 40
1.0
 40
1.0
 40
2.0
 40
2.0
 40
2.0
 40
3.0
 40
3.0
 40
3.0
 40
4.0
 40
4.0
 40
4.0
 40
5.0
 40
5.0
 40
5.0
 40
5.0
 10
89.9827785376814
 20
143.973793271367
 30
0.0
 10
89.9827785376814
 20
143.973793271367
 30
0.0
 10
89.10206883792796
 20
147.8133559511894
 30
0.0
 10
89.10206883792796
 20
147.8133559511894
 30
0.0
 10
88.8457405111341
 20
147.7138020648403
 30
0.0
 10
88.67933523760168
 20
147.68589734333
 30
0.0
 10
88.60200635068561
 20
147.7305237310804
 30
0.0
 10
88.59322218424305
 20
147.7358506753889
 30
0.0
 10
88.3971835781333
 20
147.9554901142299
 30
0.0
 10
88.0127263657194
 20
148.3906062142403
 30
0.0
 10
87.62894164475941
 20
148.8369053695209
 30
0.0
 10
87.2616999781845
 20
149.162131194557
 30
0.0
 10
86.91149528270303
 20
149.3646999626587
 30
0.0
 10
86.31290196464109
 20
149.7112650694363
 30
0.0
 10
85.8094175330416
 20
149.7894759007743
 30
0.0
 10
85.40202976565715
 20
149.5992971848223
 30
0.0
  0
SPLINE
  5
52
330
41
100
AcDbEntity
  8
_U+30EC_U+30A4_U+30E4_U+30FC 1
 62
     7
370
     5
100
AcDbSpline
210
0.0
220
0.0
230
1.0
 70
     8
 71
     3
 72
    26
 73
    22
 74
     0
 42
0.0000000001
 43
0.0000000001
 12
1.0
 22
0.0
 32
0.0
 13
1.0
 23
0.0
 33
0.0
 40
0.0
 40
0.0
 40
0.0
 40
0.0
 40
1.0
 40
1.0
 40
1.0
 40
2.0
 40
2.0
 40
2.0
 40
3.0
 40
3.0
 40
3.0
 40
4.0
 40
4.0
 40
4.0
 40
5.0
 40
5.0
 40
5.0
 40
6.0
 40
6.0
 40
6.0
 40
7.0
 40
7.0
 40
7.0
 40
7.0
 10
92.99123207204046
 20
134.3013676847978
 30
0.0
 10
92.99123207204046
 20
134.3013676847978
 30
0.0
 10
88.98889997775292
 20
136.6174948479307
 30
0.0
 10
88.98889997775292
 20
136.6174948479307
 30
0.0
 10
89.04918745038819
 20
136.6319587364505
 30
0.0
 10
89.1096182821798
 20
136.6479748471531
 30
0.0
 10
89.16786189180499
 20
136.6695295688254
 30
0.0
 10
89.80003965345458
 20
136.9177440069373
 30
0.0
 10
90.11715158980881
 20
137.5958887118587
 30
0.0
 10
90.11817464533827
 20
138.7057275724332
 30
0.0
 10
90.11955275524801
 20
140.0269508720593
 30
0.0
 10
89.58265799233376
 20
141.3655308379093
 30
0.0
 10
88.50725024199193
 20
142.7198094144699
 30
0.0
 10
88.50725024199193
 20
142.7198094144699
 30
0.0
 10
86.85586222856679
 20
144.8094179722706
 30
0.0
 10
86.85586222856679
 20
144.8094179722706
 30
0.0
 10
86.1897472455608
 20
145.6553437840226
 30
0.0
 10
85.85764442298012
 20
146.420342375617
 30
0.0
 10
85.85831253179418
 20
147.1046959692688
 30
0.0
 10
85.85848892067857
 20
147.3606715182939
 30
0.0
 10
85.8779622535151
 20
147.5766773461164
 30
0.0
 10
85.91655831185408
 20
147.7530662305053
 30
0.0
  0
POLYLINE
  5
53
330
41
100
AcDbEntity
  8
_U+30EC_U+30A4_U+30E4_U+30FC 1
 62
     7
370
     5
100
AcDb2dPolyline
 66
     1
 10
0.0
 20
0.0
 30
0.0
  0
VERTEX
  5
54
330
53
100
AcDbEntity
  8
_U+30EC_U+30A4_U+30E4_U+30FC 1
 62
     7
370
     5
100
AcDbVertex
100
AcDb2dVertex
 10
92.99123207204046
 20
134.3013676847978
 30
0.0
  0
VERTEX
  5
2BF
330
53
100
AcDbEntity
  8
0
100
AcDbVertex
100
AcDb2dVertex
 10
92.99123207204046
 20
134.3013676847978
 30
0.0
  0
SEQEND
  5
55
330
53
100
AcDbEntity
  8
_U+30EC_U+30A4_U+30E4_U+30FC 1
 62
     7
370
     5
  0
POLYLINE
  5
56
330
41
100
AcDbEntity
  8
_U+30EC_U+30A4_U+30E4_U+30FC 1
 62
     7
370
     5
100
AcDb2dPolyline
 66
     1
 10
0.0
 20
0.0
 30
0.0
  0
VERTEX
  5
57
330
56
100
AcDbEntity
  8
_U+30EC_U+30A4_U+30E4_U+30FC 1
 62
     7
370
     5
100
AcDbVertex
100
AcDb2dVertex
 10
93.56481344629607
 20
134.5097887905916
 30
0.0
  0
VERTEX
  5
58
330
56
100
AcDbEntity
  8
_U+30EC_U+30A4_U+30E4_U+30FC 1
 62
     7
370
     5
100
AcDbVertex
100
AcDb2dVertex
 10
93.44804400483066
 20
134.5769610774669
 30
0.0
  0
VERTEX
  5
59
330
56
100
AcDbEntity
  8
_U+30EC_U+30A4_U+30E4_U+30FC 1
 62
     7
370
     5
100
AcDbVertex
100
AcDb2dVertex
 10
93.44804400483066
 20
134.5588954560055
 30
0.0
  0
SEQEND
  5
5A
330
56
100
AcDbEntity
  8
_U+30EC_U+30A4_U+30E4_U+30FC 1
 62
     7
370
     5
  0
SPLINE
  5
5B
330
41
100
AcDbEntity
  8
_U+30EC_U+30A4_U+30E4_U+30FC 1
 62
     7
370
     5
100
AcDbSpline
210
0.0
220
0.0
230
1.0
 70
     8
 71
     3
 72
    14
 73
    10
 74
     0
 42
0.0000000001
 43
0.0000000001
 12
1.0
 22
0.0
 32
0.0
 13
1.0
 23
0.0
 33
0.0
 40
0.0
 40
0.0
 40
0.0
 40
0.0
 40
1.0
 40
1.0
 40
1.0
 40
2.0
 40
2.0
 40
2.0
 40
3.0
 40
3.0
 40
3.0
 40
3.0
 10
98.7335016477652
 20
136.921169410214
 30
0.0
 10
98.7335016477652
 20
136.921169410214
 30
0.0
 10
95.73404394650996
 20
138.657008962565
 30
0.0
 10
95.73404394650996
 20
138.657008962565
 30
0.0
 10
95.73404394650996
 20
138.657008962565
 30
0.0
 10
95.7372895019827
 20
141.967369711444
 30
0.0
 10
95.7372895019827
 20
141.967369711444
 30
0.0
 10
95.7372895019827
 20
142.0083977659528
 30
0.0
 10
95.73799505752027
 20
142.0480147093866
 30
0.0
 10
95.73972366858727
 20
142.0862558195221
 30
0.0
  0
SPLINE
  5
5C
330
41
100
AcDbEntity
  8
_U+30EC_U+30A4_U+30E4_U+30FC 1
 62
     7
370
     5
100
AcDbSpline
210
0.0
220
0.0
230
1.0
 70
     8
 71
     3
 72
    23
 73
    19
 74
     0
 42
0.0000000001
 43
0.0000000001
 12
1.0
 22
0.0
 32
0.0
 13
1.0
 23
0.0
 33
0.0
 40
0.0
 40
0.0
 40
0.0
 40
0.0
 40
1.0
 40
1.0
 40
1.0
 40
2.0
 40
2.0
 40
2.0
 40
3.0
 40
3.0
 40
3.0
 40
4.0
 40
4.0
 40
4.0
 40
5.0
 40
5.0
 40
5.0
 40
6.0
 40
6.0
 40
6.0
 40
6.0
 10
106.16698784701
 20
126.6763231571066
 30
0.0
 10
106.16698784701
 20
126.6763231571066
 30
0.0
 10
101.864404345667
 20
129.1662639269163
 30
0.0
 10
101.864404345667
 20
129.1662639269163
 30
0.0
 10
101.864404345667
 20
129.1662639269163
 30
0.0
 10
101.864936085645
 20
129.7064725242455
 30
0.0
 10
101.864936085645
 20
129.7064725242455
 30
0.0
 10
101.864936085645
 20
129.7064725242455
 30
0.0
 10
101.6599343508834
 20
129.8247941878936
 30
0.0
 10
101.6599343508834
 20
129.8247941878936
 30
0.0
 10
101.1476657528414
 20
130.1212686247743
 30
0.0
 10
100.8920429815851
 20
130.6357950005365
 30
0.0
 10
100.8925368704614
 20
131.3677030374196
 30
0.0
 10
100.8925368704614
 20
131.3677030374196
 30
0.0
 10
100.9002979813745
 20
138.9796277430328
 30
0.0
 10
100.9002979813745
 20
138.9796277430328
 30
0.0
 10
100.9002979813745
 20
139.0207933977285
 30
0.0
 10
100.901147196997
 20
139.0602339522779
 30
0.0
 10
100.9026968702022
 20
139.0984750624134
 30
0.0
  0
POLYLINE
  5
5D
330
41
100
AcDbEntity
  8
_U+30EC_U+30A4_U+30E4_U+30FC 1
 62
     7
370
     5
100
AcDb2dPolyline
 66
     1
 10
0.0
 20
0.0
 30
0.0
  0
VERTEX
  5
5E
330
5D
100
AcDbEntity
  8
_U+30EC_U+30A4_U+30E4_U+30FC 1
 62
     7
370
     5
100
AcDbVertex
100
AcDb2dVertex
 10
106.7893610844138
 20
126.8566984302827
 30
0.0
  0
VERTEX
  5
5F
330
5D
100
AcDbEntity
  8
_U+30EC_U+30A4_U+30E4_U+30FC 1
 62
     7
370
     5
100
AcDbVertex
100
AcDb2dVertex
 10
106.6239761686846
 20
126.9522659278445
 30
0.0
  0
SEQEND
  5
60
330
5D
100
AcDbEntity
  8
_U+30EC_U+30A4_U+30E4_U+30FC 1
 62
     7
370
     5
  0
SPLINE
  5
61
330
41
100
AcDbEntity
  8
_U+30EC_U+30A4_U+30E4_U+30FC 1
 62
     7
370
     5
100
AcDbSpline
210
0.0
220
0.0
230
1.0
 70
     8
 71
     3
 72
    23
 73
    19
 74
     0
 42
0.0000000001
 43
0.0000000001
 12
1.0
 22
0.0
 32
0.0
 13
1.0
 23
0.0
 33
0.0
 40
0.0
 40
0.0
 40
0.0
 40
0.0
 40
1.0
 40
1.0
 40
1.0
 40
2.0
 40
2.0
 40
2.0
 40
3.0
 40
3.0
 40
3.0
 40
4.0
 40
4.0
 40
4.0
 40
5.0
 40
5.0
 40
5.0
 40
6.0
 40
6.0
 40
6.0
 40
6.0
 10
113.5780726579375
 20
122.3877096554072
 30
0.0
 10
113.5780726579375
 20
122.3877096554072
 30
0.0
 10
109.9416041396004
 20
124.4917821017278
 30
0.0
 10
109.9416041396004
 20
124.4917821017278
 30
0.0
 10
109.9416041396004
 20
124.4917821017278
 30
0.0
 10
109.9421360836256
 20
125.0319906990571
 30
0.0
 10
109.9421360836256
 20
125.0319906990571
 30
0.0
 10
109.9421360836256
 20
125.0319906990571
 30
0.0
 10
109.7374869225857
 20
125.1504887515895
 30
0.0
 10
109.7374869225857
 20
125.1504887515895
 30
0.0
 10
109.1903991587653
 20
125.4671067990674
 30
0.0
 10
108.9175608323926
 20
125.9910876190329
 30
0.0
 10
108.9182311101533
 20
126.7233484336847
 30
0.0
 10
108.9182311101533
 20
126.7233484336847
 30
0.0
 10
108.925815832182
 20
134.3353082997494
 30
0.0
 10
108.925815832182
 20
134.3353082997494
 30
0.0
 10
108.925815832182
 20
134.3764740717705
 30
0.0
 10
108.9265213877196
 20
134.4159146263199
 30
0.0
 10
108.9282147210097
 20
134.4538029586866
 30
0.0
  0
POLYLINE
  5
62
330
41
100
AcDbEntity
  8
_U+30EC_U+30A4_U+30E4_U+30FC 1
 62
     7
370
     5
100
AcDb2dPolyline
 66
     1
 10
0.0
 20
0.0
 30
0.0
  0
VERTEX
  5
63
330
62
100
AcDbEntity
  8
_U+30EC_U+30A4_U+30E4_U+30FC 1
 62
     7
370
     5
100
AcDbVertex
100
AcDb2dVertex
 10
114.1310194159116
 20
122.5725299284698
 30
0.0
  0
VERTEX
  5
64
330
62
100
AcDbEntity
  8
_U+30EC_U+30A4_U+30E4_U+30FC 1
 62
     7
370
     5
100
AcDbVertex
100
AcDb2dVertex
 10
114.0164695911975
 20
122.6392049267688
 30
0.0
  0
SEQEND
  5
65
330
62
100
AcDbEntity
  8
_U+30EC_U+30A4_U+30E4_U+30FC 1
 62
     7
370
     5
  0
SPLINE
  5
66
330
41
100
AcDbEntity
  8
_U+30EC_U+30A4_U+30E4_U+30FC 1
 62
     7
370
     5
100
AcDbSpline
210
0.0
220
0.0
230
1.0
 70
     8
 71
     3
 72
    20
 73
    16
 74
     0
 42
0.0000000001
 43
0.0000000001
 12
1.0
 22
0.0
 32
0.0
 13
1.0
 23
0.0
 33
0.0
 40
0.0
 40
0.0
 40
0.0
 40
0.0
 40
1.0
 40
1.0
 40
1.0
 40
2.0
 40
2.0
 40
2.0
 40
3.0
 40
3.0
 40
3.0
 40
4.0
 40
4.0
 40
4.0
 40
5.0
 40
5.0
 40
5.0
 40
5.0
 10
118.6781808611562
 20
123.0133257505575
 30
0.0
 10
118.6781808611562
 20
123.0133257505575
 30
0.0
 10
116.2564673118282
 20
132.1835016277179
 30
0.0
 10
116.2564673118282
 20
132.1835016277179
 30
0.0
 10
116.2564673118282
 20
132.1835016277179
 30
0.0
 10
114.0273351464759
 20
133.4733277059228
 30
0.0
 10
114.0273351464759
 20
133.4733277059228
 30
0.0
 10
114.0273351464759
 20
133.4733277059228
 30
0.0
 10
114.0262768131695
 20
132.5352210631893
 30
0.0
 10
114.0262768131695
 20
132.5352210631893
 30
0.0
 10
114.0262768131695
 20
132.5352210631893
 30
0.0
 10
114.2055937530392
 20
132.4313666335587
 30
0.0
 10
114.2055937530392
 20
132.4313666335587
 30
0.0
 10
114.3377090274465
 20
132.3547046789057
 30
0.0
 10
114.4536318022668
 20
132.2641113478836
 30
0.0
 10
114.552868188624
 20
132.1593749669602
 30
0.0
  0
SPLINE
  5
67
330
41
100
AcDbEntity
  8
_U+30EC_U+30A4_U+30E4_U+30FC 1
 62
     7
370
     5
100
AcDbSpline
210
0.0
220
0.0
230
1.0
 70
     8
 71
     3
 72
    23
 73
    19
 74
     0
 42
0.0000000001
 43
0.0000000001
 12
1.0
 22
0.0
 32
0.0
 13
1.0
 23
0.0
 33
0.0
 40
0.0
 40
0.0
 40
0.0
 40
0.0
 40
1.0
 40
1.0
 40
1.0
 40
2.0
 40
2.0
 40
2.0
 40
3.0
 40
3.0
 40
3.0
 40
4.0
 40
4.0
 40
4.0
 40
5.0
 40
5.0
 40
5.0
 40
6.0
 40
6.0
 40
6.0
 40
6.0
 10
127.448553692961
 20
114.3604631935326
 30
0.0
 10
127.448553692961
 20
114.3604631935326
 30
0.0
 10
123.8165654522874
 20
116.4621367510256
 30
0.0
 10
123.8165654522874
 20
116.4621367510256
 30
0.0
 10
123.8165654522874
 20
116.4621367510256
 30
0.0
 10
123.8172388579346
 20
116.9675261825765
 30
0.0
 10
123.8172388579346
 20
116.9675261825765
 30
0.0
 10
123.8172388579346
 20
116.9675261825765
 30
0.0
 10
123.6376012901865
 20
117.0714221929543
 30
0.0
 10
123.6376012901865
 20
117.0714221929543
 30
0.0
 10
123.1082582481356
 20
117.3776656165574
 30
0.0
 10
122.8438513104367
 20
117.9028811587136
 30
0.0
 10
122.844345199313
 20
118.6463250286356
 30
0.0
 10
122.844345199313
 20
118.6463250286356
 30
0.0
 10
122.8521063102261
 20
126.2942648335204
 30
0.0
 10
122.8521063102261
 20
126.2942648335204
 30
0.0
 10
122.8521063102261
 20
126.3352576102524
 30
0.0
 10
122.8529529768712
 20
126.3745570536942
 30
0.0
 10
122.8545083026196
 20
126.412445386061
 30
0.0
  0
POLYLINE
  5
68
330
41
100
AcDbEntity
  8
_U+30EC_U+30A4_U+30E4_U+30FC 1
 62
     7
370
     5
100
AcDb2dPolyline
 66
     1
 10
0.0
 20
0.0
 30
0.0
  0
VERTEX
  5
69
330
68
100
AcDbEntity
  8
_U+30EC_U+30A4_U+30E4_U+30FC 1
 62
     7
370
     5
100
AcDbVertex
100
AcDb2dVertex
 10
128.0566014552261
 20
114.5495873553743
 30
0.0
  0
VERTEX
  5
6A
330
68
100
AcDbEntity
  8
_U+30EC_U+30A4_U+30E4_U+30FC 1
 62
     7
370
     5
100
AcDbVertex
100
AcDb2dVertex
 10
127.8907253483469
 20
114.6451901307131
 30
0.0
  0
VERTEX
  5
6B
330
68
100
AcDbEntity
  8
_U+30EC_U+30A4_U+30E4_U+30FC 1
 62
     7
370
     5
100
AcDbVertex
100
AcDb2dVertex
 10
127.8907253483469
 20
114.6067726316932
 30
0.0
  0
SEQEND
  5
6C
330
68
100
AcDbEntity
  8
_U+30EC_U+30A4_U+30E4_U+30FC 1
 62
     7
370
     5
  0
SPLINE
  5
6D
330
41
100
AcDbEntity
  8
_U+30EC_U+30A4_U+30E4_U+30FC 1
 62
     7
370
     5
100
AcDbSpline
210
0.0
220
0.0
230
1.0
 70
     8
 71
     3
 72
    23
 73
    19
 74
     0
 42
0.0000000001
 43
0.0000000001
 12
1.0
 22
0.0
 32
0.0
 13
1.0
 23
0.0
 33
0.0
 40
0.0
 40
0.0
 40
0.0
 40
0.0
 40
1.0
 40
1.0
 40
1.0
 40
2.0
 40
2.0
 40
2.0
 40
3.0
 40
3.0
 40
3.0
 40
4.0
 40
4.0
 40
4.0
 40
5.0
 40
5.0
 40
5.0
 40
6.0
 40
6.0
 40
6.0
 40
6.0
 10
136.470210129466
 20
109.1395991600613
 30
0.0
 10
136.470210129466
 20
109.1395991600613
 30
0.0
 10
131.2081769303783
 20
112.1850590823651
 30
0.0
 10
131.2081769303783
 20
112.1850590823651
 30
0.0
 10
131.2081769303783
 20
112.1850590823651
 30
0.0
 10
131.2081769303783
 20
112.7254087908019
 30
0.0
 10
131.2081769303783
 20
112.7254087908019
 30
0.0
 10
131.2081769303783
 20
112.7254087908019
 30
0.0
 10
131.0035305467104
 20
112.8439421211112
 30
0.0
 10
131.0035305467104
 20
112.8439421211112
 30
0.0
 10
130.4567955606587
 20
113.16017497171
 30
0.0
 10
130.1843100120549
 20
113.6843645996702
 30
0.0
 10
130.1849802898156
 20
114.4162726365533
 30
0.0
 10
130.1849802898156
 20
114.4162726365533
 30
0.0
 10
130.1925650118443
 20
122.0281938312459
 30
0.0
 10
130.1925650118443
 20
122.0281938312459
 30
0.0
 10
130.1925650118443
 20
122.0693629968622
 30
0.0
 10
130.1932705673818
 20
122.1088388291884
 30
0.0
 10
130.1946464006801
 20
122.1470799393239
 30
0.0
  0
SPLINE
  5
6E
330
41
100
AcDbEntity
  8
_U+30EC_U+30A4_U+30E4_U+30FC 1
 62
     7
370
     5
100
AcDbSpline
210
0.0
220
0.0
230
1.0
 70
     8
 71
     3
 72
     8
 73
     4
 74
     0
 42
0.0000000001
 43
0.0000000001
 12
1.0
 22
0.0
 32
0.0
 13
1.0
 23
0.0
 33
0.0
 40
0.0
 40
0.0
 40
0.0
 40
0.0
 40
1.0
 40
1.0
 40
1.0
 40
1.0
 10
138.0284295341569
 20
116.1829131470381
 30
0.0
 10
138.1310878648713
 20
116.5859999708534
 30
0.0
 10
138.2499386951724
 20
116.9055078508254
 30
0.0
 10
138.3853348028293
 20
117.1413397892532
 30
0.0
  0
SPLINE
  5
6F
330
41
100
AcDbEntity
  8
_U+30EC_U+30A4_U+30E4_U+30FC 1
 62
     7
370
     5
100
AcDbSpline
210
0.0
220
0.0
230
1.0
 70
     8
 71
     3
 72
    17
 73
    13
 74
     0
 42
0.0000000001
 43
0.0000000001
 12
1.0
 22
0.0
 32
0.0
 13
1.0
 23
0.0
 33
0.0
 40
0.0
 40
0.0
 40
0.0
 40
0.0
 40
1.0
 40
1.0
 40
1.0
 40
2.0
 40
2.0
 40
2.0
 40
3.0
 40
3.0
 40
3.0
 40
4.0
 40
4.0
 40
4.0
 40
4.0
 10
151.8801427918814
 20
101.0360468668001
 30
0.0
 10
151.6424058535021
 20
101.0746054769275
 30
0.0
 10
151.3585608607436
 20
101.1886610858142
 30
0.0
 10
151.0298778135735
 20
101.3791610857663
 30
0.0
 10
149.8592553434385
 20
102.0564565629895
 30
0.0
 10
149.2756550805497
 20
103.3032437534036
 30
0.0
 10
149.2777011916086
 20
105.1208959292536
 30
0.0
 10
149.2777011916086
 20
105.1208959292536
 30
0.0
 10
149.2832082960128
 20
110.9802877242125
 30
0.0
 10
149.2832082960128
 20
110.9802877242125
 30
0.0
 10
149.2832082960128
 20
111.0214568898289
 30
0.0
 10
149.2839138515677
 20
111.0610738332626
 30
0.0
 10
149.2859914691748
 20
111.0991738322906
 30
0.0
  0
SPLINE
  5
70
330
41
100
AcDbEntity
  8
_U+30EC_U+30A4_U+30E4_U+30FC 1
 62
     7
370
     5
100
AcDbSpline
210
0.0
220
0.0
230
1.0
 70
     8
 71
     3
 72
    20
 73
    16
 74
     0
 42
0.0000000001
 43
0.0000000001
 12
1.0
 22
0.0
 32
0.0
 13
1.0
 23
0.0
 33
0.0
 40
0.0
 40
0.0
 40
0.0
 40
0.0
 40
1.0
 40
1.0
 40
1.0
 40
2.0
 40
2.0
 40
2.0
 40
3.0
 40
3.0
 40
3.0
 40
4.0
 40
4.0
 40
4.0
 40
5.0
 40
5.0
 40
5.0
 40
5.0
 10
164.4816116370578
 20
92.92903735140496
 30
0.0
 10
164.4816116370578
 20
92.92903735140496
 30
0.0
 10
152.5553594413219
 20
99.83095800865563
 30
0.0
 10
152.5553594413219
 20
99.83095800865563
 30
0.0
 10
152.6628508274684
 20
99.86778800771602
 30
0.0
 10
152.7662147137203
 20
99.91498967317847
 30
0.0
 10
152.8612883224059
 20
99.98251386389357
 30
0.0
 10
153.4428424742358
 20
100.3780104946992
 30
0.0
 10
153.7342721890231
 20
101.2957971379511
 30
0.0
 10
153.7356480223213
 20
102.7358359901016
 30
0.0
 10
153.7356480223213
 20
102.7358359901016
 30
0.0
 10
153.7411866332911
 20
108.2231883501075
 30
0.0
 10
153.7411866332911
 20
108.2231883501075
 30
0.0
 10
153.7411866332911
 20
108.2643575157239
 30
0.0
 10
153.7418569110518
 20
108.3037980702732
 30
0.0
 10
153.7439382998876
 20
108.3420391804087
 30
0.0
  0
SPLINE
  5
71
330
41
100
AcDbEntity
  8
_U+30EC_U+30A4_U+30E4_U+30FC 1
 62
     7
370
     5
100
AcDbSpline
210
0.0
220
0.0
230
1.0
 70
     8
 71
     3
 72
    20
 73
    16
 74
     0
 42
0.0000000001
 43
0.0000000001
 12
1.0
 22
0.0
 32
0.0
 13
1.0
 23
0.0
 33
0.0
 40
0.0
 40
0.0
 40
0.0
 40
0.0
 40
1.0
 40
1.0
 40
1.0
 40
2.0
 40
2.0
 40
2.0
 40
3.0
 40
3.0
 40
3.0
 40
4.0
 40
4.0
 40
4.0
 40
5.0
 40
5.0
 40
5.0
 40
5.0
 10
98.14027055178866
 20
131.3211749671696
 30
0.0
 10
98.14027055178866
 20
131.3211749671696
 30
0.0
 10
96.71399003262056
 20
132.1466363508807
 30
0.0
 10
96.71399003262056
 20
132.1466363508807
 30
0.0
 10
96.71399003262056
 20
132.1466363508807
 30
0.0
 10
96.71469558815811
 20
132.6866332815486
 30
0.0
 10
96.71469558815811
 20
132.6866332815486
 30
0.0
 10
96.71469558815811
 20
132.6866332815486
 30
0.0
 10
96.51004920449019
 20
132.8053430007423
 30
0.0
 10
96.51004920449019
 20
132.8053430007423
 30
0.0
 10
95.98913755111309
 20
133.1066152152785
 30
0.0
 10
95.72903450219331
 20
133.623364090984
 30
0.0
 10
95.72974005773087
 20
134.355272127867
 30
0.0
 10
95.72974005773087
 20
134.355272127867
 30
0.0
 10
95.73196255767417
 20
136.7056892901251
 30
0.0
 10
95.73196255767417
 20
136.7056892901251
 30
0.0
  0
POLYLINE
  5
72
330
41
100
AcDbEntity
  8
_U+30EC_U+30A4_U+30E4_U+30FC 1
 62
     7
370
     5
100
AcDb2dPolyline
 66
     1
 10
0.0
 20
0.0
 30
0.0
  0
VERTEX
  5
73
330
72
100
AcDbEntity
  8
_U+30EC_U+30A4_U+30E4_U+30FC 1
 62
     7
370
     5
100
AcDbVertex
100
AcDb2dVertex
 10
98.72471748132263
 20
131.5235955334424
 30
0.0
  0
VERTEX
  5
74
330
72
100
AcDbEntity
  8
_U+30EC_U+30A4_U+30E4_U+30FC 1
 62
     7
370
     5
100
AcDbVertex
100
AcDb2dVertex
 10
98.59810554010832
 20
131.5967969204638
 30
0.0
  0
SEQEND
  5
75
330
72
100
AcDbEntity
  8
_U+30EC_U+30A4_U+30E4_U+30FC 1
 62
     7
370
     5
  0
SPLINE
  5
76
330
41
100
AcDbEntity
  8
_U+30EC_U+30A4_U+30E4_U+30FC 1
 62
     7
370
     5
100
AcDbSpline
210
0.0
220
0.0
230
1.0
 70
     8
 71
     3
 72
    20
 73
    16
 74
     0
 42
0.0000000001
 43
0.0000000001
 12
1.0
 22
0.0
 32
0.0
 13
1.0
 23
0.0
 33
0.0
 40
0.0
 40
0.0
 40
0.0
 40
0.0
 40
1.0
 40
1.0
 40
1.0
 40
2.0
 40
2.0
 40
2.0
 40
3.0
 40
3.0
 40
3.0
 40
4.0
 40
4.0
 40
4.0
 40
5.0
 40
5.0
 40
5.0
 40
5.0
 10
117.1408106226001
 20
120.3259705413399
 30
0.0
 10
117.1408106226001
 20
120.3259705413399
 30
0.0
 10
116.6426531353091
 20
120.6141547006543
 30
0.0
 10
116.6426531353091
 20
120.6141547006543
 30
0.0
 10
116.6426531353091
 20
120.6141547006543
 30
0.0
 10
116.6431823019623
 20
121.1190502433289
 30
0.0
 10
116.6431823019623
 20
121.1190502433289
 30
0.0
 10
116.6431823019623
 20
121.1190502433289
 30
0.0
 10
116.4250950853039
 20
121.2453094067745
 30
0.0
 10
116.4250950853039
 20
121.2453094067745
 30
0.0
 10
115.9126500983775
 20
121.5417485658783
 30
0.0
 10
115.6568509382368
 20
122.0619546637179
 30
0.0
 10
115.6575212159975
 20
122.8052574225324
 30
0.0
 10
115.6575212159975
 20
122.8052574225324
 30
0.0
 10
115.6608020492471
 20
125.9037751212604
 30
0.0
 10
115.6608020492471
 20
125.9037751212604
 30
0.0
  0
POLYLINE
  5
77
330
41
100
AcDbEntity
  8
_U+30EC_U+30A4_U+30E4_U+30FC 1
 62
     7
370
     5
100
AcDb2dPolyline
 66
     1
 10
0.0
 20
0.0
 30
0.0
  0
VERTEX
  5
78
330
77
100
AcDbEntity
  8
_U+30EC_U+30A4_U+30E4_U+30FC 1
 62
     7
370
     5
100
AcDbVertex
100
AcDb2dVertex
 10
120.0848116586034
 20
118.6220539181437
 30
0.0
  0
VERTEX
  5
79
330
77
100
AcDbEntity
  8
_U+30EC_U+30A4_U+30E4_U+30FC 1
 62
     7
370
     5
100
AcDbVertex
100
AcDb2dVertex
 10
119.0368147408956
 20
119.2285494582263
 30
0.0
  0
VERTEX
  5
7A
330
77
100
AcDbEntity
  8
_U+30EC_U+30A4_U+30E4_U+30FC 1
 62
     7
370
     5
100
AcDbVertex
100
AcDb2dVertex
 10
120.672224969832
 20
124.2199668308846
 30
0.0
  0
SEQEND
  5
7B
330
77
100
AcDbEntity
  8
_U+30EC_U+30A4_U+30E4_U+30FC 1
 62
     7
370
     5
  0
POLYLINE
  5
7C
330
41
100
AcDbEntity
  8
_U+30EC_U+30A4_U+30E4_U+30FC 1
 62
     7
370
     5
100
AcDb2dPolyline
 66
     1
 10
0.0
 20
0.0
 30
0.0
  0
VERTEX
  5
7D
330
7C
100
AcDbEntity
  8
_U+30EC_U+30A4_U+30E4_U+30FC 1
 62
     7
370
     5
100
AcDbVertex
100
AcDb2dVertex
 10
120.6649899771352
 20
118.7915283582645
 30
0.0
  0
VERTEX
  5
7E
330
7C
100
AcDbEntity
  8
_U+30EC_U+30A4_U+30E4_U+30FC 1
 62
     7
370
     5
100
AcDbVertex
100
AcDb2dVertex
 10
120.5116727588244
 20
118.8802519671121
 30
0.0
  0
SEQEND
  5
7F
330
7C
100
AcDbEntity
  8
_U+30EC_U+30A4_U+30E4_U+30FC 1
 62
     7
370
     5
  0
POLYLINE
  5
80
330
41
100
AcDbEntity
  8
_U+30EC_U+30A4_U+30E4_U+30FC 1
 62
     7
370
     5
100
AcDb2dPolyline
 66
     1
 10
0.0
 20
0.0
 30
0.0
  0
VERTEX
  5
81
330
80
100
AcDbEntity
  8
_U+30EC_U+30A4_U+30E4_U+30FC 1
 62
     7
370
     5
100
AcDbVertex
100
AcDb2dVertex
 10
181.0366609369256
 20
83.34822815138733
 30
0.0
  0
VERTEX
  5
82
330
80
100
AcDbEntity
  8
_U+30EC_U+30A4_U+30E4_U+30FC 1
 62
     7
370
     5
100
AcDbVertex
100
AcDb2dVertex
 10
174.5199030476263
 20
87.11991638849688
 30
0.0
  0
VERTEX
  5
83
330
80
100
AcDbEntity
  8
_U+30EC_U+30A4_U+30E4_U+30FC 1
 62
     7
370
     5
100
AcDbVertex
100
AcDb2dVertex
 10
178.714677662831
 20
94.98439118785741
 30
0.0
  0
SEQEND
  5
84
330
80
100
AcDbEntity
  8
_U+30EC_U+30A4_U+30E4_U+30FC 1
 62
     7
370
     5
  0
POLYLINE
  5
85
330
41
100
AcDbEntity
  8
_U+30EC_U+30A4_U+30E4_U+30FC 1
 62
     7
370
     5
100
AcDb2dPolyline
 66
     1
 10
0.0
 20
0.0
 30
0.0
  0
VERTEX
  5
86
330
85
100
AcDbEntity
  8
_U+30EC_U+30A4_U+30E4_U+30FC 1
 62
     7
370
     5
100
AcDbVertex
100
AcDb2dVertex
 10
192.2972920385318
 20
69.74148377630208
 30
0.0
  0
VERTEX
  5
87
330
85
100
AcDbEntity
  8
_U+30EC_U+30A4_U+30E4_U+30FC 1
 62
     7
370
     5
100
AcDbVertex
100
AcDb2dVertex
 10
193.1551417388685
 20
70.2582326520076
 30
0.0
  0
VERTEX
  5
88
330
85
100
AcDbEntity
  8
_U+30EC_U+30A4_U+30E4_U+30FC 1
 62
     7
370
     5
100
AcDbVertex
100
AcDb2dVertex
 10
193.1613153498221
 20
76.33193886980584
 30
0.0
  0
VERTEX
  5
89
330
85
100
AcDbEntity
  8
_U+30EC_U+30A4_U+30E4_U+30FC 1
 62
     7
370
     5
100
AcDbVertex
100
AcDb2dVertex
 10
187.3735727197019
 20
79.68127963382787
 30
0.0
  0
SEQEND
  5
8A
330
85
100
AcDbEntity
  8
_U+30EC_U+30A4_U+30E4_U+30FC 1
 62
     7
370
     5
  0
POLYLINE
  5
8B
330
41
100
AcDbEntity
  8
_U+30EC_U+30A4_U+30E4_U+30FC 1
 62
     7
370
     5
100
AcDb2dPolyline
 66
     1
 10
0.0
 20
0.0
 30
0.0
  0
VERTEX
  5
8C
330
8B
100
AcDbEntity
  8
_U+30EC_U+30A4_U+30E4_U+30FC 1
 62
     7
370
     5
100
AcDbVertex
100
AcDb2dVertex
 10
189.2132382283237
 20
95.28478145797159
 30
0.0
  0
VERTEX
  5
8D
330
8B
100
AcDbEntity
  8
_U+30EC_U+30A4_U+30E4_U+30FC 1
 62
     7
370
     5
100
AcDbVertex
100
AcDb2dVertex
 10
190.0710879286603
 20
95.801565611454
 30
0.0
  0
SEQEND
  5
8E
330
8B
100
AcDbEntity
  8
_U+30EC_U+30A4_U+30E4_U+30FC 1
 62
     7
370
     5
  0
POLYLINE
  5
8F
330
41
100
AcDbEntity
  8
_U+30EC_U+30A4_U+30E4_U+30FC 1
 62
     7
370
     5
100
AcDb2dPolyline
 66
     1
 10
0.0
 20
0.0
 30
0.0
  0
VERTEX
  5
90
330
8F
100
AcDbEntity
  8
_U+30EC_U+30A4_U+30E4_U+30FC 1
 62
     7
370
     5
100
AcDbVertex
100
AcDb2dVertex
 10
180.3021776223304
 20
99.05371802848468
 30
0.0
  0
VERTEX
  5
91
330
8F
100
AcDbEntity
  8
_U+30EC_U+30A4_U+30E4_U+30FC 1
 62
     7
370
     5
100
AcDbVertex
100
AcDb2dVertex
 10
181.1434467675346
 20
99.53949301609153
 30
0.0
  0
SEQEND
  5
92
330
8F
100
AcDbEntity
  8
_U+30EC_U+30A4_U+30E4_U+30FC 1
 62
     7
370
     5
  0
POLYLINE
  5
93
330
41
100
AcDbEntity
  8
_U+30EC_U+30A4_U+30E4_U+30FC 1
 62
     7
370
     5
100
AcDb2dPolyline
 66
     1
 10
0.0
 20
0.0
 30
0.0
  0
VERTEX
  5
94
330
93
100
AcDbEntity
  8
_U+30EC_U+30A4_U+30E4_U+30FC 1
 62
     7
370
     5
100
AcDbVertex
100
AcDb2dVertex
 10
179.2252221774162
 20
97.03353613557937
 30
0.0
  0
VERTEX
  5
95
330
93
100
AcDbEntity
  8
_U+30EC_U+30A4_U+30E4_U+30FC 1
 62
     7
370
     5
100
AcDbVertex
100
AcDb2dVertex
 10
180.0830673501426
 20
97.55099056682245
 30
0.0
  0
SEQEND
  5
96
330
93
100
AcDbEntity
  8
_U+30EC_U+30A4_U+30E4_U+30FC 1
 62
     7
370
     5
  0
POLYLINE
  5
97
330
41
100
AcDbEntity
  8
_U+30EC_U+30A4_U+30E4_U+30FC 1
 62
     7
370
     5
100
AcDb2dPolyline
 66
     1
 10
0.0
 20
0.0
 30
0.0
  0
VERTEX
  5
98
330
97
100
AcDbEntity
  8
_U+30EC_U+30A4_U+30E4_U+30FC 1
 62
     7
370
     5
100
AcDbVertex
100
AcDb2dVertex
 10
173.6620886250666
 20
86.60316751279134
 30
0.0
  0
VERTEX
  5
99
330
97
100
AcDbEntity
  8
_U+30EC_U+30A4_U+30E4_U+30FC 1
 62
     7
370
     5
100
AcDbVertex
100
AcDb2dVertex
 10
174.5199030476263
 20
87.11991638849688
 30
0.0
  0
SEQEND
  5
9A
330
97
100
AcDbEntity
  8
_U+30EC_U+30A4_U+30E4_U+30FC 1
 62
     7
370
     5
  0
POLYLINE
  5
9B
330
41
100
AcDbEntity
  8
_U+30EC_U+30A4_U+30E4_U+30FC 1
 62
     7
370
     5
100
AcDb2dPolyline
 66
     1
 10
0.0
 20
0.0
 30
0.0
  0
VERTEX
  5
9C
330
9B
100
AcDbEntity
  8
_U+30EC_U+30A4_U+30E4_U+30FC 1
 62
     7
370
     5
100
AcDbVertex
100
AcDb2dVertex
 10
164.8453960722213
 20
119.2045958477263
 30
0.0
  0
VERTEX
  5
9D
330
9B
100
AcDbEntity
  8
_U+30EC_U+30A4_U+30E4_U+30FC 1
 62
     7
370
     5
100
AcDbVertex
100
AcDb2dVertex
 10
165.7032499585739
 20
119.7217327789775
 30
0.0
  0
VERTEX
  5
9E
330
9B
100
AcDbEntity
  8
_U+30EC_U+30A4_U+30E4_U+30FC 1
 62
     7
370
     5
100
AcDbVertex
100
AcDb2dVertex
 10
181.1599920448902
 20
99.57082219732938
 30
0.0
  0
VERTEX
  5
9F
330
9B
100
AcDbEntity
  8
_U+30EC_U+30A4_U+30E4_U+30FC 1
 62
     7
370
     5
100
AcDbVertex
100
AcDb2dVertex
 10
180.0830673501426
 20
97.55099056682245
 30
0.0
  0
VERTEX
  5
A0
330
9B
100
AcDbEntity
  8
_U+30EC_U+30A4_U+30E4_U+30FC 1
 62
     7
370
     5
100
AcDbVertex
100
AcDb2dVertex
 10
190.0710879286603
 20
95.801565611454
 30
0.0
  0
VERTEX
  5
A1
330
9B
100
AcDbEntity
  8
_U+30EC_U+30A4_U+30E4_U+30FC 1
 62
     7
370
     5
100
AcDbVertex
100
AcDb2dVertex
 10
193.3625397891329
 20
79.3002443657711
 30
0.0
  0
VERTEX
  5
A2
330
9B
100
AcDbEntity
  8
_U+30EC_U+30A4_U+30E4_U+30FC 1
 62
     7
370
     5
100
AcDbVertex
100
AcDb2dVertex
 10
192.5046900887962
 20
78.7834602122887
 30
0.0
  0
SEQEND
  5
A3
330
9B
100
AcDbEntity
  8
_U+30EC_U+30A4_U+30E4_U+30FC 1
 62
     7
370
     5
  0
POLYLINE
  5
A4
330
41
100
AcDbEntity
  8
_U+30EC_U+30A4_U+30E4_U+30FC 1
 62
     7
370
     5
100
AcDb2dPolyline
 66
     1
 10
0.0
 20
0.0
 30
0.0
  0
VERTEX
  5
A5
330
A4
100
AcDbEntity
  8
_U+30EC_U+30A4_U+30E4_U+30FC 1
 62
     7
370
     5
100
AcDbVertex
100
AcDb2dVertex
 10
153.8583088525253
 20
108.2757169598786
 30
0.0
  0
VERTEX
  5
A6
330
A4
100
AcDbEntity
  8
_U+30EC_U+30A4_U+30E4_U+30FC 1
 62
     7
370
     5
100
AcDbVertex
100
AcDb2dVertex
 10
154.7161232750851
 20
108.7929950022372
 30
0.0
  0
SEQEND
  5
A7
330
A4
100
AcDbEntity
  8
_U+30EC_U+30A4_U+30E4_U+30FC 1
 62
     7
370
     5
  0
POLYLINE
  5
A8
330
41
100
AcDbEntity
  8
_U+30EC_U+30A4_U+30E4_U+30FC 1
 62
     7
370
     5
100
AcDb2dPolyline
 66
     1
 10
0.0
 20
0.0
 30
0.0
  0
VERTEX
  5
A9
330
A8
100
AcDbEntity
  8
_U+30EC_U+30A4_U+30E4_U+30FC 1
 62
     7
370
     5
100
AcDbVertex
100
AcDb2dVertex
 10
153.858979130286
 20
109.2320974910348
 30
0.0
  0
VERTEX
  5
AA
330
A8
100
AcDbEntity
  8
_U+30EC_U+30A4_U+30E4_U+30FC 1
 62
     7
370
     5
100
AcDbVertex
100
AcDb2dVertex
 10
154.7168288306226
 20
109.7491991445091
 30
0.0
  0
SEQEND
  5
AB
330
A8
100
AcDbEntity
  8
_U+30EC_U+30A4_U+30E4_U+30FC 1
 62
     7
370
     5
  0
POLYLINE
  5
AC
330
41
100
AcDbEntity
  8
_U+30EC_U+30A4_U+30E4_U+30FC 1
 62
     7
370
     5
100
AcDb2dPolyline
 66
     1
 10
0.0
 20
0.0
 30
0.0
  0
VERTEX
  5
AD
330
AC
100
AcDbEntity
  8
_U+30EC_U+30A4_U+30E4_U+30FC 1
 62
     7
370
     5
100
AcDbVertex
100
AcDb2dVertex
 10
154.7161232750851
 20
108.7929950022372
 30
0.0
  0
VERTEX
  5
AE
330
AC
100
AcDbEntity
  8
_U+30EC_U+30A4_U+30E4_U+30FC 1
 62
     7
370
     5
100
AcDbVertex
100
AcDb2dVertex
 10
154.7168288306226
 20
109.7491991445091
 30
0.0
  0
VERTEX
  5
AF
330
AC
100
AcDbEntity
  8
_U+30EC_U+30A4_U+30E4_U+30FC 1
 62
     7
370
     5
100
AcDbVertex
100
AcDb2dVertex
 10
152.0007222332496
 20
111.3208593821905
 30
0.0
  0
VERTEX
  5
B0
330
AC
100
AcDbEntity
  8
_U+30EC_U+30A4_U+30E4_U+30FC 1
 62
     7
370
     5
100
AcDbVertex
100
AcDb2dVertex
 10
151.142872532913
 20
110.8037577287162
 30
0.0
  0
SEQEND
  5
B1
330
AC
100
AcDbEntity
  8
_U+30EC_U+30A4_U+30E4_U+30FC 1
 62
     7
370
     5
  0
POLYLINE
  5
B2
330
41
100
AcDbEntity
  8
_U+30EC_U+30A4_U+30E4_U+30FC 1
 62
     7
370
     5
100
AcDb2dPolyline
 66
     1
 10
0.0
 20
0.0
 30
0.0
  0
VERTEX
  5
B3
330
B2
100
AcDbEntity
  8
_U+30EC_U+30A4_U+30E4_U+30FC 1
 62
     7
370
     5
100
AcDbVertex
100
AcDb2dVertex
 10
149.4003620218126
 20
111.0331691117523
 30
0.0
  0
VERTEX
  5
B4
330
B2
100
AcDbEntity
  8
_U+30EC_U+30A4_U+30E4_U+30FC 1
 62
     7
370
     5
100
AcDbVertex
100
AcDb2dVertex
 10
150.2581764443723
 20
111.5503060430035
 30
0.0
  0
VERTEX
  5
B5
330
B2
100
AcDbEntity
  8
_U+30EC_U+30A4_U+30E4_U+30FC 1
 62
     7
370
     5
100
AcDbVertex
100
AcDb2dVertex
 10
150.2588819999099
 20
112.5061249718735
 30
0.0
  0
VERTEX
  5
B6
330
B2
100
AcDbEntity
  8
_U+30EC_U+30A4_U+30E4_U+30FC 1
 62
     7
370
     5
100
AcDbVertex
100
AcDb2dVertex
 10
146.9405484734565
 20
114.4264326362941
 30
0.0
  0
SEQEND
  5
B7
330
B2
100
AcDbEntity
  8
_U+30EC_U+30A4_U+30E4_U+30FC 1
 62
     7
370
     5
  0
POLYLINE
  5
B8
330
41
100
AcDbEntity
  8
_U+30EC_U+30A4_U+30E4_U+30FC 1
 62
     7
370
     5
100
AcDb2dPolyline
 66
     1
 10
0.0
 20
0.0
 30
0.0
  0
VERTEX
  5
B9
330
B8
100
AcDbEntity
  8
_U+30EC_U+30A4_U+30E4_U+30FC 1
 62
     7
370
     5
100
AcDbVertex
100
AcDb2dVertex
 10
149.4010360737608
 20
111.9890204762554
 30
0.0
  0
VERTEX
  5
BA
330
B8
100
AcDbEntity
  8
_U+30EC_U+30A4_U+30E4_U+30FC 1
 62
     7
370
     5
100
AcDbVertex
100
AcDb2dVertex
 10
150.2588819999099
 20
112.5061249718735
 30
0.0
  0
SEQEND
  5
BB
330
B8
100
AcDbEntity
  8
_U+30EC_U+30A4_U+30E4_U+30FC 1
 62
     7
370
     5
  0
POLYLINE
  5
BC
330
41
100
AcDbEntity
  8
_U+30EC_U+30A4_U+30E4_U+30FC 1
 62
     7
370
     5
100
AcDb2dPolyline
 66
     1
 10
0.0
 20
0.0
 30
0.0
  0
VERTEX
  5
BD
330
BC
100
AcDbEntity
  8
_U+30EC_U+30A4_U+30E4_U+30FC 1
 62
     7
370
     5
100
AcDbVertex
100
AcDb2dVertex
 10
146.0827340508967
 20
113.9093309828198
 30
0.0
  0
VERTEX
  5
BE
330
BC
100
AcDbEntity
  8
_U+30EC_U+30A4_U+30E4_U+30FC 1
 62
     7
370
     5
100
AcDbVertex
100
AcDb2dVertex
 10
146.9405484734565
 20
114.4264326362941
 30
0.0
  0
SEQEND
  5
BF
330
BC
100
AcDbEntity
  8
_U+30EC_U+30A4_U+30E4_U+30FC 1
 62
     7
370
     5
  0
POLYLINE
  5
C0
330
41
100
AcDbEntity
  8
_U+30EC_U+30A4_U+30E4_U+30FC 1
 62
     7
370
     5
100
AcDb2dPolyline
 66
     1
 10
0.0
 20
0.0
 30
0.0
  0
VERTEX
  5
C1
330
C0
100
AcDbEntity
  8
_U+30EC_U+30A4_U+30E4_U+30FC 1
 62
     7
370
     5
100
AcDbVertex
100
AcDb2dVertex
 10
142.1063994301193
 20
104.864214824691
 30
0.0
  0
VERTEX
  5
C2
330
C0
100
AcDbEntity
  8
_U+30EC_U+30A4_U+30E4_U+30FC 1
 62
     7
370
     5
100
AcDbVertex
100
AcDb2dVertex
 10
142.9249496870141
 20
105.4214625882522
 30
0.0
  0
SEQEND
  5
C3
330
C0
100
AcDbEntity
  8
_U+30EC_U+30A4_U+30E4_U+30FC 1
 62
     7
370
     5
  0
POLYLINE
  5
C4
330
41
100
AcDbEntity
  8
_U+30EC_U+30A4_U+30E4_U+30FC 1
 62
     7
370
     5
100
AcDb2dPolyline
 66
     1
 10
0.0
 20
0.0
 30
0.0
  0
VERTEX
  5
C5
330
C4
100
AcDbEntity
  8
_U+30EC_U+30A4_U+30E4_U+30FC 1
 62
     7
370
     5
100
AcDbVertex
100
AcDb2dVertex
 10
142.5852599734581
 20
107.7322628070766
 30
0.0
  0
VERTEX
  5
C6
330
C4
100
AcDbEntity
  8
_U+30EC_U+30A4_U+30E4_U+30FC 1
 62
     7
370
     5
100
AcDbVertex
100
AcDb2dVertex
 10
143.4431096737947
 20
108.2493644605509
 30
0.0
  0
SEQEND
  5
C7
330
C4
100
AcDbEntity
  8
_U+30EC_U+30A4_U+30E4_U+30FC 1
 62
     7
370
     5
  0
POLYLINE
  5
C8
330
41
100
AcDbEntity
  8
_U+30EC_U+30A4_U+30E4_U+30FC 1
 62
     7
370
     5
100
AcDb2dPolyline
 66
     1
 10
0.0
 20
0.0
 30
0.0
  0
VERTEX
  5
C9
330
C8
100
AcDbEntity
  8
_U+30EC_U+30A4_U+30E4_U+30FC 1
 62
     7
370
     5
100
AcDbVertex
100
AcDb2dVertex
 10
147.466257904489
 20
102.7761610854173
 30
0.0
  0
VERTEX
  5
CA
330
C8
100
AcDbEntity
  8
_U+30EC_U+30A4_U+30E4_U+30FC 1
 62
     7
370
     5
100
AcDbVertex
100
AcDb2dVertex
 10
142.9645666304478
 20
105.3813517559422
 30
0.0
  0
VERTEX
  5
CB
330
C8
100
AcDbEntity
  8
_U+30EC_U+30A4_U+30E4_U+30FC 1
 62
     7
370
     5
100
AcDbVertex
100
AcDb2dVertex
 10
143.4431096737947
 20
108.2493644605509
 30
0.0
  0
VERTEX
  5
CC
330
C8
100
AcDbEntity
  8
_U+30EC_U+30A4_U+30E4_U+30FC 1
 62
     7
370
     5
100
AcDbVertex
100
AcDb2dVertex
 10
142.7513124692217
 20
108.6495202836754
 30
0.0
  0
VERTEX
  5
CD
330
C8
100
AcDbEntity
  8
_U+30EC_U+30A4_U+30E4_U+30FC 1
 62
     7
370
     5
100
AcDbVertex
100
AcDb2dVertex
 10
141.8934980466619
 20
108.1324186302011
 30
0.0
  0
SEQEND
  5
CE
330
C8
100
AcDbEntity
  8
_U+30EC_U+30A4_U+30E4_U+30FC 1
 62
     7
370
     5
  0
POLYLINE
  5
CF
330
41
100
AcDbEntity
  8
_U+30EC_U+30A4_U+30E4_U+30FC 1
 62
     7
370
     5
100
AcDb2dPolyline
 66
     1
 10
0.0
 20
0.0
 30
0.0
  0
VERTEX
  5
D0
330
CF
100
AcDbEntity
  8
_U+30EC_U+30A4_U+30E4_U+30FC 1
 62
     7
370
     5
100
AcDbVertex
100
AcDb2dVertex
 10
137.9316273144044
 20
107.8209864159241
 30
0.0
  0
VERTEX
  5
D1
330
CF
100
AcDbEntity
  8
_U+30EC_U+30A4_U+30E4_U+30FC 1
 62
     7
370
     5
100
AcDbVertex
100
AcDb2dVertex
 10
138.7897945147329
 20
108.3380880693984
 30
0.0
  0
SEQEND
  5
D2
330
CF
100
AcDbEntity
  8
_U+30EC_U+30A4_U+30E4_U+30FC 1
 62
     7
370
     5
  0
POLYLINE
  5
D3
330
41
100
AcDbEntity
  8
_U+30EC_U+30A4_U+30E4_U+30FC 1
 62
     7
370
     5
100
AcDb2dPolyline
 66
     1
 10
0.0
 20
0.0
 30
0.0
  0
VERTEX
  5
D4
330
D3
100
AcDbEntity
  8
_U+30EC_U+30A4_U+30E4_U+30FC 1
 62
     7
370
     5
100
AcDbVertex
100
AcDb2dVertex
 10
142.4770983095509
 20
115.4112117778369
 30
0.0
  0
VERTEX
  5
D5
330
D3
100
AcDbEntity
  8
_U+30EC_U+30A4_U+30E4_U+30FC 1
 62
     7
370
     5
100
AcDbVertex
100
AcDb2dVertex
 10
143.3352655098794
 20
115.9283134313112
 30
0.0
  0
SEQEND
  5
D6
330
D3
100
AcDbEntity
  8
_U+30EC_U+30A4_U+30E4_U+30FC 1
 62
     7
370
     5
  0
POLYLINE
  5
D7
330
41
100
AcDbEntity
  8
_U+30EC_U+30A4_U+30E4_U+30FC 1
 62
     7
370
     5
100
AcDb2dPolyline
 66
     1
 10
0.0
 20
0.0
 30
0.0
  0
VERTEX
  5
D8
330
D7
100
AcDbEntity
  8
_U+30EC_U+30A4_U+30E4_U+30FC 1
 62
     7
370
     5
100
AcDbVertex
100
AcDb2dVertex
 10
142.4777721866027
 20
115.9955175962634
 30
0.0
  0
VERTEX
  5
D9
330
D7
100
AcDbEntity
  8
_U+30EC_U+30A4_U+30E4_U+30FC 1
 62
     7
370
     5
100
AcDbVertex
100
AcDb2dVertex
 10
143.3356182876482
 20
116.512622193094
 30
0.0
  0
SEQEND
  5
DA
330
D7
100
AcDbEntity
  8
_U+30EC_U+30A4_U+30E4_U+30FC 1
 62
     7
370
     5
  0
SPLINE
  5
DB
330
41
100
AcDbEntity
  8
_U+30EC_U+30A4_U+30E4_U+30FC 1
 62
     7
370
     5
100
AcDbSpline
210
0.0
220
0.0
230
1.0
 70
     8
 71
     3
 72
    23
 73
    19
 74
     0
 42
0.0000000001
 43
0.0000000001
 12
1.0
 22
0.0
 32
0.0
 13
1.0
 23
0.0
 33
0.0
 40
0.0
 40
0.0
 40
0.0
 40
0.0
 40
1.0
 40
1.0
 40
1.0
 40
2.0
 40
2.0
 40
2.0
 40
3.0
 40
3.0
 40
3.0
 40
4.0
 40
4.0
 40
4.0
 40
5.0
 40
5.0
 40
5.0
 40
6.0
 40
6.0
 40
6.0
 40
6.0
 10
141.3608777424374
 20
107.0999086565426
 30
0.0
 10
141.0735719564689
 20
107.0997322676582
 30
0.0
 10
140.7414316871647
 20
107.2084230982186
 30
0.0
 10
140.3652294745402
 20
107.4261575371082
 30
0.0
 10
140.3652294745402
 20
107.4261575371082
 30
0.0
 10
138.7897945147329
 20
108.3380880693984
 30
0.0
 10
138.7897945147329
 20
108.3380880693984
 30
0.0
 10
138.7897945147329
 20
108.3380880693984
 30
0.0
 10
143.3352655098794
 20
115.9283134313112
 30
0.0
 10
143.3352655098794
 20
115.9283134313112
 30
0.0
 10
143.3352655098794
 20
115.9283134313112
 30
0.0
 10
143.3356182876482
 20
116.512622193094
 30
0.0
 10
143.3356182876482
 20
116.512622193094
 30
0.0
 10
143.3356182876482
 20
116.512622193094
 30
0.0
 10
137.7883289847269
 20
119.7227558345069
 30
0.0
 10
137.7883289847269
 20
119.7227558345069
 30
0.0
 10
137.7883289847269
 20
119.7227558345069
 30
0.0
 10
136.9304792843902
 20
119.2056541810326
 30
0.0
 10
136.9304792843902
 20
119.2056541810326
 30
0.0
  0
POLYLINE
  5
DC
330
41
100
AcDbEntity
  8
_U+30EC_U+30A4_U+30E4_U+30FC 1
 62
     7
370
     5
100
AcDb2dPolyline
 66
     1
 10
0.0
 20
0.0
 30
0.0
  0
VERTEX
  5
DD
330
DC
100
AcDbEntity
  8
_U+30EC_U+30A4_U+30E4_U+30FC 1
 62
     7
370
     5
100
AcDbVertex
100
AcDb2dVertex
 10
137.1702623338284
 20
115.6658114935638
 30
0.0
  0
VERTEX
  5
DE
330
DC
100
AcDbEntity
  8
_U+30EC_U+30A4_U+30E4_U+30FC 1
 62
     7
370
     5
100
AcDbVertex
100
AcDb2dVertex
 10
138.0284295341569
 20
116.1829131470381
 30
0.0
  0
SEQEND
  5
DF
330
DC
100
AcDbEntity
  8
_U+30EC_U+30A4_U+30E4_U+30FC 1
 62
     7
370
     5
  0
POLYLINE
  5
E0
330
41
100
AcDbEntity
  8
_U+30EC_U+30A4_U+30E4_U+30FC 1
 62
     7
370
     5
100
AcDb2dPolyline
 66
     1
 10
0.0
 20
0.0
 30
0.0
  0
VERTEX
  5
E1
330
E0
100
AcDbEntity
  8
_U+30EC_U+30A4_U+30E4_U+30FC 1
 62
     7
370
     5
100
AcDbVertex
100
AcDb2dVertex
 10
130.3500097300497
 20
111.6679574288908
 30
0.0
  0
VERTEX
  5
E2
330
E0
100
AcDbEntity
  8
_U+30EC_U+30A4_U+30E4_U+30FC 1
 62
     7
370
     5
100
AcDbVertex
100
AcDb2dVertex
 10
131.2081769303783
 20
112.1850590823651
 30
0.0
  0
SEQEND
  5
E3
330
E0
100
AcDbEntity
  8
_U+30EC_U+30A4_U+30E4_U+30FC 1
 62
     7
370
     5
  0
POLYLINE
  5
E4
330
41
100
AcDbEntity
  8
_U+30EC_U+30A4_U+30E4_U+30FC 1
 62
     7
370
     5
100
AcDb2dPolyline
 66
     1
 10
0.0
 20
0.0
 30
0.0
  0
VERTEX
  5
E5
330
E4
100
AcDbEntity
  8
_U+30EC_U+30A4_U+30E4_U+30FC 1
 62
     7
370
     5
100
AcDbVertex
100
AcDb2dVertex
 10
130.4061719508392
 20
112.264472194156
 30
0.0
  0
VERTEX
  5
E6
330
E4
100
AcDbEntity
  8
_U+30EC_U+30A4_U+30E4_U+30FC 1
 62
     7
370
     5
100
AcDbVertex
100
AcDb2dVertex
 10
131.2081769303783
 20
112.7254087908019
 30
0.0
  0
SEQEND
  5
E7
330
E4
100
AcDbEntity
  8
_U+30EC_U+30A4_U+30E4_U+30FC 1
 62
     7
370
     5
  0
POLYLINE
  5
E8
330
41
100
AcDbEntity
  8
_U+30EC_U+30A4_U+30E4_U+30FC 1
 62
     7
370
     5
100
AcDb2dPolyline
 66
     1
 10
0.0
 20
0.0
 30
0.0
  0
VERTEX
  5
E9
330
E8
100
AcDbEntity
  8
_U+30EC_U+30A4_U+30E4_U+30FC 1
 62
     7
370
     5
100
AcDbVertex
100
AcDb2dVertex
 10
130.360346118675
 20
122.0514771639852
 30
0.0
  0
VERTEX
  5
EA
330
E8
100
AcDbEntity
  8
_U+30EC_U+30A4_U+30E4_U+30FC 1
 62
     7
370
     5
100
AcDbVertex
100
AcDb2dVertex
 10
131.2185166338619
 20
122.5685788174595
 30
0.0
  0
VERTEX
  5
EB
330
E8
100
AcDbEntity
  8
_U+30EC_U+30A4_U+30E4_U+30FC 1
 62
     7
370
     5
100
AcDbVertex
100
AcDb2dVertex
 10
131.2192221894174
 20
123.5243949041857
 30
0.0
  0
VERTEX
  5
EC
330
E8
100
AcDbEntity
  8
_U+30EC_U+30A4_U+30E4_U+30FC 1
 62
     7
370
     5
100
AcDbVertex
100
AcDb2dVertex
 10
127.9015909036252
 20
125.4443526329813
 30
0.0
  0
SEQEND
  5
ED
330
E8
100
AcDbEntity
  8
_U+30EC_U+30A4_U+30E4_U+30FC 1
 62
     7
370
     5
  0
POLYLINE
  5
EE
330
41
100
AcDbEntity
  8
_U+30EC_U+30A4_U+30E4_U+30FC 1
 62
     7
370
     5
100
AcDb2dPolyline
 66
     1
 10
0.0
 20
0.0
 30
0.0
  0
VERTEX
  5
EF
330
EE
100
AcDbEntity
  8
_U+30EC_U+30A4_U+30E4_U+30FC 1
 62
     7
370
     5
100
AcDbVertex
100
AcDb2dVertex
 10
130.3613691742044
 20
123.007116861827
 30
0.0
  0
VERTEX
  5
F0
330
EE
100
AcDbEntity
  8
_U+30EC_U+30A4_U+30E4_U+30FC 1
 62
     7
370
     5
100
AcDbVertex
100
AcDb2dVertex
 10
131.2192221894174
 20
123.5243949041857
 30
0.0
  0
SEQEND
  5
F1
330
EE
100
AcDbEntity
  8
_U+30EC_U+30A4_U+30E4_U+30FC 1
 62
     7
370
     5
  0
POLYLINE
  5
F2
330
41
100
AcDbEntity
  8
_U+30EC_U+30A4_U+30E4_U+30FC 1
 62
     7
370
     5
100
AcDb2dPolyline
 66
     1
 10
0.0
 20
0.0
 30
0.0
  0
VERTEX
  5
F3
330
F2
100
AcDbEntity
  8
_U+30EC_U+30A4_U+30E4_U+30FC 1
 62
     7
370
     5
100
AcDbVertex
100
AcDb2dVertex
 10
127.0435648144042
 20
124.927250979507
 30
0.0
  0
VERTEX
  5
F4
330
F2
100
AcDbEntity
  8
_U+30EC_U+30A4_U+30E4_U+30FC 1
 62
     7
370
     5
100
AcDbVertex
100
AcDb2dVertex
 10
127.9015909036252
 20
125.4443526329813
 30
0.0
  0
SEQEND
  5
F5
330
F2
100
AcDbEntity
  8
_U+30EC_U+30A4_U+30E4_U+30FC 1
 62
     7
370
     5
  0
POLYLINE
  5
F6
330
41
100
AcDbEntity
  8
_U+30EC_U+30A4_U+30E4_U+30FC 1
 62
     7
370
     5
100
AcDb2dPolyline
 66
     1
 10
0.0
 20
0.0
 30
0.0
  0
VERTEX
  5
F7
330
F6
100
AcDbEntity
  8
_U+30EC_U+30A4_U+30E4_U+30FC 1
 62
     7
370
     5
100
AcDbVertex
100
AcDb2dVertex
 10
127.8907253483469
 20
114.6067726316932
 30
0.0
  0
VERTEX
  5
F8
330
F6
100
AcDbEntity
  8
_U+30EC_U+30A4_U+30E4_U+30FC 1
 62
     7
370
     5
100
AcDbVertex
100
AcDb2dVertex
 10
127.9246625697033
 20
114.6257167978766
 30
0.0
  0
SEQEND
  5
F9
330
F6
100
AcDbEntity
  8
_U+30EC_U+30A4_U+30E4_U+30FC 1
 62
     7
370
     5
  0
POLYLINE
  5
FA
330
41
100
AcDbEntity
  8
_U+30EC_U+30A4_U+30E4_U+30FC 1
 62
     7
370
     5
100
AcDb2dPolyline
 66
     1
 10
0.0
 20
0.0
 30
0.0
  0
VERTEX
  5
FB
330
FA
100
AcDbEntity
  8
_U+30EC_U+30A4_U+30E4_U+30FC 1
 62
     7
370
     5
100
AcDbVertex
100
AcDb2dVertex
 10
127.0327345369027
 20
114.1280884772388
 30
0.0
  0
VERTEX
  5
FC
330
FA
100
AcDbEntity
  8
_U+30EC_U+30A4_U+30E4_U+30FC 1
 62
     7
370
     5
100
AcDbVertex
100
AcDb2dVertex
 10
127.8907253483469
 20
114.6067726316932
 30
0.0
  0
SEQEND
  5
FD
330
FA
100
AcDbEntity
  8
_U+30EC_U+30A4_U+30E4_U+30FC 1
 62
     7
370
     5
  0
POLYLINE
  5
FE
330
41
100
AcDbEntity
  8
_U+30EC_U+30A4_U+30E4_U+30FC 1
 62
     7
370
     5
100
AcDb2dPolyline
 66
     1
 10
0.0
 20
0.0
 30
0.0
  0
VERTEX
  5
FF
330
FE
100
AcDbEntity
  8
_U+30EC_U+30A4_U+30E4_U+30FC 1
 62
     7
370
     5
100
AcDbVertex
100
AcDb2dVertex
 10
122.9592449186039
 20
116.4502481402178
 30
0.0
  0
VERTEX
  5
100
330
FE
100
AcDbEntity
  8
_U+30EC_U+30A4_U+30E4_U+30FC 1
 62
     7
370
     5
100
AcDbVertex
100
AcDb2dVertex
 10
123.8172388579346
 20
116.9675261825765
 30
0.0
  0
SEQEND
  5
101
330
FE
100
AcDbEntity
  8
_U+30EC_U+30A4_U+30E4_U+30FC 1
 62
     7
370
     5
  0
POLYLINE
  5
102
330
41
100
AcDbEntity
  8
_U+30EC_U+30A4_U+30E4_U+30FC 1
 62
     7
370
     5
100
AcDb2dPolyline
 66
     1
 10
0.0
 20
0.0
 30
0.0
  0
VERTEX
  5
103
330
102
100
AcDbEntity
  8
_U+30EC_U+30A4_U+30E4_U+30FC 1
 62
     7
370
     5
100
AcDbVertex
100
AcDb2dVertex
 10
122.9587157519507
 20
115.9450350975513
 30
0.0
  0
VERTEX
  5
104
330
102
100
AcDbEntity
  8
_U+30EC_U+30A4_U+30E4_U+30FC 1
 62
     7
370
     5
100
AcDbVertex
100
AcDb2dVertex
 10
123.8165654522874
 20
116.4621367510256
 30
0.0
  0
SEQEND
  5
105
330
102
100
AcDbEntity
  8
_U+30EC_U+30A4_U+30E4_U+30FC 1
 62
     7
370
     5
  0
POLYLINE
  5
106
330
41
100
AcDbEntity
  8
_U+30EC_U+30A4_U+30E4_U+30FC 1
 62
     7
370
     5
100
AcDb2dPolyline
 66
     1
 10
0.0
 20
0.0
 30
0.0
  0
VERTEX
  5
107
330
106
100
AcDbEntity
  8
_U+30EC_U+30A4_U+30E4_U+30FC 1
 62
     7
370
     5
100
AcDbVertex
100
AcDb2dVertex
 10
122.9690521405759
 20
126.3464759432995
 30
0.0
  0
VERTEX
  5
108
330
106
100
AcDbEntity
  8
_U+30EC_U+30A4_U+30E4_U+30FC 1
 62
     7
370
     5
100
AcDbVertex
100
AcDb2dVertex
 10
123.8270782297969
 20
126.8635775967738
 30
0.0
  0
VERTEX
  5
109
330
106
100
AcDbEntity
  8
_U+30EC_U+30A4_U+30E4_U+30FC 1
 62
     7
370
     5
100
AcDbVertex
100
AcDb2dVertex
 10
123.8281012853264
 20
127.8016842395074
 30
0.0
  0
VERTEX
  5
10A
330
106
100
AcDbEntity
  8
_U+30EC_U+30A4_U+30E4_U+30FC 1
 62
     7
370
     5
100
AcDbVertex
100
AcDb2dVertex
 10
121.3682877369704
 20
129.2251778143022
 30
0.0
  0
VERTEX
  5
10B
330
106
100
AcDbEntity
  8
_U+30EC_U+30A4_U+30E4_U+30FC 1
 62
     7
370
     5
100
AcDbVertex
100
AcDb2dVertex
 10
121.0931916328775
 20
128.370644224992
 30
0.0
  0
SEQEND
  5
10C
330
106
100
AcDbEntity
  8
_U+30EC_U+30A4_U+30E4_U+30FC 1
 62
     7
370
     5
  0
POLYLINE
  5
10D
330
41
100
AcDbEntity
  8
_U+30EC_U+30A4_U+30E4_U+30FC 1
 62
     7
370
     5
100
AcDb2dPolyline
 66
     1
 10
0.0
 20
0.0
 30
0.0
  0
VERTEX
  5
10E
330
10D
100
AcDbEntity
  8
_U+30EC_U+30A4_U+30E4_U+30FC 1
 62
     7
370
     5
100
AcDbVertex
100
AcDb2dVertex
 10
122.9701104738822
 20
127.2845473082562
 30
0.0
  0
VERTEX
  5
10F
330
10D
100
AcDbEntity
  8
_U+30EC_U+30A4_U+30E4_U+30FC 1
 62
     7
370
     5
100
AcDbVertex
100
AcDb2dVertex
 10
123.8281012853264
 20
127.8016842395074
 30
0.0
  0
SEQEND
  5
110
330
10D
100
AcDbEntity
  8
_U+30EC_U+30A4_U+30E4_U+30FC 1
 62
     7
370
     5
  0
POLYLINE
  5
111
330
41
100
AcDbEntity
  8
_U+30EC_U+30A4_U+30E4_U+30FC 1
 62
     7
370
     5
100
AcDb2dPolyline
 66
     1
 10
0.0
 20
0.0
 30
0.0
  0
VERTEX
  5
112
330
111
100
AcDbEntity
  8
_U+30EC_U+30A4_U+30E4_U+30FC 1
 62
     7
370
     5
100
AcDbVertex
100
AcDb2dVertex
 10
120.5102999698725
 20
128.7078997719435
 30
0.0
  0
VERTEX
  5
113
330
111
100
AcDbEntity
  8
_U+30EC_U+30A4_U+30E4_U+30FC 1
 62
     7
370
     5
100
AcDbVertex
100
AcDb2dVertex
 10
121.3682877369704
 20
129.2251778143022
 30
0.0
  0
SEQEND
  5
114
330
111
100
AcDbEntity
  8
_U+30EC_U+30A4_U+30E4_U+30FC 1
 62
     7
370
     5
  0
POLYLINE
  5
115
330
41
100
AcDbEntity
  8
_U+30EC_U+30A4_U+30E4_U+30FC 1
 62
     7
370
     5
100
AcDb2dPolyline
 66
     1
 10
0.0
 20
0.0
 30
0.0
  0
VERTEX
  5
116
330
115
100
AcDbEntity
  8
_U+30EC_U+30A4_U+30E4_U+30FC 1
 62
     7
370
     5
100
AcDbVertex
100
AcDb2dVertex
 10
119.6536819473803
 20
118.3631503136378
 30
0.0
  0
VERTEX
  5
117
330
115
100
AcDbEntity
  8
_U+30EC_U+30A4_U+30E4_U+30FC 1
 62
     7
370
     5
100
AcDbVertex
100
AcDb2dVertex
 10
120.5116727588244
 20
118.8802519671121
 30
0.0
  0
SEQEND
  5
118
330
115
100
AcDbEntity
  8
_U+30EC_U+30A4_U+30E4_U+30FC 1
 62
     7
370
     5
  0
POLYLINE
  5
119
330
41
100
AcDbEntity
  8
_U+30EC_U+30A4_U+30E4_U+30FC 1
 62
     7
370
     5
100
AcDb2dPolyline
 66
     1
 10
0.0
 20
0.0
 30
0.0
  0
VERTEX
  5
11A
330
119
100
AcDbEntity
  8
_U+30EC_U+30A4_U+30E4_U+30FC 1
 62
     7
370
     5
100
AcDbVertex
100
AcDb2dVertex
 10
118.1788239294515
 20
118.711447804752
 30
0.0
  0
VERTEX
  5
11B
330
119
100
AcDbEntity
  8
_U+30EC_U+30A4_U+30E4_U+30FC 1
 62
     7
370
     5
100
AcDbVertex
100
AcDb2dVertex
 10
119.0368147408956
 20
119.2285494582263
 30
0.0
  0
SEQEND
  5
11C
330
119
100
AcDbEntity
  8
_U+30EC_U+30A4_U+30E4_U+30FC 1
 62
     7
370
     5
  0
POLYLINE
  5
11D
330
41
100
AcDbEntity
  8
_U+30EC_U+30A4_U+30E4_U+30FC 1
 62
     7
370
     5
100
AcDb2dPolyline
 66
     1
 10
0.0
 20
0.0
 30
0.0
  0
VERTEX
  5
11E
330
11D
100
AcDbEntity
  8
_U+30EC_U+30A4_U+30E4_U+30FC 1
 62
     7
370
     5
100
AcDbVertex
100
AcDb2dVertex
 10
115.398476500384
 20
131.6662235853592
 30
0.0
  0
VERTEX
  5
11F
330
11D
100
AcDbEntity
  8
_U+30EC_U+30A4_U+30E4_U+30FC 1
 62
     7
370
     5
100
AcDbVertex
100
AcDb2dVertex
 10
116.2564673118282
 20
132.1835016277179
 30
0.0
  0
SEQEND
  5
120
330
11D
100
AcDbEntity
  8
_U+30EC_U+30A4_U+30E4_U+30FC 1
 62
     7
370
     5
  0
POLYLINE
  5
121
330
41
100
AcDbEntity
  8
_U+30EC_U+30A4_U+30E4_U+30FC 1
 62
     7
370
     5
100
AcDb2dPolyline
 66
     1
 10
0.0
 20
0.0
 30
0.0
  0
VERTEX
  5
122
330
121
100
AcDbEntity
  8
_U+30EC_U+30A4_U+30E4_U+30FC 1
 62
     7
370
     5
100
AcDbVertex
100
AcDb2dVertex
 10
113.1694854461392
 20
132.9562260524485
 30
0.0
  0
VERTEX
  5
123
330
121
100
AcDbEntity
  8
_U+30EC_U+30A4_U+30E4_U+30FC 1
 62
     7
370
     5
100
AcDbVertex
100
AcDb2dVertex
 10
114.0273351464759
 20
133.4733277059228
 30
0.0
  0
SEQEND
  5
124
330
121
100
AcDbEntity
  8
_U+30EC_U+30A4_U+30E4_U+30FC 1
 62
     7
370
     5
  0
POLYLINE
  5
125
330
41
100
AcDbEntity
  8
_U+30EC_U+30A4_U+30E4_U+30FC 1
 62
     7
370
     5
100
AcDb2dPolyline
 66
     1
 10
0.0
 20
0.0
 30
0.0
  0
VERTEX
  5
126
330
125
100
AcDbEntity
  8
_U+30EC_U+30A4_U+30E4_U+30FC 1
 62
     7
370
     5
100
AcDbVertex
100
AcDb2dVertex
 10
115.7853326016256
 20
120.6017722009702
 30
0.0
  0
VERTEX
  5
127
330
125
100
AcDbEntity
  8
_U+30EC_U+30A4_U+30E4_U+30FC 1
 62
     7
370
     5
100
AcDbVertex
100
AcDb2dVertex
 10
116.6431823019623
 20
121.1190502433289
 30
0.0
  0
SEQEND
  5
128
330
125
100
AcDbEntity
  8
_U+30EC_U+30A4_U+30E4_U+30FC 1
 62
     7
370
     5
  0
POLYLINE
  5
129
330
41
100
AcDbEntity
  8
_U+30EC_U+30A4_U+30E4_U+30FC 1
 62
     7
370
     5
100
AcDb2dPolyline
 66
     1
 10
0.0
 20
0.0
 30
0.0
  0
VERTEX
  5
12A
330
129
100
AcDbEntity
  8
_U+30EC_U+30A4_U+30E4_U+30FC 1
 62
     7
370
     5
100
AcDbVertex
100
AcDb2dVertex
 10
115.7846623238649
 20
120.09705304718
 30
0.0
  0
VERTEX
  5
12B
330
129
100
AcDbEntity
  8
_U+30EC_U+30A4_U+30E4_U+30FC 1
 62
     7
370
     5
100
AcDbVertex
100
AcDb2dVertex
 10
116.6426531353091
 20
120.6141547006543
 30
0.0
  0
SEQEND
  5
12C
330
129
100
AcDbEntity
  8
_U+30EC_U+30A4_U+30E4_U+30FC 1
 62
     7
370
     5
  0
POLYLINE
  5
12D
330
41
100
AcDbEntity
  8
_U+30EC_U+30A4_U+30E4_U+30FC 1
 62
     7
370
     5
100
AcDb2dPolyline
 66
     1
 10
0.0
 20
0.0
 30
0.0
  0
VERTEX
  5
12E
330
12D
100
AcDbEntity
  8
_U+30EC_U+30A4_U+30E4_U+30FC 1
 62
     7
370
     5
100
AcDbVertex
100
AcDb2dVertex
 10
113.1584787797534
 20
122.1219268844101
 30
0.0
  0
VERTEX
  5
12F
330
12D
100
AcDbEntity
  8
_U+30EC_U+30A4_U+30E4_U+30FC 1
 62
     7
370
     5
100
AcDbVertex
100
AcDb2dVertex
 10
114.0014765360245
 20
122.6540215930574
 30
0.0
  0
SEQEND
  5
130
330
12D
100
AcDbEntity
  8
_U+30EC_U+30A4_U+30E4_U+30FC 1
 62
     7
370
     5
  0
POLYLINE
  5
131
330
41
100
AcDbEntity
  8
_U+30EC_U+30A4_U+30E4_U+30FC 1
 62
     7
370
     5
100
AcDb2dPolyline
 66
     1
 10
0.0
 20
0.0
 30
0.0
  0
VERTEX
  5
132
330
131
100
AcDbEntity
  8
_U+30EC_U+30A4_U+30E4_U+30FC 1
 62
     7
370
     5
100
AcDbVertex
100
AcDb2dVertex
 10
109.0836133281563
 20
123.9746804482535
 30
0.0
  0
VERTEX
  5
133
330
131
100
AcDbEntity
  8
_U+30EC_U+30A4_U+30E4_U+30FC 1
 62
     7
370
     5
100
AcDbVertex
100
AcDb2dVertex
 10
109.9416041396004
 20
124.4917821017278
 30
0.0
  0
SEQEND
  5
134
330
131
100
AcDbEntity
  8
_U+30EC_U+30A4_U+30E4_U+30FC 1
 62
     7
370
     5
  0
POLYLINE
  5
135
330
41
100
AcDbEntity
  8
_U+30EC_U+30A4_U+30E4_U+30FC 1
 62
     7
370
     5
100
AcDb2dPolyline
 66
     1
 10
0.0
 20
0.0
 30
0.0
  0
VERTEX
  5
136
330
135
100
AcDbEntity
  8
_U+30EC_U+30A4_U+30E4_U+30FC 1
 62
     7
370
     5
100
AcDbVertex
100
AcDb2dVertex
 10
109.0841072170326
 20
124.5148890455827
 30
0.0
  0
VERTEX
  5
137
330
135
100
AcDbEntity
  8
_U+30EC_U+30A4_U+30E4_U+30FC 1
 62
     7
370
     5
100
AcDbVertex
100
AcDb2dVertex
 10
109.9421360836256
 20
125.0319906990571
 30
0.0
  0
SEQEND
  5
138
330
135
100
AcDbEntity
  8
_U+30EC_U+30A4_U+30E4_U+30FC 1
 62
     7
370
     5
  0
POLYLINE
  5
139
330
41
100
AcDbEntity
  8
_U+30EC_U+30A4_U+30E4_U+30FC 1
 62
     7
370
     5
100
AcDb2dPolyline
 66
     1
 10
0.0
 20
0.0
 30
0.0
  0
VERTEX
  5
13A
330
139
100
AcDbEntity
  8
_U+30EC_U+30A4_U+30E4_U+30FC 1
 62
     7
370
     5
100
AcDbVertex
100
AcDb2dVertex
 10
109.0943024945502
 20
134.3580237944635
 30
0.0
  0
VERTEX
  5
13B
330
139
100
AcDbEntity
  8
_U+30EC_U+30A4_U+30E4_U+30FC 1
 62
     7
370
     5
100
AcDbVertex
100
AcDb2dVertex
 10
109.9522933059944
 20
134.8751254479378
 30
0.0
  0
VERTEX
  5
13C
330
139
100
AcDbEntity
  8
_U+30EC_U+30A4_U+30E4_U+30FC 1
 62
     7
370
     5
100
AcDbVertex
100
AcDb2dVertex
 10
109.9531399726395
 20
135.8308004235565
 30
0.0
  0
VERTEX
  5
13D
330
139
100
AcDbEntity
  8
_U+30EC_U+30A4_U+30E4_U+30FC 1
 62
     7
370
     5
100
AcDbVertex
100
AcDb2dVertex
 10
106.6350181128474
 20
137.7511109301208
 30
0.0
  0
SEQEND
  5
13E
330
139
100
AcDbEntity
  8
_U+30EC_U+30A4_U+30E4_U+30FC 1
 62
     7
370
     5
  0
POLYLINE
  5
13F
330
41
100
AcDbEntity
  8
_U+30EC_U+30A4_U+30E4_U+30FC 1
 62
     7
370
     5
100
AcDb2dPolyline
 66
     1
 10
0.0
 20
0.0
 30
0.0
  0
VERTEX
  5
140
330
13F
100
AcDbEntity
  8
_U+30EC_U+30A4_U+30E4_U+30FC 1
 62
     7
370
     5
100
AcDbVertex
100
AcDb2dVertex
 10
109.0951491611953
 20
135.3136987700822
 30
0.0
  0
VERTEX
  5
141
330
13F
100
AcDbEntity
  8
_U+30EC_U+30A4_U+30E4_U+30FC 1
 62
     7
370
     5
100
AcDbVertex
100
AcDb2dVertex
 10
109.9531399726395
 20
135.8308004235565
 30
0.0
  0
SEQEND
  5
142
330
13F
100
AcDbEntity
  8
_U+30EC_U+30A4_U+30E4_U+30FC 1
 62
     7
370
     5
  0
POLYLINE
  5
143
330
41
100
AcDbEntity
  8
_U+30EC_U+30A4_U+30E4_U+30FC 1
 62
     7
370
     5
100
AcDb2dPolyline
 66
     1
 10
0.0
 20
0.0
 30
0.0
  0
VERTEX
  5
144
330
143
100
AcDbEntity
  8
_U+30EC_U+30A4_U+30E4_U+30FC 1
 62
     7
370
     5
100
AcDbVertex
100
AcDb2dVertex
 10
105.7769920236263
 20
137.2340092766465
 30
0.0
  0
VERTEX
  5
145
330
143
100
AcDbEntity
  8
_U+30EC_U+30A4_U+30E4_U+30FC 1
 62
     7
370
     5
100
AcDbVertex
100
AcDb2dVertex
 10
106.6350181128474
 20
137.7511109301208
 30
0.0
  0
SEQEND
  5
146
330
143
100
AcDbEntity
  8
_U+30EC_U+30A4_U+30E4_U+30FC 1
 62
     7
370
     5
  0
POLYLINE
  5
147
330
41
100
AcDbEntity
  8
_U+30EC_U+30A4_U+30E4_U+30FC 1
 62
     7
370
     5
100
AcDb2dPolyline
 66
     1
 10
0.0
 20
0.0
 30
0.0
  0
VERTEX
  5
148
330
147
100
AcDbEntity
  8
_U+30EC_U+30A4_U+30E4_U+30FC 1
 62
     7
370
     5
100
AcDbVertex
100
AcDb2dVertex
 10
105.7659853572405
 20
126.4351642743702
 30
0.0
  0
VERTEX
  5
149
330
147
100
AcDbEntity
  8
_U+30EC_U+30A4_U+30E4_U+30FC 1
 62
     7
370
     5
100
AcDbVertex
100
AcDb2dVertex
 10
106.6239761686846
 20
126.9522659278445
 30
0.0
  0
SEQEND
  5
14A
330
147
100
AcDbEntity
  8
_U+30EC_U+30A4_U+30E4_U+30FC 1
 62
     7
370
     5
  0
POLYLINE
  5
14B
330
41
100
AcDbEntity
  8
_U+30EC_U+30A4_U+30E4_U+30FC 1
 62
     7
370
     5
100
AcDb2dPolyline
 66
     1
 10
0.0
 20
0.0
 30
0.0
  0
VERTEX
  5
14C
330
14B
100
AcDbEntity
  8
_U+30EC_U+30A4_U+30E4_U+30FC 1
 62
     7
370
     5
100
AcDbVertex
100
AcDb2dVertex
 10
101.0064135342228
 20
128.649162273442
 30
0.0
  0
VERTEX
  5
14D
330
14B
100
AcDbEntity
  8
_U+30EC_U+30A4_U+30E4_U+30FC 1
 62
     7
370
     5
100
AcDbVertex
100
AcDb2dVertex
 10
101.864404345667
 20
129.1662639269163
 30
0.0
  0
SEQEND
  5
14E
330
14B
100
AcDbEntity
  8
_U+30EC_U+30A4_U+30E4_U+30FC 1
 62
     7
370
     5
  0
POLYLINE
  5
14F
330
41
100
AcDbEntity
  8
_U+30EC_U+30A4_U+30E4_U+30FC 1
 62
     7
370
     5
100
AcDb2dPolyline
 66
     1
 10
0.0
 20
0.0
 30
0.0
  0
VERTEX
  5
150
330
14F
100
AcDbEntity
  8
_U+30EC_U+30A4_U+30E4_U+30FC 1
 62
     7
370
     5
100
AcDbVertex
100
AcDb2dVertex
 10
101.0069074230991
 20
129.1893708707712
 30
0.0
  0
VERTEX
  5
151
330
14F
100
AcDbEntity
  8
_U+30EC_U+30A4_U+30E4_U+30FC 1
 62
     7
370
     5
100
AcDbVertex
100
AcDb2dVertex
 10
101.864936085645
 20
129.7064725242455
 30
0.0
  0
SEQEND
  5
152
330
14F
100
AcDbEntity
  8
_U+30EC_U+30A4_U+30E4_U+30FC 1
 62
     7
370
     5
  0
POLYLINE
  5
153
330
41
100
AcDbEntity
  8
_U+30EC_U+30A4_U+30E4_U+30FC 1
 62
     7
370
     5
100
AcDb2dPolyline
 66
     1
 10
0.0
 20
0.0
 30
0.0
  0
VERTEX
  5
154
330
153
100
AcDbEntity
  8
_U+30EC_U+30A4_U+30E4_U+30FC 1
 62
     7
370
     5
100
AcDbVertex
100
AcDb2dVertex
 10
101.016749922848
 20
139.0325056196519
 30
0.0
  0
VERTEX
  5
155
330
153
100
AcDbEntity
  8
_U+30EC_U+30A4_U+30E4_U+30FC 1
 62
     7
370
     5
100
AcDbVertex
100
AcDb2dVertex
 10
101.8747407342922
 20
139.5496072731262
 30
0.0
  0
VERTEX
  5
156
330
153
100
AcDbEntity
  8
_U+30EC_U+30A4_U+30E4_U+30FC 1
 62
     7
370
     5
100
AcDbVertex
100
AcDb2dVertex
 10
101.8757637898216
 20
140.5052822487449
 30
0.0
  0
VERTEX
  5
157
330
153
100
AcDbEntity
  8
_U+30EC_U+30A4_U+30E4_U+30FC 1
 62
     7
370
     5
100
AcDbVertex
100
AcDb2dVertex
 10
98.60897109538668
 20
142.3957830338476
 30
0.0
  0
SEQEND
  5
158
330
153
100
AcDbEntity
  8
_U+30EC_U+30A4_U+30E4_U+30FC 1
 62
     7
370
     5
  0
POLYLINE
  5
159
330
41
100
AcDbEntity
  8
_U+30EC_U+30A4_U+30E4_U+30FC 1
 62
     7
370
     5
100
AcDb2dPolyline
 66
     1
 10
0.0
 20
0.0
 30
0.0
  0
VERTEX
  5
15A
330
159
100
AcDbEntity
  8
_U+30EC_U+30A4_U+30E4_U+30FC 1
 62
     7
370
     5
100
AcDbVertex
100
AcDb2dVertex
 10
101.0177729783775
 20
139.9881805952706
 30
0.0
  0
VERTEX
  5
15B
330
159
100
AcDbEntity
  8
_U+30EC_U+30A4_U+30E4_U+30FC 1
 62
     7
370
     5
100
AcDbVertex
100
AcDb2dVertex
 10
101.8757637898216
 20
140.5052822487449
 30
0.0
  0
SEQEND
  5
15C
330
159
100
AcDbEntity
  8
_U+30EC_U+30A4_U+30E4_U+30FC 1
 62
     7
370
     5
  0
POLYLINE
  5
15D
330
41
100
AcDbEntity
  8
_U+30EC_U+30A4_U+30E4_U+30FC 1
 62
     7
370
     5
100
AcDb2dPolyline
 66
     1
 10
0.0
 20
0.0
 30
0.0
  0
VERTEX
  5
15E
330
15D
100
AcDbEntity
  8
_U+30EC_U+30A4_U+30E4_U+30FC 1
 62
     7
370
     5
100
AcDbVertex
100
AcDb2dVertex
 10
97.75098028394251
 20
141.8786813803733
 30
0.0
  0
VERTEX
  5
15F
330
15D
100
AcDbEntity
  8
_U+30EC_U+30A4_U+30E4_U+30FC 1
 62
     7
370
     5
100
AcDbVertex
100
AcDb2dVertex
 10
98.60897109538668
 20
142.3957830338476
 30
0.0
  0
SEQEND
  5
160
330
15D
100
AcDbEntity
  8
_U+30EC_U+30A4_U+30E4_U+30FC 1
 62
     7
370
     5
  0
POLYLINE
  5
161
330
41
100
AcDbEntity
  8
_U+30EC_U+30A4_U+30E4_U+30FC 1
 62
     7
370
     5
100
AcDb2dPolyline
 66
     1
 10
0.0
 20
0.0
 30
0.0
  0
VERTEX
  5
162
330
161
100
AcDbEntity
  8
_U+30EC_U+30A4_U+30E4_U+30FC 1
 62
     7
370
     5
100
AcDbVertex
100
AcDb2dVertex
 10
97.74011472866415
 20
131.0796952669895
 30
0.0
  0
VERTEX
  5
163
330
161
100
AcDbEntity
  8
_U+30EC_U+30A4_U+30E4_U+30FC 1
 62
     7
370
     5
100
AcDbVertex
100
AcDb2dVertex
 10
98.59810554010832
 20
131.5967969204638
 30
0.0
  0
SEQEND
  5
164
330
161
100
AcDbEntity
  8
_U+30EC_U+30A4_U+30E4_U+30FC 1
 62
     7
370
     5
  0
POLYLINE
  5
165
330
41
100
AcDbEntity
  8
_U+30EC_U+30A4_U+30E4_U+30FC 1
 62
     7
370
     5
100
AcDb2dPolyline
 66
     1
 10
0.0
 20
0.0
 30
0.0
  0
VERTEX
  5
166
330
165
100
AcDbEntity
  8
_U+30EC_U+30A4_U+30E4_U+30FC 1
 62
     7
370
     5
100
AcDbVertex
100
AcDb2dVertex
 10
95.85617561006077
 20
131.629358308522
 30
0.0
  0
VERTEX
  5
167
330
165
100
AcDbEntity
  8
_U+30EC_U+30A4_U+30E4_U+30FC 1
 62
     7
370
     5
100
AcDbVertex
100
AcDb2dVertex
 10
96.71399003262056
 20
132.1466363508807
 30
0.0
  0
SEQEND
  5
168
330
165
100
AcDbEntity
  8
_U+30EC_U+30A4_U+30E4_U+30FC 1
 62
     7
370
     5
  0
POLYLINE
  5
169
330
41
100
AcDbEntity
  8
_U+30EC_U+30A4_U+30E4_U+30FC 1
 62
     7
370
     5
100
AcDb2dPolyline
 66
     1
 10
0.0
 20
0.0
 30
0.0
  0
VERTEX
  5
16A
330
169
100
AcDbEntity
  8
_U+30EC_U+30A4_U+30E4_U+30FC 1
 62
     7
370
     5
100
AcDbVertex
100
AcDb2dVertex
 10
95.85666949893707
 20
132.1695316280743
 30
0.0
  0
VERTEX
  5
16B
330
169
100
AcDbEntity
  8
_U+30EC_U+30A4_U+30E4_U+30FC 1
 62
     7
370
     5
100
AcDbVertex
100
AcDb2dVertex
 10
96.71469558815811
 20
132.6866332815486
 30
0.0
  0
SEQEND
  5
16C
330
169
100
AcDbEntity
  8
_U+30EC_U+30A4_U+30E4_U+30FC 1
 62
     7
370
     5
  0
POLYLINE
  5
16D
330
41
100
AcDbEntity
  8
_U+30EC_U+30A4_U+30E4_U+30FC 1
 62
     7
370
     5
100
AcDb2dPolyline
 66
     1
 10
0.0
 20
0.0
 30
0.0
  0
VERTEX
  5
16E
330
16D
100
AcDbEntity
  8
_U+30EC_U+30A4_U+30E4_U+30FC 1
 62
     7
370
     5
100
AcDbVertex
100
AcDb2dVertex
 10
95.73404394650996
 20
138.657008962565
 30
0.0
  0
VERTEX
  5
16F
330
16D
100
AcDbEntity
  8
_U+30EC_U+30A4_U+30E4_U+30FC 1
 62
     7
370
     5
100
AcDbVertex
100
AcDb2dVertex
 10
94.87601785728891
 20
138.1398720313138
 30
0.0
  0
SEQEND
  5
170
330
16D
100
AcDbEntity
  8
_U+30EC_U+30A4_U+30E4_U+30FC 1
 62
     7
370
     5
  0
POLYLINE
  5
171
330
41
100
AcDbEntity
  8
_U+30EC_U+30A4_U+30E4_U+30FC 1
 62
     7
370
     5
100
AcDb2dPolyline
 66
     1
 10
0.0
 20
0.0
 30
0.0
  0
VERTEX
  5
172
330
171
100
AcDbEntity
  8
_U+30EC_U+30A4_U+30E4_U+30FC 1
 62
     7
370
     5
100
AcDbVertex
100
AcDb2dVertex
 10
95.86682949867786
 20
142.0127016547319
 30
0.0
  0
VERTEX
  5
173
330
171
100
AcDbEntity
  8
_U+30EC_U+30A4_U+30E4_U+30FC 1
 62
     7
370
     5
100
AcDbVertex
100
AcDb2dVertex
 10
96.72467919901452
 20
142.6078377506599
 30
0.0
  0
SEQEND
  5
174
330
171
100
AcDbEntity
  8
_U+30EC_U+30A4_U+30E4_U+30FC 1
 62
     7
370
     5
  0
POLYLINE
  5
175
330
41
100
AcDbEntity
  8
_U+30EC_U+30A4_U+30E4_U+30FC 1
 62
     7
370
     5
100
AcDb2dPolyline
 66
     1
 10
0.0
 20
0.0
 30
0.0
  0
VERTEX
  5
176
330
175
100
AcDbEntity
  8
_U+30EC_U+30A4_U+30E4_U+30FC 1
 62
     7
370
     5
100
AcDbVertex
100
AcDb2dVertex
 10
95.86753505421542
 20
142.9685177414581
 30
0.0
  0
VERTEX
  5
177
330
175
100
AcDbEntity
  8
_U+30EC_U+30A4_U+30E4_U+30FC 1
 62
     7
370
     5
100
AcDbVertex
100
AcDb2dVertex
 10
96.72552586565959
 20
143.4856582974618
 30
0.0
  0
SEQEND
  5
178
330
175
100
AcDbEntity
  8
_U+30EC_U+30A4_U+30E4_U+30FC 1
 62
     7
370
     5
  0
POLYLINE
  5
179
330
41
100
AcDbEntity
  8
_U+30EC_U+30A4_U+30E4_U+30FC 1
 62
     7
370
     5
100
AcDb2dPolyline
 66
     1
 10
0.0
 20
0.0
 30
0.0
  0
VERTEX
  5
17A
330
179
100
AcDbEntity
  8
_U+30EC_U+30A4_U+30E4_U+30FC 1
 62
     7
370
     5
100
AcDbVertex
100
AcDb2dVertex
 10
96.72467919901452
 20
142.5298033082062
 30
0.0
  0
VERTEX
  5
17B
330
179
100
AcDbEntity
  8
_U+30EC_U+30A4_U+30E4_U+30FC 1
 62
     7
370
     5
100
AcDbVertex
100
AcDb2dVertex
 10
96.72552586565959
 20
143.4856582974618
 30
0.0
  0
VERTEX
  5
17C
330
179
100
AcDbEntity
  8
_U+30EC_U+30A4_U+30E4_U+30FC 1
 62
     7
370
     5
100
AcDbVertex
100
AcDb2dVertex
 10
93.45905067121653
 20
145.3762965689195
 30
0.0
  0
VERTEX
  5
17D
330
179
100
AcDbEntity
  8
_U+30EC_U+30A4_U+30E4_U+30FC 1
 62
     7
370
     5
100
AcDbVertex
100
AcDb2dVertex
 10
92.60105985977236
 20
144.8590221860074
 30
0.0
  0
SEQEND
  5
17E
330
179
100
AcDbEntity
  8
_U+30EC_U+30A4_U+30E4_U+30FC 1
 62
     7
370
     5
  0
POLYLINE
  5
17F
330
41
100
AcDbEntity
  8
_U+30EC_U+30A4_U+30E4_U+30FC 1
 62
     7
370
     5
100
AcDb2dPolyline
 66
     1
 10
0.0
 20
0.0
 30
0.0
  0
VERTEX
  5
180
330
17F
100
AcDbEntity
  8
_U+30EC_U+30A4_U+30E4_U+30FC 1
 62
     7
370
     5
100
AcDbVertex
100
AcDb2dVertex
 10
92.59005553240806
 20
134.0598560242926
 30
0.0
  0
VERTEX
  5
181
330
17F
100
AcDbEntity
  8
_U+30EC_U+30A4_U+30E4_U+30FC 1
 62
     7
370
     5
100
AcDbVertex
100
AcDb2dVertex
 10
93.44804400483066
 20
134.5769610774669
 30
0.0
  0
SEQEND
  5
182
330
17F
100
AcDbEntity
  8
_U+30EC_U+30A4_U+30E4_U+30FC 1
 62
     7
370
     5
  0
POLYLINE
  5
183
330
41
100
AcDbEntity
  8
_U+30EC_U+30A4_U+30E4_U+30FC 1
 62
     7
370
     5
100
AcDb2dPolyline
 66
     1
 10
0.0
 20
0.0
 30
0.0
  0
VERTEX
  5
184
330
183
100
AcDbEntity
  8
_U+30EC_U+30A4_U+30E4_U+30FC 1
 62
     7
370
     5
100
AcDbVertex
100
AcDb2dVertex
 10
89.12478772623723
 20
143.4566916178927
 30
0.0
  0
VERTEX
  5
185
330
183
100
AcDbEntity
  8
_U+30EC_U+30A4_U+30E4_U+30FC 1
 62
     7
370
     5
100
AcDbVertex
100
AcDb2dVertex
 10
89.94058631653559
 20
144.0160207702897
 30
0.0
  0
SEQEND
  5
186
330
183
100
AcDbEntity
  8
_U+30EC_U+30A4_U+30E4_U+30FC 1
 62
     7
370
     5
  0
POLYLINE
  5
187
330
41
100
AcDbEntity
  8
_U+30EC_U+30A4_U+30E4_U+30FC 1
 62
     7
370
     5
100
AcDb2dPolyline
 66
     1
 10
0.0
 20
0.0
 30
0.0
  0
VERTEX
  5
188
330
187
100
AcDbEntity
  8
_U+30EC_U+30A4_U+30E4_U+30FC 1
 62
     7
370
     5
100
AcDbVertex
100
AcDb2dVertex
 10
88.24404274870692
 20
147.2962542977151
 30
0.0
  0
VERTEX
  5
189
330
187
100
AcDbEntity
  8
_U+30EC_U+30A4_U+30E4_U+30FC 1
 62
     7
370
     5
100
AcDbVertex
100
AcDb2dVertex
 10
89.10206883792796
 20
147.8133559511894
 30
0.0
  0
SEQEND
  5
18A
330
187
100
AcDbEntity
  8
_U+30EC_U+30A4_U+30E4_U+30FC 1
 62
     7
370
     5
  0
POLYLINE
  5
18B
330
41
100
AcDbEntity
  8
_U+30EC_U+30A4_U+30E4_U+30FC 1
 62
     7
370
     5
100
AcDb2dPolyline
 66
     1
 10
0.0
 20
0.0
 30
0.0
  0
VERTEX
  5
18C
330
18B
100
AcDbEntity
  8
_U+30EC_U+30A4_U+30E4_U+30FC 1
 62
     7
370
     5
100
AcDbVertex
100
AcDb2dVertex
 10
83.75233508552215
 20
142.013548321377
 30
0.0
  0
VERTEX
  5
18D
330
18B
100
AcDbEntity
  8
_U+30EC_U+30A4_U+30E4_U+30FC 1
 62
     7
370
     5
100
AcDbVertex
100
AcDb2dVertex
 10
84.6103258969663
 20
142.5306499748513
 30
0.0
  0
SEQEND
  5
18E
330
18B
100
AcDbEntity
  8
_U+30EC_U+30A4_U+30E4_U+30FC 1
 62
     7
370
     5
  0
POLYLINE
  5
18F
330
41
100
AcDbEntity
  8
_U+30EC_U+30A4_U+30E4_U+30FC 1
 62
     7
370
     5
100
AcDb2dPolyline
 66
     1
 10
0.0
 20
0.0
 30
0.0
  0
VERTEX
  5
190
330
18F
100
AcDbEntity
  8
_U+30EC_U+30A4_U+30E4_U+30FC 1
 62
     7
370
     5
100
AcDbVertex
100
AcDb2dVertex
 10
83.6708434209345
 20
139.6951633805239
 30
0.0
  0
VERTEX
  5
191
330
18F
100
AcDbEntity
  8
_U+30EC_U+30A4_U+30E4_U+30FC 1
 62
     7
370
     5
100
AcDbVertex
100
AcDb2dVertex
 10
79.60031713589339
 20
142.0505899870986
 30
0.0
  0
VERTEX
  5
192
330
18F
100
AcDbEntity
  8
_U+30EC_U+30A4_U+30E4_U+30FC 1
 62
     7
370
     5
100
AcDbVertex
100
AcDb2dVertex
 10
78.74229104667235
 20
141.5334883336243
 30
0.0
  0
SEQEND
  5
193
330
18F
100
AcDbEntity
  8
_U+30EC_U+30A4_U+30E4_U+30FC 1
 62
     7
370
     5
  0
POLYLINE
  5
194
330
41
100
AcDbEntity
  8
_U+30EC_U+30A4_U+30E4_U+30FC 1
 62
     7
370
     5
100
AcDb2dPolyline
 66
     1
 10
0.0
 20
0.0
 30
0.0
  0
VERTEX
  5
195
330
194
100
AcDbEntity
  8
_U+30EC_U+30A4_U+30E4_U+30FC 1
 62
     7
370
     5
100
AcDbVertex
100
AcDb2dVertex
 10
84.3907217359022
 20
149.018127309342
 30
0.0
  0
VERTEX
  5
196
330
194
100
AcDbEntity
  8
_U+30EC_U+30A4_U+30E4_U+30FC 1
 62
     7
370
     5
100
AcDbVertex
100
AcDb2dVertex
 10
85.40202976565715
 20
149.5992971848223
 30
0.0
  0
SEQEND
  5
197
330
194
100
AcDbEntity
  8
_U+30EC_U+30A4_U+30E4_U+30FC 1
 62
     7
370
     5
  0
ENDBLK
  5
44
330
41
100
AcDbEntity
  8
0
100
AcDbBlockEnd
  0
BLOCK
  5
23E
330
23C
100
AcDbEntity
  8
0
100
AcDbBlockBegin
  2
block 3
 70
     0
 10
0.0
 20
0.0
 30
0.0
  3
block 3
  1

  0
SPLINE
  5
240
330
23C
100
AcDbEntity
  8
_U+30EC_U+30A4_U+30E4_U+30FC 1
370
     0
100
AcDbSpline
210
0.0
220
0.0
230
1.0
 70
    11
 71
     3
 72
    23
 73
    19
 74
     0
 42
0.0000000001
 43
0.0000000001
 12
1.0
 22
0.0
 32
0.0
 13
1.0
 23
0.0
 33
0.0
 40
0.0
 40
0.0
 40
0.0
 40
0.0
 40
1.0
 40
1.0
 40
1.0
 40
2.0
 40
2.0
 40
2.0
 40
3.0
 40
3.0
 40
3.0
 40
4.0
 40
4.0
 40
4.0
 40
5.0
 40
5.0
 40
5.0
 40
6.0
 40
6.0
 40
6.0
 40
6.0
 10
188.3661078088113
 20
43.94598318184961
 30
0.0
 10
188.617255269686
 20
43.98663530857555
 30
0.0
 10
188.9090548572866
 20
44.01798567749132
 30
0.0
 10
189.2280706992208
 20
44.01798567749132
 30
0.0
 10
190.6016302691899
 20
44.01798567749132
 30
0.0
 10
190.996782721348
 20
43.20528765252089
 30
0.0
 10
190.996782721348
 20
42.36606239231403
 30
0.0
 10
190.996782721348
 20
41.82277083429013
 30
0.0
 10
190.8531222396131
 20
41.36009451062107
 30
0.0
 10
190.5299722830967
 20
41.02350868171217
 30
0.0
 10
190.2292154472344
 20
40.7137945975882
 30
0.0
 10
189.7307101305187
 20
40.54326237106834
 30
0.0
 10
189.10680333814
 20
40.54326237106834
 30
0.0
 10
188.823960998801
 20
40.54326237106834
 30
0.0
 10
188.5814262766394
 20
40.55221961932999
 30
0.0
 10
188.3661078088113
 20
40.57909136411494
 30
0.0
 10
188.3661078088113
 20
40.57909136411494
 30
0.0
 10
188.3661078088113
 20
43.94598318184961
 30
0.0
 10
188.3661078088113
 20
43.94598318184961
 30
0.0
  0
SPLINE
  5
241
330
23C
100
AcDbEntity
  8
_U+30EC_U+30A4_U+30E4_U+30FC 1
370
     0
100
AcDbSpline
210
0.0
220
0.0
230
1.0
 70
    11
 71
     3
 72
    20
 73
    16
 74
     0
 42
0.0000000001
 43
0.0000000001
 12
1.0
 22
0.0
 32
0.0
 13
1.0
 23
0.0
 33
0.0
 40
0.0
 40
0.0
 40
0.0
 40
0.0
 40
1.0
 40
1.0
 40
1.0
 40
2.0
 40
2.0
 40
2.0
 40
3.0
 40
3.0
 40
3.0
 40
4.0
 40
4.0
 40
4.0
 40
5.0
 40
5.0
 40
5.0
 40
5.0
 10
188.7385226307668
 20
40.86641232758478
 30
0.0
 10
188.8508327435859
 20
40.84849783106147
 30
0.0
 10
189.0124077218441
 20
40.84401920693065
 30
0.0
 10
189.1739827001024
 20
40.84401920693065
 30
0.0
 10
190.0989908378919
 20
40.84401920693065
 30
0.0
 10
190.6061088933207
 20
41.36939626843125
 30
0.0
 10
190.6061088933207
 20
42.34780338624221
 30
0.0
 10
190.6061088933207
 20
43.23698253098519
 30
0.0
 10
190.1303412068077
 20
43.71722884162902
 30
0.0
 10
189.2415065716132
 20
43.71722884162902
 30
0.0
 10
189.0258435942366
 20
43.71722884162902
 30
0.0
 10
188.8553113677167
 20
43.69483572097489
 30
0.0
 10
188.7385226307668
 20
43.67244260032076
 30
0.0
 10
188.7385226307668
 20
43.67244260032076
 30
0.0
 10
188.7385226307668
 20
40.86641232758478
 30
0.0
 10
188.7385226307668
 20
40.86641232758478
 30
0.0
  0
HATCH
  5
242
330
23C
100
AcDbEntity
  8
_U+30EC_U+30A4_U+30E4_U+30FC 1
 62
     7
100
AcDbHatch
 10
0.0
 20
0.0
 30
0.0
210
0.0
220
0.0
230
1.0
  2
SOLID
 70
     1
 71
     0
 91
        2
 92
        1
 93
        1
 72
     4
 94
        3
 73
     0
 74
     1
 95
       23
 96
       19
 40
0.0
 40
0.0
 40
0.0
 40
0.0
 40
1.0
 40
1.0
 40
1.0
 40
2.0
 40
2.0
 40
2.0
 40
3.0
 40
3.0
 40
3.0
 40
4.0
 40
4.0
 40
4.0
 40
5.0
 40
5.0
 40
5.0
 40
6.0
 40
6.0
 40
6.0
 40
6.0
 10
188.3661078088113
 20
43.94598318184961
 10
188.617255269686
 20
43.98663530857555
 10
188.9090548572866
 20
44.01798567749132
 10
189.2280706992208
 20
44.01798567749132
 10
190.6016302691899
 20
44.01798567749132
 10
190.996782721348
 20
43.20528765252089
 10
190.996782721348
 20
42.36606239231403
 10
190.996782721348
 20
41.82277083429013
 10
190.8531222396131
 20
41.36009451062107
 10
190.5299722830967
 20
41.02350868171217
 10
190.2292154472344
 20
40.7137945975882
 10
189.7307101305187
 20
40.54326237106834
 10
189.10680333814
 20
40.54326237106834
 10
188.823960998801
 20
40.54326237106834
 10
188.5814262766394
 20
40.55221961932999
 10
188.3661078088113
 20
40.57909136411494
 10
188.3661078088113
 20
40.57909136411494
 10
188.3661078088113
 20
43.94598318184961
 10
188.3661078088113
 20
43.94598318184961
 97
        0
 92
        1
 93
        1
 72
     4
 94
        3
 73
     0
 74
     1
 95
       20
 96
       16
 40
0.0
 40
0.0
 40
0.0
 40
0.0
 40
1.0
 40
1.0
 40
1.0
 40
2.0
 40
2.0
 40
2.0
 40
3.0
 40
3.0
 40
3.0
 40
4.0
 40
4.0
 40
4.0
 40
5.0
 40
5.0
 40
5.0
 40
5.0
 10
188.7385226307668
 20
40.86641232758478
 10
188.8508327435859
 20
40.84849783106147
 10
189.0124077218441
 20
40.84401920693065
 10
189.1739827001024
 20
40.84401920693065
 10
190.0989908378919
 20
40.84401920693065
 10
190.6061088933207
 20
41.36939626843125
 10
190.6061088933207
 20
42.34780338624221
 10
190.6061088933207
 20
43.23698253098519
 10
190.1303412068077
 20
43.71722884162902
 10
189.2415065716132
 20
43.71722884162902
 10
189.0258435942366
 20
43.71722884162902
 10
188.8553113677167
 20
43.69483572097489
 10
188.7385226307668
 20
43.67244260032076
 10
188.7385226307668
 20
43.67244260032076
 10
188.7385226307668
 20
40.86641232758478
 10
188.7385226307668
 20
40.86641232758478
 97
        0
 75
     2
 76
     1
 98
        0
  0
POLYLINE
  5
243
330
23C
100
AcDbEntity
  8
_U+30EC_U+30A4_U+30E4_U+30FC 1
370
     0
100
AcDb2dPolyline
 66
     1
 10
0.0
 20
0.0
 30
0.0
  0
VERTEX
  5
244
330
243
100
AcDbEntity
  8
_U+30EC_U+30A4_U+30E4_U+30FC 1
370
     0
100
AcDbVertex
100
AcDb2dVertex
 10
191.561089361832
 20
43.99111393270638
 30
0.0
  0
VERTEX
  5
245
330
243
100
AcDbEntity
  8
_U+30EC_U+30A4_U+30E4_U+30FC 1
370
     0
100
AcDbVertex
100
AcDb2dVertex
 10
191.9335041837875
 20
43.99111393270638
 30
0.0
  0
VERTEX
  5
246
330
243
100
AcDbEntity
  8
_U+30EC_U+30A4_U+30E4_U+30FC 1
370
     0
100
AcDbVertex
100
AcDb2dVertex
 10
191.9335041837875
 20
40.57013411585329
 30
0.0
  0
VERTEX
  5
247
330
243
100
AcDbEntity
  8
_U+30EC_U+30A4_U+30E4_U+30FC 1
370
     0
100
AcDbVertex
100
AcDb2dVertex
 10
191.561089361832
 20
40.57013411585329
 30
0.0
  0
VERTEX
  5
248
330
243
100
AcDbEntity
  8
_U+30EC_U+30A4_U+30E4_U+30FC 1
370
     0
100
AcDbVertex
100
AcDb2dVertex
 10
191.561089361832
 20
43.99111393270638
 30
0.0
  0
SEQEND
  5
249
330
243
100
AcDbEntity
  8
_U+30EC_U+30A4_U+30E4_U+30FC 1
370
     0
  0
HATCH
  5
24A
330
23C
100
AcDbEntity
  8
_U+30EC_U+30A4_U+30E4_U+30FC 1
 62
     7
100
AcDbHatch
 10
0.0
 20
0.0
 30
0.0
210
0.0
220
0.0
230
1.0
  2
SOLID
 70
     1
 71
     0
 91
        1
 92
        1
 93
        4
 72
     1
 10
191.561089361832
 20
43.99111393270638
 11
191.9335041837875
 21
43.99111393270638
 72
     1
 10
191.9335041837875
 20
43.99111393270638
 11
191.9335041837875
 21
40.57013411585329
 72
     1
 10
191.9335041837875
 20
40.57013411585329
 11
191.561089361832
 21
40.57013411585329
 72
     1
 10
191.561089361832
 20
40.57013411585329
 11
191.561089361832
 21
43.99111393270638
 97
        0
 75
     2
 76
     1
 98
        0
  0
SPLINE
  5
24B
330
23C
100
AcDbEntity
  8
_U+30EC_U+30A4_U+30E4_U+30FC 1
370
     0
100
AcDbSpline
210
0.0
220
0.0
230
1.0
 70
    11
 71
     3
 72
    47
 73
    43
 74
     0
 42
0.0000000001
 43
0.0000000001
 12
1.0
 22
0.0
 32
0.0
 13
1.0
 23
0.0
 33
0.0
 40
0.0
 40
0.0
 40
0.0
 40
0.0
 40
1.0
 40
1.0
 40
1.0
 40
2.0
 40
2.0
 40
2.0
 40
3.0
 40
3.0
 40
3.0
 40
4.0
 40
4.0
 40
4.0
 40
5.0
 40
5.0
 40
5.0
 40
6.0
 40
6.0
 40
6.0
 40
7.0
 40
7.0
 40
7.0
 40
8.0
 40
8.0
 40
8.0
 40
9.0
 40
9.0
 40
9.0
 40
10.0
 40
10.0
 40
10.0
 40
11.0
 40
11.0
 40
11.0
 40
12.0
 40
12.0
 40
12.0
 40
13.0
 40
13.0
 40
13.0
 40
14.0
 40
14.0
 40
14.0
 40
14.0
 10
194.0339789011443
 20
42.20862152863811
 30
0.0
 10
194.29890674396
 20
42.12352767015244
 30
0.0
 10
194.4560030980874
 20
41.86755707559838
 30
0.0
 10
194.5366183324422
 20
41.49479774409434
 30
0.0
 10
194.6444498211306
 20
41.00111556105804
 30
0.0
 10
194.7209309409031
 20
40.70035872519573
 30
0.0
 10
194.7881103028655
 20
40.57013411585329
 30
0.0
 10
194.7881103028655
 20
40.57013411585329
 30
0.0
 10
194.4022596085175
 20
40.57013411585329
 30
0.0
 10
194.4022596085175
 20
40.57013411585329
 30
0.0
 10
194.3481716093991
 20
40.66900835627996
 30
0.0
 10
194.272034999175
 20
40.96976519214227
 30
0.0
 10
194.18211800701
 20
41.3962680132162
 30
0.0
 10
194.0832437665834
 20
41.8720356997292
 30
0.0
 10
193.8947970435402
 20
42.08322005297502
 30
0.0
 10
193.4906873431204
 20
42.08322005297502
 30
0.0
 10
193.4906873431204
 20
42.08322005297502
 30
0.0
 10
193.0731417703081
 20
42.08322005297502
 30
0.0
 10
193.0731417703081
 20
42.08322005297502
 30
0.0
 10
193.0731417703081
 20
42.08322005297502
 30
0.0
 10
193.0731417703081
 20
40.57013411585329
 30
0.0
 10
193.0731417703081
 20
40.57013411585329
 30
0.0
 10
193.0731417703081
 20
40.57013411585329
 30
0.0
 10
192.7007269483526
 20
40.57013411585329
 30
0.0
 10
192.7007269483526
 20
40.57013411585329
 30
0.0
 10
192.7007269483526
 20
40.57013411585329
 30
0.0
 10
192.7007269483526
 20
43.94150455771878
 30
0.0
 10
192.7007269483526
 20
43.94150455771878
 30
0.0
 10
192.9115667920499
 20
43.98663530857555
 30
0.0
 10
193.2078450037814
 20
44.0135070533605
 30
0.0
 10
193.4772514707279
 20
44.0135070533605
 30
0.0
 10
193.9216687883251
 20
44.0135070533605
 30
0.0
 10
194.2134683759258
 20
43.92359006119548
 30
0.0
 10
194.41569548091
 20
43.73514333815231
 30
0.0
 10
194.5772704591682
 20
43.58700423228657
 30
0.0
 10
194.6713215659155
 20
43.35342675838663
 30
0.0
 10
194.6713215659155
 20
43.09780067338109
 30
0.0
 10
194.6713215659155
 20
42.64408159797369
 30
0.0
 10
194.3974364748381
 20
42.35228201037303
 30
0.0
 10
194.0339789011443
 20
42.22205740103058
 30
0.0
 10
194.0339789011443
 20
42.22205740103058
 30
0.0
 10
194.0339789011443
 20
42.20862152863811
 30
0.0
 10
194.0339789011443
 20
42.20862152863811
 30
0.0
  0
SPLINE
  5
24C
330
23C
100
AcDbEntity
  8
_U+30EC_U+30A4_U+30E4_U+30FC 1
370
     0
100
AcDbSpline
210
0.0
220
0.0
230
1.0
 70
    11
 71
     3
 72
    20
 73
    16
 74
     0
 42
0.0000000001
 43
0.0000000001
 12
1.0
 22
0.0
 32
0.0
 13
1.0
 23
0.0
 33
0.0
 40
0.0
 40
0.0
 40
0.0
 40
0.0
 40
1.0
 40
1.0
 40
1.0
 40
2.0
 40
2.0
 40
2.0
 40
3.0
 40
3.0
 40
3.0
 40
4.0
 40
4.0
 40
4.0
 40
5.0
 40
5.0
 40
5.0
 40
5.0
 10
193.5130804637745
 20
42.37054101644485
 30
0.0
 10
193.989192659836
 20
42.37054101644485
 30
0.0
 10
194.2944281198292
 20
42.63960297384286
 30
0.0
 10
194.2944281198292
 20
43.05266992252432
 30
0.0
 10
194.2944281198292
 20
43.56013248750162
 30
0.0
 10
193.9127115400635
 20
43.71722884162902
 30
0.0
 10
193.4951659672512
 20
43.71722884162902
 30
0.0
 10
193.2932833718156
 20
43.71722884162902
 30
0.0
 10
193.1496228900806
 20
43.69931434510571
 30
0.0
 10
193.0731417703081
 20
43.68139984858242
 30
0.0
 10
193.0731417703081
 20
43.68139984858242
 30
0.0
 10
193.0731417703081
 20
42.37054101644485
 30
0.0
 10
193.0731417703081
 20
42.37054101644485
 30
0.0
 10
193.0731417703081
 20
42.37054101644485
 30
0.0
 10
193.5130804637745
 20
42.37054101644485
 30
0.0
 10
193.5130804637745
 20
42.37054101644485
 30
0.0
  0
HATCH
  5
24D
330
23C
100
AcDbEntity
  8
_U+30EC_U+30A4_U+30E4_U+30FC 1
 62
     7
100
AcDbHatch
 10
0.0
 20
0.0
 30
0.0
210
0.0
220
0.0
230
1.0
  2
SOLID
 70
     1
 71
     0
 91
        2
 92
        1
 93
        1
 72
     4
 94
        3
 73
     0
 74
     1
 95
       47
 96
       43
 40
0.0
 40
0.0
 40
0.0
 40
0.0
 40
1.0
 40
1.0
 40
1.0
 40
2.0
 40
2.0
 40
2.0
 40
3.0
 40
3.0
 40
3.0
 40
4.0
 40
4.0
 40
4.0
 40
5.0
 40
5.0
 40
5.0
 40
6.0
 40
6.0
 40
6.0
 40
7.0
 40
7.0
 40
7.0
 40
8.0
 40
8.0
 40
8.0
 40
9.0
 40
9.0
 40
9.0
 40
10.0
 40
10.0
 40
10.0
 40
11.0
 40
11.0
 40
11.0
 40
12.0
 40
12.0
 40
12.0
 40
13.0
 40
13.0
 40
13.0
 40
14.0
 40
14.0
 40
14.0
 40
14.0
 10
194.0339789011443
 20
42.20862152863811
 10
194.29890674396
 20
42.12352767015244
 10
194.4560030980874
 20
41.86755707559838
 10
194.5366183324422
 20
41.49479774409434
 10
194.6444498211306
 20
41.00111556105804
 10
194.7209309409031
 20
40.70035872519573
 10
194.7881103028655
 20
40.57013411585329
 10
194.7881103028655
 20
40.57013411585329
 10
194.4022596085175
 20
40.57013411585329
 10
194.4022596085175
 20
40.57013411585329
 10
194.3481716093991
 20
40.66900835627996
 10
194.272034999175
 20
40.96976519214227
 10
194.18211800701
 20
41.3962680132162
 10
194.0832437665834
 20
41.8720356997292
 10
193.8947970435402
 20
42.08322005297502
 10
193.4906873431204
 20
42.08322005297502
 10
193.4906873431204
 20
42.08322005297502
 10
193.0731417703081
 20
42.08322005297502
 10
193.0731417703081
 20
42.08322005297502
 10
193.0731417703081
 20
42.08322005297502
 10
193.0731417703081
 20
40.57013411585329
 10
193.0731417703081
 20
40.57013411585329
 10
193.0731417703081
 20
40.57013411585329
 10
192.7007269483526
 20
40.57013411585329
 10
192.7007269483526
 20
40.57013411585329
 10
192.7007269483526
 20
40.57013411585329
 10
192.7007269483526
 20
43.94150455771878
 10
192.7007269483526
 20
43.94150455771878
 10
192.9115667920499
 20
43.98663530857555
 10
193.2078450037814
 20
44.0135070533605
 10
193.4772514707279
 20
44.0135070533605
 10
193.9216687883251
 20
44.0135070533605
 10
194.2134683759258
 20
43.92359006119548
 10
194.41569548091
 20
43.73514333815231
 10
194.5772704591682
 20
43.58700423228657
 10
194.6713215659155
 20
43.35342675838663
 10
194.6713215659155
 20
43.09780067338109
 10
194.6713215659155
 20
42.64408159797369
 10
194.3974364748381
 20
42.35228201037303
 10
194.0339789011443
 20
42.22205740103058
 10
194.0339789011443
 20
42.22205740103058
 10
194.0339789011443
 20
42.20862152863811
 10
194.0339789011443
 20
42.20862152863811
 97
        0
 92
        1
 93
        1
 72
     4
 94
        3
 73
     0
 74
     1
 95
       20
 96
       16
 40
0.0
 40
0.0
 40
0.0
 40
0.0
 40
1.0
 40
1.0
 40
1.0
 40
2.0
 40
2.0
 40
2.0
 40
3.0
 40
3.0
 40
3.0
 40
4.0
 40
4.0
 40
4.0
 40
5.0
 40
5.0
 40
5.0
 40
5.0
 10
193.5130804637745
 20
42.37054101644485
 10
193.989192659836
 20
42.37054101644485
 10
194.2944281198292
 20
42.63960297384286
 10
194.2944281198292
 20
43.05266992252432
 10
194.2944281198292
 20
43.56013248750162
 10
193.9127115400635
 20
43.71722884162902
 10
193.4951659672512
 20
43.71722884162902
 10
193.2932833718156
 20
43.71722884162902
 10
193.1496228900806
 20
43.69931434510571
 10
193.0731417703081
 20
43.68139984858242
 10
193.0731417703081
 20
43.68139984858242
 10
193.0731417703081
 20
42.37054101644485
 10
193.0731417703081
 20
42.37054101644485
 10
193.0731417703081
 20
42.37054101644485
 10
193.5130804637745
 20
42.37054101644485
 10
193.5130804637745
 20
42.37054101644485
 97
        0
 75
     2
 76
     1
 98
        0
  0
SPLINE
  5
24E
330
23C
100
AcDbEntity
  8
_U+30EC_U+30A4_U+30E4_U+30FC 1
370
     0
100
AcDbSpline
210
0.0
220
0.0
230
1.0
 70
    11
 71
     3
 72
    23
 73
    19
 74
     0
 42
0.0000000001
 43
0.0000000001
 12
1.0
 22
0.0
 32
0.0
 13
1.0
 23
0.0
 33
0.0
 40
0.0
 40
0.0
 40
0.0
 40
0.0
 40
1.0
 40
1.0
 40
1.0
 40
2.0
 40
2.0
 40
2.0
 40
3.0
 40
3.0
 40
3.0
 40
4.0
 40
4.0
 40
4.0
 40
5.0
 40
5.0
 40
5.0
 40
6.0
 40
6.0
 40
6.0
 40
6.0
 10
195.2855820909355
 20
43.94598318184961
 30
0.0
 10
195.5367295518103
 20
43.98663530857555
 30
0.0
 10
195.8285291394109
 20
44.01798567749132
 30
0.0
 10
196.1475449813451
 20
44.01798567749132
 30
0.0
 10
197.5211045513142
 20
44.01798567749132
 30
0.0
 10
197.9162570034723
 20
43.20528765252089
 30
0.0
 10
197.9162570034723
 20
42.36606239231403
 30
0.0
 10
197.9162570034723
 20
41.82277083429013
 30
0.0
 10
197.7725965217374
 20
41.36009451062107
 30
0.0
 10
197.449446565221
 20
41.02350868171217
 30
0.0
 10
197.1486897293587
 20
40.7137945975882
 30
0.0
 10
196.650184412643
 20
40.54326237106834
 30
0.0
 10
196.0262776202643
 20
40.54326237106834
 30
0.0
 10
195.7434352809253
 20
40.54326237106834
 30
0.0
 10
195.5009005587637
 20
40.55221961932999
 30
0.0
 10
195.2855820909355
 20
40.57909136411494
 30
0.0
 10
195.2855820909355
 20
40.57909136411494
 30
0.0
 10
195.2855820909355
 20
43.94598318184961
 30
0.0
 10
195.2855820909355
 20
43.94598318184961
 30
0.0
  0
SPLINE
  5
24F
330
23C
100
AcDbEntity
  8
_U+30EC_U+30A4_U+30E4_U+30FC 1
370
     0
100
AcDbSpline
210
0.0
220
0.0
230
1.0
 70
    11
 71
     3
 72
    20
 73
    16
 74
     0
 42
0.0000000001
 43
0.0000000001
 12
1.0
 22
0.0
 32
0.0
 13
1.0
 23
0.0
 33
0.0
 40
0.0
 40
0.0
 40
0.0
 40
0.0
 40
1.0
 40
1.0
 40
1.0
 40
2.0
 40
2.0
 40
2.0
 40
3.0
 40
3.0
 40
3.0
 40
4.0
 40
4.0
 40
4.0
 40
5.0
 40
5.0
 40
5.0
 40
5.0
 10
195.6579969128911
 20
40.86641232758478
 30
0.0
 10
195.7703070257102
 20
40.84849783106147
 30
0.0
 10
195.9318820039684
 20
40.84401920693065
 30
0.0
 10
196.0934569822267
 20
40.84401920693065
 30
0.0
 10
197.0184651200162
 20
40.84401920693065
 30
0.0
 10
197.525583175445
 20
41.36939626843125
 30
0.0
 10
197.525583175445
 20
42.34780338624221
 30
0.0
 10
197.525583175445
 20
43.23698253098519
 30
0.0
 10
197.049815488932
 20
43.71722884162902
 30
0.0
 10
196.1609808537376
 20
43.71722884162902
 30
0.0
 10
195.9453178763609
 20
43.71722884162902
 30
0.0
 10
195.774785649841
 20
43.69483572097489
 30
0.0
 10
195.6579969128911
 20
43.67244260032076
 30
0.0
 10
195.6579969128911
 20
43.67244260032076
 30
0.0
 10
195.6579969128911
 20
40.86641232758478
 30
0.0
 10
195.6579969128911
 20
40.86641232758478
 30
0.0
  0
HATCH
  5
250
330
23C
100
AcDbEntity
  8
_U+30EC_U+30A4_U+30E4_U+30FC 1
 62
     7
100
AcDbHatch
 10
0.0
 20
0.0
 30
0.0
210
0.0
220
0.0
230
1.0
  2
SOLID
 70
     1
 71
     0
 91
        2
 92
        1
 93
        1
 72
     4
 94
        3
 73
     0
 74
     1
 95
       23
 96
       19
 40
0.0
 40
0.0
 40
0.0
 40
0.0
 40
1.0
 40
1.0
 40
1.0
 40
2.0
 40
2.0
 40
2.0
 40
3.0
 40
3.0
 40
3.0
 40
4.0
 40
4.0
 40
4.0
 40
5.0
 40
5.0
 40
5.0
 40
6.0
 40
6.0
 40
6.0
 40
6.0
 10
195.2855820909355
 20
43.94598318184961
 10
195.5367295518103
 20
43.98663530857555
 10
195.8285291394109
 20
44.01798567749132
 10
196.1475449813451
 20
44.01798567749132
 10
197.5211045513142
 20
44.01798567749132
 10
197.9162570034723
 20
43.20528765252089
 10
197.9162570034723
 20
42.36606239231403
 10
197.9162570034723
 20
41.82277083429013
 10
197.7725965217374
 20
41.36009451062107
 10
197.449446565221
 20
41.02350868171217
 10
197.1486897293587
 20
40.7137945975882
 10
196.650184412643
 20
40.54326237106834
 10
196.0262776202643
 20
40.54326237106834
 10
195.7434352809253
 20
40.54326237106834
 10
195.5009005587637
 20
40.55221961932999
 10
195.2855820909355
 20
40.57909136411494
 10
195.2855820909355
 20
40.57909136411494
 10
195.2855820909355
 20
43.94598318184961
 10
195.2855820909355
 20
43.94598318184961
 97
        0
 92
        1
 93
        1
 72
     4
 94
        3
 73
     0
 74
     1
 95
       20
 96
       16
 40
0.0
 40
0.0
 40
0.0
 40
0.0
 40
1.0
 40
1.0
 40
1.0
 40
2.0
 40
2.0
 40
2.0
 40
3.0
 40
3.0
 40
3.0
 40
4.0
 40
4.0
 40
4.0
 40
5.0
 40
5.0
 40
5.0
 40
5.0
 10
195.6579969128911
 20
40.86641232758478
 10
195.7703070257102
 20
40.84849783106147
 10
195.9318820039684
 20
40.84401920693065
 10
196.0934569822267
 20
40.84401920693065
 10
197.0184651200162
 20
40.84401920693065
 10
197.525583175445
 20
41.36939626843125
 10
197.525583175445
 20
42.34780338624221
 10
197.525583175445
 20
43.23698253098519
 10
197.049815488932
 20
43.71722884162902
 10
196.1609808537376
 20
43.71722884162902
 10
195.9453178763609
 20
43.71722884162902
 10
195.774785649841
 20
43.69483572097489
 10
195.6579969128911
 20
43.67244260032076
 10
195.6579969128911
 20
43.67244260032076
 10
195.6579969128911
 20
40.86641232758478
 10
195.6579969128911
 20
40.86641232758478
 97
        0
 75
     2
 76
     1
 98
        0
  0
POLYLINE
  5
251
330
23C
100
AcDbEntity
  8
_U+30EC_U+30A4_U+30E4_U+30FC 1
370
     0
100
AcDb2dPolyline
 66
     1
 10
0.0
 20
0.0
 30
0.0
  0
VERTEX
  5
252
330
251
100
AcDbEntity
  8
_U+30EC_U+30A4_U+30E4_U+30FC 1
370
     0
100
AcDbVertex
100
AcDb2dVertex
 10
198.2514647941871
 20
42.08322005297502
 30
0.0
  0
VERTEX
  5
253
330
251
100
AcDbEntity
  8
_U+30EC_U+30A4_U+30E4_U+30FC 1
370
     0
100
AcDbVertex
100
AcDb2dVertex
 10
199.477229767839
 20
42.08322005297502
 30
0.0
  0
VERTEX
  5
254
330
251
100
AcDbEntity
  8
_U+30EC_U+30A4_U+30E4_U+30FC 1
370
     0
100
AcDbVertex
100
AcDb2dVertex
 10
199.477229767839
 20
41.79589908950518
 30
0.0
  0
VERTEX
  5
255
330
251
100
AcDbEntity
  8
_U+30EC_U+30A4_U+30E4_U+30FC 1
370
     0
100
AcDbVertex
100
AcDb2dVertex
 10
198.2514647941871
 20
41.79589908950518
 30
0.0
  0
VERTEX
  5
256
330
251
100
AcDbEntity
  8
_U+30EC_U+30A4_U+30E4_U+30FC 1
370
     0
100
AcDbVertex
100
AcDb2dVertex
 10
198.2514647941871
 20
42.08322005297502
 30
0.0
  0
SEQEND
  5
257
330
251
100
AcDbEntity
  8
_U+30EC_U+30A4_U+30E4_U+30FC 1
370
     0
  0
HATCH
  5
258
330
23C
100
AcDbEntity
  8
_U+30EC_U+30A4_U+30E4_U+30FC 1
 62
     7
100
AcDbHatch
 10
0.0
 20
0.0
 30
0.0
210
0.0
220
0.0
230
1.0
  2
SOLID
 70
     1
 71
     0
 91
        1
 92
        1
 93
        4
 72
     1
 10
198.2514647941871
 20
42.08322005297502
 11
199.477229767839
 21
42.08322005297502
 72
     1
 10
199.477229767839
 20
42.08322005297502
 11
199.477229767839
 21
41.79589908950518
 72
     1
 10
199.477229767839
 20
41.79589908950518
 11
198.2514647941871
 21
41.79589908950518
 72
     1
 10
198.2514647941871
 20
41.79589908950518
 11
198.2514647941871
 21
42.08322005297502
 97
        0
 75
     2
 76
     1
 98
        0
  0
POLYLINE
  5
259
330
23C
100
AcDbEntity
  8
_U+30EC_U+30A4_U+30E4_U+30FC 1
370
     0
100
AcDb2dPolyline
 66
     1
 10
0.0
 20
0.0
 30
0.0
  0
VERTEX
  5
25A
330
259
100
AcDbEntity
  8
_U+30EC_U+30A4_U+30E4_U+30FC 1
370
     0
100
AcDbVertex
100
AcDb2dVertex
 10
200.7960123195927
 20
40.57013411585329
 30
0.0
  0
VERTEX
  5
25B
330
259
100
AcDbEntity
  8
_U+30EC_U+30A4_U+30E4_U+30FC 1
370
     0
100
AcDbVertex
100
AcDb2dVertex
 10
200.7960123195927
 20
43.58252560815575
 30
0.0
  0
VERTEX
  5
25C
330
259
100
AcDbEntity
  8
_U+30EC_U+30A4_U+30E4_U+30FC 1
370
     0
100
AcDbVertex
100
AcDb2dVertex
 10
200.787055071331
 20
43.58252560815575
 30
0.0
  0
VERTEX
  5
25D
330
259
100
AcDbEntity
  8
_U+30EC_U+30A4_U+30E4_U+30FC 1
370
     0
100
AcDbVertex
100
AcDb2dVertex
 10
200.2348062650455
 20
43.26385427577014
 30
0.0
  0
VERTEX
  5
25E
330
259
100
AcDbEntity
  8
_U+30EC_U+30A4_U+30E4_U+30FC 1
370
     0
100
AcDbVertex
100
AcDb2dVertex
 10
200.145233782429
 20
43.54221799097832
 30
0.0
  0
VERTEX
  5
25F
330
259
100
AcDbEntity
  8
_U+30EC_U+30A4_U+30E4_U+30FC 1
370
     0
100
AcDbVertex
100
AcDb2dVertex
 10
200.8407985609009
 20
43.93254730945713
 30
0.0
  0
VERTEX
  5
260
330
259
100
AcDbEntity
  8
_U+30EC_U+30A4_U+30E4_U+30FC 1
370
     0
100
AcDbVertex
100
AcDb2dVertex
 10
201.1598144028351
 20
43.93254730945713
 30
0.0
  0
VERTEX
  5
261
330
259
100
AcDbEntity
  8
_U+30EC_U+30A4_U+30E4_U+30FC 1
370
     0
100
AcDbVertex
100
AcDb2dVertex
 10
201.1598144028351
 20
40.57013411585329
 30
0.0
  0
VERTEX
  5
262
330
259
100
AcDbEntity
  8
_U+30EC_U+30A4_U+30E4_U+30FC 1
370
     0
100
AcDbVertex
100
AcDb2dVertex
 10
200.7960123195927
 20
40.57013411585329
 30
0.0
  0
SEQEND
  5
263
330
259
100
AcDbEntity
  8
_U+30EC_U+30A4_U+30E4_U+30FC 1
370
     0
  0
HATCH
  5
264
330
23C
100
AcDbEntity
  8
_U+30EC_U+30A4_U+30E4_U+30FC 1
 62
     7
100
AcDbHatch
 10
0.0
 20
0.0
 30
0.0
210
0.0
220
0.0
230
1.0
  2
SOLID
 70
     1
 71
     0
 91
        1
 92
        1
 93
        8
 72
     1
 10
200.7960123195927
 20
40.57013411585329
 11
200.7960123195927
 21
43.58252560815575
 72
     1
 10
200.7960123195927
 20
43.58252560815575
 11
200.787055071331
 21
43.58252560815575
 72
     1
 10
200.787055071331
 20
43.58252560815575
 11
200.2348062650455
 21
43.26385427577014
 72
     1
 10
200.2348062650455
 20
43.26385427577014
 11
200.145233782429
 21
43.54221799097832
 72
     1
 10
200.145233782429
 20
43.54221799097832
 11
200.8407985609009
 21
43.93254730945713
 72
     1
 10
200.8407985609009
 20
43.93254730945713
 11
201.1598144028351
 21
43.93254730945713
 72
     1
 10
201.1598144028351
 20
43.93254730945713
 11
201.1598144028351
 21
40.57013411585329
 72
     1
 10
201.1598144028351
 20
40.57013411585329
 11
200.7960123195927
 21
40.57013411585329
 97
        0
 75
     2
 76
     1
 98
        0
  0
POLYLINE
  5
265
330
23C
100
AcDbEntity
  8
_U+30EC_U+30A4_U+30E4_U+30FC 1
370
     0
100
AcDb2dPolyline
 66
     1
 10
0.0
 20
0.0
 30
0.0
  0
VERTEX
  5
266
330
265
100
AcDbEntity
  8
_U+30EC_U+30A4_U+30E4_U+30FC 1
370
     0
100
AcDbVertex
100
AcDb2dVertex
 10
203.2685573493565
 20
40.57013411585329
 30
0.0
  0
VERTEX
  5
267
330
265
100
AcDbEntity
  8
_U+30EC_U+30A4_U+30E4_U+30FC 1
370
     0
100
AcDbVertex
100
AcDb2dVertex
 10
203.2685573493565
 20
43.58252560815575
 30
0.0
  0
VERTEX
  5
268
330
265
100
AcDbEntity
  8
_U+30EC_U+30A4_U+30E4_U+30FC 1
370
     0
100
AcDbVertex
100
AcDb2dVertex
 10
203.2596001010948
 20
43.58252560815575
 30
0.0
  0
VERTEX
  5
269
330
265
100
AcDbEntity
  8
_U+30EC_U+30A4_U+30E4_U+30FC 1
370
     0
100
AcDbVertex
100
AcDb2dVertex
 10
202.7073512948093
 20
43.26385427577014
 30
0.0
  0
VERTEX
  5
26A
330
265
100
AcDbEntity
  8
_U+30EC_U+30A4_U+30E4_U+30FC 1
370
     0
100
AcDbVertex
100
AcDb2dVertex
 10
202.6177788121928
 20
43.54221799097832
 30
0.0
  0
VERTEX
  5
26B
330
265
100
AcDbEntity
  8
_U+30EC_U+30A4_U+30E4_U+30FC 1
370
     0
100
AcDbVertex
100
AcDb2dVertex
 10
203.3133435906647
 20
43.93254730945713
 30
0.0
  0
VERTEX
  5
26C
330
265
100
AcDbEntity
  8
_U+30EC_U+30A4_U+30E4_U+30FC 1
370
     0
100
AcDbVertex
100
AcDb2dVertex
 10
203.6323594325989
 20
43.93254730945713
 30
0.0
  0
VERTEX
  5
26D
330
265
100
AcDbEntity
  8
_U+30EC_U+30A4_U+30E4_U+30FC 1
370
     0
100
AcDbVertex
100
AcDb2dVertex
 10
203.6323594325989
 20
40.57013411585329
 30
0.0
  0
VERTEX
  5
26E
330
265
100
AcDbEntity
  8
_U+30EC_U+30A4_U+30E4_U+30FC 1
370
     0
100
AcDbVertex
100
AcDb2dVertex
 10
203.2685573493565
 20
40.57013411585329
 30
0.0
  0
SEQEND
  5
26F
330
265
100
AcDbEntity
  8
_U+30EC_U+30A4_U+30E4_U+30FC 1
370
     0
  0
HATCH
  5
270
330
23C
100
AcDbEntity
  8
_U+30EC_U+30A4_U+30E4_U+30FC 1
 62
     7
100
AcDbHatch
 10
0.0
 20
0.0
 30
0.0
210
0.0
220
0.0
230
1.0
  2
SOLID
 70
     1
 71
     0
 91
        1
 92
        1
 93
        8
 72
     1
 10
203.2685573493565
 20
40.57013411585329
 11
203.2685573493565
 21
43.58252560815575
 72
     1
 10
203.2685573493565
 20
43.58252560815575
 11
203.2596001010948
 21
43.58252560815575
 72
     1
 10
203.2596001010948
 20
43.58252560815575
 11
202.7073512948093
 21
43.26385427577014
 72
     1
 10
202.7073512948093
 20
43.26385427577014
 11
202.6177788121928
 21
43.54221799097832
 72
     1
 10
202.6177788121928
 20
43.54221799097832
 11
203.3133435906647
 21
43.93254730945713
 72
     1
 10
203.3133435906647
 20
43.93254730945713
 11
203.6323594325989
 21
43.93254730945713
 72
     1
 10
203.6323594325989
 20
43.93254730945713
 11
203.6323594325989
 21
40.57013411585329
 72
     1
 10
203.6323594325989
 20
40.57013411585329
 11
203.2685573493565
 21
40.57013411585329
 97
        0
 75
     2
 76
     1
 98
        0
  0
SPLINE
  5
271
330
23C
100
AcDbEntity
  8
_U+30EC_U+30A4_U+30E4_U+30FC 1
370
     0
100
AcDbSpline
210
0.0
220
0.0
230
1.0
 70
    11
 71
     3
 72
    23
 73
    19
 74
     0
 42
0.0000000001
 43
0.0000000001
 12
1.0
 22
0.0
 32
0.0
 13
1.0
 23
0.0
 33
0.0
 40
0.0
 40
0.0
 40
0.0
 40
0.0
 40
1.0
 40
1.0
 40
1.0
 40
2.0
 40
2.0
 40
2.0
 40
3.0
 40
3.0
 40
3.0
 40
4.0
 40
4.0
 40
4.0
 40
5.0
 40
5.0
 40
5.0
 40
6.0
 40
6.0
 40
6.0
 40
6.0
 10
188.3661078088113
 20
38.56129893840411
 30
0.0
 10
188.617255269686
 20
38.60195106513006
 30
0.0
 10
188.9090548572866
 20
38.63330143404583
 30
0.0
 10
189.2280706992208
 20
38.63330143404583
 30
0.0
 10
190.6016302691899
 20
38.63330143404583
 30
0.0
 10
190.996782721348
 20
37.8206034090754
 30
0.0
 10
190.996782721348
 20
36.98137814886853
 30
0.0
 10
190.996782721348
 20
36.43808659084463
 30
0.0
 10
190.8531222396131
 20
35.97541026717558
 30
0.0
 10
190.5299722830967
 20
35.63882443826667
 30
0.0
 10
190.2292154472344
 20
35.32911035414271
 30
0.0
 10
189.7307101305187
 20
35.15857812762285
 30
0.0
 10
189.10680333814
 20
35.15857812762285
 30
0.0
 10
188.823960998801
 20
35.15857812762285
 30
0.0
 10
188.5814262766394
 20
35.16753537588449
 30
0.0
 10
188.3661078088113
 20
35.19440712066944
 30
0.0
 10
188.3661078088113
 20
35.19440712066944
 30
0.0
 10
188.3661078088113
 20
38.56129893840411
 30
0.0
 10
188.3661078088113
 20
38.56129893840411
 30
0.0
  0
SPLINE
  5
272
330
23C
100
AcDbEntity
  8
_U+30EC_U+30A4_U+30E4_U+30FC 1
370
     0
100
AcDbSpline
210
0.0
220
0.0
230
1.0
 70
    11
 71
     3
 72
    20
 73
    16
 74
     0
 42
0.0000000001
 43
0.0000000001
 12
1.0
 22
0.0
 32
0.0
 13
1.0
 23
0.0
 33
0.0
 40
0.0
 40
0.0
 40
0.0
 40
0.0
 40
1.0
 40
1.0
 40
1.0
 40
2.0
 40
2.0
 40
2.0
 40
3.0
 40
3.0
 40
3.0
 40
4.0
 40
4.0
 40
4.0
 40
5.0
 40
5.0
 40
5.0
 40
5.0
 10
188.7385226307668
 20
35.48172808413928
 30
0.0
 10
188.8508327435859
 20
35.46381358761598
 30
0.0
 10
189.0124077218441
 20
35.45933496348515
 30
0.0
 10
189.1739827001024
 20
35.45933496348515
 30
0.0
 10
190.0989908378919
 20
35.45933496348515
 30
0.0
 10
190.6061088933207
 20
35.98471202498575
 30
0.0
 10
190.6061088933207
 20
36.96311914279671
 30
0.0
 10
190.6061088933207
 20
37.85229828753969
 30
0.0
 10
190.1303412068077
 20
38.33254459818352
 30
0.0
 10
189.2415065716132
 20
38.33254459818352
 30
0.0
 10
189.0258435942366
 20
38.33254459818352
 30
0.0
 10
188.8553113677167
 20
38.31015147752939
 30
0.0
 10
188.7385226307668
 20
38.28775835687527
 30
0.0
 10
188.7385226307668
 20
38.28775835687527
 30
0.0
 10
188.7385226307668
 20
35.48172808413928
 30
0.0
 10
188.7385226307668
 20
35.48172808413928
 30
0.0
  0
HATCH
  5
273
330
23C
100
AcDbEntity
  8
_U+30EC_U+30A4_U+30E4_U+30FC 1
 62
     7
100
AcDbHatch
 10
0.0
 20
0.0
 30
0.0
210
0.0
220
0.0
230
1.0
  2
SOLID
 70
     1
 71
     0
 91
        2
 92
        1
 93
        1
 72
     4
 94
        3
 73
     0
 74
     1
 95
       23
 96
       19
 40
0.0
 40
0.0
 40
0.0
 40
0.0
 40
1.0
 40
1.0
 40
1.0
 40
2.0
 40
2.0
 40
2.0
 40
3.0
 40
3.0
 40
3.0
 40
4.0
 40
4.0
 40
4.0
 40
5.0
 40
5.0
 40
5.0
 40
6.0
 40
6.0
 40
6.0
 40
6.0
 10
188.3661078088113
 20
38.56129893840411
 10
188.617255269686
 20
38.60195106513006
 10
188.9090548572866
 20
38.63330143404583
 10
189.2280706992208
 20
38.63330143404583
 10
190.6016302691899
 20
38.63330143404583
 10
190.996782721348
 20
37.8206034090754
 10
190.996782721348
 20
36.98137814886853
 10
190.996782721348
 20
36.43808659084463
 10
190.8531222396131
 20
35.97541026717558
 10
190.5299722830967
 20
35.63882443826667
 10
190.2292154472344
 20
35.32911035414271
 10
189.7307101305187
 20
35.15857812762285
 10
189.10680333814
 20
35.15857812762285
 10
188.823960998801
 20
35.15857812762285
 10
188.5814262766394
 20
35.16753537588449
 10
188.3661078088113
 20
35.19440712066944
 10
188.3661078088113
 20
35.19440712066944
 10
188.3661078088113
 20
38.56129893840411
 10
188.3661078088113
 20
38.56129893840411
 97
        0
 92
        1
 93
        1
 72
     4
 94
        3
 73
     0
 74
     1
 95
       20
 96
       16
 40
0.0
 40
0.0
 40
0.0
 40
0.0
 40
1.0
 40
1.0
 40
1.0
 40
2.0
 40
2.0
 40
2.0
 40
3.0
 40
3.0
 40
3.0
 40
4.0
 40
4.0
 40
4.0
 40
5.0
 40
5.0
 40
5.0
 40
5.0
 10
188.7385226307668
 20
35.48172808413928
 10
188.8508327435859
 20
35.46381358761598
 10
189.0124077218441
 20
35.45933496348515
 10
189.1739827001024
 20
35.45933496348515
 10
190.0989908378919
 20
35.45933496348515
 10
190.6061088933207
 20
35.98471202498575
 10
190.6061088933207
 20
36.96311914279671
 10
190.6061088933207
 20
37.85229828753969
 10
190.1303412068077
 20
38.33254459818352
 10
189.2415065716132
 20
38.33254459818352
 10
189.0258435942366
 20
38.33254459818352
 10
188.8553113677167
 20
38.31015147752939
 10
188.7385226307668
 20
38.28775835687527
 10
188.7385226307668
 20
38.28775835687527
 10
188.7385226307668
 20
35.48172808413928
 10
188.7385226307668
 20
35.48172808413928
 97
        0
 75
     2
 76
     1
 98
        0
  0
POLYLINE
  5
274
330
23C
100
AcDbEntity
  8
_U+30EC_U+30A4_U+30E4_U+30FC 1
370
     0
100
AcDb2dPolyline
 66
     1
 10
0.0
 20
0.0
 30
0.0
  0
VERTEX
  5
275
330
274
100
AcDbEntity
  8
_U+30EC_U+30A4_U+30E4_U+30FC 1
370
     0
100
AcDbVertex
100
AcDb2dVertex
 10
191.561089361832
 20
38.60642968926088
 30
0.0
  0
VERTEX
  5
276
330
274
100
AcDbEntity
  8
_U+30EC_U+30A4_U+30E4_U+30FC 1
370
     0
100
AcDbVertex
100
AcDb2dVertex
 10
191.9335041837875
 20
38.60642968926088
 30
0.0
  0
VERTEX
  5
277
330
274
100
AcDbEntity
  8
_U+30EC_U+30A4_U+30E4_U+30FC 1
370
     0
100
AcDbVertex
100
AcDb2dVertex
 10
191.9335041837875
 20
35.18544987240779
 30
0.0
  0
VERTEX
  5
278
330
274
100
AcDbEntity
  8
_U+30EC_U+30A4_U+30E4_U+30FC 1
370
     0
100
AcDbVertex
100
AcDb2dVertex
 10
191.561089361832
 20
35.18544987240779
 30
0.0
  0
VERTEX
  5
279
330
274
100
AcDbEntity
  8
_U+30EC_U+30A4_U+30E4_U+30FC 1
370
     0
100
AcDbVertex
100
AcDb2dVertex
 10
191.561089361832
 20
38.60642968926088
 30
0.0
  0
SEQEND
  5
27A
330
274
100
AcDbEntity
  8
_U+30EC_U+30A4_U+30E4_U+30FC 1
370
     0
  0
HATCH
  5
27B
330
23C
100
AcDbEntity
  8
_U+30EC_U+30A4_U+30E4_U+30FC 1
 62
     7
100
AcDbHatch
 10
0.0
 20
0.0
 30
0.0
210
0.0
220
0.0
230
1.0
  2
SOLID
 70
     1
 71
     0
 91
        1
 92
        1
 93
        4
 72
     1
 10
191.561089361832
 20
38.60642968926088
 11
191.9335041837875
 21
38.60642968926088
 72
     1
 10
191.9335041837875
 20
38.60642968926088
 11
191.9335041837875
 21
35.18544987240779
 72
     1
 10
191.9335041837875
 20
35.18544987240779
 11
191.561089361832
 21
35.18544987240779
 72
     1
 10
191.561089361832
 20
35.18544987240779
 11
191.561089361832
 21
38.60642968926088
 97
        0
 75
     2
 76
     1
 98
        0
  0
SPLINE
  5
27C
330
23C
100
AcDbEntity
  8
_U+30EC_U+30A4_U+30E4_U+30FC 1
370
     0
100
AcDbSpline
210
0.0
220
0.0
230
1.0
 70
    11
 71
     3
 72
    47
 73
    43
 74
     0
 42
0.0000000001
 43
0.0000000001
 12
1.0
 22
0.0
 32
0.0
 13
1.0
 23
0.0
 33
0.0
 40
0.0
 40
0.0
 40
0.0
 40
0.0
 40
1.0
 40
1.0
 40
1.0
 40
2.0
 40
2.0
 40
2.0
 40
3.0
 40
3.0
 40
3.0
 40
4.0
 40
4.0
 40
4.0
 40
5.0
 40
5.0
 40
5.0
 40
6.0
 40
6.0
 40
6.0
 40
7.0
 40
7.0
 40
7.0
 40
8.0
 40
8.0
 40
8.0
 40
9.0
 40
9.0
 40
9.0
 40
10.0
 40
10.0
 40
10.0
 40
11.0
 40
11.0
 40
11.0
 40
12.0
 40
12.0
 40
12.0
 40
13.0
 40
13.0
 40
13.0
 40
14.0
 40
14.0
 40
14.0
 40
14.0
 10
194.0339789011443
 20
36.82393728519261
 30
0.0
 10
194.29890674396
 20
36.73884342670694
 30
0.0
 10
194.4560030980874
 20
36.48287283215288
 30
0.0
 10
194.5366183324422
 20
36.11011350064885
 30
0.0
 10
194.6444498211306
 20
35.61643131761254
 30
0.0
 10
194.7209309409031
 20
35.31567448175024
 30
0.0
 10
194.7881103028655
 20
35.18544987240779
 30
0.0
 10
194.7881103028655
 20
35.18544987240779
 30
0.0
 10
194.4022596085175
 20
35.18544987240779
 30
0.0
 10
194.4022596085175
 20
35.18544987240779
 30
0.0
 10
194.3481716093991
 20
35.28432411283446
 30
0.0
 10
194.272034999175
 20
35.58508094869677
 30
0.0
 10
194.18211800701
 20
36.0115837697707
 30
0.0
 10
194.0832437665834
 20
36.4873514562837
 30
0.0
 10
193.8947970435402
 20
36.69853580952952
 30
0.0
 10
193.4906873431204
 20
36.69853580952952
 30
0.0
 10
193.4906873431204
 20
36.69853580952952
 30
0.0
 10
193.0731417703081
 20
36.69853580952952
 30
0.0
 10
193.0731417703081
 20
36.69853580952952
 30
0.0
 10
193.0731417703081
 20
36.69853580952952
 30
0.0
 10
193.0731417703081
 20
35.18544987240779
 30
0.0
 10
193.0731417703081
 20
35.18544987240779
 30
0.0
 10
193.0731417703081
 20
35.18544987240779
 30
0.0
 10
192.7007269483526
 20
35.18544987240779
 30
0.0
 10
192.7007269483526
 20
35.18544987240779
 30
0.0
 10
192.7007269483526
 20
35.18544987240779
 30
0.0
 10
192.7007269483526
 20
38.55682031427328
 30
0.0
 10
192.7007269483526
 20
38.55682031427328
 30
0.0
 10
192.9115667920499
 20
38.60195106513006
 30
0.0
 10
193.2078450037814
 20
38.62882280991501
 30
0.0
 10
193.4772514707279
 20
38.62882280991501
 30
0.0
 10
193.9216687883251
 20
38.62882280991501
 30
0.0
 10
194.2134683759258
 20
38.53890581774998
 30
0.0
 10
194.41569548091
 20
38.35045909470682
 30
0.0
 10
194.5772704591682
 20
38.20231998884108
 30
0.0
 10
194.6713215659155
 20
37.96874251494113
 30
0.0
 10
194.6713215659155
 20
37.7131164299356
 30
0.0
 10
194.6713215659155
 20
37.2593973545282
 30
0.0
 10
194.3974364748381
 20
36.96759776692753
 30
0.0
 10
194.0339789011443
 20
36.83737315758509
 30
0.0
 10
194.0339789011443
 20
36.83737315758509
 30
0.0
 10
194.0339789011443
 20
36.82393728519261
 30
0.0
 10
194.0339789011443
 20
36.82393728519261
 30
0.0
  0
SPLINE
  5
27D
330
23C
100
AcDbEntity
  8
_U+30EC_U+30A4_U+30E4_U+30FC 1
370
     0
100
AcDbSpline
210
0.0
220
0.0
230
1.0
 70
    11
 71
     3
 72
    20
 73
    16
 74
     0
 42
0.0000000001
 43
0.0000000001
 12
1.0
 22
0.0
 32
0.0
 13
1.0
 23
0.0
 33
0.0
 40
0.0
 40
0.0
 40
0.0
 40
0.0
 40
1.0
 40
1.0
 40
1.0
 40
2.0
 40
2.0
 40
2.0
 40
3.0
 40
3.0
 40
3.0
 40
4.0
 40
4.0
 40
4.0
 40
5.0
 40
5.0
 40
5.0
 40
5.0
 10
193.5130804637745
 20
36.98585677299936
 30
0.0
 10
193.989192659836
 20
36.98585677299936
 30
0.0
 10
194.2944281198292
 20
37.25491873039737
 30
0.0
 10
194.2944281198292
 20
37.66798567907883
 30
0.0
 10
194.2944281198292
 20
38.17544824405613
 30
0.0
 10
193.9127115400635
 20
38.33254459818352
 30
0.0
 10
193.4951659672512
 20
38.33254459818352
 30
0.0
 10
193.2932833718156
 20
38.33254459818352
 30
0.0
 10
193.1496228900806
 20
38.31463010166022
 30
0.0
 10
193.0731417703081
 20
38.29671560513692
 30
0.0
 10
193.0731417703081
 20
38.29671560513692
 30
0.0
 10
193.0731417703081
 20
36.98585677299936
 30
0.0
 10
193.0731417703081
 20
36.98585677299936
 30
0.0
 10
193.0731417703081
 20
36.98585677299936
 30
0.0
 10
193.5130804637745
 20
36.98585677299936
 30
0.0
 10
193.5130804637745
 20
36.98585677299936
 30
0.0
  0
HATCH
  5
27E
330
23C
100
AcDbEntity
  8
_U+30EC_U+30A4_U+30E4_U+30FC 1
 62
     7
100
AcDbHatch
 10
0.0
 20
0.0
 30
0.0
210
0.0
220
0.0
230
1.0
  2
SOLID
 70
     1
 71
     0
 91
        2
 92
        1
 93
        1
 72
     4
 94
        3
 73
     0
 74
     1
 95
       47
 96
       43
 40
0.0
 40
0.0
 40
0.0
 40
0.0
 40
1.0
 40
1.0
 40
1.0
 40
2.0
 40
2.0
 40
2.0
 40
3.0
 40
3.0
 40
3.0
 40
4.0
 40
4.0
 40
4.0
 40
5.0
 40
5.0
 40
5.0
 40
6.0
 40
6.0
 40
6.0
 40
7.0
 40
7.0
 40
7.0
 40
8.0
 40
8.0
 40
8.0
 40
9.0
 40
9.0
 40
9.0
 40
10.0
 40
10.0
 40
10.0
 40
11.0
 40
11.0
 40
11.0
 40
12.0
 40
12.0
 40
12.0
 40
13.0
 40
13.0
 40
13.0
 40
14.0
 40
14.0
 40
14.0
 40
14.0
 10
194.0339789011443
 20
36.82393728519261
 10
194.29890674396
 20
36.73884342670694
 10
194.4560030980874
 20
36.48287283215288
 10
194.5366183324422
 20
36.11011350064885
 10
194.6444498211306
 20
35.61643131761254
 10
194.7209309409031
 20
35.31567448175024
 10
194.7881103028655
 20
35.18544987240779
 10
194.7881103028655
 20
35.18544987240779
 10
194.4022596085175
 20
35.18544987240779
 10
194.4022596085175
 20
35.18544987240779
 10
194.3481716093991
 20
35.28432411283446
 10
194.272034999175
 20
35.58508094869677
 10
194.18211800701
 20
36.0115837697707
 10
194.0832437665834
 20
36.4873514562837
 10
193.8947970435402
 20
36.69853580952952
 10
193.4906873431204
 20
36.69853580952952
 10
193.4906873431204
 20
36.69853580952952
 10
193.0731417703081
 20
36.69853580952952
 10
193.0731417703081
 20
36.69853580952952
 10
193.0731417703081
 20
36.69853580952952
 10
193.0731417703081
 20
35.18544987240779
 10
193.0731417703081
 20
35.18544987240779
 10
193.0731417703081
 20
35.18544987240779
 10
192.7007269483526
 20
35.18544987240779
 10
192.7007269483526
 20
35.18544987240779
 10
192.7007269483526
 20
35.18544987240779
 10
192.7007269483526
 20
38.55682031427328
 10
192.7007269483526
 20
38.55682031427328
 10
192.9115667920499
 20
38.60195106513006
 10
193.2078450037814
 20
38.62882280991501
 10
193.4772514707279
 20
38.62882280991501
 10
193.9216687883251
 20
38.62882280991501
 10
194.2134683759258
 20
38.53890581774998
 10
194.41569548091
 20
38.35045909470682
 10
194.5772704591682
 20
38.20231998884108
 10
194.6713215659155
 20
37.96874251494113
 10
194.6713215659155
 20
37.7131164299356
 10
194.6713215659155
 20
37.2593973545282
 10
194.3974364748381
 20
36.96759776692753
 10
194.0339789011443
 20
36.83737315758509
 10
194.0339789011443
 20
36.83737315758509
 10
194.0339789011443
 20
36.82393728519261
 10
194.0339789011443
 20
36.82393728519261
 97
        0
 92
        1
 93
        1
 72
     4
 94
        3
 73
     0
 74
     1
 95
       20
 96
       16
 40
0.0
 40
0.0
 40
0.0
 40
0.0
 40
1.0
 40
1.0
 40
1.0
 40
2.0
 40
2.0
 40
2.0
 40
3.0
 40
3.0
 40
3.0
 40
4.0
 40
4.0
 40
4.0
 40
5.0
 40
5.0
 40
5.0
 40
5.0
 10
193.5130804637745
 20
36.98585677299936
 10
193.989192659836
 20
36.98585677299936
 10
194.2944281198292
 20
37.25491873039737
 10
194.2944281198292
 20
37.66798567907883
 10
194.2944281198292
 20
38.17544824405613
 10
193.9127115400635
 20
38.33254459818352
 10
193.4951659672512
 20
38.33254459818352
 10
193.2932833718156
 20
38.33254459818352
 10
193.1496228900806
 20
38.31463010166022
 10
193.0731417703081
 20
38.29671560513692
 10
193.0731417703081
 20
38.29671560513692
 10
193.0731417703081
 20
36.98585677299936
 10
193.0731417703081
 20
36.98585677299936
 10
193.0731417703081
 20
36.98585677299936
 10
193.5130804637745
 20
36.98585677299936
 10
193.5130804637745
 20
36.98585677299936
 97
        0
 75
     2
 76
     1
 98
        0
  0
SPLINE
  5
27F
330
23C
100
AcDbEntity
  8
_U+30EC_U+30A4_U+30E4_U+30FC 1
370
     0
100
AcDbSpline
210
0.0
220
0.0
230
1.0
 70
    11
 71
     3
 72
    23
 73
    19
 74
     0
 42
0.0000000001
 43
0.0000000001
 12
1.0
 22
0.0
 32
0.0
 13
1.0
 23
0.0
 33
0.0
 40
0.0
 40
0.0
 40
0.0
 40
0.0
 40
1.0
 40
1.0
 40
1.0
 40
2.0
 40
2.0
 40
2.0
 40
3.0
 40
3.0
 40
3.0
 40
4.0
 40
4.0
 40
4.0
 40
5.0
 40
5.0
 40
5.0
 40
6.0
 40
6.0
 40
6.0
 40
6.0
 10
195.2855820909355
 20
38.56129893840411
 30
0.0
 10
195.5367295518103
 20
38.60195106513006
 30
0.0
 10
195.8285291394109
 20
38.63330143404583
 30
0.0
 10
196.1475449813451
 20
38.63330143404583
 30
0.0
 10
197.5211045513142
 20
38.63330143404583
 30
0.0
 10
197.9162570034723
 20
37.8206034090754
 30
0.0
 10
197.9162570034723
 20
36.98137814886853
 30
0.0
 10
197.9162570034723
 20
36.43808659084463
 30
0.0
 10
197.7725965217374
 20
35.97541026717558
 30
0.0
 10
197.449446565221
 20
35.63882443826667
 30
0.0
 10
197.1486897293587
 20
35.32911035414271
 30
0.0
 10
196.650184412643
 20
35.15857812762285
 30
0.0
 10
196.0262776202643
 20
35.15857812762285
 30
0.0
 10
195.7434352809253
 20
35.15857812762285
 30
0.0
 10
195.5009005587637
 20
35.16753537588449
 30
0.0
 10
195.2855820909355
 20
35.19440712066944
 30
0.0
 10
195.2855820909355
 20
35.19440712066944
 30
0.0
 10
195.2855820909355
 20
38.56129893840411
 30
0.0
 10
195.2855820909355
 20
38.56129893840411
 30
0.0
  0
SPLINE
  5
280
330
23C
100
AcDbEntity
  8
_U+30EC_U+30A4_U+30E4_U+30FC 1
370
     0
100
AcDbSpline
210
0.0
220
0.0
230
1.0
 70
    11
 71
     3
 72
    20
 73
    16
 74
     0
 42
0.0000000001
 43
0.0000000001
 12
1.0
 22
0.0
 32
0.0
 13
1.0
 23
0.0
 33
0.0
 40
0.0
 40
0.0
 40
0.0
 40
0.0
 40
1.0
 40
1.0
 40
1.0
 40
2.0
 40
2.0
 40
2.0
 40
3.0
 40
3.0
 40
3.0
 40
4.0
 40
4.0
 40
4.0
 40
5.0
 40
5.0
 40
5.0
 40
5.0
 10
195.6579969128911
 20
35.48172808413928
 30
0.0
 10
195.7703070257102
 20
35.46381358761598
 30
0.0
 10
195.9318820039684
 20
35.45933496348515
 30
0.0
 10
196.0934569822267
 20
35.45933496348515
 30
0.0
 10
197.0184651200162
 20
35.45933496348515
 30
0.0
 10
197.525583175445
 20
35.98471202498575
 30
0.0
 10
197.525583175445
 20
36.96311914279671
 30
0.0
 10
197.525583175445
 20
37.85229828753969
 30
0.0
 10
197.049815488932
 20
38.33254459818352
 30
0.0
 10
196.1609808537376
 20
38.33254459818352
 30
0.0
 10
195.9453178763609
 20
38.33254459818352
 30
0.0
 10
195.774785649841
 20
38.31015147752939
 30
0.0
 10
195.6579969128911
 20
38.28775835687527
 30
0.0
 10
195.6579969128911
 20
38.28775835687527
 30
0.0
 10
195.6579969128911
 20
35.48172808413928
 30
0.0
 10
195.6579969128911
 20
35.48172808413928
 30
0.0
  0
HATCH
  5
281
330
23C
100
AcDbEntity
  8
_U+30EC_U+30A4_U+30E4_U+30FC 1
 62
     7
100
AcDbHatch
 10
0.0
 20
0.0
 30
0.0
210
0.0
220
0.0
230
1.0
  2
SOLID
 70
     1
 71
     0
 91
        2
 92
        1
 93
        1
 72
     4
 94
        3
 73
     0
 74
     1
 95
       23
 96
       19
 40
0.0
 40
0.0
 40
0.0
 40
0.0
 40
1.0
 40
1.0
 40
1.0
 40
2.0
 40
2.0
 40
2.0
 40
3.0
 40
3.0
 40
3.0
 40
4.0
 40
4.0
 40
4.0
 40
5.0
 40
5.0
 40
5.0
 40
6.0
 40
6.0
 40
6.0
 40
6.0
 10
195.2855820909355
 20
38.56129893840411
 10
195.5367295518103
 20
38.60195106513006
 10
195.8285291394109
 20
38.63330143404583
 10
196.1475449813451
 20
38.63330143404583
 10
197.5211045513142
 20
38.63330143404583
 10
197.9162570034723
 20
37.8206034090754
 10
197.9162570034723
 20
36.98137814886853
 10
197.9162570034723
 20
36.43808659084463
 10
197.7725965217374
 20
35.97541026717558
 10
197.449446565221
 20
35.63882443826667
 10
197.1486897293587
 20
35.32911035414271
 10
196.650184412643
 20
35.15857812762285
 10
196.0262776202643
 20
35.15857812762285
 10
195.7434352809253
 20
35.15857812762285
 10
195.5009005587637
 20
35.16753537588449
 10
195.2855820909355
 20
35.19440712066944
 10
195.2855820909355
 20
35.19440712066944
 10
195.2855820909355
 20
38.56129893840411
 10
195.2855820909355
 20
38.56129893840411
 97
        0
 92
        1
 93
        1
 72
     4
 94
        3
 73
     0
 74
     1
 95
       20
 96
       16
 40
0.0
 40
0.0
 40
0.0
 40
0.0
 40
1.0
 40
1.0
 40
1.0
 40
2.0
 40
2.0
 40
2.0
 40
3.0
 40
3.0
 40
3.0
 40
4.0
 40
4.0
 40
4.0
 40
5.0
 40
5.0
 40
5.0
 40
5.0
 10
195.6579969128911
 20
35.48172808413928
 10
195.7703070257102
 20
35.46381358761598
 10
195.9318820039684
 20
35.45933496348515
 10
196.0934569822267
 20
35.45933496348515
 10
197.0184651200162
 20
35.45933496348515
 10
197.525583175445
 20
35.98471202498575
 10
197.525583175445
 20
36.96311914279671
 10
197.525583175445
 20
37.85229828753969
 10
197.049815488932
 20
38.33254459818352
 10
196.1609808537376
 20
38.33254459818352
 10
195.9453178763609
 20
38.33254459818352
 10
195.774785649841
 20
38.31015147752939
 10
195.6579969128911
 20
38.28775835687527
 10
195.6579969128911
 20
38.28775835687527
 10
195.6579969128911
 20
35.48172808413928
 10
195.6579969128911
 20
35.48172808413928
 97
        0
 75
     2
 76
     1
 98
        0
  0
POLYLINE
  5
282
330
23C
100
AcDbEntity
  8
_U+30EC_U+30A4_U+30E4_U+30FC 1
370
     0
100
AcDb2dPolyline
 66
     1
 10
0.0
 20
0.0
 30
0.0
  0
VERTEX
  5
283
330
282
100
AcDbEntity
  8
_U+30EC_U+30A4_U+30E4_U+30FC 1
370
     0
100
AcDbVertex
100
AcDb2dVertex
 10
198.2514647941871
 20
36.69853580952952
 30
0.0
  0
VERTEX
  5
284
330
282
100
AcDbEntity
  8
_U+30EC_U+30A4_U+30E4_U+30FC 1
370
     0
100
AcDbVertex
100
AcDb2dVertex
 10
199.477229767839
 20
36.69853580952952
 30
0.0
  0
VERTEX
  5
285
330
282
100
AcDbEntity
  8
_U+30EC_U+30A4_U+30E4_U+30FC 1
370
     0
100
AcDbVertex
100
AcDb2dVertex
 10
199.477229767839
 20
36.41121484605969
 30
0.0
  0
VERTEX
  5
286
330
282
100
AcDbEntity
  8
_U+30EC_U+30A4_U+30E4_U+30FC 1
370
     0
100
AcDbVertex
100
AcDb2dVertex
 10
198.2514647941871
 20
36.41121484605969
 30
0.0
  0
VERTEX
  5
287
330
282
100
AcDbEntity
  8
_U+30EC_U+30A4_U+30E4_U+30FC 1
370
     0
100
AcDbVertex
100
AcDb2dVertex
 10
198.2514647941871
 20
36.69853580952952
 30
0.0
  0
SEQEND
  5
288
330
282
100
AcDbEntity
  8
_U+30EC_U+30A4_U+30E4_U+30FC 1
370
     0
  0
HATCH
  5
289
330
23C
100
AcDbEntity
  8
_U+30EC_U+30A4_U+30E4_U+30FC 1
 62
     7
100
AcDbHatch
 10
0.0
 20
0.0
 30
0.0
210
0.0
220
0.0
230
1.0
  2
SOLID
 70
     1
 71
     0
 91
        1
 92
        1
 93
        4
 72
     1
 10
198.2514647941871
 20
36.69853580952952
 11
199.477229767839
 21
36.69853580952952
 72
     1
 10
199.477229767839
 20
36.69853580952952
 11
199.477229767839
 21
36.41121484605969
 72
     1
 10
199.477229767839
 20
36.41121484605969
 11
198.2514647941871
 21
36.41121484605969
 72
     1
 10
198.2514647941871
 20
36.41121484605969
 11
198.2514647941871
 21
36.69853580952952
 97
        0
 75
     2
 76
     1
 98
        0
  0
POLYLINE
  5
28A
330
23C
100
AcDbEntity
  8
_U+30EC_U+30A4_U+30E4_U+30FC 1
370
     0
100
AcDb2dPolyline
 66
     1
 10
0.0
 20
0.0
 30
0.0
  0
VERTEX
  5
28B
330
28A
100
AcDbEntity
  8
_U+30EC_U+30A4_U+30E4_U+30FC 1
370
     0
100
AcDbVertex
100
AcDb2dVertex
 10
200.7960123195927
 20
35.18544987240779
 30
0.0
  0
VERTEX
  5
28C
330
28A
100
AcDbEntity
  8
_U+30EC_U+30A4_U+30E4_U+30FC 1
370
     0
100
AcDbVertex
100
AcDb2dVertex
 10
200.7960123195927
 20
38.19784136471025
 30
0.0
  0
VERTEX
  5
28D
330
28A
100
AcDbEntity
  8
_U+30EC_U+30A4_U+30E4_U+30FC 1
370
     0
100
AcDbVertex
100
AcDb2dVertex
 10
200.787055071331
 20
38.19784136471025
 30
0.0
  0
VERTEX
  5
28E
330
28A
100
AcDbEntity
  8
_U+30EC_U+30A4_U+30E4_U+30FC 1
370
     0
100
AcDbVertex
100
AcDb2dVertex
 10
200.2348062650455
 20
37.87917003232464
 30
0.0
  0
VERTEX
  5
28F
330
28A
100
AcDbEntity
  8
_U+30EC_U+30A4_U+30E4_U+30FC 1
370
     0
100
AcDbVertex
100
AcDb2dVertex
 10
200.145233782429
 20
38.15753374753282
 30
0.0
  0
VERTEX
  5
290
330
28A
100
AcDbEntity
  8
_U+30EC_U+30A4_U+30E4_U+30FC 1
370
     0
100
AcDbVertex
100
AcDb2dVertex
 10
200.8407985609009
 20
38.54786306601164
 30
0.0
  0
VERTEX
  5
291
330
28A
100
AcDbEntity
  8
_U+30EC_U+30A4_U+30E4_U+30FC 1
370
     0
100
AcDbVertex
100
AcDb2dVertex
 10
201.1598144028351
 20
38.54786306601164
 30
0.0
  0
VERTEX
  5
292
330
28A
100
AcDbEntity
  8
_U+30EC_U+30A4_U+30E4_U+30FC 1
370
     0
100
AcDbVertex
100
AcDb2dVertex
 10
201.1598144028351
 20
35.18544987240779
 30
0.0
  0
VERTEX
  5
293
330
28A
100
AcDbEntity
  8
_U+30EC_U+30A4_U+30E4_U+30FC 1
370
     0
100
AcDbVertex
100
AcDb2dVertex
 10
200.7960123195927
 20
35.18544987240779
 30
0.0
  0
SEQEND
  5
294
330
28A
100
AcDbEntity
  8
_U+30EC_U+30A4_U+30E4_U+30FC 1
370
     0
  0
HATCH
  5
295
330
23C
100
AcDbEntity
  8
_U+30EC_U+30A4_U+30E4_U+30FC 1
 62
     7
100
AcDbHatch
 10
0.0
 20
0.0
 30
0.0
210
0.0
220
0.0
230
1.0
  2
SOLID
 70
     1
 71
     0
 91
        1
 92
        1
 93
        8
 72
     1
 10
200.7960123195927
 20
35.18544987240779
 11
200.7960123195927
 21
38.19784136471025
 72
     1
 10
200.7960123195927
 20
38.19784136471025
 11
200.787055071331
 21
38.19784136471025
 72
     1
 10
200.787055071331
 20
38.19784136471025
 11
200.2348062650455
 21
37.87917003232464
 72
     1
 10
200.2348062650455
 20
37.87917003232464
 11
200.145233782429
 21
38.15753374753282
 72
     1
 10
200.145233782429
 20
38.15753374753282
 11
200.8407985609009
 21
38.54786306601164
 72
     1
 10
200.8407985609009
 20
38.54786306601164
 11
201.1598144028351
 21
38.54786306601164
 72
     1
 10
201.1598144028351
 20
38.54786306601164
 11
201.1598144028351
 21
35.18544987240779
 72
     1
 10
201.1598144028351
 20
35.18544987240779
 11
200.7960123195927
 21
35.18544987240779
 97
        0
 75
     2
 76
     1
 98
        0
  0
SPLINE
  5
296
330
23C
100
AcDbEntity
  8
_U+30EC_U+30A4_U+30E4_U+30FC 1
370
     0
100
AcDbSpline
210
0.0
220
0.0
230
1.0
 70
    11
 71
     3
 72
    47
 73
    43
 74
     0
 42
0.0000000001
 43
0.0000000001
 12
1.0
 22
0.0
 32
0.0
 13
1.0
 23
0.0
 33
0.0
 40
0.0
 40
0.0
 40
0.0
 40
0.0
 40
1.0
 40
1.0
 40
1.0
 40
2.0
 40
2.0
 40
2.0
 40
3.0
 40
3.0
 40
3.0
 40
4.0
 40
4.0
 40
4.0
 40
5.0
 40
5.0
 40
5.0
 40
6.0
 40
6.0
 40
6.0
 40
7.0
 40
7.0
 40
7.0
 40
8.0
 40
8.0
 40
8.0
 40
9.0
 40
9.0
 40
9.0
 40
10.0
 40
10.0
 40
10.0
 40
11.0
 40
11.0
 40
11.0
 40
12.0
 40
12.0
 40
12.0
 40
13.0
 40
13.0
 40
13.0
 40
14.0
 40
14.0
 40
14.0
 40
14.0
 10
204.3100097145475
 20
35.18544987240779
 30
0.0
 10
204.3100097145475
 20
35.18544987240779
 30
0.0
 10
202.3215006004613
 20
35.18544987240779
 30
0.0
 10
202.3215006004613
 20
35.18544987240779
 30
0.0
 10
202.3215006004613
 20
35.18544987240779
 30
0.0
 10
202.3215006004613
 20
35.41454872217691
 30
0.0
 10
202.3215006004613
 20
35.41454872217691
 30
0.0
 10
202.3215006004613
 20
35.41454872217691
 30
0.0
 10
202.6491291811085
 20
35.76009179934746
 30
0.0
 10
202.6491291811085
 20
35.76009179934746
 30
0.0
 10
203.448046824138
 20
36.56831120018708
 30
0.0
 10
203.8521565245578
 20
37.05751475909256
 30
0.0
 10
203.8521565245578
 20
37.60528494124728
 30
0.0
 10
203.8521565245578
 20
37.96426389081031
 30
0.0
 10
203.6950601704304
 20
38.29671560513692
 30
0.0
 10
203.2103352356557
 20
38.29671560513692
 30
0.0
 10
202.9409287687092
 20
38.29671560513692
 30
0.0
 10
202.6983940465476
 20
38.14857649927118
 30
0.0
 10
202.5368190682894
 20
38.01835188992873
 30
0.0
 10
202.5368190682894
 20
38.01835188992873
 30
0.0
 10
202.4110730830778
 20
38.27880110861362
 30
0.0
 10
202.4110730830778
 20
38.27880110861362
 30
0.0
 10
202.6177788121928
 20
38.46276920752597
 30
0.0
 10
202.9230142721859
 20
38.60642968926088
 30
0.0
 10
203.281993221749
 20
38.60642968926088
 30
0.0
 10
203.9599880132461
 20
38.60642968926088
 30
0.0
 10
204.2293944801927
 20
38.11240299667605
 30
0.0
 10
204.2293944801927
 20
37.65007118255553
 30
0.0
 10
204.2293944801927
 20
37.01720714191513
 30
0.0
 10
203.7849771625954
 20
36.47839420802206
 30
0.0
 10
203.089067874575
 20
35.77800629587077
 30
0.0
 10
203.089067874575
 20
35.77800629587077
 30
0.0
 10
202.8241400317592
 20
35.49964258066258
 30
0.0
 10
202.8241400317592
 20
35.49964258066258
 30
0.0
 10
202.8241400317592
 20
35.49964258066258
 30
0.0
 10
202.8241400317592
 20
35.49068533240093
 30
0.0
 10
202.8241400317592
 20
35.49068533240093
 30
0.0
 10
202.8241400317592
 20
35.49068533240093
 30
0.0
 10
204.3100097145475
 20
35.49068533240093
 30
0.0
 10
204.3100097145475
 20
35.49068533240093
 30
0.0
 10
204.3100097145475
 20
35.49068533240093
 30
0.0
 10
204.3100097145475
 20
35.18544987240779
 30
0.0
 10
204.3100097145475
 20
35.18544987240779
 30
0.0
  0
HATCH
  5
297
330
23C
100
AcDbEntity
  8
_U+30EC_U+30A4_U+30E4_U+30FC 1
 62
     7
100
AcDbHatch
 10
0.0
 20
0.0
 30
0.0
210
0.0
220
0.0
230
1.0
  2
SOLID
 70
     1
 71
     0
 91
        1
 92
        1
 93
        1
 72
     4
 94
        3
 73
     0
 74
     1
 95
       47
 96
       43
 40
0.0
 40
0.0
 40
0.0
 40
0.0
 40
1.0
 40
1.0
 40
1.0
 40
2.0
 40
2.0
 40
2.0
 40
3.0
 40
3.0
 40
3.0
 40
4.0
 40
4.0
 40
4.0
 40
5.0
 40
5.0
 40
5.0
 40
6.0
 40
6.0
 40
6.0
 40
7.0
 40
7.0
 40
7.0
 40
8.0
 40
8.0
 40
8.0
 40
9.0
 40
9.0
 40
9.0
 40
10.0
 40
10.0
 40
10.0
 40
11.0
 40
11.0
 40
11.0
 40
12.0
 40
12.0
 40
12.0
 40
13.0
 40
13.0
 40
13.0
 40
14.0
 40
14.0
 40
14.0
 40
14.0
 10
204.3100097145475
 20
35.18544987240779
 10
204.3100097145475
 20
35.18544987240779
 10
202.3215006004613
 20
35.18544987240779
 10
202.3215006004613
 20
35.18544987240779
 10
202.3215006004613
 20
35.18544987240779
 10
202.3215006004613
 20
35.41454872217691
 10
202.3215006004613
 20
35.41454872217691
 10
202.3215006004613
 20
35.41454872217691
 10
202.6491291811085
 20
35.76009179934746
 10
202.6491291811085
 20
35.76009179934746
 10
203.448046824138
 20
36.56831120018708
 10
203.8521565245578
 20
37.05751475909256
 10
203.8521565245578
 20
37.60528494124728
 10
203.8521565245578
 20
37.96426389081031
 10
203.6950601704304
 20
38.29671560513692
 10
203.2103352356557
 20
38.29671560513692
 10
202.9409287687092
 20
38.29671560513692
 10
202.6983940465476
 20
38.14857649927118
 10
202.5368190682894
 20
38.01835188992873
 10
202.5368190682894
 20
38.01835188992873
 10
202.4110730830778
 20
38.27880110861362
 10
202.4110730830778
 20
38.27880110861362
 10
202.6177788121928
 20
38.46276920752597
 10
202.9230142721859
 20
38.60642968926088
 10
203.281993221749
 20
38.60642968926088
 10
203.9599880132461
 20
38.60642968926088
 10
204.2293944801927
 20
38.11240299667605
 10
204.2293944801927
 20
37.65007118255553
 10
204.2293944801927
 20
37.01720714191513
 10
203.7849771625954
 20
36.47839420802206
 10
203.089067874575
 20
35.77800629587077
 10
203.089067874575
 20
35.77800629587077
 10
202.8241400317592
 20
35.49964258066258
 10
202.8241400317592
 20
35.49964258066258
 10
202.8241400317592
 20
35.49964258066258
 10
202.8241400317592
 20
35.49068533240093
 10
202.8241400317592
 20
35.49068533240093
 10
202.8241400317592
 20
35.49068533240093
 10
204.3100097145475
 20
35.49068533240093
 10
204.3100097145475
 20
35.49068533240093
 10
204.3100097145475
 20
35.49068533240093
 10
204.3100097145475
 20
35.18544987240779
 10
204.3100097145475
 20
35.18544987240779
 97
        0
 75
     2
 76
     1
 98
        0
  0
SPLINE
  5
298
330
23C
100
AcDbEntity
  8
_U+30EC_U+30A4_U+30E4_U+30FC 1
370
     0
100
AcDbSpline
210
0.0
220
0.0
230
1.0
 70
    11
 71
     3
 72
    23
 73
    19
 74
     0
 42
0.0000000001
 43
0.0000000001
 12
1.0
 22
0.0
 32
0.0
 13
1.0
 23
0.0
 33
0.0
 40
0.0
 40
0.0
 40
0.0
 40
0.0
 40
1.0
 40
1.0
 40
1.0
 40
2.0
 40
2.0
 40
2.0
 40
3.0
 40
3.0
 40
3.0
 40
4.0
 40
4.0
 40
4.0
 40
5.0
 40
5.0
 40
5.0
 40
6.0
 40
6.0
 40
6.0
 40
6.0
 10
188.3661078088113
 20
33.17661469495862
 30
0.0
 10
188.617255269686
 20
33.21692231213603
 30
0.0
 10
188.9090548572866
 20
33.24827268105181
 30
0.0
 10
189.2280706992208
 20
33.24827268105181
 30
0.0
 10
190.6016302691899
 20
33.24827268105181
 30
0.0
 10
190.996782721348
 20
32.43557465608137
 30
0.0
 10
190.996782721348
 20
31.59600488632599
 30
0.0
 10
190.996782721348
 20
31.05305783785061
 30
0.0
 10
190.8531222396131
 20
30.59072602373008
 30
0.0
 10
190.5299722830967
 20
30.25379568527265
 30
0.0
 10
190.2292154472344
 20
29.94408160114869
 30
0.0
 10
189.7307101305187
 20
29.77354937462882
 30
0.0
 10
189.10680333814
 20
29.77354937462882
 30
0.0
 10
188.823960998801
 20
29.77354937462882
 30
0.0
 10
188.5814262766394
 20
29.78250662289047
 30
0.0
 10
188.3661078088113
 20
29.80937836767542
 30
0.0
 10
188.3661078088113
 20
29.80937836767542
 30
0.0
 10
188.3661078088113
 20
33.17661469495862
 30
0.0
 10
188.3661078088113
 20
33.17661469495862
 30
0.0
  0
SPLINE
  5
299
330
23C
100
AcDbEntity
  8
_U+30EC_U+30A4_U+30E4_U+30FC 1
370
     0
100
AcDbSpline
210
0.0
220
0.0
230
1.0
 70
    11
 71
     3
 72
    20
 73
    16
 74
     0
 42
0.0000000001
 43
0.0000000001
 12
1.0
 22
0.0
 32
0.0
 13
1.0
 23
0.0
 33
0.0
 40
0.0
 40
0.0
 40
0.0
 40
0.0
 40
1.0
 40
1.0
 40
1.0
 40
2.0
 40
2.0
 40
2.0
 40
3.0
 40
3.0
 40
3.0
 40
4.0
 40
4.0
 40
4.0
 40
5.0
 40
5.0
 40
5.0
 40
5.0
 10
188.7385226307668
 20
30.09669933114526
 30
0.0
 10
188.8508327435859
 20
30.07878483462196
 30
0.0
 10
189.0124077218441
 20
30.07430621049113
 30
0.0
 10
189.1739827001024
 20
30.07430621049113
 30
0.0
 10
190.0989908378919
 20
30.07430621049113
 30
0.0
 10
190.6061088933207
 20
30.59968327199173
 30
0.0
 10
190.6061088933207
 20
31.57809038980269
 30
0.0
 10
190.6061088933207
 20
32.46726953454567
 30
0.0
 10
190.1303412068077
 20
32.9475158451895
 30
0.0
 10
189.2415065716132
 20
32.9475158451895
 30
0.0
 10
189.0258435942366
 20
32.9475158451895
 30
0.0
 10
188.8553113677167
 20
32.92512272453538
 30
0.0
 10
188.7385226307668
 20
32.90272960388125
 30
0.0
 10
188.7385226307668
 20
32.90272960388125
 30
0.0
 10
188.7385226307668
 20
30.09669933114526
 30
0.0
 10
188.7385226307668
 20
30.09669933114526
 30
0.0
  0
HATCH
  5
29A
330
23C
100
AcDbEntity
  8
_U+30EC_U+30A4_U+30E4_U+30FC 1
 62
     7
100
AcDbHatch
 10
0.0
 20
0.0
 30
0.0
210
0.0
220
0.0
230
1.0
  2
SOLID
 70
     1
 71
     0
 91
        2
 92
        1
 93
        1
 72
     4
 94
        3
 73
     0
 74
     1
 95
       23
 96
       19
 40
0.0
 40
0.0
 40
0.0
 40
0.0
 40
1.0
 40
1.0
 40
1.0
 40
2.0
 40
2.0
 40
2.0
 40
3.0
 40
3.0
 40
3.0
 40
4.0
 40
4.0
 40
4.0
 40
5.0
 40
5.0
 40
5.0
 40
6.0
 40
6.0
 40
6.0
 40
6.0
 10
188.3661078088113
 20
33.17661469495862
 10
188.617255269686
 20
33.21692231213603
 10
188.9090548572866
 20
33.24827268105181
 10
189.2280706992208
 20
33.24827268105181
 10
190.6016302691899
 20
33.24827268105181
 10
190.996782721348
 20
32.43557465608137
 10
190.996782721348
 20
31.59600488632599
 10
190.996782721348
 20
31.05305783785061
 10
190.8531222396131
 20
30.59072602373008
 10
190.5299722830967
 20
30.25379568527265
 10
190.2292154472344
 20
29.94408160114869
 10
189.7307101305187
 20
29.77354937462882
 10
189.10680333814
 20
29.77354937462882
 10
188.823960998801
 20
29.77354937462882
 10
188.5814262766394
 20
29.78250662289047
 10
188.3661078088113
 20
29.80937836767542
 10
188.3661078088113
 20
29.80937836767542
 10
188.3661078088113
 20
33.17661469495862
 10
188.3661078088113
 20
33.17661469495862
 97
        0
 92
        1
 93
        1
 72
     4
 94
        3
 73
     0
 74
     1
 95
       20
 96
       16
 40
0.0
 40
0.0
 40
0.0
 40
0.0
 40
1.0
 40
1.0
 40
1.0
 40
2.0
 40
2.0
 40
2.0
 40
3.0
 40
3.0
 40
3.0
 40
4.0
 40
4.0
 40
4.0
 40
5.0
 40
5.0
 40
5.0
 40
5.0
 10
188.7385226307668
 20
30.09669933114526
 10
188.8508327435859
 20
30.07878483462196
 10
189.0124077218441
 20
30.07430621049113
 10
189.1739827001024
 20
30.07430621049113
 10
190.0989908378919
 20
30.07430621049113
 10
190.6061088933207
 20
30.59968327199173
 10
190.6061088933207
 20
31.57809038980269
 10
190.6061088933207
 20
32.46726953454567
 10
190.1303412068077
 20
32.9475158451895
 10
189.2415065716132
 20
32.9475158451895
 10
189.0258435942366
 20
32.9475158451895
 10
188.8553113677167
 20
32.92512272453538
 10
188.7385226307668
 20
32.90272960388125
 10
188.7385226307668
 20
32.90272960388125
 10
188.7385226307668
 20
30.09669933114526
 10
188.7385226307668
 20
30.09669933114526
 97
        0
 75
     2
 76
     1
 98
        0
  0
POLYLINE
  5
29B
330
23C
100
AcDbEntity
  8
_U+30EC_U+30A4_U+30E4_U+30FC 1
370
     0
100
AcDb2dPolyline
 66
     1
 10
0.0
 20
0.0
 30
0.0
  0
VERTEX
  5
29C
330
29B
100
AcDbEntity
  8
_U+30EC_U+30A4_U+30E4_U+30FC 1
370
     0
100
AcDbVertex
100
AcDb2dVertex
 10
191.561089361832
 20
33.22140093626686
 30
0.0
  0
VERTEX
  5
29D
330
29B
100
AcDbEntity
  8
_U+30EC_U+30A4_U+30E4_U+30FC 1
370
     0
100
AcDbVertex
100
AcDb2dVertex
 10
191.9335041837875
 20
33.22140093626686
 30
0.0
  0
VERTEX
  5
29E
330
29B
100
AcDbEntity
  8
_U+30EC_U+30A4_U+30E4_U+30FC 1
370
     0
100
AcDbVertex
100
AcDb2dVertex
 10
191.9335041837875
 20
29.80042111941377
 30
0.0
  0
VERTEX
  5
29F
330
29B
100
AcDbEntity
  8
_U+30EC_U+30A4_U+30E4_U+30FC 1
370
     0
100
AcDbVertex
100
AcDb2dVertex
 10
191.561089361832
 20
29.80042111941377
 30
0.0
  0
VERTEX
  5
2A0
330
29B
100
AcDbEntity
  8
_U+30EC_U+30A4_U+30E4_U+30FC 1
370
     0
100
AcDbVertex
100
AcDb2dVertex
 10
191.561089361832
 20
33.22140093626686
 30
0.0
  0
SEQEND
  5
2A1
330
29B
100
AcDbEntity
  8
_U+30EC_U+30A4_U+30E4_U+30FC 1
370
     0
  0
HATCH
  5
2A2
330
23C
100
AcDbEntity
  8
_U+30EC_U+30A4_U+30E4_U+30FC 1
 62
     7
100
AcDbHatch
 10
0.0
 20
0.0
 30
0.0
210
0.0
220
0.0
230
1.0
  2
SOLID
 70
     1
 71
     0
 91
        1
 92
        1
 93
        4
 72
     1
 10
191.561089361832
 20
33.22140093626686
 11
191.9335041837875
 21
33.22140093626686
 72
     1
 10
191.9335041837875
 20
33.22140093626686
 11
191.9335041837875
 21
29.80042111941377
 72
     1
 10
191.9335041837875
 20
29.80042111941377
 11
191.561089361832
 21
29.80042111941377
 72
     1
 10
191.561089361832
 20
29.80042111941377
 11
191.561089361832
 21
33.22140093626686
 97
        0
 75
     2
 76
     1
 98
        0
  0
SPLINE
  5
2A3
330
23C
100
AcDbEntity
  8
_U+30EC_U+30A4_U+30E4_U+30FC 1
370
     0
100
AcDbSpline
210
0.0
220
0.0
230
1.0
 70
    11
 71
     3
 72
    47
 73
    43
 74
     0
 42
0.0000000001
 43
0.0000000001
 12
1.0
 22
0.0
 32
0.0
 13
1.0
 23
0.0
 33
0.0
 40
0.0
 40
0.0
 40
0.0
 40
0.0
 40
1.0
 40
1.0
 40
1.0
 40
2.0
 40
2.0
 40
2.0
 40
3.0
 40
3.0
 40
3.0
 40
4.0
 40
4.0
 40
4.0
 40
5.0
 40
5.0
 40
5.0
 40
6.0
 40
6.0
 40
6.0
 40
7.0
 40
7.0
 40
7.0
 40
8.0
 40
8.0
 40
8.0
 40
9.0
 40
9.0
 40
9.0
 40
10.0
 40
10.0
 40
10.0
 40
11.0
 40
11.0
 40
11.0
 40
12.0
 40
12.0
 40
12.0
 40
13.0
 40
13.0
 40
13.0
 40
14.0
 40
14.0
 40
14.0
 40
14.0
 10
194.0339789011443
 20
31.4389085321986
 30
0.0
 10
194.29890674396
 20
31.35381467371292
 30
0.0
 10
194.4560030980874
 20
31.09784407915886
 30
0.0
 10
194.5366183324422
 20
30.72508474765483
 30
0.0
 10
194.6444498211306
 20
30.23140256461853
 30
0.0
 10
194.7209309409031
 20
29.93064572875621
 30
0.0
 10
194.7881103028655
 20
29.80042111941377
 30
0.0
 10
194.7881103028655
 20
29.80042111941377
 30
0.0
 10
194.4022596085175
 20
29.80042111941377
 30
0.0
 10
194.4022596085175
 20
29.80042111941377
 30
0.0
 10
194.3481716093991
 20
29.89929535984044
 30
0.0
 10
194.272034999175
 20
30.20005219570275
 30
0.0
 10
194.18211800701
 20
30.62655501677668
 30
0.0
 10
194.0832437665834
 20
31.10232270328968
 30
0.0
 10
193.8947970435402
 20
31.3135070565355
 30
0.0
 10
193.4906873431204
 20
31.3135070565355
 30
0.0
 10
193.4906873431204
 20
31.3135070565355
 30
0.0
 10
193.0731417703081
 20
31.3135070565355
 30
0.0
 10
193.0731417703081
 20
31.3135070565355
 30
0.0
 10
193.0731417703081
 20
31.3135070565355
 30
0.0
 10
193.0731417703081
 20
29.80042111941377
 30
0.0
 10
193.0731417703081
 20
29.80042111941377
 30
0.0
 10
193.0731417703081
 20
29.80042111941377
 30
0.0
 10
192.7007269483526
 20
29.80042111941377
 30
0.0
 10
192.7007269483526
 20
29.80042111941377
 30
0.0
 10
192.7007269483526
 20
29.80042111941377
 30
0.0
 10
192.7007269483526
 20
33.17179156127926
 30
0.0
 10
192.7007269483526
 20
33.17179156127926
 30
0.0
 10
192.9115667920499
 20
33.21692231213603
 30
0.0
 10
193.2078450037814
 20
33.24379405692098
 30
0.0
 10
193.4772514707279
 20
33.24379405692098
 30
0.0
 10
193.9216687883251
 20
33.24379405692098
 30
0.0
 10
194.2134683759258
 20
33.15387706475596
 30
0.0
 10
194.41569548091
 20
32.9654303417128
 30
0.0
 10
194.5772704591682
 20
32.81729123584705
 30
0.0
 10
194.6713215659155
 20
32.58371376194712
 30
0.0
 10
194.6713215659155
 20
32.32808767694158
 30
0.0
 10
194.6713215659155
 20
31.87436860153417
 30
0.0
 10
194.3974364748381
 20
31.58256901393351
 30
0.0
 10
194.0339789011443
 20
31.45268891413959
 30
0.0
 10
194.0339789011443
 20
31.45268891413959
 30
0.0
 10
194.0339789011443
 20
31.4389085321986
 30
0.0
 10
194.0339789011443
 20
31.4389085321986
 30
0.0
  0
SPLINE
  5
2A4
330
23C
100
AcDbEntity
  8
_U+30EC_U+30A4_U+30E4_U+30FC 1
370
     0
100
AcDbSpline
210
0.0
220
0.0
230
1.0
 70
    11
 71
     3
 72
    20
 73
    16
 74
     0
 42
0.0000000001
 43
0.0000000001
 12
1.0
 22
0.0
 32
0.0
 13
1.0
 23
0.0
 33
0.0
 40
0.0
 40
0.0
 40
0.0
 40
0.0
 40
1.0
 40
1.0
 40
1.0
 40
2.0
 40
2.0
 40
2.0
 40
3.0
 40
3.0
 40
3.0
 40
4.0
 40
4.0
 40
4.0
 40
5.0
 40
5.0
 40
5.0
 40
5.0
 10
193.5130804637745
 20
31.60082802000534
 30
0.0
 10
193.989192659836
 20
31.60082802000534
 30
0.0
 10
194.2944281198292
 20
31.86988997740335
 30
0.0
 10
194.2944281198292
 20
32.28295692608481
 30
0.0
 10
194.2944281198292
 20
32.7904194910621
 30
0.0
 10
193.9127115400635
 20
32.9475158451895
 30
0.0
 10
193.4951659672512
 20
32.9475158451895
 30
0.0
 10
193.2932833718156
 20
32.9475158451895
 30
0.0
 10
193.1496228900806
 20
32.9296013486662
 30
0.0
 10
193.0731417703081
 20
32.9116868521429
 30
0.0
 10
193.0731417703081
 20
32.9116868521429
 30
0.0
 10
193.0731417703081
 20
31.60082802000534
 30
0.0
 10
193.0731417703081
 20
31.60082802000534
 30
0.0
 10
193.0731417703081
 20
31.60082802000534
 30
0.0
 10
193.5130804637745
 20
31.60082802000534
 30
0.0
 10
193.5130804637745
 20
31.60082802000534
 30
0.0
  0
HATCH
  5
2A5
330
23C
100
AcDbEntity
  8
_U+30EC_U+30A4_U+30E4_U+30FC 1
 62
     7
100
AcDbHatch
 10
0.0
 20
0.0
 30
0.0
210
0.0
220
0.0
230
1.0
  2
SOLID
 70
     1
 71
     0
 91
        2
 92
        1
 93
        1
 72
     4
 94
        3
 73
     0
 74
     1
 95
       47
 96
       43
 40
0.0
 40
0.0
 40
0.0
 40
0.0
 40
1.0
 40
1.0
 40
1.0
 40
2.0
 40
2.0
 40
2.0
 40
3.0
 40
3.0
 40
3.0
 40
4.0
 40
4.0
 40
4.0
 40
5.0
 40
5.0
 40
5.0
 40
6.0
 40
6.0
 40
6.0
 40
7.0
 40
7.0
 40
7.0
 40
8.0
 40
8.0
 40
8.0
 40
9.0
 40
9.0
 40
9.0
 40
10.0
 40
10.0
 40
10.0
 40
11.0
 40
11.0
 40
11.0
 40
12.0
 40
12.0
 40
12.0
 40
13.0
 40
13.0
 40
13.0
 40
14.0
 40
14.0
 40
14.0
 40
14.0
 10
194.0339789011443
 20
31.4389085321986
 10
194.29890674396
 20
31.35381467371292
 10
194.4560030980874
 20
31.09784407915886
 10
194.5366183324422
 20
30.72508474765483
 10
194.6444498211306
 20
30.23140256461853
 10
194.7209309409031
 20
29.93064572875621
 10
194.7881103028655
 20
29.80042111941377
 10
194.7881103028655
 20
29.80042111941377
 10
194.4022596085175
 20
29.80042111941377
 10
194.4022596085175
 20
29.80042111941377
 10
194.3481716093991
 20
29.89929535984044
 10
194.272034999175
 20
30.20005219570275
 10
194.18211800701
 20
30.62655501677668
 10
194.0832437665834
 20
31.10232270328968
 10
193.8947970435402
 20
31.3135070565355
 10
193.4906873431204
 20
31.3135070565355
 10
193.4906873431204
 20
31.3135070565355
 10
193.0731417703081
 20
31.3135070565355
 10
193.0731417703081
 20
31.3135070565355
 10
193.0731417703081
 20
31.3135070565355
 10
193.0731417703081
 20
29.80042111941377
 10
193.0731417703081
 20
29.80042111941377
 10
193.0731417703081
 20
29.80042111941377
 10
192.7007269483526
 20
29.80042111941377
 10
192.7007269483526
 20
29.80042111941377
 10
192.7007269483526
 20
29.80042111941377
 10
192.7007269483526
 20
33.17179156127926
 10
192.7007269483526
 20
33.17179156127926
 10
192.9115667920499
 20
33.21692231213603
 10
193.2078450037814
 20
33.24379405692098
 10
193.4772514707279
 20
33.24379405692098
 10
193.9216687883251
 20
33.24379405692098
 10
194.2134683759258
 20
33.15387706475596
 10
194.41569548091
 20
32.9654303417128
 10
194.5772704591682
 20
32.81729123584705
 10
194.6713215659155
 20
32.58371376194712
 10
194.6713215659155
 20
32.32808767694158
 10
194.6713215659155
 20
31.87436860153417
 10
194.3974364748381
 20
31.58256901393351
 10
194.0339789011443
 20
31.45268891413959
 10
194.0339789011443
 20
31.45268891413959
 10
194.0339789011443
 20
31.4389085321986
 10
194.0339789011443
 20
31.4389085321986
 97
        0
 92
        1
 93
        1
 72
     4
 94
        3
 73
     0
 74
     1
 95
       20
 96
       16
 40
0.0
 40
0.0
 40
0.0
 40
0.0
 40
1.0
 40
1.0
 40
1.0
 40
2.0
 40
2.0
 40
2.0
 40
3.0
 40
3.0
 40
3.0
 40
4.0
 40
4.0
 40
4.0
 40
5.0
 40
5.0
 40
5.0
 40
5.0
 10
193.5130804637745
 20
31.60082802000534
 10
193.989192659836
 20
31.60082802000534
 10
194.2944281198292
 20
31.86988997740335
 10
194.2944281198292
 20
32.28295692608481
 10
194.2944281198292
 20
32.7904194910621
 10
193.9127115400635
 20
32.9475158451895
 10
193.4951659672512
 20
32.9475158451895
 10
193.2932833718156
 20
32.9475158451895
 10
193.1496228900806
 20
32.9296013486662
 10
193.0731417703081
 20
32.9116868521429
 10
193.0731417703081
 20
32.9116868521429
 10
193.0731417703081
 20
31.60082802000534
 10
193.0731417703081
 20
31.60082802000534
 10
193.0731417703081
 20
31.60082802000534
 10
193.5130804637745
 20
31.60082802000534
 10
193.5130804637745
 20
31.60082802000534
 97
        0
 75
     2
 76
     1
 98
        0
  0
SPLINE
  5
2A6
330
23C
100
AcDbEntity
  8
_U+30EC_U+30A4_U+30E4_U+30FC 1
370
     0
100
AcDbSpline
210
0.0
220
0.0
230
1.0
 70
    11
 71
     3
 72
    23
 73
    19
 74
     0
 42
0.0000000001
 43
0.0000000001
 12
1.0
 22
0.0
 32
0.0
 13
1.0
 23
0.0
 33
0.0
 40
0.0
 40
0.0
 40
0.0
 40
0.0
 40
1.0
 40
1.0
 40
1.0
 40
2.0
 40
2.0
 40
2.0
 40
3.0
 40
3.0
 40
3.0
 40
4.0
 40
4.0
 40
4.0
 40
5.0
 40
5.0
 40
5.0
 40
6.0
 40
6.0
 40
6.0
 40
6.0
 10
195.2855820909355
 20
33.17661469495862
 30
0.0
 10
195.5367295518103
 20
33.21692231213603
 30
0.0
 10
195.8285291394109
 20
33.24827268105181
 30
0.0
 10
196.1475449813451
 20
33.24827268105181
 30
0.0
 10
197.5211045513142
 20
33.24827268105181
 30
0.0
 10
197.9162570034723
 20
32.43557465608137
 30
0.0
 10
197.9162570034723
 20
31.59600488632599
 30
0.0
 10
197.9162570034723
 20
31.05305783785061
 30
0.0
 10
197.7725965217374
 20
30.59072602373008
 30
0.0
 10
197.449446565221
 20
30.25379568527265
 30
0.0
 10
197.1486897293587
 20
29.94408160114869
 30
0.0
 10
196.650184412643
 20
29.77354937462882
 30
0.0
 10
196.0262776202643
 20
29.77354937462882
 30
0.0
 10
195.7434352809253
 20
29.77354937462882
 30
0.0
 10
195.5009005587637
 20
29.78250662289047
 30
0.0
 10
195.2855820909355
 20
29.80937836767542
 30
0.0
 10
195.2855820909355
 20
29.80937836767542
 30
0.0
 10
195.2855820909355
 20
33.17661469495862
 30
0.0
 10
195.2855820909355
 20
33.17661469495862
 30
0.0
  0
SPLINE
  5
2A7
330
23C
100
AcDbEntity
  8
_U+30EC_U+30A4_U+30E4_U+30FC 1
370
     0
100
AcDbSpline
210
0.0
220
0.0
230
1.0
 70
    11
 71
     3
 72
    20
 73
    16
 74
     0
 42
0.0000000001
 43
0.0000000001
 12
1.0
 22
0.0
 32
0.0
 13
1.0
 23
0.0
 33
0.0
 40
0.0
 40
0.0
 40
0.0
 40
0.0
 40
1.0
 40
1.0
 40
1.0
 40
2.0
 40
2.0
 40
2.0
 40
3.0
 40
3.0
 40
3.0
 40
4.0
 40
4.0
 40
4.0
 40
5.0
 40
5.0
 40
5.0
 40
5.0
 10
195.6579969128911
 20
30.09669933114526
 30
0.0
 10
195.7703070257102
 20
30.07878483462196
 30
0.0
 10
195.9318820039684
 20
30.07430621049113
 30
0.0
 10
196.0934569822267
 20
30.07430621049113
 30
0.0
 10
197.0184651200162
 20
30.07430621049113
 30
0.0
 10
197.525583175445
 20
30.59968327199173
 30
0.0
 10
197.525583175445
 20
31.57809038980269
 30
0.0
 10
197.525583175445
 20
32.46726953454567
 30
0.0
 10
197.049815488932
 20
32.9475158451895
 30
0.0
 10
196.1609808537376
 20
32.9475158451895
 30
0.0
 10
195.9453178763609
 20
32.9475158451895
 30
0.0
 10
195.774785649841
 20
32.92512272453538
 30
0.0
 10
195.6579969128911
 20
32.90272960388125
 30
0.0
 10
195.6579969128911
 20
32.90272960388125
 30
0.0
 10
195.6579969128911
 20
30.09669933114526
 30
0.0
 10
195.6579969128911
 20
30.09669933114526
 30
0.0
  0
HATCH
  5
2A8
330
23C
100
AcDbEntity
  8
_U+30EC_U+30A4_U+30E4_U+30FC 1
 62
     7
100
AcDbHatch
 10
0.0
 20
0.0
 30
0.0
210
0.0
220
0.0
230
1.0
  2
SOLID
 70
     1
 71
     0
 91
        2
 92
        1
 93
        1
 72
     4
 94
        3
 73
     0
 74
     1
 95
       23
 96
       19
 40
0.0
 40
0.0
 40
0.0
 40
0.0
 40
1.0
 40
1.0
 40
1.0
 40
2.0
 40
2.0
 40
2.0
 40
3.0
 40
3.0
 40
3.0
 40
4.0
 40
4.0
 40
4.0
 40
5.0
 40
5.0
 40
5.0
 40
6.0
 40
6.0
 40
6.0
 40
6.0
 10
195.2855820909355
 20
33.17661469495862
 10
195.5367295518103
 20
33.21692231213603
 10
195.8285291394109
 20
33.24827268105181
 10
196.1475449813451
 20
33.24827268105181
 10
197.5211045513142
 20
33.24827268105181
 10
197.9162570034723
 20
32.43557465608137
 10
197.9162570034723
 20
31.59600488632599
 10
197.9162570034723
 20
31.05305783785061
 10
197.7725965217374
 20
30.59072602373008
 10
197.449446565221
 20
30.25379568527265
 10
197.1486897293587
 20
29.94408160114869
 10
196.650184412643
 20
29.77354937462882
 10
196.0262776202643
 20
29.77354937462882
 10
195.7434352809253
 20
29.77354937462882
 10
195.5009005587637
 20
29.78250662289047
 10
195.2855820909355
 20
29.80937836767542
 10
195.2855820909355
 20
29.80937836767542
 10
195.2855820909355
 20
33.17661469495862
 10
195.2855820909355
 20
33.17661469495862
 97
        0
 92
        1
 93
        1
 72
     4
 94
        3
 73
     0
 74
     1
 95
       20
 96
       16
 40
0.0
 40
0.0
 40
0.0
 40
0.0
 40
1.0
 40
1.0
 40
1.0
 40
2.0
 40
2.0
 40
2.0
 40
3.0
 40
3.0
 40
3.0
 40
4.0
 40
4.0
 40
4.0
 40
5.0
 40
5.0
 40
5.0
 40
5.0
 10
195.6579969128911
 20
30.09669933114526
 10
195.7703070257102
 20
30.07878483462196
 10
195.9318820039684
 20
30.07430621049113
 10
196.0934569822267
 20
30.07430621049113
 10
197.0184651200162
 20
30.07430621049113
 10
197.525583175445
 20
30.59968327199173
 10
197.525583175445
 20
31.57809038980269
 10
197.525583175445
 20
32.46726953454567
 10
197.049815488932
 20
32.9475158451895
 10
196.1609808537376
 20
32.9475158451895
 10
195.9453178763609
 20
32.9475158451895
 10
195.774785649841
 20
32.92512272453538
 10
195.6579969128911
 20
32.90272960388125
 10
195.6579969128911
 20
32.90272960388125
 10
195.6579969128911
 20
30.09669933114526
 10
195.6579969128911
 20
30.09669933114526
 97
        0
 75
     2
 76
     1
 98
        0
  0
POLYLINE
  5
2A9
330
23C
100
AcDbEntity
  8
_U+30EC_U+30A4_U+30E4_U+30FC 1
370
     0
100
AcDb2dPolyline
 66
     1
 10
0.0
 20
0.0
 30
0.0
  0
VERTEX
  5
2AA
330
2A9
100
AcDbEntity
  8
_U+30EC_U+30A4_U+30E4_U+30FC 1
370
     0
100
AcDbVertex
100
AcDb2dVertex
 10
198.2514647941871
 20
31.3135070565355
 30
0.0
  0
VERTEX
  5
2AB
330
2A9
100
AcDbEntity
  8
_U+30EC_U+30A4_U+30E4_U+30FC 1
370
     0
100
AcDbVertex
100
AcDb2dVertex
 10
199.477229767839
 20
31.3135070565355
 30
0.0
  0
VERTEX
  5
2AC
330
2A9
100
AcDbEntity
  8
_U+30EC_U+30A4_U+30E4_U+30FC 1
370
     0
100
AcDbVertex
100
AcDb2dVertex
 10
199.477229767839
 20
31.02618609306566
 30
0.0
  0
VERTEX
  5
2AD
330
2A9
100
AcDbEntity
  8
_U+30EC_U+30A4_U+30E4_U+30FC 1
370
     0
100
AcDbVertex
100
AcDb2dVertex
 10
198.2514647941871
 20
31.02618609306566
 30
0.0
  0
VERTEX
  5
2AE
330
2A9
100
AcDbEntity
  8
_U+30EC_U+30A4_U+30E4_U+30FC 1
370
     0
100
AcDbVertex
100
AcDb2dVertex
 10
198.2514647941871
 20
31.3135070565355
 30
0.0
  0
SEQEND
  5
2AF
330
2A9
100
AcDbEntity
  8
_U+30EC_U+30A4_U+30E4_U+30FC 1
370
     0
  0
HATCH
  5
2B0
330
23C
100
AcDbEntity
  8
_U+30EC_U+30A4_U+30E4_U+30FC 1
 62
     7
100
AcDbHatch
 10
0.0
 20
0.0
 30
0.0
210
0.0
220
0.0
230
1.0
  2
SOLID
 70
     1
 71
     0
 91
        1
 92
        1
 93
        4
 72
     1
 10
198.2514647941871
 20
31.3135070565355
 11
199.477229767839
 21
31.3135070565355
 72
     1
 10
199.477229767839
 20
31.3135070565355
 11
199.477229767839
 21
31.02618609306566
 72
     1
 10
199.477229767839
 20
31.02618609306566
 11
198.2514647941871
 21
31.02618609306566
 72
     1
 10
198.2514647941871
 20
31.02618609306566
 11
198.2514647941871
 21
31.3135070565355
 97
        0
 75
     2
 76
     1
 98
        0
  0
POLYLINE
  5
2B1
330
23C
100
AcDbEntity
  8
_U+30EC_U+30A4_U+30E4_U+30FC 1
370
     0
100
AcDb2dPolyline
 66
     1
 10
0.0
 20
0.0
 30
0.0
  0
VERTEX
  5
2B2
330
2B1
100
AcDbEntity
  8
_U+30EC_U+30A4_U+30E4_U+30FC 1
370
     0
100
AcDbVertex
100
AcDb2dVertex
 10
200.7960123195927
 20
29.80042111941377
 30
0.0
  0
VERTEX
  5
2B3
330
2B1
100
AcDbEntity
  8
_U+30EC_U+30A4_U+30E4_U+30FC 1
370
     0
100
AcDbVertex
100
AcDb2dVertex
 10
200.7960123195927
 20
32.81281261171623
 30
0.0
  0
VERTEX
  5
2B4
330
2B1
100
AcDbEntity
  8
_U+30EC_U+30A4_U+30E4_U+30FC 1
370
     0
100
AcDbVertex
100
AcDb2dVertex
 10
200.787055071331
 20
32.81281261171623
 30
0.0
  0
VERTEX
  5
2B5
330
2B1
100
AcDbEntity
  8
_U+30EC_U+30A4_U+30E4_U+30FC 1
370
     0
100
AcDbVertex
100
AcDb2dVertex
 10
200.2348062650455
 20
32.49414127933062
 30
0.0
  0
VERTEX
  5
2B6
330
2B1
100
AcDbEntity
  8
_U+30EC_U+30A4_U+30E4_U+30FC 1
370
     0
100
AcDbVertex
100
AcDb2dVertex
 10
200.145233782429
 20
32.77250499453881
 30
0.0
  0
VERTEX
  5
2B7
330
2B1
100
AcDbEntity
  8
_U+30EC_U+30A4_U+30E4_U+30FC 1
370
     0
100
AcDbVertex
100
AcDb2dVertex
 10
200.8407985609009
 20
33.16283431301761
 30
0.0
  0
VERTEX
  5
2B8
330
2B1
100
AcDbEntity
  8
_U+30EC_U+30A4_U+30E4_U+30FC 1
370
     0
100
AcDbVertex
100
AcDb2dVertex
 10
201.1598144028351
 20
33.16283431301761
 30
0.0
  0
VERTEX
  5
2B9
330
2B1
100
AcDbEntity
  8
_U+30EC_U+30A4_U+30E4_U+30FC 1
370
     0
100
AcDbVertex
100
AcDb2dVertex
 10
201.1598144028351
 20
29.80042111941377
 30
0.0
  0
VERTEX
  5
2BA
330
2B1
100
AcDbEntity
  8
_U+30EC_U+30A4_U+30E4_U+30FC 1
370
     0
100
AcDbVertex
100
AcDb2dVertex
 10
200.7960123195927
 20
29.80042111941377
 30
0.0
  0
SEQEND
  5
2BB
330
2B1
100
AcDbEntity
  8
_U+30EC_U+30A4_U+30E4_U+30FC 1
370
     0
  0
HATCH
  5
2BC
330
23C
100
AcDbEntity
  8
_U+30EC_U+30A4_U+30E4_U+30FC 1
 62
     7
100
AcDbHatch
 10
0.0
 20
0.0
 30
0.0
210
0.0
220
0.0
230
1.0
  2
SOLID
 70
     1
 71
     0
 91
        1
 92
        1
 93
        8
 72
     1
 10
200.7960123195927
 20
29.80042111941377
 11
200.7960123195927
 21
32.81281261171623
 72
     1
 10
200.7960123195927
 20
32.81281261171623
 11
200.787055071331
 21
32.81281261171623
 72
     1
 10
200.787055071331
 20
32.81281261171623
 11
200.2348062650455
 21
32.49414127933062
 72
     1
 10
200.2348062650455
 20
32.49414127933062
 11
200.145233782429
 21
32.77250499453881
 72
     1
 10
200.145233782429
 20
32.77250499453881
 11
200.8407985609009
 21
33.16283431301761
 72
     1
 10
200.8407985609009
 20
33.16283431301761
 11
201.1598144028351
 21
33.16283431301761
 72
     1
 10
201.1598144028351
 20
33.16283431301761
 11
201.1598144028351
 21
29.80042111941377
 72
     1
 10
201.1598144028351
 20
29.80042111941377
 11
200.7960123195927
 21
29.80042111941377
 97
        0
 75
     2
 76
     1
 98
        0
  0
SPLINE
  5
2BD
330
23C
100
AcDbEntity
  8
_U+30EC_U+30A4_U+30E4_U+30FC 1
370
     0
100
AcDbSpline
210
0.0
220
0.0
230
1.0
 70
    11
 71
     3
 72
    59
 73
    55
 74
     0
 42
0.0000000001
 43
0.0000000001
 12
1.0
 22
0.0
 32
0.0
 13
1.0
 23
0.0
 33
0.0
 40
0.0
 40
0.0
 40
0.0
 40
0.0
 40
1.0
 40
1.0
 40
1.0
 40
2.0
 40
2.0
 40
2.0
 40
3.0
 40
3.0
 40
3.0
 40
4.0
 40
4.0
 40
4.0
 40
5.0
 40
5.0
 40
5.0
 40
6.0
 40
6.0
 40
6.0
 40
7.0
 40
7.0
 40
7.0
 40
8.0
 40
8.0
 40
8.0
 40
9.0
 40
9.0
 40
9.0
 40
10.0
 40
10.0
 40
10.0
 40
11.0
 40
11.0
 40
11.0
 40
12.0
 40
12.0
 40
12.0
 40
13.0
 40
13.0
 40
13.0
 40
14.0
 40
14.0
 40
14.0
 40
15.0
 40
15.0
 40
15.0
 40
16.0
 40
16.0
 40
16.0
 40
17.0
 40
17.0
 40
17.0
 40
18.0
 40
18.0
 40
18.0
 40
18.0
 10
203.5110920715181
 20
31.61874251652863
 30
0.0
 10
203.9062445236762
 20
31.55121864501774
 30
0.0
 10
204.2428303525851
 20
31.23254731263213
 30
0.0
 10
204.2428303525851
 20
30.74782237785748
 30
0.0
 10
204.2428303525851
 20
30.21348806809523
 30
0.0
 10
203.8566351486886
 20
29.74667762984387
 30
0.0
 10
203.1025037469674
 20
29.74667762984387
 30
0.0
 10
202.7659179180585
 20
29.74667762984387
 30
0.0
 10
202.4603379485169
 20
29.85416460898367
 30
0.0
 10
202.3077202185203
 20
29.96199609767199
 30
0.0
 10
202.3077202185203
 20
29.96199609767199
 30
0.0
 10
202.4200303313394
 20
30.24931706114183
 30
0.0
 10
202.4200303313394
 20
30.24931706114183
 30
0.0
 10
202.5412976924202
 20
30.16870182678698
 30
0.0
 10
202.8107041593668
 20
30.04743446570619
 30
0.0
 10
203.1069823710983
 20
30.04743446570619
 30
0.0
 10
203.6726670497763
 20
30.04743446570619
 30
0.0
 10
203.8566351486886
 20
30.44224240831582
 30
0.0
 10
203.8566351486886
 20
30.7523010019883
 30
0.0
 10
203.8566351486886
 20
31.2459831850246
 30
0.0
 10
203.4390895758764
 20
31.47060341066289
 30
0.0
 10
202.9991508824099
 20
31.47060341066289
 30
0.0
 10
202.9991508824099
 20
31.47060341066289
 30
0.0
 10
202.779353790451
 20
31.47060341066289
 30
0.0
 10
202.779353790451
 20
31.47060341066289
 30
0.0
 10
202.779353790451
 20
31.47060341066289
 30
0.0
 10
202.779353790451
 20
31.74896712587108
 30
0.0
 10
202.779353790451
 20
31.74896712587108
 30
0.0
 10
202.779353790451
 20
31.74896712587108
 30
0.0
 10
202.9991508824099
 20
31.74896712587108
 30
0.0
 10
202.9991508824099
 20
31.74896712587108
 30
0.0
 10
203.3223008389264
 20
31.74896712587108
 30
0.0
 10
203.7398464117387
 20
31.95084972130672
 30
0.0
 10
203.7398464117387
 20
32.37287391824982
 30
0.0
 10
203.7398464117387
 20
32.66467350585049
 30
0.0
 10
203.564835561088
 20
32.91616547627373
 30
0.0
 10
203.1607258606682
 20
32.91616547627373
 30
0.0
 10
202.9140570239243
 20
32.91616547627373
 30
0.0
 10
202.6804795500243
 20
32.79489811519293
 30
0.0
 10
202.5457763165511
 20
32.69602387476626
 30
0.0
 10
202.5457763165511
 20
32.69602387476626
 30
0.0
 10
202.4334662037319
 20
32.96990896584362
 30
0.0
 10
202.4334662037319
 20
32.96990896584362
 30
0.0
 10
202.5950411819901
 20
33.09565495105524
 30
0.0
 10
202.9095783997934
 20
33.22140093626686
 30
0.0
 10
203.2327283563099
 20
33.22140093626686
 30
0.0
 10
203.847677900427
 20
33.22140093626686
 30
0.0
 10
204.1215629915043
 20
32.83072710823953
 30
0.0
 10
204.1215629915043
 20
32.42661740781972
 30
0.0
 10
204.1215629915043
 20
32.08107433064917
 30
0.0
 10
203.9017658995454
 20
31.77136024652521
 30
0.0
 10
203.5110920715181
 20
31.63217838892111
 30
0.0
 10
203.5110920715181
 20
31.63217838892111
 30
0.0
 10
203.5110920715181
 20
31.61874251652863
 30
0.0
 10
203.5110920715181
 20
31.61874251652863
 30
0.0
  0
HATCH
  5
2BE
330
23C
100
AcDbEntity
  8
_U+30EC_U+30A4_U+30E4_U+30FC 1
 62
     7
100
AcDbHatch
 10
0.0
 20
0.0
 30
0.0
210
0.0
220
0.0
230
1.0
  2
SOLID
 70
     1
 71
     0
 91
        1
 92
        1
 93
        1
 72
     4
 94
        3
 73
     0
 74
     1
 95
       59
 96
       55
 40
0.0
 40
0.0
 40
0.0
 40
0.0
 40
1.0
 40
1.0
 40
1.0
 40
2.0
 40
2.0
 40
2.0
 40
3.0
 40
3.0
 40
3.0
 40
4.0
 40
4.0
 40
4.0
 40
5.0
 40
5.0
 40
5.0
 40
6.0
 40
6.0
 40
6.0
 40
7.0
 40
7.0
 40
7.0
 40
8.0
 40
8.0
 40
8.0
 40
9.0
 40
9.0
 40
9.0
 40
10.0
 40
10.0
 40
10.0
 40
11.0
 40
11.0
 40
11.0
 40
12.0
 40
12.0
 40
12.0
 40
13.0
 40
13.0
 40
13.0
 40
14.0
 40
14.0
 40
14.0
 40
15.0
 40
15.0
 40
15.0
 40
16.0
 40
16.0
 40
16.0
 40
17.0
 40
17.0
 40
17.0
 40
18.0
 40
18.0
 40
18.0
 40
18.0
 10
203.5110920715181
 20
31.61874251652863
 10
203.9062445236762
 20
31.55121864501774
 10
204.2428303525851
 20
31.23254731263213
 10
204.2428303525851
 20
30.74782237785748
 10
204.2428303525851
 20
30.21348806809523
 10
203.8566351486886
 20
29.74667762984387
 10
203.1025037469674
 20
29.74667762984387
 10
202.7659179180585
 20
29.74667762984387
 10
202.4603379485169
 20
29.85416460898367
 10
202.3077202185203
 20
29.96199609767199
 10
202.3077202185203
 20
29.96199609767199
 10
202.4200303313394
 20
30.24931706114183
 10
202.4200303313394
 20
30.24931706114183
 10
202.5412976924202
 20
30.16870182678698
 10
202.8107041593668
 20
30.04743446570619
 10
203.1069823710983
 20
30.04743446570619
 10
203.6726670497763
 20
30.04743446570619
 10
203.8566351486886
 20
30.44224240831582
 10
203.8566351486886
 20
30.7523010019883
 10
203.8566351486886
 20
31.2459831850246
 10
203.4390895758764
 20
31.47060341066289
 10
202.9991508824099
 20
31.47060341066289
 10
202.9991508824099
 20
31.47060341066289
 10
202.779353790451
 20
31.47060341066289
 10
202.779353790451
 20
31.47060341066289
 10
202.779353790451
 20
31.47060341066289
 10
202.779353790451
 20
31.74896712587108
 10
202.779353790451
 20
31.74896712587108
 10
202.779353790451
 20
31.74896712587108
 10
202.9991508824099
 20
31.74896712587108
 10
202.9991508824099
 20
31.74896712587108
 10
203.3223008389264
 20
31.74896712587108
 10
203.7398464117387
 20
31.95084972130672
 10
203.7398464117387
 20
32.37287391824982
 10
203.7398464117387
 20
32.66467350585049
 10
203.564835561088
 20
32.91616547627373
 10
203.1607258606682
 20
32.91616547627373
 10
202.9140570239243
 20
32.91616547627373
 10
202.6804795500243
 20
32.79489811519293
 10
202.5457763165511
 20
32.69602387476626
 10
202.5457763165511
 20
32.69602387476626
 10
202.4334662037319
 20
32.96990896584362
 10
202.4334662037319
 20
32.96990896584362
 10
202.5950411819901
 20
33.09565495105524
 10
202.9095783997934
 20
33.22140093626686
 10
203.2327283563099
 20
33.22140093626686
 10
203.847677900427
 20
33.22140093626686
 10
204.1215629915043
 20
32.83072710823953
 10
204.1215629915043
 20
32.42661740781972
 10
204.1215629915043
 20
32.08107433064917
 10
203.9017658995454
 20
31.77136024652521
 10
203.5110920715181
 20
31.63217838892111
 10
203.5110920715181
 20
31.63217838892111
 10
203.5110920715181
 20
31.61874251652863
 10
203.5110920715181
 20
31.61874251652863
 97
        0
 75
     2
 76
     1
 98
        0
  0
ENDBLK
  5
23F
330
23C
100
AcDbEntity
  8
0
100
AcDbBlockEnd
  0
ENDSEC
  0
SECTION
  2
ENTITIES
  0
INSERT
  5
42
330
1F
100
AcDbEntity
  8
_U+30EC_U+30A4_U+30E4_U+30FC 1
100
AcDbBlockReference
  2
block 2
 10
0.0
 20
0.0
 30
0.0
  0
POLYLINE
  5
198
330
1F
100
AcDbEntity
  8
_U+30EC_U+30A4_U+30E4_U+30FC 1
 62
     7
370
     5
100
AcDb2dPolyline
 66
     1
 10
0.0
 20
0.0
 30
0.0
  0
VERTEX
  5
199
330
198
100
AcDbEntity
  8
_U+30EC_U+30A4_U+30E4_U+30FC 1
 62
     7
370
     5
100
AcDbVertex
100
AcDb2dVertex
 10
98.8096310902674
 20
142.279863853319
 30
0.0
  0
VERTEX
  5
19A
330
198
100
AcDbEntity
  8
_U+30EC_U+30A4_U+30E4_U+30FC 1
 62
     7
370
     5
100
AcDbVertex
100
AcDb2dVertex
 10
127.1159195347805
 20
158.6598965078044
 30
0.0
  0
SEQEND
  5
19B
330
198
100
AcDbEntity
  8
_U+30EC_U+30A4_U+30E4_U+30FC 1
 62
     7
370
     5
  0
POLYLINE
  5
19C
330
1F
100
AcDbEntity
  8
_U+30EC_U+30A4_U+30E4_U+30FC 1
 62
     7
370
     5
100
AcDb2dPolyline
 66
     1
 10
0.0
 20
0.0
 30
0.0
  0
VERTEX
  5
19D
330
19C
100
AcDbEntity
  8
_U+30EC_U+30A4_U+30E4_U+30FC 1
 62
     7
370
     5
100
AcDbVertex
100
AcDb2dVertex
 10
95.73609005756886
 20
140.501158298208
 30
0.0
  0
VERTEX
  5
19E
330
19C
100
AcDbEntity
  8
_U+30EC_U+30A4_U+30E4_U+30FC 1
 62
     7
370
     5
100
AcDbVertex
100
AcDb2dVertex
 10
97.75080389505811
 20
141.6671558302142
 30
0.0
  0
SEQEND
  5
19F
330
19C
100
AcDbEntity
  8
_U+30EC_U+30A4_U+30E4_U+30FC 1
 62
     7
370
     5
  0
POLYLINE
  5
1A0
330
1F
100
AcDbEntity
  8
_U+30EC_U+30A4_U+30E4_U+30FC 1
 62
     7
370
     5
100
AcDb2dPolyline
 66
     1
 10
0.0
 20
0.0
 30
0.0
  0
VERTEX
  5
1A1
330
1A0
100
AcDbEntity
  8
_U+30EC_U+30A4_U+30E4_U+30FC 1
 62
     7
370
     5
100
AcDbVertex
100
AcDb2dVertex
 10
88.13087164048304
 20
136.1003931944564
 30
0.0
  0
VERTEX
  5
1A2
330
1A0
100
AcDbEntity
  8
_U+30EC_U+30A4_U+30E4_U+30FC 1
 62
     7
370
     5
100
AcDbVertex
100
AcDb2dVertex
 10
93.56929372395955
 20
139.2473120030607
 30
0.0
  0
SEQEND
  5
1A3
330
1A0
100
AcDbEntity
  8
_U+30EC_U+30A4_U+30E4_U+30FC 1
 62
     7
370
     5
  0
POLYLINE
  5
1A4
330
1F
100
AcDbEntity
  8
_U+30EC_U+30A4_U+30E4_U+30FC 1
 62
     7
370
     5
100
AcDb2dPolyline
 66
     1
 10
0.0
 20
0.0
 30
0.0
  0
VERTEX
  5
1A5
330
1A4
100
AcDbEntity
  8
_U+30EC_U+30A4_U+30E4_U+30FC 1
 62
     7
370
     5
100
AcDbVertex
100
AcDb2dVertex
 10
95.66772172597975
 20
144.0978299348692
 30
0.0
  0
VERTEX
  5
1A6
330
1A4
100
AcDbEntity
  8
_U+30EC_U+30A4_U+30E4_U+30FC 1
 62
     7
370
     5
100
AcDbVertex
100
AcDb2dVertex
 10
126.1182287269004
 20
161.7186249595703
 30
0.0
  0
SEQEND
  5
1A7
330
1A4
100
AcDbEntity
  8
_U+30EC_U+30A4_U+30E4_U+30FC 1
 62
     7
370
     5
  0
POLYLINE
  5
1A8
330
1F
100
AcDbEntity
  8
_U+30EC_U+30A4_U+30E4_U+30FC 1
 62
     7
370
     5
100
AcDb2dPolyline
 66
     1
 10
0.0
 20
0.0
 30
0.0
  0
VERTEX
  5
1A9
330
1A8
100
AcDbEntity
  8
_U+30EC_U+30A4_U+30E4_U+30FC 1
 62
     7
370
     5
100
AcDbVertex
100
AcDb2dVertex
 10
89.73145965520419
 20
140.662550578066
 30
0.0
  0
VERTEX
  5
1AA
330
1A8
100
AcDbEntity
  8
_U+30EC_U+30A4_U+30E4_U+30FC 1
 62
     7
370
     5
100
AcDbVertex
100
AcDb2dVertex
 10
93.49697428136012
 20
142.8415883002519
 30
0.0
  0
SEQEND
  5
1AB
330
1A8
100
AcDbEntity
  8
_U+30EC_U+30A4_U+30E4_U+30FC 1
 62
     7
370
     5
  0
POLYLINE
  5
1AC
330
1F
100
AcDbEntity
  8
_U+30EC_U+30A4_U+30E4_U+30FC 1
 62
     7
370
     5
100
AcDb2dPolyline
 66
     1
 10
0.0
 20
0.0
 30
0.0
  0
VERTEX
  5
1AD
330
1AC
100
AcDbEntity
  8
_U+30EC_U+30A4_U+30E4_U+30FC 1
 62
     7
370
     5
100
AcDbVertex
100
AcDb2dVertex
 10
86.53098918129943
 20
138.8106471875197
 30
0.0
  0
VERTEX
  5
1AE
330
1AC
100
AcDbEntity
  8
_U+30EC_U+30A4_U+30E4_U+30FC 1
 62
     7
370
     5
100
AcDbVertex
100
AcDb2dVertex
 10
87.63599720031335
 20
139.4500533867772
 30
0.0
  0
SEQEND
  5
1AF
330
1AC
100
AcDbEntity
  8
_U+30EC_U+30A4_U+30E4_U+30FC 1
 62
     7
370
     5
  0
POLYLINE
  5
1B0
330
1F
100
AcDbEntity
  8
_U+30EC_U+30A4_U+30E4_U+30FC 1
 62
     7
370
     5
100
AcDb2dPolyline
 66
     1
 10
0.0
 20
0.0
 30
0.0
  0
VERTEX
  5
1B1
330
1B0
100
AcDbEntity
  8
_U+30EC_U+30A4_U+30E4_U+30FC 1
 62
     7
370
     5
100
AcDbVertex
100
AcDb2dVertex
 10
178.7525659951977
 20
102.7093071018895
 30
0.0
  0
VERTEX
  5
1B2
330
1B0
100
AcDbEntity
  8
_U+30EC_U+30A4_U+30E4_U+30FC 1
 62
     7
370
     5
100
AcDbVertex
100
AcDb2dVertex
 10
181.0576864919447
 20
103.9781429028521
 30
0.0
  0
SEQEND
  5
1B3
330
1B0
100
AcDbEntity
  8
_U+30EC_U+30A4_U+30E4_U+30FC 1
 62
     7
370
     5
  0
POLYLINE
  5
1B4
330
1F
100
AcDbEntity
  8
_U+30EC_U+30A4_U+30E4_U+30FC 1
 62
     7
370
     5
100
AcDb2dPolyline
 66
     1
 10
0.0
 20
0.0
 30
0.0
  0
VERTEX
  5
1B5
330
1B4
100
AcDbEntity
  8
_U+30EC_U+30A4_U+30E4_U+30FC 1
 62
     7
370
     5
100
AcDbVertex
100
AcDb2dVertex
 10
168.6535968083994
 20
115.8754320437714
 30
0.0
  0
VERTEX
  5
1B6
330
1B4
100
AcDbEntity
  8
_U+30EC_U+30A4_U+30E4_U+30FC 1
 62
     7
370
     5
100
AcDbVertex
100
AcDb2dVertex
 10
170.3899337085462
 20
116.8114572976692
 30
0.0
  0
VERTEX
  5
1B7
330
1B4
100
AcDbEntity
  8
_U+30EC_U+30A4_U+30E4_U+30FC 1
 62
     7
370
     5
100
AcDbVertex
100
AcDb2dVertex
 10
181.0576864919447
 20
103.9781429028521
 30
0.0
  0
VERTEX
  5
1B8
330
1B4
100
AcDbEntity
  8
_U+30EC_U+30A4_U+30E4_U+30FC 1
 62
     7
370
     5
100
AcDbVertex
100
AcDb2dVertex
 10
179.6579348609887
 20
101.52901852089
 30
0.0
  0
SEQEND
  5
1B9
330
1B4
100
AcDbEntity
  8
_U+30EC_U+30A4_U+30E4_U+30FC 1
 62
     7
370
     5
  0
POLYLINE
  5
1BA
330
1F
100
AcDbEntity
  8
_U+30EC_U+30A4_U+30E4_U+30FC 1
370
     0
100
AcDb2dPolyline
 66
     1
 10
0.0
 20
0.0
 30
0.0
  0
VERTEX
  5
1BB
330
1BA
100
AcDbEntity
  8
_U+30EC_U+30A4_U+30E4_U+30FC 1
370
     0
100
AcDbVertex
100
AcDb2dVertex
 10
170.3558200983054
 20
83.51255203608396
 30
0.0
  0
VERTEX
  5
1BC
330
1BA
100
AcDbEntity
  8
_U+30EC_U+30A4_U+30E4_U+30FC 1
370
     0
100
AcDbVertex
100
AcDb2dVertex
 10
170.3558200983054
 20
53.41619998664569
 30
0.0
  0
SEQEND
  5
1BD
330
1BA
100
AcDbEntity
  8
_U+30EC_U+30A4_U+30E4_U+30FC 1
370
     0
  0
POLYLINE
  5
1BE
330
1F
100
AcDbEntity
  8
_U+30EC_U+30A4_U+30E4_U+30FC 1
370
     0
100
AcDb2dPolyline
 66
     1
 10
0.0
 20
0.0
 30
0.0
  0
VERTEX
  5
1BF
330
1BE
100
AcDbEntity
  8
_U+30EC_U+30A4_U+30E4_U+30FC 1
370
     0
100
AcDbVertex
100
AcDb2dVertex
 10
169.4738756763612
 20
82.94927177267667
 30
0.0
  0
VERTEX
  5
1C0
330
1BE
100
AcDbEntity
  8
_U+30EC_U+30A4_U+30E4_U+30FC 1
370
     0
100
AcDbVertex
100
AcDb2dVertex
 10
169.4738756763612
 20
53.41619998664569
 30
0.0
  0
VERTEX
  5
1C1
330
1BE
100
AcDbEntity
  8
_U+30EC_U+30A4_U+30E4_U+30FC 1
370
     0
100
AcDbVertex
100
AcDb2dVertex
 10
171.2377645202496
 20
53.41619998664569
 30
0.0
  0
VERTEX
  5
1C2
330
1BE
100
AcDbEntity
  8
_U+30EC_U+30A4_U+30E4_U+30FC 1
370
     0
100
AcDbVertex
100
AcDb2dVertex
 10
171.2377645202496
 20
81.92850929871848
 30
0.0
  0
SEQEND
  5
1C4
330
1BE
100
AcDbEntity
  8
_U+30EC_U+30A4_U+30E4_U+30FC 1
370
     0
  0
HATCH
  5
1C3
330
1F
100
AcDbEntity
  8
_U+30EC_U+30A4_U+30E4_U+30FC 1
 62
     7
100
AcDbHatch
 10
0.0
 20
0.0
 30
0.0
210
0.0
220
0.0
230
1.0
  2
SOLID
 70
     1
 71
     0
 91
        1
 92
        1
 93
        4
 72
     1
 10
169.4738756763612
 20
82.94927177267667
 11
169.4738756763612
 21
53.41619998664569
 72
     1
 10
169.4738756763612
 20
53.41619998664569
 11
171.2377645202496
 21
53.41619998664569
 72
     1
 10
171.2377645202496
 20
53.41619998664569
 11
171.2377645202496
 21
81.92850929871848
 72
     1
 10
171.2377645202496
 20
81.92850929871848
 11
169.4738756763612
 21
82.94927177267667
 97
        0
 75
     2
 76
     1
 98
        0
  0
SPLINE
  5
1C5
330
1F
100
AcDbEntity
  8
_U+30EC_U+30A4_U+30E4_U+30FC 1
 62
     7
370
     5
100
AcDbSpline
210
0.0
220
0.0
230
1.0
 70
     8
 71
     3
 72
    11
 73
     7
 74
     0
 42
0.0000000001
 43
0.0000000001
 12
1.0
 22
0.0
 32
0.0
 13
1.0
 23
0.0
 33
0.0
 40
0.0
 40
0.0
 40
0.0
 40
0.0
 40
1.0
 40
1.0
 40
1.0
 40
2.0
 40
2.0
 40
2.0
 40
2.0
 10
127.037394412685
 20
158.6681867853706
 30
0.0
 10
127.4914514696443
 20
158.8051351152101
 30
0.0
 10
127.6536971903088
 20
159.5985323171911
 30
0.0
 10
127.3997998053159
 20
160.4410361845859
 30
0.0
 10
127.1459056451266
 20
161.2833636630964
 30
0.0
 10
126.5722889930941
 20
161.8553928151694
 30
0.0
 10
126.1182287269004
 20
161.7186249595703
 30
0.0
  0
SPLINE
  5
1C6
330
1F
100
AcDbEntity
  8
_U+30EC_U+30A4_U+30E4_U+30FC 1
 62
     7
370
     5
100
AcDbSpline
210
0.0
220
0.0
230
1.0
 70
     8
 71
     3
 72
    11
 73
     7
 74
     0
 42
0.0000000001
 43
0.0000000001
 12
1.0
 22
0.0
 32
0.0
 13
1.0
 23
0.0
 33
0.0
 40
0.0
 40
0.0
 40
0.0
 40
0.0
 40
1.0
 40
1.0
 40
1.0
 40
2.0
 40
2.0
 40
2.0
 40
2.0
 10
126.4053898306854
 20
158.3024620724788
 30
0.0
 10
126.8594500968791
 20
158.4394104023183
 30
0.0
 10
127.02169259274
 20
159.2328428820762
 30
0.0
 10
126.7677984325507
 20
160.0753114716941
 30
0.0
 10
126.5139042723614
 20
160.9176389502046
 30
0.0
 10
125.9402876203289
 20
161.4897033800544
 30
0.0
 10
125.4862305241839
 20
161.3529314390993
 30
0.0
  0
SPLINE
  5
1C7
330
1F
100
AcDbEntity
  8
_U+30EC_U+30A4_U+30E4_U+30FC 1
 62
     7
370
     5
100
AcDbSpline
210
0.0
220
0.0
230
1.0
 70
     8
 71
     3
 72
    11
 73
     7
 74
     0
 42
0.0000000001
 43
0.0000000001
 12
1.0
 22
0.0
 32
0.0
 13
1.0
 23
0.0
 33
0.0
 40
0.0
 40
0.0
 40
0.0
 40
0.0
 40
1.0
 40
1.0
 40
1.0
 40
2.0
 40
2.0
 40
2.0
 40
2.0
 10
125.7473534585844
 20
157.9217795821909
 30
0.0
 10
126.2014137247781
 20
158.0587279120303
 30
0.0
 10
126.3636914984159
 20
158.8521603917882
 30
0.0
 10
126.1097973382266
 20
159.6946289814061
 30
0.0
 10
125.8558679002604
 20
160.5369564599166
 30
0.0
 10
125.2822865260048
 20
161.1090249597227
 30
0.0
 10
124.8282262598111
 20
160.9722489488113
 30
0.0
  0
SPLINE
  5
1C8
330
1F
100
AcDbEntity
  8
_U+30EC_U+30A4_U+30E4_U+30FC 1
 62
     7
370
     5
100
AcDbSpline
210
0.0
220
0.0
230
1.0
 70
     8
 71
     3
 72
    11
 73
     7
 74
     0
 42
0.0000000001
 43
0.0000000001
 12
1.0
 22
0.0
 32
0.0
 13
1.0
 23
0.0
 33
0.0
 40
0.0
 40
0.0
 40
0.0
 40
0.0
 40
1.0
 40
1.0
 40
1.0
 40
2.0
 40
2.0
 40
2.0
 40
2.0
 10
125.1405083020483
 20
157.5704129244883
 30
0.0
 10
125.5945654069268
 20
157.7073259765509
 30
0.0
 10
125.7568431805645
 20
158.5007584563088
 30
0.0
 10
125.5029137425984
 20
159.3432270459267
 30
0.0
 10
125.2490195824091
 20
160.1855545244372
 30
0.0
 10
124.6754029303766
 20
160.757618954287
 30
0.0
 10
124.2213426641829
 20
160.6208470133319
 30
0.0
  0
SPLINE
  5
1C9
330
1F
100
AcDbEntity
  8
_U+30EC_U+30A4_U+30E4_U+30FC 1
 62
     7
370
     5
100
AcDbSpline
210
0.0
220
0.0
230
1.0
 70
     8
 71
     3
 72
    11
 73
     7
 74
     0
 42
0.0000000001
 43
0.0000000001
 12
1.0
 22
0.0
 32
0.0
 13
1.0
 23
0.0
 33
0.0
 40
0.0
 40
0.0
 40
0.0
 40
0.0
 40
1.0
 40
1.0
 40
1.0
 40
2.0
 40
2.0
 40
2.0
 40
2.0
 10
124.482504046409
 20
157.1896951564235
 30
0.0
 10
124.9365643126027
 20
157.3266434862629
 30
0.0
 10
125.0988068084636
 20
158.1200759660208
 30
0.0
 10
124.8449126482743
 20
158.9625445556387
 30
0.0
 10
124.591018488085
 20
159.8048720341492
 30
0.0
 10
124.0174018360525
 20
160.376936463999
 30
0.0
 10
123.5633415698587
 20
160.2401645230439
 30
0.0
  0
SPLINE
  5
1CA
330
1F
100
AcDbEntity
  8
_U+30EC_U+30A4_U+30E4_U+30FC 1
 62
     7
370
     5
100
AcDbSpline
210
0.0
220
0.0
230
1.0
 70
     8
 71
     3
 72
    11
 73
     7
 74
     0
 42
0.0000000001
 43
0.0000000001
 12
1.0
 22
0.0
 32
0.0
 13
1.0
 23
0.0
 33
0.0
 40
0.0
 40
0.0
 40
0.0
 40
0.0
 40
1.0
 40
1.0
 40
1.0
 40
2.0
 40
2.0
 40
2.0
 40
2.0
 10
123.8698027468105
 20
156.8352240543556
 30
0.0
 10
124.3238598837897
 20
156.9721371064183
 30
0.0
 10
124.486105524434
 20
157.7655695861761
 30
0.0
 10
124.2322082194612
 20
158.6080734535709
 30
0.0
 10
123.9783140592719
 20
159.4504009320814
 30
0.0
 10
123.4046974072394
 20
160.0224300841544
 30
0.0
 10
122.9506371410457
 20
159.8856581431993
 30
0.0
  0
SPLINE
  5
1CB
330
1F
100
AcDbEntity
  8
_U+30EC_U+30A4_U+30E4_U+30FC 1
 62
     7
370
     5
100
AcDbSpline
210
0.0
220
0.0
230
1.0
 70
     8
 71
     3
 72
    11
 73
     7
 74
     0
 42
0.0000000001
 43
0.0000000001
 12
1.0
 22
0.0
 32
0.0
 13
1.0
 23
0.0
 33
0.0
 40
0.0
 40
0.0
 40
0.0
 40
0.0
 40
1.0
 40
1.0
 40
1.0
 40
2.0
 40
2.0
 40
2.0
 40
2.0
 10
123.2117632454949
 20
156.4545415640677
 30
0.0
 10
123.6658235116887
 20
156.5914546161303
 30
0.0
 10
123.8281012853264
 20
157.3848870958881
 30
0.0
 10
123.5742071251371
 20
158.2273909632829
 30
0.0
 10
123.3202776871709
 20
159.0697184417934
 30
0.0
 10
122.7466963129153
 20
159.6417475938664
 30
0.0
 10
122.2926360467216
 20
159.5049756529113
 30
0.0
  0
SPLINE
  5
1CC
330
1F
100
AcDbEntity
  8
_U+30EC_U+30A4_U+30E4_U+30FC 1
 62
     7
370
     5
100
AcDbSpline
210
0.0
220
0.0
230
1.0
 70
     8
 71
     3
 72
    11
 73
     7
 74
     0
 42
0.0000000001
 43
0.0000000001
 12
1.0
 22
0.0
 32
0.0
 13
1.0
 23
0.0
 33
0.0
 40
0.0
 40
0.0
 40
0.0
 40
0.0
 40
1.0
 40
1.0
 40
1.0
 40
2.0
 40
2.0
 40
2.0
 40
2.0
 10
122.6049149276436
 20
156.1031396285882
 30
0.0
 10
123.0589751938373
 20
156.2400879584277
 30
0.0
 10
123.2212529674751
 20
157.0334851604087
 30
0.0
 10
122.9673235295089
 20
157.8759890278035
 30
0.0
 10
122.7134293693196
 20
158.718316506314
 30
0.0
 10
122.1398127172871
 20
159.2903456583869
 30
0.0
 10
121.685755525134
 20
159.1535777379895
 30
0.0
  0
SPLINE
  5
1CD
330
1F
100
AcDbEntity
  8
_U+30EC_U+30A4_U+30E4_U+30FC 1
 62
     7
370
     5
100
AcDbSpline
210
0.0
220
0.0
230
1.0
 70
     8
 71
     3
 72
    11
 73
     7
 74
     0
 42
0.0000000001
 43
0.0000000001
 12
1.0
 22
0.0
 32
0.0
 13
1.0
 23
0.0
 33
0.0
 40
0.0
 40
0.0
 40
0.0
 40
0.0
 40
1.0
 40
1.0
 40
1.0
 40
2.0
 40
2.0
 40
2.0
 40
2.0
 10
121.9469138333195
 20
155.7224610721804
 30
0.0
 10
122.4009740995132
 20
155.8594054681398
 30
0.0
 10
122.5632165953741
 20
156.6528026701207
 30
0.0
 10
122.3093224351848
 20
157.4953065375155
 30
0.0
 10
122.0554282749955
 20
158.337634016026
 30
0.0
 10
121.481811622963
 20
158.909663168099
 30
0.0
 10
121.0277513567693
 20
158.7728912271439
 30
0.0
  0
SPLINE
  5
1CE
330
1F
100
AcDbEntity
  8
_U+30EC_U+30A4_U+30E4_U+30FC 1
 62
     7
370
     5
100
AcDbSpline
210
0.0
220
0.0
230
1.0
 70
     8
 71
     3
 72
    11
 73
     7
 74
     0
 42
0.0000000001
 43
0.0000000001
 12
1.0
 22
0.0
 32
0.0
 13
1.0
 23
0.0
 33
0.0
 40
0.0
 40
0.0
 40
0.0
 40
0.0
 40
1.0
 40
1.0
 40
1.0
 40
2.0
 40
2.0
 40
2.0
 40
2.0
 10
121.2857730168533
 20
155.3398696480609
 30
0.0
 10
121.7398685608239
 20
155.4768179779004
 30
0.0
 10
121.9021110566847
 20
156.2702151798813
 30
0.0
 10
121.6482168964954
 20
157.1127190472762
 30
0.0
 10
121.3943227363062
 20
157.9550465257866
 30
0.0
 10
120.8207060842737
 20
158.5271109556365
 30
0.0
 10
120.3666458180799
 20
158.3903390146814
 30
0.0
  0
SPLINE
  5
1CF
330
1F
100
AcDbEntity
  8
_U+30EC_U+30A4_U+30E4_U+30FC 1
 62
     7
370
     5
100
AcDbSpline
210
0.0
220
0.0
230
1.0
 70
     8
 71
     3
 72
    11
 73
     7
 74
     0
 42
0.0000000001
 43
0.0000000001
 12
1.0
 22
0.0
 32
0.0
 13
1.0
 23
0.0
 33
0.0
 40
0.0
 40
0.0
 40
0.0
 40
0.0
 40
1.0
 40
1.0
 40
1.0
 40
2.0
 40
2.0
 40
2.0
 40
2.0
 10
120.627774969843
 20
154.9591871577729
 30
0.0
 10
121.0818321887229
 20
155.0961354876124
 30
0.0
 10
121.2441099623606
 20
155.8895326895934
 30
0.0
 10
120.9902158021713
 20
156.7320365569882
 30
0.0
 10
120.7362863642052
 20
157.5743640354986
 30
0.0
 10
120.1627049899496
 20
158.1464284653485
 30
0.0
 10
119.7086094459789
 20
158.0096565243934
 30
0.0
  0
SPLINE
  5
1D0
330
1F
100
AcDbEntity
  8
_U+30EC_U+30A4_U+30E4_U+30FC 1
 62
     7
370
     5
100
AcDbSpline
210
0.0
220
0.0
230
1.0
 70
     8
 71
     3
 72
    11
 73
     7
 74
     0
 42
0.0000000001
 43
0.0000000001
 12
1.0
 22
0.0
 32
0.0
 13
1.0
 23
0.0
 33
0.0
 40
0.0
 40
0.0
 40
0.0
 40
0.0
 40
1.0
 40
1.0
 40
1.0
 40
2.0
 40
2.0
 40
2.0
 40
2.0
 10
120.0209236046778
 20
154.6077852222934
 30
0.0
 10
120.4749838708715
 20
154.7447335521329
 30
0.0
 10
120.6372616445093
 20
155.5381307541139
 30
0.0
 10
120.3833322065431
 20
156.3806346215087
 30
0.0
 10
120.1294380463538
 20
157.2229621000192
 30
0.0
 10
119.5558213943213
 20
157.7950305161067
 30
0.0
 10
119.1017611281276
 20
157.6582545889139
 30
0.0
  0
SPLINE
  5
1D1
330
1F
100
AcDbEntity
  8
_U+30EC_U+30A4_U+30E4_U+30FC 1
 62
     7
370
     5
100
AcDbSpline
210
0.0
220
0.0
230
1.0
 70
     8
 71
     3
 72
    11
 73
     7
 74
     0
 42
0.0000000001
 43
0.0000000001
 12
1.0
 22
0.0
 32
0.0
 13
1.0
 23
0.0
 33
0.0
 40
0.0
 40
0.0
 40
0.0
 40
0.0
 40
1.0
 40
1.0
 40
1.0
 40
2.0
 40
2.0
 40
2.0
 40
2.0
 10
119.3629225103537
 20
154.2271027320055
 30
0.0
 10
119.8169827765474
 20
154.364051061845
 30
0.0
 10
119.9792252724083
 20
155.1574482638259
 30
0.0
 10
119.725331112219
 20
155.9999521312208
 30
0.0
 10
119.4714369520297
 20
156.8422796097312
 30
0.0
 10
118.8978202999972
 20
157.4143440395811
 30
0.0
 10
118.4437600338035
 20
157.277572098626
 30
0.0
  0
SPLINE
  5
1D2
330
1F
100
AcDbEntity
  8
_U+30EC_U+30A4_U+30E4_U+30FC 1
 62
     7
370
     5
100
AcDbSpline
210
0.0
220
0.0
230
1.0
 70
     8
 71
     3
 72
    11
 73
     7
 74
     0
 42
0.0000000001
 43
0.0000000001
 12
1.0
 22
0.0
 32
0.0
 13
1.0
 23
0.0
 33
0.0
 40
0.0
 40
0.0
 40
0.0
 40
0.0
 40
1.0
 40
1.0
 40
1.0
 40
2.0
 40
2.0
 40
2.0
 40
2.0
 10
118.7501828037638
 20
153.8725963521608
 30
0.0
 10
119.2042783477344
 20
154.0095446820003
 30
0.0
 10
119.3665208435952
 20
154.8029418839813
 30
0.0
 10
119.1126266834059
 20
155.6454457513761
 30
0.0
 10
118.8587325232167
 20
156.4877732298865
 30
0.0
 10
118.2851158711842
 20
157.0598416274017
 30
0.0
 10
117.8310556049904
 20
156.9230657187813
 30
0.0
  0
SPLINE
  5
1D3
330
1F
100
AcDbEntity
  8
_U+30EC_U+30A4_U+30E4_U+30FC 1
 62
     7
370
     5
100
AcDbSpline
210
0.0
220
0.0
230
1.0
 70
     8
 71
     3
 72
    11
 73
     7
 74
     0
 42
0.0000000001
 43
0.0000000001
 12
1.0
 22
0.0
 32
0.0
 13
1.0
 23
0.0
 33
0.0
 40
0.0
 40
0.0
 40
0.0
 40
0.0
 40
1.0
 40
1.0
 40
1.0
 40
2.0
 40
2.0
 40
2.0
 40
2.0
 10
118.0921817094397
 20
153.4919138618728
 30
0.0
 10
118.5462419756334
 20
153.6288621917123
 30
0.0
 10
118.7085197492711
 20
154.4222593936933
 30
0.0
 10
118.4546255890818
 20
155.2647632610881
 30
0.0
 10
118.2006961511157
 20
156.1070907395985
 30
0.0
 10
117.6271147768601
 20
156.6791551694484
 30
0.0
 10
117.1730221929291
 20
156.5423832284933
 30
0.0
  0
SPLINE
  5
1D4
330
1F
100
AcDbEntity
  8
_U+30EC_U+30A4_U+30E4_U+30FC 1
 62
     7
370
     5
100
AcDbSpline
210
0.0
220
0.0
230
1.0
 70
     8
 71
     3
 72
    11
 73
     7
 74
     0
 42
0.0000000001
 43
0.0000000001
 12
1.0
 22
0.0
 32
0.0
 13
1.0
 23
0.0
 33
0.0
 40
0.0
 40
0.0
 40
0.0
 40
0.0
 40
1.0
 40
1.0
 40
1.0
 40
2.0
 40
2.0
 40
2.0
 40
2.0
 10
117.4853333915883
 20
153.1405119263934
 30
0.0
 10
117.9393936577821
 20
153.2774602562329
 30
0.0
 10
118.1016714314198
 20
154.0708574582139
 30
0.0
 10
117.8477419934536
 20
154.9133613256087
 30
0.0
 10
117.5938478332643
 20
155.7556888041191
 30
0.0
 10
117.0202311812318
 20
156.327753233969
 30
0.0
 10
116.5661709150381
 20
156.1909812930139
 30
0.0
  0
SPLINE
  5
1D5
330
1F
100
AcDbEntity
  8
_U+30EC_U+30A4_U+30E4_U+30FC 1
 62
     7
370
     5
100
AcDbSpline
210
0.0
220
0.0
230
1.0
 70
     8
 71
     3
 72
    11
 73
     7
 74
     0
 42
0.0000000001
 43
0.0000000001
 12
1.0
 22
0.0
 32
0.0
 13
1.0
 23
0.0
 33
0.0
 40
0.0
 40
0.0
 40
0.0
 40
0.0
 40
1.0
 40
1.0
 40
1.0
 40
2.0
 40
2.0
 40
2.0
 40
2.0
 10
116.8273322972642
 20
152.7598332951435
 30
0.0
 10
117.281392563458
 20
152.8967777659449
 30
0.0
 10
117.4436350593188
 20
153.6901749679259
 30
0.0
 10
117.1897408991295
 20
154.5326788353207
 30
0.0
 10
116.9358467389402
 20
155.3750063138311
 30
0.0
 10
116.3622300869077
 20
155.947070743681
 30
0.0
 10
115.908169820714
 20
155.8103027388253
 30
0.0
  0
SPLINE
  5
1D6
330
1F
100
AcDbEntity
  8
_U+30EC_U+30A4_U+30E4_U+30FC 1
 62
     7
370
     5
100
AcDbSpline
210
0.0
220
0.0
230
1.0
 70
     8
 71
     3
 72
    11
 73
     7
 74
     0
 42
0.0000000001
 43
0.0000000001
 12
1.0
 22
0.0
 32
0.0
 13
1.0
 23
0.0
 33
0.0
 40
0.0
 40
0.0
 40
0.0
 40
0.0
 40
1.0
 40
1.0
 40
1.0
 40
2.0
 40
2.0
 40
2.0
 40
2.0
 10
116.1822075915005
 20
152.3865552789618
 30
0.0
 10
116.6363031354711
 20
152.5235036088012
 30
0.0
 10
116.798545631332
 20
153.3169008107822
 30
0.0
 10
116.5446514711427
 20
154.1594046781771
 30
0.0
 10
116.2907573109534
 20
155.0017360723607
 30
0.0
 10
115.7171406589209
 20
155.5737965865374
 30
0.0
 10
115.2630833045174
 20
155.4370246455822
 30
0.0
  0
SPLINE
  5
1D7
330
1F
100
AcDbEntity
  8
_U+30EC_U+30A4_U+30E4_U+30FC 1
 62
     7
370
     5
100
AcDbSpline
210
0.0
220
0.0
230
1.0
 70
     8
 71
     3
 72
    11
 73
     7
 74
     0
 42
0.0000000001
 43
0.0000000001
 12
1.0
 22
0.0
 32
0.0
 13
1.0
 23
0.0
 33
0.0
 40
0.0
 40
0.0
 40
0.0
 40
0.0
 40
1.0
 40
1.0
 40
1.0
 40
2.0
 40
2.0
 40
2.0
 40
2.0
 10
115.5242064971764
 20
152.0058727886738
 30
0.0
 10
115.9782667633701
 20
152.1428249619642
 30
0.0
 10
116.1405445370079
 20
152.9362221839883
 30
0.0
 10
115.8866503768186
 20
153.7787221878891
 30
0.0
 10
115.6327209388524
 20
154.6210496663995
 30
0.0
 10
115.0591395645968
 20
155.1931140962494
 30
0.0
 10
114.6050440206262
 20
155.0563421552943
 30
0.0
  0
SPLINE
  5
1D8
330
1F
100
AcDbEntity
  8
_U+30EC_U+30A4_U+30E4_U+30FC 1
 62
     7
370
     5
100
AcDbSpline
210
0.0
220
0.0
230
1.0
 70
     8
 71
     3
 72
    11
 73
     7
 74
     0
 42
0.0000000001
 43
0.0000000001
 12
1.0
 22
0.0
 32
0.0
 13
1.0
 23
0.0
 33
0.0
 40
0.0
 40
0.0
 40
0.0
 40
0.0
 40
1.0
 40
1.0
 40
1.0
 40
2.0
 40
2.0
 40
2.0
 40
2.0
 10
114.9173610823818
 20
151.6544708531943
 30
0.0
 10
115.3714184455188
 20
151.7914191830338
 30
0.0
 10
115.5336962191565
 20
152.5848163850148
 30
0.0
 10
115.2797667811903
 20
153.4273202524096
 30
0.0
 10
115.0258726210011
 20
154.2696477309201
 30
0.0
 10
114.4522559689686
 20
154.8417121607699
 30
0.0
 10
113.9981957027748
 20
154.7049402198148
 30
0.0
  0
SPLINE
  5
1D9
330
1F
100
AcDbEntity
  8
_U+30EC_U+30A4_U+30E4_U+30FC 1
 62
     7
370
     5
100
AcDbSpline
210
0.0
220
0.0
230
1.0
 70
     8
 71
     3
 72
    11
 73
     7
 74
     0
 42
0.0000000001
 43
0.0000000001
 12
1.0
 22
0.0
 32
0.0
 13
1.0
 23
0.0
 33
0.0
 40
0.0
 40
0.0
 40
0.0
 40
0.0
 40
1.0
 40
1.0
 40
1.0
 40
2.0
 40
2.0
 40
2.0
 40
2.0
 10
114.259357085001
 20
151.2737883629063
 30
0.0
 10
114.7134173511947
 20
151.4107366927458
 30
0.0
 10
114.8756598470555
 20
152.2041338947268
 30
0.0
 10
114.6217656868662
 20
153.0466416284049
 30
0.0
 10
114.367871526677
 20
153.8889652406321
 30
0.0
 10
113.7942548746445
 20
154.4610296704819
 30
0.0
 10
113.3401946084507
 20
154.3242577295268
 30
0.0
  0
SPLINE
  5
1DA
330
1F
100
AcDbEntity
  8
_U+30EC_U+30A4_U+30E4_U+30FC 1
 62
     7
370
     5
100
AcDbSpline
210
0.0
220
0.0
230
1.0
 70
     8
 71
     3
 72
    11
 73
     7
 74
     0
 42
0.0000000001
 43
0.0000000001
 12
1.0
 22
0.0
 32
0.0
 13
1.0
 23
0.0
 33
0.0
 40
0.0
 40
0.0
 40
0.0
 40
0.0
 40
1.0
 40
1.0
 40
1.0
 40
2.0
 40
2.0
 40
2.0
 40
2.0
 10
113.646617378411
 20
150.9192819830617
 30
0.0
 10
114.1007129223816
 20
151.0562303129012
 30
0.0
 10
114.2629583047677
 20
151.8496275148821
 30
0.0
 10
114.0090612580532
 20
152.692131382277
 30
0.0
 10
113.7551670978639
 20
153.5344588607874
 30
0.0
 10
113.1815504458314
 20
154.1065232906373
 30
0.0
 10
112.7274901796377
 20
153.9697513496822
 30
0.0
  0
SPLINE
  5
1DB
330
1F
100
AcDbEntity
  8
_U+30EC_U+30A4_U+30E4_U+30FC 1
 62
     7
370
     5
100
AcDbSpline
210
0.0
220
0.0
230
1.0
 70
     8
 71
     3
 72
    11
 73
     7
 74
     0
 42
0.0000000001
 43
0.0000000001
 12
1.0
 22
0.0
 32
0.0
 13
1.0
 23
0.0
 33
0.0
 40
0.0
 40
0.0
 40
0.0
 40
0.0
 40
1.0
 40
1.0
 40
1.0
 40
2.0
 40
2.0
 40
2.0
 40
2.0
 10
112.9886162840869
 20
150.5385994927737
 30
0.0
 10
113.4426765502807
 20
150.6755478226132
 30
0.0
 10
113.6049543239184
 20
151.4689450245942
 30
0.0
 10
113.3510601637291
 20
152.3114527396999
 30
0.0
 10
113.0971307257629
 20
153.1537763704994
 30
0.0
 10
112.5235493515073
 20
153.7258408003493
 30
0.0
 10
112.0694538075367
 20
153.5890688593942
 30
0.0
  0
SPLINE
  5
1DC
330
1F
100
AcDbEntity
  8
_U+30EC_U+30A4_U+30E4_U+30FC 1
 62
     7
370
     5
100
AcDbSpline
210
0.0
220
0.0
230
1.0
 70
     8
 71
     3
 72
    11
 73
     7
 74
     0
 42
0.0000000001
 43
0.0000000001
 12
1.0
 22
0.0
 32
0.0
 13
1.0
 23
0.0
 33
0.0
 40
0.0
 40
0.0
 40
0.0
 40
0.0
 40
1.0
 40
1.0
 40
1.0
 40
2.0
 40
2.0
 40
2.0
 40
2.0
 10
112.3817679662356
 20
150.1871975572943
 30
0.0
 10
112.8358282324293
 20
150.3241458871338
 30
0.0
 10
112.998106006067
 20
151.1175430891147
 30
0.0
 10
112.7441765681009
 20
151.9600469565096
 30
0.0
 10
112.4902824079116
 20
152.80237443502
 30
0.0
 10
111.9166657558791
 20
153.3744388648699
 30
0.0
 10
111.4626083054678
 20
153.2376669239148
 30
0.0
  0
SPLINE
  5
1DD
330
1F
100
AcDbEntity
  8
_U+30EC_U+30A4_U+30E4_U+30FC 1
 62
     7
370
     5
100
AcDbSpline
210
0.0
220
0.0
230
1.0
 70
     8
 71
     3
 72
    11
 73
     7
 74
     0
 42
0.0000000001
 43
0.0000000001
 12
1.0
 22
0.0
 32
0.0
 13
1.0
 23
0.0
 33
0.0
 40
0.0
 40
0.0
 40
0.0
 40
0.0
 40
1.0
 40
1.0
 40
1.0
 40
2.0
 40
2.0
 40
2.0
 40
2.0
 10
111.7237668719115
 20
149.8065150670063
 30
0.0
 10
112.1778271381052
 20
149.9434633968458
 30
0.0
 10
112.3400696339661
 20
150.7368605988268
 30
0.0
 10
112.0861754737768
 20
151.5793644662216
 30
0.0
 10
111.8322813135875
 20
152.421691944732
 30
0.0
 10
111.258664661555
 20
152.9937563745819
 30
0.0
 10
110.8046043953613
 20
152.8569844336268
 30
0.0
  0
SPLINE
  5
1DE
330
1F
100
AcDbEntity
  8
_U+30EC_U+30A4_U+30E4_U+30FC 1
 62
     7
370
     5
100
AcDbSpline
210
0.0
220
0.0
230
1.0
 70
     8
 71
     3
 72
    11
 73
     7
 74
     0
 42
0.0000000001
 43
0.0000000001
 12
1.0
 22
0.0
 32
0.0
 13
1.0
 23
0.0
 33
0.0
 40
0.0
 40
0.0
 40
0.0
 40
0.0
 40
1.0
 40
1.0
 40
1.0
 40
2.0
 40
2.0
 40
2.0
 40
2.0
 10
111.0626260554452
 20
149.4239666293108
 30
0.0
 10
111.5167215994159
 20
149.5608759066064
 30
0.0
 10
111.6789640952767
 20
150.3543083863642
 30
0.0
 10
111.4250699350874
 20
151.1968122537591
 30
0.0
 10
111.1711757748981
 20
152.0391397322695
 30
0.0
 10
110.5975591228656
 20
152.6111688843425
 30
0.0
 10
110.1434988566719
 20
152.4743969433874
 30
0.0
  0
SPLINE
  5
1DF
330
1F
100
AcDbEntity
  8
_U+30EC_U+30A4_U+30E4_U+30FC 1
 62
     7
370
     5
100
AcDbSpline
210
0.0
220
0.0
230
1.0
 70
     8
 71
     3
 72
    11
 73
     7
 74
     0
 42
0.0000000001
 43
0.0000000001
 12
1.0
 22
0.0
 32
0.0
 13
1.0
 23
0.0
 33
0.0
 40
0.0
 40
0.0
 40
0.0
 40
0.0
 40
1.0
 40
1.0
 40
1.0
 40
2.0
 40
2.0
 40
2.0
 40
2.0
 10
110.4046277501765
 20
149.0432803642558
 30
0.0
 10
110.8586852273149
 20
149.180197184927
 30
0.0
 10
111.0209630009526
 20
149.9736258960763
 30
0.0
 10
110.7670688407633
 20
150.8161297634711
 30
0.0
 10
110.5131394027972
 20
151.6584219642046
 30
0.0
 10
109.9395227507647
 20
152.2304863940545
 30
0.0
 10
109.4854624845709
 20
152.0937144530994
 30
0.0
  0
SPLINE
  5
1E0
330
1F
100
AcDbEntity
  8
_U+30EC_U+30A4_U+30E4_U+30FC 1
 62
     7
370
     5
100
AcDbSpline
210
0.0
220
0.0
230
1.0
 70
     8
 71
     3
 72
    11
 73
     7
 74
     0
 42
0.0000000001
 43
0.0000000001
 12
1.0
 22
0.0
 32
0.0
 13
1.0
 23
0.0
 33
0.0
 40
0.0
 40
0.0
 40
0.0
 40
0.0
 40
1.0
 40
1.0
 40
1.0
 40
2.0
 40
2.0
 40
2.0
 40
2.0
 10
109.7977766432698
 20
148.6918784287764
 30
0.0
 10
110.2518369094635
 20
148.8288305183485
 30
0.0
 10
110.4141146831013
 20
149.6222277403723
 30
0.0
 10
110.1601852451351
 20
150.4647278279917
 30
0.0
 10
109.9062910849458
 20
151.3070553065021
 30
0.0
 10
109.3326744329133
 20
151.8790844585751
 30
0.0
 10
108.8786141667196
 20
151.74231251762
 30
0.0
  0
SPLINE
  5
1E1
330
1F
100
AcDbEntity
  8
_U+30EC_U+30A4_U+30E4_U+30FC 1
 62
     7
370
     5
100
AcDbSpline
210
0.0
220
0.0
230
1.0
 70
     8
 71
     3
 72
    11
 73
     7
 74
     0
 42
0.0000000001
 43
0.0000000001
 12
1.0
 22
0.0
 32
0.0
 13
1.0
 23
0.0
 33
0.0
 40
0.0
 40
0.0
 40
0.0
 40
0.0
 40
1.0
 40
1.0
 40
1.0
 40
2.0
 40
2.0
 40
2.0
 40
2.0
 10
109.1397755489457
 20
148.3111959384884
 30
0.0
 10
109.5938358151394
 20
148.4481442683279
 30
0.0
 10
109.7560783110003
 20
149.2415414703088
 30
0.0
 10
109.502184150811
 20
150.0840453377037
 30
0.0
 10
109.2482899906217
 20
150.9263728162141
 30
0.0
 10
108.6746733385892
 20
151.4984019682871
 30
0.0
 10
108.2206130723955
 20
151.361630027332
 30
0.0
  0
SPLINE
  5
1E2
330
1F
100
AcDbEntity
  8
_U+30EC_U+30A4_U+30E4_U+30FC 1
 62
     7
370
     5
100
AcDbSpline
210
0.0
220
0.0
230
1.0
 70
     8
 71
     3
 72
    11
 73
     7
 74
     0
 42
0.0000000001
 43
0.0000000001
 12
1.0
 22
0.0
 32
0.0
 13
1.0
 23
0.0
 33
0.0
 40
0.0
 40
0.0
 40
0.0
 40
0.0
 40
1.0
 40
1.0
 40
1.0
 40
2.0
 40
2.0
 40
2.0
 40
2.0
 10
108.5270358423558
 20
147.9566895586437
 30
0.0
 10
108.9811313863264
 20
148.0936416296431
 30
0.0
 10
109.1433738821872
 20
148.8870388516673
 30
0.0
 10
108.8894797219979
 20
149.729538957859
 30
0.0
 10
108.6355855618087
 20
150.5718664363694
 30
0.0
 10
108.0619689097762
 20
151.1439308662193
 30
0.0
 10
107.6079086435824
 20
151.0071589252642
 30
0.0
  0
SPLINE
  5
1E3
330
1F
100
AcDbEntity
  8
_U+30EC_U+30A4_U+30E4_U+30FC 1
 62
     7
370
     5
100
AcDbSpline
210
0.0
220
0.0
230
1.0
 70
     8
 71
     3
 72
    11
 73
     7
 74
     0
 42
0.0000000001
 43
0.0000000001
 12
1.0
 22
0.0
 32
0.0
 13
1.0
 23
0.0
 33
0.0
 40
0.0
 40
0.0
 40
0.0
 40
0.0
 40
1.0
 40
1.0
 40
1.0
 40
2.0
 40
2.0
 40
2.0
 40
2.0
 10
107.8690347480317
 20
147.5760070683557
 30
0.0
 10
108.3230950142254
 20
147.7129553981952
 30
0.0
 10
108.4853727878631
 20
148.5063526001762
 30
0.0
 10
108.2314786276738
 20
149.348856467571
 30
0.0
 10
107.9775491897077
 20
150.1911839460815
 30
0.0
 10
107.4039325376752
 20
150.7632483759313
 30
0.0
 10
106.9498749732625
 20
150.6264764349762
 30
0.0
  0
SPLINE
  5
1E4
330
1F
100
AcDbEntity
  8
_U+30EC_U+30A4_U+30E4_U+30FC 1
 62
     7
370
     5
100
AcDbSpline
210
0.0
220
0.0
230
1.0
 70
     8
 71
     3
 72
    11
 73
     7
 74
     0
 42
0.0000000001
 43
0.0000000001
 12
1.0
 22
0.0
 32
0.0
 13
1.0
 23
0.0
 33
0.0
 40
0.0
 40
0.0
 40
0.0
 40
0.0
 40
1.0
 40
1.0
 40
1.0
 40
2.0
 40
2.0
 40
2.0
 40
2.0
 10
107.2621864301803
 20
147.2246051328763
 30
0.0
 10
107.716246696374
 20
147.3615534627158
 30
0.0
 10
107.8785244700118
 20
148.1549506646968
 30
0.0
 10
107.6245950320456
 20
148.9974582960838
 30
0.0
 10
107.3707008718563
 20
149.839782010602
 30
0.0
 10
106.7970842198238
 20
150.4118464404519
 30
0.0
 10
106.3430239536301
 20
150.2750744994968
 30
0.0
  0
SPLINE
  5
1E5
330
1F
100
AcDbEntity
  8
_U+30EC_U+30A4_U+30E4_U+30FC 1
 62
     7
370
     5
100
AcDbSpline
210
0.0
220
0.0
230
1.0
 70
     8
 71
     3
 72
    11
 73
     7
 74
     0
 42
0.0000000001
 43
0.0000000001
 12
1.0
 22
0.0
 32
0.0
 13
1.0
 23
0.0
 33
0.0
 40
0.0
 40
0.0
 40
0.0
 40
0.0
 40
1.0
 40
1.0
 40
1.0
 40
2.0
 40
2.0
 40
2.0
 40
2.0
 10
106.6041853358562
 20
146.8439226425883
 30
0.0
 10
107.0582456020499
 20
146.9808709724278
 30
0.0
 10
107.2204880979108
 20
147.7742681744088
 30
0.0
 10
106.9665939377215
 20
148.6167720418036
 30
0.0
 10
106.7126997775322
 20
149.459099520314
 30
0.0
 10
106.1390831254997
 20
150.0311639501639
 30
0.0
 10
105.685022859306
 20
149.8943920092088
 30
0.0
  0
SPLINE
  5
1E6
330
1F
100
AcDbEntity
  8
_U+30EC_U+30A4_U+30E4_U+30FC 1
 62
     7
370
     5
100
AcDbSpline
210
0.0
220
0.0
230
1.0
 70
     8
 71
     3
 72
    11
 73
     7
 74
     0
 42
0.0000000001
 43
0.0000000001
 12
1.0
 22
0.0
 32
0.0
 13
1.0
 23
0.0
 33
0.0
 40
0.0
 40
0.0
 40
0.0
 40
0.0
 40
1.0
 40
1.0
 40
1.0
 40
2.0
 40
2.0
 40
2.0
 40
2.0
 10
105.9726805290625
 20
146.4785507074653
 30
0.0
 10
106.426738118161
 20
146.6155027411239
 30
0.0
 10
106.5890158917988
 20
147.4089315170626
 30
0.0
 10
106.3351217316095
 20
148.2514001066806
 30
0.0
 10
106.0811922936433
 20
149.093727585191
 30
0.0
 10
105.5076109193877
 20
149.6657920150409
 30
0.0
 10
105.053550653194
 20
149.5290200740858
 30
0.0
  0
SPLINE
  5
1E7
330
1F
100
AcDbEntity
  8
_U+30EC_U+30A4_U+30E4_U+30FC 1
 62
     7
370
     5
100
AcDbSpline
210
0.0
220
0.0
230
1.0
 70
     8
 71
     3
 72
    11
 73
     7
 74
     0
 42
0.0000000001
 43
0.0000000001
 12
1.0
 22
0.0
 32
0.0
 13
1.0
 23
0.0
 33
0.0
 40
0.0
 40
0.0
 40
0.0
 40
0.0
 40
1.0
 40
1.0
 40
1.0
 40
2.0
 40
2.0
 40
2.0
 40
2.0
 10
105.3146767576432
 20
146.0978682171773
 30
0.0
 10
105.7687370238369
 20
146.2348165470168
 30
0.0
 10
105.9310147974747
 20
147.0282137489978
 30
0.0
 10
105.6770853595085
 20
147.8707176163926
 30
0.0
 10
105.4231911993192
 20
148.713045094903
 30
0.0
 10
104.8495745472867
 20
149.2851095247529
 30
0.0
 10
104.395514281093
 20
149.1483375837978
 30
0.0
  0
SPLINE
  5
1E8
330
1F
100
AcDbEntity
  8
_U+30EC_U+30A4_U+30E4_U+30FC 1
 62
     7
370
     5
100
AcDbSpline
210
0.0
220
0.0
230
1.0
 70
     8
 71
     3
 72
    11
 73
     7
 74
     0
 42
0.0000000001
 43
0.0000000001
 12
1.0
 22
0.0
 32
0.0
 13
1.0
 23
0.0
 33
0.0
 40
0.0
 40
0.0
 40
0.0
 40
0.0
 40
1.0
 40
1.0
 40
1.0
 40
2.0
 40
2.0
 40
2.0
 40
2.0
 10
104.7078284397919
 20
145.7464662816979
 30
0.0
 10
105.1618887059856
 20
145.8834146115373
 30
0.0
 10
105.3241312018464
 20
146.6768470912952
 30
0.0
 10
105.0702370416572
 20
147.5193194075646
 30
0.0
 10
104.8163428814679
 20
148.3616431594236
 30
0.0
 10
104.2427262294354
 20
148.9337075892735
 30
0.0
 10
103.7886659632416
 20
148.7969356483184
 30
0.0
  0
SPLINE
  5
1E9
330
1F
100
AcDbEntity
  8
_U+30EC_U+30A4_U+30E4_U+30FC 1
 62
     7
370
     5
100
AcDbSpline
210
0.0
220
0.0
230
1.0
 70
     8
 71
     3
 72
    11
 73
     7
 74
     0
 42
0.0000000001
 43
0.0000000001
 12
1.0
 22
0.0
 32
0.0
 13
1.0
 23
0.0
 33
0.0
 40
0.0
 40
0.0
 40
0.0
 40
0.0
 40
1.0
 40
1.0
 40
1.0
 40
2.0
 40
2.0
 40
2.0
 40
2.0
 10
104.0497920676909
 20
145.3657837914099
 30
0.0
 10
104.5038523338846
 20
145.5027321212494
 30
0.0
 10
104.6661301075223
 20
146.2961646010072
 30
0.0
 10
104.412235947333
 20
147.1386331906252
 30
0.0
 10
104.158344418405
 20
147.9809606691356
 30
0.0
 10
103.5847277518817
 20
148.5530250989855
 30
0.0
 10
103.1306648689175
 20
148.4162531580304
 30
0.0
  0
SPLINE
  5
1EA
330
1F
100
AcDbEntity
  8
_U+30EC_U+30A4_U+30E4_U+30FC 1
 62
     7
370
     5
100
AcDbSpline
210
0.0
220
0.0
230
1.0
 70
     8
 71
     3
 72
    11
 73
     7
 74
     0
 42
0.0000000001
 43
0.0000000001
 12
1.0
 22
0.0
 32
0.0
 13
1.0
 23
0.0
 33
0.0
 40
0.0
 40
0.0
 40
0.0
 40
0.0
 40
1.0
 40
1.0
 40
1.0
 40
2.0
 40
2.0
 40
2.0
 40
2.0
 10
103.4370876388778
 20
145.0113126893421
 30
0.0
 10
103.8911479050716
 20
145.1482257414047
 30
0.0
 10
104.0534256787093
 20
145.9416582211626
 30
0.0
 10
103.79953151852
 20
146.7841620885574
 30
0.0
 10
103.5456020805538
 20
147.6264895670678
 30
0.0
 10
102.9720207062982
 20
148.1985187191408
 30
0.0
 10
102.5179604401045
 20
148.0617467781857
 30
0.0
  0
SPLINE
  5
1EB
330
1F
100
AcDbEntity
  8
_U+30EC_U+30A4_U+30E4_U+30FC 1
 62
     7
370
     5
100
AcDbSpline
210
0.0
220
0.0
230
1.0
 70
     8
 71
     3
 72
    11
 73
     7
 74
     0
 42
0.0000000001
 43
0.0000000001
 12
1.0
 22
0.0
 32
0.0
 13
1.0
 23
0.0
 33
0.0
 40
0.0
 40
0.0
 40
0.0
 40
0.0
 40
1.0
 40
1.0
 40
1.0
 40
2.0
 40
2.0
 40
2.0
 40
2.0
 10
102.7790865445537
 20
144.6306301990541
 30
0.0
 10
103.2331468107475
 20
144.7675432511167
 30
0.0
 10
103.3954245843852
 20
145.5609757308746
 30
0.0
 10
103.141495146419
 20
146.4034832967326
 30
0.0
 10
102.8876009862297
 20
147.245771799003
 30
0.0
 10
102.3139843341972
 20
147.8178362288528
 30
0.0
 10
101.8599240680035
 20
147.6810642878977
 30
0.0
  0
SPLINE
  5
1EC
330
1F
100
AcDbEntity
  8
_U+30EC_U+30A4_U+30E4_U+30FC 1
 62
     7
370
     5
100
AcDbSpline
210
0.0
220
0.0
230
1.0
 70
     8
 71
     3
 72
    11
 73
     7
 74
     0
 42
0.0000000001
 43
0.0000000001
 12
1.0
 22
0.0
 32
0.0
 13
1.0
 23
0.0
 33
0.0
 40
0.0
 40
0.0
 40
0.0
 40
0.0
 40
1.0
 40
1.0
 40
1.0
 40
2.0
 40
2.0
 40
2.0
 40
2.0
 10
102.1722382267024
 20
144.2792282635747
 30
0.0
 10
102.6262984928961
 20
144.4161765934142
 30
0.0
 10
102.788540988757
 20
145.2095737953951
 30
0.0
 10
102.5346468285677
 20
146.05207766279
 30
0.0
 10
102.2807526683784
 20
146.8944051413004
 30
0.0
 10
101.7071360163459
 20
147.4664342933734
 30
0.0
 10
101.2530757501522
 20
147.3296623524183
 30
0.0
  0
SPLINE
  5
1ED
330
1F
100
AcDbEntity
  8
_U+30EC_U+30A4_U+30E4_U+30FC 1
 62
     7
370
     5
100
AcDbSpline
210
0.0
220
0.0
230
1.0
 70
     8
 71
     3
 72
    11
 73
     7
 74
     0
 42
0.0000000001
 43
0.0000000001
 12
1.0
 22
0.0
 32
0.0
 13
1.0
 23
0.0
 33
0.0
 40
0.0
 40
0.0
 40
0.0
 40
0.0
 40
1.0
 40
1.0
 40
1.0
 40
2.0
 40
2.0
 40
2.0
 40
2.0
 10
101.5142018546014
 20
143.8985457732867
 30
0.0
 10
101.9682621207951
 20
144.0354941031262
 30
0.0
 10
102.1305398944329
 20
144.8288913051072
 30
0.0
 10
101.8766457342436
 20
145.671395172502
 30
0.0
 10
101.6227515740543
 20
146.5137226510124
 30
0.0
 10
101.0491349220218
 20
147.085755518784
 30
0.0
 10
100.5950746558281
 20
146.9489798621303
 30
0.0
  0
SPLINE
  5
1EE
330
1F
100
AcDbEntity
  8
_U+30EC_U+30A4_U+30E4_U+30FC 1
 62
     7
370
     5
100
AcDbSpline
210
0.0
220
0.0
230
1.0
 70
     8
 71
     3
 72
    11
 73
     7
 74
     0
 42
0.0000000001
 43
0.0000000001
 12
1.0
 22
0.0
 32
0.0
 13
1.0
 23
0.0
 33
0.0
 40
0.0
 40
0.0
 40
0.0
 40
0.0
 40
1.0
 40
1.0
 40
1.0
 40
2.0
 40
2.0
 40
2.0
 40
2.0
 10
100.853096315912
 20
143.5159582830473
 30
0.0
 10
101.3071565821058
 20
143.6529066128868
 30
0.0
 10
101.4694343557435
 20
144.4463038148678
 30
0.0
 10
101.2155401955542
 20
145.2888076822626
 30
0.0
 10
100.9616107575881
 20
146.1311388523559
 30
0.0
 10
100.3880293833325
 20
146.7031995906229
 30
0.0
 10
99.93393383936183
 20
146.5664276496678
 30
0.0
  0
SPLINE
  5
1EF
330
1F
100
AcDbEntity
  8
_U+30EC_U+30A4_U+30E4_U+30FC 1
 62
     7
370
     5
100
AcDbSpline
210
0.0
220
0.0
230
1.0
 70
     8
 71
     3
 72
    11
 73
     7
 74
     0
 42
0.0000000001
 43
0.0000000001
 12
1.0
 22
0.0
 32
0.0
 13
1.0
 23
0.0
 33
0.0
 40
0.0
 40
0.0
 40
0.0
 40
0.0
 40
1.0
 40
1.0
 40
1.0
 40
2.0
 40
2.0
 40
2.0
 40
2.0
 10
100.1950952215879
 20
143.1352757927593
 30
0.0
 10
100.6491554877817
 20
143.2722277419598
 30
0.0
 10
100.8113979836425
 20
144.0656249639836
 30
0.0
 10
100.5575038234532
 20
144.9081251919746
 30
0.0
 10
100.303609663264
 20
145.7504526704851
 30
0.0
 10
99.72999301123147
 20
146.3225171003349
 30
0.0
 10
99.27593274503774
 20
146.1857451593798
 30
0.0
  0
SPLINE
  5
1F0
330
1F
100
AcDbEntity
  8
_U+30EC_U+30A4_U+30E4_U+30FC 1
 62
     7
370
     5
100
AcDbSpline
210
0.0
220
0.0
230
1.0
 70
     8
 71
     3
 72
    11
 73
     7
 74
     0
 42
0.0000000001
 43
0.0000000001
 12
1.0
 22
0.0
 32
0.0
 13
1.0
 23
0.0
 33
0.0
 40
0.0
 40
0.0
 40
0.0
 40
0.0
 40
1.0
 40
1.0
 40
1.0
 40
2.0
 40
2.0
 40
2.0
 40
2.0
 10
99.5882469037366
 20
142.7838738572799
 30
0.0
 10
100.0423071699303
 20
142.9208221871194
 30
0.0
 10
100.2045496657912
 20
143.7142193891004
 30
0.0
 10
99.9506555056019
 20
144.5567232564952
 30
0.0
 10
99.69676386396455
 20
145.3990507350056
 30
0.0
 10
99.12314719744154
 20
145.9711151648555
 30
0.0
 10
98.66908442718639
 20
145.8343432239004
 30
0.0
  0
SPLINE
  5
1F1
330
1F
100
AcDbEntity
  8
_U+30EC_U+30A4_U+30E4_U+30FC 1
 62
     7
370
     5
100
AcDbSpline
210
0.0
220
0.0
230
1.0
 70
     8
 71
     3
 72
    11
 73
     7
 74
     0
 42
0.0000000001
 43
0.0000000001
 12
1.0
 22
0.0
 32
0.0
 13
1.0
 23
0.0
 33
0.0
 40
0.0
 40
0.0
 40
0.0
 40
0.0
 40
1.0
 40
1.0
 40
1.0
 40
2.0
 40
2.0
 40
2.0
 40
2.0
 10
98.93021053163561
 20
142.4031913669919
 30
0.0
 10
99.38427079782934
 20
142.5401396968314
 30
0.0
 10
99.54654857146707
 20
143.3335368988124
 30
0.0
 10
99.2926544112778
 20
144.1760444084005
 30
0.0
 10
99.03872497331163
 20
145.0183682447176
 30
0.0
 10
98.46514359905602
 20
145.5904326745675
 30
0.0
 10
98.01108333286228
 20
145.4536607336124
 30
0.0
  0
SPLINE
  5
1F2
330
1F
100
AcDbEntity
  8
_U+30EC_U+30A4_U+30E4_U+30FC 1
 62
     7
370
     5
100
AcDbSpline
210
0.0
220
0.0
230
1.0
 70
     8
 71
     3
 72
    11
 73
     7
 74
     0
 42
0.0000000001
 43
0.0000000001
 12
1.0
 22
0.0
 32
0.0
 13
1.0
 23
0.0
 33
0.0
 40
0.0
 40
0.0
 40
0.0
 40
0.0
 40
1.0
 40
1.0
 40
1.0
 40
2.0
 40
2.0
 40
2.0
 40
2.0
 10
98.66132331627328
 20
142.3653030346252
 30
0.0
 10
98.83291442300674
 20
142.7020646927004
 30
0.0
 10
98.85199970029761
 20
143.250528289819
 30
0.0
 10
98.67994998246473
 20
143.8215343863625
 30
0.0
 10
98.42602054449857
 20
144.663861864873
 30
0.0
 10
97.8524416422037
 20
145.2359262947228
 30
0.0
 10
97.39834362627235
 20
145.0991543537677
 30
0.0
  0
SPLINE
  5
1F3
330
1F
100
AcDbEntity
  8
_U+30EC_U+30A4_U+30E4_U+30FC 1
 62
     7
370
     5
100
AcDbSpline
210
0.0
220
0.0
230
1.0
 70
     8
 71
     3
 72
    11
 73
     7
 74
     0
 42
0.0000000001
 43
0.0000000001
 12
1.0
 22
0.0
 32
0.0
 13
1.0
 23
0.0
 33
0.0
 40
0.0
 40
0.0
 40
0.0
 40
0.0
 40
1.0
 40
1.0
 40
1.0
 40
2.0
 40
2.0
 40
2.0
 40
2.0
 10
98.0329555545265
 20
142.0483322093785
 30
0.0
 10
98.17660666197277
 20
142.3881983118189
 30
0.0
 10
98.18348582846393
 20
142.9046332976071
 30
0.0
 10
98.02191361036375
 20
143.4408555196954
 30
0.0
 10
97.76801945017446
 20
144.283179374585
 30
0.0
 10
97.19440279814198
 20
144.8552438044348
 30
0.0
 10
96.74034253194824
 20
144.7184718634797
 30
0.0
  0
SPLINE
  5
1F4
330
1F
100
AcDbEntity
  8
_U+30EC_U+30A4_U+30E4_U+30FC 1
 62
     7
370
     5
100
AcDbSpline
210
0.0
220
0.0
230
1.0
 70
     8
 71
     3
 72
    11
 73
     7
 74
     0
 42
0.0000000001
 43
0.0000000001
 12
1.0
 22
0.0
 32
0.0
 13
1.0
 23
0.0
 33
0.0
 40
0.0
 40
0.0
 40
0.0
 40
0.0
 40
1.0
 40
1.0
 40
1.0
 40
2.0
 40
2.0
 40
2.0
 40
2.0
 10
97.05265669064711
 20
141.3166005613798
 30
0.0
 10
97.50671942006774
 20
141.4535488912193
 30
0.0
 10
97.6689594527017
 20
142.2469460932003
 30
0.0
 10
97.41506529251241
 20
143.0894499605951
 30
0.0
 10
97.16117113232312
 20
143.9317774391056
 30
0.0
 10
96.58755448029063
 20
144.5038418689554
 30
0.0
 10
96.1334942140969
 20
144.3670699280003
 30
0.0
  0
SPLINE
  5
1F5
330
1F
100
AcDbEntity
  8
_U+30EC_U+30A4_U+30E4_U+30FC 1
 62
     7
370
     5
100
AcDbSpline
210
0.0
220
0.0
230
1.0
 70
     8
 71
     3
 72
    11
 73
     7
 74
     0
 42
0.0000000001
 43
0.0000000001
 12
1.0
 22
0.0
 32
0.0
 13
1.0
 23
0.0
 33
0.0
 40
0.0
 40
0.0
 40
0.0
 40
0.0
 40
1.0
 40
1.0
 40
1.0
 40
2.0
 40
2.0
 40
2.0
 40
2.0
 10
96.39462031854613
 20
140.9359180710918
 30
0.0
 10
96.84868058473987
 20
141.0728664009313
 30
0.0
 10
97.0109583583776
 20
141.8662636029123
 30
0.0
 10
96.75706664247738
 20
142.7087674703071
 30
0.0
 10
96.7470805873319
 20
142.7416816361341
 30
0.0
 10
96.73674419870672
 20
142.7742430241923
 30
0.0
 10
96.72587864342836
 20
142.8062752455973
 30
0.0
  0
SPLINE
  5
1F6
330
1F
100
AcDbEntity
  8
_U+30EC_U+30A4_U+30E4_U+30FC 1
 62
     7
370
     5
100
AcDbSpline
210
0.0
220
0.0
230
1.0
 70
     8
 71
     3
 72
     8
 73
     4
 74
     0
 42
0.0000000001
 43
0.0000000001
 12
1.0
 22
0.0
 32
0.0
 13
1.0
 23
0.0
 33
0.0
 40
0.0
 40
0.0
 40
0.0
 40
0.0
 40
1.0
 40
1.0
 40
1.0
 40
1.0
 10
95.74953330939601
 20
140.5626439139482
 30
0.0
 10
96.18051949067497
 20
140.6927166314936
 30
0.0
 10
96.34865337527441
 20
141.41410833667
 30
0.0
 10
96.14742893596362
 20
142.2076819275353
 30
0.0
  0
SPLINE
  5
1F7
330
1F
100
AcDbEntity
  8
_U+30EC_U+30A4_U+30E4_U+30FC 1
 62
     7
370
     5
100
AcDbSpline
210
0.0
220
0.0
230
1.0
 70
     8
 71
     3
 72
     8
 73
     4
 74
     0
 42
0.0000000001
 43
0.0000000001
 12
1.0
 22
0.0
 32
0.0
 13
1.0
 23
0.0
 33
0.0
 40
0.0
 40
0.0
 40
0.0
 40
0.0
 40
1.0
 40
1.0
 40
1.0
 40
1.0
 10
93.57137511279534
 20
142.2781316479602
 30
0.0
 10
93.35346664332823
 20
142.4751933095994
 30
0.0
 10
93.11766762437038
 20
142.5637405295626
 30
0.0
 10
92.90751790750953
 20
142.5003499643749
 30
0.0
  0
SPLINE
  5
1F8
330
1F
100
AcDbEntity
  8
_U+30EC_U+30A4_U+30E4_U+30FC 1
 62
     7
370
     5
100
AcDbSpline
210
0.0
220
0.0
230
1.0
 70
     8
 71
     3
 72
     8
 73
     4
 74
     0
 42
0.0000000001
 43
0.0000000001
 12
1.0
 22
0.0
 32
0.0
 13
1.0
 23
0.0
 33
0.0
 40
0.0
 40
0.0
 40
0.0
 40
0.0
 40
1.0
 40
1.0
 40
1.0
 40
1.0
 10
93.57638455711198
 20
140.8682200172634
 30
0.0
 10
93.32245511914581
 20
141.7105474957739
 30
0.0
 10
92.7488737448902
 20
142.2826119256237
 30
0.0
 10
92.29478053248172
 20
142.1458399846686
 30
0.0
  0
SPLINE
  5
1F9
330
1F
100
AcDbEntity
  8
_U+30EC_U+30A4_U+30E4_U+30FC 1
 62
     7
370
     5
100
AcDbSpline
210
0.0
220
0.0
230
1.0
 70
     8
 71
     3
 72
     8
 73
     4
 74
     0
 42
0.0000000001
 43
0.0000000001
 12
1.0
 22
0.0
 32
0.0
 13
1.0
 23
0.0
 33
0.0
 40
0.0
 40
0.0
 40
0.0
 40
0.0
 40
1.0
 40
1.0
 40
1.0
 40
1.0
 10
93.21394067746981
 20
139.0953706180481
 30
0.0
 10
93.36810456242564
 20
139.14190552077
 30
0.0
 10
93.48850761490947
 20
139.2640336693007
 30
0.0
 10
93.57052844615028
 20
139.437988387085
 30
0.0
  0
SPLINE
  5
1FA
330
1F
100
AcDbEntity
  8
_U+30EC_U+30A4_U+30E4_U+30FC 1
 62
     7
370
     5
100
AcDbSpline
210
0.0
220
0.0
230
1.0
 70
     8
 71
     3
 72
    11
 73
     7
 74
     0
 42
0.0000000001
 43
0.0000000001
 12
1.0
 22
0.0
 32
0.0
 13
1.0
 23
0.0
 33
0.0
 40
0.0
 40
0.0
 40
0.0
 40
0.0
 40
1.0
 40
1.0
 40
1.0
 40
2.0
 40
2.0
 40
2.0
 40
2.0
 10
92.5559395831457
 20
138.7146916319881
 30
0.0
 10
93.00999984933944
 20
138.8516364575996
 30
0.0
 10
93.17227762297716
 20
139.6450336595806
 30
0.0
 10
92.918348185011
 20
140.4875375269754
 30
0.0
 10
92.66445402482171
 20
141.3298650054859
 30
0.0
 10
92.09083737278922
 20
141.9019294353357
 30
0.0
 10
91.63677710659549
 20
141.7651610756699
 30
0.0
  0
SPLINE
  5
1FB
330
1F
100
AcDbEntity
  8
_U+30EC_U+30A4_U+30E4_U+30FC 1
 62
     7
370
     5
100
AcDbSpline
210
0.0
220
0.0
230
1.0
 70
     8
 71
     3
 72
    11
 73
     7
 74
     0
 42
0.0000000001
 43
0.0000000001
 12
1.0
 22
0.0
 32
0.0
 13
1.0
 23
0.0
 33
0.0
 40
0.0
 40
0.0
 40
0.0
 40
0.0
 40
1.0
 40
1.0
 40
1.0
 40
2.0
 40
2.0
 40
2.0
 40
2.0
 10
91.94909126529436
 20
138.3632861922807
 30
0.0
 10
92.40315153148809
 20
138.5002345221202
 30
0.0
 10
92.56539402734894
 20
139.2936317241012
 30
0.0
 10
92.31149986715965
 20
140.136135591496
 30
0.0
 10
92.05760570697038
 20
140.978466631422
 30
0.0
 10
91.48398905493788
 20
141.5505274998563
 30
0.0
 10
91.02992878874414
 20
141.4137555589012
 30
0.0
  0
SPLINE
  5
1FC
330
1F
100
AcDbEntity
  8
_U+30EC_U+30A4_U+30E4_U+30FC 1
 62
     7
370
     5
100
AcDbSpline
210
0.0
220
0.0
230
1.0
 70
     8
 71
     3
 72
    11
 73
     7
 74
     0
 42
0.0000000001
 43
0.0000000001
 12
1.0
 22
0.0
 32
0.0
 13
1.0
 23
0.0
 33
0.0
 40
0.0
 40
0.0
 40
0.0
 40
0.0
 40
1.0
 40
1.0
 40
1.0
 40
2.0
 40
2.0
 40
2.0
 40
2.0
 10
91.29105489319338
 20
137.9826037019927
 30
0.0
 10
91.74511515938711
 20
138.1195555210258
 30
0.0
 10
91.90739293302484
 20
138.9129527430496
 30
0.0
 10
91.65349877283555
 20
139.755453101208
 30
0.0
 10
91.39956933486938
 20
140.5977805797185
 30
0.0
 10
90.82598796061379
 20
141.1698450095683
 30
0.0
 10
90.37192769442005
 20
141.0330730686132
 30
0.0
  0
SPLINE
  5
1FD
330
1F
100
AcDbEntity
  8
_U+30EC_U+30A4_U+30E4_U+30FC 1
 62
     7
370
     5
100
AcDbSpline
210
0.0
220
0.0
230
1.0
 70
     8
 71
     3
 72
    11
 73
     7
 74
     0
 42
0.0000000001
 43
0.0000000001
 12
1.0
 22
0.0
 32
0.0
 13
1.0
 23
0.0
 33
0.0
 40
0.0
 40
0.0
 40
0.0
 40
0.0
 40
1.0
 40
1.0
 40
1.0
 40
2.0
 40
2.0
 40
2.0
 40
2.0
 10
90.62994935450403
 20
137.6000514895302
 30
0.0
 10
91.08400962069777
 20
137.7369645415928
 30
0.0
 10
91.2462873943355
 20
138.5303970213507
 30
0.0
 10
90.9923932341462
 20
139.3729008887455
 30
0.0
 10
90.73846379618004
 20
140.2151930894791
 30
0.0
 10
90.16484714414756
 20
140.7872610759144
 30
0.0
 10
89.71078687795382
 20
140.6504855783738
 30
0.0
  0
SPLINE
  5
1FE
330
1F
100
AcDbEntity
  8
_U+30EC_U+30A4_U+30E4_U+30FC 1
 62
     7
370
     5
100
AcDbSpline
210
0.0
220
0.0
230
1.0
 70
     8
 71
     3
 72
    11
 73
     7
 74
     0
 42
0.0000000001
 43
0.0000000001
 12
1.0
 22
0.0
 32
0.0
 13
1.0
 23
0.0
 33
0.0
 40
0.0
 40
0.0
 40
0.0
 40
0.0
 40
1.0
 40
1.0
 40
1.0
 40
2.0
 40
2.0
 40
2.0
 40
2.0
 10
89.97194826017993
 20
137.2193689992422
 30
0.0
 10
90.42600852637366
 20
137.3562820513048
 30
0.0
 10
90.58825102223452
 20
138.1497145310627
 30
0.0
 10
90.33435686204523
 20
138.9922183984575
 30
0.0
 10
90.256498808476
 20
139.2504164474259
 30
0.0
 10
90.14851353345315
 20
139.483285052596
 30
0.0
 10
90.02327742553707
 20
139.6781277428583
 30
0.0
  0
SPLINE
  5
1FF
330
1F
100
AcDbEntity
  8
_U+30EC_U+30A4_U+30E4_U+30FC 1
 62
     7
370
     5
100
AcDbSpline
210
0.0
220
0.0
230
1.0
 70
     8
 71
     3
 72
     8
 73
     4
 74
     0
 42
0.0000000001
 43
0.0000000001
 12
1.0
 22
0.0
 32
0.0
 13
1.0
 23
0.0
 33
0.0
 40
0.0
 40
0.0
 40
0.0
 40
0.0
 40
1.0
 40
1.0
 40
1.0
 40
1.0
 10
87.72454442251319
 20
139.0533582985701
 30
0.0
 10
87.54039442255926
 20
139.1840942268957
 30
0.0
 10
87.34901027154109
 20
139.2355997811372
 30
0.0
 10
87.17519666486433
 20
139.1832475602506
 30
0.0
  0
SPLINE
  5
200
330
1F
100
AcDbEntity
  8
_U+30EC_U+30A4_U+30E4_U+30FC 1
 62
     7
370
     5
100
AcDbSpline
210
0.0
220
0.0
230
1.0
 70
     8
 71
     3
 72
     8
 73
     4
 74
     0
 42
0.0000000001
 43
0.0000000001
 12
1.0
 22
0.0
 32
0.0
 13
1.0
 23
0.0
 33
0.0
 40
0.0
 40
0.0
 40
0.0
 40
0.0
 40
1.0
 40
1.0
 40
1.0
 40
1.0
 10
87.6123941537105
 20
137.9927637017335
 30
0.0
 10
87.32110555003078
 20
138.5670859093036
 30
0.0
 10
86.88083889459625
 20
138.9121025671681
 30
0.0
 10
86.51719557054024
 20
138.8025650699627
 30
0.0
  0
POLYLINE
  5
201
330
1F
100
AcDbEntity
  8
_U+30EC_U+30A4_U+30E4_U+30FC 1
 62
     7
370
     5
100
AcDb2dPolyline
 66
     1
 10
0.0
 20
0.0
 30
0.0
  0
VERTEX
  5
202
330
201
100
AcDbEntity
  8
_U+30EC_U+30A4_U+30E4_U+30FC 1
 62
     7
370
     5
100
AcDbVertex
100
AcDb2dVertex
 10
192.3458695372925
 20
84.39862395792284
 30
0.0
  0
VERTEX
  5
203
330
201
100
AcDbEntity
  8
_U+30EC_U+30A4_U+30E4_U+30FC 1
 62
     7
370
     5
100
AcDbVertex
100
AcDb2dVertex
 10
223.883320121594
 20
102.6486998812135
 30
0.0
  0
SEQEND
  5
204
330
201
100
AcDbEntity
  8
_U+30EC_U+30A4_U+30E4_U+30FC 1
 62
     7
370
     5
  0
POLYLINE
  5
205
330
1F
100
AcDbEntity
  8
_U+30EC_U+30A4_U+30E4_U+30FC 1
 62
     7
370
     5
100
AcDb2dPolyline
 66
     1
 10
0.0
 20
0.0
 30
0.0
  0
VERTEX
  5
206
330
205
100
AcDbEntity
  8
_U+30EC_U+30A4_U+30E4_U+30FC 1
 62
     7
370
     5
100
AcDbVertex
100
AcDb2dVertex
 10
191.6954531649971
 20
87.6583963747591
 30
0.0
  0
VERTEX
  5
207
330
205
100
AcDbEntity
  8
_U+30EC_U+30A4_U+30E4_U+30FC 1
 62
     7
370
     5
100
AcDbVertex
100
AcDb2dVertex
 10
222.8856293137139
 20
105.7074242476234
 30
0.0
  0
SEQEND
  5
208
330
205
100
AcDbEntity
  8
_U+30EC_U+30A4_U+30E4_U+30FC 1
 62
     7
370
     5
  0
SPLINE
  5
209
330
1F
100
AcDbEntity
  8
_U+30EC_U+30A4_U+30E4_U+30FC 1
 62
     7
370
     5
100
AcDbSpline
210
0.0
220
0.0
230
1.0
 70
     8
 71
     3
 72
    11
 73
     7
 74
     0
 42
0.0000000001
 43
0.0000000001
 12
1.0
 22
0.0
 32
0.0
 13
1.0
 23
0.0
 33
0.0
 40
0.0
 40
0.0
 40
0.0
 40
0.0
 40
1.0
 40
1.0
 40
1.0
 40
2.0
 40
2.0
 40
2.0
 40
2.0
 10
223.8047565124872
 20
102.6569548810029
 30
0.0
 10
224.2588167786809
 20
102.793726821958
 30
0.0
 10
224.4214473300874
 20
103.5874768017077
 30
0.0
 10
224.1672003921294
 20
104.4298042802182
 30
0.0
 10
223.913623731932
 20
105.2721317587286
 30
0.0
 10
223.3396895799076
 20
105.8441961885785
 30
0.0
 10
222.8856293137139
 20
105.7074242476234
 30
0.0
  0
SPLINE
  5
20A
330
1F
100
AcDbEntity
  8
_U+30EC_U+30A4_U+30E4_U+30FC 1
 62
     7
370
     5
100
AcDbSpline
210
0.0
220
0.0
230
1.0
 70
     8
 71
     3
 72
    11
 73
     7
 74
     0
 42
0.0000000001
 43
0.0000000001
 12
1.0
 22
0.0
 32
0.0
 13
1.0
 23
0.0
 33
0.0
 40
0.0
 40
0.0
 40
0.0
 40
0.0
 40
1.0
 40
1.0
 40
1.0
 40
2.0
 40
2.0
 40
2.0
 40
2.0
 10
223.1729315286064
 20
102.2914444188713
 30
0.0
 10
223.6269917948001
 20
102.4282137757275
 30
0.0
 10
223.7892695684379
 20
103.2216109777084
 30
0.0
 10
223.5353754082486
 20
104.0642912339876
 30
0.0
 10
223.2814459702824
 20
104.9064423236137
 30
0.0
 10
222.7078645960268
 20
105.4784714756867
 30
0.0
 10
222.2537690520562
 20
105.3416995347316
 30
0.0
  0
SPLINE
  5
20B
330
1F
100
AcDbEntity
  8
_U+30EC_U+30A4_U+30E4_U+30FC 1
 62
     7
370
     5
100
AcDbSpline
210
0.0
220
0.0
230
1.0
 70
     8
 71
     3
 72
    11
 73
     7
 74
     0
 42
0.0000000001
 43
0.0000000001
 12
1.0
 22
0.0
 32
0.0
 13
1.0
 23
0.0
 33
0.0
 40
0.0
 40
0.0
 40
0.0
 40
0.0
 40
1.0
 40
1.0
 40
1.0
 40
2.0
 40
2.0
 40
2.0
 40
2.0
 10
222.5149360554825
 20
101.9104065667156
 30
0.0
 10
222.968990700476
 20
102.0475312854395
 30
0.0
 10
223.131238833106
 20
102.8409284874204
 30
0.0
 10
222.8773390361476
 20
103.6832559659309
 30
0.0
 10
222.6234448759583
 20
104.5257598333257
 30
0.0
 10
222.0498282239258
 20
105.0977916403922
 30
0.0
 10
221.5957679577321
 20
104.9610170444436
 30
0.0
  0
SPLINE
  5
20C
330
1F
100
AcDbEntity
  8
_U+30EC_U+30A4_U+30E4_U+30FC 1
 62
     7
370
     5
100
AcDbSpline
210
0.0
220
0.0
230
1.0
 70
     8
 71
     3
 72
    11
 73
     7
 74
     0
 42
0.0000000001
 43
0.0000000001
 12
1.0
 22
0.0
 32
0.0
 13
1.0
 23
0.0
 33
0.0
 40
0.0
 40
0.0
 40
0.0
 40
0.0
 40
1.0
 40
1.0
 40
1.0
 40
2.0
 40
2.0
 40
2.0
 40
2.0
 10
221.9079057275466
 20
101.5593574090049
 30
0.0
 10
222.3619659937403
 20
101.69612934996
 30
0.0
 10
222.5245612673699
 20
102.489526551941
 30
0.0
 10
222.2703143294119
 20
103.3318540304514
 30
0.0
 10
222.0167729469914
 20
104.1741815089619
 30
0.0
 10
221.4428035171901
 20
104.7463870499193
 30
0.0
 10
220.9887432509964
 20
104.609650386741
 30
0.0
  0
SPLINE
  5
20D
330
1F
100
AcDbEntity
  8
_U+30EC_U+30A4_U+30E4_U+30FC 1
 62
     7
370
     5
100
AcDbSpline
210
0.0
220
0.0
230
1.0
 70
     8
 71
     3
 72
    11
 73
     7
 74
     0
 42
0.0000000001
 43
0.0000000001
 12
1.0
 22
0.0
 32
0.0
 13
1.0
 23
0.0
 33
0.0
 40
0.0
 40
0.0
 40
0.0
 40
0.0
 40
1.0
 40
1.0
 40
1.0
 40
2.0
 40
2.0
 40
2.0
 40
2.0
 10
221.2498749446879
 20
101.1783221409482
 30
0.0
 10
221.7039296216393
 20
101.3154468596721
 30
0.0
 10
221.8665601730458
 20
102.108844061653
 30
0.0
 10
221.6123132350878
 20
102.9515243179322
 30
0.0
 10
221.3587365748904
 20
103.7934990186739
 30
0.0
 10
220.784802422866
 20
104.3657045596313
 30
0.0
 10
220.3307421566722
 20
104.2289326186762
 30
0.0
  0
SPLINE
  5
20E
330
1F
100
AcDbEntity
  8
_U+30EC_U+30A4_U+30E4_U+30FC 1
 62
     7
370
     5
100
AcDbSpline
210
0.0
220
0.0
230
1.0
 70
     8
 71
     3
 72
    11
 73
     7
 74
     0
 42
0.0000000001
 43
0.0000000001
 12
1.0
 22
0.0
 32
0.0
 13
1.0
 23
0.0
 33
0.0
 40
0.0
 40
0.0
 40
0.0
 40
0.0
 40
1.0
 40
1.0
 40
1.0
 40
2.0
 40
2.0
 40
2.0
 40
2.0
 10
220.6373413155169
 20
100.8241685388723
 30
0.0
 10
221.0914015817106
 20
100.9609404798274
 30
0.0
 10
221.2536793553484
 20
101.7543376818084
 30
0.0
 10
220.9997851951591
 20
102.5966651603188
 30
0.0
 10
220.7458557571929
 20
103.439345416598
 30
0.0
 10
220.1722743829373
 20
104.011236085108
 30
0.0
 10
219.7181788389667
 20
103.8744615166084
 30
0.0
  0
SPLINE
  5
20F
330
1F
100
AcDbEntity
  8
_U+30EC_U+30A4_U+30E4_U+30FC 1
 62
     7
370
     5
100
AcDbSpline
210
0.0
220
0.0
230
1.0
 70
     8
 71
     3
 72
    11
 73
     7
 74
     0
 42
0.0000000001
 43
0.0000000001
 12
1.0
 22
0.0
 32
0.0
 13
1.0
 23
0.0
 33
0.0
 40
0.0
 40
0.0
 40
0.0
 40
0.0
 40
1.0
 40
1.0
 40
1.0
 40
2.0
 40
2.0
 40
2.0
 40
2.0
 10
219.9793402211928
 20
100.4431332708155
 30
0.0
 10
220.4334004873865
 20
100.5802579895394
 30
0.0
 10
220.5956429832474
 20
101.3736551915204
 30
0.0
 10
220.3417488230581
 20
102.2163354477996
 30
0.0
 10
220.0878546628688
 20
103.0583101485412
 30
0.0
 10
219.5142380108363
 20
103.6305509672755
 30
0.0
 10
219.0601832785685
 20
103.4937790263204
 30
0.0
  0
SPLINE
  5
210
330
1F
100
AcDbEntity
  8
_U+30EC_U+30A4_U+30E4_U+30FC 1
 62
     7
370
     5
100
AcDbSpline
210
0.0
220
0.0
230
1.0
 70
     8
 71
     3
 72
    11
 73
     7
 74
     0
 42
0.0000000001
 43
0.0000000001
 12
1.0
 22
0.0
 32
0.0
 13
1.0
 23
0.0
 33
0.0
 40
0.0
 40
0.0
 40
0.0
 40
0.0
 40
1.0
 40
1.0
 40
1.0
 40
2.0
 40
2.0
 40
2.0
 40
2.0
 10
219.3723155144571
 20
100.0917313353361
 30
0.0
 10
219.8263757806508
 20
100.22885605406
 30
0.0
 10
219.9889710542805
 20
101.0222532560409
 30
0.0
 10
219.7347241163224
 20
101.864936085645
 30
0.0
 10
219.4811827339019
 20
102.7069082130618
 30
0.0
 10
218.9072133041006
 20
103.2791490317961
 30
0.0
 10
218.4531530379069
 20
103.142377090841
 30
0.0
  0
SPLINE
  5
211
330
1F
100
AcDbEntity
  8
_U+30EC_U+30A4_U+30E4_U+30FC 1
 62
     7
370
     5
100
AcDbSpline
210
0.0
220
0.0
230
1.0
 70
     8
 71
     3
 72
    11
 73
     7
 74
     0
 42
0.0000000001
 43
0.0000000001
 12
1.0
 22
0.0
 32
0.0
 13
1.0
 23
0.0
 33
0.0
 40
0.0
 40
0.0
 40
0.0
 40
0.0
 40
1.0
 40
1.0
 40
1.0
 40
2.0
 40
2.0
 40
2.0
 40
2.0
 10
218.7142791423561
 20
99.71140162281688
 30
0.0
 10
219.1683394085498
 20
99.84817356377198
 30
0.0
 10
219.3309699599563
 20
100.641570765753
 30
0.0
 10
219.0767230219983
 20
101.4842510220322
 30
0.0
 10
218.8231463618009
 20
102.3265785005426
 30
0.0
 10
218.2492122097765
 20
102.8984665415081
 30
0.0
 10
217.7951519435828
 20
102.7616971965317
 30
0.0
  0
SPLINE
  5
212
330
1F
100
AcDbEntity
  8
_U+30EC_U+30A4_U+30E4_U+30FC 1
 62
     7
370
     5
100
AcDbSpline
210
0.0
220
0.0
230
1.0
 70
     8
 71
     3
 72
    11
 73
     7
 74
     0
 42
0.0000000001
 43
0.0000000001
 12
1.0
 22
0.0
 32
0.0
 13
1.0
 23
0.0
 33
0.0
 40
0.0
 40
0.0
 40
0.0
 40
0.0
 40
1.0
 40
1.0
 40
1.0
 40
2.0
 40
2.0
 40
2.0
 40
2.0
 10
218.0535263814355
 20
99.32863774369311
 30
0.0
 10
218.5075866476293
 20
99.46540968464821
 30
0.0
 10
218.6695116434982
 20
100.259159664398
 30
0.0
 10
218.4159349833008
 20
101.1014871429084
 30
0.0
 10
218.1616880453428
 20
101.9438146214188
 30
0.0
 10
217.5884241710791
 20
102.5160554401531
 30
0.0
 10
217.1343693901608
 20
102.3789333077388
 30
0.0
  0
SPLINE
  5
213
330
1F
100
AcDbEntity
  8
_U+30EC_U+30A4_U+30E4_U+30FC 1
 62
     7
370
     5
100
AcDbSpline
210
0.0
220
0.0
230
1.0
 70
     8
 71
     3
 72
    11
 73
     7
 74
     0
 42
0.0000000001
 43
0.0000000001
 12
1.0
 22
0.0
 32
0.0
 13
1.0
 23
0.0
 33
0.0
 40
0.0
 40
0.0
 40
0.0
 40
0.0
 40
1.0
 40
1.0
 40
1.0
 40
2.0
 40
2.0
 40
2.0
 40
2.0
 10
217.3955252871114
 20
98.94795525340513
 30
0.0
 10
217.8495855533052
 20
99.08507997212901
 30
0.0
 10
218.0115105491741
 20
99.8781243963412
 30
0.0
 10
217.7579338889767
 20
100.7208046526204
 30
0.0
 10
217.5036869510187
 20
101.5631321311309
 30
0.0
 10
216.9304230767549
 20
102.1350201720963
 30
0.0
 10
216.4763628105612
 20
101.99860100891
 30
0.0
  0
SPLINE
  5
214
330
1F
100
AcDbEntity
  8
_U+30EC_U+30A4_U+30E4_U+30FC 1
 62
     7
370
     5
100
AcDbSpline
210
0.0
220
0.0
230
1.0
 70
     8
 71
     3
 72
    11
 73
     7
 74
     0
 42
0.0000000001
 43
0.0000000001
 12
1.0
 22
0.0
 32
0.0
 13
1.0
 23
0.0
 33
0.0
 40
0.0
 40
0.0
 40
0.0
 40
0.0
 40
1.0
 40
1.0
 40
1.0
 40
2.0
 40
2.0
 40
2.0
 40
2.0
 10
216.7885005803757
 20
98.5965533179257
 30
0.0
 10
217.2425608465694
 20
98.73368053087214
 30
0.0
 10
217.4048033424303
 20
99.52672497511819
 30
0.0
 10
217.150909182241
 20
100.369402717141
 30
0.0
 10
216.8970150220517
 20
101.2117301956514
 30
0.0
 10
216.3233983700192
 20
101.7836182366169
 30
0.0
 10
215.8693381038255
 20
101.6471990734306
 30
0.0
  0
SPLINE
  5
215
330
1F
100
AcDbEntity
  8
_U+30EC_U+30A4_U+30E4_U+30FC 1
 62
     7
370
     5
100
AcDbSpline
210
0.0
220
0.0
230
1.0
 70
     8
 71
     3
 72
    11
 73
     7
 74
     0
 42
0.0000000001
 43
0.0000000001
 12
1.0
 22
0.0
 32
0.0
 13
1.0
 23
0.0
 33
0.0
 40
0.0
 40
0.0
 40
0.0
 40
0.0
 40
1.0
 40
1.0
 40
1.0
 40
2.0
 40
2.0
 40
2.0
 40
2.0
 10
216.1304642082747
 20
98.21587082763772
 30
0.0
 10
216.5845244744685
 20
98.35264276859282
 30
0.0
 10
216.7468022481062
 20
99.14639274834256
 30
0.0
 10
216.4929080879169
 20
99.988720226853
 30
0.0
 10
216.2389786499507
 20
100.8310477053634
 30
0.0
 10
215.6654027238611
 20
101.4029357463289
 30
0.0
 10
215.2113370095014
 20
101.2665165831426
 30
0.0
  0
SPLINE
  5
216
330
1F
100
AcDbEntity
  8
_U+30EC_U+30A4_U+30E4_U+30FC 1
 62
     7
370
     5
100
AcDbSpline
210
0.0
220
0.0
230
1.0
 70
     8
 71
     3
 72
    11
 73
     7
 74
     0
 42
0.0000000001
 43
0.0000000001
 12
1.0
 22
0.0
 32
0.0
 13
1.0
 23
0.0
 33
0.0
 40
0.0
 40
0.0
 40
0.0
 40
0.0
 40
1.0
 40
1.0
 40
1.0
 40
2.0
 40
2.0
 40
2.0
 40
2.0
 10
215.517941612787
 20
97.86136444779304
 30
0.0
 10
215.9719964345398
 20
97.99849164216678
 30
0.0
 10
216.1339214304087
 20
98.79156886850599
 30
0.0
 10
215.8803447702113
 20
99.63421384700833
 30
0.0
 10
215.6260978322533
 20
100.4765413255188
 30
0.0
 10
215.0528339579896
 20
101.048782144253
 30
0.0
 10
214.5987736917958
 20
100.9116574255291
 30
0.0
  0
SPLINE
  5
217
330
1F
100
AcDbEntity
  8
_U+30EC_U+30A4_U+30E4_U+30FC 1
 62
     7
370
     5
100
AcDbSpline
210
0.0
220
0.0
230
1.0
 70
     8
 71
     3
 72
    11
 73
     7
 74
     0
 42
0.0000000001
 43
0.0000000001
 12
1.0
 22
0.0
 32
0.0
 13
1.0
 23
0.0
 33
0.0
 40
0.0
 40
0.0
 40
0.0
 40
0.0
 40
1.0
 40
1.0
 40
1.0
 40
2.0
 40
2.0
 40
2.0
 40
2.0
 10
214.8599350740219
 20
97.48068195750506
 30
0.0
 10
215.3139953402157
 20
97.61745389846016
 30
0.0
 10
215.4759203360846
 20
98.41120387820992
 30
0.0
 10
215.2223436758872
 20
99.25353135672034
 30
0.0
 10
214.9680967379292
 20
100.0958588352308
 30
0.0
 10
214.3948328636655
 20
100.6677468761963
 30
0.0
 10
213.9407725974717
 20
100.5313277130099
 30
0.0
  0
SPLINE
  5
218
330
1F
100
AcDbEntity
  8
_U+30EC_U+30A4_U+30E4_U+30FC 1
 62
     7
370
     5
100
AcDbSpline
210
0.0
220
0.0
230
1.0
 70
     8
 71
     3
 72
    11
 73
     7
 74
     0
 42
0.0000000001
 43
0.0000000001
 12
1.0
 22
0.0
 32
0.0
 13
1.0
 23
0.0
 33
0.0
 40
0.0
 40
0.0
 40
0.0
 40
0.0
 40
1.0
 40
1.0
 40
1.0
 40
2.0
 40
2.0
 40
2.0
 40
2.0
 10
214.2529103672862
 20
97.12928002202563
 30
0.0
 10
214.70697063348
 20
97.26605196298073
 30
0.0
 10
214.8692131293408
 20
98.05980194273047
 30
0.0
 10
214.6153189691515
 20
98.90212942124091
 30
0.0
 10
214.3614248089622
 20
99.74445689975136
 30
0.0
 10
213.7878081569297
 20
100.3163449407168
 30
0.0
 10
213.333747890736
 20
100.1799257775305
 30
0.0
  0
SPLINE
  5
219
330
1F
100
AcDbEntity
  8
_U+30EC_U+30A4_U+30E4_U+30FC 1
 62
     7
370
     5
100
AcDbSpline
210
0.0
220
0.0
230
1.0
 70
     8
 71
     3
 72
    11
 73
     7
 74
     0
 42
0.0000000001
 43
0.0000000001
 12
1.0
 22
0.0
 32
0.0
 13
1.0
 23
0.0
 33
0.0
 40
0.0
 40
0.0
 40
0.0
 40
0.0
 40
1.0
 40
1.0
 40
1.0
 40
2.0
 40
2.0
 40
2.0
 40
2.0
 10
213.5948739951852
 20
96.74859997581271
 30
0.0
 10
214.048934261379
 20
96.88572225046153
 30
0.0
 10
214.2112120350167
 20
97.6788019524506
 30
0.0
 10
213.9573178748274
 20
98.52144693095293
 30
0.0
 10
213.7033884368612
 20
99.36377440946337
 30
0.0
 10
213.1298070626056
 20
99.93601522819762
 30
0.0
 10
212.6757467964119
 20
99.79889050947374
 30
0.0
  0
SPLINE
  5
21A
330
1F
100
AcDbEntity
  8
_U+30EC_U+30A4_U+30E4_U+30FC 1
 62
     7
370
     5
100
AcDbSpline
210
0.0
220
0.0
230
1.0
 70
     8
 71
     3
 72
    11
 73
     7
 74
     0
 42
0.0000000001
 43
0.0000000001
 12
1.0
 22
0.0
 32
0.0
 13
1.0
 23
0.0
 33
0.0
 40
0.0
 40
0.0
 40
0.0
 40
0.0
 40
1.0
 40
1.0
 40
1.0
 40
2.0
 40
2.0
 40
2.0
 40
2.0
 10
212.9499609560828
 20
96.37518226348648
 30
0.0
 10
213.4040212222765
 20
96.51227170443349
 30
0.0
 10
213.5659462181455
 20
97.30566890641445
 30
0.0
 10
213.3123749466722
 20
98.1479963849249
 30
0.0
 10
213.05812261999
 20
98.9906766412041
 30
0.0
 10
212.4848587457263
 20
99.56256468216958
 30
0.0
 10
212.0307984795326
 20
99.42579274121448
 30
0.0
  0
SPLINE
  5
21B
330
1F
100
AcDbEntity
  8
_U+30EC_U+30A4_U+30E4_U+30FC 1
 62
     7
370
     5
100
AcDbSpline
210
0.0
220
0.0
230
1.0
 70
     8
 71
     3
 72
    11
 73
     7
 74
     0
 42
0.0000000001
 43
0.0000000001
 12
1.0
 22
0.0
 32
0.0
 13
1.0
 23
0.0
 33
0.0
 40
0.0
 40
0.0
 40
0.0
 40
0.0
 40
1.0
 40
1.0
 40
1.0
 40
2.0
 40
2.0
 40
2.0
 40
2.0
 10
212.2919598617587
 20
95.9948172731904
 30
0.0
 10
212.7460201279524
 20
96.13159164263371
 30
0.0
 10
212.9079451238213
 20
96.92498886465751
 30
0.0
 10
212.654368463624
 20
97.7676666724057
 30
0.0
 10
212.4001215256659
 20
98.60964137314735
 30
0.0
 10
211.8268576514022
 20
99.1818821918816
 30
0.0
 10
211.3728027249344
 20
99.0451102509265
 30
0.0
  0
SPLINE
  5
21C
330
1F
100
AcDbEntity
  8
_U+30EC_U+30A4_U+30E4_U+30FC 1
 62
     7
370
     5
100
AcDbSpline
210
0.0
220
0.0
230
1.0
 70
     8
 71
     3
 72
    11
 73
     7
 74
     0
 42
0.0000000001
 43
0.0000000001
 12
1.0
 22
0.0
 32
0.0
 13
1.0
 23
0.0
 33
0.0
 40
0.0
 40
0.0
 40
0.0
 40
0.0
 40
1.0
 40
1.0
 40
1.0
 40
2.0
 40
2.0
 40
2.0
 40
2.0
 10
211.6849351550229
 20
95.64341533771096
 30
0.0
 10
212.1389954212167
 20
95.78018727866608
 30
0.0
 10
212.3012379170775
 20
96.57362219807897
 30
0.0
 10
212.0473437568882
 20
97.41626473692625
 30
0.0
 10
211.7934495966989
 20
98.25823943766791
 30
0.0
 10
211.2198329446665
 20
98.83048025640217
 30
0.0
 10
210.7657726784727
 20
98.69370831544707
 30
0.0
  0
SPLINE
  5
21D
330
1F
100
AcDbEntity
  8
_U+30EC_U+30A4_U+30E4_U+30FC 1
 62
     7
370
     5
100
AcDbSpline
210
0.0
220
0.0
230
1.0
 70
     8
 71
     3
 72
    11
 73
     7
 74
     0
 42
0.0000000001
 43
0.0000000001
 12
1.0
 22
0.0
 32
0.0
 13
1.0
 23
0.0
 33
0.0
 40
0.0
 40
0.0
 40
0.0
 40
0.0
 40
1.0
 40
1.0
 40
1.0
 40
2.0
 40
2.0
 40
2.0
 40
2.0
 10
211.026898782922
 20
95.26241534743109
 30
0.0
 10
211.4809590491157
 20
95.3995047883781
 30
0.0
 10
211.6432368227534
 20
96.19293726813594
 30
0.0
 10
211.3893426625641
 20
97.0352294688695
 30
0.0
 10
211.135413224598
 20
97.87790972514871
 30
0.0
 10
210.5618318503423
 20
98.44979776611419
 30
0.0
 10
210.1077715841486
 20
98.31302582515909
 30
0.0
  0
SPLINE
  5
21E
330
1F
100
AcDbEntity
  8
_U+30EC_U+30A4_U+30E4_U+30FC 1
 62
     7
370
     5
100
AcDbSpline
210
0.0
220
0.0
230
1.0
 70
     8
 71
     3
 72
    11
 73
     7
 74
     0
 42
0.0000000001
 43
0.0000000001
 12
1.0
 22
0.0
 32
0.0
 13
1.0
 23
0.0
 33
0.0
 40
0.0
 40
0.0
 40
0.0
 40
0.0
 40
1.0
 40
1.0
 40
1.0
 40
2.0
 40
2.0
 40
2.0
 40
2.0
 10
210.4143707429933
 20
94.90826174535519
 30
0.0
 10
210.868431009187
 20
95.04499840853342
 30
0.0
 10
211.030356005056
 20
95.83843330937361
 30
0.0
 10
210.7767793448586
 20
96.6810758667936
 30
0.0
 10
210.5225324069005
 20
97.52308584531214
 30
0.0
 10
209.9492685326368
 20
98.09529138626951
 30
0.0
 10
209.4952082664431
 20
97.95851944531441
 30
0.0
  0
SPLINE
  5
21F
330
1F
100
AcDbEntity
  8
_U+30EC_U+30A4_U+30E4_U+30FC 1
 62
     7
370
     5
100
AcDbSpline
210
0.0
220
0.0
230
1.0
 70
     8
 71
     3
 72
    11
 73
     7
 74
     0
 42
0.0000000001
 43
0.0000000001
 12
1.0
 22
0.0
 32
0.0
 13
1.0
 23
0.0
 33
0.0
 40
0.0
 40
0.0
 40
0.0
 40
0.0
 40
1.0
 40
1.0
 40
1.0
 40
2.0
 40
2.0
 40
2.0
 40
2.0
 10
209.7563749475606
 20
94.52722647729843
 30
0.0
 10
210.2104299148629
 20
94.66431591824544
 30
0.0
 10
210.3723549107319
 20
95.45774839800329
 30
0.0
 10
210.1187782505345
 20
96.30007587651372
 30
0.0
 10
209.8645313125764
 20
97.14272085501605
 30
0.0
 10
209.2912674383127
 20
97.71460889598153
 30
0.0
 10
208.837207172119
 20
97.57783695502643
 30
0.0
  0
SPLINE
  5
220
330
1F
100
AcDbEntity
  8
_U+30EC_U+30A4_U+30E4_U+30FC 1
 62
     7
370
     5
100
AcDbSpline
210
0.0
220
0.0
230
1.0
 70
     8
 71
     3
 72
    11
 73
     7
 74
     0
 42
0.0000000001
 43
0.0000000001
 12
1.0
 22
0.0
 32
0.0
 13
1.0
 23
0.0
 33
0.0
 40
0.0
 40
0.0
 40
0.0
 40
0.0
 40
1.0
 40
1.0
 40
1.0
 40
2.0
 40
2.0
 40
2.0
 40
2.0
 10
209.1493449419335
 20
94.175824541819
 30
0.0
 10
209.6034052081272
 20
94.31294926054288
 30
0.0
 10
209.765647703988
 20
95.10634646252385
 30
0.0
 10
209.5117535437988
 20
95.94867394103429
 30
0.0
 10
209.2578593836095
 20
96.79131891953662
 30
0.0
 10
208.684242731577
 20
97.3632069605021
 30
0.0
 10
208.2301824653833
 20
97.226435019547
 30
0.0
  0
SPLINE
  5
221
330
1F
100
AcDbEntity
  8
_U+30EC_U+30A4_U+30E4_U+30FC 1
 62
     7
370
     5
100
AcDbSpline
210
0.0
220
0.0
230
1.0
 70
     8
 71
     3
 72
    11
 73
     7
 74
     0
 42
0.0000000001
 43
0.0000000001
 12
1.0
 22
0.0
 32
0.0
 13
1.0
 23
0.0
 33
0.0
 40
0.0
 40
0.0
 40
0.0
 40
0.0
 40
1.0
 40
1.0
 40
1.0
 40
2.0
 40
2.0
 40
2.0
 40
2.0
 10
208.491313836766
 20
93.79549719877349
 30
0.0
 10
208.9453688360262
 20
93.93223149247801
 30
0.0
 10
209.1076466096639
 20
94.72566397223586
 30
0.0
 10
208.8537524494747
 20
95.5683089507382
 30
0.0
 10
208.5998230115085
 20
96.41031892925673
 30
0.0
 10
208.0262416372529
 20
96.98252447021412
 30
0.0
 10
207.5721813710591
 20
96.84575252925902
 30
0.0
  0
SPLINE
  5
222
330
1F
100
AcDbEntity
  8
_U+30EC_U+30A4_U+30E4_U+30FC 1
 62
     7
370
     5
100
AcDbSpline
210
0.0
220
0.0
230
1.0
 70
     8
 71
     3
 72
    11
 73
     7
 74
     0
 42
0.0000000001
 43
0.0000000001
 12
1.0
 22
0.0
 32
0.0
 13
1.0
 23
0.0
 33
0.0
 40
0.0
 40
0.0
 40
0.0
 40
0.0
 40
1.0
 40
1.0
 40
1.0
 40
2.0
 40
2.0
 40
2.0
 40
2.0
 10
207.8302082813758
 20
93.41273330997997
 30
0.0
 10
208.2842632973368
 20
93.54950289113113
 30
0.0
 10
208.4465410709746
 20
94.34325287088087
 30
0.0
 10
208.1926116330084
 20
95.18558034939132
 30
0.0
 10
207.9387174728191
 20
96.02790782790174
 30
0.0
 10
207.3651008207866
 20
96.59979586886722
 30
0.0
 10
206.9110405545929
 20
96.4633767056809
 30
0.0
  0
SPLINE
  5
223
330
1F
100
AcDbEntity
  8
_U+30EC_U+30A4_U+30E4_U+30FC 1
 62
     7
370
     5
100
AcDbSpline
210
0.0
220
0.0
230
1.0
 70
     8
 71
     3
 72
    11
 73
     7
 74
     0
 42
0.0000000001
 43
0.0000000001
 12
1.0
 22
0.0
 32
0.0
 13
1.0
 23
0.0
 33
0.0
 40
0.0
 40
0.0
 40
0.0
 40
0.0
 40
1.0
 40
1.0
 40
1.0
 40
2.0
 40
2.0
 40
2.0
 40
2.0
 10
207.172201936819
 20
93.03204845988805
 30
0.0
 10
207.6262622030127
 20
93.16917317861193
 30
0.0
 10
207.7885046988736
 20
93.96221760282411
 30
0.0
 10
207.5346105386843
 20
94.80489785910333
 30
0.0
 10
207.280716378495
 20
95.64722775386605
 30
0.0
 10
206.7070997264625
 20
96.21943330927833
 30
0.0
 10
206.2530394602688
 20
96.08234143762414
 30
0.0
  0
SPLINE
  5
224
330
1F
100
AcDbEntity
  8
_U+30EC_U+30A4_U+30E4_U+30FC 1
 62
     7
370
     5
100
AcDbSpline
210
0.0
220
0.0
230
1.0
 70
     8
 71
     3
 72
    11
 73
     7
 74
     0
 42
0.0000000001
 43
0.0000000001
 12
1.0
 22
0.0
 32
0.0
 13
1.0
 23
0.0
 33
0.0
 40
0.0
 40
0.0
 40
0.0
 40
0.0
 40
1.0
 40
1.0
 40
1.0
 40
2.0
 40
2.0
 40
2.0
 40
2.0
 10
206.5654999483589
 20
92.68064652440862
 30
0.0
 10
207.0195549962689
 20
92.81777124313248
 30
0.0
 10
207.1814799921379
 20
93.61081566734468
 30
0.0
 10
206.9279386097174
 20
94.45349592362389
 30
0.0
 10
206.6736916717593
 20
95.29582340213433
 30
0.0
 10
206.1004277974956
 20
95.8680666426998
 30
0.0
 10
205.6463675313018
 20
95.73093950214471
 30
0.0
  0
SPLINE
  5
225
330
1F
100
AcDbEntity
  8
_U+30EC_U+30A4_U+30E4_U+30FC 1
 62
     7
370
     5
100
AcDbSpline
210
0.0
220
0.0
230
1.0
 70
     8
 71
     3
 72
    11
 73
     7
 74
     0
 42
0.0000000001
 43
0.0000000001
 12
1.0
 22
0.0
 32
0.0
 13
1.0
 23
0.0
 33
0.0
 40
0.0
 40
0.0
 40
0.0
 40
0.0
 40
1.0
 40
1.0
 40
1.0
 40
2.0
 40
2.0
 40
2.0
 40
2.0
 10
205.9074936357511
 20
92.29996403412063
 30
0.0
 10
206.3615539019448
 20
92.43673597507573
 30
0.0
 10
206.5234788978138
 20
93.23048595482548
 30
0.0
 10
206.2699022376164
 20
94.07281343333592
 30
0.0
 10
206.0156552996583
 20
94.91514091184635
 30
0.0
 10
205.4423914253946
 20
95.48702895281183
 30
0.0
 10
204.9883311592009
 20
95.35060978962551
 30
0.0
  0
SPLINE
  5
226
330
1F
100
AcDbEntity
  8
_U+30EC_U+30A4_U+30E4_U+30FC 1
 62
     7
370
     5
100
AcDbSpline
210
0.0
220
0.0
230
1.0
 70
     8
 71
     3
 72
    11
 73
     7
 74
     0
 42
0.0000000001
 43
0.0000000001
 12
1.0
 22
0.0
 32
0.0
 13
1.0
 23
0.0
 33
0.0
 40
0.0
 40
0.0
 40
0.0
 40
0.0
 40
1.0
 40
1.0
 40
1.0
 40
2.0
 40
2.0
 40
2.0
 40
2.0
 10
205.2946128180537
 20
91.94545765427596
 30
0.0
 10
205.7486730842474
 20
92.08258237299982
 30
0.0
 10
205.9109508578851
 20
92.87562679721202
 30
0.0
 10
205.6570214199189
 20
93.71830705349124
 30
0.0
 10
205.4031272597296
 20
94.56063453200167
 30
0.0
 10
204.8295106076972
 20
95.13287775399445
 30
0.0
 10
204.3754555044618
 20
94.99575063201205
 30
0.0
  0
SPLINE
  5
227
330
1F
100
AcDbEntity
  8
_U+30EC_U+30A4_U+30E4_U+30FC 1
 62
     7
370
     5
100
AcDbSpline
210
0.0
220
0.0
230
1.0
 70
     8
 71
     3
 72
    11
 73
     7
 74
     0
 42
0.0000000001
 43
0.0000000001
 12
1.0
 22
0.0
 32
0.0
 13
1.0
 23
0.0
 33
0.0
 40
0.0
 40
0.0
 40
0.0
 40
0.0
 40
1.0
 40
1.0
 40
1.0
 40
2.0
 40
2.0
 40
2.0
 40
2.0
 10
204.6366117237295
 20
91.56477516398797
 30
0.0
 10
205.0906719899233
 20
91.70154710494307
 30
0.0
 10
205.2529144857841
 20
92.49529708469282
 30
0.0
 10
204.9990203255948
 20
93.33762456320326
 30
0.0
 10
204.7451261654055
 20
94.17995204171369
 30
0.0
 10
204.1715095133731
 20
94.75184008267917
 30
0.0
 10
203.7174492471793
 20
94.61542091949285
 30
0.0
  0
SPLINE
  5
228
330
1F
100
AcDbEntity
  8
_U+30EC_U+30A4_U+30E4_U+30FC 1
 62
     7
370
     5
100
AcDbSpline
210
0.0
220
0.0
230
1.0
 70
     8
 71
     3
 72
    11
 73
     7
 74
     0
 42
0.0000000001
 43
0.0000000001
 12
1.0
 22
0.0
 32
0.0
 13
1.0
 23
0.0
 33
0.0
 40
0.0
 40
0.0
 40
0.0
 40
0.0
 40
1.0
 40
1.0
 40
1.0
 40
2.0
 40
2.0
 40
2.0
 40
2.0
 10
204.0299045169857
 20
91.21337322850853
 30
0.0
 10
204.4839647831794
 20
91.35014516946364
 30
0.0
 10
204.6458897790484
 20
92.14389514921339
 30
0.0
 10
204.3923483966279
 20
92.98622497675363
 30
0.0
 10
204.1381014586698
 20
93.82855010623426
 30
0.0
 10
203.5648375844061
 20
94.40043814719974
 30
0.0
 10
203.1107773182124
 20
94.26401898401342
 30
0.0
  0
SPLINE
  5
229
330
1F
100
AcDbEntity
  8
_U+30EC_U+30A4_U+30E4_U+30FC 1
 62
     7
370
     5
100
AcDbSpline
210
0.0
220
0.0
230
1.0
 70
     8
 71
     3
 72
    11
 73
     7
 74
     0
 42
0.0000000001
 43
0.0000000001
 12
1.0
 22
0.0
 32
0.0
 13
1.0
 23
0.0
 33
0.0
 40
0.0
 40
0.0
 40
0.0
 40
0.0
 40
1.0
 40
1.0
 40
1.0
 40
2.0
 40
2.0
 40
2.0
 40
2.0
 10
203.3719034226616
 20
90.83269073822055
 30
0.0
 10
203.8259636888553
 20
90.96981545694443
 30
0.0
 10
203.9878886847243
 20
91.76285988115663
 30
0.0
 10
203.7343120245269
 20
92.60554013743584
 30
0.0
 10
203.4800650865688
 20
93.44786761594628
 30
0.0
 10
202.9068012123051
 20
94.02010843468054
 30
0.0
 10
202.4527409461114
 20
93.88298608764038
 30
0.0
  0
SPLINE
  5
22A
330
1F
100
AcDbEntity
  8
_U+30EC_U+30A4_U+30E4_U+30FC 1
 62
     7
370
     5
100
AcDbSpline
210
0.0
220
0.0
230
1.0
 70
     8
 71
     3
 72
    11
 73
     7
 74
     0
 42
0.0000000001
 43
0.0000000001
 12
1.0
 22
0.0
 32
0.0
 13
1.0
 23
0.0
 33
0.0
 40
0.0
 40
0.0
 40
0.0
 40
0.0
 40
1.0
 40
1.0
 40
1.0
 40
2.0
 40
2.0
 40
2.0
 40
2.0
 10
202.7400784387808
 20
90.4675304697588
 30
0.0
 10
203.1941387049745
 20
90.6043024107139
 30
0.0
 10
203.3567339786042
 20
91.39769961269486
 30
0.0
 10
203.1024870406461
 20
92.24037986897407
 30
0.0
 10
202.8489456582256
 20
93.08235456971573
 30
0.0
 10
202.2749762284243
 20
93.65456011067312
 30
0.0
 10
201.8209159622306
 20
93.51778816971802
 30
0.0
  0
SPLINE
  5
22B
330
1F
100
AcDbEntity
  8
_U+30EC_U+30A4_U+30E4_U+30FC 1
 62
     7
370
     5
100
AcDbSpline
210
0.0
220
0.0
230
1.0
 70
     8
 71
     3
 72
    11
 73
     7
 74
     0
 42
0.0000000001
 43
0.0000000001
 12
1.0
 22
0.0
 32
0.0
 13
1.0
 23
0.0
 33
0.0
 40
0.0
 40
0.0
 40
0.0
 40
0.0
 40
1.0
 40
1.0
 40
1.0
 40
2.0
 40
2.0
 40
2.0
 40
2.0
 10
202.0820773444567
 20
90.08649520170204
 30
0.0
 10
202.5361376106504
 20
90.22362219966647
 30
0.0
 10
202.69873288428
 20
91.01701942169026
 30
0.0
 10
202.444485946322
 20
91.85934460091732
 30
0.0
 10
202.1909092861246
 20
92.70198957941966
 30
0.0
 10
201.6169751341002
 20
93.27387762038514
 30
0.0
 10
201.1629148679065
 20
93.13710567943004
 30
0.0
  0
SPLINE
  5
22C
330
1F
100
AcDbEntity
  8
_U+30EC_U+30A4_U+30E4_U+30FC 1
 62
     7
370
     5
100
AcDbSpline
210
0.0
220
0.0
230
1.0
 70
     8
 71
     3
 72
    11
 73
     7
 74
     0
 42
0.0000000001
 43
0.0000000001
 12
1.0
 22
0.0
 32
0.0
 13
1.0
 23
0.0
 33
0.0
 40
0.0
 40
0.0
 40
0.0
 40
0.0
 40
1.0
 40
1.0
 40
1.0
 40
2.0
 40
2.0
 40
2.0
 40
2.0
 10
201.4753701377129
 20
89.7350932662226
 30
0.0
 10
201.9294304039066
 20
89.87221798494647
 30
0.0
 10
202.0917081775443
 20
90.66561518692745
 30
0.0
 10
201.837814017355
 20
91.5079426654379
 30
0.0
 10
201.5838845793889
 20
92.3506229217171
 30
0.0
 10
201.0103082830807
 20
92.9224756849057
 30
0.0
 10
200.5562429389395
 20
92.78570374395059
 30
0.0
  0
SPLINE
  5
22D
330
1F
100
AcDbEntity
  8
_U+30EC_U+30A4_U+30E4_U+30FC 1
 62
     7
370
     5
100
AcDbSpline
210
0.0
220
0.0
230
1.0
 70
     8
 71
     3
 72
    11
 73
     7
 74
     0
 42
0.0000000001
 43
0.0000000001
 12
1.0
 22
0.0
 32
0.0
 13
1.0
 23
0.0
 33
0.0
 40
0.0
 40
0.0
 40
0.0
 40
0.0
 40
1.0
 40
1.0
 40
1.0
 40
2.0
 40
2.0
 40
2.0
 40
2.0
 10
200.8173690433888
 20
89.35476355370339
 30
0.0
 10
201.2714293095825
 20
89.49153549465849
 30
0.0
 10
201.4337070832202
 20
90.28493269663947
 30
0.0
 10
201.1797776452541
 20
91.12761295291868
 30
0.0
 10
200.9258834850648
 20
91.96958765366034
 30
0.0
 10
200.3522668330323
 20
92.54179319461772
 30
0.0
 10
199.8982065668386
 20
92.40502125366262
 30
0.0
  0
SPLINE
  5
22E
330
1F
100
AcDbEntity
  8
_U+30EC_U+30A4_U+30E4_U+30FC 1
 62
     7
370
     5
100
AcDbSpline
210
0.0
220
0.0
230
1.0
 70
     8
 71
     3
 72
    11
 73
     7
 74
     0
 42
0.0000000001
 43
0.0000000001
 12
1.0
 22
0.0
 32
0.0
 13
1.0
 23
0.0
 33
0.0
 40
0.0
 40
0.0
 40
0.0
 40
0.0
 40
1.0
 40
1.0
 40
1.0
 40
2.0
 40
2.0
 40
2.0
 40
2.0
 10
200.2044882256913
 20
88.99990439608995
 30
0.0
 10
200.6585484918851
 20
89.13702911481383
 30
0.0
 10
200.8211437655147
 20
89.9304263167948
 30
0.0
 10
200.5668968275566
 20
90.77275379530523
 30
0.0
 10
200.3133554451361
 20
91.61543405158444
 30
0.0
 10
199.7393860153348
 20
92.18732209254992
 30
0.0
 10
199.2853257491411
 20
92.05055015159482
 30
0.0
  0
SPLINE
  5
22F
330
1F
100
AcDbEntity
  8
_U+30EC_U+30A4_U+30E4_U+30FC 1
 62
     7
370
     5
100
AcDbSpline
210
0.0
220
0.0
230
1.0
 70
     8
 71
     3
 72
    11
 73
     7
 74
     0
 42
0.0000000001
 43
0.0000000001
 12
1.0
 22
0.0
 32
0.0
 13
1.0
 23
0.0
 33
0.0
 40
0.0
 40
0.0
 40
0.0
 40
0.0
 40
1.0
 40
1.0
 40
1.0
 40
2.0
 40
2.0
 40
2.0
 40
2.0
 10
199.5464871313672
 20
88.61957468357073
 30
0.0
 10
200.000547397561
 20
88.75634662452585
 30
0.0
 10
200.1631426711906
 20
89.54974382650681
 30
0.0
 10
199.9088957332325
 20
90.39242408278602
 30
0.0
 10
199.6553190730351
 20
91.23439878352768
 30
0.0
 10
199.0813849210107
 20
91.80663960226194
 30
0.0
 10
198.627324654817
 20
91.66986766130684
 30
0.0
  0
SPLINE
  5
230
330
1F
100
AcDbEntity
  8
_U+30EC_U+30A4_U+30E4_U+30FC 1
 62
     7
370
     5
100
AcDbSpline
210
0.0
220
0.0
230
1.0
 70
     8
 71
     3
 72
    11
 73
     7
 74
     0
 42
0.0000000001
 43
0.0000000001
 12
1.0
 22
0.0
 32
0.0
 13
1.0
 23
0.0
 33
0.0
 40
0.0
 40
0.0
 40
0.0
 40
0.0
 40
1.0
 40
1.0
 40
1.0
 40
2.0
 40
2.0
 40
2.0
 40
2.0
 10
198.9397799246234
 20
88.26817497793323
 30
0.0
 10
199.3938401908171
 20
88.4049446890464
 30
0.0
 10
199.5561179644548
 20
89.19834189102738
 30
0.0
 10
199.3022238042656
 20
90.04102214730659
 30
0.0
 10
199.0482943662994
 20
90.88299684804825
 30
0.0
 10
198.4747129920438
 20
91.45523766678251
 30
0.0
 10
198.0206527258501
 20
91.31846572582741
 30
0.0
  0
SPLINE
  5
231
330
1F
100
AcDbEntity
  8
_U+30EC_U+30A4_U+30E4_U+30FC 1
 62
     7
370
     5
100
AcDbSpline
210
0.0
220
0.0
230
1.0
 70
     8
 71
     3
 72
    11
 73
     7
 74
     0
 42
0.0000000001
 43
0.0000000001
 12
1.0
 22
0.0
 32
0.0
 13
1.0
 23
0.0
 33
0.0
 40
0.0
 40
0.0
 40
0.0
 40
0.0
 40
1.0
 40
1.0
 40
1.0
 40
2.0
 40
2.0
 40
2.0
 40
2.0
 10
198.2817788302993
 20
87.88713748003455
 30
0.0
 10
198.735839096493
 20
88.02426219875842
 30
0.0
 10
198.8981168701307
 20
88.8176594007394
 30
0.0
 10
198.6441874321646
 20
89.65998687924983
 30
0.0
 10
198.3902932719753
 20
90.50266942181867
 30
0.0
 10
197.8166766199428
 20
91.07455517649453
 30
0.0
 10
197.3626163537491
 20
90.93778323553943
 30
0.0
  0
SPLINE
  5
232
330
1F
100
AcDbEntity
  8
_U+30EC_U+30A4_U+30E4_U+30FC 1
 62
     7
370
     5
100
AcDbSpline
210
0.0
220
0.0
230
1.0
 70
     8
 71
     3
 72
    11
 73
     7
 74
     0
 42
0.0000000001
 43
0.0000000001
 12
1.0
 22
0.0
 32
0.0
 13
1.0
 23
0.0
 33
0.0
 40
0.0
 40
0.0
 40
0.0
 40
0.0
 40
1.0
 40
1.0
 40
1.0
 40
2.0
 40
2.0
 40
2.0
 40
2.0
 10
197.6206732916099
 20
87.50472637867955
 30
0.0
 10
198.0747335578037
 20
87.64185109740343
 30
0.0
 10
198.2369760536645
 20
88.43489552161563
 30
0.0
 10
197.9830818934752
 20
89.27757577789484
 30
0.0
 10
197.7291877332859
 20
90.11990553302577
 30
0.0
 10
197.1555710812534
 20
90.69214407513954
 30
0.0
 10
196.7015108150597
 20
90.55501935641566
 30
0.0
  0
SPLINE
  5
233
330
1F
100
AcDbEntity
  8
_U+30EC_U+30A4_U+30E4_U+30FC 1
 62
     7
370
     5
100
AcDbSpline
210
0.0
220
0.0
230
1.0
 70
     8
 71
     3
 72
    11
 73
     7
 74
     0
 42
0.0000000001
 43
0.0000000001
 12
1.0
 22
0.0
 32
0.0
 13
1.0
 23
0.0
 33
0.0
 40
0.0
 40
0.0
 40
0.0
 40
0.0
 40
1.0
 40
1.0
 40
1.0
 40
2.0
 40
2.0
 40
2.0
 40
2.0
 10
196.962636919509
 20
87.12404388839157
 30
0.0
 10
197.4166971857027
 20
87.26081582934668
 30
0.0
 10
197.5789749593404
 20
88.05456580909643
 30
0.0
 10
197.3250807991511
 20
88.89689328760686
 30
0.0
 10
197.071191617399
 20
89.7392207661173
 30
0.0
 10
196.4975749508757
 20
90.31111108853334
 30
0.0
 10
196.0435097207356
 20
90.17468964389646
 30
0.0
  0
SPLINE
  5
234
330
1F
100
AcDbEntity
  8
_U+30EC_U+30A4_U+30E4_U+30FC 1
 62
     7
370
     5
100
AcDbSpline
210
0.0
220
0.0
230
1.0
 70
     8
 71
     3
 72
    11
 73
     7
 74
     0
 42
0.0000000001
 43
0.0000000001
 12
1.0
 22
0.0
 32
0.0
 13
1.0
 23
0.0
 33
0.0
 40
0.0
 40
0.0
 40
0.0
 40
0.0
 40
1.0
 40
1.0
 40
1.0
 40
2.0
 40
2.0
 40
2.0
 40
2.0
 10
196.3556122127732
 20
86.77264195291214
 30
0.0
 10
196.8096724789669
 20
86.90941389386724
 30
0.0
 10
196.9723030303735
 20
87.70316387361699
 30
0.0
 10
196.7180610619317
 20
88.54549135212743
 30
0.0
 10
196.464479432218
 20
89.38781883063787
 30
0.0
 10
195.8905452801936
 20
89.95970687160334
 30
0.0
 10
195.4364850139999
 20
89.82328770841701
 30
0.0
  0
SPLINE
  5
235
330
1F
100
AcDbEntity
  8
_U+30EC_U+30A4_U+30E4_U+30FC 1
 62
     7
370
     5
100
AcDbSpline
210
0.0
220
0.0
230
1.0
 70
     8
 71
     3
 72
    11
 73
     7
 74
     0
 42
0.0000000001
 43
0.0000000001
 12
1.0
 22
0.0
 32
0.0
 13
1.0
 23
0.0
 33
0.0
 40
0.0
 40
0.0
 40
0.0
 40
0.0
 40
1.0
 40
1.0
 40
1.0
 40
2.0
 40
2.0
 40
2.0
 40
2.0
 10
195.6976111184491
 20
86.39195946262416
 30
0.0
 10
196.1516713846428
 20
86.52908418134804
 30
0.0
 10
196.3142666582725
 20
87.32212860556024
 30
0.0
 10
196.0600197203144
 20
88.16481108906964
 30
0.0
 10
195.8064832843815
 20
89.00713634034989
 30
0.0
 10
195.2325138400811
 20
89.57937715908413
 30
0.0
 10
194.7784486418989
 20
89.44225244036026
 30
0.0
  0
SPLINE
  5
236
330
1F
100
AcDbEntity
  8
_U+30EC_U+30A4_U+30E4_U+30FC 1
 62
     7
370
     5
100
AcDbSpline
210
0.0
220
0.0
230
1.0
 70
     8
 71
     3
 72
    11
 73
     7
 74
     0
 42
0.0000000001
 43
0.0000000001
 12
1.0
 22
0.0
 32
0.0
 13
1.0
 23
0.0
 33
0.0
 40
0.0
 40
0.0
 40
0.0
 40
0.0
 40
1.0
 40
1.0
 40
1.0
 40
2.0
 40
2.0
 40
2.0
 40
2.0
 10
195.0850830785205
 20
86.03745308277948
 30
0.0
 10
195.5391433447142
 20
86.17422502373458
 30
0.0
 10
195.701385840575
 20
86.96797500348434
 30
0.0
 10
195.4474916803858
 20
87.81030248199477
 30
0.0
 10
195.1935975201964
 20
88.65262996050521
 30
0.0
 10
194.619980868164
 20
89.22451800147068
 30
0.0
 10
194.1659206019702
 20
89.08809883828435
 30
0.0
  0
SPLINE
  5
237
330
1F
100
AcDbEntity
  8
_U+30EC_U+30A4_U+30E4_U+30FC 1
 62
     7
370
     5
100
AcDbSpline
210
0.0
220
0.0
230
1.0
 70
     8
 71
     3
 72
    11
 73
     7
 74
     0
 42
0.0000000001
 43
0.0000000001
 12
1.0
 22
0.0
 32
0.0
 13
1.0
 23
0.0
 33
0.0
 40
0.0
 40
0.0
 40
0.0
 40
0.0
 40
1.0
 40
1.0
 40
1.0
 40
2.0
 40
2.0
 40
2.0
 40
2.0
 10
194.4270467064195
 20
85.6567705924915
 30
0.0
 10
194.8811069726132
 20
85.79389531121538
 30
0.0
 10
195.0433847462509
 20
86.58697501320445
 30
0.0
 10
194.7894905860616
 20
87.42962220036493
 30
0.0
 10
194.5355964258723
 20
88.27194747021723
 30
0.0
 10
193.9619797738399
 20
88.84418828895149
 30
0.0
 10
193.5079195076461
 20
88.7070635702276
 30
0.0
  0
SPLINE
  5
238
330
1F
100
AcDbEntity
  8
_U+30EC_U+30A4_U+30E4_U+30FC 1
 62
     7
370
     5
100
AcDbSpline
210
0.0
220
0.0
230
1.0
 70
     8
 71
     3
 72
    11
 73
     7
 74
     0
 42
0.0000000001
 43
0.0000000001
 12
1.0
 22
0.0
 32
0.0
 13
1.0
 23
0.0
 33
0.0
 40
0.0
 40
0.0
 40
0.0
 40
0.0
 40
1.0
 40
1.0
 40
1.0
 40
2.0
 40
2.0
 40
2.0
 40
2.0
 10
193.8200219996837
 20
85.30536865701207
 30
0.0
 10
194.2740822658775
 20
85.44249337573595
 30
0.0
 10
194.436712817284
 20
86.23557307772502
 30
0.0
 10
194.1824658793259
 20
87.07821805622736
 30
0.0
 10
193.9288892191285
 20
87.9205455347378
 30
0.0
 10
193.3549550671041
 20
88.49278635347204
 30
0.0
 10
192.9008948009104
 20
88.3556638668001
 30
0.0
  0
SPLINE
  5
239
330
1F
100
AcDbEntity
  8
_U+30EC_U+30A4_U+30E4_U+30FC 1
 62
     7
370
     5
100
AcDbSpline
210
0.0
220
0.0
230
1.0
 70
     8
 71
     3
 72
    11
 73
     7
 74
     0
 42
0.0000000001
 43
0.0000000001
 12
1.0
 22
0.0
 32
0.0
 13
1.0
 23
0.0
 33
0.0
 40
0.0
 40
0.0
 40
0.0
 40
0.0
 40
1.0
 40
1.0
 40
1.0
 40
2.0
 40
2.0
 40
2.0
 40
2.0
 10
193.1620209053596
 20
84.92468616672409
 30
0.0
 10
193.6160860627073
 20
85.06145810767919
 30
0.0
 10
193.778676445183
 20
85.85520808742893
 30
0.0
 10
193.5244295072249
 20
86.69753556593938
 30
0.0
 10
193.2708881248044
 20
87.53986304444982
 30
0.0
 10
192.6969186950031
 20
88.11175108541529
 30
0.0
 10
192.2428584288094
 20
87.97533192222896
 30
0.0
  0
SPLINE
  5
23A
330
1F
100
AcDbEntity
  8
_U+30EC_U+30A4_U+30E4_U+30FC 1
 62
     7
370
     5
100
AcDbSpline
210
0.0
220
0.0
230
1.0
 70
     8
 71
     3
 72
    11
 73
     7
 74
     0
 42
0.0000000001
 43
0.0000000001
 12
1.0
 22
0.0
 32
0.0
 13
1.0
 23
0.0
 33
0.0
 40
0.0
 40
0.0
 40
0.0
 40
0.0
 40
1.0
 40
1.0
 40
1.0
 40
2.0
 40
2.0
 40
2.0
 40
2.0
 10
192.5171078662572
 20
84.55158839846483
 30
0.0
 10
192.9711681324509
 20
84.68836033941993
 30
0.0
 10
193.1334106283118
 20
85.4817575414009
 30
0.0
 10
192.8795164681225
 20
86.32443779768012
 30
0.0
 10
192.6256223079332
 20
87.16641249842178
 30
0.0
 10
192.0520056559007
 20
87.73865553362108
 30
0.0
 10
191.597945389707
 20
87.60188137620092
 30
0.0
  0
SPLINE
  5
23B
330
1F
100
AcDbEntity
  8
_U+30EC_U+30A4_U+30E4_U+30FC 1
 62
     7
370
     5
100
AcDbSpline
210
0.0
220
0.0
230
1.0
 70
     8
 71
     3
 72
    11
 73
     7
 74
     0
 42
0.0000000001
 43
0.0000000001
 12
1.0
 22
0.0
 32
0.0
 13
1.0
 23
0.0
 33
0.0
 40
0.0
 40
0.0
 40
0.0
 40
0.0
 40
1.0
 40
1.0
 40
1.0
 40
2.0
 40
2.0
 40
2.0
 40
2.0
 10
192.2849095388477
 20
84.70420006123804
 30
0.0
 10
192.3748325921091
 20
85.03634033054222
 30
0.0
 10
192.3603334258124
 20
85.48246309693846
 30
0.0
 10
192.2215153737984
 20
85.94340252962336
 30
0.0
 10
192.1409056536327
 20
86.21077497844746
 30
0.0
 10
192.0282332853264
 20
86.45087335001003
 30
0.0
 10
191.8973126042917
 20
86.65001640048503
 30
0.0
  0
INSERT
  5
23D
330
1F
100
AcDbEntity
  8
_U+30EC_U+30A4_U+30E4_U+30FC 1
100
AcDbBlockReference
  2
block 3
 10
0.0
 20
0.0
 30
0.0
  0
ENDSEC
  0
SECTION
  2
OBJECTS
  0
DICTIONARY
  5
C
330
0
100
AcDbDictionary
281
     1
  3
ACAD_GROUP
350
D
  3
ACAD_LAYOUT
350
1A
  3
ACAD_MATERIAL
350
3B
  3
ACAD_MLEADERSTYLE
350
2E1
  3
ACAD_MLINESTYLE
350
17
  3
ACAD_PLOTSETTINGS
350
19
  3
ACAD_PLOTSTYLENAME
350
E
  3
ACAD_TABLESTYLE
350
2E0
  3
ACAD_VISUALSTYLE
350
2A
  0
SUN
  5
3F
330
29
100
AcDbSun
 90
        1
290
     0
 63
     7
421
 16777215
 40
1.0
291
     1
 91
  2455826
 92
 54000000
292
     0
 70
     2
 71
   256
280
     1
  0
DICTIONARY
  5
D
102
{ACAD_REACTORS
330
C
102
}
330
C
100
AcDbDictionary
281
     1
  0
DICTIONARY
  5
1A
102
{ACAD_REACTORS
330
C
102
}
330
C
100
AcDbDictionary
281
     1
  3
Layout1
350
1E
  3
Layout2
350
26
  3
Model
350
22
  0
DICTIONARY
  5
3B
102
{ACAD_REACTORS
330
C
102
}
330
C
100
AcDbDictionary
281
     1
  3
ByBlock
350
3D
  3
ByLayer
350
3C
  3
Global
350
3E
  0
DICTIONARY
  5
2E1
102
{ACAD_REACTORS
330
C
102
}
330
C
100
AcDbDictionary
281
     1
  0
DICTIONARY
  5
17
102
{ACAD_REACTORS
330
C
102
}
330
C
100
AcDbDictionary
281
     1
  3
Standard
350
18
  0
DICTIONARY
  5
19
102
{ACAD_REACTORS
330
C
102
}
330
C
100
AcDbDictionary
281
     1
  0
ACDBDICTIONARYWDFLT
  5
E
102
{ACAD_REACTORS
330
C
102
}
330
C
100
AcDbDictionary
281
     1
  3
Normal
350
F
100
AcDbDictionaryWithDefault
340
F
  0
DICTIONARY
  5
2E0
102
{ACAD_REACTORS
330
C
102
}
330
C
100
AcDbDictionary
281
     1
  0
DICTIONARY
  5
2A
102
{ACAD_REACTORS
330
C
102
}
330
C
100
AcDbDictionary
281
     1
  3
2dWireframe
350
2F
  3
3D Hidden
350
31
  3
3dWireframe
350
30
  3
Basic
350
32
  3
Brighten
350
36
  3
ColorChange
350
3A
  3
Conceptual
350
34
  3
Dim
350
35
  3
Facepattern
350
39
  3
Flat
350
2B
  3
FlatWithEdges
350
2C
  3
Gouraud
350
2D
  3
GouraudWithEdges
350
2E
  3
Linepattern
350
38
  3
Realistic
350
33
  3
Thicken
350
37
  0
LAYOUT
  5
1E
102
{ACAD_REACTORS
330
1A
102
}
330
1A
100
AcDbPlotSettings
  1

  2
none_device
  4

  6

 40
0.0
 41
0.0
 42
0.0
 43
0.0
 44
0.0
 45
0.0
 46
0.0
 47
0.0
 48
0.0
 49
0.0
140
0.0
141
0.0
142
1.0
143
1.0
 70
   688
 72
     0
 73
     0
 74
     5
  7

 75
    16
 76
     0
 77
     2
 78
   300
147
1.0
148
0.0
149
0.0
100
AcDbLayout
  1
Layout1
 70
     1
 71
     1
 10
0.0
 20
0.0
 11
12.0
 21
9.0
 12
0.0
 22
0.0
 32
0.0
 14
1.000000000000000E+20
 24
1.000000000000000E+20
 34
1.000000000000000E+20
 15
-1.000000000000000E+20
 25
-1.000000000000000E+20
 35
-1.000000000000000E+20
146
0.0
 13
0.0
 23
0.0
 33
0.0
 16
1.0
 26
0.0
 36
0.0
 17
0.0
 27
1.0
 37
0.0
 76
     0
330
1B
  0
LAYOUT
  5
26
102
{ACAD_REACTORS
330
1A
102
}
330
1A
100
AcDbPlotSettings
  1

  2
none_device
  4

  6

 40
0.0
 41
0.0
 42
0.0
 43
0.0
 44
0.0
 45
0.0
 46
0.0
 47
0.0
 48
0.0
 49
0.0
140
0.0
141
0.0
142
1.0
143
1.0
 70
   688
 72
     0
 73
     0
 74
     5
  7

 75
    16
 76
     0
 77
     2
 78
   300
147
1.0
148
0.0
149
0.0
100
AcDbLayout
  1
Layout2
 70
     1
 71
     2
 10
0.0
 20
0.0
 11
0.0
 21
0.0
 12
0.0
 22
0.0
 32
0.0
 14
0.0
 24
0.0
 34
0.0
 15
0.0
 25
0.0
 35
0.0
146
0.0
 13
0.0
 23
0.0
 33
0.0
 16
1.0
 26
0.0
 36
0.0
 17
0.0
 27
1.0
 37
0.0
 76
     0
330
23
  0
LAYOUT
  5
22
102
{ACAD_REACTORS
330
1A
102
}
330
1A
100
AcDbPlotSettings
  1

  2
none_device
  4

  6

 40
0.0
 41
0.0
 42
0.0
 43
0.0
 44
0.0
 45
0.0
 46
0.0
 47
0.0
 48
0.0
 49
0.0
140
0.0
141
0.0
142
1.0
143
1.0
 70
  1712
 72
     0
 73
     0
 74
     0
  7

 75
     0
 76
     0
 77
     2
 78
   300
147
1.0
148
0.0
149
0.0
100
AcDbLayout
  1
Model
 70
     1
 71
     0
 10
0.0
 20
0.0
 11
12.0
 21
9.0
 12
0.0
 22
0.0
 32
0.0
 14
1.000000000000000E+20
 24
1.000000000000000E+20
 34
1.000000000000000E+20
 15
-1.000000000000000E+20
 25
-1.000000000000000E+20
 35
-1.000000000000000E+20
146
0.0
 13
0.0
 23
0.0
 33
0.0
 16
1.0
 26
0.0
 36
0.0
 17
0.0
 27
1.0
 37
0.0
 76
     0
330
1F
331
29
  0
MATERIAL
  5
3D
102
{ACAD_REACTORS
330
3B
102
}
330
3B
100
AcDbMaterial
  1
ByBlock
 72
     1
 94
      127
  0
MATERIAL
  5
3C
102
{ACAD_REACTORS
330
3B
102
}
330
3B
100
AcDbMaterial
  1
ByLayer
 72
     1
 94
      127
  0
MATERIAL
  5
3E
102
{ACAD_REACTORS
330
3B
102
}
330
3B
100
AcDbMaterial
  1
Global
 72
     1
 94
      127
  0
MLINESTYLE
  5
18
102
{ACAD_REACTORS
330
17
102
}
330
17
100
AcDbMlineStyle
  2
Standard
 70
     0
  3

 62
   256
 51
90.0
 52
90.0
 71
     2
 49
0.5
 62
   256
  6
BYLAYER
 49
-0.5
 62
   256
  6
BYLAYER
  0
ACDBPLACEHOLDER
  5
F
102
{ACAD_REACTORS
330
E
102
}
330
E
  0
VISUALSTYLE
  5
2F
102
{ACAD_REACTORS
330
2A
102
}
102
{ACAD_XDICTIONARY
360
2C8
102
}
330
2A
100
AcDbVisualStyle
  2
2dWireframe
 70
     4
 71
     0
 72
     2
 73
     0
 90
        0
 40
-0.6
 41
-30.0
 62
     5
 63
     7
421
 16777215
 74
     1
 91
        4
 64
     7
 65
   257
 75
     1
175
     1
 42
1.0
 92
        0
 66
   257
 43
1.0
 76
     1
 77
     6
 78
     2
 67
     7
 79
     5
170
     0
171
     0
290
     0
174
     0
 93
        1
 44
0.0
173
     0
291
     0
 45
0.0
  0
VISUALSTYLE
  5
31
102
{ACAD_REACTORS
330
2A
102
}
102
{ACAD_XDICTIONARY
360
2CC
102
}
330
2A
100
AcDbVisualStyle
  2
3D Hidden
 70
     6
 71
     1
 72
     2
 73
     2
 90
        0
 40
-0.6
 41
-30.0
 62
     5
 63
     7
421
 16777215
 74
     2
 91
        2
 64
     7
 65
   257
 75
     2
175
     1
 42
40.0
 92
        0
 66
   257
 43
1.0
 76
     1
 77
     6
 78
     2
 67
     7
 79
     3
170
     0
171
     0
290
     0
174
     0
 93
        1
 44
0.0
173
     0
291
     0
 45
0.0
  0
VISUALSTYLE
  5
30
102
{ACAD_REACTORS
330
2A
102
}
102
{ACAD_XDICTIONARY
360
2CA
102
}
330
2A
100
AcDbVisualStyle
  2
3dWireframe
 70
     5
 71
     0
 72
     2
 73
     0
 90
        0
 40
-0.6
 41
-30.0
 62
     5
 63
     7
421
 16777215
 74
     1
 91
        4
 64
     7
 65
   257
 75
     1
175
     1
 42
1.0
 92
        0
 66
   257
 43
1.0
 76
     1
 77
     6
 78
     2
 67
     7
 79
     5
170
     0
171
     0
290
     0
174
     0
 93
        1
 44
0.0
173
     0
291
     0
 45
0.0
  0
VISUALSTYLE
  5
32
102
{ACAD_REACTORS
330
2A
102
}
102
{ACAD_XDICTIONARY
360
2CE
102
}
330
2A
100
AcDbVisualStyle
  2
Basic
 70
     7
 71
     1
 72
     0
 73
     1
 90
        0
 40
-0.6
 41
-30.0
 62
     5
 63
     7
421
 16777215
 74
     0
 91
        4
 64
     7
 65
   257
 75
     1
175
     1
 42
1.0
 92
        8
 66
     7
 43
1.0
 76
     1
 77
     6
 78
     2
 67
     7
 79
     5
170
     0
171
     0
290
     0
174
     0
 93
        1
 44
0.0
173
     0
291
     1
 45
0.0
  0
VISUALSTYLE
  5
36
102
{ACAD_REACTORS
330
2A
102
}
102
{ACAD_XDICTIONARY
360
2D6
102
}
330
2A
100
AcDbVisualStyle
  2
Brighten
 70
    12
 71
     2
 72
     2
 73
     0
 90
        0
 40
-0.6
 41
-30.0
 62
     5
 63
     7
421
 16777215
 74
     1
 91
        4
 64
     7
 65
   257
 75
     1
175
     1
 42
1.0
 92
        8
 66
     7
 43
1.0
 76
     1
 77
     6
 78
     2
 67
     7
 79
     5
170
     0
171
     0
290
     0
174
     0
 93
        1
 44
50.0
173
     0
291
     1
 45
0.0
  0
VISUALSTYLE
  5
3A
102
{ACAD_REACTORS
330
2A
102
}
102
{ACAD_XDICTIONARY
360
2DE
102
}
330
2A
100
AcDbVisualStyle
  2
ColorChange
 70
    16
 71
     2
 72
     2
 73
     3
 90
        0
 40
-0.6
 41
-30.0
 62
     5
 63
     8
421
  8421504
 74
     1
 91
        4
 64
     7
 65
   257
 75
     1
175
     1
 42
1.0
 92
        8
 66
     8
424
  8421504
 43
1.0
 76
     1
 77
     6
 78
     2
 67
     7
 79
     5
170
     0
171
     0
290
     0
174
     0
 93
        1
 44
0.0
173
     0
291
     1
 45
0.0
  0
VISUALSTYLE
  5
34
102
{ACAD_REACTORS
330
2A
102
}
102
{ACAD_XDICTIONARY
360
2D2
102
}
330
2A
100
AcDbVisualStyle
  2
Conceptual
 70
     9
 71
     3
 72
     2
 73
     0
 90
        0
 40
-0.6
 41
-30.0
 62
     5
 63
     7
421
 16777215
 74
     2
 91
        2
 64
     7
 65
   257
 75
     1
175
     1
 42
40.0
 92
        8
 66
     7
 43
1.0
 76
     1
 77
     6
 78
     2
 67
     7
 79
     3
170
     0
171
     0
290
     0
174
     0
 93
        1
 44
0.0
173
     0
291
     0
 45
0.0
  0
VISUALSTYLE
  5
35
102
{ACAD_REACTORS
330
2A
102
}
102
{ACAD_XDICTIONARY
360
2D4
102
}
330
2A
100
AcDbVisualStyle
  2
Dim
 70
    11
 71
     2
 72
     2
 73
     0
 90
        0
 40
-0.6
 41
-30.0
 62
     5
 63
     7
421
 16777215
 74
     1
 91
        4
 64
     7
 65
   257
 75
     1
175
     1
 42
1.0
 92
        8
 66
     7
 43
1.0
 76
     1
 77
     6
 78
     2
 67
     7
 79
     5
170
     0
171
     0
290
     0
174
     0
 93
        1
 44
-50.0
173
     0
291
     1
 45
0.0
  0
VISUALSTYLE
  5
39
102
{ACAD_REACTORS
330
2A
102
}
102
{ACAD_XDICTIONARY
360
2DC
102
}
330
2A
100
AcDbVisualStyle
  2
Facepattern
 70
    15
 71
     2
 72
     2
 73
     0
 90
        0
 40
-0.6
 41
-30.0
 62
     5
 63
     7
421
 16777215
 74
     1
 91
        4
 64
     7
 65
   257
 75
     1
175
     1
 42
1.0
 92
        8
 66
     7
 43
1.0
 76
     1
 77
     6
 78
     2
 67
     7
 79
     5
170
     0
171
     0
290
     0
174
     0
 93
        1
 44
0.0
173
     0
291
     1
 45
0.0
  0
VISUALSTYLE
  5
2B
102
{ACAD_REACTORS
330
2A
102
}
102
{ACAD_XDICTIONARY
360
2C0
102
}
330
2A
100
AcDbVisualStyle
  2
Flat
 70
     0
 71
     2
 72
     1
 73
     1
 90
        2
 40
-0.6
 41
30.0
 62
     5
 63
     7
421
 16777215
 74
     0
 91
        4
 64
     7
 65
   257
 75
     1
175
     1
 42
1.0
 92
        8
 66
     7
 43
1.0
 76
     1
 77
     6
 78
     2
 67
     7
 79
     5
170
     0
171
     0
290
     0
174
     0
 93
       13
 44
0.0
173
     0
291
     1
 45
0.0
  0
VISUALSTYLE
  5
2C
102
{ACAD_REACTORS
330
2A
102
}
102
{ACAD_XDICTIONARY
360
2C2
102
}
330
2A
100
AcDbVisualStyle
  2
FlatWithEdges
 70
     1
 71
     2
 72
     1
 73
     1
 90
        2
 40
-0.6
 41
30.0
 62
     5
 63
     7
421
 16777215
 74
     1
 91
        4
 64
     7
 65
   257
 75
     1
175
     1
 42
1.0
 92
        0
 66
   257
 43
1.0
 76
     1
 77
     6
 78
     2
 67
     7
 79
     5
170
     0
171
     0
290
     0
174
     0
 93
       13
 44
0.0
173
     0
291
     1
 45
0.0
  0
VISUALSTYLE
  5
2D
102
{ACAD_REACTORS
330
2A
102
}
102
{ACAD_XDICTIONARY
360
2C4
102
}
330
2A
100
AcDbVisualStyle
  2
Gouraud
 70
     2
 71
     2
 72
     2
 73
     1
 90
        2
 40
-0.6
 41
30.0
 62
     5
 63
     7
421
 16777215
 74
     0
 91
        4
 64
     7
 65
   257
 75
     1
175
     1
 42
1.0
 92
        0
 66
     7
 43
1.0
 76
     1
 77
     6
 78
     2
 67
     7
 79
     5
170
     0
171
     0
290
     0
174
     0
 93
       13
 44
0.0
173
     0
291
     1
 45
0.0
  0
VISUALSTYLE
  5
2E
102
{ACAD_REACTORS
330
2A
102
}
102
{ACAD_XDICTIONARY
360
2C6
102
}
330
2A
100
AcDbVisualStyle
  2
GouraudWithEdges
 70
     3
 71
     2
 72
     2
 73
     1
 90
        2
 40
-0.6
 41
30.0
 62
     5
 63
     7
421
 16777215
 74
     1
 91
        4
 64
     7
 65
   257
 75
     1
175
     1
 42
1.0
 92
        0
 66
   257
 43
1.0
 76
     1
 77
     6
 78
     2
 67
     7
 79
     5
170
     0
171
     0
290
     0
174
     0
 93
       13
 44
0.0
173
     0
291
     1
 45
0.0
  0
VISUALSTYLE
  5
38
102
{ACAD_REACTORS
330
2A
102
}
102
{ACAD_XDICTIONARY
360
2DA
102
}
330
2A
100
AcDbVisualStyle
  2
Linepattern
 70
    14
 71
     2
 72
     2
 73
     0
 90
        0
 40
-0.6
 41
-30.0
 62
     5
 63
     7
421
 16777215
 74
     1
 91
        4
 64
     7
 65
   257
 75
     7
175
     7
 42
1.0
 92
        8
 66
     7
 43
1.0
 76
     1
 77
     6
 78
     2
 67
     7
 79
     5
170
     0
171
     0
290
     0
174
     0
 93
        1
 44
0.0
173
     0
291
     1
 45
0.0
  0
VISUALSTYLE
  5
33
102
{ACAD_REACTORS
330
2A
102
}
102
{ACAD_XDICTIONARY
360
2D0
102
}
330
2A
100
AcDbVisualStyle
  2
Realistic
 70
     8
 71
     2
 72
     2
 73
     0
 90
        0
 40
-0.6
 41
-30.0
 62
     5
 63
     7
421
 16777215
 74
     1
 91
        0
 64
     7
 65
   257
 75
     1
175
     1
 42
1.0
 92
        8
 66
     8
424
  7895160
 43
1.0
 76
     1
 77
     6
 78
     2
 67
     7
 79
     5
170
     0
171
     0
290
     0
174
     0
 93
       13
 44
0.0
173
     0
291
     0
 45
0.0
  0
VISUALSTYLE
  5
37
102
{ACAD_REACTORS
330
2A
102
}
102
{ACAD_XDICTIONARY
360
2D8
102
}
330
2A
100
AcDbVisualStyle
  2
Thicken
 70
    13
 71
     2
 72
     2
 73
     0
 90
        0
 40
-0.6
 41
-30.0
 62
     5
 63
     7
421
 16777215
 74
     1
 91
        4
 64
     7
 65
   257
 75
     1
175
     1
 42
1.0
 92
       12
 66
     7
 43
1.0
 76
     1
 77
     6
 78
     2
 67
     7
 79
     5
170
     0
171
     0
290
     0
174
     0
 93
        1
 44
0.0
173
     0
291
     1
 45
0.0
  0
DICTIONARY
  5
2C8
330
2F
100
AcDbDictionary
280
     1
281
     1
  3
ACAD_XREC_ROUNDTRIP
360
2C9
  0
DICTIONARY
  5
2CC
330
31
100
AcDbDictionary
280
     1
281
     1
  3
ACAD_XREC_ROUNDTRIP
360
2CD
  0
DICTIONARY
  5
2CA
330
30
100
AcDbDictionary
280
     1
281
     1
  3
ACAD_XREC_ROUNDTRIP
360
2CB
  0
DICTIONARY
  5
2CE
330
32
100
AcDbDictionary
280
     1
281
     1
  3
ACAD_XREC_ROUNDTRIP
360
2CF
  0
DICTIONARY
  5
2D6
330
36
100
AcDbDictionary
280
     1
281
     1
  3
ACAD_XREC_ROUNDTRIP
360
2D7
  0
DICTIONARY
  5
2DE
330
3A
100
AcDbDictionary
280
     1
281
     1
  3
ACAD_XREC_ROUNDTRIP
360
2DF
  0
DICTIONARY
  5
2D2
330
34
100
AcDbDictionary
280
     1
281
     1
  3
ACAD_XREC_ROUNDTRIP
360
2D3
  0
DICTIONARY
  5
2D4
330
35
100
AcDbDictionary
280
     1
281
     1
  3
ACAD_XREC_ROUNDTRIP
360
2D5
  0
DICTIONARY
  5
2DC
330
39
100
AcDbDictionary
280
     1
281
     1
  3
ACAD_XREC_ROUNDTRIP
360
2DD
  0
DICTIONARY
  5
2C0
330
2B
100
AcDbDictionary
280
     1
281
     1
  3
ACAD_XREC_ROUNDTRIP
360
2C1
  0
DICTIONARY
  5
2C2
330
2C
100
AcDbDictionary
280
     1
281
     1
  3
ACAD_XREC_ROUNDTRIP
360
2C3
  0
DICTIONARY
  5
2C4
330
2D
100
AcDbDictionary
280
     1
281
     1
  3
ACAD_XREC_ROUNDTRIP
360
2C5
  0
DICTIONARY
  5
2C6
330
2E
100
AcDbDictionary
280
     1
281
     1
  3
ACAD_XREC_ROUNDTRIP
360
2C7
  0
DICTIONARY
  5
2DA
330
38
100
AcDbDictionary
280
     1
281
     1
  3
ACAD_XREC_ROUNDTRIP
360
2DB
  0
DICTIONARY
  5
2D0
330
33
100
AcDbDictionary
280
     1
281
     1
  3
ACAD_XREC_ROUNDTRIP
360
2D1
  0
DICTIONARY
  5
2D8
330
37
100
AcDbDictionary
280
     1
281
     1
  3
ACAD_XREC_ROUNDTRIP
360
2D9
  0
XRECORD
  5
2C9
102
{ACAD_REACTORS
330
2C8
102
}
330
2C8
100
AcDbXrecord
280
     1
102
RTVSPropertyOp0
 70
     1
102
RTVSPropertyOp1
 70
     1
102
RTVSPropertyOp2
 70
     1
102
RTVSPropertyOp3
 70
     1
102
RTVSPropertyOp4
 70
     1
102
RTVSPropertyOp5
 70
     1
102
RTVSPropertyOp6
 70
     1
102
RTVSPropertyOp7
 70
     1
102
RTVSPropertyOp8
 70
     1
102
RTVSPropertyOp9
 70
     1
102
RTVSPropertyOp10
 70
     1
102
RTVSPropertyOp11
 70
     1
102
RTVSPropertyOp12
 70
     1
102
RTVSPropertyOp13
 70
     1
102
RTVSPropertyOp14
 70
     1
102
RTVSPropertyOp15
 70
     1
102
RTVSPropertyOp16
 70
     1
102
RTVSPropertyOp17
 70
     1
102
RTVSPropertyOp18
 70
     1
102
RTVSPropertyOp19
 70
     1
102
RTVSPropertyOp20
 70
     1
102
RTVSPropertyOp21
 70
     1
102
RTVSPropertyOp22
 70
     1
102
RTVSPropertyOp23
 70
     1
102
RTVSPropertyOp24
 70
     1
102
RTVSPropertyOp25
 70
     1
102
RTVSPropertyOp26
 70
     1
102
RTVSPropertyOp27
 70
     1
102
RTVSPropertyOp28
 70
     1
102
RTVSPropertyOp29
 70
     1
102
RTVSPropertyOp30
 70
     1
102
RTVSPropertyOp31
 70
     1
102
RTVSPropertyOp32
 70
     1
  0
XRECORD
  5
2CD
102
{ACAD_REACTORS
330
2CC
102
}
330
2CC
100
AcDbXrecord
280
     1
102
RTVSPropertyOp0
 70
     1
102
RTVSPropertyOp1
 70
     1
102
RTVSPropertyOp2
 70
     1
102
RTVSPropertyOp3
 70
     1
102
RTVSPropertyOp4
 70
     1
102
RTVSPropertyOp5
 70
     1
102
RTVSPropertyOp6
 70
     1
102
RTVSPropertyOp7
 70
     1
102
RTVSPropertyOp8
 70
     1
102
RTVSPropertyOp9
 70
     1
102
RTVSPropertyOp10
 70
     1
102
RTVSPropertyOp11
 70
     1
102
RTVSPropertyOp12
 70
     1
102
RTVSPropertyOp13
 70
     1
102
RTVSPropertyOp14
 70
     1
102
RTVSPropertyOp15
 70
     1
102
RTVSPropertyOp16
 70
     1
102
RTVSPropertyOp17
 70
     1
102
RTVSPropertyOp18
 70
     1
102
RTVSPropertyOp19
 70
     1
102
RTVSPropertyOp20
 70
     1
102
RTVSPropertyOp21
 70
     1
102
RTVSPropertyOp22
 70
     1
102
RTVSPropertyOp23
 70
     1
102
RTVSPropertyOp24
 70
     1
102
RTVSPropertyOp25
 70
     1
102
RTVSPropertyOp26
 70
     1
102
RTVSPropertyOp27
 70
     1
102
RTVSPropertyOp28
 70
     1
102
RTVSPropertyOp29
 70
     1
102
RTVSPropertyOp30
 70
     1
102
RTVSPropertyOp31
 70
     1
102
RTVSPropertyOp32
 70
     1
  0
XRECORD
  5
2CB
102
{ACAD_REACTORS
330
2CA
102
}
330
2CA
100
AcDbXrecord
280
     1
102
RTVSPropertyOp0
 70
     1
102
RTVSPropertyOp1
 70
     1
102
RTVSPropertyOp2
 70
     1
102
RTVSPropertyOp3
 70
     1
102
RTVSPropertyOp4
 70
     1
102
RTVSPropertyOp5
 70
     1
102
RTVSPropertyOp6
 70
     1
102
RTVSPropertyOp7
 70
     1
102
RTVSPropertyOp8
 70
     1
102
RTVSPropertyOp9
 70
     1
102
RTVSPropertyOp10
 70
     1
102
RTVSPropertyOp11
 70
     1
102
RTVSPropertyOp12
 70
     1
102
RTVSPropertyOp13
 70
     1
102
RTVSPropertyOp14
 70
     1
102
RTVSPropertyOp15
 70
     1
102
RTVSPropertyOp16
 70
     1
102
RTVSPropertyOp17
 70
     1
102
RTVSPropertyOp18
 70
     1
102
RTVSPropertyOp19
 70
     1
102
RTVSPropertyOp20
 70
     1
102
RTVSPropertyOp21
 70
     1
102
RTVSPropertyOp22
 70
     1
102
RTVSPropertyOp23
 70
     1
102
RTVSPropertyOp24
 70
     1
102
RTVSPropertyOp25
 70
     1
102
RTVSPropertyOp26
 70
     1
102
RTVSPropertyOp27
 70
     1
102
RTVSPropertyOp28
 70
     1
102
RTVSPropertyOp29
 70
     1
102
RTVSPropertyOp30
 70
     1
102
RTVSPropertyOp31
 70
     1
102
RTVSPropertyOp32
 70
     1
  0
XRECORD
  5
2CF
102
{ACAD_REACTORS
330
2CE
102
}
330
2CE
100
AcDbXrecord
280
     1
102
RTVSPropertyOp0
 70
     1
102
RTVSPropertyOp1
 70
     1
102
RTVSPropertyOp2
 70
     1
102
RTVSPropertyOp3
 70
     1
102
RTVSPropertyOp4
 70
     1
102
RTVSPropertyOp5
 70
     1
102
RTVSPropertyOp6
 70
     1
102
RTVSPropertyOp7
 70
     1
102
RTVSPropertyOp8
 70
     1
102
RTVSPropertyOp9
 70
     1
102
RTVSPropertyOp10
 70
     1
102
RTVSPropertyOp11
 70
     1
102
RTVSPropertyOp12
 70
     1
102
RTVSPropertyOp13
 70
     1
102
RTVSPropertyOp14
 70
     1
102
RTVSPropertyOp15
 70
     1
102
RTVSPropertyOp16
 70
     1
102
RTVSPropertyOp17
 70
     1
102
RTVSPropertyOp18
 70
     1
102
RTVSPropertyOp19
 70
     1
102
RTVSPropertyOp20
 70
     1
102
RTVSPropertyOp21
 70
     1
102
RTVSPropertyOp22
 70
     1
102
RTVSPropertyOp23
 70
     1
102
RTVSPropertyOp24
 70
     1
102
RTVSPropertyOp25
 70
     1
102
RTVSPropertyOp26
 70
     1
102
RTVSPropertyOp27
 70
     1
102
RTVSPropertyOp28
 70
     1
102
RTVSPropertyOp29
 70
     1
102
RTVSPropertyOp30
 70
     1
102
RTVSPropertyOp31
 70
     1
102
RTVSPropertyOp32
 70
     1
  0
XRECORD
  5
2D7
102
{ACAD_REACTORS
330
2D6
102
}
330
2D6
100
AcDbXrecord
280
     1
102
RTVSPropertyOp0
 70
     1
102
RTVSPropertyOp1
 70
     1
102
RTVSPropertyOp2
 70
     1
102
RTVSPropertyOp3
 70
     1
102
RTVSPropertyOp4
 70
     1
102
RTVSPropertyOp5
 70
     1
102
RTVSPropertyOp6
 70
     1
102
RTVSPropertyOp7
 70
     1
102
RTVSPropertyOp8
 70
     1
102
RTVSPropertyOp9
 70
     1
102
RTVSPropertyOp10
 70
     1
102
RTVSPropertyOp11
 70
     1
102
RTVSPropertyOp12
 70
     1
102
RTVSPropertyOp13
 70
     1
102
RTVSPropertyOp14
 70
     1
102
RTVSPropertyOp15
 70
     1
102
RTVSPropertyOp16
 70
     1
102
RTVSPropertyOp17
 70
     1
102
RTVSPropertyOp18
 70
     1
102
RTVSPropertyOp19
 70
     1
102
RTVSPropertyOp20
 70
     1
102
RTVSPropertyOp21
 70
     1
102
RTVSPropertyOp22
 70
     1
102
RTVSPropertyOp23
 70
     1
102
RTVSPropertyOp24
 70
     1
102
RTVSPropertyOp25
 70
     1
102
RTVSPropertyOp26
 70
     1
102
RTVSPropertyOp27
 70
     1
102
RTVSPropertyOp28
 70
     1
102
RTVSPropertyOp29
 70
     1
102
RTVSPropertyOp30
 70
     1
102
RTVSPropertyOp31
 70
     1
102
RTVSPropertyOp32
 70
     1
  0
XRECORD
  5
2DF
102
{ACAD_REACTORS
330
2DE
102
}
330
2DE
100
AcDbXrecord
280
     1
102
RTVSPropertyOp0
 70
     1
102
RTVSPropertyOp1
 70
     1
102
RTVSPropertyOp2
 70
     1
102
RTVSPropertyOp3
 70
     1
102
RTVSPropertyOp4
 70
     1
102
RTVSPropertyOp5
 70
     1
102
RTVSPropertyOp6
 70
     1
102
RTVSPropertyOp7
 70
     1
102
RTVSPropertyOp8
 70
     1
102
RTVSPropertyOp9
 70
     1
102
RTVSPropertyOp10
 70
     1
102
RTVSPropertyOp11
 70
     1
102
RTVSPropertyOp12
 70
     1
102
RTVSPropertyOp13
 70
     1
102
RTVSPropertyOp14
 70
     1
102
RTVSPropertyOp15
 70
     1
102
RTVSPropertyOp16
 70
     1
102
RTVSPropertyOp17
 70
     1
102
RTVSPropertyOp18
 70
     1
102
RTVSPropertyOp19
 70
     1
102
RTVSPropertyOp20
 70
     1
102
RTVSPropertyOp21
 70
     1
102
RTVSPropertyOp22
 70
     1
102
RTVSPropertyOp23
 70
     1
102
RTVSPropertyOp24
 70
     1
102
RTVSPropertyOp25
 70
     1
102
RTVSPropertyOp26
 70
     1
102
RTVSPropertyOp27
 70
     1
102
RTVSPropertyOp28
 70
     1
102
RTVSPropertyOp29
 70
     1
102
RTVSPropertyOp30
 70
     1
102
RTVSPropertyOp31
 70
     1
102
RTVSPropertyOp32
 70
     1
  0
XRECORD
  5
2D3
102
{ACAD_REACTORS
330
2D2
102
}
330
2D2
100
AcDbXrecord
280
     1
102
RTVSPropertyOp0
 70
     1
102
RTVSPropertyOp1
 70
     1
102
RTVSPropertyOp2
 70
     1
102
RTVSPropertyOp3
 70
     1
102
RTVSPropertyOp4
 70
     1
102
RTVSPropertyOp5
 70
     1
102
RTVSPropertyOp6
 70
     1
102
RTVSPropertyOp7
 70
     1
102
RTVSPropertyOp8
 70
     1
102
RTVSPropertyOp9
 70
     1
102
RTVSPropertyOp10
 70
     1
102
RTVSPropertyOp11
 70
     1
102
RTVSPropertyOp12
 70
     1
102
RTVSPropertyOp13
 70
     1
102
RTVSPropertyOp14
 70
     1
102
RTVSPropertyOp15
 70
     1
102
RTVSPropertyOp16
 70
     1
102
RTVSPropertyOp17
 70
     1
102
RTVSPropertyOp18
 70
     1
102
RTVSPropertyOp19
 70
     1
102
RTVSPropertyOp20
 70
     1
102
RTVSPropertyOp21
 70
     1
102
RTVSPropertyOp22
 70
     1
102
RTVSPropertyOp23
 70
     1
102
RTVSPropertyOp24
 70
     1
102
RTVSPropertyOp25
 70
     1
102
RTVSPropertyOp26
 70
     1
102
RTVSPropertyOp27
 70
     1
102
RTVSPropertyOp28
 70
     1
102
RTVSPropertyOp29
 70
     1
102
RTVSPropertyOp30
 70
     1
102
RTVSPropertyOp31
 70
     1
102
RTVSPropertyOp32
 70
     1
  0
XRECORD
  5
2D5
102
{ACAD_REACTORS
330
2D4
102
}
330
2D4
100
AcDbXrecord
280
     1
102
RTVSPropertyOp0
 70
     1
102
RTVSPropertyOp1
 70
     1
102
RTVSPropertyOp2
 70
     1
102
RTVSPropertyOp3
 70
     1
102
RTVSPropertyOp4
 70
     1
102
RTVSPropertyOp5
 70
     1
102
RTVSPropertyOp6
 70
     1
102
RTVSPropertyOp7
 70
     1
102
RTVSPropertyOp8
 70
     1
102
RTVSPropertyOp9
 70
     1
102
RTVSPropertyOp10
 70
     1
102
RTVSPropertyOp11
 70
     1
102
RTVSPropertyOp12
 70
     1
102
RTVSPropertyOp13
 70
     1
102
RTVSPropertyOp14
 70
     1
102
RTVSPropertyOp15
 70
     1
102
RTVSPropertyOp16
 70
     1
102
RTVSPropertyOp17
 70
     1
102
RTVSPropertyOp18
 70
     1
102
RTVSPropertyOp19
 70
     1
102
RTVSPropertyOp20
 70
     1
102
RTVSPropertyOp21
 70
     1
102
RTVSPropertyOp22
 70
     1
102
RTVSPropertyOp23
 70
     1
102
RTVSPropertyOp24
 70
     1
102
RTVSPropertyOp25
 70
     1
102
RTVSPropertyOp26
 70
     1
102
RTVSPropertyOp27
 70
     1
102
RTVSPropertyOp28
 70
     1
102
RTVSPropertyOp29
 70
     1
102
RTVSPropertyOp30
 70
     1
102
RTVSPropertyOp31
 70
     1
102
RTVSPropertyOp32
 70
     1
  0
XRECORD
  5
2DD
102
{ACAD_REACTORS
330
2DC
102
}
330
2DC
100
AcDbXrecord
280
     1
102
RTVSPropertyOp0
 70
     1
102
RTVSPropertyOp1
 70
     1
102
RTVSPropertyOp2
 70
     1
102
RTVSPropertyOp3
 70
     1
102
RTVSPropertyOp4
 70
     1
102
RTVSPropertyOp5
 70
     1
102
RTVSPropertyOp6
 70
     1
102
RTVSPropertyOp7
 70
     1
102
RTVSPropertyOp8
 70
     1
102
RTVSPropertyOp9
 70
     1
102
RTVSPropertyOp10
 70
     1
102
RTVSPropertyOp11
 70
     1
102
RTVSPropertyOp12
 70
     1
102
RTVSPropertyOp13
 70
     1
102
RTVSPropertyOp14
 70
     1
102
RTVSPropertyOp15
 70
     1
102
RTVSPropertyOp16
 70
     1
102
RTVSPropertyOp17
 70
     1
102
RTVSPropertyOp18
 70
     1
102
RTVSPropertyOp19
 70
     1
102
RTVSPropertyOp20
 70
     1
102
RTVSPropertyOp21
 70
     1
102
RTVSPropertyOp22
 70
     1
102
RTVSPropertyOp23
 70
     1
102
RTVSPropertyOp24
 70
     1
102
RTVSPropertyOp25
 70
     1
102
RTVSPropertyOp26
 70
     1
102
RTVSPropertyOp27
 70
     1
102
RTVSPropertyOp28
 70
     1
102
RTVSPropertyOp29
 70
     1
102
RTVSPropertyOp30
 70
     1
102
RTVSPropertyOp31
 70
     1
102
RTVSPropertyOp32
 70
     1
  0
XRECORD
  5
2C1
102
{ACAD_REACTORS
330
2C0
102
}
330
2C0
100
AcDbXrecord
280
     1
102
RTVSPropertyOp0
 70
     1
102
RTVSPropertyOp1
 70
     1
102
RTVSPropertyOp2
 70
     1
102
RTVSPropertyOp3
 70
     1
102
RTVSPropertyOp4
 70
     1
102
RTVSPropertyOp5
 70
     1
102
RTVSPropertyOp6
 70
     1
102
RTVSPropertyOp7
 70
     1
102
RTVSPropertyOp8
 70
     1
102
RTVSPropertyOp9
 70
     1
102
RTVSPropertyOp10
 70
     1
102
RTVSPropertyOp11
 70
     1
102
RTVSPropertyOp12
 70
     1
102
RTVSPropertyOp13
 70
     1
102
RTVSPropertyOp14
 70
     1
102
RTVSPropertyOp15
 70
     1
102
RTVSPropertyOp16
 70
     1
102
RTVSPropertyOp17
 70
     1
102
RTVSPropertyOp18
 70
     1
102
RTVSPropertyOp19
 70
     1
102
RTVSPropertyOp20
 70
     1
102
RTVSPropertyOp21
 70
     1
102
RTVSPropertyOp22
 70
     1
102
RTVSPropertyOp23
 70
     1
102
RTVSPropertyOp24
 70
     1
102
RTVSPropertyOp25
 70
     1
102
RTVSPropertyOp26
 70
     1
102
RTVSPropertyOp27
 70
     1
102
RTVSPropertyOp28
 70
     1
102
RTVSPropertyOp29
 70
     1
102
RTVSPropertyOp30
 70
     1
102
RTVSPropertyOp31
 70
     1
102
RTVSPropertyOp32
 70
     1
  0
XRECORD
  5
2C3
102
{ACAD_REACTORS
330
2C2
102
}
330
2C2
100
AcDbXrecord
280
     1
102
RTVSPropertyOp0
 70
     1
102
RTVSPropertyOp1
 70
     1
102
RTVSPropertyOp2
 70
     1
102
RTVSPropertyOp3
 70
     1
102
RTVSPropertyOp4
 70
     1
102
RTVSPropertyOp5
 70
     1
102
RTVSPropertyOp6
 70
     1
102
RTVSPropertyOp7
 70
     1
102
RTVSPropertyOp8
 70
     1
102
RTVSPropertyOp9
 70
     1
102
RTVSPropertyOp10
 70
     1
102
RTVSPropertyOp11
 70
     1
102
RTVSPropertyOp12
 70
     1
102
RTVSPropertyOp13
 70
     1
102
RTVSPropertyOp14
 70
     1
102
RTVSPropertyOp15
 70
     1
102
RTVSPropertyOp16
 70
     1
102
RTVSPropertyOp17
 70
     1
102
RTVSPropertyOp18
 70
     1
102
RTVSPropertyOp19
 70
     1
102
RTVSPropertyOp20
 70
     1
102
RTVSPropertyOp21
 70
     1
102
RTVSPropertyOp22
 70
     1
102
RTVSPropertyOp23
 70
     1
102
RTVSPropertyOp24
 70
     1
102
RTVSPropertyOp25
 70
     1
102
RTVSPropertyOp26
 70
     1
102
RTVSPropertyOp27
 70
     1
102
RTVSPropertyOp28
 70
     1
102
RTVSPropertyOp29
 70
     1
102
RTVSPropertyOp30
 70
     1
102
RTVSPropertyOp31
 70
     1
102
RTVSPropertyOp32
 70
     1
  0
XRECORD
  5
2C5
102
{ACAD_REACTORS
330
2C4
102
}
330
2C4
100
AcDbXrecord
280
     1
102
RTVSPropertyOp0
 70
     1
102
RTVSPropertyOp1
 70
     1
102
RTVSPropertyOp2
 70
     1
102
RTVSPropertyOp3
 70
     1
102
RTVSPropertyOp4
 70
     1
102
RTVSPropertyOp5
 70
     1
102
RTVSPropertyOp6
 70
     1
102
RTVSPropertyOp7
 70
     1
102
RTVSPropertyOp8
 70
     1
102
RTVSPropertyOp9
 70
     1
102
RTVSPropertyOp10
 70
     1
102
RTVSPropertyOp11
 70
     1
102
RTVSPropertyOp12
 70
     1
102
RTVSPropertyOp13
 70
     1
102
RTVSPropertyOp14
 70
     1
102
RTVSPropertyOp15
 70
     1
102
RTVSPropertyOp16
 70
     1
102
RTVSPropertyOp17
 70
     1
102
RTVSPropertyOp18
 70
     1
102
RTVSPropertyOp19
 70
     1
102
RTVSPropertyOp20
 70
     1
102
RTVSPropertyOp21
 70
     1
102
RTVSPropertyOp22
 70
     1
102
RTVSPropertyOp23
 70
     1
102
RTVSPropertyOp24
 70
     1
102
RTVSPropertyOp25
 70
     1
102
RTVSPropertyOp26
 70
     1
102
RTVSPropertyOp27
 70
     1
102
RTVSPropertyOp28
 70
     1
102
RTVSPropertyOp29
 70
     1
102
RTVSPropertyOp30
 70
     1
102
RTVSPropertyOp31
 70
     1
102
RTVSPropertyOp32
 70
     1
  0
XRECORD
  5
2C7
102
{ACAD_REACTORS
330
2C6
102
}
330
2C6
100
AcDbXrecord
280
     1
102
RTVSPropertyOp0
 70
     1
102
RTVSPropertyOp1
 70
     1
102
RTVSPropertyOp2
 70
     1
102
RTVSPropertyOp3
 70
     1
102
RTVSPropertyOp4
 70
     1
102
RTVSPropertyOp5
 70
     1
102
RTVSPropertyOp6
 70
     1
102
RTVSPropertyOp7
 70
     1
102
RTVSPropertyOp8
 70
     1
102
RTVSPropertyOp9
 70
     1
102
RTVSPropertyOp10
 70
     1
102
RTVSPropertyOp11
 70
     1
102
RTVSPropertyOp12
 70
     1
102
RTVSPropertyOp13
 70
     1
102
RTVSPropertyOp14
 70
     1
102
RTVSPropertyOp15
 70
     1
102
RTVSPropertyOp16
 70
     1
102
RTVSPropertyOp17
 70
     1
102
RTVSPropertyOp18
 70
     1
102
RTVSPropertyOp19
 70
     1
102
RTVSPropertyOp20
 70
     1
102
RTVSPropertyOp21
 70
     1
102
RTVSPropertyOp22
 70
     1
102
RTVSPropertyOp23
 70
     1
102
RTVSPropertyOp24
 70
     1
102
RTVSPropertyOp25
 70
     1
102
RTVSPropertyOp26
 70
     1
102
RTVSPropertyOp27
 70
     1
102
RTVSPropertyOp28
 70
     1
102
RTVSPropertyOp29
 70
     1
102
RTVSPropertyOp30
 70
     1
102
RTVSPropertyOp31
 70
     1
102
RTVSPropertyOp32
 70
     1
  0
XRECORD
  5
2DB
102
{ACAD_REACTORS
330
2DA
102
}
330
2DA
100
AcDbXrecord
280
     1
102
RTVSPropertyOp0
 70
     1
102
RTVSPropertyOp1
 70
     1
102
RTVSPropertyOp2
 70
     1
102
RTVSPropertyOp3
 70
     1
102
RTVSPropertyOp4
 70
     1
102
RTVSPropertyOp5
 70
     1
102
RTVSPropertyOp6
 70
     1
102
RTVSPropertyOp7
 70
     1
102
RTVSPropertyOp8
 70
     1
102
RTVSPropertyOp9
 70
     1
102
RTVSPropertyOp10
 70
     1
102
RTVSPropertyOp11
 70
     1
102
RTVSPropertyOp12
 70
     1
102
RTVSPropertyOp13
 70
     1
102
RTVSPropertyOp14
 70
     1
102
RTVSPropertyOp15
 70
     1
102
RTVSPropertyOp16
 70
     1
102
RTVSPropertyOp17
 70
     1
102
RTVSPropertyOp18
 70
     1
102
RTVSPropertyOp19
 70
     1
102
RTVSPropertyOp20
 70
     1
102
RTVSPropertyOp21
 70
     1
102
RTVSPropertyOp22
 70
     1
102
RTVSPropertyOp23
 70
     1
102
RTVSPropertyOp24
 70
     1
102
RTVSPropertyOp25
 70
     1
102
RTVSPropertyOp26
 70
     1
102
RTVSPropertyOp27
 70
     1
102
RTVSPropertyOp28
 70
     1
102
RTVSPropertyOp29
 70
     1
102
RTVSPropertyOp30
 70
     1
102
RTVSPropertyOp31
 70
     1
102
RTVSPropertyOp32
 70
     1
  0
XRECORD
  5
2D1
102
{ACAD_REACTORS
330
2D0
102
}
330
2D0
100
AcDbXrecord
280
     1
102
RTVSPropertyOp0
 70
     1
102
RTVSPropertyOp1
 70
     1
102
RTVSPropertyOp2
 70
     1
102
RTVSPropertyOp3
 70
     1
102
RTVSPropertyOp4
 70
     1
102
RTVSPropertyOp5
 70
     1
102
RTVSPropertyOp6
 70
     1
102
RTVSPropertyOp7
 70
     1
102
RTVSPropertyOp8
 70
     1
102
RTVSPropertyOp9
 70
     1
102
RTVSPropertyOp10
 70
     1
102
RTVSPropertyOp11
 70
     1
102
RTVSPropertyOp12
 70
     1
102
RTVSPropertyOp13
 70
     1
102
RTVSPropertyOp14
 70
     1
102
RTVSPropertyOp15
 70
     1
102
RTVSPropertyOp16
 70
     1
102
RTVSPropertyOp17
 70
     1
102
RTVSPropertyOp18
 70
     1
102
RTVSPropertyOp19
 70
     1
102
RTVSPropertyOp20
 70
     1
102
RTVSPropertyOp21
 70
     1
102
RTVSPropertyOp22
 70
     1
102
RTVSPropertyOp23
 70
     1
102
RTVSPropertyOp24
 70
     1
102
RTVSPropertyOp25
 70
     1
102
RTVSPropertyOp26
 70
     1
102
RTVSPropertyOp27
 70
     1
102
RTVSPropertyOp28
 70
     1
102
RTVSPropertyOp29
 70
     1
102
RTVSPropertyOp30
 70
     1
102
RTVSPropertyOp31
 70
     1
102
RTVSPropertyOp32
 70
     1
  0
XRECORD
  5
2D9
102
{ACAD_REACTORS
330
2D8
102
}
330
2D8
100
AcDbXrecord
280
     1
102
RTVSPropertyOp0
 70
     1
102
RTVSPropertyOp1
 70
     1
102
RTVSPropertyOp2
 70
     1
102
RTVSPropertyOp3
 70
     1
102
RTVSPropertyOp4
 70
     1
102
RTVSPropertyOp5
 70
     1
102
RTVSPropertyOp6
 70
     1
102
RTVSPropertyOp7
 70
     1
102
RTVSPropertyOp8
 70
     1
102
RTVSPropertyOp9
 70
     1
102
RTVSPropertyOp10
 70
     1
102
RTVSPropertyOp11
 70
     1
102
RTVSPropertyOp12
 70
     1
102
RTVSPropertyOp13
 70
     1
102
RTVSPropertyOp14
 70
     1
102
RTVSPropertyOp15
 70
     1
102
RTVSPropertyOp16
 70
     1
102
RTVSPropertyOp17
 70
     1
102
RTVSPropertyOp18
 70
     1
102
RTVSPropertyOp19
 70
     1
102
RTVSPropertyOp20
 70
     1
102
RTVSPropertyOp21
 70
     1
102
RTVSPropertyOp22
 70
     1
102
RTVSPropertyOp23
 70
     1
102
RTVSPropertyOp24
 70
     1
102
RTVSPropertyOp25
 70
     1
102
RTVSPropertyOp26
 70
     1
102
RTVSPropertyOp27
 70
     1
102
RTVSPropertyOp28
 70
     1
102
RTVSPropertyOp29
 70
     1
102
RTVSPropertyOp30
 70
     1
102
RTVSPropertyOp31
 70
     1
102
RTVSPropertyOp32
 70
     1
  0
ENDSEC
  0
EOF
