  0
SECTION
  2
HEADER
  9
$ACADVER
  1
AC1021
  9
$ACADMAINTVER
 70
    25
  9
$DWGCODEPAGE
  3
ANSI_932
  9
$INSBASE
 10
0.0
 20
0.0
 30
0.0
  9
$EXTMIN
 10
1.000000000000000E+20
 20
1.000000000000000E+20
 30
1.000000000000000E+20
  9
$EXTMAX
 10
-1.000000000000000E+20
 20
-1.000000000000000E+20
 30
-1.000000000000000E+20
  9
$LIMMIN
 10
0.0
 20
0.0
  9
$LIMMAX
 10
12.0
 20
9.0
  9
$ORTHOMODE
 70
     0
  9
$REGENMODE
 70
     1
  9
$FILLMODE
 70
     1
  9
$QTEXTMODE
 70
     0
  9
$MIRRTEXT
 70
     1
  9
$LTSCALE
 40
1.0
  9
$ATTMODE
 70
     1
  9
$TEXTSIZE
 40
0.2
  9
$TRACEWID
 40
0.05
  9
$TEXTSTYLE
  7
Standard
  9
$CLAYER
  8
0
  9
$CELTYPE
  6
ByLayer
  9
$CECOLOR
 62
   256
  9
$CELTSCALE
 40
1.0
  9
$DISPSILH
 70
     0
  9
$DIMSCALE
 40
1.0
  9
$DIMASZ
 40
0.18
  9
$DIMEXO
 40
0.0625
  9
$DIMDLI
 40
0.38
  9
$DIMRND
 40
0.0
  9
$DIMDLE
 40
0.0
  9
$DIMEXE
 40
0.18
  9
$DIMTP
 40
0.0
  9
$DIMTM
 40
0.0
  9
$DIMTXT
 40
0.18
  9
$DIMCEN
 40
0.09
  9
$DIMTSZ
 40
0.0
  9
$DIMTOL
 70
     0
  9
$DIMLIM
 70
     0
  9
$DIMTIH
 70
     1
  9
$DIMTOH
 70
     1
  9
$DIMSE1
 70
     0
  9
$DIMSE2
 70
     0
  9
$DIMTAD
 70
     0
  9
$DIMZIN
 70
     0
  9
$DIMBLK
  1

  9
$DIMASO
 70
     1
  9
$DIMSHO
 70
     1
  9
$DIMPOST
  1

  9
$DIMAPOST
  1

  9
$DIMALT
 70
     0
  9
$DIMALTD
 70
     2
  9
$DIMALTF
 40
25.4
  9
$DIMLFAC
 40
1.0
  9
$DIMTOFL
 70
     0
  9
$DIMTVP
 40
0.0
  9
$DIMTIX
 70
     0
  9
$DIMSOXD
 70
     0
  9
$DIMSAH
 70
     0
  9
$DIMBLK1
  1

  9
$DIMBLK2
  1

  9
$DIMSTYLE
  2
Standard
  9
$DIMCLRD
 70
     0
  9
$DIMCLRE
 70
     0
  9
$DIMCLRT
 70
     0
  9
$DIMTFAC
 40
1.0
  9
$DIMGAP
 40
0.09
  9
$DIMJUST
 70
     0
  9
$DIMSD1
 70
     0
  9
$DIMSD2
 70
     0
  9
$DIMTOLJ
 70
     1
  9
$DIMTZIN
 70
     0
  9
$DIMALTZ
 70
     0
  9
$DIMALTTZ
 70
     0
  9
$DIMUPT
 70
     0
  9
$DIMDEC
 70
     4
  9
$DIMTDEC
 70
     4
  9
$DIMALTU
 70
     2
  9
$DIMALTTD
 70
     2
  9
$DIMTXSTY
  7
Standard
  9
$DIMAUNIT
 70
     0
  9
$DIMADEC
 70
     0
  9
$DIMALTRND
 40
0.0
  9
$DIMAZIN
 70
     0
  9
$DIMDSEP
 70
    46
  9
$DIMATFIT
 70
     3
  9
$DIMFRAC
 70
     0
  9
$DIMLDRBLK
  1

  9
$DIMLUNIT
 70
     2
  9
$DIMLWD
 70
    -2
  9
$DIMLWE
 70
    -2
  9
$DIMTMOVE
 70
     0
  9
$DIMFXL
 40
1.0
  9
$DIMFXLON
 70
     0
  9
$DIMJOGANG
 40
0.7853981633974483
  9
$DIMTFILL
 70
     0
  9
$DIMTFILLCLR
 70
     0
  9
$DIMARCSYM
 70
     0
  9
$DIMLTYPE
  6

  9
$DIMLTEX1
  6

  9
$DIMLTEX2
  6

  9
$LUNITS
 70
     2
  9
$LUPREC
 70
     4
  9
$SKETCHINC
 40
0.1
  9
$FILLETRAD
 40
0.5
  9
$AUNITS
 70
     0
  9
$AUPREC
 70
     0
  9
$MENU
  1
.
  9
$ELEVATION
 40
0.0
  9
$PELEVATION
 40
0.0
  9
$THICKNESS
 40
0.0
  9
$LIMCHECK
 70
     0
  9
$CHAMFERA
 40
0.5
  9
$CHAMFERB
 40
0.5
  9
$CHAMFERC
 40
1.0
  9
$CHAMFERD
 40
0.0
  9
$SKPOLY
 70
     0
  9
$TDCREATE
 40
2458514.612415961
  9
$TDUCREATE
 40
2458514.237415961
  9
$TDUPDATE
 40
2458514.61241603
  9
$TDUUPDATE
 40
2458514.23741603
  9
$TDINDWG
 40
0.0000000116
  9
$TDUSRTIMER
 40
0.0000000116
  9
$USRTIMER
 70
     1
  9
$ANGBASE
 50
0.0
  9
$ANGDIR
 70
     0
  9
$PDMODE
 70
     0
  9
$PDSIZE
 40
0.0
  9
$PLINEWID
 40
0.0
  9
$SPLFRAME
 70
     0
  9
$SPLINETYPE
 70
     6
  9
$SPLINESEGS
 70
     8
  9
$HANDSEED
  5
17E
  9
$SURFTAB1
 70
     6
  9
$SURFTAB2
 70
     6
  9
$SURFTYPE
 70
     6
  9
$SURFU
 70
     6
  9
$SURFV
 70
     6
  9
$UCSBASE
  2

  9
$UCSNAME
  2

  9
$UCSORG
 10
0.0
 20
0.0
 30
0.0
  9
$UCSXDIR
 10
1.0
 20
0.0
 30
0.0
  9
$UCSYDIR
 10
0.0
 20
1.0
 30
0.0
  9
$UCSORTHOREF
  2

  9
$UCSORTHOVIEW
 70
     0
  9
$UCSORGTOP
 10
0.0
 20
0.0
 30
0.0
  9
$UCSORGBOTTOM
 10
0.0
 20
0.0
 30
0.0
  9
$UCSORGLEFT
 10
0.0
 20
0.0
 30
0.0
  9
$UCSORGRIGHT
 10
0.0
 20
0.0
 30
0.0
  9
$UCSORGFRONT
 10
0.0
 20
0.0
 30
0.0
  9
$UCSORGBACK
 10
0.0
 20
0.0
 30
0.0
  9
$PUCSBASE
  2

  9
$PUCSNAME
  2

  9
$PUCSORG
 10
0.0
 20
0.0
 30
0.0
  9
$PUCSXDIR
 10
1.0
 20
0.0
 30
0.0
  9
$PUCSYDIR
 10
0.0
 20
1.0
 30
0.0
  9
$PUCSORTHOREF
  2

  9
$PUCSORTHOVIEW
 70
     0
  9
$PUCSORGTOP
 10
0.0
 20
0.0
 30
0.0
  9
$PUCSORGBOTTOM
 10
0.0
 20
0.0
 30
0.0
  9
$PUCSORGLEFT
 10
0.0
 20
0.0
 30
0.0
  9
$PUCSORGRIGHT
 10
0.0
 20
0.0
 30
0.0
  9
$PUCSORGFRONT
 10
0.0
 20
0.0
 30
0.0
  9
$PUCSORGBACK
 10
0.0
 20
0.0
 30
0.0
  9
$USERI1
 70
     0
  9
$USERI2
 70
     0
  9
$USERI3
 70
     0
  9
$USERI4
 70
     0
  9
$USERI5
 70
     0
  9
$USERR1
 40
0.0
  9
$USERR2
 40
0.0
  9
$USERR3
 40
0.0
  9
$USERR4
 40
0.0
  9
$USERR5
 40
0.0
  9
$WORLDVIEW
 70
     1
  9
$SHADEDGE
 70
     3
  9
$SHADEDIF
 70
    70
  9
$TILEMODE
 70
     1
  9
$MAXACTVP
 70
    64
  9
$PINSBASE
 10
0.0
 20
0.0
 30
0.0
  9
$PLIMCHECK
 70
     0
  9
$PEXTMIN
 10
1.000000000000000E+20
 20
1.000000000000000E+20
 30
1.000000000000000E+20
  9
$PEXTMAX
 10
-1.000000000000000E+20
 20
-1.000000000000000E+20
 30
-1.000000000000000E+20
  9
$PLIMMIN
 10
0.0
 20
0.0
  9
$PLIMMAX
 10
12.0
 20
9.0
  9
$UNITMODE
 70
     0
  9
$VISRETAIN
 70
     1
  9
$PLINEGEN
 70
     0
  9
$PSLTSCALE
 70
     1
  9
$TREEDEPTH
 70
  3020
  9
$CMLSTYLE
  2
Standard
  9
$CMLJUST
 70
     0
  9
$CMLSCALE
 40
1.0
  9
$PROXYGRAPHICS
 70
     1
  9
$MEASUREMENT
 70
     0
  9
$CELWEIGHT
370
    -1
  9
$ENDCAPS
280
     0
  9
$JOINSTYLE
280
     0
  9
$LWDISPLAY
290
     1
  9
$INSUNITS
 70
     1
  9
$HYPERLINKBASE
  1

  9
$STYLESHEET
  1

  9
$XEDIT
290
     1
  9
$CEPSNTYPE
380
     0
  9
$PSTYLEMODE
290
     1
  9
$FINGERPRINTGUID
  2
{75BA8868-9081-4FE2-8E29-E29EF87DE3A7}
  9
$VERSIONGUID
  2
{FAEB1C32-E019-11D5-929B-00C0DF256EC4}
  9
$EXTNAMES
290
     1
  9
$PSVPSCALE
 40
0.0
  9
$OLESTARTUP
290
     0
  9
$SORTENTS
280
   127
  9
$INDEXCTL
280
     0
  9
$HIDETEXT
280
     1
  9
$XCLIPFRAME
290
     0
  9
$HALOGAP
280
     0
  9
$OBSCOLOR
 70
   257
  9
$OBSLTYPE
280
     0
  9
$INTERSECTIONDISPLAY
280
     0
  9
$INTERSECTIONCOLOR
 70
   257
  9
$DIMASSOC
280
     2
  9
$PROJECTNAME
  1

  9
$CAMERADISPLAY
290
     0
  9
$LENSLENGTH
 40
50.0
  9
$CAMERAHEIGHT
 40
0.0
  9
$STEPSPERSEC
 40
2.0
  9
$STEPSIZE
 40
6.0
  9
$3DDWFPREC
 40
2.0
  9
$PSOLWIDTH
 40
0.25
  9
$PSOLHEIGHT
 40
4.0
  9
$LOFTANG1
 40
1.570796326794897
  9
$LOFTANG2
 40
1.570796326794897
  9
$LOFTMAG1
 40
0.0
  9
$LOFTMAG2
 40
0.0
  9
$LOFTPARAM
 70
     7
  9
$LOFTNORMALS
280
     1
  9
$LATITUDE
 40
37.795
  9
$LONGITUDE
 40
-122.394
  9
$NORTHDIRECTION
 40
0.0
  9
$TIMEZONE
 70
 -8000
  9
$LIGHTGLYPHDISPLAY
280
     1
  9
$TILEMODELIGHTSYNCH
280
     1
  9
$CMATERIAL
347
3C
  9
$SOLIDHIST
280
     1
  9
$SHOWHIST
280
     1
  9
$DWFFRAME
280
     2
  9
$DGNFRAME
280
     2
  9
$REALWORLDSCALE
290
     1
  9
$INTERFERECOLOR
 62
   256
  9
$CSHADOW
280
     0
  9
$SHADOWPLANELOCATION
 40
0.0
  0
ENDSEC
  0
SECTION
  2
CLASSES
  0
CLASS
  1
ACDBDICTIONARYWDFLT
  2
AcDbDictionaryWithDefault
  3
ObjectDBX Classes
 90
        0
 91
        4
280
     0
281
     0
  0
CLASS
  1
VISUALSTYLE
  2
AcDbVisualStyle
  3
ObjectDBX Classes
 90
     4095
 91
        4
280
     0
281
     0
  0
CLASS
  1
MATERIAL
  2
AcDbMaterial
  3
ObjectDBX Classes
 90
     1153
 91
        4
280
     0
281
     0
  0
CLASS
  1
SUN
  2
AcDbSun
  3
SCENEOE
 90
     1024
 91
        4
280
     0
281
     0
  0
ENDSEC
  0
SECTION
  2
TABLES
  0
TABLE
  2
VPORT
  5
8
330
0
100
AcDbSymbolTable
 70
     1
  0
VPORT
  5
29
330
8
100
AcDbSymbolTableRecord
100
AcDbViewportTableRecord
  2
*Active
 70
     0
 10
0.0
 20
0.0
 11
1.0
 21
1.0
 12
0.0
 22
0.0
 13
0.0
 23
0.0
 14
0.5
 24
0.5
 15
0.5
 25
0.5
 16
0.0
 26
0.0
 36
1.0
 17
148.3916656437123
 27
104.8915941359208
 37
0.0
 40
297.0000052006764
 41
0.7070706878738762
 42
50.0
 43
0.0
 44
0.0
 50
0.0
 51
0.0
 71
     0
 72
   100
 73
     1
 74
     3
 75
     0
 76
     0
 77
     0
 78
     0
281
     0
 65
     1
110
0.0
120
0.0
130
0.0
111
1.0
121
0.0
131
0.0
112
0.0
122
1.0
132
0.0
 79
     0
146
0.0
 60
     3
 61
     5
292
     1
282
     1
141
0.0
142
0.0
 63
   250
361
3F
  0
ENDTAB
  0
TABLE
  2
LTYPE
  5
5
330
0
100
AcDbSymbolTable
 70
     1
  0
LTYPE
  5
14
330
5
100
AcDbSymbolTableRecord
100
AcDbLinetypeTableRecord
  2
ByBlock
 70
     0
  3

 72
    65
 73
     0
 40
0.0
  0
LTYPE
  5
15
330
5
100
AcDbSymbolTableRecord
100
AcDbLinetypeTableRecord
  2
ByLayer
 70
     0
  3

 72
    65
 73
     0
 40
0.0
  0
LTYPE
  5
16
330
5
100
AcDbSymbolTableRecord
100
AcDbLinetypeTableRecord
  2
Continuous
 70
     0
  3
Solid line
 72
    65
 73
     0
 40
0.0
  0
ENDTAB
  0
TABLE
  2
LAYER
  5
2
330
0
100
AcDbSymbolTable
 70
     2
  0
LAYER
  5
10
330
2
100
AcDbSymbolTableRecord
100
AcDbLayerTableRecord
  2
0
 70
     0
 62
     7
  6
Continuous
370
    -3
390
F
347
3E
  0
LAYER
  5
40
330
2
100
AcDbSymbolTableRecord
100
AcDbLayerTableRecord
  2
_U+30EC_U+30A4_U+30E4_U+30FC 1
 70
     0
 62
     7
  6
Continuous
370
    -3
390
F
347
3E
  0
ENDTAB
  0
TABLE
  2
STYLE
  5
3
330
0
100
AcDbSymbolTable
 70
     1
  0
STYLE
  5
11
330
3
100
AcDbSymbolTableRecord
100
AcDbTextStyleTableRecord
  2
Standard
 70
     0
 40
0.0
 41
1.0
 50
0.0
 71
     0
 42
0.2
  3
txt
  4

  0
ENDTAB
  0
TABLE
  2
VIEW
  5
6
330
0
100
AcDbSymbolTable
 70
     0
  0
ENDTAB
  0
TABLE
  2
UCS
  5
7
330
0
100
AcDbSymbolTable
 70
     0
  0
ENDTAB
  0
TABLE
  2
APPID
  5
9
330
0
100
AcDbSymbolTable
 70
     1
  0
APPID
  5
12
330
9
100
AcDbSymbolTableRecord
100
AcDbRegAppTableRecord
  2
ACAD
 70
     0
  0
ENDTAB
  0
TABLE
  2
DIMSTYLE
  5
A
330
0
100
AcDbSymbolTable
 70
     1
100
AcDbDimStyleTable
  0
DIMSTYLE
105
27
330
A
100
AcDbSymbolTableRecord
100
AcDbDimStyleTableRecord
  2
Standard
 70
     0
178
     0
340
11
  0
ENDTAB
  0
TABLE
  2
BLOCK_RECORD
  5
1
330
0
100
AcDbSymbolTable
 70
     5
  0
BLOCK_RECORD
  5
1F
330
1
100
AcDbSymbolTableRecord
100
AcDbBlockTableRecord
  2
*Model_Space
340
22
 70
     0
280
     1
281
     0
  0
BLOCK_RECORD
  5
1B
330
1
100
AcDbSymbolTableRecord
100
AcDbBlockTableRecord
  2
*Paper_Space
340
1E
 70
     0
280
     1
281
     0
  0
BLOCK_RECORD
  5
23
330
1
100
AcDbSymbolTableRecord
100
AcDbBlockTableRecord
  2
*Paper_Space0
340
26
 70
     0
280
     1
281
     0
  0
BLOCK_RECORD
  5
41
330
1
100
AcDbSymbolTableRecord
100
AcDbBlockTableRecord
  2
block 2
340
0
102
{BLKREFS
331
42
102
}
 70
     0
280
     1
281
     0
  0
BLOCK_RECORD
  5
4A
330
1
100
AcDbSymbolTableRecord
100
AcDbBlockTableRecord
  2
block 3
340
0
102
{BLKREFS
331
4B
102
}
 70
     0
280
     1
281
     0
  0
BLOCK_RECORD
  5
4E
330
1
100
AcDbSymbolTableRecord
100
AcDbBlockTableRecord
  2
block 4
340
0
102
{BLKREFS
331
4F
102
}
 70
     0
280
     1
281
     0
  0
BLOCK_RECORD
  5
F7
330
1
100
AcDbSymbolTableRecord
100
AcDbBlockTableRecord
  2
block 5
340
0
102
{BLKREFS
331
F8
102
}
 70
     0
280
     1
281
     0
  0
ENDTAB
  0
ENDSEC
  0
SECTION
  2
BLOCKS
  0
BLOCK
  5
20
330
1F
100
AcDbEntity
  8
0
100
AcDbBlockBegin
  2
*Model_Space
 70
     0
 10
0.0
 20
0.0
 30
0.0
  3
*Model_Space
  1

  0
ENDBLK
  5
21
330
1F
100
AcDbEntity
  8
0
100
AcDbBlockEnd
  0
BLOCK
  5
1C
330
1B
100
AcDbEntity
 67
     1
  8
0
100
AcDbBlockBegin
  2
*Paper_Space
 70
     0
 10
0.0
 20
0.0
 30
0.0
  3
*Paper_Space
  1

  0
ENDBLK
  5
1D
330
1B
100
AcDbEntity
 67
     1
  8
0
100
AcDbBlockEnd
  0
BLOCK
  5
24
330
23
100
AcDbEntity
  8
0
100
AcDbBlockBegin
  2
*Paper_Space0
 70
     0
 10
0.0
 20
0.0
 30
0.0
  3
*Paper_Space0
  1

  0
ENDBLK
  5
25
330
23
100
AcDbEntity
  8
0
100
AcDbBlockEnd
  0
BLOCK
  5
43
330
41
100
AcDbEntity
  8
0
100
AcDbBlockBegin
  2
block 2
 70
     0
 10
0.0
 20
0.0
 30
0.0
  3
block 2
  1

  0
POLYLINE
  5
45
330
41
100
AcDbEntity
  8
_U+30EC_U+30A4_U+30E4_U+30FC 1
 62
     7
370
     5
100
AcDb2dPolyline
 66
     1
 10
0.0
 20
0.0
 30
0.0
  0
VERTEX
  5
46
330
45
100
AcDbEntity
  8
_U+30EC_U+30A4_U+30E4_U+30FC 1
 62
     7
370
     5
100
AcDbVertex
100
AcDb2dVertex
 10
111.7912885368555
 20
147.1364106906819
 30
0.0
  0
VERTEX
  5
47
330
45
100
AcDbEntity
  8
_U+30EC_U+30A4_U+30E4_U+30FC 1
 62
     7
370
     5
100
AcDbVertex
100
AcDb2dVertex
 10
113.2626893326503
 20
147.9296315037785
 30
0.0
  0
VERTEX
  5
48
330
45
100
AcDbEntity
  8
_U+30EC_U+30A4_U+30E4_U+30FC 1
 62
     7
370
     5
100
AcDbVertex
100
AcDb2dVertex
 10
116.1336653705167
 20
144.2931666305935
 30
0.0
  0
SEQEND
  5
49
330
45
100
AcDbEntity
  8
_U+30EC_U+30A4_U+30E4_U+30FC 1
 62
     7
370
     5
  0
INSERT
  5
4B
330
41
100
AcDbEntity
  8
_U+30EC_U+30A4_U+30E4_U+30FC 1
100
AcDbBlockReference
  2
block 3
 10
0.0
 20
0.0
 30
0.0
  0
ENDBLK
  5
44
330
41
100
AcDbEntity
  8
0
100
AcDbBlockEnd
  0
BLOCK
  5
4C
330
4A
100
AcDbEntity
  8
0
100
AcDbBlockBegin
  2
block 3
 70
     0
 10
0.0
 20
0.0
 30
0.0
  3
block 3
  1

  0
INSERT
  5
4F
330
4A
100
AcDbEntity
  8
_U+30EC_U+30A4_U+30E4_U+30FC 1
100
AcDbBlockReference
  2
block 4
 10
0.0
 20
0.0
 30
0.0
  0
SPLINE
  5
57
330
4A
100
AcDbEntity
  8
_U+30EC_U+30A4_U+30E4_U+30FC 1
 62
     7
370
     5
100
AcDbSpline
210
0.0
220
0.0
230
1.0
 70
     8
 71
     3
 72
    14
 73
    10
 74
     0
 42
0.0000000001
 43
0.0000000001
 12
1.0
 22
0.0
 32
0.0
 13
1.0
 23
0.0
 33
0.0
 40
0.0
 40
0.0
 40
0.0
 40
0.0
 40
1.0
 40
1.0
 40
1.0
 40
2.0
 40
2.0
 40
2.0
 40
3.0
 40
3.0
 40
3.0
 40
3.0
 10
152.1788082952885
 20
125.8136756791146
 30
0.0
 10
152.1023575084345
 20
125.5053479092029
 30
0.0
 10
152.0120816774043
 20
125.2402354159665
 30
0.0
 10
151.9073419578542
 20
125.018726254951
 30
0.0
 10
151.7798833499948
 20
124.7513944132567
 30
0.0
 10
151.6413827979727
 20
124.5305555244229
 30
0.0
 10
151.4918755795647
 20
124.3514118275312
 30
0.0
 10
151.4918755795647
 20
124.3514118275312
 30
0.0
 10
152.6473638834191
 20
123.9600401708492
 30
0.0
 10
152.6473638834191
 20
123.9600401708492
 30
0.0
  0
SPLINE
  5
58
330
4A
100
AcDbEntity
  8
_U+30EC_U+30A4_U+30E4_U+30FC 1
 62
     7
370
     5
100
AcDbSpline
210
0.0
220
0.0
230
1.0
 70
     8
 71
     3
 72
    14
 73
    10
 74
     0
 42
0.0000000001
 43
0.0000000001
 12
1.0
 22
0.0
 32
0.0
 13
1.0
 23
0.0
 33
0.0
 40
0.0
 40
0.0
 40
0.0
 40
0.0
 40
1.0
 40
1.0
 40
1.0
 40
2.0
 40
2.0
 40
2.0
 40
3.0
 40
3.0
 40
3.0
 40
3.0
 10
135.7427823702464
 20
132.892302720746
 30
0.0
 10
135.6854207050432
 20
131.985205243888
 30
0.0
 10
135.5810337632619
 20
131.3000083005084
 30
0.0
 10
135.4282457116043
 20
130.8352555510034
 30
0.0
 10
135.3088657146499
 20
130.4638511160343
 30
0.0
 10
135.1579860773216
 20
130.1684350124599
 30
0.0
 10
134.9772898897758
 20
129.945020851493
 30
0.0
 10
134.9772898897758
 20
129.945020851493
 30
0.0
 10
137.2582803871384
 20
129.1726492045312
 30
0.0
 10
137.2582803871384
 20
129.1726492045312
 30
0.0
  0
SPLINE
  5
59
330
4A
100
AcDbEntity
  8
_U+30EC_U+30A4_U+30E4_U+30FC 1
 62
     7
370
     5
100
AcDbSpline
210
0.0
220
0.0
230
1.0
 70
     8
 71
     3
 72
    14
 73
    10
 74
     0
 42
0.0000000001
 43
0.0000000001
 12
1.0
 22
0.0
 32
0.0
 13
1.0
 23
0.0
 33
0.0
 40
0.0
 40
0.0
 40
0.0
 40
0.0
 40
1.0
 40
1.0
 40
1.0
 40
2.0
 40
2.0
 40
2.0
 40
3.0
 40
3.0
 40
3.0
 40
3.0
 10
156.0807382402708
 20
126.1766166351226
 30
0.0
 10
155.7699763037546
 20
125.4095687449798
 30
0.0
 10
155.4516649229865
 20
124.5086833022062
 30
0.0
 10
155.1236874313539
 20
123.4763465720782
 30
0.0
 10
155.1236874313539
 20
123.4763465720782
 30
0.0
 10
155.0161999612457
 20
123.1575060246569
 30
0.0
 10
155.0161999612457
 20
123.1575060246569
 30
0.0
 10
155.0161999612457
 20
123.1575060246569
 30
0.0
 10
156.0173440752215
 20
122.8186982555228
 30
0.0
 10
156.0173440752215
 20
122.8186982555228
 30
0.0
  0
SPLINE
  5
5A
330
4A
100
AcDbEntity
  8
_U+30EC_U+30A4_U+30E4_U+30FC 1
 62
     7
370
     5
100
AcDbSpline
210
0.0
220
0.0
230
1.0
 70
     8
 71
     3
 72
     8
 73
     4
 74
     0
 42
0.0000000001
 43
0.0000000001
 12
1.0
 22
0.0
 32
0.0
 13
1.0
 23
0.0
 33
0.0
 40
0.0
 40
0.0
 40
0.0
 40
0.0
 40
1.0
 40
1.0
 40
1.0
 40
1.0
 10
125.3348151357758
 20
127.8590459047107
 30
0.0
 10
126.4613403848135
 20
125.9690390084843
 30
0.0
 10
127.1856989774447
 20
124.4766479354473
 30
0.0
 10
127.1856989774447
 20
124.4766479354473
 30
0.0
  0
SPLINE
  5
5B
330
4A
100
AcDbEntity
  8
_U+30EC_U+30A4_U+30E4_U+30FC 1
 62
     7
370
     5
100
AcDbSpline
210
0.0
220
0.0
230
1.0
 70
     8
 71
     3
 72
    29
 73
    25
 74
     0
 42
0.0000000001
 43
0.0000000001
 12
1.0
 22
0.0
 32
0.0
 13
1.0
 23
0.0
 33
0.0
 40
0.0
 40
0.0
 40
0.0
 40
0.0
 40
1.0
 40
1.0
 40
1.0
 40
2.0
 40
2.0
 40
2.0
 40
3.0
 40
3.0
 40
3.0
 40
4.0
 40
4.0
 40
4.0
 40
5.0
 40
5.0
 40
5.0
 40
6.0
 40
6.0
 40
6.0
 40
7.0
 40
7.0
 40
7.0
 40
8.0
 40
8.0
 40
8.0
 40
8.0
 10
100.9393857581551
 20
137.8186360766566
 30
0.0
 10
100.0893324465084
 20
137.1392531679528
 30
0.0
 10
99.52241857208269
 20
136.1568729152377
 30
0.0
 10
99.32623885486542
 20
135.6625254278495
 30
0.0
 10
99.29092580021079
 20
135.5755304300689
 30
0.0
 10
98.48613387629828
 20
133.4641907617115
 30
0.0
 10
99.90691106227347
 20
129.710952801909
 30
0.0
 10
101.1824496408429
 20
126.3418192767517
 30
0.0
 10
103.7984731852137
 20
122.8415935327165
 30
0.0
 10
107.6817803083645
 20
119.3079597339781
 30
0.0
 10
117.6730817201318
 20
110.2158535770482
 30
0.0
 10
126.1030592828429
 20
110.2981919082809
 30
0.0
 10
135.5173220982206
 20
109.2215847135252
 30
0.0
 10
142.4607294210795
 20
108.426811678246
 30
0.0
 10
149.8513178436411
 20
109.629466369786
 30
0.0
 10
156.9971490502246
 20
110.7897877290726
 30
0.0
 10
159.5285805156735
 20
111.2014793852361
 30
0.0
 10
161.9194925357563
 20
111.5917927086117
 30
0.0
 10
164.2525177540136
 20
111.8853390900116
 30
0.0
 10
164.2525177540136
 20
111.8853390900116
 30
0.0
 10
165.9226777362972
 20
112.096511862402
 30
0.0
 10
165.9226777362972
 20
112.096511862402
 30
0.0
 10
167.4130185067158
 20
112.2853185242518
 30
0.0
 10
168.8654751363273
 20
112.4685865751318
 30
0.0
 10
170.2572892674858
 20
112.6425765706929
 30
0.0
  0
SPLINE
  5
5C
330
4A
100
AcDbEntity
  8
_U+30EC_U+30A4_U+30E4_U+30FC 1
 62
     7
370
     5
100
AcDbSpline
210
0.0
220
0.0
230
1.0
 70
     8
 71
     3
 72
    35
 73
    31
 74
     0
 42
0.0000000001
 43
0.0000000001
 12
1.0
 22
0.0
 32
0.0
 13
1.0
 23
0.0
 33
0.0
 40
0.0
 40
0.0
 40
0.0
 40
0.0
 40
1.0
 40
1.0
 40
1.0
 40
2.0
 40
2.0
 40
2.0
 40
3.0
 40
3.0
 40
3.0
 40
4.0
 40
4.0
 40
4.0
 40
5.0
 40
5.0
 40
5.0
 40
6.0
 40
6.0
 40
6.0
 40
7.0
 40
7.0
 40
7.0
 40
8.0
 40
8.0
 40
8.0
 40
9.0
 40
9.0
 40
9.0
 40
10.0
 40
10.0
 40
10.0
 40
10.0
 10
204.8088378304468
 20
81.72626386845764
 30
0.0
 10
208.2015721883354
 20
82.65403205798663
 30
0.0
 10
211.5219518258477
 20
86.11255946975224
 30
0.0
 10
208.6494588435755
 20
94.52309897740373
 30
0.0
 10
204.8867311617929
 20
105.5384436963789
 30
0.0
 10
195.3017591841037
 20
110.6754171764349
 30
0.0
 10
190.9079120739779
 20
112.1905624155581
 30
0.0
 10
190.9079120739779
 20
112.1905624155581
 30
0.0
 10
187.8079832641747
 20
113.0990357257143
 30
0.0
 10
187.8079832641747
 20
113.0990357257143
 30
0.0
 10
187.8079832641747
 20
113.0990357257143
 30
0.0
 10
184.6102644568664
 20
113.7732293196253
 30
0.0
 10
184.6102644568664
 20
113.7732293196253
 30
0.0
 10
185.084291944773
 20
114.3316765276004
 30
0.0
 10
185.4377752690882
 20
115.2088231718892
 30
0.0
 10
185.6734308186317
 20
116.4070328635425
 30
0.0
 10
185.9807355330139
 20
117.9704028236576
 30
0.0
 10
185.9566055336295
 20
119.6583416367522
 30
0.0
 10
185.5955727650625
 20
121.4688999566257
 30
0.0
 10
185.4281138425317
 20
122.3132735461951
 30
0.0
 10
185.2090388425868
 20
122.9716626960649
 30
0.0
 10
184.9368661152008
 20
123.4386346285958
 30
0.0
 10
184.744602231217
 20
123.7785007310362
 30
0.0
 10
184.5324110649783
 20
123.9896735034266
 30
0.0
 10
184.3008783536484
 20
124.0678843347646
 30
0.0
 10
184.1679164125961
 20
124.1130046113912
 30
0.0
 10
184.0659283596425
 20
124.0968121118043
 30
0.0
 10
183.9984066946984
 20
124.0150029472248
 30
0.0
 10
183.9984066946984
 20
124.0150029472248
 30
0.0
 10
182.7547239486497
 20
123.5715965696482
 30
0.0
 10
182.7547239486497
 20
123.5715965696482
 30
0.0
  0
SPLINE
  5
5D
330
4A
100
AcDbEntity
  8
_U+30EC_U+30A4_U+30E4_U+30FC 1
 62
     7
370
     5
100
AcDbSpline
210
0.0
220
0.0
230
1.0
 70
     8
 71
     3
 72
     8
 73
     4
 74
     0
 42
0.0000000001
 43
0.0000000001
 12
1.0
 22
0.0
 32
0.0
 13
1.0
 23
0.0
 33
0.0
 40
0.0
 40
0.0
 40
0.0
 40
0.0
 40
1.0
 40
1.0
 40
1.0
 40
1.0
 10
101.461496855946
 20
139.9302897634142
 30
0.0
 10
100.977485757183
 20
139.8541638539253
 30
0.0
 10
100.534784935144
 20
139.6769247698781
 30
0.0
 10
100.1368516119628
 20
139.4381647759694
 30
0.0
  0
SPLINE
  5
5E
330
4A
100
AcDbEntity
  8
_U+30EC_U+30A4_U+30E4_U+30FC 1
 62
     7
370
     5
100
AcDbSpline
210
0.0
220
0.0
230
1.0
 70
     8
 71
     3
 72
    26
 73
    22
 74
     0
 42
0.0000000001
 43
0.0000000001
 12
1.0
 22
0.0
 32
0.0
 13
1.0
 23
0.0
 33
0.0
 40
0.0
 40
0.0
 40
0.0
 40
0.0
 40
1.0
 40
1.0
 40
1.0
 40
2.0
 40
2.0
 40
2.0
 40
3.0
 40
3.0
 40
3.0
 40
4.0
 40
4.0
 40
4.0
 40
5.0
 40
5.0
 40
5.0
 40
6.0
 40
6.0
 40
6.0
 40
7.0
 40
7.0
 40
7.0
 40
7.0
 10
127.7575870184102
 20
132.1154507961207
 30
0.0
 10
127.7575870184102
 20
132.1154507961207
 30
0.0
 10
126.5559201046228
 20
132.5226621746208
 30
0.0
 10
126.5559201046228
 20
132.5226621746208
 30
0.0
 10
126.5357764940256
 20
132.5381491186701
 30
0.0
 10
126.5151037167752
 20
132.5521191183137
 30
0.0
 10
126.4952776061699
 20
132.5688055067769
 30
0.0
 10
126.271016778558
 20
132.7510505021274
 30
0.0
 10
126.0848206721971
 20
132.9541446636127
 30
0.0
 10
125.9340787315984
 20
133.1729055222622
 30
0.0
 10
125.7849242909592
 20
133.3940971888737
 30
0.0
 10
125.6290317949364
 20
133.7182613107852
 30
0.0
 10
125.4707083019656
 20
134.1473801887263
 30
0.0
 10
125.336190969074
 20
134.5018512907941
 30
0.0
 10
125.2235490275033
 20
134.7392388552041
 30
0.0
 10
125.1365540297228
 20
134.8560082996194
 30
0.0
 10
124.9932204222684
 20
135.0547951655762
 30
0.0
 10
124.8375043151299
 20
135.1838059956182
 30
0.0
 10
124.6694057083074
 20
135.241873216359
 30
0.0
 10
124.578600710624
 20
135.2720004378126
 30
0.0
 10
124.4983437682271
 20
135.2740818266484
 30
0.0
 10
124.4285643255629
 20
135.2472001606676
 30
0.0
  0
SPLINE
  5
5F
330
4A
100
AcDbEntity
  8
_U+30EC_U+30A4_U+30E4_U+30FC 1
 62
     7
370
     5
100
AcDbSpline
210
0.0
220
0.0
230
1.0
 70
     8
 71
     3
 72
    41
 73
    37
 74
     0
 42
0.0000000001
 43
0.0000000001
 12
1.0
 22
0.0
 32
0.0
 13
1.0
 23
0.0
 33
0.0
 40
0.0
 40
0.0
 40
0.0
 40
0.0
 40
1.0
 40
1.0
 40
1.0
 40
2.0
 40
2.0
 40
2.0
 40
3.0
 40
3.0
 40
3.0
 40
4.0
 40
4.0
 40
4.0
 40
5.0
 40
5.0
 40
5.0
 40
6.0
 40
6.0
 40
6.0
 40
7.0
 40
7.0
 40
7.0
 40
8.0
 40
8.0
 40
8.0
 40
9.0
 40
9.0
 40
9.0
 40
10.0
 40
10.0
 40
10.0
 40
11.0
 40
11.0
 40
11.0
 40
12.0
 40
12.0
 40
12.0
 40
12.0
 10
132.8652833001171
 20
130.3856755624732
 30
0.0
 10
132.8652833001171
 20
130.3856755624732
 30
0.0
 10
132.4849502311384
 20
130.5143336147464
 30
0.0
 10
132.4849502311384
 20
130.5143336147464
 30
0.0
 10
132.2559974592017
 20
130.8288702733886
 30
0.0
 10
132.0577363531487
 20
131.0145724908731
 30
0.0
 10
131.8851574686626
 20
131.0738391560278
 30
0.0
 10
131.7669769161221
 20
131.1137735994534
 30
0.0
 10
131.6767010850919
 20
131.0991333220491
 30
0.0
 10
131.6122838645131
 20
131.0249088794983
 30
0.0
 10
131.5687158100691
 20
130.9771780473827
 30
0.0
 10
131.5488896994638
 20
130.9117377712744
 30
0.0
 10
131.5476902550499
 20
130.8319747177538
 30
0.0
 10
131.5476902550499
 20
130.8319747177538
 30
0.0
 10
129.2407000361284
 20
131.6133069200426
 30
0.0
 10
129.2407000361284
 20
131.6133069200426
 30
0.0
 10
129.7035444687647
 20
131.7962574709307
 30
0.0
 10
130.0292641826771
 20
132.1008138558636
 30
0.0
 10
130.217188900105
 20
132.5326457854772
 30
0.0
 10
130.4275150058502
 20
133.0178916064309
 30
0.0
 10
130.4692166340493
 20
133.5844527030878
 30
0.0
 10
130.339849730309
 20
134.2317646310179
 30
0.0
 10
130.2532075102972
 20
134.6667043421439
 30
0.0
 10
130.055263904236
 20
135.1548782185785
 30
0.0
 10
129.7474653009775
 20
135.6893718160535
 30
0.0
 10
129.4372325311144
 20
136.2262995801331
 30
0.0
 10
128.8539850459943
 20
137.0221309487187
 30
0.0
 10
127.9947595123594
 20
138.0752784218506
 30
0.0
 10
127.5240128577025
 20
138.6602545180378
 30
0.0
 10
127.2096173101678
 20
139.0993570068353
 30
0.0
 10
127.0470220365382
 20
139.3933972771115
 30
0.0
 10
126.8861200961987
 20
139.6848305206345
 30
0.0
 10
126.7746775990419
 20
139.9852525397898
 30
0.0
 10
126.7112834339925
 20
140.3011650317302
 30
0.0
 10
126.618785103019
 20
140.7659144643179
 30
0.0
 10
126.6616860794458
 20
141.1488194545492
 30
0.0
 10
126.8374014863305
 20
141.4542544467569
 30
0.0
  0
SPLINE
  5
60
330
4A
100
AcDbEntity
  8
_U+30EC_U+30A4_U+30E4_U+30FC 1
 62
     7
370
     5
100
AcDbSpline
210
0.0
220
0.0
230
1.0
 70
     8
 71
     3
 72
    17
 73
    13
 74
     0
 42
0.0000000001
 43
0.0000000001
 12
1.0
 22
0.0
 32
0.0
 13
1.0
 23
0.0
 33
0.0
 40
0.0
 40
0.0
 40
0.0
 40
0.0
 40
1.0
 40
1.0
 40
1.0
 40
2.0
 40
2.0
 40
2.0
 40
3.0
 40
3.0
 40
3.0
 40
4.0
 40
4.0
 40
4.0
 40
4.0
 10
137.4016139945928
 20
133.89898936173
 30
0.0
 10
136.8717417858887
 20
134.0469443579553
 30
0.0
 10
136.2623181903253
 20
134.2385026864016
 30
0.0
 10
135.5745073745395
 20
134.4720768471093
 30
0.0
 10
135.5911971883245
 20
136.5187876282267
 30
0.0
 10
135.6945610771874
 20
137.9094023149714
 30
0.0
 10
135.8862923665852
 20
138.6457906295179
 30
0.0
 10
134.5265138552573
 20
139.1089878399229
 30
0.0
 10
133.6292202019457
 20
139.3567083891586
 30
0.0
 10
133.1997838240126
 20
139.3846166318204
 30
0.0
 10
132.8325421667151
 20
139.409413387814
 30
0.0
 10
132.5178291191885
 20
139.38200255518
 30
0.0
 10
132.255644681433
 20
139.3020983905518
 30
0.0
  0
SPLINE
  5
61
330
4A
100
AcDbEntity
  8
_U+30EC_U+30A4_U+30E4_U+30FC 1
 62
     7
370
     5
100
AcDbSpline
210
0.0
220
0.0
230
1.0
 70
     8
 71
     3
 72
    11
 73
     7
 74
     0
 42
0.0000000001
 43
0.0000000001
 12
1.0
 22
0.0
 32
0.0
 13
1.0
 23
0.0
 33
0.0
 40
0.0
 40
0.0
 40
0.0
 40
0.0
 40
1.0
 40
1.0
 40
1.0
 40
2.0
 40
2.0
 40
2.0
 40
2.0
 10
142.8555230221186
 20
127.0017253710272
 30
0.0
 10
142.8555230221186
 20
127.0017253710272
 30
0.0
 10
139.7483975458325
 20
128.0542025663985
 30
0.0
 10
139.7483975458325
 20
128.0542025663985
 30
0.0
 10
139.6529711593781
 20
132.4592680095714
 30
0.0
 10
139.782863933842
 20
135.2833951597442
 30
0.0
 10
140.1290800361205
 20
136.529653183505
 30
0.0
  0
SPLINE
  5
62
330
4A
100
AcDbEntity
  8
_U+30EC_U+30A4_U+30E4_U+30FC 1
 62
     7
370
     5
100
AcDbSpline
210
0.0
220
0.0
230
1.0
 70
     8
 71
     3
 72
    23
 73
    19
 74
     0
 42
0.0000000001
 43
0.0000000001
 12
1.0
 22
0.0
 32
0.0
 13
1.0
 23
0.0
 33
0.0
 40
0.0
 40
0.0
 40
0.0
 40
0.0
 40
1.0
 40
1.0
 40
1.0
 40
2.0
 40
2.0
 40
2.0
 40
3.0
 40
3.0
 40
3.0
 40
4.0
 40
4.0
 40
4.0
 40
5.0
 40
5.0
 40
5.0
 40
6.0
 40
6.0
 40
6.0
 40
6.0
 10
149.787253400831
 20
124.6537070975968
 30
0.0
 10
149.787253400831
 20
124.6537070975968
 30
0.0
 10
149.3752089668987
 20
124.7934070940327
 30
0.0
 10
149.3752089668987
 20
124.7934070940327
 30
0.0
 10
149.1457623060857
 20
124.9282740350364
 30
0.0
 10
148.9735009215916
 20
125.0140695884032
 30
0.0
 10
148.856202313473
 20
125.0536865318369
 30
0.0
 10
148.7383745387013
 20
125.0946793085689
 30
0.0
 10
148.6436537077845
 20
125.096937086289
 30
0.0
 10
148.5674889875054
 20
125.0671305242887
 30
0.0
 10
148.5674889875054
 20
125.0671305242887
 30
0.0
 10
145.298791293119
 20
126.1742145588054
 30
0.0
 10
145.298791293119
 20
126.1742145588054
 30
0.0
 10
145.31120907058
 20
128.9428497659494
 30
0.0
 10
145.3277190701588
 20
130.6357950005365
 30
0.0
 10
145.339784069851
 20
131.2603880401574
 30
0.0
 10
145.3759790689276
 20
132.6348102273152
 30
0.0
 10
145.4124915679961
 20
133.5587704815208
 30
0.0
 10
145.450027122594
 20
134.0317749138979
 30
0.0
  0
SPLINE
  5
63
330
4A
100
AcDbEntity
  8
_U+30EC_U+30A4_U+30E4_U+30FC 1
 62
     7
370
     5
100
AcDbSpline
210
0.0
220
0.0
230
1.0
 70
     8
 71
     3
 72
    23
 73
    19
 74
     0
 42
0.0000000001
 43
0.0000000001
 12
1.0
 22
0.0
 32
0.0
 13
1.0
 23
0.0
 33
0.0
 40
0.0
 40
0.0
 40
0.0
 40
0.0
 40
1.0
 40
1.0
 40
1.0
 40
2.0
 40
2.0
 40
2.0
 40
3.0
 40
3.0
 40
3.0
 40
4.0
 40
4.0
 40
4.0
 40
5.0
 40
5.0
 40
5.0
 40
6.0
 40
6.0
 40
6.0
 40
6.0
 10
154.3333946737382
 20
126.6758292682304
 30
0.0
 10
154.3333946737382
 20
126.6758292682304
 30
0.0
 10
153.0173610728568
 20
131.8427535808556
 30
0.0
 10
153.0173610728568
 20
131.8427535808556
 30
0.0
 10
152.9711785973801
 20
132.0368871870139
 30
0.0
 10
152.9415805425797
 20
132.160394683863
 30
0.0
 10
152.9291666284344
 20
132.2126057936421
 30
0.0
 10
152.9181560987328
 20
132.2555035703255
 30
0.0
 10
152.8671444333676
 20
132.5322930077084
 30
0.0
 10
152.7761983245767
 20
133.0514760500185
 30
0.0
 10
152.5074874980987
 20
133.0394110503263
 30
0.0
 10
152.129909452176
 20
133.1150499667212
 30
0.0
 10
151.6427586312709
 20
133.2830040996673
 30
0.0
 10
150.7401414320764
 20
133.5835707586658
 30
0.0
 10
149.9863611735291
 20
133.6876082999115
 30
0.0
 10
149.3758792446594
 20
133.5947538139361
 30
0.0
 10
149.2236203596549
 20
133.5704860777185
 30
0.0
 10
149.0830736965739
 20
133.5343229821445
 30
0.0
 10
148.9528281443412
 20
133.4857454833838
 30
0.0
  0
SPLINE
  5
64
330
4A
100
AcDbEntity
  8
_U+30EC_U+30A4_U+30E4_U+30FC 1
 62
     7
370
     5
100
AcDbSpline
210
0.0
220
0.0
230
1.0
 70
     8
 71
     3
 72
    20
 73
    16
 74
     0
 42
0.0000000001
 43
0.0000000001
 12
1.0
 22
0.0
 32
0.0
 13
1.0
 23
0.0
 33
0.0
 40
0.0
 40
0.0
 40
0.0
 40
0.0
 40
1.0
 40
1.0
 40
1.0
 40
2.0
 40
2.0
 40
2.0
 40
3.0
 40
3.0
 40
3.0
 40
4.0
 40
4.0
 40
4.0
 40
5.0
 40
5.0
 40
5.0
 40
5.0
 10
161.4378450480441
 20
120.7078877538186
 30
0.0
 10
161.4378450480441
 20
120.7078877538186
 30
0.0
 10
158.4792037346365
 20
121.7097060615934
 30
0.0
 10
158.4792037346365
 20
121.7097060615934
 30
0.0
 10
158.4792037346365
 20
121.7097060615934
 30
0.0
 10
158.4716190126077
 20
122.4889921528232
 30
0.0
 10
158.4716190126077
 20
122.4889921528232
 30
0.0
 10
158.467491512713
 20
122.9166999196893
 30
0.0
 10
158.467491512713
 20
123.2386449114758
 30
0.0
 10
158.4709527381603
 20
123.4603304613757
 30
0.0
 10
158.4709527381603
 20
123.4603304613757
 30
0.0
 10
158.5467253995805
 20
127.403577745927
 30
0.0
 10
158.5467253995805
 20
127.403577745927
 30
0.0
 10
158.5811917875901
 20
129.109784206135
 30
0.0
 10
158.65972011892
 20
130.4643802826875
 30
0.0
 10
158.7837567824222
 20
131.4731130347303
 30
0.0
  0
SPLINE
  5
65
330
4A
100
AcDbEntity
  8
_U+30EC_U+30A4_U+30E4_U+30FC 1
 62
     7
370
     5
100
AcDbSpline
210
0.0
220
0.0
230
1.0
 70
     8
 71
     3
 72
    14
 73
    10
 74
     0
 42
0.0000000001
 43
0.0000000001
 12
1.0
 22
0.0
 32
0.0
 13
1.0
 23
0.0
 33
0.0
 40
0.0
 40
0.0
 40
0.0
 40
0.0
 40
1.0
 40
1.0
 40
1.0
 40
2.0
 40
2.0
 40
2.0
 40
3.0
 40
3.0
 40
3.0
 40
3.0
 10
166.6523590816774
 20
118.94174113221
 30
0.0
 10
166.6523590816774
 20
118.94174113221
 30
0.0
 10
163.880447181252
 20
119.8803769415968
 30
0.0
 10
163.880447181252
 20
119.8803769415968
 30
0.0
 10
163.8921552632072
 20
122.6305971492106
 30
0.0
 10
163.9059135961895
 20
124.315393217339
 30
0.0
 10
163.9217885957845
 20
124.9363879237183
 30
0.0
 10
163.9575955393155
 20
126.3127151108275
 30
0.0
 10
163.994108038384
 20
127.2372045316863
 30
0.0
 10
164.03132609299
 20
127.7093270196414
 30
0.0
  0
SPLINE
  5
66
330
4A
100
AcDbEntity
  8
_U+30EC_U+30A4_U+30E4_U+30FC 1
 62
     7
370
     5
100
AcDbSpline
210
0.0
220
0.0
230
1.0
 70
     8
 71
     3
 72
    50
 73
    46
 74
     0
 42
0.0000000001
 43
0.0000000001
 12
1.0
 22
0.0
 32
0.0
 13
1.0
 23
0.0
 33
0.0
 40
0.0
 40
0.0
 40
0.0
 40
0.0
 40
1.0
 40
1.0
 40
1.0
 40
2.0
 40
2.0
 40
2.0
 40
3.0
 40
3.0
 40
3.0
 40
4.0
 40
4.0
 40
4.0
 40
5.0
 40
5.0
 40
5.0
 40
6.0
 40
6.0
 40
6.0
 40
7.0
 40
7.0
 40
7.0
 40
8.0
 40
8.0
 40
8.0
 40
9.0
 40
9.0
 40
9.0
 40
10.0
 40
10.0
 40
10.0
 40
11.0
 40
11.0
 40
11.0
 40
12.0
 40
12.0
 40
12.0
 40
13.0
 40
13.0
 40
13.0
 40
14.0
 40
14.0
 40
14.0
 40
15.0
 40
15.0
 40
15.0
 40
15.0
 10
173.2765730793463
 20
116.6977923005691
 30
0.0
 10
173.2765730793463
 20
116.6977923005691
 30
0.0
 10
173.2324758582491
 20
116.7126089668577
 30
0.0
 10
173.2324758582491
 20
116.7126089668577
 30
0.0
 10
173.2159658586703
 20
116.7239684110124
 30
0.0
 10
173.2014666923736
 20
116.7343047996376
 30
0.0
 10
173.1849610678148
 20
116.746017021561
 30
0.0
 10
172.2099847732239
 20
117.440389503846
 30
0.0
 10
171.3328777349444
 20
117.9226749705194
 30
0.0
 10
170.5515059266464
 20
118.1874317070096
 30
0.0
 10
170.00787538496
 20
118.3733103133786
 30
0.0
 10
169.2347981824606
 20
118.4732169774964
 30
0.0
 10
168.2350259857447
 20
118.4857758660649
 30
0.0
 10
168.2350259857447
 20
118.4857758660649
 30
0.0
 10
169.8142709454548
 20
120.5070160922766
 30
0.0
 10
169.8142709454548
 20
120.5070160922766
 30
0.0
 10
169.8142709454548
 20
120.5070160922766
 30
0.0
 10
172.6185719850222
 20
123.8394638579291
 30
0.0
 10
172.6185719850222
 20
123.8394638579291
 30
0.0
 10
172.9341360678777
 20
124.2196493308927
 30
0.0
 10
173.2807358570179
 20
124.5860090437683
 30
0.0
 10
173.6610655695371
 20
124.9305318127566
 30
0.0
 10
174.0248500047007
 20
125.2645418042353
 30
0.0
 10
174.1888563894054
 20
125.5220342976661
 30
0.0
 10
174.1516383347993
 20
125.7073837373819
 30
0.0
 10
174.1392249564651
 20
125.7611470693436
 30
0.0
 10
174.1047894471057
 20
125.8229890122103
 30
0.0
 10
174.0421008375939
 20
125.8939326215115
 30
0.0
 10
173.9773308392463
 20
125.9661109530034
 30
0.0
 10
173.9153125074952
 20
126.0107373407538
 30
0.0
 10
173.8505425091476
 20
126.032609562418
 30
0.0
 10
173.8029880659164
 20
126.0489784508893
 30
0.0
 10
173.7210025124524
 20
126.0438278954652
 30
0.0
 10
173.6135111263059
 20
126.0133126184659
 30
0.0
 10
173.2221394696239
 20
125.9077262322707
 30
0.0
 10
172.7860003140841
 20
125.9354545648967
 30
0.0
 10
172.2981792154183
 20
126.1023890050823
 30
0.0
 10
171.82552756081
 20
126.2627617787686
 30
0.0
 10
171.0848000797076
 20
126.5967364924704
 30
0.0
 10
170.0795245497987
 20
127.1021612017982
 30
0.0
 10
169.6392578943642
 20
127.3245170294587
 30
0.0
 10
169.2630556817397
 20
127.4909223029912
 30
0.0
 10
168.9571268006557
 20
127.5946036892349
 30
0.0
 10
168.6711694022765
 20
127.6914444125216
 30
0.0
 10
168.4238326475945
 20
127.714336463958
 30
0.0
 10
168.2171048750908
 20
127.6619842430714
 30
0.0
  0
SPLINE
  5
67
330
4A
100
AcDbEntity
  8
_U+30EC_U+30A4_U+30E4_U+30FC 1
 62
     7
370
     5
100
AcDbSpline
210
0.0
220
0.0
230
1.0
 70
     8
 71
     3
 72
    32
 73
    28
 74
     0
 42
0.0000000001
 43
0.0000000001
 12
1.0
 22
0.0
 32
0.0
 13
1.0
 23
0.0
 33
0.0
 40
0.0
 40
0.0
 40
0.0
 40
0.0
 40
1.0
 40
1.0
 40
1.0
 40
2.0
 40
2.0
 40
2.0
 40
3.0
 40
3.0
 40
3.0
 40
4.0
 40
4.0
 40
4.0
 40
5.0
 40
5.0
 40
5.0
 40
6.0
 40
6.0
 40
6.0
 40
7.0
 40
7.0
 40
7.0
 40
8.0
 40
8.0
 40
8.0
 40
9.0
 40
9.0
 40
9.0
 40
9.0
 10
182.6892836725414
 20
113.9324055270723
 30
0.0
 10
182.490846177604
 20
113.94446764859
 30
0.0
 10
182.2799909052056
 20
113.9885648696872
 30
0.0
 10
182.0574586886606
 20
114.0643444159285
 30
0.0
 10
181.5324195353888
 20
114.2424590298765
 30
0.0
 10
181.0473501033195
 20
114.6289976311262
 30
0.0
 10
180.6042965035116
 20
115.2274145603037
 30
0.0
 10
180.1612781814806
 20
115.8241028784143
 30
0.0
 10
179.8539734670984
 20
116.5534356375852
 30
0.0
 10
179.6830879159025
 20
117.4135078378652
 30
0.0
 10
179.5287476420623
 20
118.1888075403079
 30
0.0
 10
179.5080748648119
 20
119.0917805257825
 30
0.0
 10
179.6210695841514
 20
120.1268627686417
 30
0.0
 10
179.7822890244828
 20
121.5881035646957
 30
0.0
 10
180.0089840186993
 20
122.7575265904168
 30
0.0
 10
180.3011192890241
 20
123.6392946234766
 30
0.0
 10
180.1839970697899
 20
123.6529118453514
 30
0.0
 10
179.8491404116662
 20
123.7373315654199
 30
0.0
 10
179.2985999551752
 20
123.8930476725584
 30
0.0
 10
178.4945443351137
 20
124.115086000227
 30
0.0
 10
177.972927126199
 20
124.2384171081917
 30
0.0
 10
177.725594632509
 20
124.2620179409229
 30
0.0
 10
177.2322349228734
 20
124.3078437730871
 30
0.0
 10
176.8333138219396
 20
124.2540804411254
 30
0.0
 10
176.5335938295862
 20
124.0981879451026
 30
0.0
 10
176.5246332742592
 20
124.0932137785628
 30
0.0
 10
176.5149671633947
 20
124.0882043342462
 30
0.0
 10
176.5067166225403
 20
124.0830185010451
 30
0.0
  0
SPLINE
  5
68
330
4A
100
AcDbEntity
  8
_U+30EC_U+30A4_U+30E4_U+30FC 1
 62
     7
370
     5
100
AcDbSpline
210
0.0
220
0.0
230
1.0
 70
     8
 71
     3
 72
    17
 73
    13
 74
     0
 42
0.0000000001
 43
0.0000000001
 12
1.0
 22
0.0
 32
0.0
 13
1.0
 23
0.0
 33
0.0
 40
0.0
 40
0.0
 40
0.0
 40
0.0
 40
1.0
 40
1.0
 40
1.0
 40
2.0
 40
2.0
 40
2.0
 40
3.0
 40
3.0
 40
3.0
 40
4.0
 40
4.0
 40
4.0
 40
4.0
 10
203.764298134873
 20
83.11705287950733
 30
0.0
 10
202.8610106579178
 20
82.87247205241377
 30
0.0
 10
202.0314184568602
 20
82.83285510898003
 30
0.0
 10
201.503627636992
 20
82.89314482966414
 30
0.0
 10
199.4696521333274
 20
83.12601343483428
 30
0.0
 10
198.7406721519253
 20
83.3747570395994
 30
0.0
 10
197.6926752342175
 20
84.45789062307747
 30
0.0
 10
197.6926752342175
 20
84.45789062307747
 30
0.0
 10
197.3598646871526
 20
84.89748700075133
 30
0.0
 10
197.2255269128021
 20
84.68906589495748
 30
0.0
 10
197.2255269128021
 20
84.68906589495748
 30
0.0
 10
195.9253291681951
 20
84.19676664561736
 30
0.0
 10
195.9253291681951
 20
84.19676664561736
 30
0.0
  0
POLYLINE
  5
69
330
4A
100
AcDbEntity
  8
_U+30EC_U+30A4_U+30E4_U+30FC 1
 62
     7
370
     5
100
AcDb2dPolyline
 66
     1
 10
0.0
 20
0.0
 30
0.0
  0
VERTEX
  5
6A
330
69
100
AcDbEntity
  8
_U+30EC_U+30A4_U+30E4_U+30FC 1
 62
     7
370
     5
100
AcDbVertex
100
AcDb2dVertex
 10
183.3093964344988
 20
113.2802576655354
 30
0.0
  0
VERTEX
  5
6B
330
69
100
AcDbEntity
  8
_U+30EC_U+30A4_U+30E4_U+30FC 1
 62
     7
370
     5
100
AcDbVertex
100
AcDb2dVertex
 10
184.6102644568664
 20
113.7732293196253
 30
0.0
  0
SEQEND
  5
6C
330
69
100
AcDbEntity
  8
_U+30EC_U+30A4_U+30E4_U+30FC 1
 62
     7
370
     5
  0
SPLINE
  5
6D
330
4A
100
AcDbEntity
  8
_U+30EC_U+30A4_U+30E4_U+30FC 1
 62
     7
370
     5
100
AcDbSpline
210
0.0
220
0.0
230
1.0
 70
     8
 71
     3
 72
    23
 73
    19
 74
     0
 42
0.0000000001
 43
0.0000000001
 12
1.0
 22
0.0
 32
0.0
 13
1.0
 23
0.0
 33
0.0
 40
0.0
 40
0.0
 40
0.0
 40
0.0
 40
1.0
 40
1.0
 40
1.0
 40
2.0
 40
2.0
 40
2.0
 40
3.0
 40
3.0
 40
3.0
 40
4.0
 40
4.0
 40
4.0
 40
5.0
 40
5.0
 40
5.0
 40
6.0
 40
6.0
 40
6.0
 40
6.0
 10
175.6351041302863
 20
120.4248541499282
 30
0.0
 10
175.6351041302863
 20
120.4248541499282
 30
0.0
 10
176.8643229878152
 20
120.8608521943606
 30
0.0
 10
176.8643229878152
 20
120.8608521943606
 30
0.0
 10
176.8911693760192
 20
120.8735874718134
 30
0.0
 10
176.9152993754036
 20
120.8925316379968
 30
0.0
 10
176.935972152654
 20
120.9176846929106
 30
0.0
 10
177.0041640953587
 20
120.9974477464313
 30
0.0
 10
177.021419400189
 20
121.126811354242
 30
0.0
 10
176.9869485402423
 20
121.2957919054865
 30
0.0
 10
176.960772429799
 20
121.4315055131353
 30
0.0
 10
176.8636174322777
 20
121.6397855078216
 30
0.0
 10
176.6913560477835
 20
121.9267349449454
 30
0.0
 10
176.5328882740486
 20
122.17650160524
 30
0.0
 10
176.4412366097202
 20
122.366684100388
 30
0.0
 10
176.4164363325751
 20
122.4901915972371
 30
0.0
 10
176.3647543894492
 20
122.7494479795118
 30
0.0
 10
176.3943877220265
 20
122.9850682512784
 30
0.0
 10
176.5039604970088
 20
123.1945476903786
 30
0.0
  0
POLYLINE
  5
6E
330
4A
100
AcDbEntity
  8
_U+30EC_U+30A4_U+30E4_U+30FC 1
 62
     7
370
     5
100
AcDb2dPolyline
 66
     1
 10
0.0
 20
0.0
 30
0.0
  0
VERTEX
  5
6F
330
6E
100
AcDbEntity
  8
_U+30EC_U+30A4_U+30E4_U+30FC 1
 62
     7
370
     5
100
AcDbVertex
100
AcDb2dVertex
 10
175.1045616438216
 20
123.527181848559
 30
0.0
  0
VERTEX
  5
70
330
6E
100
AcDbEntity
  8
_U+30EC_U+30A4_U+30E4_U+30FC 1
 62
     7
370
     5
100
AcDbVertex
100
AcDb2dVertex
 10
176.8243532666127
 20
124.2091365533831
 30
0.0
  0
SEQEND
  5
71
330
6E
100
AcDbEntity
  8
_U+30EC_U+30A4_U+30E4_U+30FC 1
 62
     7
370
     5
  0
SPLINE
  5
72
330
4A
100
AcDbEntity
  8
_U+30EC_U+30A4_U+30E4_U+30FC 1
 62
     7
370
     5
100
AcDbSpline
210
0.0
220
0.0
230
1.0
 70
     8
 71
     3
 72
    23
 73
    19
 74
     0
 42
0.0000000001
 43
0.0000000001
 12
1.0
 22
0.0
 32
0.0
 13
1.0
 23
0.0
 33
0.0
 40
0.0
 40
0.0
 40
0.0
 40
0.0
 40
1.0
 40
1.0
 40
1.0
 40
2.0
 40
2.0
 40
2.0
 40
3.0
 40
3.0
 40
3.0
 40
4.0
 40
4.0
 40
4.0
 40
5.0
 40
5.0
 40
5.0
 40
6.0
 40
6.0
 40
6.0
 40
6.0
 10
177.7744896312616
 20
115.1743567838796
 30
0.0
 10
177.7744896312616
 20
115.1743567838796
 30
0.0
 10
175.5028124669947
 20
115.943659264253
 30
0.0
 10
175.5028124669947
 20
115.943659264253
 30
0.0
 10
175.6226863528253
 20
116.1848181469895
 30
0.0
 10
175.6447349633739
 20
116.5024592499969
 30
0.0
 10
175.5675824653423
 20
116.8982759065654
 30
0.0
 10
175.5179819110521
 20
117.141692567022
 30
0.0
 10
175.4256246911861
 20
117.357172192883
 30
0.0
 10
175.290581361298
 20
117.5387439457813
 30
0.0
 10
175.1576194202457
 20
117.7177110816817
 30
0.0
 10
175.0170374793878
 20
117.834480526097
 30
0.0
 10
174.8682358165174
 20
117.8858419924816
 30
0.0
 10
174.7697049856978
 20
117.9187208805317
 30
0.0
 10
174.6856380433981
 20
117.9156194149655
 30
0.0
 10
174.6201624895129
 20
117.8715221927543
 30
0.0
 10
174.6201624895129
 20
117.8715221927543
 30
0.0
 10
173.3764797434642
 20
117.4050764491914
 30
0.0
 10
173.3764797434642
 20
117.4050764491914
 30
0.0
  0
SPLINE
  5
73
330
4A
100
AcDbEntity
  8
_U+30EC_U+30A4_U+30E4_U+30FC 1
 62
     7
370
     5
100
AcDbSpline
210
0.0
220
0.0
230
1.0
 70
     8
 71
     3
 72
    17
 73
    13
 74
     0
 42
0.0000000001
 43
0.0000000001
 12
1.0
 22
0.0
 32
0.0
 13
1.0
 23
0.0
 33
0.0
 40
0.0
 40
0.0
 40
0.0
 40
0.0
 40
1.0
 40
1.0
 40
1.0
 40
2.0
 40
2.0
 40
2.0
 40
3.0
 40
3.0
 40
3.0
 40
4.0
 40
4.0
 40
4.0
 40
4.0
 10
167.5653126694972
 20
124.3700032159458
 30
0.0
 10
167.5653126694972
 20
124.3700032159458
 30
0.0
 10
168.7696959721041
 20
124.8183837600622
 30
0.0
 10
168.7696959721041
 20
124.8183837600622
 30
0.0
 10
168.8179559708729
 20
124.8266740376285
 30
0.0
 10
168.8593015253736
 20
124.8499220925909
 30
0.0
 10
168.8937326356063
 20
124.8891862582559
 30
0.0
 10
168.9626301338486
 20
124.9653157007581
 30
0.0
 10
168.983302911099
 20
125.0755587535011
 30
0.0
 10
168.9557509673575
 20
125.2211148608988
 30
0.0
 10
168.9364582910992
 20
125.3127665252272
 30
0.0
 10
168.9061504130673
 20
125.3997615230078
 30
0.0
 10
168.8661806918648
 20
125.479348187644
 30
0.0
  0
POLYLINE
  5
74
330
4A
100
AcDbEntity
  8
_U+30EC_U+30A4_U+30E4_U+30FC 1
 62
     7
370
     5
100
AcDb2dPolyline
 66
     1
 10
0.0
 20
0.0
 30
0.0
  0
VERTEX
  5
75
330
74
100
AcDbEntity
  8
_U+30EC_U+30A4_U+30E4_U+30FC 1
 62
     7
370
     5
100
AcDbVertex
100
AcDb2dVertex
 10
166.6426971805614
 20
127.040460370039
 30
0.0
  0
VERTEX
  5
76
330
74
100
AcDbEntity
  8
_U+30EC_U+30A4_U+30E4_U+30FC 1
 62
     7
370
     5
100
AcDbVertex
100
AcDb2dVertex
 10
168.2412348744752
 20
127.66731118738
 30
0.0
  0
SEQEND
  5
77
330
74
100
AcDbEntity
  8
_U+30EC_U+30A4_U+30E4_U+30FC 1
 62
     7
370
     5
  0
POLYLINE
  5
78
330
4A
100
AcDbEntity
  8
_U+30EC_U+30A4_U+30E4_U+30FC 1
 62
     7
370
     5
100
AcDb2dPolyline
 66
     1
 10
0.0
 20
0.0
 30
0.0
  0
VERTEX
  5
79
330
78
100
AcDbEntity
  8
_U+30EC_U+30A4_U+30E4_U+30FC 1
 62
     7
370
     5
100
AcDbVertex
100
AcDb2dVertex
 10
164.0671683142978
 20
127.6731672983417
 30
0.0
  0
VERTEX
  5
7A
330
78
100
AcDbEntity
  8
_U+30EC_U+30A4_U+30E4_U+30FC 1
 62
     7
370
     5
100
AcDbVertex
100
AcDb2dVertex
 10
165.3542427259063
 20
128.2064614514029
 30
0.0
  0
SEQEND
  5
7B
330
78
100
AcDbEntity
  8
_U+30EC_U+30A4_U+30E4_U+30FC 1
 62
     7
370
     5
  0
POLYLINE
  5
7C
330
4A
100
AcDbEntity
  8
_U+30EC_U+30A4_U+30E4_U+30FC 1
 62
     7
370
     5
100
AcDb2dPolyline
 66
     1
 10
0.0
 20
0.0
 30
0.0
  0
VERTEX
  5
7D
330
7C
100
AcDbEntity
  8
_U+30EC_U+30A4_U+30E4_U+30FC 1
 62
     7
370
     5
100
AcDbVertex
100
AcDb2dVertex
 10
164.0988477579341
 20
128.1329072866127
 30
0.0
  0
VERTEX
  5
7E
330
7C
100
AcDbEntity
  8
_U+30EC_U+30A4_U+30E4_U+30FC 1
 62
     7
370
     5
100
AcDbVertex
100
AcDb2dVertex
 10
165.3997157803017
 20
128.6253850518264
 30
0.0
  0
SEQEND
  5
7F
330
7C
100
AcDbEntity
  8
_U+30EC_U+30A4_U+30E4_U+30FC 1
 62
     7
370
     5
  0
SPLINE
  5
80
330
4A
100
AcDbEntity
  8
_U+30EC_U+30A4_U+30E4_U+30FC 1
 62
     7
370
     5
100
AcDbSpline
210
0.0
220
0.0
230
1.0
 70
     8
 71
     3
 72
    20
 73
    16
 74
     0
 42
0.0000000001
 43
0.0000000001
 12
1.0
 22
0.0
 32
0.0
 13
1.0
 23
0.0
 33
0.0
 40
0.0
 40
0.0
 40
0.0
 40
0.0
 40
1.0
 40
1.0
 40
1.0
 40
2.0
 40
2.0
 40
2.0
 40
3.0
 40
3.0
 40
3.0
 40
4.0
 40
4.0
 40
4.0
 40
5.0
 40
5.0
 40
5.0
 40
5.0
 10
165.3680363366655
 20
128.1921739517674
 30
0.0
 10
165.3680363366655
 20
128.1921739517674
 30
0.0
 10
165.3997157803017
 20
128.6253850518264
 30
0.0
 10
165.3997157803017
 20
128.6253850518264
 30
0.0
 10
165.0317685674666
 20
128.681194494847
 30
0.0
 10
164.490219414616
 20
128.8214236579361
 30
0.0
 10
163.7770832923891
 20
129.0408867078927
 30
0.0
 10
163.0115866745613
 20
129.2808108684384
 30
0.0
 10
162.5216841870597
 20
129.4312000312683
 30
0.0
 10
162.3087828036024
 20
129.4808005855585
 30
0.0
 10
162.0938000313093
 20
129.5287110787288
 30
0.0
 10
161.8891536476414
 20
129.5609164168479
 30
0.0
 10
161.6914217082415
 20
129.5755566942522
 30
0.0
 10
161.6914217082415
 20
129.5755566942522
 30
0.0
 10
160.3905536858738
 20
129.0829025401541
 30
0.0
 10
160.3905536858738
 20
129.0829025401541
 30
0.0
  0
POLYLINE
  5
81
330
4A
100
AcDbEntity
  8
_U+30EC_U+30A4_U+30E4_U+30FC 1
 62
     7
370
     5
100
AcDb2dPolyline
 66
     1
 10
0.0
 20
0.0
 30
0.0
  0
VERTEX
  5
82
330
81
100
AcDbEntity
  8
_U+30EC_U+30A4_U+30E4_U+30FC 1
 62
     7
370
     5
100
AcDbVertex
100
AcDb2dVertex
 10
162.5795750189162
 20
119.3875463986144
 30
0.0
  0
VERTEX
  5
83
330
81
100
AcDbEntity
  8
_U+30EC_U+30A4_U+30E4_U+30FC 1
 62
     7
370
     5
100
AcDbVertex
100
AcDb2dVertex
 10
163.7963760989841
 20
119.9647613838884
 30
0.0
  0
SEQEND
  5
84
330
81
100
AcDbEntity
  8
_U+30EC_U+30A4_U+30E4_U+30FC 1
 62
     7
370
     5
  0
POLYLINE
  5
85
330
4A
100
AcDbEntity
  8
_U+30EC_U+30A4_U+30E4_U+30FC 1
 62
     7
370
     5
100
AcDb2dPolyline
 66
     1
 10
0.0
 20
0.0
 30
0.0
  0
VERTEX
  5
86
330
85
100
AcDbEntity
  8
_U+30EC_U+30A4_U+30E4_U+30FC 1
 62
     7
370
     5
100
AcDbVertex
100
AcDb2dVertex
 10
166.934157963377
 20
117.9932981008513
 30
0.0
  0
VERTEX
  5
87
330
85
100
AcDbEntity
  8
_U+30EC_U+30A4_U+30E4_U+30FC 1
 62
     7
370
     5
100
AcDbVertex
100
AcDb2dVertex
 10
168.2350259857447
 20
118.4857758660649
 30
0.0
  0
SEQEND
  5
88
330
85
100
AcDbEntity
  8
_U+30EC_U+30A4_U+30E4_U+30FC 1
 62
     7
370
     5
  0
POLYLINE
  5
89
330
4A
100
AcDbEntity
  8
_U+30EC_U+30A4_U+30E4_U+30FC 1
 62
     7
370
     5
100
AcDb2dPolyline
 66
     1
 10
0.0
 20
0.0
 30
0.0
  0
VERTEX
  5
8A
330
89
100
AcDbEntity
  8
_U+30EC_U+30A4_U+30E4_U+30FC 1
 62
     7
370
     5
100
AcDbVertex
100
AcDb2dVertex
 10
157.1783357122688
 20
121.2172282963798
 30
0.0
  0
VERTEX
  5
8B
330
89
100
AcDbEntity
  8
_U+30EC_U+30A4_U+30E4_U+30FC 1
 62
     7
370
     5
100
AcDbVertex
100
AcDb2dVertex
 10
158.4792037346365
 20
121.7097060615934
 30
0.0
  0
SEQEND
  5
8C
330
89
100
AcDbEntity
  8
_U+30EC_U+30A4_U+30E4_U+30FC 1
 62
     7
370
     5
  0
POLYLINE
  5
8D
330
4A
100
AcDbEntity
  8
_U+30EC_U+30A4_U+30E4_U+30FC 1
 62
     7
370
     5
100
AcDb2dPolyline
 66
     1
 10
0.0
 20
0.0
 30
0.0
  0
VERTEX
  5
8E
330
8D
100
AcDbEntity
  8
_U+30EC_U+30A4_U+30E4_U+30FC 1
 62
     7
370
     5
100
AcDbVertex
100
AcDb2dVertex
 10
157.4828887600546
 20
130.9802824917479
 30
0.0
  0
VERTEX
  5
8F
330
8D
100
AcDbEntity
  8
_U+30EC_U+30A4_U+30E4_U+30FC 1
 62
     7
370
     5
100
AcDbVertex
100
AcDb2dVertex
 10
158.7837567824222
 20
131.4731130347303
 30
0.0
  0
SEQEND
  5
90
330
8D
100
AcDbEntity
  8
_U+30EC_U+30A4_U+30E4_U+30FC 1
 62
     7
370
     5
  0
POLYLINE
  5
91
330
4A
100
AcDbEntity
  8
_U+30EC_U+30A4_U+30E4_U+30FC 1
 62
     7
370
     5
100
AcDb2dPolyline
 66
     1
 10
0.0
 20
0.0
 30
0.0
  0
VERTEX
  5
92
330
91
100
AcDbEntity
  8
_U+30EC_U+30A4_U+30E4_U+30FC 1
 62
     7
370
     5
100
AcDbVertex
100
AcDb2dVertex
 10
151.4760358577466
 20
132.5586455070361
 30
0.0
  0
VERTEX
  5
93
330
91
100
AcDbEntity
  8
_U+30EC_U+30A4_U+30E4_U+30FC 1
 62
     7
370
     5
100
AcDbVertex
100
AcDb2dVertex
 10
152.7761983245767
 20
133.0514760500185
 30
0.0
  0
SEQEND
  5
94
330
91
100
AcDbEntity
  8
_U+30EC_U+30A4_U+30E4_U+30FC 1
 62
     7
370
     5
  0
SPLINE
  5
95
330
4A
100
AcDbEntity
  8
_U+30EC_U+30A4_U+30E4_U+30FC 1
 62
     7
370
     5
100
AcDbSpline
210
0.0
220
0.0
230
1.0
 70
     8
 71
     3
 72
    23
 73
    19
 74
     0
 42
0.0000000001
 43
0.0000000001
 12
1.0
 22
0.0
 32
0.0
 13
1.0
 23
0.0
 33
0.0
 40
0.0
 40
0.0
 40
0.0
 40
0.0
 40
1.0
 40
1.0
 40
1.0
 40
2.0
 40
2.0
 40
2.0
 40
3.0
 40
3.0
 40
3.0
 40
4.0
 40
4.0
 40
4.0
 40
5.0
 40
5.0
 40
5.0
 40
6.0
 40
6.0
 40
6.0
 40
6.0
 10
147.9956009465399
 20
128.6222806074611
 30
0.0
 10
147.9956009465399
 20
128.6222806074611
 30
0.0
 10
149.2463392479642
 20
129.0694617071637
 30
0.0
 10
149.2463392479642
 20
129.0694617071637
 30
0.0
 10
149.2649659141557
 20
129.0808211513183
 30
0.0
 10
149.2815111915114
 20
129.0959905953758
 30
0.0
 10
149.2966453577919
 20
129.1147583726747
 30
0.0
 10
149.3593692450806
 20
129.1869367041667
 30
0.0
 10
149.3738331336005
 20
129.3008166343415
 30
0.0
 10
149.3455756343214
 20
129.4525430862794
 30
0.0
 10
149.3180236905798
 20
129.5936541937904
 30
0.0
 10
149.2091564711351
 20
129.7929416342186
 30
0.0
 10
149.0251828647175
 20
130.060449737437
 30
0.0
 10
148.6770617624877
 20
130.5605122246794
 30
0.0
 10
148.4731209343573
 20
130.9570344367855
 30
0.0
 10
148.4162531580304
 20
131.2471235960514
 30
0.0
 10
148.3032584386909
 20
131.8129791371707
 30
0.0
 10
148.4069751027115
 20
132.2620333002679
 30
0.0
 10
148.7273678723154
 20
132.5941349505751
 30
0.0
  0
POLYLINE
  5
96
330
4A
100
AcDbEntity
  8
_U+30EC_U+30A4_U+30E4_U+30FC 1
 62
     7
370
     5
100
AcDb2dPolyline
 66
     1
 10
0.0
 20
0.0
 30
0.0
  0
VERTEX
  5
97
330
96
100
AcDbEntity
  8
_U+30EC_U+30A4_U+30E4_U+30FC 1
 62
     7
370
     5
100
AcDbVertex
100
AcDb2dVertex
 10
147.3079665196385
 20
132.8199832781466
 30
0.0
  0
VERTEX
  5
98
330
96
100
AcDbEntity
  8
_U+30EC_U+30A4_U+30E4_U+30FC 1
 62
     7
370
     5
100
AcDbVertex
100
AcDb2dVertex
 10
148.9679975883986
 20
133.4910724276924
 30
0.0
  0
SEQEND
  5
99
330
96
100
AcDbEntity
  8
_U+30EC_U+30A4_U+30E4_U+30FC 1
 62
     7
370
     5
  0
POLYLINE
  5
9A
330
4A
100
AcDbEntity
  8
_U+30EC_U+30A4_U+30E4_U+30FC 1
 62
     7
370
     5
100
AcDb2dPolyline
 66
     1
 10
0.0
 20
0.0
 30
0.0
  0
VERTEX
  5
9B
330
9A
100
AcDbEntity
  8
_U+30EC_U+30A4_U+30E4_U+30FC 1
 62
     7
370
     5
100
AcDbVertex
100
AcDb2dVertex
 10
148.0745173334155
 20
124.3007529399347
 30
0.0
  0
VERTEX
  5
9C
330
9A
100
AcDbEntity
  8
_U+30EC_U+30A4_U+30E4_U+30FC 1
 62
     7
370
     5
100
AcDbVertex
100
AcDb2dVertex
 10
149.3752089668987
 20
124.7934070940327
 30
0.0
  0
SEQEND
  5
9D
330
9A
100
AcDbEntity
  8
_U+30EC_U+30A4_U+30E4_U+30FC 1
 62
     7
370
     5
  0
POLYLINE
  5
9E
330
4A
100
AcDbEntity
  8
_U+30EC_U+30A4_U+30E4_U+30FC 1
 62
     7
370
     5
100
AcDb2dPolyline
 66
     1
 10
0.0
 20
0.0
 30
0.0
  0
VERTEX
  5
9F
330
9E
100
AcDbEntity
  8
_U+30EC_U+30A4_U+30E4_U+30FC 1
 62
     7
370
     5
100
AcDbVertex
100
AcDb2dVertex
 10
147.2666209651377
 20
124.5746527466341
 30
0.0
  0
VERTEX
  5
A0
330
9E
100
AcDbEntity
  8
_U+30EC_U+30A4_U+30E4_U+30FC 1
 62
     7
370
     5
100
AcDbVertex
100
AcDb2dVertex
 10
148.5674889875054
 20
125.0671305242887
 30
0.0
  0
SEQEND
  5
A1
330
9E
100
AcDbEntity
  8
_U+30EC_U+30A4_U+30E4_U+30FC 1
 62
     7
370
     5
  0
POLYLINE
  5
A2
330
4A
100
AcDbEntity
  8
_U+30EC_U+30A4_U+30E4_U+30FC 1
 62
     7
370
     5
100
AcDb2dPolyline
 66
     1
 10
0.0
 20
0.0
 30
0.0
  0
VERTEX
  5
A3
330
A2
100
AcDbEntity
  8
_U+30EC_U+30A4_U+30E4_U+30FC 1
 62
     7
370
     5
100
AcDbVertex
100
AcDb2dVertex
 10
143.9979232707514
 20
125.681384015823
 30
0.0
  0
VERTEX
  5
A4
330
A2
100
AcDbEntity
  8
_U+30EC_U+30A4_U+30E4_U+30FC 1
 62
     7
370
     5
100
AcDbVertex
100
AcDb2dVertex
 10
145.298791293119
 20
126.1742145588054
 30
0.0
  0
SEQEND
  5
A5
330
A2
100
AcDbEntity
  8
_U+30EC_U+30A4_U+30E4_U+30FC 1
 62
     7
370
     5
  0
SPLINE
  5
A6
330
4A
100
AcDbEntity
  8
_U+30EC_U+30A4_U+30E4_U+30FC 1
 62
     7
370
     5
100
AcDbSpline
210
0.0
220
0.0
230
1.0
 70
     8
 71
     3
 72
    20
 73
    16
 74
     0
 42
0.0000000001
 43
0.0000000001
 12
1.0
 22
0.0
 32
0.0
 13
1.0
 23
0.0
 33
0.0
 40
0.0
 40
0.0
 40
0.0
 40
0.0
 40
1.0
 40
1.0
 40
1.0
 40
2.0
 40
2.0
 40
2.0
 40
3.0
 40
3.0
 40
3.0
 40
4.0
 40
4.0
 40
4.0
 40
5.0
 40
5.0
 40
5.0
 40
5.0
 10
145.5196301763738
 20
133.9894063038677
 30
0.0
 10
145.5196301763738
 20
133.9894063038677
 30
0.0
 10
146.7884659773365
 20
134.5140926793707
 30
0.0
 10
146.7884659773365
 20
134.5140926793707
 30
0.0
 10
146.7884659773365
 20
134.5140926793707
 30
0.0
 10
146.8170409766074
 20
134.9493851682655
 30
0.0
 10
146.8170409766074
 20
134.9493851682655
 30
0.0
 10
146.4511751526081
 20
135.0053710001705
 30
0.0
 10
145.9099471857448
 20
135.1443654410689
 30
0.0
 10
145.1957801846359
 20
135.3657334909769
 30
0.0
 10
144.430957981926
 20
135.6060138549875
 30
0.0
 10
143.941761049962
 20
135.7525895922185
 30
0.0
 10
143.728189388744
 20
135.8030720909306
 30
0.0
 10
143.5149388530103
 20
135.8539073674114
 30
0.0
 10
143.3082110752841
 20
135.8847401444026
 30
0.0
 10
143.1122041266813
 20
135.8993804218069
 30
0.0
  0
POLYLINE
  5
A7
330
4A
100
AcDbEntity
  8
_U+30EC_U+30A4_U+30E4_U+30FC 1
 62
     7
370
     5
100
AcDb2dPolyline
 66
     1
 10
0.0
 20
0.0
 30
0.0
  0
VERTEX
  5
A8
330
A7
100
AcDbEntity
  8
_U+30EC_U+30A4_U+30E4_U+30FC 1
 62
     7
370
     5
100
AcDbVertex
100
AcDb2dVertex
 10
145.5165257320086
 20
134.4569074030518
 30
0.0
  0
VERTEX
  5
A9
330
A7
100
AcDbEntity
  8
_U+30EC_U+30A4_U+30E4_U+30FC 1
 62
     7
370
     5
100
AcDbVertex
100
AcDb2dVertex
 10
146.8170409766074
 20
134.9493851682655
 30
0.0
  0
SEQEND
  5
AA
330
A7
100
AcDbEntity
  8
_U+30EC_U+30A4_U+30E4_U+30FC 1
 62
     7
370
     5
  0
POLYLINE
  5
AB
330
4A
100
AcDbEntity
  8
_U+30EC_U+30A4_U+30E4_U+30FC 1
 62
     7
370
     5
100
AcDb2dPolyline
 66
     1
 10
0.0
 20
0.0
 30
0.0
  0
VERTEX
  5
AC
330
AB
100
AcDbEntity
  8
_U+30EC_U+30A4_U+30E4_U+30FC 1
 62
     7
370
     5
100
AcDbVertex
100
AcDb2dVertex
 10
141.8113361043136
 20
135.4069026565932
 30
0.0
  0
VERTEX
  5
AD
330
AB
100
AcDbEntity
  8
_U+30EC_U+30A4_U+30E4_U+30FC 1
 62
     7
370
     5
100
AcDbVertex
100
AcDb2dVertex
 10
143.1383802371246
 20
135.9259093100189
 30
0.0
  0
SEQEND
  5
AE
330
AB
100
AcDbEntity
  8
_U+30EC_U+30A4_U+30E4_U+30FC 1
 62
     7
370
     5
  0
POLYLINE
  5
AF
330
4A
100
AcDbEntity
  8
_U+30EC_U+30A4_U+30E4_U+30FC 1
 62
     7
370
     5
100
AcDb2dPolyline
 66
     1
 10
0.0
 20
0.0
 30
0.0
  0
VERTEX
  5
B0
330
AF
100
AcDbEntity
  8
_U+30EC_U+30A4_U+30E4_U+30FC 1
 62
     7
370
     5
100
AcDbVertex
100
AcDb2dVertex
 10
138.4475295234648
 20
127.5615484123004
 30
0.0
  0
VERTEX
  5
B1
330
AF
100
AcDbEntity
  8
_U+30EC_U+30A4_U+30E4_U+30FC 1
 62
     7
370
     5
100
AcDbVertex
100
AcDb2dVertex
 10
139.7483975458325
 20
128.0542025663985
 30
0.0
  0
SEQEND
  5
B2
330
AF
100
AcDbEntity
  8
_U+30EC_U+30A4_U+30E4_U+30FC 1
 62
     7
370
     5
  0
SPLINE
  5
B3
330
4A
100
AcDbEntity
  8
_U+30EC_U+30A4_U+30E4_U+30FC 1
 62
     7
370
     5
100
AcDbSpline
210
0.0
220
0.0
230
1.0
 70
     8
 71
     3
 72
    26
 73
    22
 74
     0
 42
0.0000000001
 43
0.0000000001
 12
1.0
 22
0.0
 32
0.0
 13
1.0
 23
0.0
 33
0.0
 40
0.0
 40
0.0
 40
0.0
 40
0.0
 40
1.0
 40
1.0
 40
1.0
 40
2.0
 40
2.0
 40
2.0
 40
3.0
 40
3.0
 40
3.0
 40
4.0
 40
4.0
 40
4.0
 40
5.0
 40
5.0
 40
5.0
 40
6.0
 40
6.0
 40
6.0
 40
7.0
 40
7.0
 40
7.0
 40
7.0
 10
141.3593219491788
 20
135.5706973746367
 30
0.0
 10
141.3593219491788
 20
135.5706973746367
 30
0.0
 10
142.6398699720648
 20
136.0778154172546
 30
0.0
 10
142.6398699720648
 20
136.0778154172546
 30
0.0
 10
142.6467527421161
 20
136.0834951393319
 30
0.0
 10
142.6536635828241
 20
136.0897040280624
 30
0.0
 10
142.6601899715465
 20
136.0967595834379
 30
0.0
 10
142.7242896921333
 20
136.1627290261994
 30
0.0
 10
142.7428810805479
 20
136.2707495789991
 30
0.0
 10
142.7142708035001
 20
136.4202567974071
 30
0.0
 10
142.6629416381429
 20
136.6779609574992
 30
0.0
 10
142.4996444088194
 20
136.9442728951494
 30
0.0
 10
142.2257794270736
 20
137.2241667768976
 30
0.0
 10
141.9508597118652
 20
137.5060009363741
 30
0.0
 10
141.5925433321177
 20
137.7207720420059
 30
0.0
 10
141.1550283432797
 20
137.8711612048359
 30
0.0
 10
140.651014745027
 20
138.039965367196
 30
0.0
 10
140.2224638538332
 20
138.0459978670421
 30
0.0
 10
139.8738100426329
 20
137.884958298862
 30
0.0
 10
139.8589933763443
 20
137.8779027433083
 30
0.0
 10
139.8438239322868
 20
137.8703145381908
 30
0.0
 10
139.8286544882294
 20
137.8627332988678
 30
0.0
  0
POLYLINE
  5
B4
330
4A
100
AcDbEntity
  8
_U+30EC_U+30A4_U+30E4_U+30FC 1
 62
     7
370
     5
100
AcDb2dPolyline
 66
     1
 10
0.0
 20
0.0
 30
0.0
  0
VERTEX
  5
B5
330
B4
100
AcDbEntity
  8
_U+30EC_U+30A4_U+30E4_U+30FC 1
 62
     7
370
     5
100
AcDbVertex
100
AcDb2dVertex
 10
138.5729420202653
 20
137.4563651043071
 30
0.0
  0
VERTEX
  5
B6
330
B4
100
AcDbEntity
  8
_U+30EC_U+30A4_U+30E4_U+30FC 1
 62
     7
370
     5
100
AcDbVertex
100
AcDb2dVertex
 10
140.2024578120262
 20
137.9833092575303
 30
0.0
  0
SEQEND
  5
B7
330
B4
100
AcDbEntity
  8
_U+30EC_U+30A4_U+30E4_U+30FC 1
 62
     7
370
     5
  0
POLYLINE
  5
B8
330
4A
100
AcDbEntity
  8
_U+30EC_U+30A4_U+30E4_U+30FC 1
 62
     7
370
     5
100
AcDb2dPolyline
 66
     1
 10
0.0
 20
0.0
 30
0.0
  0
VERTEX
  5
B9
330
B8
100
AcDbEntity
  8
_U+30EC_U+30A4_U+30E4_U+30FC 1
 62
     7
370
     5
100
AcDbVertex
100
AcDb2dVertex
 10
134.2736393521718
 20
133.9792463041269
 30
0.0
  0
VERTEX
  5
BA
330
B8
100
AcDbEntity
  8
_U+30EC_U+30A4_U+30E4_U+30FC 1
 62
     7
370
     5
100
AcDbVertex
100
AcDb2dVertex
 10
135.5745073745395
 20
134.4720768471093
 30
0.0
  0
SEQEND
  5
BB
330
B8
100
AcDbEntity
  8
_U+30EC_U+30A4_U+30E4_U+30FC 1
 62
     7
370
     5
  0
POLYLINE
  5
BC
330
4A
100
AcDbEntity
  8
_U+30EC_U+30A4_U+30E4_U+30FC 1
 62
     7
370
     5
100
AcDb2dPolyline
 66
     1
 10
0.0
 20
0.0
 30
0.0
  0
VERTEX
  5
BD
330
BC
100
AcDbEntity
  8
_U+30EC_U+30A4_U+30E4_U+30FC 1
 62
     7
370
     5
100
AcDbVertex
100
AcDb2dVertex
 10
133.4711052059795
 20
129.2472264248508
 30
0.0
  0
VERTEX
  5
BE
330
BC
100
AcDbEntity
  8
_U+30EC_U+30A4_U+30E4_U+30FC 1
 62
     7
370
     5
100
AcDbVertex
100
AcDb2dVertex
 10
134.9772898897758
 20
129.945020851493
 30
0.0
  0
SEQEND
  5
BF
330
BC
100
AcDbEntity
  8
_U+30EC_U+30A4_U+30E4_U+30FC 1
 62
     7
370
     5
  0
POLYLINE
  5
C0
330
4A
100
AcDbEntity
  8
_U+30EC_U+30A4_U+30E4_U+30FC 1
 62
     7
370
     5
100
AcDb2dPolyline
 66
     1
 10
0.0
 20
0.0
 30
0.0
  0
VERTEX
  5
C1
330
C0
100
AcDbEntity
  8
_U+30EC_U+30A4_U+30E4_U+30FC 1
 62
     7
370
     5
100
AcDbVertex
100
AcDb2dVertex
 10
134.5854277441316
 20
138.1531364754198
 30
0.0
  0
VERTEX
  5
C2
330
C0
100
AcDbEntity
  8
_U+30EC_U+30A4_U+30E4_U+30FC 1
 62
     7
370
     5
100
AcDbVertex
100
AcDb2dVertex
 10
135.8862923665852
 20
138.6457906295179
 30
0.0
  0
SEQEND
  5
C3
330
C0
100
AcDbEntity
  8
_U+30EC_U+30A4_U+30E4_U+30FC 1
 62
     7
370
     5
  0
SPLINE
  5
C4
330
4A
100
AcDbEntity
  8
_U+30EC_U+30A4_U+30E4_U+30FC 1
 62
     7
370
     5
100
AcDbSpline
210
0.0
220
0.0
230
1.0
 70
     8
 71
     3
 72
    23
 73
    19
 74
     0
 42
0.0000000001
 43
0.0000000001
 12
1.0
 22
0.0
 32
0.0
 13
1.0
 23
0.0
 33
0.0
 40
0.0
 40
0.0
 40
0.0
 40
0.0
 40
1.0
 40
1.0
 40
1.0
 40
2.0
 40
2.0
 40
2.0
 40
3.0
 40
3.0
 40
3.0
 40
4.0
 40
4.0
 40
4.0
 40
5.0
 40
5.0
 40
5.0
 40
6.0
 40
6.0
 40
6.0
 40
6.0
 10
131.1690891535978
 20
135.4094779343053
 30
0.0
 10
131.1690891535978
 20
135.4094779343053
 30
0.0
 10
132.4267066215133
 20
135.8812829222686
 30
0.0
 10
132.4267066215133
 20
135.8812829222686
 30
0.0
 10
132.4627252317055
 20
135.8931749660267
 30
0.0
 10
132.4933816198122
 20
135.9136679214423
 30
0.0
 10
132.5190285636024
 20
135.9425956984821
 30
0.0
 10
132.587255784084
 20
136.0233818075322
 30
0.0
 10
132.6093043946326
 20
136.1468893043813
 30
0.0
 10
132.5729682844485
 20
136.320702911058
 30
0.0
 10
132.5450635629382
 20
136.4681640184071
 30
0.0
 10
132.4454777446663
 20
136.6832879018077
 30
0.0
 10
132.2791044030567
 20
136.9632170613328
 30
0.0
 10
132.0973532965824
 20
137.261561220388
 30
0.0
 10
131.9879921882613
 20
137.4951388545151
 30
0.0
 10
131.95490163355
 20
137.662740099042
 30
0.0
 10
131.8997977460669
 20
137.9404114808469
 30
0.0
 10
131.926326634279
 20
138.174162030439
 30
0.0
 10
132.0343119093019
 20
138.3660731366541
 30
0.0
  0
POLYLINE
  5
C5
330
4A
100
AcDbEntity
  8
_U+30EC_U+30A4_U+30E4_U+30FC 1
 62
     7
370
     5
100
AcDb2dPolyline
 66
     1
 10
0.0
 20
0.0
 30
0.0
  0
VERTEX
  5
C6
330
C5
100
AcDbEntity
  8
_U+30EC_U+30A4_U+30E4_U+30FC 1
 62
     7
370
     5
100
AcDbVertex
100
AcDb2dVertex
 10
130.6280338896234
 20
138.6669925734214
 30
0.0
  0
VERTEX
  5
C7
330
C5
100
AcDbEntity
  8
_U+30EC_U+30A4_U+30E4_U+30FC 1
 62
     7
370
     5
100
AcDbVertex
100
AcDb2dVertex
 10
132.2933919026922
 20
139.3131050569377
 30
0.0
  0
SEQEND
  5
C8
330
C5
100
AcDbEntity
  8
_U+30EC_U+30A4_U+30E4_U+30FC 1
 62
     7
370
     5
  0
SPLINE
  5
C9
330
4A
100
AcDbEntity
  8
_U+30EC_U+30A4_U+30E4_U+30FC 1
 62
     7
370
     5
100
AcDbSpline
210
0.0
220
0.0
230
1.0
 70
     8
 71
     3
 72
    26
 73
    22
 74
     0
 42
0.0000000001
 43
0.0000000001
 12
1.0
 22
0.0
 32
0.0
 13
1.0
 23
0.0
 33
0.0
 40
0.0
 40
0.0
 40
0.0
 40
0.0
 40
1.0
 40
1.0
 40
1.0
 40
2.0
 40
2.0
 40
2.0
 40
3.0
 40
3.0
 40
3.0
 40
4.0
 40
4.0
 40
4.0
 40
5.0
 40
5.0
 40
5.0
 40
6.0
 40
6.0
 40
6.0
 40
7.0
 40
7.0
 40
7.0
 40
7.0
 10
129.002116431104
 20
138.0244784231466
 30
0.0
 10
129.002116431104
 20
138.0244784231466
 30
0.0
 10
130.3031608423561
 20
138.5169561883603
 30
0.0
 10
130.3031608423561
 20
138.5169561883603
 30
0.0
 10
130.2056530670659
 20
139.4964083855946
 30
0.0
 10
130.152242512873
 20
140.1450961468229
 30
0.0
 10
130.1463864019113
 20
140.464289472013
 30
0.0
 10
130.1372847354768
 20
140.7853877971544
 30
0.0
 10
130.1481150129783
 20
141.1226433441059
 30
0.0
 10
130.1810291788053
 20
141.4668133353254
 30
0.0
 10
129.9886241837139
 20
141.5600172218364
 30
0.0
 10
129.7566055231165
 20
141.6785152743688
 30
0.0
 10
129.4871858631734
 20
141.8264702705942
 30
0.0
 10
129.0155572640945
 20
142.0893249861104
 30
0.0
 10
128.6243619962969
 20
142.2752035924794
 30
0.0
 10
128.3170572819147
 20
142.3782147009625
 30
0.0
 10
127.7041764642173
 20
142.5869885845251
 30
0.0
 10
127.1874275885117
 20
142.6116124727858
 30
0.0
 10
126.7688214880801
 20
142.4527919212821
 30
0.0
 10
126.7631417660028
 20
142.4507458102231
 30
0.0
 10
126.7574620439255
 20
142.4486644213873
 30
0.0
 10
126.752135099617
 20
142.4462655325597
 30
0.0
  0
POLYLINE
  5
CA
330
4A
100
AcDbEntity
  8
_U+30EC_U+30A4_U+30E4_U+30FC 1
 62
     7
370
     5
100
AcDb2dPolyline
 66
     1
 10
0.0
 20
0.0
 30
0.0
  0
VERTEX
  5
CB
330
CA
100
AcDbEntity
  8
_U+30EC_U+30A4_U+30E4_U+30FC 1
 62
     7
370
     5
100
AcDbVertex
100
AcDb2dVertex
 10
128.8801611564376
 20
140.973982792343
 30
0.0
  0
VERTEX
  5
CC
330
CA
100
AcDbEntity
  8
_U+30EC_U+30A4_U+30E4_U+30FC 1
 62
     7
370
     5
100
AcDbVertex
100
AcDb2dVertex
 10
130.1810291788053
 20
141.4668133353254
 30
0.0
  0
SEQEND
  5
CD
330
CA
100
AcDbEntity
  8
_U+30EC_U+30A4_U+30E4_U+30FC 1
 62
     7
370
     5
  0
POLYLINE
  5
CE
330
4A
100
AcDbEntity
  8
_U+30EC_U+30A4_U+30E4_U+30FC 1
 62
     7
370
     5
100
AcDb2dPolyline
 66
     1
 10
0.0
 20
0.0
 30
0.0
  0
VERTEX
  5
CF
330
CE
100
AcDbEntity
  8
_U+30EC_U+30A4_U+30E4_U+30FC 1
 62
     7
370
     5
100
AcDbVertex
100
AcDb2dVertex
 10
125.1022640305976
 20
141.7680855498615
 30
0.0
  0
VERTEX
  5
D0
330
CE
100
AcDbEntity
  8
_U+30EC_U+30A4_U+30E4_U+30FC 1
 62
     7
370
     5
100
AcDbVertex
100
AcDb2dVertex
 10
126.7688214880801
 20
142.4527919212821
 30
0.0
  0
SEQEND
  5
D1
330
CE
100
AcDbEntity
  8
_U+30EC_U+30A4_U+30E4_U+30FC 1
 62
     7
370
     5
  0
POLYLINE
  5
D2
330
4A
100
AcDbEntity
  8
_U+30EC_U+30A4_U+30E4_U+30FC 1
 62
     7
370
     5
100
AcDb2dPolyline
 66
     1
 10
0.0
 20
0.0
 30
0.0
  0
VERTEX
  5
D3
330
D2
100
AcDbEntity
  8
_U+30EC_U+30A4_U+30E4_U+30FC 1
 62
     7
370
     5
100
AcDbVertex
100
AcDb2dVertex
 10
125.2550520822552
 20
132.0298316316384
 30
0.0
  0
VERTEX
  5
D4
330
D2
100
AcDbEntity
  8
_U+30EC_U+30A4_U+30E4_U+30FC 1
 62
     7
370
     5
100
AcDbVertex
100
AcDb2dVertex
 10
126.5559201046228
 20
132.5226621746208
 30
0.0
  0
SEQEND
  5
D5
330
D2
100
AcDbEntity
  8
_U+30EC_U+30A4_U+30E4_U+30FC 1
 62
     7
370
     5
  0
POLYLINE
  5
D6
330
4A
100
AcDbEntity
  8
_U+30EC_U+30A4_U+30E4_U+30FC 1
 62
     7
370
     5
100
AcDb2dPolyline
 66
     1
 10
0.0
 20
0.0
 30
0.0
  0
VERTEX
  5
D7
330
D6
100
AcDbEntity
  8
_U+30EC_U+30A4_U+30E4_U+30FC 1
 62
     7
370
     5
100
AcDbVertex
100
AcDb2dVertex
 10
123.1866101905811
 20
134.7691862839738
 30
0.0
  0
VERTEX
  5
D8
330
D6
100
AcDbEntity
  8
_U+30EC_U+30A4_U+30E4_U+30FC 1
 62
     7
370
     5
100
AcDbVertex
100
AcDb2dVertex
 10
124.4285643255629
 20
135.2472001606676
 30
0.0
  0
SEQEND
  5
D9
330
D6
100
AcDbEntity
  8
_U+30EC_U+30A4_U+30E4_U+30FC 1
 62
     7
370
     5
  0
POLYLINE
  5
DA
330
4A
100
AcDbEntity
  8
_U+30EC_U+30A4_U+30E4_U+30FC 1
 62
     7
370
     5
100
AcDb2dPolyline
 66
     1
 10
0.0
 20
0.0
 30
0.0
  0
VERTEX
  5
DB
330
DA
100
AcDbEntity
  8
_U+30EC_U+30A4_U+30E4_U+30FC 1
 62
     7
370
     5
100
AcDbVertex
100
AcDb2dVertex
 10
120.1623522121808
 20
133.754950198738
 30
0.0
  0
VERTEX
  5
DC
330
DA
100
AcDbEntity
  8
_U+30EC_U+30A4_U+30E4_U+30FC 1
 62
     7
370
     5
100
AcDbVertex
100
AcDb2dVertex
 10
121.4632202345484
 20
134.2474279639517
 30
0.0
  0
SEQEND
  5
DD
330
DA
100
AcDbEntity
  8
_U+30EC_U+30A4_U+30E4_U+30FC 1
 62
     7
370
     5
  0
POLYLINE
  5
DE
330
4A
100
AcDbEntity
  8
_U+30EC_U+30A4_U+30E4_U+30FC 1
 62
     7
370
     5
100
AcDb2dPolyline
 66
     1
 10
0.0
 20
0.0
 30
0.0
  0
VERTEX
  5
DF
330
DE
100
AcDbEntity
  8
_U+30EC_U+30A4_U+30E4_U+30FC 1
 62
     7
370
     5
100
AcDbVertex
100
AcDb2dVertex
 10
121.7405388385845
 20
142.5801094180339
 30
0.0
  0
VERTEX
  5
E0
330
DE
100
AcDbEntity
  8
_U+30EC_U+30A4_U+30E4_U+30FC 1
 62
     7
370
     5
100
AcDbVertex
100
AcDb2dVertex
 10
123.0414068609522
 20
143.0725871832475
 30
0.0
  0
SEQEND
  5
E1
330
DE
100
AcDbEntity
  8
_U+30EC_U+30A4_U+30E4_U+30FC 1
 62
     7
370
     5
  0
SPLINE
  5
E2
330
4A
100
AcDbEntity
  8
_U+30EC_U+30A4_U+30E4_U+30FC 1
 62
     7
370
     5
100
AcDbSpline
210
0.0
220
0.0
230
1.0
 70
     8
 71
     3
 72
    29
 73
    25
 74
     0
 42
0.0000000001
 43
0.0000000001
 12
1.0
 22
0.0
 32
0.0
 13
1.0
 23
0.0
 33
0.0
 40
0.0
 40
0.0
 40
0.0
 40
0.0
 40
1.0
 40
1.0
 40
1.0
 40
2.0
 40
2.0
 40
2.0
 40
3.0
 40
3.0
 40
3.0
 40
4.0
 40
4.0
 40
4.0
 40
5.0
 40
5.0
 40
5.0
 40
6.0
 40
6.0
 40
6.0
 40
7.0
 40
7.0
 40
7.0
 40
8.0
 40
8.0
 40
8.0
 40
8.0
 10
123.0248615835965
 20
133.7184376996696
 30
0.0
 10
123.0248615835965
 20
133.7184376996696
 30
0.0
 10
121.4632202345484
 20
134.2474279639517
 30
0.0
 10
121.4632202345484
 20
134.2474279639517
 30
0.0
 10
123.3244404648425
 20
136.253181246114
 30
0.0
 10
122.7687449234639
 20
139.6062986605688
 30
0.0
 10
122.7687449234639
 20
139.6062986605688
 30
0.0
 10
122.5728827062386
 20
141.1521002877988
 30
0.0
 10
123.0414068609522
 20
143.0725871832475
 30
0.0
 10
123.0414068609522
 20
143.0725871832475
 30
0.0
 10
121.7581071714697
 20
142.765952746626
 30
0.0
 10
119.986809994437
 20
143.5040696722395
 30
0.0
 10
119.986809994437
 20
143.5040696722395
 30
0.0
 10
116.4028700858709
 20
144.1541721861838
 30
0.0
 10
116.2668037004534
 20
144.798058528116
 30
0.0
 10
113.4798946048867
 20
143.7440291105621
 30
0.0
 10
112.1047668621914
 20
146.8699223641472
 30
0.0
 10
110.1868905222316
 20
149.8635592322176
 30
0.0
 10
110.6852243984069
 20
149.0449736975459
 30
0.0
 10
111.1828879968215
 20
148.2274817739574
 30
0.0
 10
107.5246883679278
 20
153.3470633100127
 30
0.0
 10
107.6256533653519
 20
154.748190774267
 30
0.0
 10
107.6256533653519
 20
154.748190774267
 30
0.0
 10
106.3247853429843
 20
154.2557130090534
 30
0.0
 10
106.3247853429843
 20
154.2557130090534
 30
0.0
  0
SPLINE
  5
E3
330
4A
100
AcDbEntity
  8
_U+30EC_U+30A4_U+30E4_U+30FC 1
 62
     7
370
     5
100
AcDbSpline
210
0.0
220
0.0
230
1.0
 70
     8
 71
     3
 72
    14
 73
    10
 74
     0
 42
0.0000000001
 43
0.0000000001
 12
1.0
 22
0.0
 32
0.0
 13
1.0
 23
0.0
 33
0.0
 40
0.0
 40
0.0
 40
0.0
 40
0.0
 40
1.0
 40
1.0
 40
1.0
 40
2.0
 40
2.0
 40
2.0
 40
3.0
 40
3.0
 40
3.0
 40
3.0
 10
104.2000048416364
 20
146.4199895978482
 30
0.0
 10
103.0691757038196
 20
147.3627529071296
 30
0.0
 10
102.1972148927318
 20
147.7291478977821
 30
0.0
 10
100.9476760357213
 20
147.9384194074599
 30
0.0
 10
100.9476760357213
 20
147.9384194074599
 30
0.0
 10
99.0027416408963
 20
147.8736456718734
 30
0.0
 10
97.67982500798006
 20
148.6193473195157
 30
0.0
 10
97.67982500798006
 20
148.6193473195157
 30
0.0
 10
96.3789569856124
 20
148.1266931654177
 30
0.0
 10
96.3789569856124
 20
148.1266931654177
 30
0.0
  0
SPLINE
  5
E4
330
4A
100
AcDbEntity
  8
_U+30EC_U+30A4_U+30E4_U+30FC 1
 62
     7
370
     5
100
AcDbSpline
210
0.0
220
0.0
230
1.0
 70
     8
 71
     3
 72
    14
 73
    10
 74
     0
 42
0.0000000001
 43
0.0000000001
 12
1.0
 22
0.0
 32
0.0
 13
1.0
 23
0.0
 33
0.0
 40
0.0
 40
0.0
 40
0.0
 40
0.0
 40
1.0
 40
1.0
 40
1.0
 40
2.0
 40
2.0
 40
2.0
 40
3.0
 40
3.0
 40
3.0
 40
3.0
 10
115.2718645591697
 20
116.4152878633319
 30
0.0
 10
115.2718645591697
 20
116.4152878633319
 30
0.0
 10
116.7776964651972
 20
117.1130822899741
 30
0.0
 10
116.7776964651972
 20
117.1130822899741
 30
0.0
 10
116.7776964651972
 20
117.1130822899741
 30
0.0
 10
118.0351728220052
 20
120.0777561032279
 30
0.0
 10
118.4342703118234
 20
121.589479397994
 30
0.0
 10
118.6402925287895
 20
122.368412711455
 30
0.0
 10
118.680262249992
 20
123.4367296286444
 30
0.0
 10
118.6706314169044
 20
124.2890407180113
 30
0.0
  0
ENDBLK
  5
4D
330
4A
100
AcDbEntity
  8
0
100
AcDbBlockEnd
  0
BLOCK
  5
50
330
4E
100
AcDbEntity
  8
0
100
AcDbBlockBegin
  2
block 4
 70
     0
 10
0.0
 20
0.0
 30
0.0
  3
block 4
  1

  0
SPLINE
  5
52
330
4E
100
AcDbEntity
  8
_U+30EC_U+30A4_U+30E4_U+30FC 1
 62
     7
370
     5
100
AcDbSpline
210
0.0
220
0.0
230
1.0
 70
    11
 71
     3
 72
    20
 73
    16
 74
     0
 42
0.0000000001
 43
0.0000000001
 12
1.0
 22
0.0
 32
0.0
 13
1.0
 23
0.0
 33
0.0
 40
0.0
 40
0.0
 40
0.0
 40
0.0
 40
1.0
 40
1.0
 40
1.0
 40
2.0
 40
2.0
 40
2.0
 40
3.0
 40
3.0
 40
3.0
 40
4.0
 40
4.0
 40
4.0
 40
5.0
 40
5.0
 40
5.0
 40
5.0
 10
150.7635658759232
 20
131.4054149809019
 30
0.0
 10
150.952372537773
 20
129.8452905762595
 30
0.0
 10
151.0116392029277
 20
128.423172834763
 30
0.0
 10
150.9413305936103
 20
127.1505623116745
 30
0.0
 10
150.8717666289486
 20
125.8746709553363
 30
0.0
 10
150.6898353222487
 20
124.9329307015843
 30
0.0
 10
150.4011610735111
 20
124.3209318283088
 30
0.0
 10
150.2736986661986
 20
124.0535615573522
 30
0.0
 10
150.1351981141764
 20
123.8327610801529
 30
0.0
 10
149.9863611735291
 20
123.6532646231202
 30
0.0
 10
149.9863611735291
 20
123.6532646231202
 30
0.0
 10
152.9822205415429
 20
122.6386757601156
 30
0.0
 10
152.9822205415429
 20
122.6386757601156
 30
0.0
 10
152.9822205415429
 20
122.6386757601156
 30
0.0
 10
150.7635658759232
 20
131.4054149809019
 30
0.0
 10
150.7635658759232
 20
131.4054149809019
 30
0.0
  0
SPLINE
  5
53
330
4E
100
AcDbEntity
  8
_U+30EC_U+30A4_U+30E4_U+30FC 1
 62
     7
370
     5
100
AcDbSpline
210
0.0
220
0.0
230
1.0
 70
    11
 71
     3
 72
    26
 73
    22
 74
     0
 42
0.0000000001
 43
0.0000000001
 12
1.0
 22
0.0
 32
0.0
 13
1.0
 23
0.0
 33
0.0
 40
0.0
 40
0.0
 40
0.0
 40
0.0
 40
1.0
 40
1.0
 40
1.0
 40
2.0
 40
2.0
 40
2.0
 40
3.0
 40
3.0
 40
3.0
 40
4.0
 40
4.0
 40
4.0
 40
5.0
 40
5.0
 40
5.0
 40
6.0
 40
6.0
 40
6.0
 40
7.0
 40
7.0
 40
7.0
 40
7.0
 10
137.2756723311392
 20
129.9667519620497
 30
0.0
 10
137.2756723311392
 20
129.9667519620497
 30
0.0
 10
137.330282329746
 20
132.4188043994926
 30
0.0
 10
137.330282329746
 20
132.4188043994926
 30
0.0
 10
137.330282329746
 20
132.4188043994926
 30
0.0
 10
135.3454134914953
 20
133.0108360510553
 30
0.0
 10
135.3454134914953
 20
133.0108360510553
 30
0.0
 10
134.9953873893141
 20
133.1086613263374
 30
0.0
 10
134.6432832996726
 20
133.1970321574162
 30
0.0
 10
134.2799893520098
 20
133.2809227108315
 30
0.0
 10
134.2493329639031
 20
131.8184824703637
 30
0.0
 10
134.1308349113706
 20
130.7723905526072
 30
0.0
 10
133.922061027808
 20
130.1374611243612
 30
0.0
 10
133.8026810308536
 20
129.7658803005077
 30
0.0
 10
133.6517979791475
 20
129.4706405858177
 30
0.0
 10
133.4711052059795
 20
129.2472264248508
 30
0.0
 10
133.4711052059795
 20
129.2472264248508
 30
0.0
 10
137.2028237218866
 20
127.9832236793204
 30
0.0
 10
137.2028237218866
 20
127.9832236793204
 30
0.0
 10
137.2389834431863
 20
128.5209981100451
 30
0.0
 10
137.2625842759175
 20
129.1807278154362
 30
0.0
 10
137.2756723311392
 20
129.9667519620497
 30
0.0
  0
SPLINE
  5
54
330
4E
100
AcDbEntity
  8
_U+30EC_U+30A4_U+30E4_U+30FC 1
 62
     7
370
     5
100
AcDbSpline
210
0.0
220
0.0
230
1.0
 70
    11
 71
     3
 72
    26
 73
    22
 74
     0
 42
0.0000000001
 43
0.0000000001
 12
1.0
 22
0.0
 32
0.0
 13
1.0
 23
0.0
 33
0.0
 40
0.0
 40
0.0
 40
0.0
 40
0.0
 40
1.0
 40
1.0
 40
1.0
 40
2.0
 40
2.0
 40
2.0
 40
3.0
 40
3.0
 40
3.0
 40
4.0
 40
4.0
 40
4.0
 40
5.0
 40
5.0
 40
5.0
 40
6.0
 40
6.0
 40
6.0
 40
7.0
 40
7.0
 40
7.0
 40
7.0
 10
156.0490587966346
 20
124.067178779227
 30
0.0
 10
156.0490587966346
 20
124.067178779227
 30
0.0
 10
156.0869471290013
 20
126.5800501040072
 30
0.0
 10
156.0869471290013
 20
126.5800501040072
 30
0.0
 10
156.0979537953872
 20
127.6635364652541
 30
0.0
 10
156.1503412940507
 20
128.3942097799464
 30
0.0
 10
156.2447093471987
 20
128.7681894926276
 30
0.0
 10
155.9511982435757
 20
128.3664814473204
 30
0.0
 10
155.5322746431522
 20
127.5861723005611
 30
0.0
 10
154.9858924348694
 20
126.4275795523415
 30
0.0
 10
154.5469663349562
 20
125.4913779095593
 30
0.0
 10
154.0929060687625
 20
124.2728482184244
 30
0.0
 10
153.6175027475577
 20
122.778552145436
 30
0.0
 10
153.6175027475577
 20
122.778552145436
 30
0.0
 10
153.5100113614111
 20
122.4597115980147
 30
0.0
 10
153.5100113614111
 20
122.4597115980147
 30
0.0
 10
153.5100113614111
 20
122.4597115980147
 30
0.0
 10
155.9449893548452
 20
121.6349555251469
 30
0.0
 10
155.9449893548452
 20
121.6349555251469
 30
0.0
 10
156.0035504644623
 20
122.2953877133181
 30
0.0
 10
156.0380168524719
 20
123.105333302557
 30
0.0
 10
156.0490587966346
 20
124.067178779227
 30
0.0
  0
SPLINE
  5
55
330
4E
100
AcDbEntity
  8
_U+30EC_U+30A4_U+30E4_U+30FC 1
 62
     7
370
     5
100
AcDbSpline
210
0.0
220
0.0
230
1.0
 70
    11
 71
     3
 72
    68
 73
    64
 74
     0
 42
0.0000000001
 43
0.0000000001
 12
1.0
 22
0.0
 32
0.0
 13
1.0
 23
0.0
 33
0.0
 40
0.0
 40
0.0
 40
0.0
 40
0.0
 40
1.0
 40
1.0
 40
1.0
 40
2.0
 40
2.0
 40
2.0
 40
3.0
 40
3.0
 40
3.0
 40
4.0
 40
4.0
 40
4.0
 40
5.0
 40
5.0
 40
5.0
 40
6.0
 40
6.0
 40
6.0
 40
7.0
 40
7.0
 40
7.0
 40
8.0
 40
8.0
 40
8.0
 40
9.0
 40
9.0
 40
9.0
 40
10.0
 40
10.0
 40
10.0
 40
11.0
 40
11.0
 40
11.0
 40
12.0
 40
12.0
 40
12.0
 40
13.0
 40
13.0
 40
13.0
 40
14.0
 40
14.0
 40
14.0
 40
15.0
 40
15.0
 40
15.0
 40
16.0
 40
16.0
 40
16.0
 40
17.0
 40
17.0
 40
17.0
 40
18.0
 40
18.0
 40
18.0
 40
19.0
 40
19.0
 40
19.0
 40
20.0
 40
20.0
 40
20.0
 40
21.0
 40
21.0
 40
21.0
 40
21.0
 10
125.6794790158716
 20
123.7788182310282
 30
0.0
 10
121.0868416330395
 20
124.1994704425186
 30
0.0
 10
121.198107741312
 20
123.7516221912845
 30
0.0
 10
119.0192464080105
 20
124.2001759980562
 30
0.0
 10
118.4692658664861
 20
124.3141937729251
 30
0.0
 10
117.4057467269521
 20
124.7052126518383
 30
0.0
 10
117.1029222902333
 20
125.0027101442485
 30
0.0
 10
117.1029222902333
 20
125.0027101442485
 30
0.0
 10
117.3280650622672
 20
122.4025263216958
 30
0.0
 10
116.9284384057959
 20
120.8916849713517
 30
0.0
 10
116.5289881382089
 20
119.3799616765857
 30
0.0
 10
115.2718645591697
 20
116.4152878633319
 30
0.0
 10
115.2718645591697
 20
116.4152878633319
 30
0.0
 10
115.2718645591697
 20
116.4152878633319
 30
0.0
 10
112.7329935128306
 20
119.6874427798523
 30
0.0
 10
112.7329935128306
 20
119.6874427798523
 30
0.0
 10
112.2233001925006
 20
120.4672227599584
 30
0.0
 10
111.8648427016457
 20
121.1071616325211
 30
0.0
 10
111.8648427016457
 20
121.1071616325211
 30
0.0
 10
110.34983857363
 20
124.3284812725606
 30
0.0
 10
109.6561716468824
 20
126.1118434492855
 30
0.0
 10
109.5633205381402
 20
130.2711286209511
 30
0.0
 10
106.6849714449063
 20
128.6550183844037
 30
0.0
 10
102.7153396017356
 20
130.3476108412221
 30
0.0
 10
102.7153396017356
 20
130.3476108412221
 30
0.0
 10
101.4804410221294
 20
131.1561774872605
 30
0.0
 10
99.45196885165778
 20
131.0142197131044
 30
0.0
 10
99.45196885165778
 20
131.0142197131044
 30
0.0
 10
99.45196885165778
 20
131.0142197131044
 30
0.0
 10
100.1308191121167
 20
134.4326010147831
 30
0.0
 10
100.1308191121167
 20
134.4326010147831
 30
0.0
 10
100.3418507733994
 20
136.3017587448747
 30
0.0
 10
100.8325999275461
 20
137.338043440659
 30
0.0
 10
101.937429343804
 20
137.7740062073145
 30
0.0
 10
99.70949662286549
 20
138.2980223050568
 30
0.0
 10
98.1714561065486
 20
135.8490777438155
 30
0.0
 10
97.82005417106917
 20
134.9648721123148
 30
0.0
 10
97.78474111641454
 20
134.8779123923111
 30
0.0
 10
96.98030197027082
 20
132.7663963350693
 30
0.0
 10
98.40072637847722
 20
129.0131230974899
 30
0.0
 10
99.67626495704663
 20
125.643848461225
 30
0.0
 10
102.2922885014174
 20
122.1436227171899
 30
0.0
 10
106.1755956245682
 20
118.6101653073359
 30
0.0
 10
116.1668999709584
 20
109.5182002615135
 30
0.0
 10
124.5970509879311
 20
109.6005385927462
 30
0.0
 10
134.0114582998305
 20
108.5236166395358
 30
0.0
 10
140.9545447372833
 20
107.7291610841788
 30
0.0
 10
148.3449567709604
 20
108.9318483320281
 30
0.0
 10
155.4909290886515
 20
110.0921696913148
 30
0.0
 10
158.0223918018463
 20
110.5038613474783
 30
0.0
 10
160.4132725741831
 20
110.8938218930851
 30
0.0
 10
162.7462977924405
 20
111.187368274485
 30
0.0
 10
162.7462977924405
 20
111.187368274485
 30
0.0
 10
164.4164888609415
 20
111.3988938246441
 30
0.0
 10
164.4164888609415
 20
111.3988938246441
 30
0.0
 10
166.8673418539705
 20
111.7089502056228
 30
0.0
 10
169.2134551274495
 20
112.0041899203128
 30
0.0
 10
171.3604253504536
 20
112.2687732468961
 30
0.0
 10
171.3604253504536
 20
112.2687732468961
 30
0.0
 10
122.8782824206694
 20
128.6903314390584
 30
0.0
 10
122.8782824206694
 20
128.6903314390584
 30
0.0
 10
124.5315754340459
 20
126.1442284484593
 30
0.0
 10
125.6794790158716
 20
123.7788182310282
 30
0.0
 10
125.6794790158716
 20
123.7788182310282
 30
0.0
  0
SPLINE
  5
56
330
4E
100
AcDbEntity
  8
_U+30EC_U+30A4_U+30E4_U+30FC 1
 62
     7
370
     5
100
AcDbSpline
210
0.0
220
0.0
230
1.0
 70
    11
 71
     3
 72
   719
 73
   715
 74
     0
 42
0.0000000001
 43
0.0000000001
 12
1.0
 22
0.0
 32
0.0
 13
1.0
 23
0.0
 33
0.0
 40
0.0
 40
0.0
 40
0.0
 40
0.0
 40
1.0
 40
1.0
 40
1.0
 40
2.0
 40
2.0
 40
2.0
 40
3.0
 40
3.0
 40
3.0
 40
4.0
 40
4.0
 40
4.0
 40
5.0
 40
5.0
 40
5.0
 40
6.0
 40
6.0
 40
6.0
 40
7.0
 40
7.0
 40
7.0
 40
8.0
 40
8.0
 40
8.0
 40
9.0
 40
9.0
 40
9.0
 40
10.0
 40
10.0
 40
10.0
 40
11.0
 40
11.0
 40
11.0
 40
12.0
 40
12.0
 40
12.0
 40
13.0
 40
13.0
 40
13.0
 40
14.0
 40
14.0
 40
14.0
 40
15.0
 40
15.0
 40
15.0
 40
16.0
 40
16.0
 40
16.0
 40
17.0
 40
17.0
 40
17.0
 40
18.0
 40
18.0
 40
18.0
 40
19.0
 40
19.0
 40
19.0
 40
20.0
 40
20.0
 40
20.0
 40
21.0
 40
21.0
 40
21.0
 40
22.0
 40
22.0
 40
22.0
 40
23.0
 40
23.0
 40
23.0
 40
24.0
 40
24.0
 40
24.0
 40
25.0
 40
25.0
 40
25.0
 40
26.0
 40
26.0
 40
26.0
 40
27.0
 40
27.0
 40
27.0
 40
28.0
 40
28.0
 40
28.0
 40
29.0
 40
29.0
 40
29.0
 40
30.0
 40
30.0
 40
30.0
 40
31.0
 40
31.0
 40
31.0
 40
32.0
 40
32.0
 40
32.0
 40
33.0
 40
33.0
 40
33.0
 40
34.0
 40
34.0
 40
34.0
 40
35.0
 40
35.0
 40
35.0
 40
36.0
 40
36.0
 40
36.0
 40
37.0
 40
37.0
 40
37.0
 40
38.0
 40
38.0
 40
38.0
 40
39.0
 40
39.0
 40
39.0
 40
40.0
 40
40.0
 40
40.0
 40
41.0
 40
41.0
 40
41.0
 40
42.0
 40
42.0
 40
42.0
 40
43.0
 40
43.0
 40
43.0
 40
44.0
 40
44.0
 40
44.0
 40
45.0
 40
45.0
 40
45.0
 40
46.0
 40
46.0
 40
46.0
 40
47.0
 40
47.0
 40
47.0
 40
48.0
 40
48.0
 40
48.0
 40
49.0
 40
49.0
 40
49.0
 40
50.0
 40
50.0
 40
50.0
 40
51.0
 40
51.0
 40
51.0
 40
52.0
 40
52.0
 40
52.0
 40
53.0
 40
53.0
 40
53.0
 40
54.0
 40
54.0
 40
54.0
 40
55.0
 40
55.0
 40
55.0
 40
56.0
 40
56.0
 40
56.0
 40
57.0
 40
57.0
 40
57.0
 40
58.0
 40
58.0
 40
58.0
 40
59.0
 40
59.0
 40
59.0
 40
60.0
 40
60.0
 40
60.0
 40
61.0
 40
61.0
 40
61.0
 40
62.0
 40
62.0
 40
62.0
 40
63.0
 40
63.0
 40
63.0
 40
64.0
 40
64.0
 40
64.0
 40
65.0
 40
65.0
 40
65.0
 40
66.0
 40
66.0
 40
66.0
 40
67.0
 40
67.0
 40
67.0
 40
68.0
 40
68.0
 40
68.0
 40
69.0
 40
69.0
 40
69.0
 40
70.0
 40
70.0
 40
70.0
 40
71.0
 40
71.0
 40
71.0
 40
72.0
 40
72.0
 40
72.0
 40
73.0
 40
73.0
 40
73.0
 40
74.0
 40
74.0
 40
74.0
 40
75.0
 40
75.0
 40
75.0
 40
76.0
 40
76.0
 40
76.0
 40
77.0
 40
77.0
 40
77.0
 40
78.0
 40
78.0
 40
78.0
 40
79.0
 40
79.0
 40
79.0
 40
80.0
 40
80.0
 40
80.0
 40
81.0
 40
81.0
 40
81.0
 40
82.0
 40
82.0
 40
82.0
 40
83.0
 40
83.0
 40
83.0
 40
84.0
 40
84.0
 40
84.0
 40
85.0
 40
85.0
 40
85.0
 40
86.0
 40
86.0
 40
86.0
 40
87.0
 40
87.0
 40
87.0
 40
88.0
 40
88.0
 40
88.0
 40
89.0
 40
89.0
 40
89.0
 40
90.0
 40
90.0
 40
90.0
 40
91.0
 40
91.0
 40
91.0
 40
92.0
 40
92.0
 40
92.0
 40
93.0
 40
93.0
 40
93.0
 40
94.0
 40
94.0
 40
94.0
 40
95.0
 40
95.0
 40
95.0
 40
96.0
 40
96.0
 40
96.0
 40
97.0
 40
97.0
 40
97.0
 40
98.0
 40
98.0
 40
98.0
 40
99.0
 40
99.0
 40
99.0
 40
100.0
 40
100.0
 40
100.0
 40
101.0
 40
101.0
 40
101.0
 40
102.0
 40
102.0
 40
102.0
 40
103.0
 40
103.0
 40
103.0
 40
104.0
 40
104.0
 40
104.0
 40
105.0
 40
105.0
 40
105.0
 40
106.0
 40
106.0
 40
106.0
 40
107.0
 40
107.0
 40
107.0
 40
108.0
 40
108.0
 40
108.0
 40
109.0
 40
109.0
 40
109.0
 40
110.0
 40
110.0
 40
110.0
 40
111.0
 40
111.0
 40
111.0
 40
112.0
 40
112.0
 40
112.0
 40
113.0
 40
113.0
 40
113.0
 40
114.0
 40
114.0
 40
114.0
 40
115.0
 40
115.0
 40
115.0
 40
116.0
 40
116.0
 40
116.0
 40
117.0
 40
117.0
 40
117.0
 40
118.0
 40
118.0
 40
118.0
 40
119.0
 40
119.0
 40
119.0
 40
120.0
 40
120.0
 40
120.0
 40
121.0
 40
121.0
 40
121.0
 40
122.0
 40
122.0
 40
122.0
 40
123.0
 40
123.0
 40
123.0
 40
124.0
 40
124.0
 40
124.0
 40
125.0
 40
125.0
 40
125.0
 40
126.0
 40
126.0
 40
126.0
 40
127.0
 40
127.0
 40
127.0
 40
128.0
 40
128.0
 40
128.0
 40
129.0
 40
129.0
 40
129.0
 40
130.0
 40
130.0
 40
130.0
 40
131.0
 40
131.0
 40
131.0
 40
132.0
 40
132.0
 40
132.0
 40
133.0
 40
133.0
 40
133.0
 40
134.0
 40
134.0
 40
134.0
 40
135.0
 40
135.0
 40
135.0
 40
136.0
 40
136.0
 40
136.0
 40
137.0
 40
137.0
 40
137.0
 40
138.0
 40
138.0
 40
138.0
 40
139.0
 40
139.0
 40
139.0
 40
140.0
 40
140.0
 40
140.0
 40
141.0
 40
141.0
 40
141.0
 40
142.0
 40
142.0
 40
142.0
 40
143.0
 40
143.0
 40
143.0
 40
144.0
 40
144.0
 40
144.0
 40
145.0
 40
145.0
 40
145.0
 40
146.0
 40
146.0
 40
146.0
 40
147.0
 40
147.0
 40
147.0
 40
148.0
 40
148.0
 40
148.0
 40
149.0
 40
149.0
 40
149.0
 40
150.0
 40
150.0
 40
150.0
 40
151.0
 40
151.0
 40
151.0
 40
152.0
 40
152.0
 40
152.0
 40
153.0
 40
153.0
 40
153.0
 40
154.0
 40
154.0
 40
154.0
 40
155.0
 40
155.0
 40
155.0
 40
156.0
 40
156.0
 40
156.0
 40
157.0
 40
157.0
 40
157.0
 40
158.0
 40
158.0
 40
158.0
 40
159.0
 40
159.0
 40
159.0
 40
160.0
 40
160.0
 40
160.0
 40
161.0
 40
161.0
 40
161.0
 40
162.0
 40
162.0
 40
162.0
 40
163.0
 40
163.0
 40
163.0
 40
164.0
 40
164.0
 40
164.0
 40
165.0
 40
165.0
 40
165.0
 40
166.0
 40
166.0
 40
166.0
 40
167.0
 40
167.0
 40
167.0
 40
168.0
 40
168.0
 40
168.0
 40
169.0
 40
169.0
 40
169.0
 40
170.0
 40
170.0
 40
170.0
 40
171.0
 40
171.0
 40
171.0
 40
172.0
 40
172.0
 40
172.0
 40
173.0
 40
173.0
 40
173.0
 40
174.0
 40
174.0
 40
174.0
 40
175.0
 40
175.0
 40
175.0
 40
176.0
 40
176.0
 40
176.0
 40
177.0
 40
177.0
 40
177.0
 40
178.0
 40
178.0
 40
178.0
 40
179.0
 40
179.0
 40
179.0
 40
180.0
 40
180.0
 40
180.0
 40
181.0
 40
181.0
 40
181.0
 40
182.0
 40
182.0
 40
182.0
 40
183.0
 40
183.0
 40
183.0
 40
184.0
 40
184.0
 40
184.0
 40
185.0
 40
185.0
 40
185.0
 40
186.0
 40
186.0
 40
186.0
 40
187.0
 40
187.0
 40
187.0
 40
188.0
 40
188.0
 40
188.0
 40
189.0
 40
189.0
 40
189.0
 40
190.0
 40
190.0
 40
190.0
 40
191.0
 40
191.0
 40
191.0
 40
192.0
 40
192.0
 40
192.0
 40
193.0
 40
193.0
 40
193.0
 40
194.0
 40
194.0
 40
194.0
 40
195.0
 40
195.0
 40
195.0
 40
196.0
 40
196.0
 40
196.0
 40
197.0
 40
197.0
 40
197.0
 40
198.0
 40
198.0
 40
198.0
 40
199.0
 40
199.0
 40
199.0
 40
200.0
 40
200.0
 40
200.0
 40
201.0
 40
201.0
 40
201.0
 40
202.0
 40
202.0
 40
202.0
 40
203.0
 40
203.0
 40
203.0
 40
204.0
 40
204.0
 40
204.0
 40
205.0
 40
205.0
 40
205.0
 40
206.0
 40
206.0
 40
206.0
 40
207.0
 40
207.0
 40
207.0
 40
208.0
 40
208.0
 40
208.0
 40
209.0
 40
209.0
 40
209.0
 40
210.0
 40
210.0
 40
210.0
 40
211.0
 40
211.0
 40
211.0
 40
212.0
 40
212.0
 40
212.0
 40
213.0
 40
213.0
 40
213.0
 40
214.0
 40
214.0
 40
214.0
 40
215.0
 40
215.0
 40
215.0
 40
216.0
 40
216.0
 40
216.0
 40
217.0
 40
217.0
 40
217.0
 40
218.0
 40
218.0
 40
218.0
 40
219.0
 40
219.0
 40
219.0
 40
220.0
 40
220.0
 40
220.0
 40
221.0
 40
221.0
 40
221.0
 40
222.0
 40
222.0
 40
222.0
 40
223.0
 40
223.0
 40
223.0
 40
224.0
 40
224.0
 40
224.0
 40
225.0
 40
225.0
 40
225.0
 40
226.0
 40
226.0
 40
226.0
 40
227.0
 40
227.0
 40
227.0
 40
228.0
 40
228.0
 40
228.0
 40
229.0
 40
229.0
 40
229.0
 40
230.0
 40
230.0
 40
230.0
 40
231.0
 40
231.0
 40
231.0
 40
232.0
 40
232.0
 40
232.0
 40
233.0
 40
233.0
 40
233.0
 40
234.0
 40
234.0
 40
234.0
 40
235.0
 40
235.0
 40
235.0
 40
236.0
 40
236.0
 40
236.0
 40
237.0
 40
237.0
 40
237.0
 40
238.0
 40
238.0
 40
238.0
 40
238.0
 10
207.3485908212079
 20
94.03009442093673
 30
0.0
 10
203.5858631394252
 20
105.0454367645121
 30
0.0
 10
194.000891161736
 20
110.1827630223369
 30
0.0
 10
189.6070440516102
 20
111.6975583054088
 30
0.0
 10
189.6070440516102
 20
111.6975583054088
 30
0.0
 10
186.5071152418071
 20
112.6063815716163
 30
0.0
 10
186.5071152418071
 20
112.6063815716163
 30
0.0
 10
186.5071152418071
 20
112.6063815716163
 30
0.0
 10
183.3093964344988
 20
113.2802576655354
 30
0.0
 10
183.3093964344988
 20
113.2802576655354
 30
0.0
 10
183.7834239224053
 20
113.8390576512792
 30
0.0
 10
184.1375775244813
 20
114.7161690177911
 30
0.0
 10
184.372562796264
 20
115.9146962094364
 30
0.0
 10
184.6798721760524
 20
117.477925058444
 30
0.0
 10
184.6557375112619
 20
119.1656844598301
 30
0.0
 10
184.2947047426948
 20
120.9764221914121
 30
0.0
 10
184.1272411358561
 20
121.8204782809896
 30
0.0
 10
183.9081661414451
 20
122.4790085419668
 30
0.0
 10
183.6360027318687
 20
122.9461568633822
 30
0.0
 10
183.4437388430278
 20
123.2856701880539
 30
0.0
 10
183.230832825392
 20
123.4970193493286
 30
0.0
 10
183.0000103312808
 20
123.5754065695509
 30
0.0
 10
182.8670483902285
 20
123.6203504572932
 30
0.0
 10
182.7650603372749
 20
123.60416108021
 30
0.0
 10
182.6968683945701
 20
123.5221724042424
 30
0.0
 10
182.6272653407903
 20
123.4410335174235
 30
0.0
 10
182.6100497856739
 20
123.3123754651503
 30
0.0
 10
182.6444808959066
 20
123.1356338029927
 30
0.0
 10
182.6644833953963
 20
123.0410540831834
 30
0.0
 10
182.6920353391379
 20
122.9470035300273
 30
0.0
 10
182.7292533937439
 20
122.8577860323034
 30
0.0
 10
182.7540582876447
 20
122.7955944137457
 30
0.0
 10
182.8635911680944
 20
122.5840657615088
 30
0.0
 10
183.0544439410032
 20
122.2355918815102
 30
0.0
 10
183.4196394872418
 20
121.5495096767914
 30
0.0
 10
183.668383092007
 20
120.8677313608517
 30
0.0
 10
183.8013450330592
 20
120.195760266884
 30
0.0
 10
183.9942791948038
 20
119.2264680693905
 30
0.0
 10
184.0473416206551
 20
118.2361855946547
 30
0.0
 10
183.956390862437
 20
117.2295342314476
 30
0.0
 10
183.8647391981086
 20
116.2223537015874
 30
0.0
 10
183.6518378146513
 20
115.4020777489272
 30
0.0
 10
183.3183569898258
 20
114.7754356829458
 30
0.0
 10
182.9841706094627
 20
114.1435754212881
 30
0.0
 10
182.5645767312785
 20
113.7329420984309
 30
0.0
 10
182.0643378551518
 20
113.5386321033882
 30
0.0
 10
181.688805920288
 20
113.3911709960391
 30
0.0
 10
181.2519964869875
 20
113.403238860538
 30
0.0
 10
180.756590666293
 20
113.5720401580914
 30
0.0
 10
180.2315515130212
 20
113.7494873757866
 30
0.0
 10
179.7471523587126
 20
114.1363434770282
 30
0.0
 10
179.303428481144
 20
114.734407628437
 30
0.0
 10
178.860410159113
 20
115.3314487243163
 30
0.0
 10
178.5531054447308
 20
116.0607814834872
 30
0.0
 10
178.3822198935349
 20
116.9210300726516
 30
0.0
 10
178.2278796196946
 20
117.6963297750943
 30
0.0
 10
178.2072068424443
 20
118.5991233631732
 30
0.0
 10
178.3202015617838
 20
119.6340322256593
 30
0.0
 10
178.4814210021152
 20
121.0954494105977
 30
0.0
 10
178.7081159963317
 20
122.2646960474344
 30
0.0
 10
179.0002512666565
 20
123.1464993582711
 30
0.0
 10
178.8831290474223
 20
123.1604340801378
 30
0.0
 10
178.5482723892985
 20
123.2448538002063
 30
0.0
 10
177.9977274033441
 20
123.4003935184603
 30
0.0
 10
177.193676312746
 20
123.6226082350134
 30
0.0
 10
176.6720591038314
 20
123.7455865652093
 30
0.0
 10
176.425396887902
 20
123.7695401757093
 30
0.0
 10
175.9320724560434
 20
123.8150132301047
 30
0.0
 10
175.532445799572
 20
123.7616026759118
 30
0.0
 10
175.2327258072185
 20
123.6057101798889
 30
0.0
 10
174.9336805118221
 20
123.4465368506165
 30
0.0
 10
174.7180230425719
 20
123.1762738019559
 30
0.0
 10
174.5864016570409
 20
122.7945682561385
 30
0.0
 10
174.4541099937493
 20
122.4130390992054
 30
0.0
 10
174.4306855499025
 20
121.9958088320721
 30
0.0
 10
174.5216360674808
 20
121.539526065935
 30
0.0
 10
174.5788169350122
 20
121.255822184284
 30
0.0
 10
174.6849324878605
 20
121.0053499684519
 30
0.0
 10
174.8447805118442
 20
120.7831352518988
 30
0.0
 10
175.0025735908679
 20
120.5652597019018
 30
0.0
 10
175.1652041422745
 20
120.4265827609952
 30
0.0
 10
175.3305555117229
 20
120.3717963735041
 30
0.0
 10
175.4655944123886
 20
120.3259705413399
 30
0.0
 10
175.5668769098047
 20
120.3432213742331
 30
0.0
 10
175.6351041302863
 20
120.4248541499282
 30
0.0
 10
175.703296072991
 20
120.5049699812176
 30
0.0
 10
175.7205469058842
 20
120.634157200144
 30
0.0
 10
175.6867860734122
 20
120.8029613625041
 30
0.0
 10
175.6599044074314
 20
120.9387102479298
 30
0.0
 10
175.56274940991
 20
121.1469549648392
 30
0.0
 10
175.3904880254159
 20
121.4339396797399
 30
0.0
 10
175.232020251681
 20
121.6840591178032
 30
0.0
 10
175.1403685873525
 20
121.8738535574056
 30
0.0
 10
175.1155683102074
 20
121.9977138320235
 30
0.0
 10
175.0563369228297
 20
122.2969399355007
 30
0.0
 10
175.1045616438216
 20
122.5649452064411
 30
0.0
 10
175.2595721954225
 20
122.7973199227349
 30
0.0
 10
175.4125366359645
 20
123.0317760278646
 30
0.0
 10
175.7164194059896
 20
123.1637149133874
 30
0.0
 10
176.1697741166457
 20
123.1928221914239
 30
0.0
 10
176.621082716243
 20
123.2272854673212
 30
0.0
 10
177.1578340914382
 20
123.1266732476657
 30
0.0
 10
177.7806985199921
 20
122.8982527470531
 30
0.0
 10
177.3921138076835
 20
121.1352427429158
 30
0.0
 10
177.1736738132564
 20
119.7844213884893
 30
0.0
 10
177.1213215923697
 20
118.8516416900642
 30
0.0
 10
177.0841035377637
 20
118.1361055260215
 30
0.0
 10
177.1378360668265
 20
117.4064522824896
 30
0.0
 10
177.2852971779006
 20
116.6629731347907
 30
0.0
 10
177.4644332502829
 20
115.756933991239
 30
0.0
 10
177.823419907791
 20
114.9256131791144
 30
0.0
 10
178.364298782881
 20
114.1659768096055
 30
0.0
 10
178.4049387818442
 20
114.1077684777572
 30
0.0
 10
178.4483657251807
 20
114.0536876458036
 30
0.0
 10
178.4910916220442
 20
113.9985484805436
 30
0.0
 10
178.4910916220442
 20
113.9985484805436
 30
0.0
 10
174.201944444627
 20
115.4513578879238
 30
0.0
 10
174.201944444627
 20
115.4513578879238
 30
0.0
 10
174.321148052697
 20
115.6921639928915
 30
0.0
 10
174.3438669410063
 20
116.0098050958989
 30
0.0
 10
174.2667144429746
 20
116.4056570302443
 30
0.0
 10
174.2171138886845
 20
116.6492148018084
 30
0.0
 10
174.12476106758
 20
116.8641975741015
 30
0.0
 10
173.9897133389304
 20
117.0462661805676
 30
0.0
 10
173.8567513978781
 20
117.2252333040272
 30
0.0
 10
173.7161694570202
 20
117.3418586730265
 30
0.0
 10
173.5673721788305
 20
117.3930114494992
 30
0.0
 10
173.4357464086188
 20
117.4374614483652
 30
0.0
 10
173.3310110677785
 20
117.4166122822304
 30
0.0
 10
173.25935752423
 20
117.321503395768
 30
0.0
 10
173.1835808594965
 20
117.2283347870338
 30
0.0
 10
173.1649541933051
 20
117.098971179223
 30
0.0
 10
173.1987194011449
 20
116.9310166374338
 30
0.0
 10
173.2173416919686
 20
116.84557090791
 30
0.0
 10
173.2703994683927
 20
116.6995209116361
 30
0.0
 10
173.3640972437801
 20
116.4969206390271
 30
0.0
 10
173.4454125194833
 20
116.3233186990116
 30
0.0
 10
173.4970591848324
 20
116.1737762028267
 30
0.0
 10
173.5211891842168
 20
116.0545725947567
 30
0.0
 10
173.55220273439
 20
115.8947289877236
 30
0.0
 10
173.5494466834959
 20
115.7731264908259
 30
0.0
 10
173.5156858510238
 20
115.6835562153333
 30
0.0
 10
173.5156858510238
 20
115.6835562153333
 30
0.0
 10
171.9316078358815
 20
116.2199548127597
 30
0.0
 10
171.9316078358815
 20
116.2199548127597
 30
0.0
 10
171.9150978363027
 20
116.2313142569144
 30
0.0
 10
171.9005986700059
 20
116.2420034233083
 30
0.0
 10
171.8840886704271
 20
116.2537156452317
 30
0.0
 10
170.9091167508563
 20
116.9479117386324
 30
0.0
 10
170.0320053843444
 20
117.4300531152209
 30
0.0
 10
169.249967626518
 20
117.6946364418041
 30
0.0
 10
168.7070073625923
 20
117.880832548165
 30
0.0
 10
167.933930160093
 20
117.9807392122828
 30
0.0
 10
166.934157963377
 20
117.9932981008513
 30
0.0
 10
166.934157963377
 20
117.9932981008513
 30
0.0
 10
168.5134029230871
 20
120.0143619381785
 30
0.0
 10
168.5134029230871
 20
120.0143619381785
 30
0.0
 10
168.5134029230871
 20
120.0143619381785
 30
0.0
 10
171.3177082905039
 20
123.3469860802745
 30
0.0
 10
171.3177082905039
 20
123.3469860802745
 30
0.0
 10
171.6325933990655
 20
123.7271715656791
 30
0.0
 10
171.9798721792274
 20
124.0935312785547
 30
0.0
 10
172.3601975471695
 20
124.4377012697742
 30
0.0
 10
172.723981982333
 20
124.7717112612529
 30
0.0
 10
172.8879883670377
 20
125.0292390324606
 30
0.0
 10
172.8507703124317
 20
125.2149059721683
 30
0.0
 10
172.8383525349707
 20
125.26866930413
 30
0.0
 10
172.803921424738
 20
125.3305112469967
 30
0.0
 10
172.7405272596887
 20
125.4014901340748
 30
0.0
 10
172.6771330946393
 20
125.4736331877898
 30
0.0
 10
172.6144444851275
 20
125.5182595755402
 30
0.0
 10
172.54967448678
 20
125.5401317972044
 30
0.0
 10
172.5021200435487
 20
125.5561479079069
 30
0.0
 10
172.4201388457839
 20
125.5509973524828
 30
0.0
 10
172.3126431039382
 20
125.5208348532523
 30
0.0
 10
171.9212714472563
 20
125.4152484670571
 30
0.0
 10
171.4851322917165
 20
125.4426240219143
 30
0.0
 10
170.9973111930507
 20
125.6099112398686
 30
0.0
 10
170.5246638462579
 20
125.770284013555
 30
0.0
 10
169.7839320573399
 20
126.1042587272568
 30
0.0
 10
168.7786565274311
 20
126.6093306588158
 30
0.0
 10
168.3383898719966
 20
126.8320392642451
 30
0.0
 10
167.962187659372
 20
126.9984445377775
 30
0.0
 10
167.656258778288
 20
127.1021612017982
 30
0.0
 10
167.1787740682475
 20
127.2638777459617
 30
0.0
 10
166.8101565776517
 20
127.2185778654948
 30
0.0
 10
166.5552082916945
 20
126.9652128719587
 30
0.0
 10
166.3016627017356
 20
126.7090609340492
 30
0.0
 10
166.2258507592252
 20
126.3225223327995
 30
0.0
 10
166.3292146454771
 20
125.8057381793171
 30
0.0
 10
166.4029451991516
 20
125.4345454110093
 30
0.0
 10
166.5317796403092
 20
125.1169043080018
 30
0.0
 10
166.7212565799197
 20
124.8502748703597
 30
0.0
 10
166.909357686232
 20
124.5810348772286
 30
0.0
 10
167.1036676812747
 20
124.4136065481667
 30
0.0
 10
167.3027754539728
 20
124.346405524469
 30
0.0
 10
167.4281879507733
 20
124.3028343287705
 30
0.0
 10
167.5246416247854
 20
124.3186740505886
 30
0.0
 10
167.5928646132387
 20
124.3965321041578
 30
0.0
 10
167.661762111481
 20
124.4728379355445
 30
0.0
 10
167.6824348887314
 20
124.5829045994031
 30
0.0
 10
167.6541773894523
 20
124.7284638577067
 30
0.0
 10
167.6300826678448
 20
124.8459388576775
 30
0.0
 10
167.5880315578065
 20
124.9549793121329
 30
0.0
 10
167.5301760037269
 20
125.0523138576259
 30
0.0
 10
167.4702390608116
 20
125.1473843072242
 30
0.0
 10
167.3448265640111
 20
125.3010543033038
 30
0.0
 10
167.1470593468344
 20
125.5120506868097
 30
0.0
 10
166.9582879627614
 20
125.7091123484489
 30
0.0
 10
166.8487194027324
 20
125.8884292883186
 30
0.0
 10
166.8156599108446
 20
126.053105950784
 30
0.0
 10
166.7874024115655
 20
126.1981681693054
 30
0.0
 10
166.8184115774411
 20
126.3053067776832
 30
0.0
 10
166.9114390750678
 20
126.3678221906301
 30
0.0
 10
167.0003037950229
 20
126.4353406632546
 30
0.0
 10
167.1518924022666
 20
126.4312131633599
 30
0.0
 10
167.3641277359366
 20
126.3593876096368
 30
0.0
 10
167.4881248936886
 20
126.3164898329534
 30
0.0
 10
167.7954296080708
 20
126.1404537263334
 30
0.0
 10
168.2839562622742
 20
125.8335017897199
 30
0.0
 10
169.0811634641579
 20
125.3279359692846
 30
0.0
 10
169.7550042803001
 20
124.9801323670467
 30
0.0
 10
170.3034721796463
 20
124.7922076496189
 30
0.0
 10
170.644533424273
 20
124.6768140414517
 30
0.0
 10
170.9683834160109
 20
124.6094334876152
 30
0.0
 10
171.2701495194233
 20
124.5896426547867
 30
0.0
 10
170.8905253624417
 20
123.9703765594744
 30
0.0
 10
170.4936503725668
 20
123.4200432401813
 30
0.0
 10
170.0788542720381
 20
122.944781030084
 30
0.0
 10
170.0788542720381
 20
122.944781030084
 30
0.0
 10
168.3921221801243
 20
120.9769513580653
 30
0.0
 10
168.3921221801243
 20
120.9769513580653
 30
0.0
 10
167.6700523890473
 20
120.1663033231911
 30
0.0
 10
167.142261569179
 20
119.5479221923353
 30
0.0
 10
166.8046221805212
 20
119.1269141830414
 30
0.0
 10
166.4560029755758
 20
118.7014641938956
 30
0.0
 10
166.1982988154837
 20
118.4005094793514
 30
0.0
 10
166.0322463197201
 20
118.2182644840008
 30
0.0
 10
166.0322463197201
 20
118.2182644840008
 30
0.0
 10
162.5795750189162
 20
119.3875463986144
 30
0.0
 10
162.5795750189162
 20
119.3875463986144
 30
0.0
 10
162.5912872408396
 20
122.138119383997
 30
0.0
 10
162.6050455738219
 20
123.8229154521254
 30
0.0
 10
162.6209205734169
 20
124.4435573807359
 30
0.0
 10
162.670521127707
 20
126.3342345547229
 30
0.0
 10
162.7201216819972
 20
127.37207147269
 30
0.0
 10
162.7724739028838
 20
127.5560450791075
 30
0.0
 10
162.8207339016526
 20
127.6924642422938
 30
0.0
 10
162.8916775109538
 20
127.7866944124976
 30
0.0
 10
162.998502737028
 20
127.8278603499507
 30
0.0
 10
163.1555905597763
 20
127.8921011816451
 30
0.0
 10
163.5132055146774
 20
127.8471572939028
 30
0.0
 10
164.0671683142978
 20
127.6996961865538
 30
0.0
 10
164.0671683142978
 20
127.6996961865538
 30
0.0
 10
164.0988477579341
 20
128.1329072866127
 30
0.0
 10
164.0988477579341
 20
128.1329072866127
 30
0.0
 10
163.730900545099
 20
128.1887167296334
 30
0.0
 10
163.1893555147585
 20
128.3287695038381
 30
0.0
 10
162.4762111326643
 20
128.5484089426791
 30
0.0
 10
161.7107186521936
 20
128.7883331032248
 30
0.0
 10
161.2208161646921
 20
128.9383694882859
 30
0.0
 10
161.0079147812348
 20
128.9880053203529
 30
0.0
 10
160.7929360709126
 20
129.0362333010742
 30
0.0
 10
160.5882856252737
 20
129.0684386516342
 30
0.0
 10
160.3905536858738
 20
129.0829025401541
 30
0.0
 10
160.3905536858738
 20
129.0829025401541
 30
0.0
 10
160.3492081313731
 20
128.6336753293926
 30
0.0
 10
160.3492081313731
 20
128.6336753293926
 30
0.0
 10
160.8273983969513
 20
128.553912275872
 30
0.0
 10
161.2394075531067
 20
128.4497017229751
 30
0.0
 10
161.5811786554985
 20
128.3236221901415
 30
0.0
 10
161.5708422668733
 20
126.2349981683658
 30
0.0
 10
161.5577582929442
 20
124.8841768139392
 30
0.0
 10
161.5419144898335
 20
124.2654398852801
 30
0.0
 10
161.4916083800058
 20
122.1360379951612
 30
0.0
 10
161.455766158698
 20
120.9238935816411
 30
0.0
 10
161.4316714370905
 20
120.6314055335476
 30
0.0
 10
161.4089172710044
 20
120.3390938743384
 30
0.0
 10
161.3689475498018
 20
120.1520158235556
 30
0.0
 10
161.315219495617
 20
120.0743341588707
 30
0.0
 10
161.2890433851737
 20
120.0266033267551
 30
0.0
 10
161.2414889419425
 20
119.9963027477787
 30
0.0
 10
161.1815519990271
 20
119.9773555502338
 30
0.0
 10
161.1119489452473
 20
119.9604574951093
 30
0.0
 10
161.0299633917834
 20
119.9492744398391
 30
0.0
 10
160.9390172829925
 20
119.943241939993
 30
0.0
 10
160.9390172829925
 20
119.943241939993
 30
0.0
 10
157.1783357122688
 20
121.2172282963798
 30
0.0
 10
157.1783357122688
 20
121.2172282963798
 30
0.0
 10
157.1783357122688
 20
121.2172282963798
 30
0.0
 10
157.1707509902401
 20
121.9961616098408
 30
0.0
 10
157.1707509902401
 20
121.9961616098408
 30
0.0
 10
157.1666234903454
 20
122.4242221544757
 30
0.0
 10
157.1666234903454
 20
122.7461671462622
 30
0.0
 10
157.1700807124794
 20
122.9674999183933
 30
0.0
 10
157.1700807124794
 20
122.9674999183933
 30
0.0
 10
157.2458573772128
 20
126.9110999682721
 30
0.0
 10
157.2458573772128
 20
126.9110999682721
 30
0.0
 10
157.280327738458
 20
128.6173064409214
 30
0.0
 10
157.3588520965523
 20
129.9719025174739
 30
0.0
 10
157.4828887600546
 20
130.9802824917479
 30
0.0
 10
156.9495946069934
 20
130.7885830521942
 30
0.0
 10
156.3839194053484
 20
130.2638999674342
 30
0.0
 10
155.7803166277217
 20
129.4136316983832
 30
0.0
 10
154.9541777134563
 20
128.1828638568432
 30
0.0
 10
154.1852280108516
 20
126.5182081611405
 30
0.0
 10
153.4824594176696
 20
124.4184043258221
 30
0.0
 10
153.4824594176696
 20
124.4184043258221
 30
0.0
 10
151.717194740483
 20
131.350275815642
 30
0.0
 10
151.717194740483
 20
131.350275815642
 30
0.0
 10
151.6703105750125
 20
131.5444094218003
 30
0.0
 10
151.640712520212
 20
131.6679169186494
 30
0.0
 10
151.628294742751
 20
131.7201280284285
 30
0.0
 10
151.6172880763652
 20
131.7630258051118
 30
0.0
 10
151.5662764109999
 20
132.0398152424948
 30
0.0
 10
151.4760358577466
 20
132.5586455070361
 30
0.0
 10
151.2066194757311
 20
132.5466157851208
 30
0.0
 10
150.8290414298083
 20
132.6225721890666
 30
0.0
 10
150.3418944068587
 20
132.7903499455693
 30
0.0
 10
149.4392734097087
 20
133.0910929934522
 30
0.0
 10
148.6849639845083
 20
133.1948096574729
 30
0.0
 10
148.0745173334155
 20
133.1023113264993
 30
0.0
 10
147.4685194075772
 20
133.0054738289699
 30
0.0
 10
147.034775415497
 20
132.7159138363572
 30
0.0
 10
146.7781332966389
 20
132.2272460710464
 30
0.0
 10
146.522506817455
 20
131.736990805776
 30
0.0
 10
146.4632401523003
 20
131.152547189434
 30
0.0
 10
146.5962020933526
 20
130.4790205600918
 30
0.0
 10
146.6913109798151
 20
129.9991369612235
 30
0.0
 10
146.8724976418593
 20
129.5524850281741
 30
0.0
 10
147.1443481904794
 20
129.1337025388581
 30
0.0
 10
147.3451845742445
 20
128.8239989356482
 30
0.0
 10
147.5432692914132
 20
128.63212310721
 30
0.0
 10
147.7358506753889
 20
128.5689053310451
 30
0.0
 10
147.8484926169596
 20
128.5306642209096
 30
0.0
 10
147.9363695591621
 20
128.5475269982572
 30
0.0
 10
147.9956009465399
 20
128.6222806074611
 30
0.0
 10
148.0586423338204
 20
128.6942825500687
 30
0.0
 10
148.0734590001091
 20
128.8079860789091
 30
0.0
 10
148.0445312230694
 20
128.9597478210738
 30
0.0
 10
148.0169792793278
 20
129.100823650808
 30
0.0
 10
147.9084648376518
 20
129.3004638565637
 30
0.0
 10
147.7241384534655
 20
129.567795583339
 30
0.0
 10
147.3758409623513
 20
130.067681681697
 30
0.0
 10
147.1722529119897
 20
130.4643802826875
 30
0.0
 10
147.1153888521102
 20
130.754293053069
 30
0.0
 10
146.9834499632541
 20
131.4126469251619
 30
0.0
 10
147.1457277409913
 20
131.913062190173
 30
0.0
 10
147.6011638519886
 20
132.2553305224917
 30
0.0
 10
148.175094275294
 20
132.6830349483071
 30
0.0
 10
149.02447730918
 20
132.7069532810302
 30
0.0
 10
150.1544950581286
 20
132.3235191241458
 30
0.0
 10
150.3467236643355
 20
130.9945699913834
 30
0.0
 10
150.438375328664
 20
129.6680583009164
 30
0.0
 10
150.4280389400388
 20
128.3420339479441
 30
0.0
 10
150.413539773742
 20
127.0203167594417
 30
0.0
 10
150.2991692211043
 20
126.0238253959755
 30
0.0
 10
150.082810615513
 20
125.3556643019106
 30
0.0
 10
149.8678631209967
 20
124.6890201522514
 30
0.0
 10
149.5991170167419
 20
124.2642404408662
 30
0.0
 10
149.2773484138398
 20
124.0897565564288
 30
0.0
 10
149.1850264717507
 20
124.0363460022358
 30
0.0
 10
149.0899528630651
 20
124.0044901697152
 30
0.0
 10
148.9927978655437
 20
123.9896735034266
 30
0.0
 10
148.9927978655437
 20
123.9896735034266
 30
0.0
 10
148.0745173334155
 20
124.3007529399347
 30
0.0
 10
148.0745173334155
 20
124.3007529399347
 30
0.0
 10
147.8450706726024
 20
124.4356583022243
 30
0.0
 10
147.6728092881083
 20
124.5212390454208
 30
0.0
 10
147.5553342911054
 20
124.5612087666233
 30
0.0
 10
147.4371537385648
 20
124.6018487655865
 30
0.0
 10
147.3427856854168
 20
124.6041065433066
 30
0.0
 10
147.2666209651377
 20
124.5746527466341
 30
0.0
 10
147.2666209651377
 20
124.5746527466341
 30
0.0
 10
143.9979232707514
 20
125.681384015823
 30
0.0
 10
143.9979232707514
 20
125.681384015823
 30
0.0
 10
144.0106585482042
 20
128.4501956118514
 30
0.0
 10
144.0268510477911
 20
130.1433172353229
 30
0.0
 10
144.0385632697146
 20
130.7677338860594
 30
0.0
 10
144.0885166017735
 20
132.6590813378071
 30
0.0
 10
144.1398457671306
 20
133.6974474224273
 30
0.0
 10
144.191213852841
 20
133.8808918621917
 30
0.0
 10
144.2377063201895
 20
134.0174874142624
 30
0.0
 10
144.313482984923
 20
134.1103385230047
 30
0.0
 10
144.4161765934142
 20
134.1506257441991
 30
0.0
 10
144.5756674226785
 20
134.2150429647779
 30
0.0
 10
144.930526580292
 20
134.1721804658714
 30
0.0
 10
145.4875979549688
 20
134.0216149141571
 30
0.0
 10
145.4875979549688
 20
134.0216149141571
 30
0.0
 10
145.5165257320086
 20
134.4569074030518
 30
0.0
 10
145.5165257320086
 20
134.4569074030518
 30
0.0
 10
145.1503071302405
 20
134.5128932349569
 30
0.0
 10
144.6090754773818
 20
134.6515701758634
 30
0.0
 10
143.8949121622683
 20
134.8732557257632
 30
0.0
 10
143.1300899595583
 20
135.1133562751933
 30
0.0
 10
142.6408930275943
 20
135.2599707158973
 30
0.0
 10
142.4273249643931
 20
135.3102415479482
 30
0.0
 10
142.2140672051502
 20
135.361076824429
 30
0.0
 10
142.0073394326465
 20
135.3919096014202
 30
0.0
 10
141.8113361043136
 20
135.4069026565932
 30
0.0
 10
141.8113361043136
 20
135.4069026565932
 30
0.0
 10
141.7675563832083
 20
134.957322668063
 30
0.0
 10
141.7675563832083
 20
134.957322668063
 30
0.0
 10
142.246452204324
 20
134.8763601701285
 30
0.0
 10
142.6588141382482
 20
134.7724671172235
 30
0.0
 10
143.0036544072284
 20
134.6465607315467
 30
0.0
 10
142.9909191297755
 20
132.5570932848535
 30
0.0
 10
142.9768080190244
 20
131.2078241526095
 30
0.0
 10
142.9592396861393
 20
130.5925444460844
 30
0.0
 10
142.9130610762063
 20
128.458979778294
 30
0.0
 10
142.8775716326672
 20
127.2454595314757
 30
0.0
 10
142.8517482999927
 20
126.9543473166803
 30
0.0
 10
142.8269480228477
 20
126.6641170463069
 30
0.0
 10
142.7887069127121
 20
126.4763334399866
 30
0.0
 10
142.7352999643163
 20
126.3976287197723
 30
0.0
 10
142.7084146925384
 20
126.3510973320705
 30
0.0
 10
142.6615694087792
 20
126.3185712217892
 30
0.0
 10
142.6016288619294
 20
126.2994506667215
 30
0.0
 10
142.5117058086679
 20
126.2784251117023
 30
0.0
 10
142.4042144225214
 20
126.2665365008945
 30
0.0
 10
142.2802166310967
 20
126.2636084454137
 30
0.0
 10
142.2802166310967
 20
126.2636084454137
 30
0.0
 10
138.4475295234648
 20
127.5615484123004
 30
0.0
 10
138.4475295234648
 20
127.5615484123004
 30
0.0
 10
138.3521031370105
 20
131.9667902443578
 30
0.0
 10
138.48181952259
 20
134.7909173945305
 30
0.0
 10
138.8280356248684
 20
136.0371754182914
 30
0.0
 10
139.0321528418832
 20
136.7241395674322
 30
0.0
 10
139.320513390082
 20
137.0052328935942
 30
0.0
 10
139.6936111583413
 20
136.8787973412643
 30
0.0
 10
139.8652022650747
 20
136.8219648427142
 30
0.0
 10
140.0956719814172
 20
136.5997501261612
 30
0.0
 10
140.378846696415
 20
136.2258056912568
 30
0.0
 10
140.658246689287
 20
135.8497445897398
 30
0.0
 10
140.8852944612723
 20
135.6308107064364
 30
0.0
 10
141.0585789012958
 20
135.5712265412899
 30
0.0
 10
141.1922499647018
 20
135.5259332994517
 30
0.0
 10
141.2938816730706
 20
135.5350315422133
 30
0.0
 10
141.3593219491788
 20
135.6041054293399
 30
0.0
 10
141.4237391697576
 20
135.6702512609858
 30
0.0
 10
141.4420166313062
 20
135.7779190360167
 30
0.0
 10
141.4134027811324
 20
135.9276026433091
 30
0.0
 10
141.3620736157753
 20
136.1851304145167
 30
0.0
 10
141.1987727866081
 20
136.451442352167
 30
0.0
 10
140.9252289046979
 20
136.731689011684
 30
0.0
 10
140.6499916894975
 20
137.0135231711605
 30
0.0
 10
140.2916753097501
 20
137.2283295545692
 30
0.0
 10
139.8541638539253
 20
137.3786834396223
 30
0.0
 10
139.3501467226594
 20
137.5474876019824
 30
0.0
 10
138.921419409714
 20
137.5535201018284
 30
0.0
 10
138.5729420202653
 20
137.3924805212074
 30
0.0
 10
138.2248209180355
 20
137.2279767768004
 30
0.0
 10
137.9524764805391
 20
136.8670851193409
 30
0.0
 10
137.7605653743241
 20
136.3010531893371
 30
0.0
 10
137.5645620459912
 20
135.7393251481124
 30
0.0
 10
137.4327642715758
 20
134.6717137864606
 30
0.0
 10
137.3571639957268
 20
133.1091904929905
 30
0.0
 10
136.6223279033629
 20
133.2385541008013
 30
0.0
 10
135.5929223740697
 20
133.5317124266555
 30
0.0
 10
134.2736393521718
 20
133.9792463041269
 30
0.0
 10
134.290325740635
 20
136.026309863013
 30
0.0
 10
134.3938694108459
 20
137.4169245497577
 30
0.0
 10
134.5854277441316
 20
138.1531364754198
 30
0.0
 10
133.2254694111381
 20
138.6165100747093
 30
0.0
 10
132.328708300251
 20
138.8640542350606
 30
0.0
 10
131.8992685794138
 20
138.8921388541659
 30
0.0
 10
131.1497922096456
 20
138.9425860763755
 30
0.0
 10
130.6196025009496
 20
138.7761772928581
 30
0.0
 10
130.3074647311352
 20
138.3896386916084
 30
0.0
 10
129.9972319612721
 20
138.0038056458963
 30
0.0
 10
129.9102369634915
 20
137.4689592706524
 30
0.0
 10
130.0459858489172
 20
136.7790670660308
 30
0.0
 10
130.1203866803524
 20
136.400642353463
 30
0.0
 10
130.2426947327876
 20
136.0914360770882
 30
0.0
 10
130.4040905620034
 20
135.8514732008069
 30
0.0
 10
130.5661919467567
 20
135.6091148736566
 30
0.0
 10
130.7334471895387
 20
135.4616537663075
 30
0.0
 10
130.907257493611
 20
135.4030926566904
 30
0.0
 10
131.0459344345174
 20
135.3560673801124
 30
0.0
 10
131.1490866541081
 20
135.3724362685836
 30
0.0
 10
131.2179841523503
 20
135.4501179332685
 30
0.0
 10
131.2863877617163
 20
135.5305865423267
 30
0.0
 10
131.3082599833805
 20
135.6544115391676
 30
0.0
 10
131.2721002620808
 20
135.82804875696
 30
0.0
 10
131.2443719294549
 20
135.9755098643091
 30
0.0
 10
131.1444333005471
 20
136.1904926366022
 30
0.0
 10
130.9783774917966
 20
136.4703865183504
 30
0.0
 10
130.7964852742148
 20
136.7690834551744
 30
0.0
 10
130.6871241658937
 20
137.0026610768605
 30
0.0
 10
130.6543863889511
 20
137.1702623338284
 30
0.0
 10
130.5556791692471
 20
137.6641194100285
 30
0.0
 10
130.7165811095866
 20
138.0203509232519
 30
0.0
 10
131.135822210002
 20
138.2451444098832
 30
0.0
 10
131.5573563659144
 20
138.4687314673683
 30
0.0
 10
132.2618535701635
 20
138.4127456354634
 30
0.0
 10
133.2523124337836
 20
138.0761638543698
 30
0.0
 10
133.2523124337836
 20
138.0761638543698
 30
0.0
 10
133.1691274359059
 20
135.0673893319216
 30
0.0
 10
133.1691274359059
 20
135.0673893319216
 30
0.0
 10
133.1005860778359
 20
132.3457441235788
 30
0.0
 10
132.9700196632077
 20
130.6617947220955
 30
0.0
 10
132.7841444112483
 20
130.0134277452746
 30
0.0
 10
132.7283316138181
 20
129.8218694119889
 30
0.0
 10
132.6632088377018
 20
129.6685841918788
 30
0.0
 10
132.5896546729116
 20
129.5457469727904
 30
0.0
 10
132.5896546729116
 20
129.5457469727904
 30
0.0
 10
131.1839058198864
 20
130.0218558495328
 30
0.0
 10
131.1839058198864
 20
130.0218558495328
 30
0.0
 10
130.9549530479497
 20
130.3362194118605
 30
0.0
 10
130.756868330781
 20
130.5219183367751
 30
0.0
 10
130.584289446295
 20
130.5811850019298
 30
0.0
 10
130.4659325048701
 20
130.6211194453554
 30
0.0
 10
130.3758330627243
 20
130.6066555568355
 30
0.0
 10
130.3115922310299
 20
130.5322547254003
 30
0.0
 10
130.2680241765858
 20
130.4845238932847
 30
0.0
 10
130.2481980659805
 20
130.4192600060608
 30
0.0
 10
130.2468222326823
 20
130.3391441747714
 30
0.0
 10
130.2468222326823
 20
130.3391441747714
 30
0.0
 10
127.9401527457927
 20
131.1205116548371
 30
0.0
 10
127.9401527457927
 20
131.1205116548371
 30
0.0
 10
128.4028528352814
 20
131.3034269279483
 30
0.0
 10
128.7285725491938
 20
131.6083360782091
 30
0.0
 10
128.9166736555061
 20
132.0401680202636
 30
0.0
 10
129.1264705945982
 20
132.5250610634485
 30
0.0
 10
129.1686980935209
 20
133.0916221601054
 30
0.0
 10
129.0389817079413
 20
133.7389340880355
 30
0.0
 10
128.9523394879295
 20
134.1742265769303
 30
0.0
 10
128.7543958818684
 20
134.6624004533648
 30
0.0
 10
128.4465972786099
 20
135.1969293286168
 30
0.0
 10
128.1363645087468
 20
135.7338218149195
 30
0.0
 10
127.5529406347423
 20
136.529653183505
 30
0.0
 10
126.6940678788762
 20
137.582800656637
 30
0.0
 10
126.2231448353348
 20
138.1677767528241
 30
0.0
 10
125.9089256766846
 20
138.6065264638529
 30
0.0
 10
125.7461540141706
 20
138.9005667341291
 30
0.0
 10
125.5852520738311
 20
139.1920317266932
 30
0.0
 10
125.4736331877898
 20
139.4925983856918
 30
0.0
 10
125.4102743005174
 20
139.8085108776322
 30
0.0
 10
125.2932931923907
 20
140.3962386404158
 30
0.0
 10
125.3930234676241
 20
140.8534033509748
 30
0.0
 10
125.7037854041404
 20
141.1882952868754
 30
0.0
 10
126.0167698405999
 20
141.5188480562201
 30
0.0
 10
126.446206218533
 20
141.5946247209535
 30
0.0
 10
126.9898367602194
 20
141.4084286145927
 30
0.0
 10
127.3398628624006
 20
141.2911300064741
 30
0.0
 10
127.6478378545435
 20
141.0597783457097
 30
0.0
 10
127.9036370146842
 20
140.7282025208356
 30
0.0
 10
128.1620114525369
 20
140.3948628071175
 30
0.0
 10
128.335154781453
 20
139.9988697616646
 30
0.0
 10
128.4271239457733
 20
139.5413522733369
 30
0.0
 10
128.4906944997071
 20
139.2190545037816
 30
0.0
 10
128.5554644980546
 20
138.7598471875323
 30
0.0
 10
128.6264433851327
 20
138.1517606421216
 30
0.0
 10
128.6264433851327
 20
138.1517606421216
 30
0.0
 10
129.002116431104
 20
138.0244784231466
 30
0.0
 10
129.002116431104
 20
138.0244784231466
 30
0.0
 10
128.9049614335827
 20
139.0039306203809
 30
0.0
 10
128.8512333793978
 20
139.6524419927249
 30
0.0
 10
128.8453805233441
 20
139.9718117067994
 30
0.0
 10
128.8364167131092
 20
140.292557254172
 30
0.0
 10
128.847423379495
 20
140.6301655788922
 30
0.0
 10
128.8801611564376
 20
140.973982792343
 30
0.0
 10
128.6877561613463
 20
141.0673666313999
 30
0.0
 10
128.4557342228212
 20
141.1860375091552
 30
0.0
 10
128.1864942296901
 20
141.3339925053806
 30
0.0
 10
127.7146892417268
 20
141.5967061097893
 30
0.0
 10
127.3234971903915
 20
141.7827258272658
 30
0.0
 10
127.0160128706627
 20
141.8855605468644
 30
0.0
 10
126.4033084418496
 20
142.0945108193115
 30
0.0
 10
125.8865595661441
 20
142.1189583186878
 30
0.0
 10
125.4677770768281
 20
141.9601377671841
 30
0.0
 10
125.0468073653457
 20
141.802869437863
 30
0.0
 10
124.7395026509635
 20
141.5045252788077
 30
0.0
 10
124.5463921003346
 20
141.0618597345455
 30
0.0
 10
124.354339883012
 20
140.619338853734
 30
0.0
 10
124.3105954396836
 20
140.1285508694673
 30
0.0
 10
124.4165346036475
 20
139.5911292165114
 30
0.0
 10
124.4699098800636
 20
139.3248172788611
 30
0.0
 10
124.5593037666719
 20
139.0450997859973
 30
0.0
 10
124.687997096722
 20
138.7493309046541
 30
0.0
 10
124.8161612601189
 20
138.4527153566658
 30
0.0
 10
124.9837659780652
 20
138.1454106422836
 30
0.0
 10
125.1875304173111
 20
137.8311914836333
 30
0.0
 10
125.3356618024209
 20
137.6081301004352
 30
0.0
 10
125.6648387384673
 20
137.1783762225103
 30
0.0
 10
126.1869498362583
 20
136.5372379055337
 30
0.0
 10
126.7133648228283
 20
135.8842109777494
 30
0.0
 10
127.0597573139911
 20
135.4339254336816
 30
0.0
 10
127.2247867542253
 20
135.1908968287707
 30
0.0
 10
127.4588900815861
 20
134.8325804490232
 30
0.0
 10
127.6347497993218
 20
134.5266515679392
 30
0.0
 10
127.7477445186613
 20
134.2712051855673
 30
0.0
 10
127.8617975713071
 20
134.0142065810128
 30
0.0
 10
127.9406786804058
 20
133.7671915873146
 30
0.0
 10
127.9885506236289
 20
133.5305129822417
 30
0.0
 10
128.1251814534765
 20
132.8382218887924
 30
0.0
 10
127.9873511792151
 20
132.2937446804609
 30
0.0
 10
127.5713556342725
 20
131.9054774681443
 30
0.0
 10
127.3240231405824
 20
131.6748313629174
 30
0.0
 10
127.026878425941
 20
131.557497477022
 30
0.0
 10
126.6801331570094
 20
131.5473374772812
 30
0.0
 10
126.6801331570094
 20
131.5473374772812
 30
0.0
 10
125.2550520822552
 20
132.0298316316384
 30
0.0
 10
125.2550520822552
 20
132.0298316316384
 30
0.0
 10
125.234908471658
 20
132.0453538534646
 30
0.0
 10
125.2142388575854
 20
132.0592885753313
 30
0.0
 10
125.1942331949179
 20
132.0760102415714
 30
0.0
 10
124.9701487561903
 20
132.2584316258063
 30
0.0
 10
124.7837762609451
 20
132.4613527446623
 30
0.0
 10
124.6332138577307
 20
132.6801068928262
 30
0.0
 10
124.4840562685916
 20
132.9016194112191
 30
0.0
 10
124.3281637725687
 20
133.225642434464
 30
0.0
 10
124.1701898877101
 20
133.6549024235127
 30
0.0
 10
124.0354993355908
 20
134.009232414473
 30
0.0
 10
123.9226810051357
 20
134.2464082997718
 30
0.0
 10
123.8355096184707
 20
134.3632096276645
 30
0.0
 10
123.6925287887851
 20
134.5623174003626
 30
0.0
 10
123.5369890705311
 20
134.6910107304127
 30
0.0
 10
123.3685376859397
 20
134.7493954511454
 30
0.0
 10
123.2069333025315
 20
134.8028060053383
 30
0.0
 10
123.0770726933756
 20
134.767813855197
 30
0.0
 10
122.9850682512784
 20
134.6368946206822
 30
0.0
 10
122.8922555248324
 20
134.5096124017072
 30
0.0
 10
122.8715796430626
 20
134.3161843510864
 30
0.0
 10
122.9235790861805
 20
134.0562610775972
 30
0.0
 10
123.0164333025791
 20
133.5915082584634
 30
0.0
 10
123.3282151869684
 20
133.0754296605185
 30
0.0
 10
123.851878506942
 20
132.50527023062
 30
0.0
 10
123.851878506942
 20
132.50527023062
 30
0.0
 10
120.1623522121808
 20
133.754950198738
 30
0.0
 10
120.1623522121808
 20
133.754950198738
 30
0.0
 10
122.0237166361608
 20
135.7607034809004
 30
0.0
 10
121.4678769010963
 20
139.1134681175864
 30
0.0
 10
121.4678769010963
 20
139.1134681175864
 30
0.0
 10
121.2723674616397
 20
140.6596225225852
 30
0.0
 10
121.7405388385845
 20
142.5801094180339
 30
0.0
 10
121.7405388385845
 20
142.5801094180339
 30
0.0
 10
120.4570627602176
 20
142.2734749814124
 30
0.0
 10
118.6859419720694
 20
143.0115919070259
 30
0.0
 10
118.6859419720694
 20
143.0115919070259
 30
0.0
 10
115.1018256746189
 20
143.6613416307514
 30
0.0
 10
114.9659356780857
 20
144.305404374018
 30
0.0
 10
112.1788501936347
 20
143.2511985675797
 30
0.0
 10
110.8038988398237
 20
146.3774445989336
 30
0.0
 10
108.8860224998639
 20
149.371081467004
 30
0.0
 10
109.3843563760392
 20
148.5521784323404
 30
0.0
 10
109.8818435855695
 20
147.7350040087438
 30
0.0
 10
106.2238203455601
 20
152.8545855447991
 30
0.0
 10
106.3247853429843
 20
154.2557130090534
 30
0.0
 10
106.3247853429843
 20
154.2557130090534
 30
0.0
 10
102.0885240621714
 20
148.5063526001762
 30
0.0
 10
105.3058925912006
 20
143.5659116151062
 30
0.0
 10
102.6674676585125
 20
146.3824540432502
 30
0.0
 10
101.6346049070852
 20
147.1128098579507
 30
0.0
 10
99.64698440223808
 20
147.4456204050155
 30
0.0
 10
99.64698440223808
 20
147.4456204050155
 30
0.0
 10
97.70169722964427
 20
147.3811679066598
 30
0.0
 10
96.3789569856124
 20
148.1266931654177
 30
0.0
 10
96.3789569856124
 20
148.1266931654177
 30
0.0
 10
97.73856250648153
 20
145.5010035101824
 30
0.0
 10
98.76211192481306
 20
143.4718610619501
 30
0.0
 10
99.50072273930286
 20
142.0087152659447
 30
0.0
 10
100.9804138126639
 20
140.2139971871688
 30
0.0
 10
102.4716054412871
 20
139.0366331195467
 30
0.0
 10
99.24026941963427
 20
140.6110450238245
 30
0.0
 10
97.09795335615817
 20
137.5833332989375
 30
0.0
 10
96.54035281482818
 20
136.1778984702568
 30
0.0
 10
96.4328638647807
 20
135.9115865326065
 30
0.0
 10
95.54749506238032
 20
133.4330404847284
 30
0.0
 10
97.19835390915229
 20
129.0711903182307
 30
0.0
 10
98.6485880388204
 20
125.2421404159179
 30
0.0
 10
101.5359329651581
 20
121.341264959882
 30
0.0
 10
105.7857761900689
 20
117.476196447377
 30
0.0
 10
116.224787868192
 20
107.9771964119389
 30
0.0
 10
125.7563140139114
 20
106.2005749734499
 30
0.0
 10
135.4151610772574
 20
105.0943670410416
 30
0.0
 10
142.4810494205612
 20
104.2881992838308
 30
0.0
 10
149.9250483973156
 20
105.4974509196469
 30
0.0
 10
157.1239021025464
 20
106.6674031120212
 30
0.0
 10
159.6477800937125
 20
107.0790947681847
 30
0.0
 10
162.0331575328564
 20
107.4673267027245
 30
0.0
 10
164.3538002514297
 20
107.7594999730601
 30
0.0
 10
164.3538002514297
 20
107.7594999730601
 30
0.0
 10
166.0239560421538
 20
107.969646967687
 30
0.0
 10
166.0239560421538
 20
107.969646967687
 30
0.0
 10
172.7729166234734
 20
108.8243569458816
 30
0.0
 10
182.9772914429715
 20
110.113159968557
 30
0.0
 10
184.0625110650956
 20
109.9905344161299
 30
0.0
 10
184.0625110650956
 20
109.9905344161299
 30
0.0
 10
186.4740599648726
 20
109.8017305281051
 30
0.0
 10
186.4740599648726
 20
109.8017305281051
 30
0.0
 10
186.4740599648726
 20
109.8017305281051
 30
0.0
 10
188.9145765692765
 20
109.4358619302808
 30
0.0
 10
188.9145765692765
 20
109.4358619302808
 30
0.0
 10
192.4657787009
 20
109.0286505517807
 30
0.0
 10
202.7962406595702
 20
103.8916770717247
 30
0.0
 10
206.1166202970825
 20
94.1716970419243
 30
0.0
 10
209.7222560384284
 20
83.61418731126881
 30
0.0
 10
202.3821148368021
 20
82.15037123750275
 30
0.0
 10
200.2027596146243
 20
82.40080817555803
 30
0.0
 10
198.1680785554222
 20
82.63304178074436
 30
0.0
 10
197.4398041295576
 20
82.88245566327018
 30
0.0
 10
196.3918072118498
 20
83.96488369121069
 30
0.0
 10
196.3918072118498
 20
83.96488369121069
 30
0.0
 10
196.058996664785
 20
84.40483284665332
 30
0.0
 10
195.9253291681951
 20
84.19676664561736
 30
0.0
 10
195.746863839952
 20
83.91941063681524
 30
0.0
 10
195.9811386112157
 20
83.59764203391313
 30
0.0
 10
195.9811386112157
 20
83.59764203391313
 30
0.0
 10
197.2682130228242
 20
82.0673273507325
 30
0.0
 10
198.358931328331
 20
81.2742829265203
 30
0.0
 10
200.6988709908563
 20
81.00451376673601
 30
0.0
 10
204.4657261725336
 20
80.57666488876247
 30
0.0
 10
211.0506760045376
 20
83.19078343318185
 30
0.0
 10
207.3485908212079
 20
94.03009442093673
 30
0.0
  0
ENDBLK
  5
51
330
4E
100
AcDbEntity
  8
0
100
AcDbBlockEnd
  0
BLOCK
  5
F9
330
F7
100
AcDbEntity
  8
0
100
AcDbBlockBegin
  2
block 5
 70
     0
 10
0.0
 20
0.0
 30
0.0
  3
block 5
  1

  0
SPLINE
  5
FB
330
F7
100
AcDbEntity
  8
_U+30EC_U+30A4_U+30E4_U+30FC 1
370
     0
100
AcDbSpline
210
0.0
220
0.0
230
1.0
 70
    11
 71
     3
 72
    23
 73
    19
 74
     0
 42
0.0000000001
 43
0.0000000001
 12
1.0
 22
0.0
 32
0.0
 13
1.0
 23
0.0
 33
0.0
 40
0.0
 40
0.0
 40
0.0
 40
0.0
 40
1.0
 40
1.0
 40
1.0
 40
2.0
 40
2.0
 40
2.0
 40
3.0
 40
3.0
 40
3.0
 40
4.0
 40
4.0
 40
4.0
 40
5.0
 40
5.0
 40
5.0
 40
6.0
 40
6.0
 40
6.0
 40
6.0
 10
182.5931613041781
 20
55.84775455474222
 30
0.0
 10
182.8443087650528
 20
55.88840668146817
 30
0.0
 10
183.1361083526535
 20
55.91975705038394
 30
0.0
 10
183.4551241945876
 20
55.91975705038394
 30
0.0
 10
184.8286837645567
 20
55.91975705038394
 30
0.0
 10
185.2238362167149
 20
55.10705902541351
 30
0.0
 10
185.2238362167149
 20
54.26783376520664
 30
0.0
 10
185.2238362167149
 20
53.72454220718274
 30
0.0
 10
185.08017573498
 20
53.26186588351369
 30
0.0
 10
184.7570257784635
 20
52.92528005460478
 30
0.0
 10
184.4562689426012
 20
52.61556597048082
 30
0.0
 10
183.9577636258856
 20
52.44503374396096
 30
0.0
 10
183.3338568335068
 20
52.44503374396096
 30
0.0
 10
183.0510144941678
 20
52.44503374396096
 30
0.0
 10
182.8084797720062
 20
52.4539909922226
 30
0.0
 10
182.5931613041781
 20
52.48086273700755
 30
0.0
 10
182.5931613041781
 20
52.48086273700755
 30
0.0
 10
182.5931613041781
 20
55.84775455474222
 30
0.0
 10
182.5931613041781
 20
55.84775455474222
 30
0.0
  0
SPLINE
  5
FC
330
F7
100
AcDbEntity
  8
_U+30EC_U+30A4_U+30E4_U+30FC 1
370
     0
100
AcDbSpline
210
0.0
220
0.0
230
1.0
 70
    11
 71
     3
 72
    20
 73
    16
 74
     0
 42
0.0000000001
 43
0.0000000001
 12
1.0
 22
0.0
 32
0.0
 13
1.0
 23
0.0
 33
0.0
 40
0.0
 40
0.0
 40
0.0
 40
0.0
 40
1.0
 40
1.0
 40
1.0
 40
2.0
 40
2.0
 40
2.0
 40
3.0
 40
3.0
 40
3.0
 40
4.0
 40
4.0
 40
4.0
 40
5.0
 40
5.0
 40
5.0
 40
5.0
 10
182.9655761261336
 20
52.76818370047739
 30
0.0
 10
183.0778862389528
 20
52.75026920395409
 30
0.0
 10
183.239461217211
 20
52.74579057982326
 30
0.0
 10
183.4010361954692
 20
52.74579057982326
 30
0.0
 10
184.3260443332588
 20
52.74579057982326
 30
0.0
 10
184.8331623886876
 20
53.27116764132386
 30
0.0
 10
184.8331623886876
 20
54.24957475913482
 30
0.0
 10
184.8331623886876
 20
55.1387539038778
 30
0.0
 10
184.3573947021746
 20
55.61900021452163
 30
0.0
 10
183.4685600669801
 20
55.61900021452163
 30
0.0
 10
183.2528970896034
 20
55.61900021452163
 30
0.0
 10
183.0823648630836
 20
55.5966070938675
 30
0.0
 10
182.9655761261336
 20
55.57421397321338
 30
0.0
 10
182.9655761261336
 20
55.57421397321338
 30
0.0
 10
182.9655761261336
 20
52.76818370047739
 30
0.0
 10
182.9655761261336
 20
52.76818370047739
 30
0.0
  0
HATCH
  5
FD
330
F7
100
AcDbEntity
  8
_U+30EC_U+30A4_U+30E4_U+30FC 1
 62
     7
100
AcDbHatch
 10
0.0
 20
0.0
 30
0.0
210
0.0
220
0.0
230
1.0
  2
SOLID
 70
     1
 71
     0
 91
        2
 92
        1
 93
        1
 72
     4
 94
        3
 73
     0
 74
     1
 95
       23
 96
       19
 40
0.0
 40
0.0
 40
0.0
 40
0.0
 40
1.0
 40
1.0
 40
1.0
 40
2.0
 40
2.0
 40
2.0
 40
3.0
 40
3.0
 40
3.0
 40
4.0
 40
4.0
 40
4.0
 40
5.0
 40
5.0
 40
5.0
 40
6.0
 40
6.0
 40
6.0
 40
6.0
 10
182.5931613041781
 20
55.84775455474222
 10
182.8443087650528
 20
55.88840668146817
 10
183.1361083526535
 20
55.91975705038394
 10
183.4551241945876
 20
55.91975705038394
 10
184.8286837645567
 20
55.91975705038394
 10
185.2238362167149
 20
55.10705902541351
 10
185.2238362167149
 20
54.26783376520664
 10
185.2238362167149
 20
53.72454220718274
 10
185.08017573498
 20
53.26186588351369
 10
184.7570257784635
 20
52.92528005460478
 10
184.4562689426012
 20
52.61556597048082
 10
183.9577636258856
 20
52.44503374396096
 10
183.3338568335068
 20
52.44503374396096
 10
183.0510144941678
 20
52.44503374396096
 10
182.8084797720062
 20
52.4539909922226
 10
182.5931613041781
 20
52.48086273700755
 10
182.5931613041781
 20
52.48086273700755
 10
182.5931613041781
 20
55.84775455474222
 10
182.5931613041781
 20
55.84775455474222
 97
        0
 92
        1
 93
        1
 72
     4
 94
        3
 73
     0
 74
     1
 95
       20
 96
       16
 40
0.0
 40
0.0
 40
0.0
 40
0.0
 40
1.0
 40
1.0
 40
1.0
 40
2.0
 40
2.0
 40
2.0
 40
3.0
 40
3.0
 40
3.0
 40
4.0
 40
4.0
 40
4.0
 40
5.0
 40
5.0
 40
5.0
 40
5.0
 10
182.9655761261336
 20
52.76818370047739
 10
183.0778862389528
 20
52.75026920395409
 10
183.239461217211
 20
52.74579057982326
 10
183.4010361954692
 20
52.74579057982326
 10
184.3260443332588
 20
52.74579057982326
 10
184.8331623886876
 20
53.27116764132386
 10
184.8331623886876
 20
54.24957475913482
 10
184.8331623886876
 20
55.1387539038778
 10
184.3573947021746
 20
55.61900021452163
 10
183.4685600669801
 20
55.61900021452163
 10
183.2528970896034
 20
55.61900021452163
 10
183.0823648630836
 20
55.5966070938675
 10
182.9655761261336
 20
55.57421397321338
 10
182.9655761261336
 20
55.57421397321338
 10
182.9655761261336
 20
52.76818370047739
 10
182.9655761261336
 20
52.76818370047739
 97
        0
 75
     2
 76
     1
 98
        0
  0
POLYLINE
  5
FE
330
F7
100
AcDbEntity
  8
_U+30EC_U+30A4_U+30E4_U+30FC 1
370
     0
100
AcDb2dPolyline
 66
     1
 10
0.0
 20
0.0
 30
0.0
  0
VERTEX
  5
FF
330
FE
100
AcDbEntity
  8
_U+30EC_U+30A4_U+30E4_U+30FC 1
370
     0
100
AcDbVertex
100
AcDb2dVertex
 10
185.7881428571988
 20
55.89288530559899
 30
0.0
  0
VERTEX
  5
100
330
FE
100
AcDbEntity
  8
_U+30EC_U+30A4_U+30E4_U+30FC 1
370
     0
100
AcDbVertex
100
AcDb2dVertex
 10
186.1605576791543
 20
55.89288530559899
 30
0.0
  0
VERTEX
  5
101
330
FE
100
AcDbEntity
  8
_U+30EC_U+30A4_U+30E4_U+30FC 1
370
     0
100
AcDbVertex
100
AcDb2dVertex
 10
186.1605576791543
 20
52.4719054887459
 30
0.0
  0
VERTEX
  5
102
330
FE
100
AcDbEntity
  8
_U+30EC_U+30A4_U+30E4_U+30FC 1
370
     0
100
AcDbVertex
100
AcDb2dVertex
 10
185.7881428571988
 20
52.4719054887459
 30
0.0
  0
VERTEX
  5
103
330
FE
100
AcDbEntity
  8
_U+30EC_U+30A4_U+30E4_U+30FC 1
370
     0
100
AcDbVertex
100
AcDb2dVertex
 10
185.7881428571988
 20
55.89288530559899
 30
0.0
  0
SEQEND
  5
104
330
FE
100
AcDbEntity
  8
_U+30EC_U+30A4_U+30E4_U+30FC 1
370
     0
  0
HATCH
  5
105
330
F7
100
AcDbEntity
  8
_U+30EC_U+30A4_U+30E4_U+30FC 1
 62
     7
100
AcDbHatch
 10
0.0
 20
0.0
 30
0.0
210
0.0
220
0.0
230
1.0
  2
SOLID
 70
     1
 71
     0
 91
        1
 92
        1
 93
        4
 72
     1
 10
185.7881428571988
 20
55.89288530559899
 11
186.1605576791543
 21
55.89288530559899
 72
     1
 10
186.1605576791543
 20
55.89288530559899
 11
186.1605576791543
 21
52.4719054887459
 72
     1
 10
186.1605576791543
 20
52.4719054887459
 11
185.7881428571988
 21
52.4719054887459
 72
     1
 10
185.7881428571988
 20
52.4719054887459
 11
185.7881428571988
 21
55.89288530559899
 97
        0
 75
     2
 76
     1
 98
        0
  0
SPLINE
  5
106
330
F7
100
AcDbEntity
  8
_U+30EC_U+30A4_U+30E4_U+30FC 1
370
     0
100
AcDbSpline
210
0.0
220
0.0
230
1.0
 70
    11
 71
     3
 72
    47
 73
    43
 74
     0
 42
0.0000000001
 43
0.0000000001
 12
1.0
 22
0.0
 32
0.0
 13
1.0
 23
0.0
 33
0.0
 40
0.0
 40
0.0
 40
0.0
 40
0.0
 40
1.0
 40
1.0
 40
1.0
 40
2.0
 40
2.0
 40
2.0
 40
3.0
 40
3.0
 40
3.0
 40
4.0
 40
4.0
 40
4.0
 40
5.0
 40
5.0
 40
5.0
 40
6.0
 40
6.0
 40
6.0
 40
7.0
 40
7.0
 40
7.0
 40
8.0
 40
8.0
 40
8.0
 40
9.0
 40
9.0
 40
9.0
 40
10.0
 40
10.0
 40
10.0
 40
11.0
 40
11.0
 40
11.0
 40
12.0
 40
12.0
 40
12.0
 40
13.0
 40
13.0
 40
13.0
 40
14.0
 40
14.0
 40
14.0
 40
14.0
 10
188.2610323965111
 20
54.11039290153072
 30
0.0
 10
188.5259602393268
 20
54.02529904304505
 30
0.0
 10
188.6830565934542
 20
53.76932844849099
 30
0.0
 10
188.7636718278091
 20
53.39656911698696
 30
0.0
 10
188.8715033164974
 20
52.90288693395065
 30
0.0
 10
188.94798443627
 20
52.60213009808835
 30
0.0
 10
189.0151637982323
 20
52.4719054887459
 30
0.0
 10
189.0151637982323
 20
52.4719054887459
 30
0.0
 10
188.6293131038844
 20
52.4719054887459
 30
0.0
 10
188.6293131038844
 20
52.4719054887459
 30
0.0
 10
188.5752251047659
 20
52.57077972917257
 30
0.0
 10
188.4990884945419
 20
52.87153656503488
 30
0.0
 10
188.4091715023769
 20
53.29803938610881
 30
0.0
 10
188.3102972619502
 20
53.77380707262181
 30
0.0
 10
188.121850538907
 20
53.98499142586763
 30
0.0
 10
187.7177408384872
 20
53.98499142586763
 30
0.0
 10
187.7177408384872
 20
53.98499142586763
 30
0.0
 10
187.300195265675
 20
53.98499142586763
 30
0.0
 10
187.300195265675
 20
53.98499142586763
 30
0.0
 10
187.300195265675
 20
53.98499142586763
 30
0.0
 10
187.300195265675
 20
52.4719054887459
 30
0.0
 10
187.300195265675
 20
52.4719054887459
 30
0.0
 10
187.300195265675
 20
52.4719054887459
 30
0.0
 10
186.9277804437195
 20
52.4719054887459
 30
0.0
 10
186.9277804437195
 20
52.4719054887459
 30
0.0
 10
186.9277804437195
 20
52.4719054887459
 30
0.0
 10
186.9277804437195
 20
55.84327593061139
 30
0.0
 10
186.9277804437195
 20
55.84327593061139
 30
0.0
 10
187.1386202874167
 20
55.88840668146817
 30
0.0
 10
187.4348984991482
 20
55.91527842625312
 30
0.0
 10
187.7043049660948
 20
55.91527842625312
 30
0.0
 10
188.148722283692
 20
55.91527842625312
 30
0.0
 10
188.4405218712926
 20
55.82536143408809
 30
0.0
 10
188.6427489762768
 20
55.63691471104493
 30
0.0
 10
188.8043239545351
 20
55.48877560517919
 30
0.0
 10
188.8983750612824
 20
55.25519813127924
 30
0.0
 10
188.8983750612824
 20
54.99957204627371
 30
0.0
 10
188.8983750612824
 20
54.54585297086631
 30
0.0
 10
188.624489970205
 20
54.25405338326564
 30
0.0
 10
188.2610323965111
 20
54.1238287739232
 30
0.0
 10
188.2610323965111
 20
54.1238287739232
 30
0.0
 10
188.2610323965111
 20
54.11039290153072
 30
0.0
 10
188.2610323965111
 20
54.11039290153072
 30
0.0
  0
SPLINE
  5
107
330
F7
100
AcDbEntity
  8
_U+30EC_U+30A4_U+30E4_U+30FC 1
370
     0
100
AcDbSpline
210
0.0
220
0.0
230
1.0
 70
    11
 71
     3
 72
    20
 73
    16
 74
     0
 42
0.0000000001
 43
0.0000000001
 12
1.0
 22
0.0
 32
0.0
 13
1.0
 23
0.0
 33
0.0
 40
0.0
 40
0.0
 40
0.0
 40
0.0
 40
1.0
 40
1.0
 40
1.0
 40
2.0
 40
2.0
 40
2.0
 40
3.0
 40
3.0
 40
3.0
 40
4.0
 40
4.0
 40
4.0
 40
5.0
 40
5.0
 40
5.0
 40
5.0
 10
187.7401339591414
 20
54.27231238933746
 30
0.0
 10
188.2162461552029
 20
54.27231238933746
 30
0.0
 10
188.521481615196
 20
54.54137434673548
 30
0.0
 10
188.521481615196
 20
54.95444129541693
 30
0.0
 10
188.521481615196
 20
55.46190386039424
 30
0.0
 10
188.1397650354303
 20
55.61900021452163
 30
0.0
 10
187.7222194626181
 20
55.61900021452163
 30
0.0
 10
187.5203368671824
 20
55.61900021452163
 30
0.0
 10
187.3766763854475
 20
55.60108571799833
 30
0.0
 10
187.300195265675
 20
55.58317122147503
 30
0.0
 10
187.300195265675
 20
55.58317122147503
 30
0.0
 10
187.300195265675
 20
54.27231238933746
 30
0.0
 10
187.300195265675
 20
54.27231238933746
 30
0.0
 10
187.300195265675
 20
54.27231238933746
 30
0.0
 10
187.7401339591414
 20
54.27231238933746
 30
0.0
 10
187.7401339591414
 20
54.27231238933746
 30
0.0
  0
HATCH
  5
108
330
F7
100
AcDbEntity
  8
_U+30EC_U+30A4_U+30E4_U+30FC 1
 62
     7
100
AcDbHatch
 10
0.0
 20
0.0
 30
0.0
210
0.0
220
0.0
230
1.0
  2
SOLID
 70
     1
 71
     0
 91
        2
 92
        1
 93
        1
 72
     4
 94
        3
 73
     0
 74
     1
 95
       47
 96
       43
 40
0.0
 40
0.0
 40
0.0
 40
0.0
 40
1.0
 40
1.0
 40
1.0
 40
2.0
 40
2.0
 40
2.0
 40
3.0
 40
3.0
 40
3.0
 40
4.0
 40
4.0
 40
4.0
 40
5.0
 40
5.0
 40
5.0
 40
6.0
 40
6.0
 40
6.0
 40
7.0
 40
7.0
 40
7.0
 40
8.0
 40
8.0
 40
8.0
 40
9.0
 40
9.0
 40
9.0
 40
10.0
 40
10.0
 40
10.0
 40
11.0
 40
11.0
 40
11.0
 40
12.0
 40
12.0
 40
12.0
 40
13.0
 40
13.0
 40
13.0
 40
14.0
 40
14.0
 40
14.0
 40
14.0
 10
188.2610323965111
 20
54.11039290153072
 10
188.5259602393268
 20
54.02529904304505
 10
188.6830565934542
 20
53.76932844849099
 10
188.7636718278091
 20
53.39656911698696
 10
188.8715033164974
 20
52.90288693395065
 10
188.94798443627
 20
52.60213009808835
 10
189.0151637982323
 20
52.4719054887459
 10
189.0151637982323
 20
52.4719054887459
 10
188.6293131038844
 20
52.4719054887459
 10
188.6293131038844
 20
52.4719054887459
 10
188.5752251047659
 20
52.57077972917257
 10
188.4990884945419
 20
52.87153656503488
 10
188.4091715023769
 20
53.29803938610881
 10
188.3102972619502
 20
53.77380707262181
 10
188.121850538907
 20
53.98499142586763
 10
187.7177408384872
 20
53.98499142586763
 10
187.7177408384872
 20
53.98499142586763
 10
187.300195265675
 20
53.98499142586763
 10
187.300195265675
 20
53.98499142586763
 10
187.300195265675
 20
53.98499142586763
 10
187.300195265675
 20
52.4719054887459
 10
187.300195265675
 20
52.4719054887459
 10
187.300195265675
 20
52.4719054887459
 10
186.9277804437195
 20
52.4719054887459
 10
186.9277804437195
 20
52.4719054887459
 10
186.9277804437195
 20
52.4719054887459
 10
186.9277804437195
 20
55.84327593061139
 10
186.9277804437195
 20
55.84327593061139
 10
187.1386202874167
 20
55.88840668146817
 10
187.4348984991482
 20
55.91527842625312
 10
187.7043049660948
 20
55.91527842625312
 10
188.148722283692
 20
55.91527842625312
 10
188.4405218712926
 20
55.82536143408809
 10
188.6427489762768
 20
55.63691471104493
 10
188.8043239545351
 20
55.48877560517919
 10
188.8983750612824
 20
55.25519813127924
 10
188.8983750612824
 20
54.99957204627371
 10
188.8983750612824
 20
54.54585297086631
 10
188.624489970205
 20
54.25405338326564
 10
188.2610323965111
 20
54.1238287739232
 10
188.2610323965111
 20
54.1238287739232
 10
188.2610323965111
 20
54.11039290153072
 10
188.2610323965111
 20
54.11039290153072
 97
        0
 92
        1
 93
        1
 72
     4
 94
        3
 73
     0
 74
     1
 95
       20
 96
       16
 40
0.0
 40
0.0
 40
0.0
 40
0.0
 40
1.0
 40
1.0
 40
1.0
 40
2.0
 40
2.0
 40
2.0
 40
3.0
 40
3.0
 40
3.0
 40
4.0
 40
4.0
 40
4.0
 40
5.0
 40
5.0
 40
5.0
 40
5.0
 10
187.7401339591414
 20
54.27231238933746
 10
188.2162461552029
 20
54.27231238933746
 10
188.521481615196
 20
54.54137434673548
 10
188.521481615196
 20
54.95444129541693
 10
188.521481615196
 20
55.46190386039424
 10
188.1397650354303
 20
55.61900021452163
 10
187.7222194626181
 20
55.61900021452163
 10
187.5203368671824
 20
55.61900021452163
 10
187.3766763854475
 20
55.60108571799833
 10
187.300195265675
 20
55.58317122147503
 10
187.300195265675
 20
55.58317122147503
 10
187.300195265675
 20
54.27231238933746
 10
187.300195265675
 20
54.27231238933746
 10
187.300195265675
 20
54.27231238933746
 10
187.7401339591414
 20
54.27231238933746
 10
187.7401339591414
 20
54.27231238933746
 97
        0
 75
     2
 76
     1
 98
        0
  0
SPLINE
  5
109
330
F7
100
AcDbEntity
  8
_U+30EC_U+30A4_U+30E4_U+30FC 1
370
     0
100
AcDbSpline
210
0.0
220
0.0
230
1.0
 70
    11
 71
     3
 72
    23
 73
    19
 74
     0
 42
0.0000000001
 43
0.0000000001
 12
1.0
 22
0.0
 32
0.0
 13
1.0
 23
0.0
 33
0.0
 40
0.0
 40
0.0
 40
0.0
 40
0.0
 40
1.0
 40
1.0
 40
1.0
 40
2.0
 40
2.0
 40
2.0
 40
3.0
 40
3.0
 40
3.0
 40
4.0
 40
4.0
 40
4.0
 40
5.0
 40
5.0
 40
5.0
 40
6.0
 40
6.0
 40
6.0
 40
6.0
 10
189.5126355863024
 20
55.84775455474222
 30
0.0
 10
189.7637830471771
 20
55.88840668146817
 30
0.0
 10
190.0555826347778
 20
55.91975705038394
 30
0.0
 10
190.3745984767119
 20
55.91975705038394
 30
0.0
 10
191.748158046681
 20
55.91975705038394
 30
0.0
 10
192.1433104988392
 20
55.10705902541351
 30
0.0
 10
192.1433104988392
 20
54.26783376520664
 30
0.0
 10
192.1433104988392
 20
53.72454220718274
 30
0.0
 10
191.9996500171043
 20
53.26186588351369
 30
0.0
 10
191.6765000605878
 20
52.92528005460478
 30
0.0
 10
191.3757432247255
 20
52.61556597048082
 30
0.0
 10
190.8772379080099
 20
52.44503374396096
 30
0.0
 10
190.2533311156311
 20
52.44503374396096
 30
0.0
 10
189.9704887762921
 20
52.44503374396096
 30
0.0
 10
189.7279540541305
 20
52.4539909922226
 30
0.0
 10
189.5126355863024
 20
52.48086273700755
 30
0.0
 10
189.5126355863024
 20
52.48086273700755
 30
0.0
 10
189.5126355863024
 20
55.84775455474222
 30
0.0
 10
189.5126355863024
 20
55.84775455474222
 30
0.0
  0
SPLINE
  5
10A
330
F7
100
AcDbEntity
  8
_U+30EC_U+30A4_U+30E4_U+30FC 1
370
     0
100
AcDbSpline
210
0.0
220
0.0
230
1.0
 70
    11
 71
     3
 72
    20
 73
    16
 74
     0
 42
0.0000000001
 43
0.0000000001
 12
1.0
 22
0.0
 32
0.0
 13
1.0
 23
0.0
 33
0.0
 40
0.0
 40
0.0
 40
0.0
 40
0.0
 40
1.0
 40
1.0
 40
1.0
 40
2.0
 40
2.0
 40
2.0
 40
3.0
 40
3.0
 40
3.0
 40
4.0
 40
4.0
 40
4.0
 40
5.0
 40
5.0
 40
5.0
 40
5.0
 10
189.8850504082579
 20
52.76818370047739
 30
0.0
 10
189.9973605210771
 20
52.75026920395409
 30
0.0
 10
190.1589354993353
 20
52.74579057982326
 30
0.0
 10
190.3205104775935
 20
52.74579057982326
 30
0.0
 10
191.2455186153831
 20
52.74579057982326
 30
0.0
 10
191.7526366708119
 20
53.27116764132386
 30
0.0
 10
191.7526366708119
 20
54.24957475913482
 30
0.0
 10
191.7526366708119
 20
55.1387539038778
 30
0.0
 10
191.2768689842989
 20
55.61900021452163
 30
0.0
 10
190.3880343491044
 20
55.61900021452163
 30
0.0
 10
190.1723713717278
 20
55.61900021452163
 30
0.0
 10
190.0018391452079
 20
55.5966070938675
 30
0.0
 10
189.8850504082579
 20
55.57421397321338
 30
0.0
 10
189.8850504082579
 20
55.57421397321338
 30
0.0
 10
189.8850504082579
 20
52.76818370047739
 30
0.0
 10
189.8850504082579
 20
52.76818370047739
 30
0.0
  0
HATCH
  5
10B
330
F7
100
AcDbEntity
  8
_U+30EC_U+30A4_U+30E4_U+30FC 1
 62
     7
100
AcDbHatch
 10
0.0
 20
0.0
 30
0.0
210
0.0
220
0.0
230
1.0
  2
SOLID
 70
     1
 71
     0
 91
        2
 92
        1
 93
        1
 72
     4
 94
        3
 73
     0
 74
     1
 95
       23
 96
       19
 40
0.0
 40
0.0
 40
0.0
 40
0.0
 40
1.0
 40
1.0
 40
1.0
 40
2.0
 40
2.0
 40
2.0
 40
3.0
 40
3.0
 40
3.0
 40
4.0
 40
4.0
 40
4.0
 40
5.0
 40
5.0
 40
5.0
 40
6.0
 40
6.0
 40
6.0
 40
6.0
 10
189.5126355863024
 20
55.84775455474222
 10
189.7637830471771
 20
55.88840668146817
 10
190.0555826347778
 20
55.91975705038394
 10
190.3745984767119
 20
55.91975705038394
 10
191.748158046681
 20
55.91975705038394
 10
192.1433104988392
 20
55.10705902541351
 10
192.1433104988392
 20
54.26783376520664
 10
192.1433104988392
 20
53.72454220718274
 10
191.9996500171043
 20
53.26186588351369
 10
191.6765000605878
 20
52.92528005460478
 10
191.3757432247255
 20
52.61556597048082
 10
190.8772379080099
 20
52.44503374396096
 10
190.2533311156311
 20
52.44503374396096
 10
189.9704887762921
 20
52.44503374396096
 10
189.7279540541305
 20
52.4539909922226
 10
189.5126355863024
 20
52.48086273700755
 10
189.5126355863024
 20
52.48086273700755
 10
189.5126355863024
 20
55.84775455474222
 10
189.5126355863024
 20
55.84775455474222
 97
        0
 92
        1
 93
        1
 72
     4
 94
        3
 73
     0
 74
     1
 95
       20
 96
       16
 40
0.0
 40
0.0
 40
0.0
 40
0.0
 40
1.0
 40
1.0
 40
1.0
 40
2.0
 40
2.0
 40
2.0
 40
3.0
 40
3.0
 40
3.0
 40
4.0
 40
4.0
 40
4.0
 40
5.0
 40
5.0
 40
5.0
 40
5.0
 10
189.8850504082579
 20
52.76818370047739
 10
189.9973605210771
 20
52.75026920395409
 10
190.1589354993353
 20
52.74579057982326
 10
190.3205104775935
 20
52.74579057982326
 10
191.2455186153831
 20
52.74579057982326
 10
191.7526366708119
 20
53.27116764132386
 10
191.7526366708119
 20
54.24957475913482
 10
191.7526366708119
 20
55.1387539038778
 10
191.2768689842989
 20
55.61900021452163
 10
190.3880343491044
 20
55.61900021452163
 10
190.1723713717278
 20
55.61900021452163
 10
190.0018391452079
 20
55.5966070938675
 10
189.8850504082579
 20
55.57421397321338
 10
189.8850504082579
 20
55.57421397321338
 10
189.8850504082579
 20
52.76818370047739
 10
189.8850504082579
 20
52.76818370047739
 97
        0
 75
     2
 76
     1
 98
        0
  0
POLYLINE
  5
10C
330
F7
100
AcDbEntity
  8
_U+30EC_U+30A4_U+30E4_U+30FC 1
370
     0
100
AcDb2dPolyline
 66
     1
 10
0.0
 20
0.0
 30
0.0
  0
VERTEX
  5
10D
330
10C
100
AcDbEntity
  8
_U+30EC_U+30A4_U+30E4_U+30FC 1
370
     0
100
AcDbVertex
100
AcDb2dVertex
 10
192.478518289554
 20
53.98499142586763
 30
0.0
  0
VERTEX
  5
10E
330
10C
100
AcDbEntity
  8
_U+30EC_U+30A4_U+30E4_U+30FC 1
370
     0
100
AcDbVertex
100
AcDb2dVertex
 10
193.7042832632059
 20
53.98499142586763
 30
0.0
  0
VERTEX
  5
10F
330
10C
100
AcDbEntity
  8
_U+30EC_U+30A4_U+30E4_U+30FC 1
370
     0
100
AcDbVertex
100
AcDb2dVertex
 10
193.7042832632059
 20
53.6976704623978
 30
0.0
  0
VERTEX
  5
110
330
10C
100
AcDbEntity
  8
_U+30EC_U+30A4_U+30E4_U+30FC 1
370
     0
100
AcDbVertex
100
AcDb2dVertex
 10
192.478518289554
 20
53.6976704623978
 30
0.0
  0
VERTEX
  5
111
330
10C
100
AcDbEntity
  8
_U+30EC_U+30A4_U+30E4_U+30FC 1
370
     0
100
AcDbVertex
100
AcDb2dVertex
 10
192.478518289554
 20
53.98499142586763
 30
0.0
  0
SEQEND
  5
112
330
10C
100
AcDbEntity
  8
_U+30EC_U+30A4_U+30E4_U+30FC 1
370
     0
  0
HATCH
  5
113
330
F7
100
AcDbEntity
  8
_U+30EC_U+30A4_U+30E4_U+30FC 1
 62
     7
100
AcDbHatch
 10
0.0
 20
0.0
 30
0.0
210
0.0
220
0.0
230
1.0
  2
SOLID
 70
     1
 71
     0
 91
        1
 92
        1
 93
        4
 72
     1
 10
192.478518289554
 20
53.98499142586763
 11
193.7042832632059
 21
53.98499142586763
 72
     1
 10
193.7042832632059
 20
53.98499142586763
 11
193.7042832632059
 21
53.6976704623978
 72
     1
 10
193.7042832632059
 20
53.6976704623978
 11
192.478518289554
 21
53.6976704623978
 72
     1
 10
192.478518289554
 20
53.6976704623978
 11
192.478518289554
 21
53.98499142586763
 97
        0
 75
     2
 76
     1
 98
        0
  0
SPLINE
  5
114
330
F7
100
AcDbEntity
  8
_U+30EC_U+30A4_U+30E4_U+30FC 1
370
     0
100
AcDbSpline
210
0.0
220
0.0
230
1.0
 70
    11
 71
     3
 72
    47
 73
    43
 74
     0
 42
0.0000000001
 43
0.0000000001
 12
1.0
 22
0.0
 32
0.0
 13
1.0
 23
0.0
 33
0.0
 40
0.0
 40
0.0
 40
0.0
 40
0.0
 40
1.0
 40
1.0
 40
1.0
 40
2.0
 40
2.0
 40
2.0
 40
3.0
 40
3.0
 40
3.0
 40
4.0
 40
4.0
 40
4.0
 40
5.0
 40
5.0
 40
5.0
 40
6.0
 40
6.0
 40
6.0
 40
7.0
 40
7.0
 40
7.0
 40
8.0
 40
8.0
 40
8.0
 40
9.0
 40
9.0
 40
9.0
 40
10.0
 40
10.0
 40
10.0
 40
11.0
 40
11.0
 40
11.0
 40
12.0
 40
12.0
 40
12.0
 40
13.0
 40
13.0
 40
13.0
 40
14.0
 40
14.0
 40
14.0
 40
14.0
 10
196.0645181801505
 20
52.4719054887459
 30
0.0
 10
196.0645181801505
 20
52.4719054887459
 30
0.0
 10
194.0760090660643
 20
52.4719054887459
 30
0.0
 10
194.0760090660643
 20
52.4719054887459
 30
0.0
 10
194.0760090660643
 20
52.4719054887459
 30
0.0
 10
194.0760090660643
 20
52.70100433851501
 30
0.0
 10
194.0760090660643
 20
52.70100433851501
 30
0.0
 10
194.0760090660643
 20
52.70100433851501
 30
0.0
 10
194.4036376467116
 20
53.04654741568557
 30
0.0
 10
194.4036376467116
 20
53.04654741568557
 30
0.0
 10
195.202555289741
 20
53.85476681652518
 30
0.0
 10
195.6066649901609
 20
54.34397037543066
 30
0.0
 10
195.6066649901609
 20
54.89174055758539
 30
0.0
 10
195.6066649901609
 20
55.25071950714842
 30
0.0
 10
195.4495686360335
 20
55.58317122147503
 30
0.0
 10
194.9648437012588
 20
55.58317122147503
 30
0.0
 10
194.6954372343123
 20
55.58317122147503
 30
0.0
 10
194.4529025121507
 20
55.43503211560929
 30
0.0
 10
194.2913275338925
 20
55.30480750626684
 30
0.0
 10
194.2913275338925
 20
55.30480750626684
 30
0.0
 10
194.1655815486808
 20
55.56525672495173
 30
0.0
 10
194.1655815486808
 20
55.56525672495173
 30
0.0
 10
194.3722872777958
 20
55.74922482386407
 30
0.0
 10
194.677522737789
 20
55.89288530559899
 30
0.0
 10
195.036501687352
 20
55.89288530559899
 30
0.0
 10
195.7144964788492
 20
55.89288530559899
 30
0.0
 10
195.9839029457957
 20
55.39885861301416
 30
0.0
 10
195.9839029457957
 20
54.93652679889364
 30
0.0
 10
195.9839029457957
 20
54.30366275825324
 30
0.0
 10
195.5394856281985
 20
53.76484982436016
 30
0.0
 10
194.843576340178
 20
53.06446191220888
 30
0.0
 10
194.843576340178
 20
53.06446191220888
 30
0.0
 10
194.5786484973623
 20
52.78609819700068
 30
0.0
 10
194.5786484973623
 20
52.78609819700068
 30
0.0
 10
194.5786484973623
 20
52.78609819700068
 30
0.0
 10
194.5786484973623
 20
52.77714094873904
 30
0.0
 10
194.5786484973623
 20
52.77714094873904
 30
0.0
 10
194.5786484973623
 20
52.77714094873904
 30
0.0
 10
196.0645181801505
 20
52.77714094873904
 30
0.0
 10
196.0645181801505
 20
52.77714094873904
 30
0.0
 10
196.0645181801505
 20
52.77714094873904
 30
0.0
 10
196.0645181801505
 20
52.4719054887459
 30
0.0
 10
196.0645181801505
 20
52.4719054887459
 30
0.0
  0
HATCH
  5
115
330
F7
100
AcDbEntity
  8
_U+30EC_U+30A4_U+30E4_U+30FC 1
 62
     7
100
AcDbHatch
 10
0.0
 20
0.0
 30
0.0
210
0.0
220
0.0
230
1.0
  2
SOLID
 70
     1
 71
     0
 91
        1
 92
        1
 93
        1
 72
     4
 94
        3
 73
     0
 74
     1
 95
       47
 96
       43
 40
0.0
 40
0.0
 40
0.0
 40
0.0
 40
1.0
 40
1.0
 40
1.0
 40
2.0
 40
2.0
 40
2.0
 40
3.0
 40
3.0
 40
3.0
 40
4.0
 40
4.0
 40
4.0
 40
5.0
 40
5.0
 40
5.0
 40
6.0
 40
6.0
 40
6.0
 40
7.0
 40
7.0
 40
7.0
 40
8.0
 40
8.0
 40
8.0
 40
9.0
 40
9.0
 40
9.0
 40
10.0
 40
10.0
 40
10.0
 40
11.0
 40
11.0
 40
11.0
 40
12.0
 40
12.0
 40
12.0
 40
13.0
 40
13.0
 40
13.0
 40
14.0
 40
14.0
 40
14.0
 40
14.0
 10
196.0645181801505
 20
52.4719054887459
 10
196.0645181801505
 20
52.4719054887459
 10
194.0760090660643
 20
52.4719054887459
 10
194.0760090660643
 20
52.4719054887459
 10
194.0760090660643
 20
52.4719054887459
 10
194.0760090660643
 20
52.70100433851501
 10
194.0760090660643
 20
52.70100433851501
 10
194.0760090660643
 20
52.70100433851501
 10
194.4036376467116
 20
53.04654741568557
 10
194.4036376467116
 20
53.04654741568557
 10
195.202555289741
 20
53.85476681652518
 10
195.6066649901609
 20
54.34397037543066
 10
195.6066649901609
 20
54.89174055758539
 10
195.6066649901609
 20
55.25071950714842
 10
195.4495686360335
 20
55.58317122147503
 10
194.9648437012588
 20
55.58317122147503
 10
194.6954372343123
 20
55.58317122147503
 10
194.4529025121507
 20
55.43503211560929
 10
194.2913275338925
 20
55.30480750626684
 10
194.2913275338925
 20
55.30480750626684
 10
194.1655815486808
 20
55.56525672495173
 10
194.1655815486808
 20
55.56525672495173
 10
194.3722872777958
 20
55.74922482386407
 10
194.677522737789
 20
55.89288530559899
 10
195.036501687352
 20
55.89288530559899
 10
195.7144964788492
 20
55.89288530559899
 10
195.9839029457957
 20
55.39885861301416
 10
195.9839029457957
 20
54.93652679889364
 10
195.9839029457957
 20
54.30366275825324
 10
195.5394856281985
 20
53.76484982436016
 10
194.843576340178
 20
53.06446191220888
 10
194.843576340178
 20
53.06446191220888
 10
194.5786484973623
 20
52.78609819700068
 10
194.5786484973623
 20
52.78609819700068
 10
194.5786484973623
 20
52.78609819700068
 10
194.5786484973623
 20
52.77714094873904
 10
194.5786484973623
 20
52.77714094873904
 10
194.5786484973623
 20
52.77714094873904
 10
196.0645181801505
 20
52.77714094873904
 10
196.0645181801505
 20
52.77714094873904
 10
196.0645181801505
 20
52.77714094873904
 10
196.0645181801505
 20
52.4719054887459
 10
196.0645181801505
 20
52.4719054887459
 97
        0
 75
     2
 76
     1
 98
        0
  0
POLYLINE
  5
116
330
F7
100
AcDbEntity
  8
_U+30EC_U+30A4_U+30E4_U+30FC 1
370
     0
100
AcDb2dPolyline
 66
     1
 10
0.0
 20
0.0
 30
0.0
  0
VERTEX
  5
117
330
116
100
AcDbEntity
  8
_U+30EC_U+30A4_U+30E4_U+30FC 1
370
     0
100
AcDbVertex
100
AcDb2dVertex
 10
197.4956108447233
 20
52.4719054887459
 30
0.0
  0
VERTEX
  5
118
330
116
100
AcDbEntity
  8
_U+30EC_U+30A4_U+30E4_U+30FC 1
370
     0
100
AcDbVertex
100
AcDb2dVertex
 10
197.4956108447233
 20
55.48429698104836
 30
0.0
  0
VERTEX
  5
119
330
116
100
AcDbEntity
  8
_U+30EC_U+30A4_U+30E4_U+30FC 1
370
     0
100
AcDbVertex
100
AcDb2dVertex
 10
197.4866535964617
 20
55.48429698104836
 30
0.0
  0
VERTEX
  5
11A
330
116
100
AcDbEntity
  8
_U+30EC_U+30A4_U+30E4_U+30FC 1
370
     0
100
AcDbVertex
100
AcDb2dVertex
 10
196.9344047901761
 20
55.16562564866275
 30
0.0
  0
VERTEX
  5
11B
330
116
100
AcDbEntity
  8
_U+30EC_U+30A4_U+30E4_U+30FC 1
370
     0
100
AcDbVertex
100
AcDb2dVertex
 10
196.8448323075596
 20
55.44398936387093
 30
0.0
  0
VERTEX
  5
11C
330
116
100
AcDbEntity
  8
_U+30EC_U+30A4_U+30E4_U+30FC 1
370
     0
100
AcDbVertex
100
AcDb2dVertex
 10
197.5403970860316
 20
55.83431868234975
 30
0.0
  0
VERTEX
  5
11D
330
116
100
AcDbEntity
  8
_U+30EC_U+30A4_U+30E4_U+30FC 1
370
     0
100
AcDbVertex
100
AcDb2dVertex
 10
197.8594129279657
 20
55.83431868234975
 30
0.0
  0
VERTEX
  5
11E
330
116
100
AcDbEntity
  8
_U+30EC_U+30A4_U+30E4_U+30FC 1
370
     0
100
AcDbVertex
100
AcDb2dVertex
 10
197.8594129279657
 20
52.4719054887459
 30
0.0
  0
VERTEX
  5
11F
330
116
100
AcDbEntity
  8
_U+30EC_U+30A4_U+30E4_U+30FC 1
370
     0
100
AcDbVertex
100
AcDb2dVertex
 10
197.4956108447233
 20
52.4719054887459
 30
0.0
  0
SEQEND
  5
120
330
116
100
AcDbEntity
  8
_U+30EC_U+30A4_U+30E4_U+30FC 1
370
     0
  0
HATCH
  5
121
330
F7
100
AcDbEntity
  8
_U+30EC_U+30A4_U+30E4_U+30FC 1
 62
     7
100
AcDbHatch
 10
0.0
 20
0.0
 30
0.0
210
0.0
220
0.0
230
1.0
  2
SOLID
 70
     1
 71
     0
 91
        1
 92
        1
 93
        8
 72
     1
 10
197.4956108447233
 20
52.4719054887459
 11
197.4956108447233
 21
55.48429698104836
 72
     1
 10
197.4956108447233
 20
55.48429698104836
 11
197.4866535964617
 21
55.48429698104836
 72
     1
 10
197.4866535964617
 20
55.48429698104836
 11
196.9344047901761
 21
55.16562564866275
 72
     1
 10
196.9344047901761
 20
55.16562564866275
 11
196.8448323075596
 21
55.44398936387093
 72
     1
 10
196.8448323075596
 20
55.44398936387093
 11
197.5403970860316
 21
55.83431868234975
 72
     1
 10
197.5403970860316
 20
55.83431868234975
 11
197.8594129279657
 21
55.83431868234975
 72
     1
 10
197.8594129279657
 20
55.83431868234975
 11
197.8594129279657
 21
52.4719054887459
 72
     1
 10
197.8594129279657
 20
52.4719054887459
 11
197.4956108447233
 21
52.4719054887459
 97
        0
 75
     2
 76
     1
 98
        0
  0
SPLINE
  5
122
330
F7
100
AcDbEntity
  8
_U+30EC_U+30A4_U+30E4_U+30FC 1
370
     0
100
AcDbSpline
210
0.0
220
0.0
230
1.0
 70
    11
 71
     3
 72
    23
 73
    19
 74
     0
 42
0.0000000001
 43
0.0000000001
 12
1.0
 22
0.0
 32
0.0
 13
1.0
 23
0.0
 33
0.0
 40
0.0
 40
0.0
 40
0.0
 40
0.0
 40
1.0
 40
1.0
 40
1.0
 40
2.0
 40
2.0
 40
2.0
 40
3.0
 40
3.0
 40
3.0
 40
4.0
 40
4.0
 40
4.0
 40
5.0
 40
5.0
 40
5.0
 40
6.0
 40
6.0
 40
6.0
 40
6.0
 10
182.5931613041781
 20
50.46307031129672
 30
0.0
 10
182.8443087650528
 20
50.50372243802267
 30
0.0
 10
183.1361083526535
 20
50.53507280693844
 30
0.0
 10
183.4551241945876
 20
50.53507280693844
 30
0.0
 10
184.8286837645567
 20
50.53507280693844
 30
0.0
 10
185.2238362167149
 20
49.72237478196801
 30
0.0
 10
185.2238362167149
 20
48.88314952176115
 30
0.0
 10
185.2238362167149
 20
48.33985796373724
 30
0.0
 10
185.08017573498
 20
47.87718164006819
 30
0.0
 10
184.7570257784635
 20
47.54059581115929
 30
0.0
 10
184.4562689426012
 20
47.23088172703532
 30
0.0
 10
183.9577636258856
 20
47.06034950051546
 30
0.0
 10
183.3338568335068
 20
47.06034950051546
 30
0.0
 10
183.0510144941678
 20
47.06034950051546
 30
0.0
 10
182.8084797720062
 20
47.06930674877711
 30
0.0
 10
182.5931613041781
 20
47.09617849356206
 30
0.0
 10
182.5931613041781
 20
47.09617849356206
 30
0.0
 10
182.5931613041781
 20
50.46307031129672
 30
0.0
 10
182.5931613041781
 20
50.46307031129672
 30
0.0
  0
SPLINE
  5
123
330
F7
100
AcDbEntity
  8
_U+30EC_U+30A4_U+30E4_U+30FC 1
370
     0
100
AcDbSpline
210
0.0
220
0.0
230
1.0
 70
    11
 71
     3
 72
    20
 73
    16
 74
     0
 42
0.0000000001
 43
0.0000000001
 12
1.0
 22
0.0
 32
0.0
 13
1.0
 23
0.0
 33
0.0
 40
0.0
 40
0.0
 40
0.0
 40
0.0
 40
1.0
 40
1.0
 40
1.0
 40
2.0
 40
2.0
 40
2.0
 40
3.0
 40
3.0
 40
3.0
 40
4.0
 40
4.0
 40
4.0
 40
5.0
 40
5.0
 40
5.0
 40
5.0
 10
182.9655761261336
 20
47.38349945703189
 30
0.0
 10
183.0778862389528
 20
47.36558496050859
 30
0.0
 10
183.239461217211
 20
47.36110633637777
 30
0.0
 10
183.4010361954692
 20
47.36110633637777
 30
0.0
 10
184.3260443332588
 20
47.36110633637777
 30
0.0
 10
184.8331623886876
 20
47.88648339787837
 30
0.0
 10
184.8331623886876
 20
48.86489051568932
 30
0.0
 10
184.8331623886876
 20
49.75406966043231
 30
0.0
 10
184.3573947021746
 20
50.23431597107614
 30
0.0
 10
183.4685600669801
 20
50.23431597107614
 30
0.0
 10
183.2528970896034
 20
50.23431597107614
 30
0.0
 10
183.0823648630836
 20
50.21192285042201
 30
0.0
 10
182.9655761261336
 20
50.18952972976788
 30
0.0
 10
182.9655761261336
 20
50.18952972976788
 30
0.0
 10
182.9655761261336
 20
47.38349945703189
 30
0.0
 10
182.9655761261336
 20
47.38349945703189
 30
0.0
  0
HATCH
  5
124
330
F7
100
AcDbEntity
  8
_U+30EC_U+30A4_U+30E4_U+30FC 1
 62
     7
100
AcDbHatch
 10
0.0
 20
0.0
 30
0.0
210
0.0
220
0.0
230
1.0
  2
SOLID
 70
     1
 71
     0
 91
        2
 92
        1
 93
        1
 72
     4
 94
        3
 73
     0
 74
     1
 95
       23
 96
       19
 40
0.0
 40
0.0
 40
0.0
 40
0.0
 40
1.0
 40
1.0
 40
1.0
 40
2.0
 40
2.0
 40
2.0
 40
3.0
 40
3.0
 40
3.0
 40
4.0
 40
4.0
 40
4.0
 40
5.0
 40
5.0
 40
5.0
 40
6.0
 40
6.0
 40
6.0
 40
6.0
 10
182.5931613041781
 20
50.46307031129672
 10
182.8443087650528
 20
50.50372243802267
 10
183.1361083526535
 20
50.53507280693844
 10
183.4551241945876
 20
50.53507280693844
 10
184.8286837645567
 20
50.53507280693844
 10
185.2238362167149
 20
49.72237478196801
 10
185.2238362167149
 20
48.88314952176115
 10
185.2238362167149
 20
48.33985796373724
 10
185.08017573498
 20
47.87718164006819
 10
184.7570257784635
 20
47.54059581115929
 10
184.4562689426012
 20
47.23088172703532
 10
183.9577636258856
 20
47.06034950051546
 10
183.3338568335068
 20
47.06034950051546
 10
183.0510144941678
 20
47.06034950051546
 10
182.8084797720062
 20
47.06930674877711
 10
182.5931613041781
 20
47.09617849356206
 10
182.5931613041781
 20
47.09617849356206
 10
182.5931613041781
 20
50.46307031129672
 10
182.5931613041781
 20
50.46307031129672
 97
        0
 92
        1
 93
        1
 72
     4
 94
        3
 73
     0
 74
     1
 95
       20
 96
       16
 40
0.0
 40
0.0
 40
0.0
 40
0.0
 40
1.0
 40
1.0
 40
1.0
 40
2.0
 40
2.0
 40
2.0
 40
3.0
 40
3.0
 40
3.0
 40
4.0
 40
4.0
 40
4.0
 40
5.0
 40
5.0
 40
5.0
 40
5.0
 10
182.9655761261336
 20
47.38349945703189
 10
183.0778862389528
 20
47.36558496050859
 10
183.239461217211
 20
47.36110633637777
 10
183.4010361954692
 20
47.36110633637777
 10
184.3260443332588
 20
47.36110633637777
 10
184.8331623886876
 20
47.88648339787837
 10
184.8331623886876
 20
48.86489051568932
 10
184.8331623886876
 20
49.75406966043231
 10
184.3573947021746
 20
50.23431597107614
 10
183.4685600669801
 20
50.23431597107614
 10
183.2528970896034
 20
50.23431597107614
 10
183.0823648630836
 20
50.21192285042201
 10
182.9655761261336
 20
50.18952972976788
 10
182.9655761261336
 20
50.18952972976788
 10
182.9655761261336
 20
47.38349945703189
 10
182.9655761261336
 20
47.38349945703189
 97
        0
 75
     2
 76
     1
 98
        0
  0
POLYLINE
  5
125
330
F7
100
AcDbEntity
  8
_U+30EC_U+30A4_U+30E4_U+30FC 1
370
     0
100
AcDb2dPolyline
 66
     1
 10
0.0
 20
0.0
 30
0.0
  0
VERTEX
  5
126
330
125
100
AcDbEntity
  8
_U+30EC_U+30A4_U+30E4_U+30FC 1
370
     0
100
AcDbVertex
100
AcDb2dVertex
 10
185.7881428571988
 20
50.5082010621535
 30
0.0
  0
VERTEX
  5
127
330
125
100
AcDbEntity
  8
_U+30EC_U+30A4_U+30E4_U+30FC 1
370
     0
100
AcDbVertex
100
AcDb2dVertex
 10
186.1605576791543
 20
50.5082010621535
 30
0.0
  0
VERTEX
  5
128
330
125
100
AcDbEntity
  8
_U+30EC_U+30A4_U+30E4_U+30FC 1
370
     0
100
AcDbVertex
100
AcDb2dVertex
 10
186.1605576791543
 20
47.08722124530041
 30
0.0
  0
VERTEX
  5
129
330
125
100
AcDbEntity
  8
_U+30EC_U+30A4_U+30E4_U+30FC 1
370
     0
100
AcDbVertex
100
AcDb2dVertex
 10
185.7881428571988
 20
47.08722124530041
 30
0.0
  0
VERTEX
  5
12A
330
125
100
AcDbEntity
  8
_U+30EC_U+30A4_U+30E4_U+30FC 1
370
     0
100
AcDbVertex
100
AcDb2dVertex
 10
185.7881428571988
 20
50.5082010621535
 30
0.0
  0
SEQEND
  5
12B
330
125
100
AcDbEntity
  8
_U+30EC_U+30A4_U+30E4_U+30FC 1
370
     0
  0
HATCH
  5
12C
330
F7
100
AcDbEntity
  8
_U+30EC_U+30A4_U+30E4_U+30FC 1
 62
     7
100
AcDbHatch
 10
0.0
 20
0.0
 30
0.0
210
0.0
220
0.0
230
1.0
  2
SOLID
 70
     1
 71
     0
 91
        1
 92
        1
 93
        4
 72
     1
 10
185.7881428571988
 20
50.5082010621535
 11
186.1605576791543
 21
50.5082010621535
 72
     1
 10
186.1605576791543
 20
50.5082010621535
 11
186.1605576791543
 21
47.08722124530041
 72
     1
 10
186.1605576791543
 20
47.08722124530041
 11
185.7881428571988
 21
47.08722124530041
 72
     1
 10
185.7881428571988
 20
47.08722124530041
 11
185.7881428571988
 21
50.5082010621535
 97
        0
 75
     2
 76
     1
 98
        0
  0
SPLINE
  5
12D
330
F7
100
AcDbEntity
  8
_U+30EC_U+30A4_U+30E4_U+30FC 1
370
     0
100
AcDbSpline
210
0.0
220
0.0
230
1.0
 70
    11
 71
     3
 72
    47
 73
    43
 74
     0
 42
0.0000000001
 43
0.0000000001
 12
1.0
 22
0.0
 32
0.0
 13
1.0
 23
0.0
 33
0.0
 40
0.0
 40
0.0
 40
0.0
 40
0.0
 40
1.0
 40
1.0
 40
1.0
 40
2.0
 40
2.0
 40
2.0
 40
3.0
 40
3.0
 40
3.0
 40
4.0
 40
4.0
 40
4.0
 40
5.0
 40
5.0
 40
5.0
 40
6.0
 40
6.0
 40
6.0
 40
7.0
 40
7.0
 40
7.0
 40
8.0
 40
8.0
 40
8.0
 40
9.0
 40
9.0
 40
9.0
 40
10.0
 40
10.0
 40
10.0
 40
11.0
 40
11.0
 40
11.0
 40
12.0
 40
12.0
 40
12.0
 40
13.0
 40
13.0
 40
13.0
 40
14.0
 40
14.0
 40
14.0
 40
14.0
 10
188.2610323965111
 20
48.72570865808523
 30
0.0
 10
188.5259602393268
 20
48.64061479959955
 30
0.0
 10
188.6830565934542
 20
48.3846442050455
 30
0.0
 10
188.7636718278091
 20
48.01188487354146
 30
0.0
 10
188.8715033164974
 20
47.51820269050516
 30
0.0
 10
188.94798443627
 20
47.21744585464285
 30
0.0
 10
189.0151637982323
 20
47.08722124530041
 30
0.0
 10
189.0151637982323
 20
47.08722124530041
 30
0.0
 10
188.6293131038844
 20
47.08722124530041
 30
0.0
 10
188.6293131038844
 20
47.08722124530041
 30
0.0
 10
188.5752251047659
 20
47.18609548572707
 30
0.0
 10
188.4990884945419
 20
47.48685232158939
 30
0.0
 10
188.4091715023769
 20
47.91335514266331
 30
0.0
 10
188.3102972619502
 20
48.38912282917632
 30
0.0
 10
188.121850538907
 20
48.60030718242214
 30
0.0
 10
187.7177408384872
 20
48.60030718242214
 30
0.0
 10
187.7177408384872
 20
48.60030718242214
 30
0.0
 10
187.300195265675
 20
48.60030718242214
 30
0.0
 10
187.300195265675
 20
48.60030718242214
 30
0.0
 10
187.300195265675
 20
48.60030718242214
 30
0.0
 10
187.300195265675
 20
47.08722124530041
 30
0.0
 10
187.300195265675
 20
47.08722124530041
 30
0.0
 10
187.300195265675
 20
47.08722124530041
 30
0.0
 10
186.9277804437195
 20
47.08722124530041
 30
0.0
 10
186.9277804437195
 20
47.08722124530041
 30
0.0
 10
186.9277804437195
 20
47.08722124530041
 30
0.0
 10
186.9277804437195
 20
50.4585916871659
 30
0.0
 10
186.9277804437195
 20
50.4585916871659
 30
0.0
 10
187.1386202874167
 20
50.50372243802267
 30
0.0
 10
187.4348984991482
 20
50.53059418280762
 30
0.0
 10
187.7043049660948
 20
50.53059418280762
 30
0.0
 10
188.148722283692
 20
50.53059418280762
 30
0.0
 10
188.4405218712926
 20
50.4406771906426
 30
0.0
 10
188.6427489762768
 20
50.25223046759943
 30
0.0
 10
188.8043239545351
 20
50.10409136173369
 30
0.0
 10
188.8983750612824
 20
49.87051388783375
 30
0.0
 10
188.8983750612824
 20
49.61488780282821
 30
0.0
 10
188.8983750612824
 20
49.16116872742081
 30
0.0
 10
188.624489970205
 20
48.86936913982014
 30
0.0
 10
188.2610323965111
 20
48.7391445304777
 30
0.0
 10
188.2610323965111
 20
48.7391445304777
 30
0.0
 10
188.2610323965111
 20
48.72570865808523
 30
0.0
 10
188.2610323965111
 20
48.72570865808523
 30
0.0
  0
SPLINE
  5
12E
330
F7
100
AcDbEntity
  8
_U+30EC_U+30A4_U+30E4_U+30FC 1
370
     0
100
AcDbSpline
210
0.0
220
0.0
230
1.0
 70
    11
 71
     3
 72
    20
 73
    16
 74
     0
 42
0.0000000001
 43
0.0000000001
 12
1.0
 22
0.0
 32
0.0
 13
1.0
 23
0.0
 33
0.0
 40
0.0
 40
0.0
 40
0.0
 40
0.0
 40
1.0
 40
1.0
 40
1.0
 40
2.0
 40
2.0
 40
2.0
 40
3.0
 40
3.0
 40
3.0
 40
4.0
 40
4.0
 40
4.0
 40
5.0
 40
5.0
 40
5.0
 40
5.0
 10
187.7401339591414
 20
48.88762814589197
 30
0.0
 10
188.2162461552029
 20
48.88762814589197
 30
0.0
 10
188.521481615196
 20
49.15669010328998
 30
0.0
 10
188.521481615196
 20
49.56975705197144
 30
0.0
 10
188.521481615196
 20
50.07721961694874
 30
0.0
 10
188.1397650354303
 20
50.23431597107614
 30
0.0
 10
187.7222194626181
 20
50.23431597107614
 30
0.0
 10
187.5203368671824
 20
50.23431597107614
 30
0.0
 10
187.3766763854475
 20
50.21640147455283
 30
0.0
 10
187.300195265675
 20
50.19848697802954
 30
0.0
 10
187.300195265675
 20
50.19848697802954
 30
0.0
 10
187.300195265675
 20
48.88762814589197
 30
0.0
 10
187.300195265675
 20
48.88762814589197
 30
0.0
 10
187.300195265675
 20
48.88762814589197
 30
0.0
 10
187.7401339591414
 20
48.88762814589197
 30
0.0
 10
187.7401339591414
 20
48.88762814589197
 30
0.0
  0
HATCH
  5
12F
330
F7
100
AcDbEntity
  8
_U+30EC_U+30A4_U+30E4_U+30FC 1
 62
     7
100
AcDbHatch
 10
0.0
 20
0.0
 30
0.0
210
0.0
220
0.0
230
1.0
  2
SOLID
 70
     1
 71
     0
 91
        2
 92
        1
 93
        1
 72
     4
 94
        3
 73
     0
 74
     1
 95
       47
 96
       43
 40
0.0
 40
0.0
 40
0.0
 40
0.0
 40
1.0
 40
1.0
 40
1.0
 40
2.0
 40
2.0
 40
2.0
 40
3.0
 40
3.0
 40
3.0
 40
4.0
 40
4.0
 40
4.0
 40
5.0
 40
5.0
 40
5.0
 40
6.0
 40
6.0
 40
6.0
 40
7.0
 40
7.0
 40
7.0
 40
8.0
 40
8.0
 40
8.0
 40
9.0
 40
9.0
 40
9.0
 40
10.0
 40
10.0
 40
10.0
 40
11.0
 40
11.0
 40
11.0
 40
12.0
 40
12.0
 40
12.0
 40
13.0
 40
13.0
 40
13.0
 40
14.0
 40
14.0
 40
14.0
 40
14.0
 10
188.2610323965111
 20
48.72570865808523
 10
188.5259602393268
 20
48.64061479959955
 10
188.6830565934542
 20
48.3846442050455
 10
188.7636718278091
 20
48.01188487354146
 10
188.8715033164974
 20
47.51820269050516
 10
188.94798443627
 20
47.21744585464285
 10
189.0151637982323
 20
47.08722124530041
 10
189.0151637982323
 20
47.08722124530041
 10
188.6293131038844
 20
47.08722124530041
 10
188.6293131038844
 20
47.08722124530041
 10
188.5752251047659
 20
47.18609548572707
 10
188.4990884945419
 20
47.48685232158939
 10
188.4091715023769
 20
47.91335514266331
 10
188.3102972619502
 20
48.38912282917632
 10
188.121850538907
 20
48.60030718242214
 10
187.7177408384872
 20
48.60030718242214
 10
187.7177408384872
 20
48.60030718242214
 10
187.300195265675
 20
48.60030718242214
 10
187.300195265675
 20
48.60030718242214
 10
187.300195265675
 20
48.60030718242214
 10
187.300195265675
 20
47.08722124530041
 10
187.300195265675
 20
47.08722124530041
 10
187.300195265675
 20
47.08722124530041
 10
186.9277804437195
 20
47.08722124530041
 10
186.9277804437195
 20
47.08722124530041
 10
186.9277804437195
 20
47.08722124530041
 10
186.9277804437195
 20
50.4585916871659
 10
186.9277804437195
 20
50.4585916871659
 10
187.1386202874167
 20
50.50372243802267
 10
187.4348984991482
 20
50.53059418280762
 10
187.7043049660948
 20
50.53059418280762
 10
188.148722283692
 20
50.53059418280762
 10
188.4405218712926
 20
50.4406771906426
 10
188.6427489762768
 20
50.25223046759943
 10
188.8043239545351
 20
50.10409136173369
 10
188.8983750612824
 20
49.87051388783375
 10
188.8983750612824
 20
49.61488780282821
 10
188.8983750612824
 20
49.16116872742081
 10
188.624489970205
 20
48.86936913982014
 10
188.2610323965111
 20
48.7391445304777
 10
188.2610323965111
 20
48.7391445304777
 10
188.2610323965111
 20
48.72570865808523
 10
188.2610323965111
 20
48.72570865808523
 97
        0
 92
        1
 93
        1
 72
     4
 94
        3
 73
     0
 74
     1
 95
       20
 96
       16
 40
0.0
 40
0.0
 40
0.0
 40
0.0
 40
1.0
 40
1.0
 40
1.0
 40
2.0
 40
2.0
 40
2.0
 40
3.0
 40
3.0
 40
3.0
 40
4.0
 40
4.0
 40
4.0
 40
5.0
 40
5.0
 40
5.0
 40
5.0
 10
187.7401339591414
 20
48.88762814589197
 10
188.2162461552029
 20
48.88762814589197
 10
188.521481615196
 20
49.15669010328998
 10
188.521481615196
 20
49.56975705197144
 10
188.521481615196
 20
50.07721961694874
 10
188.1397650354303
 20
50.23431597107614
 10
187.7222194626181
 20
50.23431597107614
 10
187.5203368671824
 20
50.23431597107614
 10
187.3766763854475
 20
50.21640147455283
 10
187.300195265675
 20
50.19848697802954
 10
187.300195265675
 20
50.19848697802954
 10
187.300195265675
 20
48.88762814589197
 10
187.300195265675
 20
48.88762814589197
 10
187.300195265675
 20
48.88762814589197
 10
187.7401339591414
 20
48.88762814589197
 10
187.7401339591414
 20
48.88762814589197
 97
        0
 75
     2
 76
     1
 98
        0
  0
SPLINE
  5
130
330
F7
100
AcDbEntity
  8
_U+30EC_U+30A4_U+30E4_U+30FC 1
370
     0
100
AcDbSpline
210
0.0
220
0.0
230
1.0
 70
    11
 71
     3
 72
    23
 73
    19
 74
     0
 42
0.0000000001
 43
0.0000000001
 12
1.0
 22
0.0
 32
0.0
 13
1.0
 23
0.0
 33
0.0
 40
0.0
 40
0.0
 40
0.0
 40
0.0
 40
1.0
 40
1.0
 40
1.0
 40
2.0
 40
2.0
 40
2.0
 40
3.0
 40
3.0
 40
3.0
 40
4.0
 40
4.0
 40
4.0
 40
5.0
 40
5.0
 40
5.0
 40
6.0
 40
6.0
 40
6.0
 40
6.0
 10
189.5126355863024
 20
50.46307031129672
 30
0.0
 10
189.7637830471771
 20
50.50372243802267
 30
0.0
 10
190.0555826347778
 20
50.53507280693844
 30
0.0
 10
190.3745984767119
 20
50.53507280693844
 30
0.0
 10
191.748158046681
 20
50.53507280693844
 30
0.0
 10
192.1433104988392
 20
49.72237478196801
 30
0.0
 10
192.1433104988392
 20
48.88314952176115
 30
0.0
 10
192.1433104988392
 20
48.33985796373724
 30
0.0
 10
191.9996500171043
 20
47.87718164006819
 30
0.0
 10
191.6765000605878
 20
47.54059581115929
 30
0.0
 10
191.3757432247255
 20
47.23088172703532
 30
0.0
 10
190.8772379080099
 20
47.06034950051546
 30
0.0
 10
190.2533311156311
 20
47.06034950051546
 30
0.0
 10
189.9704887762921
 20
47.06034950051546
 30
0.0
 10
189.7279540541305
 20
47.06930674877711
 30
0.0
 10
189.5126355863024
 20
47.09617849356206
 30
0.0
 10
189.5126355863024
 20
47.09617849356206
 30
0.0
 10
189.5126355863024
 20
50.46307031129672
 30
0.0
 10
189.5126355863024
 20
50.46307031129672
 30
0.0
  0
SPLINE
  5
131
330
F7
100
AcDbEntity
  8
_U+30EC_U+30A4_U+30E4_U+30FC 1
370
     0
100
AcDbSpline
210
0.0
220
0.0
230
1.0
 70
    11
 71
     3
 72
    20
 73
    16
 74
     0
 42
0.0000000001
 43
0.0000000001
 12
1.0
 22
0.0
 32
0.0
 13
1.0
 23
0.0
 33
0.0
 40
0.0
 40
0.0
 40
0.0
 40
0.0
 40
1.0
 40
1.0
 40
1.0
 40
2.0
 40
2.0
 40
2.0
 40
3.0
 40
3.0
 40
3.0
 40
4.0
 40
4.0
 40
4.0
 40
5.0
 40
5.0
 40
5.0
 40
5.0
 10
189.8850504082579
 20
47.38349945703189
 30
0.0
 10
189.9973605210771
 20
47.36558496050859
 30
0.0
 10
190.1589354993353
 20
47.36110633637777
 30
0.0
 10
190.3205104775935
 20
47.36110633637777
 30
0.0
 10
191.2455186153831
 20
47.36110633637777
 30
0.0
 10
191.7526366708119
 20
47.88648339787837
 30
0.0
 10
191.7526366708119
 20
48.86489051568932
 30
0.0
 10
191.7526366708119
 20
49.75406966043231
 30
0.0
 10
191.2768689842989
 20
50.23431597107614
 30
0.0
 10
190.3880343491044
 20
50.23431597107614
 30
0.0
 10
190.1723713717278
 20
50.23431597107614
 30
0.0
 10
190.0018391452079
 20
50.21192285042201
 30
0.0
 10
189.8850504082579
 20
50.18952972976788
 30
0.0
 10
189.8850504082579
 20
50.18952972976788
 30
0.0
 10
189.8850504082579
 20
47.38349945703189
 30
0.0
 10
189.8850504082579
 20
47.38349945703189
 30
0.0
  0
HATCH
  5
132
330
F7
100
AcDbEntity
  8
_U+30EC_U+30A4_U+30E4_U+30FC 1
 62
     7
100
AcDbHatch
 10
0.0
 20
0.0
 30
0.0
210
0.0
220
0.0
230
1.0
  2
SOLID
 70
     1
 71
     0
 91
        2
 92
        1
 93
        1
 72
     4
 94
        3
 73
     0
 74
     1
 95
       23
 96
       19
 40
0.0
 40
0.0
 40
0.0
 40
0.0
 40
1.0
 40
1.0
 40
1.0
 40
2.0
 40
2.0
 40
2.0
 40
3.0
 40
3.0
 40
3.0
 40
4.0
 40
4.0
 40
4.0
 40
5.0
 40
5.0
 40
5.0
 40
6.0
 40
6.0
 40
6.0
 40
6.0
 10
189.5126355863024
 20
50.46307031129672
 10
189.7637830471771
 20
50.50372243802267
 10
190.0555826347778
 20
50.53507280693844
 10
190.3745984767119
 20
50.53507280693844
 10
191.748158046681
 20
50.53507280693844
 10
192.1433104988392
 20
49.72237478196801
 10
192.1433104988392
 20
48.88314952176115
 10
192.1433104988392
 20
48.33985796373724
 10
191.9996500171043
 20
47.87718164006819
 10
191.6765000605878
 20
47.54059581115929
 10
191.3757432247255
 20
47.23088172703532
 10
190.8772379080099
 20
47.06034950051546
 10
190.2533311156311
 20
47.06034950051546
 10
189.9704887762921
 20
47.06034950051546
 10
189.7279540541305
 20
47.06930674877711
 10
189.5126355863024
 20
47.09617849356206
 10
189.5126355863024
 20
47.09617849356206
 10
189.5126355863024
 20
50.46307031129672
 10
189.5126355863024
 20
50.46307031129672
 97
        0
 92
        1
 93
        1
 72
     4
 94
        3
 73
     0
 74
     1
 95
       20
 96
       16
 40
0.0
 40
0.0
 40
0.0
 40
0.0
 40
1.0
 40
1.0
 40
1.0
 40
2.0
 40
2.0
 40
2.0
 40
3.0
 40
3.0
 40
3.0
 40
4.0
 40
4.0
 40
4.0
 40
5.0
 40
5.0
 40
5.0
 40
5.0
 10
189.8850504082579
 20
47.38349945703189
 10
189.9973605210771
 20
47.36558496050859
 10
190.1589354993353
 20
47.36110633637777
 10
190.3205104775935
 20
47.36110633637777
 10
191.2455186153831
 20
47.36110633637777
 10
191.7526366708119
 20
47.88648339787837
 10
191.7526366708119
 20
48.86489051568932
 10
191.7526366708119
 20
49.75406966043231
 10
191.2768689842989
 20
50.23431597107614
 10
190.3880343491044
 20
50.23431597107614
 10
190.1723713717278
 20
50.23431597107614
 10
190.0018391452079
 20
50.21192285042201
 10
189.8850504082579
 20
50.18952972976788
 10
189.8850504082579
 20
50.18952972976788
 10
189.8850504082579
 20
47.38349945703189
 10
189.8850504082579
 20
47.38349945703189
 97
        0
 75
     2
 76
     1
 98
        0
  0
POLYLINE
  5
133
330
F7
100
AcDbEntity
  8
_U+30EC_U+30A4_U+30E4_U+30FC 1
370
     0
100
AcDb2dPolyline
 66
     1
 10
0.0
 20
0.0
 30
0.0
  0
VERTEX
  5
134
330
133
100
AcDbEntity
  8
_U+30EC_U+30A4_U+30E4_U+30FC 1
370
     0
100
AcDbVertex
100
AcDb2dVertex
 10
192.478518289554
 20
48.60030718242214
 30
0.0
  0
VERTEX
  5
135
330
133
100
AcDbEntity
  8
_U+30EC_U+30A4_U+30E4_U+30FC 1
370
     0
100
AcDbVertex
100
AcDb2dVertex
 10
193.7042832632059
 20
48.60030718242214
 30
0.0
  0
VERTEX
  5
136
330
133
100
AcDbEntity
  8
_U+30EC_U+30A4_U+30E4_U+30FC 1
370
     0
100
AcDbVertex
100
AcDb2dVertex
 10
193.7042832632059
 20
48.3129862189523
 30
0.0
  0
VERTEX
  5
137
330
133
100
AcDbEntity
  8
_U+30EC_U+30A4_U+30E4_U+30FC 1
370
     0
100
AcDbVertex
100
AcDb2dVertex
 10
192.478518289554
 20
48.3129862189523
 30
0.0
  0
VERTEX
  5
138
330
133
100
AcDbEntity
  8
_U+30EC_U+30A4_U+30E4_U+30FC 1
370
     0
100
AcDbVertex
100
AcDb2dVertex
 10
192.478518289554
 20
48.60030718242214
 30
0.0
  0
SEQEND
  5
139
330
133
100
AcDbEntity
  8
_U+30EC_U+30A4_U+30E4_U+30FC 1
370
     0
  0
HATCH
  5
13A
330
F7
100
AcDbEntity
  8
_U+30EC_U+30A4_U+30E4_U+30FC 1
 62
     7
100
AcDbHatch
 10
0.0
 20
0.0
 30
0.0
210
0.0
220
0.0
230
1.0
  2
SOLID
 70
     1
 71
     0
 91
        1
 92
        1
 93
        4
 72
     1
 10
192.478518289554
 20
48.60030718242214
 11
193.7042832632059
 21
48.60030718242214
 72
     1
 10
193.7042832632059
 20
48.60030718242214
 11
193.7042832632059
 21
48.3129862189523
 72
     1
 10
193.7042832632059
 20
48.3129862189523
 11
192.478518289554
 21
48.3129862189523
 72
     1
 10
192.478518289554
 20
48.3129862189523
 11
192.478518289554
 21
48.60030718242214
 97
        0
 75
     2
 76
     1
 98
        0
  0
SPLINE
  5
13B
330
F7
100
AcDbEntity
  8
_U+30EC_U+30A4_U+30E4_U+30FC 1
370
     0
100
AcDbSpline
210
0.0
220
0.0
230
1.0
 70
    11
 71
     3
 72
    47
 73
    43
 74
     0
 42
0.0000000001
 43
0.0000000001
 12
1.0
 22
0.0
 32
0.0
 13
1.0
 23
0.0
 33
0.0
 40
0.0
 40
0.0
 40
0.0
 40
0.0
 40
1.0
 40
1.0
 40
1.0
 40
2.0
 40
2.0
 40
2.0
 40
3.0
 40
3.0
 40
3.0
 40
4.0
 40
4.0
 40
4.0
 40
5.0
 40
5.0
 40
5.0
 40
6.0
 40
6.0
 40
6.0
 40
7.0
 40
7.0
 40
7.0
 40
8.0
 40
8.0
 40
8.0
 40
9.0
 40
9.0
 40
9.0
 40
10.0
 40
10.0
 40
10.0
 40
11.0
 40
11.0
 40
11.0
 40
12.0
 40
12.0
 40
12.0
 40
13.0
 40
13.0
 40
13.0
 40
14.0
 40
14.0
 40
14.0
 40
14.0
 10
196.0645181801505
 20
47.08722124530041
 30
0.0
 10
196.0645181801505
 20
47.08722124530041
 30
0.0
 10
194.0760090660643
 20
47.08722124530041
 30
0.0
 10
194.0760090660643
 20
47.08722124530041
 30
0.0
 10
194.0760090660643
 20
47.08722124530041
 30
0.0
 10
194.0760090660643
 20
47.31632009506952
 30
0.0
 10
194.0760090660643
 20
47.31632009506952
 30
0.0
 10
194.0760090660643
 20
47.31632009506952
 30
0.0
 10
194.4036376467116
 20
47.66186317224008
 30
0.0
 10
194.4036376467116
 20
47.66186317224008
 30
0.0
 10
195.202555289741
 20
48.47008257307969
 30
0.0
 10
195.6066649901609
 20
48.95928613198517
 30
0.0
 10
195.6066649901609
 20
49.50705631413989
 30
0.0
 10
195.6066649901609
 20
49.86603526370293
 30
0.0
 10
195.4495686360335
 20
50.19848697802954
 30
0.0
 10
194.9648437012588
 20
50.19848697802954
 30
0.0
 10
194.6954372343123
 20
50.19848697802954
 30
0.0
 10
194.4529025121507
 20
50.05034787216379
 30
0.0
 10
194.2913275338925
 20
49.92012326282135
 30
0.0
 10
194.2913275338925
 20
49.92012326282135
 30
0.0
 10
194.1655815486808
 20
50.18057248150623
 30
0.0
 10
194.1655815486808
 20
50.18057248150623
 30
0.0
 10
194.3722872777958
 20
50.36454058041858
 30
0.0
 10
194.677522737789
 20
50.5082010621535
 30
0.0
 10
195.036501687352
 20
50.5082010621535
 30
0.0
 10
195.7144964788492
 20
50.5082010621535
 30
0.0
 10
195.9839029457957
 20
50.01417436956866
 30
0.0
 10
195.9839029457957
 20
49.55184255544814
 30
0.0
 10
195.9839029457957
 20
48.91897851480775
 30
0.0
 10
195.5394856281985
 20
48.38016558091467
 30
0.0
 10
194.843576340178
 20
47.67977766876338
 30
0.0
 10
194.843576340178
 20
47.67977766876338
 30
0.0
 10
194.5786484973623
 20
47.40141395355519
 30
0.0
 10
194.5786484973623
 20
47.40141395355519
 30
0.0
 10
194.5786484973623
 20
47.40141395355519
 30
0.0
 10
194.5786484973623
 20
47.39245670529354
 30
0.0
 10
194.5786484973623
 20
47.39245670529354
 30
0.0
 10
194.5786484973623
 20
47.39245670529354
 30
0.0
 10
196.0645181801505
 20
47.39245670529354
 30
0.0
 10
196.0645181801505
 20
47.39245670529354
 30
0.0
 10
196.0645181801505
 20
47.39245670529354
 30
0.0
 10
196.0645181801505
 20
47.08722124530041
 30
0.0
 10
196.0645181801505
 20
47.08722124530041
 30
0.0
  0
HATCH
  5
13C
330
F7
100
AcDbEntity
  8
_U+30EC_U+30A4_U+30E4_U+30FC 1
 62
     7
100
AcDbHatch
 10
0.0
 20
0.0
 30
0.0
210
0.0
220
0.0
230
1.0
  2
SOLID
 70
     1
 71
     0
 91
        1
 92
        1
 93
        1
 72
     4
 94
        3
 73
     0
 74
     1
 95
       47
 96
       43
 40
0.0
 40
0.0
 40
0.0
 40
0.0
 40
1.0
 40
1.0
 40
1.0
 40
2.0
 40
2.0
 40
2.0
 40
3.0
 40
3.0
 40
3.0
 40
4.0
 40
4.0
 40
4.0
 40
5.0
 40
5.0
 40
5.0
 40
6.0
 40
6.0
 40
6.0
 40
7.0
 40
7.0
 40
7.0
 40
8.0
 40
8.0
 40
8.0
 40
9.0
 40
9.0
 40
9.0
 40
10.0
 40
10.0
 40
10.0
 40
11.0
 40
11.0
 40
11.0
 40
12.0
 40
12.0
 40
12.0
 40
13.0
 40
13.0
 40
13.0
 40
14.0
 40
14.0
 40
14.0
 40
14.0
 10
196.0645181801505
 20
47.08722124530041
 10
196.0645181801505
 20
47.08722124530041
 10
194.0760090660643
 20
47.08722124530041
 10
194.0760090660643
 20
47.08722124530041
 10
194.0760090660643
 20
47.08722124530041
 10
194.0760090660643
 20
47.31632009506952
 10
194.0760090660643
 20
47.31632009506952
 10
194.0760090660643
 20
47.31632009506952
 10
194.4036376467116
 20
47.66186317224008
 10
194.4036376467116
 20
47.66186317224008
 10
195.202555289741
 20
48.47008257307969
 10
195.6066649901609
 20
48.95928613198517
 10
195.6066649901609
 20
49.50705631413989
 10
195.6066649901609
 20
49.86603526370293
 10
195.4495686360335
 20
50.19848697802954
 10
194.9648437012588
 20
50.19848697802954
 10
194.6954372343123
 20
50.19848697802954
 10
194.4529025121507
 20
50.05034787216379
 10
194.2913275338925
 20
49.92012326282135
 10
194.2913275338925
 20
49.92012326282135
 10
194.1655815486808
 20
50.18057248150623
 10
194.1655815486808
 20
50.18057248150623
 10
194.3722872777958
 20
50.36454058041858
 10
194.677522737789
 20
50.5082010621535
 10
195.036501687352
 20
50.5082010621535
 10
195.7144964788492
 20
50.5082010621535
 10
195.9839029457957
 20
50.01417436956866
 10
195.9839029457957
 20
49.55184255544814
 10
195.9839029457957
 20
48.91897851480775
 10
195.5394856281985
 20
48.38016558091467
 10
194.843576340178
 20
47.67977766876338
 10
194.843576340178
 20
47.67977766876338
 10
194.5786484973623
 20
47.40141395355519
 10
194.5786484973623
 20
47.40141395355519
 10
194.5786484973623
 20
47.40141395355519
 10
194.5786484973623
 20
47.39245670529354
 10
194.5786484973623
 20
47.39245670529354
 10
194.5786484973623
 20
47.39245670529354
 10
196.0645181801505
 20
47.39245670529354
 10
196.0645181801505
 20
47.39245670529354
 10
196.0645181801505
 20
47.39245670529354
 10
196.0645181801505
 20
47.08722124530041
 10
196.0645181801505
 20
47.08722124530041
 97
        0
 75
     2
 76
     1
 98
        0
  0
SPLINE
  5
13D
330
F7
100
AcDbEntity
  8
_U+30EC_U+30A4_U+30E4_U+30FC 1
370
     0
100
AcDbSpline
210
0.0
220
0.0
230
1.0
 70
    11
 71
     3
 72
    47
 73
    43
 74
     0
 42
0.0000000001
 43
0.0000000001
 12
1.0
 22
0.0
 32
0.0
 13
1.0
 23
0.0
 33
0.0
 40
0.0
 40
0.0
 40
0.0
 40
0.0
 40
1.0
 40
1.0
 40
1.0
 40
2.0
 40
2.0
 40
2.0
 40
3.0
 40
3.0
 40
3.0
 40
4.0
 40
4.0
 40
4.0
 40
5.0
 40
5.0
 40
5.0
 40
6.0
 40
6.0
 40
6.0
 40
7.0
 40
7.0
 40
7.0
 40
8.0
 40
8.0
 40
8.0
 40
9.0
 40
9.0
 40
9.0
 40
10.0
 40
10.0
 40
10.0
 40
11.0
 40
11.0
 40
11.0
 40
12.0
 40
12.0
 40
12.0
 40
13.0
 40
13.0
 40
13.0
 40
14.0
 40
14.0
 40
14.0
 40
14.0
 10
198.5370632099144
 20
47.08722124530041
 30
0.0
 10
198.5370632099144
 20
47.08722124530041
 30
0.0
 10
196.5485540958281
 20
47.08722124530041
 30
0.0
 10
196.5485540958281
 20
47.08722124530041
 30
0.0
 10
196.5485540958281
 20
47.08722124530041
 30
0.0
 10
196.5485540958281
 20
47.31632009506952
 30
0.0
 10
196.5485540958281
 20
47.31632009506952
 30
0.0
 10
196.5485540958281
 20
47.31632009506952
 30
0.0
 10
196.8761826764754
 20
47.66186317224008
 30
0.0
 10
196.8761826764754
 20
47.66186317224008
 30
0.0
 10
197.6751003195048
 20
48.47008257307969
 30
0.0
 10
198.0792100199247
 20
48.95928613198517
 30
0.0
 10
198.0792100199247
 20
49.50705631413989
 30
0.0
 10
198.0792100199247
 20
49.86603526370293
 30
0.0
 10
197.9221136657973
 20
50.19848697802954
 30
0.0
 10
197.4373887310226
 20
50.19848697802954
 30
0.0
 10
197.1679822640761
 20
50.19848697802954
 30
0.0
 10
196.9254475419145
 20
50.05034787216379
 30
0.0
 10
196.7638725636563
 20
49.92012326282135
 30
0.0
 10
196.7638725636563
 20
49.92012326282135
 30
0.0
 10
196.6381265784447
 20
50.18057248150623
 30
0.0
 10
196.6381265784447
 20
50.18057248150623
 30
0.0
 10
196.8448323075596
 20
50.36454058041858
 30
0.0
 10
197.1500677675528
 20
50.5082010621535
 30
0.0
 10
197.5090467171158
 20
50.5082010621535
 30
0.0
 10
198.187041508613
 20
50.5082010621535
 30
0.0
 10
198.4564479755595
 20
50.01417436956866
 30
0.0
 10
198.4564479755595
 20
49.55184255544814
 30
0.0
 10
198.4564479755595
 20
48.91897851480775
 30
0.0
 10
198.0120306579623
 20
48.38016558091467
 30
0.0
 10
197.3161213699418
 20
47.67977766876338
 30
0.0
 10
197.3161213699418
 20
47.67977766876338
 30
0.0
 10
197.0511935271261
 20
47.40141395355519
 30
0.0
 10
197.0511935271261
 20
47.40141395355519
 30
0.0
 10
197.0511935271261
 20
47.40141395355519
 30
0.0
 10
197.0511935271261
 20
47.39245670529354
 30
0.0
 10
197.0511935271261
 20
47.39245670529354
 30
0.0
 10
197.0511935271261
 20
47.39245670529354
 30
0.0
 10
198.5370632099144
 20
47.39245670529354
 30
0.0
 10
198.5370632099144
 20
47.39245670529354
 30
0.0
 10
198.5370632099144
 20
47.39245670529354
 30
0.0
 10
198.5370632099144
 20
47.08722124530041
 30
0.0
 10
198.5370632099144
 20
47.08722124530041
 30
0.0
  0
HATCH
  5
13E
330
F7
100
AcDbEntity
  8
_U+30EC_U+30A4_U+30E4_U+30FC 1
 62
     7
100
AcDbHatch
 10
0.0
 20
0.0
 30
0.0
210
0.0
220
0.0
230
1.0
  2
SOLID
 70
     1
 71
     0
 91
        1
 92
        1
 93
        1
 72
     4
 94
        3
 73
     0
 74
     1
 95
       47
 96
       43
 40
0.0
 40
0.0
 40
0.0
 40
0.0
 40
1.0
 40
1.0
 40
1.0
 40
2.0
 40
2.0
 40
2.0
 40
3.0
 40
3.0
 40
3.0
 40
4.0
 40
4.0
 40
4.0
 40
5.0
 40
5.0
 40
5.0
 40
6.0
 40
6.0
 40
6.0
 40
7.0
 40
7.0
 40
7.0
 40
8.0
 40
8.0
 40
8.0
 40
9.0
 40
9.0
 40
9.0
 40
10.0
 40
10.0
 40
10.0
 40
11.0
 40
11.0
 40
11.0
 40
12.0
 40
12.0
 40
12.0
 40
13.0
 40
13.0
 40
13.0
 40
14.0
 40
14.0
 40
14.0
 40
14.0
 10
198.5370632099144
 20
47.08722124530041
 10
198.5370632099144
 20
47.08722124530041
 10
196.5485540958281
 20
47.08722124530041
 10
196.5485540958281
 20
47.08722124530041
 10
196.5485540958281
 20
47.08722124530041
 10
196.5485540958281
 20
47.31632009506952
 10
196.5485540958281
 20
47.31632009506952
 10
196.5485540958281
 20
47.31632009506952
 10
196.8761826764754
 20
47.66186317224008
 10
196.8761826764754
 20
47.66186317224008
 10
197.6751003195048
 20
48.47008257307969
 10
198.0792100199247
 20
48.95928613198517
 10
198.0792100199247
 20
49.50705631413989
 10
198.0792100199247
 20
49.86603526370293
 10
197.9221136657973
 20
50.19848697802954
 10
197.4373887310226
 20
50.19848697802954
 10
197.1679822640761
 20
50.19848697802954
 10
196.9254475419145
 20
50.05034787216379
 10
196.7638725636563
 20
49.92012326282135
 10
196.7638725636563
 20
49.92012326282135
 10
196.6381265784447
 20
50.18057248150623
 10
196.6381265784447
 20
50.18057248150623
 10
196.8448323075596
 20
50.36454058041858
 10
197.1500677675528
 20
50.5082010621535
 10
197.5090467171158
 20
50.5082010621535
 10
198.187041508613
 20
50.5082010621535
 10
198.4564479755595
 20
50.01417436956866
 10
198.4564479755595
 20
49.55184255544814
 10
198.4564479755595
 20
48.91897851480775
 10
198.0120306579623
 20
48.38016558091467
 10
197.3161213699418
 20
47.67977766876338
 10
197.3161213699418
 20
47.67977766876338
 10
197.0511935271261
 20
47.40141395355519
 10
197.0511935271261
 20
47.40141395355519
 10
197.0511935271261
 20
47.40141395355519
 10
197.0511935271261
 20
47.39245670529354
 10
197.0511935271261
 20
47.39245670529354
 10
197.0511935271261
 20
47.39245670529354
 10
198.5370632099144
 20
47.39245670529354
 10
198.5370632099144
 20
47.39245670529354
 10
198.5370632099144
 20
47.39245670529354
 10
198.5370632099144
 20
47.08722124530041
 10
198.5370632099144
 20
47.08722124530041
 97
        0
 75
     2
 76
     1
 98
        0
  0
SPLINE
  5
13F
330
F7
100
AcDbEntity
  8
_U+30EC_U+30A4_U+30E4_U+30FC 1
370
     0
100
AcDbSpline
210
0.0
220
0.0
230
1.0
 70
    11
 71
     3
 72
    23
 73
    19
 74
     0
 42
0.0000000001
 43
0.0000000001
 12
1.0
 22
0.0
 32
0.0
 13
1.0
 23
0.0
 33
0.0
 40
0.0
 40
0.0
 40
0.0
 40
0.0
 40
1.0
 40
1.0
 40
1.0
 40
2.0
 40
2.0
 40
2.0
 40
3.0
 40
3.0
 40
3.0
 40
4.0
 40
4.0
 40
4.0
 40
5.0
 40
5.0
 40
5.0
 40
6.0
 40
6.0
 40
6.0
 40
6.0
 10
182.5931613041781
 20
45.07838606785123
 30
0.0
 10
182.8443087650528
 20
45.11869368502865
 30
0.0
 10
183.1361083526535
 20
45.15004405394442
 30
0.0
 10
183.4551241945876
 20
45.15004405394442
 30
0.0
 10
184.8286837645567
 20
45.15004405394442
 30
0.0
 10
185.2238362167149
 20
44.33734602897398
 30
0.0
 10
185.2238362167149
 20
43.4977762592186
 30
0.0
 10
185.2238362167149
 20
42.95482921074323
 30
0.0
 10
185.08017573498
 20
42.4924973966227
 30
0.0
 10
184.7570257784635
 20
42.15556705816526
 30
0.0
 10
184.4562689426012
 20
41.8458529740413
 30
0.0
 10
183.9577636258856
 20
41.67532074752144
 30
0.0
 10
183.3338568335068
 20
41.67532074752144
 30
0.0
 10
183.0510144941678
 20
41.67532074752144
 30
0.0
 10
182.8084797720062
 20
41.68427799578308
 30
0.0
 10
182.5931613041781
 20
41.71114974056803
 30
0.0
 10
182.5931613041781
 20
41.71114974056803
 30
0.0
 10
182.5931613041781
 20
45.07838606785123
 30
0.0
 10
182.5931613041781
 20
45.07838606785123
 30
0.0
  0
SPLINE
  5
140
330
F7
100
AcDbEntity
  8
_U+30EC_U+30A4_U+30E4_U+30FC 1
370
     0
100
AcDbSpline
210
0.0
220
0.0
230
1.0
 70
    11
 71
     3
 72
    20
 73
    16
 74
     0
 42
0.0000000001
 43
0.0000000001
 12
1.0
 22
0.0
 32
0.0
 13
1.0
 23
0.0
 33
0.0
 40
0.0
 40
0.0
 40
0.0
 40
0.0
 40
1.0
 40
1.0
 40
1.0
 40
2.0
 40
2.0
 40
2.0
 40
3.0
 40
3.0
 40
3.0
 40
4.0
 40
4.0
 40
4.0
 40
5.0
 40
5.0
 40
5.0
 40
5.0
 10
182.9655761261336
 20
41.99847070403787
 30
0.0
 10
183.0778862389528
 20
41.98055620751457
 30
0.0
 10
183.239461217211
 20
41.97607758338375
 30
0.0
 10
183.4010361954692
 20
41.97607758338375
 30
0.0
 10
184.3260443332588
 20
41.97607758338375
 30
0.0
 10
184.8331623886876
 20
42.50145464488435
 30
0.0
 10
184.8331623886876
 20
43.4798617626953
 30
0.0
 10
184.8331623886876
 20
44.36904090743828
 30
0.0
 10
184.3573947021746
 20
44.84928721808211
 30
0.0
 10
183.4685600669801
 20
44.84928721808211
 30
0.0
 10
183.2528970896034
 20
44.84928721808211
 30
0.0
 10
183.0823648630836
 20
44.82689409742799
 30
0.0
 10
182.9655761261336
 20
44.80450097677387
 30
0.0
 10
182.9655761261336
 20
44.80450097677387
 30
0.0
 10
182.9655761261336
 20
41.99847070403787
 30
0.0
 10
182.9655761261336
 20
41.99847070403787
 30
0.0
  0
HATCH
  5
141
330
F7
100
AcDbEntity
  8
_U+30EC_U+30A4_U+30E4_U+30FC 1
 62
     7
100
AcDbHatch
 10
0.0
 20
0.0
 30
0.0
210
0.0
220
0.0
230
1.0
  2
SOLID
 70
     1
 71
     0
 91
        2
 92
        1
 93
        1
 72
     4
 94
        3
 73
     0
 74
     1
 95
       23
 96
       19
 40
0.0
 40
0.0
 40
0.0
 40
0.0
 40
1.0
 40
1.0
 40
1.0
 40
2.0
 40
2.0
 40
2.0
 40
3.0
 40
3.0
 40
3.0
 40
4.0
 40
4.0
 40
4.0
 40
5.0
 40
5.0
 40
5.0
 40
6.0
 40
6.0
 40
6.0
 40
6.0
 10
182.5931613041781
 20
45.07838606785123
 10
182.8443087650528
 20
45.11869368502865
 10
183.1361083526535
 20
45.15004405394442
 10
183.4551241945876
 20
45.15004405394442
 10
184.8286837645567
 20
45.15004405394442
 10
185.2238362167149
 20
44.33734602897398
 10
185.2238362167149
 20
43.4977762592186
 10
185.2238362167149
 20
42.95482921074323
 10
185.08017573498
 20
42.4924973966227
 10
184.7570257784635
 20
42.15556705816526
 10
184.4562689426012
 20
41.8458529740413
 10
183.9577636258856
 20
41.67532074752144
 10
183.3338568335068
 20
41.67532074752144
 10
183.0510144941678
 20
41.67532074752144
 10
182.8084797720062
 20
41.68427799578308
 10
182.5931613041781
 20
41.71114974056803
 10
182.5931613041781
 20
41.71114974056803
 10
182.5931613041781
 20
45.07838606785123
 10
182.5931613041781
 20
45.07838606785123
 97
        0
 92
        1
 93
        1
 72
     4
 94
        3
 73
     0
 74
     1
 95
       20
 96
       16
 40
0.0
 40
0.0
 40
0.0
 40
0.0
 40
1.0
 40
1.0
 40
1.0
 40
2.0
 40
2.0
 40
2.0
 40
3.0
 40
3.0
 40
3.0
 40
4.0
 40
4.0
 40
4.0
 40
5.0
 40
5.0
 40
5.0
 40
5.0
 10
182.9655761261336
 20
41.99847070403787
 10
183.0778862389528
 20
41.98055620751457
 10
183.239461217211
 20
41.97607758338375
 10
183.4010361954692
 20
41.97607758338375
 10
184.3260443332588
 20
41.97607758338375
 10
184.8331623886876
 20
42.50145464488435
 10
184.8331623886876
 20
43.4798617626953
 10
184.8331623886876
 20
44.36904090743828
 10
184.3573947021746
 20
44.84928721808211
 10
183.4685600669801
 20
44.84928721808211
 10
183.2528970896034
 20
44.84928721808211
 10
183.0823648630836
 20
44.82689409742799
 10
182.9655761261336
 20
44.80450097677387
 10
182.9655761261336
 20
44.80450097677387
 10
182.9655761261336
 20
41.99847070403787
 10
182.9655761261336
 20
41.99847070403787
 97
        0
 75
     2
 76
     1
 98
        0
  0
POLYLINE
  5
142
330
F7
100
AcDbEntity
  8
_U+30EC_U+30A4_U+30E4_U+30FC 1
370
     0
100
AcDb2dPolyline
 66
     1
 10
0.0
 20
0.0
 30
0.0
  0
VERTEX
  5
143
330
142
100
AcDbEntity
  8
_U+30EC_U+30A4_U+30E4_U+30FC 1
370
     0
100
AcDbVertex
100
AcDb2dVertex
 10
185.7881428571988
 20
45.12317230915947
 30
0.0
  0
VERTEX
  5
144
330
142
100
AcDbEntity
  8
_U+30EC_U+30A4_U+30E4_U+30FC 1
370
     0
100
AcDbVertex
100
AcDb2dVertex
 10
186.1605576791543
 20
45.12317230915947
 30
0.0
  0
VERTEX
  5
145
330
142
100
AcDbEntity
  8
_U+30EC_U+30A4_U+30E4_U+30FC 1
370
     0
100
AcDbVertex
100
AcDb2dVertex
 10
186.1605576791543
 20
41.70219249230639
 30
0.0
  0
VERTEX
  5
146
330
142
100
AcDbEntity
  8
_U+30EC_U+30A4_U+30E4_U+30FC 1
370
     0
100
AcDbVertex
100
AcDb2dVertex
 10
185.7881428571988
 20
41.70219249230639
 30
0.0
  0
VERTEX
  5
147
330
142
100
AcDbEntity
  8
_U+30EC_U+30A4_U+30E4_U+30FC 1
370
     0
100
AcDbVertex
100
AcDb2dVertex
 10
185.7881428571988
 20
45.12317230915947
 30
0.0
  0
SEQEND
  5
148
330
142
100
AcDbEntity
  8
_U+30EC_U+30A4_U+30E4_U+30FC 1
370
     0
  0
HATCH
  5
149
330
F7
100
AcDbEntity
  8
_U+30EC_U+30A4_U+30E4_U+30FC 1
 62
     7
100
AcDbHatch
 10
0.0
 20
0.0
 30
0.0
210
0.0
220
0.0
230
1.0
  2
SOLID
 70
     1
 71
     0
 91
        1
 92
        1
 93
        4
 72
     1
 10
185.7881428571988
 20
45.12317230915947
 11
186.1605576791543
 21
45.12317230915947
 72
     1
 10
186.1605576791543
 20
45.12317230915947
 11
186.1605576791543
 21
41.70219249230639
 72
     1
 10
186.1605576791543
 20
41.70219249230639
 11
185.7881428571988
 21
41.70219249230639
 72
     1
 10
185.7881428571988
 20
41.70219249230639
 11
185.7881428571988
 21
45.12317230915947
 97
        0
 75
     2
 76
     1
 98
        0
  0
SPLINE
  5
14A
330
F7
100
AcDbEntity
  8
_U+30EC_U+30A4_U+30E4_U+30FC 1
370
     0
100
AcDbSpline
210
0.0
220
0.0
230
1.0
 70
    11
 71
     3
 72
    47
 73
    43
 74
     0
 42
0.0000000001
 43
0.0000000001
 12
1.0
 22
0.0
 32
0.0
 13
1.0
 23
0.0
 33
0.0
 40
0.0
 40
0.0
 40
0.0
 40
0.0
 40
1.0
 40
1.0
 40
1.0
 40
2.0
 40
2.0
 40
2.0
 40
3.0
 40
3.0
 40
3.0
 40
4.0
 40
4.0
 40
4.0
 40
5.0
 40
5.0
 40
5.0
 40
6.0
 40
6.0
 40
6.0
 40
7.0
 40
7.0
 40
7.0
 40
8.0
 40
8.0
 40
8.0
 40
9.0
 40
9.0
 40
9.0
 40
10.0
 40
10.0
 40
10.0
 40
11.0
 40
11.0
 40
11.0
 40
12.0
 40
12.0
 40
12.0
 40
13.0
 40
13.0
 40
13.0
 40
14.0
 40
14.0
 40
14.0
 40
14.0
 10
188.2610323965111
 20
43.34067990509121
 30
0.0
 10
188.5259602393268
 20
43.25558604660554
 30
0.0
 10
188.6830565934542
 20
42.99961545205147
 30
0.0
 10
188.7636718278091
 20
42.62685612054744
 30
0.0
 10
188.8715033164974
 20
42.13317393751114
 30
0.0
 10
188.94798443627
 20
41.83241710164883
 30
0.0
 10
189.0151637982323
 20
41.70219249230639
 30
0.0
 10
189.0151637982323
 20
41.70219249230639
 30
0.0
 10
188.6293131038844
 20
41.70219249230639
 30
0.0
 10
188.6293131038844
 20
41.70219249230639
 30
0.0
 10
188.5752251047659
 20
41.80106673273306
 30
0.0
 10
188.4990884945419
 20
42.10182356859536
 30
0.0
 10
188.4091715023769
 20
42.5283263896693
 30
0.0
 10
188.3102972619502
 20
43.0040940761823
 30
0.0
 10
188.121850538907
 20
43.21527842942811
 30
0.0
 10
187.7177408384872
 20
43.21527842942811
 30
0.0
 10
187.7177408384872
 20
43.21527842942811
 30
0.0
 10
187.300195265675
 20
43.21527842942811
 30
0.0
 10
187.300195265675
 20
43.21527842942811
 30
0.0
 10
187.300195265675
 20
43.21527842942811
 30
0.0
 10
187.300195265675
 20
41.70219249230639
 30
0.0
 10
187.300195265675
 20
41.70219249230639
 30
0.0
 10
187.300195265675
 20
41.70219249230639
 30
0.0
 10
186.9277804437195
 20
41.70219249230639
 30
0.0
 10
186.9277804437195
 20
41.70219249230639
 30
0.0
 10
186.9277804437195
 20
41.70219249230639
 30
0.0
 10
186.9277804437195
 20
45.07356293417187
 30
0.0
 10
186.9277804437195
 20
45.07356293417187
 30
0.0
 10
187.1386202874167
 20
45.11869368502865
 30
0.0
 10
187.4348984991482
 20
45.14556542981359
 30
0.0
 10
187.7043049660948
 20
45.14556542981359
 30
0.0
 10
188.148722283692
 20
45.14556542981359
 30
0.0
 10
188.4405218712926
 20
45.05564843764858
 30
0.0
 10
188.6427489762768
 20
44.86720171460541
 30
0.0
 10
188.8043239545351
 20
44.71906260873967
 30
0.0
 10
188.8983750612824
 20
44.48548513483973
 30
0.0
 10
188.8983750612824
 20
44.22985904983419
 30
0.0
 10
188.8983750612824
 20
43.77613997442679
 30
0.0
 10
188.624489970205
 20
43.48434038682613
 30
0.0
 10
188.2610323965111
 20
43.3544602870322
 30
0.0
 10
188.2610323965111
 20
43.3544602870322
 30
0.0
 10
188.2610323965111
 20
43.34067990509121
 30
0.0
 10
188.2610323965111
 20
43.34067990509121
 30
0.0
  0
SPLINE
  5
14B
330
F7
100
AcDbEntity
  8
_U+30EC_U+30A4_U+30E4_U+30FC 1
370
     0
100
AcDbSpline
210
0.0
220
0.0
230
1.0
 70
    11
 71
     3
 72
    20
 73
    16
 74
     0
 42
0.0000000001
 43
0.0000000001
 12
1.0
 22
0.0
 32
0.0
 13
1.0
 23
0.0
 33
0.0
 40
0.0
 40
0.0
 40
0.0
 40
0.0
 40
1.0
 40
1.0
 40
1.0
 40
2.0
 40
2.0
 40
2.0
 40
3.0
 40
3.0
 40
3.0
 40
4.0
 40
4.0
 40
4.0
 40
5.0
 40
5.0
 40
5.0
 40
5.0
 10
187.7401339591414
 20
43.50259939289795
 30
0.0
 10
188.2162461552029
 20
43.50259939289795
 30
0.0
 10
188.521481615196
 20
43.77166135029596
 30
0.0
 10
188.521481615196
 20
44.18472829897742
 30
0.0
 10
188.521481615196
 20
44.69219086395472
 30
0.0
 10
188.1397650354303
 20
44.84928721808211
 30
0.0
 10
187.7222194626181
 20
44.84928721808211
 30
0.0
 10
187.5203368671824
 20
44.84928721808211
 30
0.0
 10
187.3766763854475
 20
44.83137272155881
 30
0.0
 10
187.300195265675
 20
44.81345822503551
 30
0.0
 10
187.300195265675
 20
44.81345822503551
 30
0.0
 10
187.300195265675
 20
43.50259939289795
 30
0.0
 10
187.300195265675
 20
43.50259939289795
 30
0.0
 10
187.300195265675
 20
43.50259939289795
 30
0.0
 10
187.7401339591414
 20
43.50259939289795
 30
0.0
 10
187.7401339591414
 20
43.50259939289795
 30
0.0
  0
HATCH
  5
14C
330
F7
100
AcDbEntity
  8
_U+30EC_U+30A4_U+30E4_U+30FC 1
 62
     7
100
AcDbHatch
 10
0.0
 20
0.0
 30
0.0
210
0.0
220
0.0
230
1.0
  2
SOLID
 70
     1
 71
     0
 91
        2
 92
        1
 93
        1
 72
     4
 94
        3
 73
     0
 74
     1
 95
       47
 96
       43
 40
0.0
 40
0.0
 40
0.0
 40
0.0
 40
1.0
 40
1.0
 40
1.0
 40
2.0
 40
2.0
 40
2.0
 40
3.0
 40
3.0
 40
3.0
 40
4.0
 40
4.0
 40
4.0
 40
5.0
 40
5.0
 40
5.0
 40
6.0
 40
6.0
 40
6.0
 40
7.0
 40
7.0
 40
7.0
 40
8.0
 40
8.0
 40
8.0
 40
9.0
 40
9.0
 40
9.0
 40
10.0
 40
10.0
 40
10.0
 40
11.0
 40
11.0
 40
11.0
 40
12.0
 40
12.0
 40
12.0
 40
13.0
 40
13.0
 40
13.0
 40
14.0
 40
14.0
 40
14.0
 40
14.0
 10
188.2610323965111
 20
43.34067990509121
 10
188.5259602393268
 20
43.25558604660554
 10
188.6830565934542
 20
42.99961545205147
 10
188.7636718278091
 20
42.62685612054744
 10
188.8715033164974
 20
42.13317393751114
 10
188.94798443627
 20
41.83241710164883
 10
189.0151637982323
 20
41.70219249230639
 10
189.0151637982323
 20
41.70219249230639
 10
188.6293131038844
 20
41.70219249230639
 10
188.6293131038844
 20
41.70219249230639
 10
188.5752251047659
 20
41.80106673273306
 10
188.4990884945419
 20
42.10182356859536
 10
188.4091715023769
 20
42.5283263896693
 10
188.3102972619502
 20
43.0040940761823
 10
188.121850538907
 20
43.21527842942811
 10
187.7177408384872
 20
43.21527842942811
 10
187.7177408384872
 20
43.21527842942811
 10
187.300195265675
 20
43.21527842942811
 10
187.300195265675
 20
43.21527842942811
 10
187.300195265675
 20
43.21527842942811
 10
187.300195265675
 20
41.70219249230639
 10
187.300195265675
 20
41.70219249230639
 10
187.300195265675
 20
41.70219249230639
 10
186.9277804437195
 20
41.70219249230639
 10
186.9277804437195
 20
41.70219249230639
 10
186.9277804437195
 20
41.70219249230639
 10
186.9277804437195
 20
45.07356293417187
 10
186.9277804437195
 20
45.07356293417187
 10
187.1386202874167
 20
45.11869368502865
 10
187.4348984991482
 20
45.14556542981359
 10
187.7043049660948
 20
45.14556542981359
 10
188.148722283692
 20
45.14556542981359
 10
188.4405218712926
 20
45.05564843764858
 10
188.6427489762768
 20
44.86720171460541
 10
188.8043239545351
 20
44.71906260873967
 10
188.8983750612824
 20
44.48548513483973
 10
188.8983750612824
 20
44.22985904983419
 10
188.8983750612824
 20
43.77613997442679
 10
188.624489970205
 20
43.48434038682613
 10
188.2610323965111
 20
43.3544602870322
 10
188.2610323965111
 20
43.3544602870322
 10
188.2610323965111
 20
43.34067990509121
 10
188.2610323965111
 20
43.34067990509121
 97
        0
 92
        1
 93
        1
 72
     4
 94
        3
 73
     0
 74
     1
 95
       20
 96
       16
 40
0.0
 40
0.0
 40
0.0
 40
0.0
 40
1.0
 40
1.0
 40
1.0
 40
2.0
 40
2.0
 40
2.0
 40
3.0
 40
3.0
 40
3.0
 40
4.0
 40
4.0
 40
4.0
 40
5.0
 40
5.0
 40
5.0
 40
5.0
 10
187.7401339591414
 20
43.50259939289795
 10
188.2162461552029
 20
43.50259939289795
 10
188.521481615196
 20
43.77166135029596
 10
188.521481615196
 20
44.18472829897742
 10
188.521481615196
 20
44.69219086395472
 10
188.1397650354303
 20
44.84928721808211
 10
187.7222194626181
 20
44.84928721808211
 10
187.5203368671824
 20
44.84928721808211
 10
187.3766763854475
 20
44.83137272155881
 10
187.300195265675
 20
44.81345822503551
 10
187.300195265675
 20
44.81345822503551
 10
187.300195265675
 20
43.50259939289795
 10
187.300195265675
 20
43.50259939289795
 10
187.300195265675
 20
43.50259939289795
 10
187.7401339591414
 20
43.50259939289795
 10
187.7401339591414
 20
43.50259939289795
 97
        0
 75
     2
 76
     1
 98
        0
  0
SPLINE
  5
14D
330
F7
100
AcDbEntity
  8
_U+30EC_U+30A4_U+30E4_U+30FC 1
370
     0
100
AcDbSpline
210
0.0
220
0.0
230
1.0
 70
    11
 71
     3
 72
    23
 73
    19
 74
     0
 42
0.0000000001
 43
0.0000000001
 12
1.0
 22
0.0
 32
0.0
 13
1.0
 23
0.0
 33
0.0
 40
0.0
 40
0.0
 40
0.0
 40
0.0
 40
1.0
 40
1.0
 40
1.0
 40
2.0
 40
2.0
 40
2.0
 40
3.0
 40
3.0
 40
3.0
 40
4.0
 40
4.0
 40
4.0
 40
5.0
 40
5.0
 40
5.0
 40
6.0
 40
6.0
 40
6.0
 40
6.0
 10
189.5126355863024
 20
45.07838606785123
 30
0.0
 10
189.7637830471771
 20
45.11869368502865
 30
0.0
 10
190.0555826347778
 20
45.15004405394442
 30
0.0
 10
190.3745984767119
 20
45.15004405394442
 30
0.0
 10
191.748158046681
 20
45.15004405394442
 30
0.0
 10
192.1433104988392
 20
44.33734602897398
 30
0.0
 10
192.1433104988392
 20
43.4977762592186
 30
0.0
 10
192.1433104988392
 20
42.95482921074323
 30
0.0
 10
191.9996500171043
 20
42.4924973966227
 30
0.0
 10
191.6765000605878
 20
42.15556705816526
 30
0.0
 10
191.3757432247255
 20
41.8458529740413
 30
0.0
 10
190.8772379080099
 20
41.67532074752144
 30
0.0
 10
190.2533311156311
 20
41.67532074752144
 30
0.0
 10
189.9704887762921
 20
41.67532074752144
 30
0.0
 10
189.7279540541305
 20
41.68427799578308
 30
0.0
 10
189.5126355863024
 20
41.71114974056803
 30
0.0
 10
189.5126355863024
 20
41.71114974056803
 30
0.0
 10
189.5126355863024
 20
45.07838606785123
 30
0.0
 10
189.5126355863024
 20
45.07838606785123
 30
0.0
  0
SPLINE
  5
14E
330
F7
100
AcDbEntity
  8
_U+30EC_U+30A4_U+30E4_U+30FC 1
370
     0
100
AcDbSpline
210
0.0
220
0.0
230
1.0
 70
    11
 71
     3
 72
    20
 73
    16
 74
     0
 42
0.0000000001
 43
0.0000000001
 12
1.0
 22
0.0
 32
0.0
 13
1.0
 23
0.0
 33
0.0
 40
0.0
 40
0.0
 40
0.0
 40
0.0
 40
1.0
 40
1.0
 40
1.0
 40
2.0
 40
2.0
 40
2.0
 40
3.0
 40
3.0
 40
3.0
 40
4.0
 40
4.0
 40
4.0
 40
5.0
 40
5.0
 40
5.0
 40
5.0
 10
189.8850504082579
 20
41.99847070403787
 30
0.0
 10
189.9973605210771
 20
41.98055620751457
 30
0.0
 10
190.1589354993353
 20
41.97607758338375
 30
0.0
 10
190.3205104775935
 20
41.97607758338375
 30
0.0
 10
191.2455186153831
 20
41.97607758338375
 30
0.0
 10
191.7526366708119
 20
42.50145464488435
 30
0.0
 10
191.7526366708119
 20
43.4798617626953
 30
0.0
 10
191.7526366708119
 20
44.36904090743828
 30
0.0
 10
191.2768689842989
 20
44.84928721808211
 30
0.0
 10
190.3880343491044
 20
44.84928721808211
 30
0.0
 10
190.1723713717278
 20
44.84928721808211
 30
0.0
 10
190.0018391452079
 20
44.82689409742799
 30
0.0
 10
189.8850504082579
 20
44.80450097677387
 30
0.0
 10
189.8850504082579
 20
44.80450097677387
 30
0.0
 10
189.8850504082579
 20
41.99847070403787
 30
0.0
 10
189.8850504082579
 20
41.99847070403787
 30
0.0
  0
HATCH
  5
14F
330
F7
100
AcDbEntity
  8
_U+30EC_U+30A4_U+30E4_U+30FC 1
 62
     7
100
AcDbHatch
 10
0.0
 20
0.0
 30
0.0
210
0.0
220
0.0
230
1.0
  2
SOLID
 70
     1
 71
     0
 91
        2
 92
        1
 93
        1
 72
     4
 94
        3
 73
     0
 74
     1
 95
       23
 96
       19
 40
0.0
 40
0.0
 40
0.0
 40
0.0
 40
1.0
 40
1.0
 40
1.0
 40
2.0
 40
2.0
 40
2.0
 40
3.0
 40
3.0
 40
3.0
 40
4.0
 40
4.0
 40
4.0
 40
5.0
 40
5.0
 40
5.0
 40
6.0
 40
6.0
 40
6.0
 40
6.0
 10
189.5126355863024
 20
45.07838606785123
 10
189.7637830471771
 20
45.11869368502865
 10
190.0555826347778
 20
45.15004405394442
 10
190.3745984767119
 20
45.15004405394442
 10
191.748158046681
 20
45.15004405394442
 10
192.1433104988392
 20
44.33734602897398
 10
192.1433104988392
 20
43.4977762592186
 10
192.1433104988392
 20
42.95482921074323
 10
191.9996500171043
 20
42.4924973966227
 10
191.6765000605878
 20
42.15556705816526
 10
191.3757432247255
 20
41.8458529740413
 10
190.8772379080099
 20
41.67532074752144
 10
190.2533311156311
 20
41.67532074752144
 10
189.9704887762921
 20
41.67532074752144
 10
189.7279540541305
 20
41.68427799578308
 10
189.5126355863024
 20
41.71114974056803
 10
189.5126355863024
 20
41.71114974056803
 10
189.5126355863024
 20
45.07838606785123
 10
189.5126355863024
 20
45.07838606785123
 97
        0
 92
        1
 93
        1
 72
     4
 94
        3
 73
     0
 74
     1
 95
       20
 96
       16
 40
0.0
 40
0.0
 40
0.0
 40
0.0
 40
1.0
 40
1.0
 40
1.0
 40
2.0
 40
2.0
 40
2.0
 40
3.0
 40
3.0
 40
3.0
 40
4.0
 40
4.0
 40
4.0
 40
5.0
 40
5.0
 40
5.0
 40
5.0
 10
189.8850504082579
 20
41.99847070403787
 10
189.9973605210771
 20
41.98055620751457
 10
190.1589354993353
 20
41.97607758338375
 10
190.3205104775935
 20
41.97607758338375
 10
191.2455186153831
 20
41.97607758338375
 10
191.7526366708119
 20
42.50145464488435
 10
191.7526366708119
 20
43.4798617626953
 10
191.7526366708119
 20
44.36904090743828
 10
191.2768689842989
 20
44.84928721808211
 10
190.3880343491044
 20
44.84928721808211
 10
190.1723713717278
 20
44.84928721808211
 10
190.0018391452079
 20
44.82689409742799
 10
189.8850504082579
 20
44.80450097677387
 10
189.8850504082579
 20
44.80450097677387
 10
189.8850504082579
 20
41.99847070403787
 10
189.8850504082579
 20
41.99847070403787
 97
        0
 75
     2
 76
     1
 98
        0
  0
POLYLINE
  5
150
330
F7
100
AcDbEntity
  8
_U+30EC_U+30A4_U+30E4_U+30FC 1
370
     0
100
AcDb2dPolyline
 66
     1
 10
0.0
 20
0.0
 30
0.0
  0
VERTEX
  5
151
330
150
100
AcDbEntity
  8
_U+30EC_U+30A4_U+30E4_U+30FC 1
370
     0
100
AcDbVertex
100
AcDb2dVertex
 10
192.478518289554
 20
43.21527842942811
 30
0.0
  0
VERTEX
  5
152
330
150
100
AcDbEntity
  8
_U+30EC_U+30A4_U+30E4_U+30FC 1
370
     0
100
AcDbVertex
100
AcDb2dVertex
 10
193.7042832632059
 20
43.21527842942811
 30
0.0
  0
VERTEX
  5
153
330
150
100
AcDbEntity
  8
_U+30EC_U+30A4_U+30E4_U+30FC 1
370
     0
100
AcDbVertex
100
AcDb2dVertex
 10
193.7042832632059
 20
42.92795746595828
 30
0.0
  0
VERTEX
  5
154
330
150
100
AcDbEntity
  8
_U+30EC_U+30A4_U+30E4_U+30FC 1
370
     0
100
AcDbVertex
100
AcDb2dVertex
 10
192.478518289554
 20
42.92795746595828
 30
0.0
  0
VERTEX
  5
155
330
150
100
AcDbEntity
  8
_U+30EC_U+30A4_U+30E4_U+30FC 1
370
     0
100
AcDbVertex
100
AcDb2dVertex
 10
192.478518289554
 20
43.21527842942811
 30
0.0
  0
SEQEND
  5
156
330
150
100
AcDbEntity
  8
_U+30EC_U+30A4_U+30E4_U+30FC 1
370
     0
  0
HATCH
  5
157
330
F7
100
AcDbEntity
  8
_U+30EC_U+30A4_U+30E4_U+30FC 1
 62
     7
100
AcDbHatch
 10
0.0
 20
0.0
 30
0.0
210
0.0
220
0.0
230
1.0
  2
SOLID
 70
     1
 71
     0
 91
        1
 92
        1
 93
        4
 72
     1
 10
192.478518289554
 20
43.21527842942811
 11
193.7042832632059
 21
43.21527842942811
 72
     1
 10
193.7042832632059
 20
43.21527842942811
 11
193.7042832632059
 21
42.92795746595828
 72
     1
 10
193.7042832632059
 20
42.92795746595828
 11
192.478518289554
 21
42.92795746595828
 72
     1
 10
192.478518289554
 20
42.92795746595828
 11
192.478518289554
 21
43.21527842942811
 97
        0
 75
     2
 76
     1
 98
        0
  0
SPLINE
  5
158
330
F7
100
AcDbEntity
  8
_U+30EC_U+30A4_U+30E4_U+30FC 1
370
     0
100
AcDbSpline
210
0.0
220
0.0
230
1.0
 70
    11
 71
     3
 72
    47
 73
    43
 74
     0
 42
0.0000000001
 43
0.0000000001
 12
1.0
 22
0.0
 32
0.0
 13
1.0
 23
0.0
 33
0.0
 40
0.0
 40
0.0
 40
0.0
 40
0.0
 40
1.0
 40
1.0
 40
1.0
 40
2.0
 40
2.0
 40
2.0
 40
3.0
 40
3.0
 40
3.0
 40
4.0
 40
4.0
 40
4.0
 40
5.0
 40
5.0
 40
5.0
 40
6.0
 40
6.0
 40
6.0
 40
7.0
 40
7.0
 40
7.0
 40
8.0
 40
8.0
 40
8.0
 40
9.0
 40
9.0
 40
9.0
 40
10.0
 40
10.0
 40
10.0
 40
11.0
 40
11.0
 40
11.0
 40
12.0
 40
12.0
 40
12.0
 40
13.0
 40
13.0
 40
13.0
 40
14.0
 40
14.0
 40
14.0
 40
14.0
 10
196.0645181801505
 20
41.70219249230639
 30
0.0
 10
196.0645181801505
 20
41.70219249230639
 30
0.0
 10
194.0760090660643
 20
41.70219249230639
 30
0.0
 10
194.0760090660643
 20
41.70219249230639
 30
0.0
 10
194.0760090660643
 20
41.70219249230639
 30
0.0
 10
194.0760090660643
 20
41.9312913420755
 30
0.0
 10
194.0760090660643
 20
41.9312913420755
 30
0.0
 10
194.0760090660643
 20
41.9312913420755
 30
0.0
 10
194.4036376467116
 20
42.27683441924606
 30
0.0
 10
194.4036376467116
 20
42.27683441924606
 30
0.0
 10
195.202555289741
 20
43.08505382008567
 30
0.0
 10
195.6066649901609
 20
43.57425737899115
 30
0.0
 10
195.6066649901609
 20
44.12202756114587
 30
0.0
 10
195.6066649901609
 20
44.4810065107089
 30
0.0
 10
195.4495686360335
 20
44.81345822503551
 30
0.0
 10
194.9648437012588
 20
44.81345822503551
 30
0.0
 10
194.6954372343123
 20
44.81345822503551
 30
0.0
 10
194.4529025121507
 20
44.66531911916977
 30
0.0
 10
194.2913275338925
 20
44.53509450982732
 30
0.0
 10
194.2913275338925
 20
44.53509450982732
 30
0.0
 10
194.1655815486808
 20
44.79554372851221
 30
0.0
 10
194.1655815486808
 20
44.79554372851221
 30
0.0
 10
194.3722872777958
 20
44.97951182742455
 30
0.0
 10
194.677522737789
 20
45.12317230915947
 30
0.0
 10
195.036501687352
 20
45.12317230915947
 30
0.0
 10
195.7144964788492
 20
45.12317230915947
 30
0.0
 10
195.9839029457957
 20
44.62914561657465
 30
0.0
 10
195.9839029457957
 20
44.16681380245412
 30
0.0
 10
195.9839029457957
 20
43.53394976181372
 30
0.0
 10
195.5394856281985
 20
42.99513682792065
 30
0.0
 10
194.843576340178
 20
42.29474891576935
 30
0.0
 10
194.843576340178
 20
42.29474891576935
 30
0.0
 10
194.5786484973623
 20
42.01638520056117
 30
0.0
 10
194.5786484973623
 20
42.01638520056117
 30
0.0
 10
194.5786484973623
 20
42.01638520056117
 30
0.0
 10
194.5786484973623
 20
42.00742795229952
 30
0.0
 10
194.5786484973623
 20
42.00742795229952
 30
0.0
 10
194.5786484973623
 20
42.00742795229952
 30
0.0
 10
196.0645181801505
 20
42.00742795229952
 30
0.0
 10
196.0645181801505
 20
42.00742795229952
 30
0.0
 10
196.0645181801505
 20
42.00742795229952
 30
0.0
 10
196.0645181801505
 20
41.70219249230639
 30
0.0
 10
196.0645181801505
 20
41.70219249230639
 30
0.0
  0
HATCH
  5
159
330
F7
100
AcDbEntity
  8
_U+30EC_U+30A4_U+30E4_U+30FC 1
 62
     7
100
AcDbHatch
 10
0.0
 20
0.0
 30
0.0
210
0.0
220
0.0
230
1.0
  2
SOLID
 70
     1
 71
     0
 91
        1
 92
        1
 93
        1
 72
     4
 94
        3
 73
     0
 74
     1
 95
       47
 96
       43
 40
0.0
 40
0.0
 40
0.0
 40
0.0
 40
1.0
 40
1.0
 40
1.0
 40
2.0
 40
2.0
 40
2.0
 40
3.0
 40
3.0
 40
3.0
 40
4.0
 40
4.0
 40
4.0
 40
5.0
 40
5.0
 40
5.0
 40
6.0
 40
6.0
 40
6.0
 40
7.0
 40
7.0
 40
7.0
 40
8.0
 40
8.0
 40
8.0
 40
9.0
 40
9.0
 40
9.0
 40
10.0
 40
10.0
 40
10.0
 40
11.0
 40
11.0
 40
11.0
 40
12.0
 40
12.0
 40
12.0
 40
13.0
 40
13.0
 40
13.0
 40
14.0
 40
14.0
 40
14.0
 40
14.0
 10
196.0645181801505
 20
41.70219249230639
 10
196.0645181801505
 20
41.70219249230639
 10
194.0760090660643
 20
41.70219249230639
 10
194.0760090660643
 20
41.70219249230639
 10
194.0760090660643
 20
41.70219249230639
 10
194.0760090660643
 20
41.9312913420755
 10
194.0760090660643
 20
41.9312913420755
 10
194.0760090660643
 20
41.9312913420755
 10
194.4036376467116
 20
42.27683441924606
 10
194.4036376467116
 20
42.27683441924606
 10
195.202555289741
 20
43.08505382008567
 10
195.6066649901609
 20
43.57425737899115
 10
195.6066649901609
 20
44.12202756114587
 10
195.6066649901609
 20
44.4810065107089
 10
195.4495686360335
 20
44.81345822503551
 10
194.9648437012588
 20
44.81345822503551
 10
194.6954372343123
 20
44.81345822503551
 10
194.4529025121507
 20
44.66531911916977
 10
194.2913275338925
 20
44.53509450982732
 10
194.2913275338925
 20
44.53509450982732
 10
194.1655815486808
 20
44.79554372851221
 10
194.1655815486808
 20
44.79554372851221
 10
194.3722872777958
 20
44.97951182742455
 10
194.677522737789
 20
45.12317230915947
 10
195.036501687352
 20
45.12317230915947
 10
195.7144964788492
 20
45.12317230915947
 10
195.9839029457957
 20
44.62914561657465
 10
195.9839029457957
 20
44.16681380245412
 10
195.9839029457957
 20
43.53394976181372
 10
195.5394856281985
 20
42.99513682792065
 10
194.843576340178
 20
42.29474891576935
 10
194.843576340178
 20
42.29474891576935
 10
194.5786484973623
 20
42.01638520056117
 10
194.5786484973623
 20
42.01638520056117
 10
194.5786484973623
 20
42.01638520056117
 10
194.5786484973623
 20
42.00742795229952
 10
194.5786484973623
 20
42.00742795229952
 10
194.5786484973623
 20
42.00742795229952
 10
196.0645181801505
 20
42.00742795229952
 10
196.0645181801505
 20
42.00742795229952
 10
196.0645181801505
 20
42.00742795229952
 10
196.0645181801505
 20
41.70219249230639
 10
196.0645181801505
 20
41.70219249230639
 97
        0
 75
     2
 76
     1
 98
        0
  0
SPLINE
  5
15A
330
F7
100
AcDbEntity
  8
_U+30EC_U+30A4_U+30E4_U+30FC 1
370
     0
100
AcDbSpline
210
0.0
220
0.0
230
1.0
 70
    11
 71
     3
 72
    59
 73
    55
 74
     0
 42
0.0000000001
 43
0.0000000001
 12
1.0
 22
0.0
 32
0.0
 13
1.0
 23
0.0
 33
0.0
 40
0.0
 40
0.0
 40
0.0
 40
0.0
 40
1.0
 40
1.0
 40
1.0
 40
2.0
 40
2.0
 40
2.0
 40
3.0
 40
3.0
 40
3.0
 40
4.0
 40
4.0
 40
4.0
 40
5.0
 40
5.0
 40
5.0
 40
6.0
 40
6.0
 40
6.0
 40
7.0
 40
7.0
 40
7.0
 40
8.0
 40
8.0
 40
8.0
 40
9.0
 40
9.0
 40
9.0
 40
10.0
 40
10.0
 40
10.0
 40
11.0
 40
11.0
 40
11.0
 40
12.0
 40
12.0
 40
12.0
 40
13.0
 40
13.0
 40
13.0
 40
14.0
 40
14.0
 40
14.0
 40
15.0
 40
15.0
 40
15.0
 40
16.0
 40
16.0
 40
16.0
 40
17.0
 40
17.0
 40
17.0
 40
18.0
 40
18.0
 40
18.0
 40
18.0
 10
197.7381455668849
 20
43.52051388942125
 30
0.0
 10
198.1332980190431
 20
43.45299001791035
 30
0.0
 10
198.469883847952
 20
43.13431868552474
 30
0.0
 10
198.469883847952
 20
42.64959375075009
 30
0.0
 10
198.469883847952
 20
42.11525944098784
 30
0.0
 10
198.0836886440555
 20
41.64844900273648
 30
0.0
 10
197.3295572423343
 20
41.64844900273648
 30
0.0
 10
196.9929714134254
 20
41.64844900273648
 30
0.0
 10
196.6873914438837
 20
41.75593598187628
 30
0.0
 10
196.5347737138871
 20
41.8637674705646
 30
0.0
 10
196.5347737138871
 20
41.8637674705646
 30
0.0
 10
196.6470838267063
 20
42.15108843403444
 30
0.0
 10
196.6470838267063
 20
42.15108843403444
 30
0.0
 10
196.7683511877871
 20
42.07047319967959
 30
0.0
 10
197.0377576547336
 20
41.9492058385988
 30
0.0
 10
197.3340358664651
 20
41.9492058385988
 30
0.0
 10
197.8997205451431
 20
41.9492058385988
 30
0.0
 10
198.0836886440555
 20
42.34401378120843
 30
0.0
 10
198.0836886440555
 20
42.65407237488091
 30
0.0
 10
198.0836886440555
 20
43.14775455791722
 30
0.0
 10
197.6661430712432
 20
43.37237478355551
 30
0.0
 10
197.2262043777768
 20
43.37237478355551
 30
0.0
 10
197.2262043777768
 20
43.37237478355551
 30
0.0
 10
197.0064072858179
 20
43.37237478355551
 30
0.0
 10
197.0064072858179
 20
43.37237478355551
 30
0.0
 10
197.0064072858179
 20
43.37237478355551
 30
0.0
 10
197.0064072858179
 20
43.65073849876369
 30
0.0
 10
197.0064072858179
 20
43.65073849876369
 30
0.0
 10
197.0064072858179
 20
43.65073849876369
 30
0.0
 10
197.2262043777768
 20
43.65073849876369
 30
0.0
 10
197.2262043777768
 20
43.65073849876369
 30
0.0
 10
197.5493543342932
 20
43.65073849876369
 30
0.0
 10
197.9668999071055
 20
43.85262109419934
 30
0.0
 10
197.9668999071055
 20
44.27464529114244
 30
0.0
 10
197.9668999071055
 20
44.5664448787431
 30
0.0
 10
197.7918890564548
 20
44.81793684916634
 30
0.0
 10
197.387779356035
 20
44.81793684916634
 30
0.0
 10
197.1411105192911
 20
44.81793684916634
 30
0.0
 10
196.9075330453912
 20
44.69666948808555
 30
0.0
 10
196.7728298119179
 20
44.59779524765887
 30
0.0
 10
196.7728298119179
 20
44.59779524765887
 30
0.0
 10
196.6605196990988
 20
44.87168033873623
 30
0.0
 10
196.6605196990988
 20
44.87168033873623
 30
0.0
 10
196.822094677357
 20
44.99742632394786
 30
0.0
 10
197.1366318951603
 20
45.12317230915947
 30
0.0
 10
197.4597818516767
 20
45.12317230915947
 30
0.0
 10
198.0747313957938
 20
45.12317230915947
 30
0.0
 10
198.3486164868712
 20
44.73249848113214
 30
0.0
 10
198.3486164868712
 20
44.32838878071234
 30
0.0
 10
198.3486164868712
 20
43.98284570354178
 30
0.0
 10
198.1288193949123
 20
43.67313161941782
 30
0.0
 10
197.7381455668849
 20
43.53394976181372
 30
0.0
 10
197.7381455668849
 20
43.53394976181372
 30
0.0
 10
197.7381455668849
 20
43.52051388942125
 30
0.0
 10
197.7381455668849
 20
43.52051388942125
 30
0.0
  0
HATCH
  5
15B
330
F7
100
AcDbEntity
  8
_U+30EC_U+30A4_U+30E4_U+30FC 1
 62
     7
100
AcDbHatch
 10
0.0
 20
0.0
 30
0.0
210
0.0
220
0.0
230
1.0
  2
SOLID
 70
     1
 71
     0
 91
        1
 92
        1
 93
        1
 72
     4
 94
        3
 73
     0
 74
     1
 95
       59
 96
       55
 40
0.0
 40
0.0
 40
0.0
 40
0.0
 40
1.0
 40
1.0
 40
1.0
 40
2.0
 40
2.0
 40
2.0
 40
3.0
 40
3.0
 40
3.0
 40
4.0
 40
4.0
 40
4.0
 40
5.0
 40
5.0
 40
5.0
 40
6.0
 40
6.0
 40
6.0
 40
7.0
 40
7.0
 40
7.0
 40
8.0
 40
8.0
 40
8.0
 40
9.0
 40
9.0
 40
9.0
 40
10.0
 40
10.0
 40
10.0
 40
11.0
 40
11.0
 40
11.0
 40
12.0
 40
12.0
 40
12.0
 40
13.0
 40
13.0
 40
13.0
 40
14.0
 40
14.0
 40
14.0
 40
15.0
 40
15.0
 40
15.0
 40
16.0
 40
16.0
 40
16.0
 40
17.0
 40
17.0
 40
17.0
 40
18.0
 40
18.0
 40
18.0
 40
18.0
 10
197.7381455668849
 20
43.52051388942125
 10
198.1332980190431
 20
43.45299001791035
 10
198.469883847952
 20
43.13431868552474
 10
198.469883847952
 20
42.64959375075009
 10
198.469883847952
 20
42.11525944098784
 10
198.0836886440555
 20
41.64844900273648
 10
197.3295572423343
 20
41.64844900273648
 10
196.9929714134254
 20
41.64844900273648
 10
196.6873914438837
 20
41.75593598187628
 10
196.5347737138871
 20
41.8637674705646
 10
196.5347737138871
 20
41.8637674705646
 10
196.6470838267063
 20
42.15108843403444
 10
196.6470838267063
 20
42.15108843403444
 10
196.7683511877871
 20
42.07047319967959
 10
197.0377576547336
 20
41.9492058385988
 10
197.3340358664651
 20
41.9492058385988
 10
197.8997205451431
 20
41.9492058385988
 10
198.0836886440555
 20
42.34401378120843
 10
198.0836886440555
 20
42.65407237488091
 10
198.0836886440555
 20
43.14775455791722
 10
197.6661430712432
 20
43.37237478355551
 10
197.2262043777768
 20
43.37237478355551
 10
197.2262043777768
 20
43.37237478355551
 10
197.0064072858179
 20
43.37237478355551
 10
197.0064072858179
 20
43.37237478355551
 10
197.0064072858179
 20
43.37237478355551
 10
197.0064072858179
 20
43.65073849876369
 10
197.0064072858179
 20
43.65073849876369
 10
197.0064072858179
 20
43.65073849876369
 10
197.2262043777768
 20
43.65073849876369
 10
197.2262043777768
 20
43.65073849876369
 10
197.5493543342932
 20
43.65073849876369
 10
197.9668999071055
 20
43.85262109419934
 10
197.9668999071055
 20
44.27464529114244
 10
197.9668999071055
 20
44.5664448787431
 10
197.7918890564548
 20
44.81793684916634
 10
197.387779356035
 20
44.81793684916634
 10
197.1411105192911
 20
44.81793684916634
 10
196.9075330453912
 20
44.69666948808555
 10
196.7728298119179
 20
44.59779524765887
 10
196.7728298119179
 20
44.59779524765887
 10
196.6605196990988
 20
44.87168033873623
 10
196.6605196990988
 20
44.87168033873623
 10
196.822094677357
 20
44.99742632394786
 10
197.1366318951603
 20
45.12317230915947
 10
197.4597818516767
 20
45.12317230915947
 10
198.0747313957938
 20
45.12317230915947
 10
198.3486164868712
 20
44.73249848113214
 10
198.3486164868712
 20
44.32838878071234
 10
198.3486164868712
 20
43.98284570354178
 10
198.1288193949123
 20
43.67313161941782
 10
197.7381455668849
 20
43.53394976181372
 10
197.7381455668849
 20
43.53394976181372
 10
197.7381455668849
 20
43.52051388942125
 10
197.7381455668849
 20
43.52051388942125
 97
        0
 75
     2
 76
     1
 98
        0
  0
ENDBLK
  5
FA
330
F7
100
AcDbEntity
  8
0
100
AcDbBlockEnd
  0
ENDSEC
  0
SECTION
  2
ENTITIES
  0
INSERT
  5
42
330
1F
100
AcDbEntity
  8
_U+30EC_U+30A4_U+30E4_U+30FC 1
100
AcDbBlockReference
  2
block 2
 10
0.0
 20
0.0
 30
0.0
  0
POLYLINE
  5
E5
330
1F
100
AcDbEntity
  8
_U+30EC_U+30A4_U+30E4_U+30FC 1
 62
     7
370
     5
100
AcDb2dPolyline
 66
     1
 10
0.0
 20
0.0
 30
0.0
  0
VERTEX
  5
E6
330
E5
100
AcDbEntity
  8
_U+30EC_U+30A4_U+30E4_U+30FC 1
 62
     7
370
     5
100
AcDbVertex
100
AcDb2dVertex
 10
125.6794790158716
 20
123.7788182310282
 30
0.0
  0
VERTEX
  5
E7
330
E5
100
AcDbEntity
  8
_U+30EC_U+30A4_U+30E4_U+30FC 1
 62
     7
370
     5
100
AcDbVertex
100
AcDb2dVertex
 10
127.1856989774447
 20
124.4766479354473
 30
0.0
  0
SEQEND
  5
E8
330
E5
100
AcDbEntity
  8
_U+30EC_U+30A4_U+30E4_U+30FC 1
 62
     7
370
     5
  0
POLYLINE
  5
E9
330
1F
100
AcDbEntity
  8
_U+30EC_U+30A4_U+30E4_U+30FC 1
370
     0
100
AcDb2dPolyline
 66
     1
 10
0.0
 20
0.0
 30
0.0
  0
VERTEX
  5
EA
330
E9
100
AcDbEntity
  8
_U+30EC_U+30A4_U+30E4_U+30FC 1
370
     0
100
AcDbVertex
100
AcDb2dVertex
 10
108.8341641678536
 20
114.8958416379428
 30
0.0
  0
VERTEX
  5
EB
330
E9
100
AcDbEntity
  8
_U+30EC_U+30A4_U+30E4_U+30FC 1
370
     0
100
AcDbVertex
100
AcDb2dVertex
 10
108.8341641678536
 20
103.7728262414235
 30
0.0
  0
VERTEX
  5
EC
330
E9
100
AcDbEntity
  8
_U+30EC_U+30A4_U+30E4_U+30FC 1
370
     0
100
AcDbVertex
100
AcDb2dVertex
 10
107.4230530927429
 20
103.7728262414235
 30
0.0
  0
VERTEX
  5
ED
330
E9
100
AcDbEntity
  8
_U+30EC_U+30A4_U+30E4_U+30FC 1
370
     0
100
AcDbVertex
100
AcDb2dVertex
 10
107.4230530927429
 20
116.0425428728414
 30
0.0
  0
SEQEND
  5
EF
330
E9
100
AcDbEntity
  8
_U+30EC_U+30A4_U+30E4_U+30FC 1
370
     0
  0
HATCH
  5
EE
330
1F
100
AcDbEntity
  8
_U+30EC_U+30A4_U+30E4_U+30FC 1
 62
     7
100
AcDbHatch
 10
0.0
 20
0.0
 30
0.0
210
0.0
220
0.0
230
1.0
  2
SOLID
 70
     1
 71
     0
 91
        1
 92
        1
 93
        4
 72
     1
 10
108.8341641678536
 20
114.8958416379428
 11
108.8341641678536
 21
103.7728262414235
 72
     1
 10
108.8341641678536
 20
103.7728262414235
 11
107.4230530927429
 21
103.7728262414235
 72
     1
 10
107.4230530927429
 20
103.7728262414235
 11
107.4230530927429
 21
116.0425428728414
 72
     1
 10
107.4230530927429
 20
116.0425428728414
 11
108.8341641678536
 21
114.8958416379428
 97
        0
 75
     2
 76
     1
 98
        0
  0
POLYLINE
  5
F0
330
1F
100
AcDbEntity
  8
_U+30EC_U+30A4_U+30E4_U+30FC 1
370
     0
100
AcDb2dPolyline
 66
     1
 10
0.0
 20
0.0
 30
0.0
  0
VERTEX
  5
F1
330
F0
100
AcDbEntity
  8
_U+30EC_U+30A4_U+30E4_U+30FC 1
370
     0
100
AcDbVertex
100
AcDb2dVertex
 10
107.4230530927429
 20
119.5453438945886
 30
0.0
  0
VERTEX
  5
F2
330
F0
100
AcDbEntity
  8
_U+30EC_U+30A4_U+30E4_U+30FC 1
370
     0
100
AcDbVertex
100
AcDb2dVertex
 10
107.4230530927429
 20
129.615702804339
 30
0.0
  0
VERTEX
  5
F3
330
F0
100
AcDbEntity
  8
_U+30EC_U+30A4_U+30E4_U+30FC 1
370
     0
100
AcDbVertex
100
AcDb2dVertex
 10
108.8341641678536
 20
129.936942240588
 30
0.0
  0
VERTEX
  5
F4
330
F0
100
AcDbEntity
  8
_U+30EC_U+30A4_U+30E4_U+30FC 1
370
     0
100
AcDbVertex
100
AcDb2dVertex
 10
108.8341641678536
 20
118.2937236487424
 30
0.0
  0
SEQEND
  5
F6
330
F0
100
AcDbEntity
  8
_U+30EC_U+30A4_U+30E4_U+30FC 1
370
     0
  0
HATCH
  5
F5
330
1F
100
AcDbEntity
  8
_U+30EC_U+30A4_U+30E4_U+30FC 1
 62
     7
100
AcDbHatch
 10
0.0
 20
0.0
 30
0.0
210
0.0
220
0.0
230
1.0
  2
SOLID
 70
     1
 71
     0
 91
        1
 92
        1
 93
        4
 72
     1
 10
107.4230530927429
 20
119.5453438945886
 11
107.4230530927429
 21
129.615702804339
 72
     1
 10
107.4230530927429
 20
129.615702804339
 11
108.8341641678536
 21
129.936942240588
 72
     1
 10
108.8341641678536
 20
129.936942240588
 11
108.8341641678536
 21
118.2937236487424
 72
     1
 10
108.8341641678536
 20
118.2937236487424
 11
107.4230530927429
 21
119.5453438945886
 97
        0
 75
     2
 76
     1
 98
        0
  0
INSERT
  5
F8
330
1F
100
AcDbEntity
  8
_U+30EC_U+30A4_U+30E4_U+30FC 1
100
AcDbBlockReference
  2
block 5
 10
0.0
 20
0.0
 30
0.0
  0
ENDSEC
  0
SECTION
  2
OBJECTS
  0
DICTIONARY
  5
C
330
0
100
AcDbDictionary
281
     1
  3
ACAD_GROUP
350
D
  3
ACAD_LAYOUT
350
1A
  3
ACAD_MATERIAL
350
3B
  3
ACAD_MLEADERSTYLE
350
17D
  3
ACAD_MLINESTYLE
350
17
  3
ACAD_PLOTSETTINGS
350
19
  3
ACAD_PLOTSTYLENAME
350
E
  3
ACAD_TABLESTYLE
350
17C
  3
ACAD_VISUALSTYLE
350
2A
  0
SUN
  5
3F
330
29
100
AcDbSun
 90
        1
290
     0
 63
     7
421
 16777215
 40
1.0
291
     1
 91
  2455826
 92
 54000000
292
     0
 70
     2
 71
   256
280
     1
  0
DICTIONARY
  5
D
102
{ACAD_REACTORS
330
C
102
}
330
C
100
AcDbDictionary
281
     1
  0
DICTIONARY
  5
1A
102
{ACAD_REACTORS
330
C
102
}
330
C
100
AcDbDictionary
281
     1
  3
Layout1
350
1E
  3
Layout2
350
26
  3
Model
350
22
  0
DICTIONARY
  5
3B
102
{ACAD_REACTORS
330
C
102
}
330
C
100
AcDbDictionary
281
     1
  3
ByBlock
350
3D
  3
ByLayer
350
3C
  3
Global
350
3E
  0
DICTIONARY
  5
17D
102
{ACAD_REACTORS
330
C
102
}
330
C
100
AcDbDictionary
281
     1
  0
DICTIONARY
  5
17
102
{ACAD_REACTORS
330
C
102
}
330
C
100
AcDbDictionary
281
     1
  3
Standard
350
18
  0
DICTIONARY
  5
19
102
{ACAD_REACTORS
330
C
102
}
330
C
100
AcDbDictionary
281
     1
  0
ACDBDICTIONARYWDFLT
  5
E
102
{ACAD_REACTORS
330
C
102
}
330
C
100
AcDbDictionary
281
     1
  3
Normal
350
F
100
AcDbDictionaryWithDefault
340
F
  0
DICTIONARY
  5
17C
102
{ACAD_REACTORS
330
C
102
}
330
C
100
AcDbDictionary
281
     1
  0
DICTIONARY
  5
2A
102
{ACAD_REACTORS
330
C
102
}
330
C
100
AcDbDictionary
281
     1
  3
2dWireframe
350
2F
  3
3D Hidden
350
31
  3
3dWireframe
350
30
  3
Basic
350
32
  3
Brighten
350
36
  3
ColorChange
350
3A
  3
Conceptual
350
34
  3
Dim
350
35
  3
Facepattern
350
39
  3
Flat
350
2B
  3
FlatWithEdges
350
2C
  3
Gouraud
350
2D
  3
GouraudWithEdges
350
2E
  3
Linepattern
350
38
  3
Realistic
350
33
  3
Thicken
350
37
  0
LAYOUT
  5
1E
102
{ACAD_REACTORS
330
1A
102
}
330
1A
100
AcDbPlotSettings
  1

  2
none_device
  4

  6

 40
0.0
 41
0.0
 42
0.0
 43
0.0
 44
0.0
 45
0.0
 46
0.0
 47
0.0
 48
0.0
 49
0.0
140
0.0
141
0.0
142
1.0
143
1.0
 70
   688
 72
     0
 73
     0
 74
     5
  7

 75
    16
 76
     0
 77
     2
 78
   300
147
1.0
148
0.0
149
0.0
100
AcDbLayout
  1
Layout1
 70
     1
 71
     1
 10
0.0
 20
0.0
 11
12.0
 21
9.0
 12
0.0
 22
0.0
 32
0.0
 14
1.000000000000000E+20
 24
1.000000000000000E+20
 34
1.000000000000000E+20
 15
-1.000000000000000E+20
 25
-1.000000000000000E+20
 35
-1.000000000000000E+20
146
0.0
 13
0.0
 23
0.0
 33
0.0
 16
1.0
 26
0.0
 36
0.0
 17
0.0
 27
1.0
 37
0.0
 76
     0
330
1B
  0
LAYOUT
  5
26
102
{ACAD_REACTORS
330
1A
102
}
330
1A
100
AcDbPlotSettings
  1

  2
none_device
  4

  6

 40
0.0
 41
0.0
 42
0.0
 43
0.0
 44
0.0
 45
0.0
 46
0.0
 47
0.0
 48
0.0
 49
0.0
140
0.0
141
0.0
142
1.0
143
1.0
 70
   688
 72
     0
 73
     0
 74
     5
  7

 75
    16
 76
     0
 77
     2
 78
   300
147
1.0
148
0.0
149
0.0
100
AcDbLayout
  1
Layout2
 70
     1
 71
     2
 10
0.0
 20
0.0
 11
0.0
 21
0.0
 12
0.0
 22
0.0
 32
0.0
 14
0.0
 24
0.0
 34
0.0
 15
0.0
 25
0.0
 35
0.0
146
0.0
 13
0.0
 23
0.0
 33
0.0
 16
1.0
 26
0.0
 36
0.0
 17
0.0
 27
1.0
 37
0.0
 76
     0
330
23
  0
LAYOUT
  5
22
102
{ACAD_REACTORS
330
1A
102
}
330
1A
100
AcDbPlotSettings
  1

  2
none_device
  4

  6

 40
0.0
 41
0.0
 42
0.0
 43
0.0
 44
0.0
 45
0.0
 46
0.0
 47
0.0
 48
0.0
 49
0.0
140
0.0
141
0.0
142
1.0
143
1.0
 70
  1712
 72
     0
 73
     0
 74
     0
  7

 75
     0
 76
     0
 77
     2
 78
   300
147
1.0
148
0.0
149
0.0
100
AcDbLayout
  1
Model
 70
     1
 71
     0
 10
0.0
 20
0.0
 11
12.0
 21
9.0
 12
0.0
 22
0.0
 32
0.0
 14
1.000000000000000E+20
 24
1.000000000000000E+20
 34
1.000000000000000E+20
 15
-1.000000000000000E+20
 25
-1.000000000000000E+20
 35
-1.000000000000000E+20
146
0.0
 13
0.0
 23
0.0
 33
0.0
 16
1.0
 26
0.0
 36
0.0
 17
0.0
 27
1.0
 37
0.0
 76
     0
330
1F
331
29
  0
MATERIAL
  5
3D
102
{ACAD_REACTORS
330
3B
102
}
330
3B
100
AcDbMaterial
  1
ByBlock
 72
     1
 94
      127
  0
MATERIAL
  5
3C
102
{ACAD_REACTORS
330
3B
102
}
330
3B
100
AcDbMaterial
  1
ByLayer
 72
     1
 94
      127
  0
MATERIAL
  5
3E
102
{ACAD_REACTORS
330
3B
102
}
330
3B
100
AcDbMaterial
  1
Global
 72
     1
 94
      127
  0
MLINESTYLE
  5
18
102
{ACAD_REACTORS
330
17
102
}
330
17
100
AcDbMlineStyle
  2
Standard
 70
     0
  3

 62
   256
 51
90.0
 52
90.0
 71
     2
 49
0.5
 62
   256
  6
BYLAYER
 49
-0.5
 62
   256
  6
BYLAYER
  0
ACDBPLACEHOLDER
  5
F
102
{ACAD_REACTORS
330
E
102
}
330
E
  0
VISUALSTYLE
  5
2F
102
{ACAD_REACTORS
330
2A
102
}
102
{ACAD_XDICTIONARY
360
164
102
}
330
2A
100
AcDbVisualStyle
  2
2dWireframe
 70
     4
 71
     0
 72
     2
 73
     0
 90
        0
 40
-0.6
 41
-30.0
 62
     5
 63
     7
421
 16777215
 74
     1
 91
        4
 64
     7
 65
   257
 75
     1
175
     1
 42
1.0
 92
        0
 66
   257
 43
1.0
 76
     1
 77
     6
 78
     2
 67
     7
 79
     5
170
     0
171
     0
290
     0
174
     0
 93
        1
 44
0.0
173
     0
291
     0
 45
0.0
  0
VISUALSTYLE
  5
31
102
{ACAD_REACTORS
330
2A
102
}
102
{ACAD_XDICTIONARY
360
168
102
}
330
2A
100
AcDbVisualStyle
  2
3D Hidden
 70
     6
 71
     1
 72
     2
 73
     2
 90
        0
 40
-0.6
 41
-30.0
 62
     5
 63
     7
421
 16777215
 74
     2
 91
        2
 64
     7
 65
   257
 75
     2
175
     1
 42
40.0
 92
        0
 66
   257
 43
1.0
 76
     1
 77
     6
 78
     2
 67
     7
 79
     3
170
     0
171
     0
290
     0
174
     0
 93
        1
 44
0.0
173
     0
291
     0
 45
0.0
  0
VISUALSTYLE
  5
30
102
{ACAD_REACTORS
330
2A
102
}
102
{ACAD_XDICTIONARY
360
166
102
}
330
2A
100
AcDbVisualStyle
  2
3dWireframe
 70
     5
 71
     0
 72
     2
 73
     0
 90
        0
 40
-0.6
 41
-30.0
 62
     5
 63
     7
421
 16777215
 74
     1
 91
        4
 64
     7
 65
   257
 75
     1
175
     1
 42
1.0
 92
        0
 66
   257
 43
1.0
 76
     1
 77
     6
 78
     2
 67
     7
 79
     5
170
     0
171
     0
290
     0
174
     0
 93
        1
 44
0.0
173
     0
291
     0
 45
0.0
  0
VISUALSTYLE
  5
32
102
{ACAD_REACTORS
330
2A
102
}
102
{ACAD_XDICTIONARY
360
16A
102
}
330
2A
100
AcDbVisualStyle
  2
Basic
 70
     7
 71
     1
 72
     0
 73
     1
 90
        0
 40
-0.6
 41
-30.0
 62
     5
 63
     7
421
 16777215
 74
     0
 91
        4
 64
     7
 65
   257
 75
     1
175
     1
 42
1.0
 92
        8
 66
     7
 43
1.0
 76
     1
 77
     6
 78
     2
 67
     7
 79
     5
170
     0
171
     0
290
     0
174
     0
 93
        1
 44
0.0
173
     0
291
     1
 45
0.0
  0
VISUALSTYLE
  5
36
102
{ACAD_REACTORS
330
2A
102
}
102
{ACAD_XDICTIONARY
360
172
102
}
330
2A
100
AcDbVisualStyle
  2
Brighten
 70
    12
 71
     2
 72
     2
 73
     0
 90
        0
 40
-0.6
 41
-30.0
 62
     5
 63
     7
421
 16777215
 74
     1
 91
        4
 64
     7
 65
   257
 75
     1
175
     1
 42
1.0
 92
        8
 66
     7
 43
1.0
 76
     1
 77
     6
 78
     2
 67
     7
 79
     5
170
     0
171
     0
290
     0
174
     0
 93
        1
 44
50.0
173
     0
291
     1
 45
0.0
  0
VISUALSTYLE
  5
3A
102
{ACAD_REACTORS
330
2A
102
}
102
{ACAD_XDICTIONARY
360
17A
102
}
330
2A
100
AcDbVisualStyle
  2
ColorChange
 70
    16
 71
     2
 72
     2
 73
     3
 90
        0
 40
-0.6
 41
-30.0
 62
     5
 63
     8
421
  8421504
 74
     1
 91
        4
 64
     7
 65
   257
 75
     1
175
     1
 42
1.0
 92
        8
 66
     8
424
  8421504
 43
1.0
 76
     1
 77
     6
 78
     2
 67
     7
 79
     5
170
     0
171
     0
290
     0
174
     0
 93
        1
 44
0.0
173
     0
291
     1
 45
0.0
  0
VISUALSTYLE
  5
34
102
{ACAD_REACTORS
330
2A
102
}
102
{ACAD_XDICTIONARY
360
16E
102
}
330
2A
100
AcDbVisualStyle
  2
Conceptual
 70
     9
 71
     3
 72
     2
 73
     0
 90
        0
 40
-0.6
 41
-30.0
 62
     5
 63
     7
421
 16777215
 74
     2
 91
        2
 64
     7
 65
   257
 75
     1
175
     1
 42
40.0
 92
        8
 66
     7
 43
1.0
 76
     1
 77
     6
 78
     2
 67
     7
 79
     3
170
     0
171
     0
290
     0
174
     0
 93
        1
 44
0.0
173
     0
291
     0
 45
0.0
  0
VISUALSTYLE
  5
35
102
{ACAD_REACTORS
330
2A
102
}
102
{ACAD_XDICTIONARY
360
170
102
}
330
2A
100
AcDbVisualStyle
  2
Dim
 70
    11
 71
     2
 72
     2
 73
     0
 90
        0
 40
-0.6
 41
-30.0
 62
     5
 63
     7
421
 16777215
 74
     1
 91
        4
 64
     7
 65
   257
 75
     1
175
     1
 42
1.0
 92
        8
 66
     7
 43
1.0
 76
     1
 77
     6
 78
     2
 67
     7
 79
     5
170
     0
171
     0
290
     0
174
     0
 93
        1
 44
-50.0
173
     0
291
     1
 45
0.0
  0
VISUALSTYLE
  5
39
102
{ACAD_REACTORS
330
2A
102
}
102
{ACAD_XDICTIONARY
360
178
102
}
330
2A
100
AcDbVisualStyle
  2
Facepattern
 70
    15
 71
     2
 72
     2
 73
     0
 90
        0
 40
-0.6
 41
-30.0
 62
     5
 63
     7
421
 16777215
 74
     1
 91
        4
 64
     7
 65
   257
 75
     1
175
     1
 42
1.0
 92
        8
 66
     7
 43
1.0
 76
     1
 77
     6
 78
     2
 67
     7
 79
     5
170
     0
171
     0
290
     0
174
     0
 93
        1
 44
0.0
173
     0
291
     1
 45
0.0
  0
VISUALSTYLE
  5
2B
102
{ACAD_REACTORS
330
2A
102
}
102
{ACAD_XDICTIONARY
360
15C
102
}
330
2A
100
AcDbVisualStyle
  2
Flat
 70
     0
 71
     2
 72
     1
 73
     1
 90
        2
 40
-0.6
 41
30.0
 62
     5
 63
     7
421
 16777215
 74
     0
 91
        4
 64
     7
 65
   257
 75
     1
175
     1
 42
1.0
 92
        8
 66
     7
 43
1.0
 76
     1
 77
     6
 78
     2
 67
     7
 79
     5
170
     0
171
     0
290
     0
174
     0
 93
       13
 44
0.0
173
     0
291
     1
 45
0.0
  0
VISUALSTYLE
  5
2C
102
{ACAD_REACTORS
330
2A
102
}
102
{ACAD_XDICTIONARY
360
15E
102
}
330
2A
100
AcDbVisualStyle
  2
FlatWithEdges
 70
     1
 71
     2
 72
     1
 73
     1
 90
        2
 40
-0.6
 41
30.0
 62
     5
 63
     7
421
 16777215
 74
     1
 91
        4
 64
     7
 65
   257
 75
     1
175
     1
 42
1.0
 92
        0
 66
   257
 43
1.0
 76
     1
 77
     6
 78
     2
 67
     7
 79
     5
170
     0
171
     0
290
     0
174
     0
 93
       13
 44
0.0
173
     0
291
     1
 45
0.0
  0
VISUALSTYLE
  5
2D
102
{ACAD_REACTORS
330
2A
102
}
102
{ACAD_XDICTIONARY
360
160
102
}
330
2A
100
AcDbVisualStyle
  2
Gouraud
 70
     2
 71
     2
 72
     2
 73
     1
 90
        2
 40
-0.6
 41
30.0
 62
     5
 63
     7
421
 16777215
 74
     0
 91
        4
 64
     7
 65
   257
 75
     1
175
     1
 42
1.0
 92
        0
 66
     7
 43
1.0
 76
     1
 77
     6
 78
     2
 67
     7
 79
     5
170
     0
171
     0
290
     0
174
     0
 93
       13
 44
0.0
173
     0
291
     1
 45
0.0
  0
VISUALSTYLE
  5
2E
102
{ACAD_REACTORS
330
2A
102
}
102
{ACAD_XDICTIONARY
360
162
102
}
330
2A
100
AcDbVisualStyle
  2
GouraudWithEdges
 70
     3
 71
     2
 72
     2
 73
     1
 90
        2
 40
-0.6
 41
30.0
 62
     5
 63
     7
421
 16777215
 74
     1
 91
        4
 64
     7
 65
   257
 75
     1
175
     1
 42
1.0
 92
        0
 66
   257
 43
1.0
 76
     1
 77
     6
 78
     2
 67
     7
 79
     5
170
     0
171
     0
290
     0
174
     0
 93
       13
 44
0.0
173
     0
291
     1
 45
0.0
  0
VISUALSTYLE
  5
38
102
{ACAD_REACTORS
330
2A
102
}
102
{ACAD_XDICTIONARY
360
176
102
}
330
2A
100
AcDbVisualStyle
  2
Linepattern
 70
    14
 71
     2
 72
     2
 73
     0
 90
        0
 40
-0.6
 41
-30.0
 62
     5
 63
     7
421
 16777215
 74
     1
 91
        4
 64
     7
 65
   257
 75
     7
175
     7
 42
1.0
 92
        8
 66
     7
 43
1.0
 76
     1
 77
     6
 78
     2
 67
     7
 79
     5
170
     0
171
     0
290
     0
174
     0
 93
        1
 44
0.0
173
     0
291
     1
 45
0.0
  0
VISUALSTYLE
  5
33
102
{ACAD_REACTORS
330
2A
102
}
102
{ACAD_XDICTIONARY
360
16C
102
}
330
2A
100
AcDbVisualStyle
  2
Realistic
 70
     8
 71
     2
 72
     2
 73
     0
 90
        0
 40
-0.6
 41
-30.0
 62
     5
 63
     7
421
 16777215
 74
     1
 91
        0
 64
     7
 65
   257
 75
     1
175
     1
 42
1.0
 92
        8
 66
     8
424
  7895160
 43
1.0
 76
     1
 77
     6
 78
     2
 67
     7
 79
     5
170
     0
171
     0
290
     0
174
     0
 93
       13
 44
0.0
173
     0
291
     0
 45
0.0
  0
VISUALSTYLE
  5
37
102
{ACAD_REACTORS
330
2A
102
}
102
{ACAD_XDICTIONARY
360
174
102
}
330
2A
100
AcDbVisualStyle
  2
Thicken
 70
    13
 71
     2
 72
     2
 73
     0
 90
        0
 40
-0.6
 41
-30.0
 62
     5
 63
     7
421
 16777215
 74
     1
 91
        4
 64
     7
 65
   257
 75
     1
175
     1
 42
1.0
 92
       12
 66
     7
 43
1.0
 76
     1
 77
     6
 78
     2
 67
     7
 79
     5
170
     0
171
     0
290
     0
174
     0
 93
        1
 44
0.0
173
     0
291
     1
 45
0.0
  0
DICTIONARY
  5
164
330
2F
100
AcDbDictionary
280
     1
281
     1
  3
ACAD_XREC_ROUNDTRIP
360
165
  0
DICTIONARY
  5
168
330
31
100
AcDbDictionary
280
     1
281
     1
  3
ACAD_XREC_ROUNDTRIP
360
169
  0
DICTIONARY
  5
166
330
30
100
AcDbDictionary
280
     1
281
     1
  3
ACAD_XREC_ROUNDTRIP
360
167
  0
DICTIONARY
  5
16A
330
32
100
AcDbDictionary
280
     1
281
     1
  3
ACAD_XREC_ROUNDTRIP
360
16B
  0
DICTIONARY
  5
172
330
36
100
AcDbDictionary
280
     1
281
     1
  3
ACAD_XREC_ROUNDTRIP
360
173
  0
DICTIONARY
  5
17A
330
3A
100
AcDbDictionary
280
     1
281
     1
  3
ACAD_XREC_ROUNDTRIP
360
17B
  0
DICTIONARY
  5
16E
330
34
100
AcDbDictionary
280
     1
281
     1
  3
ACAD_XREC_ROUNDTRIP
360
16F
  0
DICTIONARY
  5
170
330
35
100
AcDbDictionary
280
     1
281
     1
  3
ACAD_XREC_ROUNDTRIP
360
171
  0
DICTIONARY
  5
178
330
39
100
AcDbDictionary
280
     1
281
     1
  3
ACAD_XREC_ROUNDTRIP
360
179
  0
DICTIONARY
  5
15C
330
2B
100
AcDbDictionary
280
     1
281
     1
  3
ACAD_XREC_ROUNDTRIP
360
15D
  0
DICTIONARY
  5
15E
330
2C
100
AcDbDictionary
280
     1
281
     1
  3
ACAD_XREC_ROUNDTRIP
360
15F
  0
DICTIONARY
  5
160
330
2D
100
AcDbDictionary
280
     1
281
     1
  3
ACAD_XREC_ROUNDTRIP
360
161
  0
DICTIONARY
  5
162
330
2E
100
AcDbDictionary
280
     1
281
     1
  3
ACAD_XREC_ROUNDTRIP
360
163
  0
DICTIONARY
  5
176
330
38
100
AcDbDictionary
280
     1
281
     1
  3
ACAD_XREC_ROUNDTRIP
360
177
  0
DICTIONARY
  5
16C
330
33
100
AcDbDictionary
280
     1
281
     1
  3
ACAD_XREC_ROUNDTRIP
360
16D
  0
DICTIONARY
  5
174
330
37
100
AcDbDictionary
280
     1
281
     1
  3
ACAD_XREC_ROUNDTRIP
360
175
  0
XRECORD
  5
165
102
{ACAD_REACTORS
330
164
102
}
330
164
100
AcDbXrecord
280
     1
102
RTVSPropertyOp0
 70
     1
102
RTVSPropertyOp1
 70
     1
102
RTVSPropertyOp2
 70
     1
102
RTVSPropertyOp3
 70
     1
102
RTVSPropertyOp4
 70
     1
102
RTVSPropertyOp5
 70
     1
102
RTVSPropertyOp6
 70
     1
102
RTVSPropertyOp7
 70
     1
102
RTVSPropertyOp8
 70
     1
102
RTVSPropertyOp9
 70
     1
102
RTVSPropertyOp10
 70
     1
102
RTVSPropertyOp11
 70
     1
102
RTVSPropertyOp12
 70
     1
102
RTVSPropertyOp13
 70
     1
102
RTVSPropertyOp14
 70
     1
102
RTVSPropertyOp15
 70
     1
102
RTVSPropertyOp16
 70
     1
102
RTVSPropertyOp17
 70
     1
102
RTVSPropertyOp18
 70
     1
102
RTVSPropertyOp19
 70
     1
102
RTVSPropertyOp20
 70
     1
102
RTVSPropertyOp21
 70
     1
102
RTVSPropertyOp22
 70
     1
102
RTVSPropertyOp23
 70
     1
102
RTVSPropertyOp24
 70
     1
102
RTVSPropertyOp25
 70
     1
102
RTVSPropertyOp26
 70
     1
102
RTVSPropertyOp27
 70
     1
102
RTVSPropertyOp28
 70
     1
102
RTVSPropertyOp29
 70
     1
102
RTVSPropertyOp30
 70
     1
102
RTVSPropertyOp31
 70
     1
102
RTVSPropertyOp32
 70
     1
  0
XRECORD
  5
169
102
{ACAD_REACTORS
330
168
102
}
330
168
100
AcDbXrecord
280
     1
102
RTVSPropertyOp0
 70
     1
102
RTVSPropertyOp1
 70
     1
102
RTVSPropertyOp2
 70
     1
102
RTVSPropertyOp3
 70
     1
102
RTVSPropertyOp4
 70
     1
102
RTVSPropertyOp5
 70
     1
102
RTVSPropertyOp6
 70
     1
102
RTVSPropertyOp7
 70
     1
102
RTVSPropertyOp8
 70
     1
102
RTVSPropertyOp9
 70
     1
102
RTVSPropertyOp10
 70
     1
102
RTVSPropertyOp11
 70
     1
102
RTVSPropertyOp12
 70
     1
102
RTVSPropertyOp13
 70
     1
102
RTVSPropertyOp14
 70
     1
102
RTVSPropertyOp15
 70
     1
102
RTVSPropertyOp16
 70
     1
102
RTVSPropertyOp17
 70
     1
102
RTVSPropertyOp18
 70
     1
102
RTVSPropertyOp19
 70
     1
102
RTVSPropertyOp20
 70
     1
102
RTVSPropertyOp21
 70
     1
102
RTVSPropertyOp22
 70
     1
102
RTVSPropertyOp23
 70
     1
102
RTVSPropertyOp24
 70
     1
102
RTVSPropertyOp25
 70
     1
102
RTVSPropertyOp26
 70
     1
102
RTVSPropertyOp27
 70
     1
102
RTVSPropertyOp28
 70
     1
102
RTVSPropertyOp29
 70
     1
102
RTVSPropertyOp30
 70
     1
102
RTVSPropertyOp31
 70
     1
102
RTVSPropertyOp32
 70
     1
  0
XRECORD
  5
167
102
{ACAD_REACTORS
330
166
102
}
330
166
100
AcDbXrecord
280
     1
102
RTVSPropertyOp0
 70
     1
102
RTVSPropertyOp1
 70
     1
102
RTVSPropertyOp2
 70
     1
102
RTVSPropertyOp3
 70
     1
102
RTVSPropertyOp4
 70
     1
102
RTVSPropertyOp5
 70
     1
102
RTVSPropertyOp6
 70
     1
102
RTVSPropertyOp7
 70
     1
102
RTVSPropertyOp8
 70
     1
102
RTVSPropertyOp9
 70
     1
102
RTVSPropertyOp10
 70
     1
102
RTVSPropertyOp11
 70
     1
102
RTVSPropertyOp12
 70
     1
102
RTVSPropertyOp13
 70
     1
102
RTVSPropertyOp14
 70
     1
102
RTVSPropertyOp15
 70
     1
102
RTVSPropertyOp16
 70
     1
102
RTVSPropertyOp17
 70
     1
102
RTVSPropertyOp18
 70
     1
102
RTVSPropertyOp19
 70
     1
102
RTVSPropertyOp20
 70
     1
102
RTVSPropertyOp21
 70
     1
102
RTVSPropertyOp22
 70
     1
102
RTVSPropertyOp23
 70
     1
102
RTVSPropertyOp24
 70
     1
102
RTVSPropertyOp25
 70
     1
102
RTVSPropertyOp26
 70
     1
102
RTVSPropertyOp27
 70
     1
102
RTVSPropertyOp28
 70
     1
102
RTVSPropertyOp29
 70
     1
102
RTVSPropertyOp30
 70
     1
102
RTVSPropertyOp31
 70
     1
102
RTVSPropertyOp32
 70
     1
  0
XRECORD
  5
16B
102
{ACAD_REACTORS
330
16A
102
}
330
16A
100
AcDbXrecord
280
     1
102
RTVSPropertyOp0
 70
     1
102
RTVSPropertyOp1
 70
     1
102
RTVSPropertyOp2
 70
     1
102
RTVSPropertyOp3
 70
     1
102
RTVSPropertyOp4
 70
     1
102
RTVSPropertyOp5
 70
     1
102
RTVSPropertyOp6
 70
     1
102
RTVSPropertyOp7
 70
     1
102
RTVSPropertyOp8
 70
     1
102
RTVSPropertyOp9
 70
     1
102
RTVSPropertyOp10
 70
     1
102
RTVSPropertyOp11
 70
     1
102
RTVSPropertyOp12
 70
     1
102
RTVSPropertyOp13
 70
     1
102
RTVSPropertyOp14
 70
     1
102
RTVSPropertyOp15
 70
     1
102
RTVSPropertyOp16
 70
     1
102
RTVSPropertyOp17
 70
     1
102
RTVSPropertyOp18
 70
     1
102
RTVSPropertyOp19
 70
     1
102
RTVSPropertyOp20
 70
     1
102
RTVSPropertyOp21
 70
     1
102
RTVSPropertyOp22
 70
     1
102
RTVSPropertyOp23
 70
     1
102
RTVSPropertyOp24
 70
     1
102
RTVSPropertyOp25
 70
     1
102
RTVSPropertyOp26
 70
     1
102
RTVSPropertyOp27
 70
     1
102
RTVSPropertyOp28
 70
     1
102
RTVSPropertyOp29
 70
     1
102
RTVSPropertyOp30
 70
     1
102
RTVSPropertyOp31
 70
     1
102
RTVSPropertyOp32
 70
     1
  0
XRECORD
  5
173
102
{ACAD_REACTORS
330
172
102
}
330
172
100
AcDbXrecord
280
     1
102
RTVSPropertyOp0
 70
     1
102
RTVSPropertyOp1
 70
     1
102
RTVSPropertyOp2
 70
     1
102
RTVSPropertyOp3
 70
     1
102
RTVSPropertyOp4
 70
     1
102
RTVSPropertyOp5
 70
     1
102
RTVSPropertyOp6
 70
     1
102
RTVSPropertyOp7
 70
     1
102
RTVSPropertyOp8
 70
     1
102
RTVSPropertyOp9
 70
     1
102
RTVSPropertyOp10
 70
     1
102
RTVSPropertyOp11
 70
     1
102
RTVSPropertyOp12
 70
     1
102
RTVSPropertyOp13
 70
     1
102
RTVSPropertyOp14
 70
     1
102
RTVSPropertyOp15
 70
     1
102
RTVSPropertyOp16
 70
     1
102
RTVSPropertyOp17
 70
     1
102
RTVSPropertyOp18
 70
     1
102
RTVSPropertyOp19
 70
     1
102
RTVSPropertyOp20
 70
     1
102
RTVSPropertyOp21
 70
     1
102
RTVSPropertyOp22
 70
     1
102
RTVSPropertyOp23
 70
     1
102
RTVSPropertyOp24
 70
     1
102
RTVSPropertyOp25
 70
     1
102
RTVSPropertyOp26
 70
     1
102
RTVSPropertyOp27
 70
     1
102
RTVSPropertyOp28
 70
     1
102
RTVSPropertyOp29
 70
     1
102
RTVSPropertyOp30
 70
     1
102
RTVSPropertyOp31
 70
     1
102
RTVSPropertyOp32
 70
     1
  0
XRECORD
  5
17B
102
{ACAD_REACTORS
330
17A
102
}
330
17A
100
AcDbXrecord
280
     1
102
RTVSPropertyOp0
 70
     1
102
RTVSPropertyOp1
 70
     1
102
RTVSPropertyOp2
 70
     1
102
RTVSPropertyOp3
 70
     1
102
RTVSPropertyOp4
 70
     1
102
RTVSPropertyOp5
 70
     1
102
RTVSPropertyOp6
 70
     1
102
RTVSPropertyOp7
 70
     1
102
RTVSPropertyOp8
 70
     1
102
RTVSPropertyOp9
 70
     1
102
RTVSPropertyOp10
 70
     1
102
RTVSPropertyOp11
 70
     1
102
RTVSPropertyOp12
 70
     1
102
RTVSPropertyOp13
 70
     1
102
RTVSPropertyOp14
 70
     1
102
RTVSPropertyOp15
 70
     1
102
RTVSPropertyOp16
 70
     1
102
RTVSPropertyOp17
 70
     1
102
RTVSPropertyOp18
 70
     1
102
RTVSPropertyOp19
 70
     1
102
RTVSPropertyOp20
 70
     1
102
RTVSPropertyOp21
 70
     1
102
RTVSPropertyOp22
 70
     1
102
RTVSPropertyOp23
 70
     1
102
RTVSPropertyOp24
 70
     1
102
RTVSPropertyOp25
 70
     1
102
RTVSPropertyOp26
 70
     1
102
RTVSPropertyOp27
 70
     1
102
RTVSPropertyOp28
 70
     1
102
RTVSPropertyOp29
 70
     1
102
RTVSPropertyOp30
 70
     1
102
RTVSPropertyOp31
 70
     1
102
RTVSPropertyOp32
 70
     1
  0
XRECORD
  5
16F
102
{ACAD_REACTORS
330
16E
102
}
330
16E
100
AcDbXrecord
280
     1
102
RTVSPropertyOp0
 70
     1
102
RTVSPropertyOp1
 70
     1
102
RTVSPropertyOp2
 70
     1
102
RTVSPropertyOp3
 70
     1
102
RTVSPropertyOp4
 70
     1
102
RTVSPropertyOp5
 70
     1
102
RTVSPropertyOp6
 70
     1
102
RTVSPropertyOp7
 70
     1
102
RTVSPropertyOp8
 70
     1
102
RTVSPropertyOp9
 70
     1
102
RTVSPropertyOp10
 70
     1
102
RTVSPropertyOp11
 70
     1
102
RTVSPropertyOp12
 70
     1
102
RTVSPropertyOp13
 70
     1
102
RTVSPropertyOp14
 70
     1
102
RTVSPropertyOp15
 70
     1
102
RTVSPropertyOp16
 70
     1
102
RTVSPropertyOp17
 70
     1
102
RTVSPropertyOp18
 70
     1
102
RTVSPropertyOp19
 70
     1
102
RTVSPropertyOp20
 70
     1
102
RTVSPropertyOp21
 70
     1
102
RTVSPropertyOp22
 70
     1
102
RTVSPropertyOp23
 70
     1
102
RTVSPropertyOp24
 70
     1
102
RTVSPropertyOp25
 70
     1
102
RTVSPropertyOp26
 70
     1
102
RTVSPropertyOp27
 70
     1
102
RTVSPropertyOp28
 70
     1
102
RTVSPropertyOp29
 70
     1
102
RTVSPropertyOp30
 70
     1
102
RTVSPropertyOp31
 70
     1
102
RTVSPropertyOp32
 70
     1
  0
XRECORD
  5
171
102
{ACAD_REACTORS
330
170
102
}
330
170
100
AcDbXrecord
280
     1
102
RTVSPropertyOp0
 70
     1
102
RTVSPropertyOp1
 70
     1
102
RTVSPropertyOp2
 70
     1
102
RTVSPropertyOp3
 70
     1
102
RTVSPropertyOp4
 70
     1
102
RTVSPropertyOp5
 70
     1
102
RTVSPropertyOp6
 70
     1
102
RTVSPropertyOp7
 70
     1
102
RTVSPropertyOp8
 70
     1
102
RTVSPropertyOp9
 70
     1
102
RTVSPropertyOp10
 70
     1
102
RTVSPropertyOp11
 70
     1
102
RTVSPropertyOp12
 70
     1
102
RTVSPropertyOp13
 70
     1
102
RTVSPropertyOp14
 70
     1
102
RTVSPropertyOp15
 70
     1
102
RTVSPropertyOp16
 70
     1
102
RTVSPropertyOp17
 70
     1
102
RTVSPropertyOp18
 70
     1
102
RTVSPropertyOp19
 70
     1
102
RTVSPropertyOp20
 70
     1
102
RTVSPropertyOp21
 70
     1
102
RTVSPropertyOp22
 70
     1
102
RTVSPropertyOp23
 70
     1
102
RTVSPropertyOp24
 70
     1
102
RTVSPropertyOp25
 70
     1
102
RTVSPropertyOp26
 70
     1
102
RTVSPropertyOp27
 70
     1
102
RTVSPropertyOp28
 70
     1
102
RTVSPropertyOp29
 70
     1
102
RTVSPropertyOp30
 70
     1
102
RTVSPropertyOp31
 70
     1
102
RTVSPropertyOp32
 70
     1
  0
XRECORD
  5
179
102
{ACAD_REACTORS
330
178
102
}
330
178
100
AcDbXrecord
280
     1
102
RTVSPropertyOp0
 70
     1
102
RTVSPropertyOp1
 70
     1
102
RTVSPropertyOp2
 70
     1
102
RTVSPropertyOp3
 70
     1
102
RTVSPropertyOp4
 70
     1
102
RTVSPropertyOp5
 70
     1
102
RTVSPropertyOp6
 70
     1
102
RTVSPropertyOp7
 70
     1
102
RTVSPropertyOp8
 70
     1
102
RTVSPropertyOp9
 70
     1
102
RTVSPropertyOp10
 70
     1
102
RTVSPropertyOp11
 70
     1
102
RTVSPropertyOp12
 70
     1
102
RTVSPropertyOp13
 70
     1
102
RTVSPropertyOp14
 70
     1
102
RTVSPropertyOp15
 70
     1
102
RTVSPropertyOp16
 70
     1
102
RTVSPropertyOp17
 70
     1
102
RTVSPropertyOp18
 70
     1
102
RTVSPropertyOp19
 70
     1
102
RTVSPropertyOp20
 70
     1
102
RTVSPropertyOp21
 70
     1
102
RTVSPropertyOp22
 70
     1
102
RTVSPropertyOp23
 70
     1
102
RTVSPropertyOp24
 70
     1
102
RTVSPropertyOp25
 70
     1
102
RTVSPropertyOp26
 70
     1
102
RTVSPropertyOp27
 70
     1
102
RTVSPropertyOp28
 70
     1
102
RTVSPropertyOp29
 70
     1
102
RTVSPropertyOp30
 70
     1
102
RTVSPropertyOp31
 70
     1
102
RTVSPropertyOp32
 70
     1
  0
XRECORD
  5
15D
102
{ACAD_REACTORS
330
15C
102
}
330
15C
100
AcDbXrecord
280
     1
102
RTVSPropertyOp0
 70
     1
102
RTVSPropertyOp1
 70
     1
102
RTVSPropertyOp2
 70
     1
102
RTVSPropertyOp3
 70
     1
102
RTVSPropertyOp4
 70
     1
102
RTVSPropertyOp5
 70
     1
102
RTVSPropertyOp6
 70
     1
102
RTVSPropertyOp7
 70
     1
102
RTVSPropertyOp8
 70
     1
102
RTVSPropertyOp9
 70
     1
102
RTVSPropertyOp10
 70
     1
102
RTVSPropertyOp11
 70
     1
102
RTVSPropertyOp12
 70
     1
102
RTVSPropertyOp13
 70
     1
102
RTVSPropertyOp14
 70
     1
102
RTVSPropertyOp15
 70
     1
102
RTVSPropertyOp16
 70
     1
102
RTVSPropertyOp17
 70
     1
102
RTVSPropertyOp18
 70
     1
102
RTVSPropertyOp19
 70
     1
102
RTVSPropertyOp20
 70
     1
102
RTVSPropertyOp21
 70
     1
102
RTVSPropertyOp22
 70
     1
102
RTVSPropertyOp23
 70
     1
102
RTVSPropertyOp24
 70
     1
102
RTVSPropertyOp25
 70
     1
102
RTVSPropertyOp26
 70
     1
102
RTVSPropertyOp27
 70
     1
102
RTVSPropertyOp28
 70
     1
102
RTVSPropertyOp29
 70
     1
102
RTVSPropertyOp30
 70
     1
102
RTVSPropertyOp31
 70
     1
102
RTVSPropertyOp32
 70
     1
  0
XRECORD
  5
15F
102
{ACAD_REACTORS
330
15E
102
}
330
15E
100
AcDbXrecord
280
     1
102
RTVSPropertyOp0
 70
     1
102
RTVSPropertyOp1
 70
     1
102
RTVSPropertyOp2
 70
     1
102
RTVSPropertyOp3
 70
     1
102
RTVSPropertyOp4
 70
     1
102
RTVSPropertyOp5
 70
     1
102
RTVSPropertyOp6
 70
     1
102
RTVSPropertyOp7
 70
     1
102
RTVSPropertyOp8
 70
     1
102
RTVSPropertyOp9
 70
     1
102
RTVSPropertyOp10
 70
     1
102
RTVSPropertyOp11
 70
     1
102
RTVSPropertyOp12
 70
     1
102
RTVSPropertyOp13
 70
     1
102
RTVSPropertyOp14
 70
     1
102
RTVSPropertyOp15
 70
     1
102
RTVSPropertyOp16
 70
     1
102
RTVSPropertyOp17
 70
     1
102
RTVSPropertyOp18
 70
     1
102
RTVSPropertyOp19
 70
     1
102
RTVSPropertyOp20
 70
     1
102
RTVSPropertyOp21
 70
     1
102
RTVSPropertyOp22
 70
     1
102
RTVSPropertyOp23
 70
     1
102
RTVSPropertyOp24
 70
     1
102
RTVSPropertyOp25
 70
     1
102
RTVSPropertyOp26
 70
     1
102
RTVSPropertyOp27
 70
     1
102
RTVSPropertyOp28
 70
     1
102
RTVSPropertyOp29
 70
     1
102
RTVSPropertyOp30
 70
     1
102
RTVSPropertyOp31
 70
     1
102
RTVSPropertyOp32
 70
     1
  0
XRECORD
  5
161
102
{ACAD_REACTORS
330
160
102
}
330
160
100
AcDbXrecord
280
     1
102
RTVSPropertyOp0
 70
     1
102
RTVSPropertyOp1
 70
     1
102
RTVSPropertyOp2
 70
     1
102
RTVSPropertyOp3
 70
     1
102
RTVSPropertyOp4
 70
     1
102
RTVSPropertyOp5
 70
     1
102
RTVSPropertyOp6
 70
     1
102
RTVSPropertyOp7
 70
     1
102
RTVSPropertyOp8
 70
     1
102
RTVSPropertyOp9
 70
     1
102
RTVSPropertyOp10
 70
     1
102
RTVSPropertyOp11
 70
     1
102
RTVSPropertyOp12
 70
     1
102
RTVSPropertyOp13
 70
     1
102
RTVSPropertyOp14
 70
     1
102
RTVSPropertyOp15
 70
     1
102
RTVSPropertyOp16
 70
     1
102
RTVSPropertyOp17
 70
     1
102
RTVSPropertyOp18
 70
     1
102
RTVSPropertyOp19
 70
     1
102
RTVSPropertyOp20
 70
     1
102
RTVSPropertyOp21
 70
     1
102
RTVSPropertyOp22
 70
     1
102
RTVSPropertyOp23
 70
     1
102
RTVSPropertyOp24
 70
     1
102
RTVSPropertyOp25
 70
     1
102
RTVSPropertyOp26
 70
     1
102
RTVSPropertyOp27
 70
     1
102
RTVSPropertyOp28
 70
     1
102
RTVSPropertyOp29
 70
     1
102
RTVSPropertyOp30
 70
     1
102
RTVSPropertyOp31
 70
     1
102
RTVSPropertyOp32
 70
     1
  0
XRECORD
  5
163
102
{ACAD_REACTORS
330
162
102
}
330
162
100
AcDbXrecord
280
     1
102
RTVSPropertyOp0
 70
     1
102
RTVSPropertyOp1
 70
     1
102
RTVSPropertyOp2
 70
     1
102
RTVSPropertyOp3
 70
     1
102
RTVSPropertyOp4
 70
     1
102
RTVSPropertyOp5
 70
     1
102
RTVSPropertyOp6
 70
     1
102
RTVSPropertyOp7
 70
     1
102
RTVSPropertyOp8
 70
     1
102
RTVSPropertyOp9
 70
     1
102
RTVSPropertyOp10
 70
     1
102
RTVSPropertyOp11
 70
     1
102
RTVSPropertyOp12
 70
     1
102
RTVSPropertyOp13
 70
     1
102
RTVSPropertyOp14
 70
     1
102
RTVSPropertyOp15
 70
     1
102
RTVSPropertyOp16
 70
     1
102
RTVSPropertyOp17
 70
     1
102
RTVSPropertyOp18
 70
     1
102
RTVSPropertyOp19
 70
     1
102
RTVSPropertyOp20
 70
     1
102
RTVSPropertyOp21
 70
     1
102
RTVSPropertyOp22
 70
     1
102
RTVSPropertyOp23
 70
     1
102
RTVSPropertyOp24
 70
     1
102
RTVSPropertyOp25
 70
     1
102
RTVSPropertyOp26
 70
     1
102
RTVSPropertyOp27
 70
     1
102
RTVSPropertyOp28
 70
     1
102
RTVSPropertyOp29
 70
     1
102
RTVSPropertyOp30
 70
     1
102
RTVSPropertyOp31
 70
     1
102
RTVSPropertyOp32
 70
     1
  0
XRECORD
  5
177
102
{ACAD_REACTORS
330
176
102
}
330
176
100
AcDbXrecord
280
     1
102
RTVSPropertyOp0
 70
     1
102
RTVSPropertyOp1
 70
     1
102
RTVSPropertyOp2
 70
     1
102
RTVSPropertyOp3
 70
     1
102
RTVSPropertyOp4
 70
     1
102
RTVSPropertyOp5
 70
     1
102
RTVSPropertyOp6
 70
     1
102
RTVSPropertyOp7
 70
     1
102
RTVSPropertyOp8
 70
     1
102
RTVSPropertyOp9
 70
     1
102
RTVSPropertyOp10
 70
     1
102
RTVSPropertyOp11
 70
     1
102
RTVSPropertyOp12
 70
     1
102
RTVSPropertyOp13
 70
     1
102
RTVSPropertyOp14
 70
     1
102
RTVSPropertyOp15
 70
     1
102
RTVSPropertyOp16
 70
     1
102
RTVSPropertyOp17
 70
     1
102
RTVSPropertyOp18
 70
     1
102
RTVSPropertyOp19
 70
     1
102
RTVSPropertyOp20
 70
     1
102
RTVSPropertyOp21
 70
     1
102
RTVSPropertyOp22
 70
     1
102
RTVSPropertyOp23
 70
     1
102
RTVSPropertyOp24
 70
     1
102
RTVSPropertyOp25
 70
     1
102
RTVSPropertyOp26
 70
     1
102
RTVSPropertyOp27
 70
     1
102
RTVSPropertyOp28
 70
     1
102
RTVSPropertyOp29
 70
     1
102
RTVSPropertyOp30
 70
     1
102
RTVSPropertyOp31
 70
     1
102
RTVSPropertyOp32
 70
     1
  0
XRECORD
  5
16D
102
{ACAD_REACTORS
330
16C
102
}
330
16C
100
AcDbXrecord
280
     1
102
RTVSPropertyOp0
 70
     1
102
RTVSPropertyOp1
 70
     1
102
RTVSPropertyOp2
 70
     1
102
RTVSPropertyOp3
 70
     1
102
RTVSPropertyOp4
 70
     1
102
RTVSPropertyOp5
 70
     1
102
RTVSPropertyOp6
 70
     1
102
RTVSPropertyOp7
 70
     1
102
RTVSPropertyOp8
 70
     1
102
RTVSPropertyOp9
 70
     1
102
RTVSPropertyOp10
 70
     1
102
RTVSPropertyOp11
 70
     1
102
RTVSPropertyOp12
 70
     1
102
RTVSPropertyOp13
 70
     1
102
RTVSPropertyOp14
 70
     1
102
RTVSPropertyOp15
 70
     1
102
RTVSPropertyOp16
 70
     1
102
RTVSPropertyOp17
 70
     1
102
RTVSPropertyOp18
 70
     1
102
RTVSPropertyOp19
 70
     1
102
RTVSPropertyOp20
 70
     1
102
RTVSPropertyOp21
 70
     1
102
RTVSPropertyOp22
 70
     1
102
RTVSPropertyOp23
 70
     1
102
RTVSPropertyOp24
 70
     1
102
RTVSPropertyOp25
 70
     1
102
RTVSPropertyOp26
 70
     1
102
RTVSPropertyOp27
 70
     1
102
RTVSPropertyOp28
 70
     1
102
RTVSPropertyOp29
 70
     1
102
RTVSPropertyOp30
 70
     1
102
RTVSPropertyOp31
 70
     1
102
RTVSPropertyOp32
 70
     1
  0
XRECORD
  5
175
102
{ACAD_REACTORS
330
174
102
}
330
174
100
AcDbXrecord
280
     1
102
RTVSPropertyOp0
 70
     1
102
RTVSPropertyOp1
 70
     1
102
RTVSPropertyOp2
 70
     1
102
RTVSPropertyOp3
 70
     1
102
RTVSPropertyOp4
 70
     1
102
RTVSPropertyOp5
 70
     1
102
RTVSPropertyOp6
 70
     1
102
RTVSPropertyOp7
 70
     1
102
RTVSPropertyOp8
 70
     1
102
RTVSPropertyOp9
 70
     1
102
RTVSPropertyOp10
 70
     1
102
RTVSPropertyOp11
 70
     1
102
RTVSPropertyOp12
 70
     1
102
RTVSPropertyOp13
 70
     1
102
RTVSPropertyOp14
 70
     1
102
RTVSPropertyOp15
 70
     1
102
RTVSPropertyOp16
 70
     1
102
RTVSPropertyOp17
 70
     1
102
RTVSPropertyOp18
 70
     1
102
RTVSPropertyOp19
 70
     1
102
RTVSPropertyOp20
 70
     1
102
RTVSPropertyOp21
 70
     1
102
RTVSPropertyOp22
 70
     1
102
RTVSPropertyOp23
 70
     1
102
RTVSPropertyOp24
 70
     1
102
RTVSPropertyOp25
 70
     1
102
RTVSPropertyOp26
 70
     1
102
RTVSPropertyOp27
 70
     1
102
RTVSPropertyOp28
 70
     1
102
RTVSPropertyOp29
 70
     1
102
RTVSPropertyOp30
 70
     1
102
RTVSPropertyOp31
 70
     1
102
RTVSPropertyOp32
 70
     1
  0
ENDSEC
  0
EOF
