  0
SECTION
  2
HEADER
  9
$ACADVER
  1
AC1021
  9
$ACADMAINTVER
 70
    25
  9
$DWGCODEPAGE
  3
ANSI_932
  9
$INSBASE
 10
0.0
 20
0.0
 30
0.0
  9
$EXTMIN
 10
1.000000000000000E+20
 20
1.000000000000000E+20
 30
1.000000000000000E+20
  9
$EXTMAX
 10
-1.000000000000000E+20
 20
-1.000000000000000E+20
 30
-1.000000000000000E+20
  9
$LIMMIN
 10
0.0
 20
0.0
  9
$LIMMAX
 10
12.0
 20
9.0
  9
$ORTHOMODE
 70
     0
  9
$REGENMODE
 70
     1
  9
$FILLMODE
 70
     1
  9
$QTEXTMODE
 70
     0
  9
$MIRRTEXT
 70
     1
  9
$LTSCALE
 40
1.0
  9
$ATTMODE
 70
     1
  9
$TEXTSIZE
 40
0.2
  9
$TRACEWID
 40
0.05
  9
$TEXTSTYLE
  7
Standard
  9
$CLAYER
  8
0
  9
$CELTYPE
  6
ByLayer
  9
$CECOLOR
 62
   256
  9
$CELTSCALE
 40
1.0
  9
$DISPSILH
 70
     0
  9
$DIMSCALE
 40
1.0
  9
$DIMASZ
 40
0.18
  9
$DIMEXO
 40
0.0625
  9
$DIMDLI
 40
0.38
  9
$DIMRND
 40
0.0
  9
$DIMDLE
 40
0.0
  9
$DIMEXE
 40
0.18
  9
$DIMTP
 40
0.0
  9
$DIMTM
 40
0.0
  9
$DIMTXT
 40
0.18
  9
$DIMCEN
 40
0.09
  9
$DIMTSZ
 40
0.0
  9
$DIMTOL
 70
     0
  9
$DIMLIM
 70
     0
  9
$DIMTIH
 70
     1
  9
$DIMTOH
 70
     1
  9
$DIMSE1
 70
     0
  9
$DIMSE2
 70
     0
  9
$DIMTAD
 70
     0
  9
$DIMZIN
 70
     0
  9
$DIMBLK
  1

  9
$DIMASO
 70
     1
  9
$DIMSHO
 70
     1
  9
$DIMPOST
  1

  9
$DIMAPOST
  1

  9
$DIMALT
 70
     0
  9
$DIMALTD
 70
     2
  9
$DIMALTF
 40
25.4
  9
$DIMLFAC
 40
1.0
  9
$DIMTOFL
 70
     0
  9
$DIMTVP
 40
0.0
  9
$DIMTIX
 70
     0
  9
$DIMSOXD
 70
     0
  9
$DIMSAH
 70
     0
  9
$DIMBLK1
  1

  9
$DIMBLK2
  1

  9
$DIMSTYLE
  2
Standard
  9
$DIMCLRD
 70
     0
  9
$DIMCLRE
 70
     0
  9
$DIMCLRT
 70
     0
  9
$DIMTFAC
 40
1.0
  9
$DIMGAP
 40
0.09
  9
$DIMJUST
 70
     0
  9
$DIMSD1
 70
     0
  9
$DIMSD2
 70
     0
  9
$DIMTOLJ
 70
     1
  9
$DIMTZIN
 70
     0
  9
$DIMALTZ
 70
     0
  9
$DIMALTTZ
 70
     0
  9
$DIMUPT
 70
     0
  9
$DIMDEC
 70
     4
  9
$DIMTDEC
 70
     4
  9
$DIMALTU
 70
     2
  9
$DIMALTTD
 70
     2
  9
$DIMTXSTY
  7
Standard
  9
$DIMAUNIT
 70
     0
  9
$DIMADEC
 70
     0
  9
$DIMALTRND
 40
0.0
  9
$DIMAZIN
 70
     0
  9
$DIMDSEP
 70
    46
  9
$DIMATFIT
 70
     3
  9
$DIMFRAC
 70
     0
  9
$DIMLDRBLK
  1

  9
$DIMLUNIT
 70
     2
  9
$DIMLWD
 70
    -2
  9
$DIMLWE
 70
    -2
  9
$DIMTMOVE
 70
     0
  9
$DIMFXL
 40
1.0
  9
$DIMFXLON
 70
     0
  9
$DIMJOGANG
 40
0.7853981633974483
  9
$DIMTFILL
 70
     0
  9
$DIMTFILLCLR
 70
     0
  9
$DIMARCSYM
 70
     0
  9
$DIMLTYPE
  6

  9
$DIMLTEX1
  6

  9
$DIMLTEX2
  6

  9
$LUNITS
 70
     2
  9
$LUPREC
 70
     4
  9
$SKETCHINC
 40
0.1
  9
$FILLETRAD
 40
0.5
  9
$AUNITS
 70
     0
  9
$AUPREC
 70
     0
  9
$MENU
  1
.
  9
$ELEVATION
 40
0.0
  9
$PELEVATION
 40
0.0
  9
$THICKNESS
 40
0.0
  9
$LIMCHECK
 70
     0
  9
$CHAMFERA
 40
0.5
  9
$CHAMFERB
 40
0.5
  9
$CHAMFERC
 40
1.0
  9
$CHAMFERD
 40
0.0
  9
$SKPOLY
 70
     0
  9
$TDCREATE
 40
2458514.610764028
  9
$TDUCREATE
 40
2458514.235764028
  9
$TDUPDATE
 40
2458514.610764109
  9
$TDUUPDATE
 40
2458514.235764109
  9
$TDINDWG
 40
0.0000000116
  9
$TDUSRTIMER
 40
0.0000000116
  9
$USRTIMER
 70
     1
  9
$ANGBASE
 50
0.0
  9
$ANGDIR
 70
     0
  9
$PDMODE
 70
     0
  9
$PDSIZE
 40
0.0
  9
$PLINEWID
 40
0.0
  9
$SPLFRAME
 70
     0
  9
$SPLINETYPE
 70
     6
  9
$SPLINESEGS
 70
     8
  9
$HANDSEED
  5
1AB
  9
$SURFTAB1
 70
     6
  9
$SURFTAB2
 70
     6
  9
$SURFTYPE
 70
     6
  9
$SURFU
 70
     6
  9
$SURFV
 70
     6
  9
$UCSBASE
  2

  9
$UCSNAME
  2

  9
$UCSORG
 10
0.0
 20
0.0
 30
0.0
  9
$UCSXDIR
 10
1.0
 20
0.0
 30
0.0
  9
$UCSYDIR
 10
0.0
 20
1.0
 30
0.0
  9
$UCSORTHOREF
  2

  9
$UCSORTHOVIEW
 70
     0
  9
$UCSORGTOP
 10
0.0
 20
0.0
 30
0.0
  9
$UCSORGBOTTOM
 10
0.0
 20
0.0
 30
0.0
  9
$UCSORGLEFT
 10
0.0
 20
0.0
 30
0.0
  9
$UCSORGRIGHT
 10
0.0
 20
0.0
 30
0.0
  9
$UCSORGFRONT
 10
0.0
 20
0.0
 30
0.0
  9
$UCSORGBACK
 10
0.0
 20
0.0
 30
0.0
  9
$PUCSBASE
  2

  9
$PUCSNAME
  2

  9
$PUCSORG
 10
0.0
 20
0.0
 30
0.0
  9
$PUCSXDIR
 10
1.0
 20
0.0
 30
0.0
  9
$PUCSYDIR
 10
0.0
 20
1.0
 30
0.0
  9
$PUCSORTHOREF
  2

  9
$PUCSORTHOVIEW
 70
     0
  9
$PUCSORGTOP
 10
0.0
 20
0.0
 30
0.0
  9
$PUCSORGBOTTOM
 10
0.0
 20
0.0
 30
0.0
  9
$PUCSORGLEFT
 10
0.0
 20
0.0
 30
0.0
  9
$PUCSORGRIGHT
 10
0.0
 20
0.0
 30
0.0
  9
$PUCSORGFRONT
 10
0.0
 20
0.0
 30
0.0
  9
$PUCSORGBACK
 10
0.0
 20
0.0
 30
0.0
  9
$USERI1
 70
     0
  9
$USERI2
 70
     0
  9
$USERI3
 70
     0
  9
$USERI4
 70
     0
  9
$USERI5
 70
     0
  9
$USERR1
 40
0.0
  9
$USERR2
 40
0.0
  9
$USERR3
 40
0.0
  9
$USERR4
 40
0.0
  9
$USERR5
 40
0.0
  9
$WORLDVIEW
 70
     1
  9
$SHADEDGE
 70
     3
  9
$SHADEDIF
 70
    70
  9
$TILEMODE
 70
     1
  9
$MAXACTVP
 70
    64
  9
$PINSBASE
 10
0.0
 20
0.0
 30
0.0
  9
$PLIMCHECK
 70
     0
  9
$PEXTMIN
 10
1.000000000000000E+20
 20
1.000000000000000E+20
 30
1.000000000000000E+20
  9
$PEXTMAX
 10
-1.000000000000000E+20
 20
-1.000000000000000E+20
 30
-1.000000000000000E+20
  9
$PLIMMIN
 10
0.0
 20
0.0
  9
$PLIMMAX
 10
12.0
 20
9.0
  9
$UNITMODE
 70
     0
  9
$VISRETAIN
 70
     1
  9
$PLINEGEN
 70
     0
  9
$PSLTSCALE
 70
     1
  9
$TREEDEPTH
 70
  3020
  9
$CMLSTYLE
  2
Standard
  9
$CMLJUST
 70
     0
  9
$CMLSCALE
 40
1.0
  9
$PROXYGRAPHICS
 70
     1
  9
$MEASUREMENT
 70
     0
  9
$CELWEIGHT
370
    -1
  9
$ENDCAPS
280
     0
  9
$JOINSTYLE
280
     0
  9
$LWDISPLAY
290
     1
  9
$INSUNITS
 70
     1
  9
$HYPERLINKBASE
  1

  9
$STYLESHEET
  1

  9
$XEDIT
290
     1
  9
$CEPSNTYPE
380
     0
  9
$PSTYLEMODE
290
     1
  9
$FINGERPRINTGUID
  2
{6153C9E1-4C16-4979-B2F1-4395B12764AC}
  9
$VERSIONGUID
  2
{FAEB1C32-E019-11D5-929B-00C0DF256EC4}
  9
$EXTNAMES
290
     1
  9
$PSVPSCALE
 40
0.0
  9
$OLESTARTUP
290
     0
  9
$SORTENTS
280
   127
  9
$INDEXCTL
280
     0
  9
$HIDETEXT
280
     1
  9
$XCLIPFRAME
290
     0
  9
$HALOGAP
280
     0
  9
$OBSCOLOR
 70
   257
  9
$OBSLTYPE
280
     0
  9
$INTERSECTIONDISPLAY
280
     0
  9
$INTERSECTIONCOLOR
 70
   257
  9
$DIMASSOC
280
     2
  9
$PROJECTNAME
  1

  9
$CAMERADISPLAY
290
     0
  9
$LENSLENGTH
 40
50.0
  9
$CAMERAHEIGHT
 40
0.0
  9
$STEPSPERSEC
 40
2.0
  9
$STEPSIZE
 40
6.0
  9
$3DDWFPREC
 40
2.0
  9
$PSOLWIDTH
 40
0.25
  9
$PSOLHEIGHT
 40
4.0
  9
$LOFTANG1
 40
1.570796326794897
  9
$LOFTANG2
 40
1.570796326794897
  9
$LOFTMAG1
 40
0.0
  9
$LOFTMAG2
 40
0.0
  9
$LOFTPARAM
 70
     7
  9
$LOFTNORMALS
280
     1
  9
$LATITUDE
 40
37.795
  9
$LONGITUDE
 40
-122.394
  9
$NORTHDIRECTION
 40
0.0
  9
$TIMEZONE
 70
 -8000
  9
$LIGHTGLYPHDISPLAY
280
     1
  9
$TILEMODELIGHTSYNCH
280
     1
  9
$CMATERIAL
347
3C
  9
$SOLIDHIST
280
     1
  9
$SHOWHIST
280
     1
  9
$DWFFRAME
280
     2
  9
$DGNFRAME
280
     2
  9
$REALWORLDSCALE
290
     1
  9
$INTERFERECOLOR
 62
   256
  9
$CSHADOW
280
     0
  9
$SHADOWPLANELOCATION
 40
0.0
  0
ENDSEC
  0
SECTION
  2
CLASSES
  0
CLASS
  1
ACDBDICTIONARYWDFLT
  2
AcDbDictionaryWithDefault
  3
ObjectDBX Classes
 90
        0
 91
        4
280
     0
281
     0
  0
CLASS
  1
VISUALSTYLE
  2
AcDbVisualStyle
  3
ObjectDBX Classes
 90
     4095
 91
        4
280
     0
281
     0
  0
CLASS
  1
MATERIAL
  2
AcDbMaterial
  3
ObjectDBX Classes
 90
     1153
 91
        4
280
     0
281
     0
  0
CLASS
  1
SUN
  2
AcDbSun
  3
SCENEOE
 90
     1024
 91
        4
280
     0
281
     0
  0
ENDSEC
  0
SECTION
  2
TABLES
  0
TABLE
  2
VPORT
  5
8
330
0
100
AcDbSymbolTable
 70
     1
  0
VPORT
  5
29
330
8
100
AcDbSymbolTableRecord
100
AcDbViewportTableRecord
  2
*Active
 70
     0
 10
0.0
 20
0.0
 11
1.0
 21
1.0
 12
0.0
 22
0.0
 13
0.0
 23
0.0
 14
0.5
 24
0.5
 15
0.5
 25
0.5
 16
0.0
 26
0.0
 36
1.0
 17
148.3916656437123
 27
104.8915941359208
 37
0.0
 40
297.0000052006764
 41
0.7070706878738762
 42
50.0
 43
0.0
 44
0.0
 50
0.0
 51
0.0
 71
     0
 72
   100
 73
     1
 74
     3
 75
     0
 76
     0
 77
     0
 78
     0
281
     0
 65
     1
110
0.0
120
0.0
130
0.0
111
1.0
121
0.0
131
0.0
112
0.0
122
1.0
132
0.0
 79
     0
146
0.0
 60
     3
 61
     5
292
     1
282
     1
141
0.0
142
0.0
 63
   250
361
3F
  0
ENDTAB
  0
TABLE
  2
LTYPE
  5
5
330
0
100
AcDbSymbolTable
 70
     1
  0
LTYPE
  5
14
330
5
100
AcDbSymbolTableRecord
100
AcDbLinetypeTableRecord
  2
ByBlock
 70
     0
  3

 72
    65
 73
     0
 40
0.0
  0
LTYPE
  5
15
330
5
100
AcDbSymbolTableRecord
100
AcDbLinetypeTableRecord
  2
ByLayer
 70
     0
  3

 72
    65
 73
     0
 40
0.0
  0
LTYPE
  5
16
330
5
100
AcDbSymbolTableRecord
100
AcDbLinetypeTableRecord
  2
Continuous
 70
     0
  3
Solid line
 72
    65
 73
     0
 40
0.0
  0
ENDTAB
  0
TABLE
  2
LAYER
  5
2
330
0
100
AcDbSymbolTable
 70
     2
  0
LAYER
  5
10
330
2
100
AcDbSymbolTableRecord
100
AcDbLayerTableRecord
  2
0
 70
     0
 62
     7
  6
Continuous
370
    -3
390
F
347
3E
  0
LAYER
  5
40
330
2
100
AcDbSymbolTableRecord
100
AcDbLayerTableRecord
  2
_U+30EC_U+30A4_U+30E4_U+30FC 1
 70
     0
 62
     7
  6
Continuous
370
    -3
390
F
347
3E
  0
ENDTAB
  0
TABLE
  2
STYLE
  5
3
330
0
100
AcDbSymbolTable
 70
     1
  0
STYLE
  5
11
330
3
100
AcDbSymbolTableRecord
100
AcDbTextStyleTableRecord
  2
Standard
 70
     0
 40
0.0
 41
1.0
 50
0.0
 71
     0
 42
0.2
  3
txt
  4

  0
ENDTAB
  0
TABLE
  2
VIEW
  5
6
330
0
100
AcDbSymbolTable
 70
     0
  0
ENDTAB
  0
TABLE
  2
UCS
  5
7
330
0
100
AcDbSymbolTable
 70
     0
  0
ENDTAB
  0
TABLE
  2
APPID
  5
9
330
0
100
AcDbSymbolTable
 70
     1
  0
APPID
  5
12
330
9
100
AcDbSymbolTableRecord
100
AcDbRegAppTableRecord
  2
ACAD
 70
     0
  0
ENDTAB
  0
TABLE
  2
DIMSTYLE
  5
A
330
0
100
AcDbSymbolTable
 70
     1
100
AcDbDimStyleTable
  0
DIMSTYLE
105
27
330
A
100
AcDbSymbolTableRecord
100
AcDbDimStyleTableRecord
  2
Standard
 70
     0
178
     0
340
11
  0
ENDTAB
  0
TABLE
  2
BLOCK_RECORD
  5
1
330
0
100
AcDbSymbolTable
 70
     4
  0
BLOCK_RECORD
  5
1F
330
1
100
AcDbSymbolTableRecord
100
AcDbBlockTableRecord
  2
*Model_Space
340
22
 70
     0
280
     1
281
     0
  0
BLOCK_RECORD
  5
1B
330
1
100
AcDbSymbolTableRecord
100
AcDbBlockTableRecord
  2
*Paper_Space
340
1E
 70
     0
280
     1
281
     0
  0
BLOCK_RECORD
  5
23
330
1
100
AcDbSymbolTableRecord
100
AcDbBlockTableRecord
  2
*Paper_Space0
340
26
 70
     0
280
     1
281
     0
  0
BLOCK_RECORD
  5
41
330
1
100
AcDbSymbolTableRecord
100
AcDbBlockTableRecord
  2
block 2
340
0
102
{BLKREFS
331
42
102
}
 70
     0
280
     1
281
     0
  0
BLOCK_RECORD
  5
45
330
1
100
AcDbSymbolTableRecord
100
AcDbBlockTableRecord
  2
block 3
340
0
102
{BLKREFS
331
46
102
}
 70
     0
280
     1
281
     0
  0
BLOCK_RECORD
  5
123
330
1
100
AcDbSymbolTableRecord
100
AcDbBlockTableRecord
  2
block 4
340
0
102
{BLKREFS
331
124
102
}
 70
     0
280
     1
281
     0
  0
ENDTAB
  0
ENDSEC
  0
SECTION
  2
BLOCKS
  0
BLOCK
  5
20
330
1F
100
AcDbEntity
  8
0
100
AcDbBlockBegin
  2
*Model_Space
 70
     0
 10
0.0
 20
0.0
 30
0.0
  3
*Model_Space
  1

  0
ENDBLK
  5
21
330
1F
100
AcDbEntity
  8
0
100
AcDbBlockEnd
  0
BLOCK
  5
1C
330
1B
100
AcDbEntity
 67
     1
  8
0
100
AcDbBlockBegin
  2
*Paper_Space
 70
     0
 10
0.0
 20
0.0
 30
0.0
  3
*Paper_Space
  1

  0
ENDBLK
  5
1D
330
1B
100
AcDbEntity
 67
     1
  8
0
100
AcDbBlockEnd
  0
BLOCK
  5
24
330
23
100
AcDbEntity
  8
0
100
AcDbBlockBegin
  2
*Paper_Space0
 70
     0
 10
0.0
 20
0.0
 30
0.0
  3
*Paper_Space0
  1

  0
ENDBLK
  5
25
330
23
100
AcDbEntity
  8
0
100
AcDbBlockEnd
  0
BLOCK
  5
43
330
41
100
AcDbEntity
  8
0
100
AcDbBlockBegin
  2
block 2
 70
     0
 10
0.0
 20
0.0
 30
0.0
  3
block 2
  1

  0
INSERT
  5
46
330
41
100
AcDbEntity
  8
_U+30EC_U+30A4_U+30E4_U+30FC 1
100
AcDbBlockReference
  2
block 3
 10
0.0
 20
0.0
 30
0.0
  0
SPLINE
  5
4F
330
41
100
AcDbEntity
  8
_U+30EC_U+30A4_U+30E4_U+30FC 1
 62
     7
370
     5
100
AcDbSpline
210
0.0
220
0.0
230
1.0
 70
     8
 71
     3
 72
    14
 73
    10
 74
     0
 42
0.0000000001
 43
0.0000000001
 12
1.0
 22
0.0
 32
0.0
 13
1.0
 23
0.0
 33
0.0
 40
0.0
 40
0.0
 40
0.0
 40
0.0
 40
1.0
 40
1.0
 40
1.0
 40
2.0
 40
2.0
 40
2.0
 40
3.0
 40
3.0
 40
3.0
 40
3.0
 10
151.254844196723
 20
127.1448473118203
 30
0.0
 10
151.1711300321921
 20
126.5287209386501
 30
0.0
 10
151.0450472576309
 20
126.0259067848113
 30
0.0
 10
150.8772661508003
 20
125.6360873503119
 30
0.0
 10
150.6150817130447
 20
125.0288862546918
 30
0.0
 10
150.2998747766418
 20
124.6128907097492
 30
0.0
 10
149.931574786038
 20
124.3861957155327
 30
0.0
 10
149.931574786038
 20
124.3861957155327
 30
0.0
 10
152.2694330597276
 20
123.6930610801879
 30
0.0
 10
152.2694330597276
 20
123.6930610801879
 30
0.0
  0
SPLINE
  5
50
330
41
100
AcDbEntity
  8
_U+30EC_U+30A4_U+30E4_U+30FC 1
 62
     7
370
     5
100
AcDbSpline
210
0.0
220
0.0
230
1.0
 70
     8
 71
     3
 72
    14
 73
    10
 74
     0
 42
0.0000000001
 43
0.0000000001
 12
1.0
 22
0.0
 32
0.0
 13
1.0
 23
0.0
 33
0.0
 40
0.0
 40
0.0
 40
0.0
 40
0.0
 40
1.0
 40
1.0
 40
1.0
 40
2.0
 40
2.0
 40
2.0
 40
3.0
 40
3.0
 40
3.0
 40
3.0
 10
131.9447416338092
 20
134.1420179666409
 30
0.0
 10
131.9347580229528
 20
132.9963721625354
 30
0.0
 10
131.8520669139513
 20
132.1328427401214
 30
0.0
 10
131.6953277512834
 20
131.5516413660602
 30
0.0
 10
131.4992891451736
 20
130.8192394403009
 30
0.0
 10
131.1937130418584
 20
130.3245038973671
 30
0.0
 10
130.7823741634637
 20
130.0630250151491
 30
0.0
 10
130.7823741634637
 20
130.0630250151491
 30
0.0
 10
134.1189463005628
 20
129.0739419848272
 30
0.0
 10
134.1189463005628
 20
129.0739419848272
 30
0.0
  0
SPLINE
  5
51
330
41
100
AcDbEntity
  8
_U+30EC_U+30A4_U+30E4_U+30FC 1
 62
     7
370
     5
100
AcDbSpline
210
0.0
220
0.0
230
1.0
 70
     8
 71
     3
 72
    14
 73
    10
 74
     0
 42
0.0000000001
 43
0.0000000001
 12
1.0
 22
0.0
 32
0.0
 13
1.0
 23
0.0
 33
0.0
 40
0.0
 40
0.0
 40
0.0
 40
0.0
 40
1.0
 40
1.0
 40
1.0
 40
2.0
 40
2.0
 40
2.0
 40
3.0
 40
3.0
 40
3.0
 40
3.0
 10
155.8299485244468
 20
127.7543061851606
 30
0.0
 10
155.4340965901014
 20
126.7459262108865
 30
0.0
 10
155.0320357670255
 20
125.5029137425984
 30
0.0
 10
154.6234485552272
 20
124.0251629469656
 30
0.0
 10
154.6234485552272
 20
124.0251629469656
 30
0.0
 10
154.3454243956535
 20
123.0775665822519
 30
0.0
 10
154.3454243956535
 20
123.0775665822519
 30
0.0
 10
154.3454243956535
 20
123.0775665822519
 30
0.0
 10
155.9126082943553
 20
122.6130288163255
 30
0.0
 10
155.9126082943553
 20
122.6130288163255
 30
0.0
  0
SPLINE
  5
52
330
41
100
AcDbEntity
  8
_U+30EC_U+30A4_U+30E4_U+30FC 1
 62
     7
370
     5
100
AcDbSpline
210
0.0
220
0.0
230
1.0
 70
     8
 71
     3
 72
    20
 73
    16
 74
     0
 42
0.0000000001
 43
0.0000000001
 12
1.0
 22
0.0
 32
0.0
 13
1.0
 23
0.0
 33
0.0
 40
0.0
 40
0.0
 40
0.0
 40
0.0
 40
1.0
 40
1.0
 40
1.0
 40
2.0
 40
2.0
 40
2.0
 40
3.0
 40
3.0
 40
3.0
 40
4.0
 40
4.0
 40
4.0
 40
5.0
 40
5.0
 40
5.0
 40
5.0
 10
147.8107806734773
 20
116.0303014842648
 30
0.0
 10
148.7671259268566
 20
115.2363751156307
 30
0.0
 10
149.7827731231675
 20
114.2803473622432
 30
0.0
 10
150.3660206082877
 20
113.3930759959905
 30
0.0
 10
151.1456241995094
 20
112.2088363039808
 30
0.0
 10
151.6620555752231
 20
110.46181023744
 30
0.0
 10
151.9559194566149
 20
109.2190094358131
 30
0.0
 10
155.3217721485226
 20
108.7476983367262
 30
0.0
 10
158.7138362286505
 20
108.5663352857976
 30
0.0
 10
162.0383433660575
 20
108.3909721951245
 30
0.0
 10
168.3070279283522
 20
108.0592172431797
 30
0.0
 10
174.2260391662346
 20
107.7464091956045
 30
0.0
 10
179.6534545833252
 20
105.6001092503612
 30
0.0
 10
186.2863116363291
 20
102.976994872838
 30
0.0
 10
192.3358859264361
 20
100.3780104946992
 30
0.0
 10
197.2206938573698
 20
96.56084920319417
 30
0.0
  0
SPLINE
  5
53
330
41
100
AcDbEntity
  8
_U+30EC_U+30A4_U+30E4_U+30FC 1
 62
     7
370
     5
100
AcDbSpline
210
0.0
220
0.0
230
1.0
 70
     8
 71
     3
 72
    11
 73
     7
 74
     0
 42
0.0000000001
 43
0.0000000001
 12
1.0
 22
0.0
 32
0.0
 13
1.0
 23
0.0
 33
0.0
 40
0.0
 40
0.0
 40
0.0
 40
0.0
 40
1.0
 40
1.0
 40
1.0
 40
2.0
 40
2.0
 40
2.0
 40
2.0
 10
136.6021842927657
 20
115.9557242639452
 30
0.0
 10
139.6827808808398
 20
113.3425934972784
 30
0.0
 10
142.6314385833911
 20
111.4272924350307
 30
0.0
 10
145.3558001805535
 20
110.6141044002213
 30
0.0
 10
145.9783471091154
 20
110.4282257938524
 30
0.0
 10
146.6039632042657
 20
110.2600919092529
 30
0.0
 10
147.2323662437894
 20
110.1073038575953
 30
0.0
  0
SPLINE
  5
54
330
41
100
AcDbEntity
  8
_U+30EC_U+30A4_U+30E4_U+30FC 1
 62
     7
370
     5
100
AcDbSpline
210
0.0
220
0.0
230
1.0
 70
     8
 71
     3
 72
    11
 73
     7
 74
     0
 42
0.0000000001
 43
0.0000000001
 12
1.0
 22
0.0
 32
0.0
 13
1.0
 23
0.0
 33
0.0
 40
0.0
 40
0.0
 40
0.0
 40
0.0
 40
1.0
 40
1.0
 40
1.0
 40
2.0
 40
2.0
 40
2.0
 40
2.0
 10
206.1355644632658
 20
101.2358601950358
 30
0.0
 10
206.4122127895413
 20
101.1531690860343
 30
0.0
 10
206.690236949115
 20
101.0704805302879
 30
0.0
 10
206.9699544419788
 20
100.9867638125019
 30
0.0
 10
207.5576822047624
 20
102.0726490625764
 30
0.0
 10
208.2487738537978
 20
102.8536637648733
 30
0.0
 10
209.0098213343819
 20
103.396624028799
 30
0.0
  0
SPLINE
  5
55
330
41
100
AcDbEntity
  8
_U+30EC_U+30A4_U+30E4_U+30FC 1
 62
     7
370
     5
100
AcDbSpline
210
0.0
220
0.0
230
1.0
 70
     8
 71
     3
 72
    11
 73
     7
 74
     0
 42
0.0000000001
 43
0.0000000001
 12
1.0
 22
0.0
 32
0.0
 13
1.0
 23
0.0
 33
0.0
 40
0.0
 40
0.0
 40
0.0
 40
0.0
 40
1.0
 40
1.0
 40
1.0
 40
2.0
 40
2.0
 40
2.0
 40
2.0
 10
199.561268519879
 20
100.6171232663767
 30
0.0
 10
199.561268519879
 20
100.6171232663767
 30
0.0
 10
199.5099443945673
 20
100.8744746487
 30
0.0
 10
199.5099443945673
 20
100.8744746487
 30
0.0
 10
199.4234735233944
 20
101.3044049155093
 30
0.0
 10
199.3494305057179
 20
101.7147207383746
 30
0.0
 10
199.2863840824474
 20
102.1064098950485
 30
0.0
  0
SPLINE
  5
56
330
41
100
AcDbEntity
  8
_U+30EC_U+30A4_U+30E4_U+30FC 1
 62
     7
370
     5
100
AcDbSpline
210
0.0
220
0.0
230
1.0
 70
     8
 71
     3
 72
    11
 73
     7
 74
     0
 42
0.0000000001
 43
0.0000000001
 12
1.0
 22
0.0
 32
0.0
 13
1.0
 23
0.0
 33
0.0
 40
0.0
 40
0.0
 40
0.0
 40
0.0
 40
1.0
 40
1.0
 40
1.0
 40
2.0
 40
2.0
 40
2.0
 40
2.0
 10
201.6479842999758
 20
101.3988082464342
 30
0.0
 10
201.1143373691458
 20
101.383286024608
 30
0.0
 10
200.6568249498355
 20
101.3340382480866
 30
0.0
 10
200.3812298878489
 20
101.2317326951411
 30
0.0
 10
200.0859901731589
 20
101.1207840868605
 30
0.0
 10
199.8758051785212
 20
100.8989221480763
 30
0.0
 10
199.7256276823525
 20
100.6322574326572
 30
0.0
  0
SPLINE
  5
57
330
41
100
AcDbEntity
  8
_U+30EC_U+30A4_U+30E4_U+30FC 1
 62
     7
370
     5
100
AcDbSpline
210
0.0
220
0.0
230
1.0
 70
     8
 71
     3
 72
    11
 73
     7
 74
     0
 42
0.0000000001
 43
0.0000000001
 12
1.0
 22
0.0
 32
0.0
 13
1.0
 23
0.0
 33
0.0
 40
0.0
 40
0.0
 40
0.0
 40
0.0
 40
1.0
 40
1.0
 40
1.0
 40
2.0
 40
2.0
 40
2.0
 40
2.0
 10
203.2358370372441
 20
98.4914960983837
 30
0.0
 10
203.70196230313
 20
98.52801108647893
 30
0.0
 10
204.0843381267081
 20
98.61757887294485
 30
0.0
 10
204.285527288242
 20
98.78846442414074
 30
0.0
 10
204.7261819992222
 20
99.16120941463123
 30
0.0
 10
205.0755025458658
 20
99.78650800978964
 30
0.0
 10
205.310099762103
 20
100.3042799410246
 30
0.0
  0
SPLINE
  5
58
330
41
100
AcDbEntity
  8
_U+30EC_U+30A4_U+30E4_U+30FC 1
 62
     7
370
     5
100
AcDbSpline
210
0.0
220
0.0
230
1.0
 70
     8
 71
     3
 72
    14
 73
    10
 74
     0
 42
0.0000000001
 43
0.0000000001
 12
1.0
 22
0.0
 32
0.0
 13
1.0
 23
0.0
 33
0.0
 40
0.0
 40
0.0
 40
0.0
 40
0.0
 40
1.0
 40
1.0
 40
1.0
 40
2.0
 40
2.0
 40
2.0
 40
3.0
 40
3.0
 40
3.0
 40
3.0
 10
207.2186980467439
 20
87.10270083338052
 30
0.0
 10
206.9382749983425
 20
87.11614166637095
 30
0.0
 10
206.6492088946061
 20
87.21707138601825
 30
0.0
 10
206.3636352907806
 20
87.31387360577084
 30
0.0
 10
205.9398786349249
 20
87.45477304662064
 30
0.0
 10
204.9948928257001
 20
88.03149414301836
 30
0.0
 10
203.3009245355835
 20
90.23564964234123
 30
0.0
 10
201.6117943940414
 20
93.00139442119418
 30
0.0
 10
201.085409592106
 20
94.30155453861136
 30
0.0
 10
200.1245487832863
 20
97.78936250518552
 30
0.0
  0
SPLINE
  5
59
330
41
100
AcDbEntity
  8
_U+30EC_U+30A4_U+30E4_U+30FC 1
 62
     7
370
     5
100
AcDbSpline
210
0.0
220
0.0
230
1.0
 70
     8
 71
     3
 72
    11
 73
     7
 74
     0
 42
0.0000000001
 43
0.0000000001
 12
1.0
 22
0.0
 32
0.0
 13
1.0
 23
0.0
 33
0.0
 40
0.0
 40
0.0
 40
0.0
 40
0.0
 40
1.0
 40
1.0
 40
1.0
 40
2.0
 40
2.0
 40
2.0
 40
2.0
 10
207.6338469250415
 20
85.23061504780809
 30
0.0
 10
207.8842838630968
 20
85.30572143478085
 30
0.0
 10
207.880156363202
 20
85.52691309580445
 30
0.0
 10
207.91045997354
 20
85.58445114989208
 30
0.0
 10
207.91045997354
 20
85.58445114989208
 30
0.0
 10
208.4847821811101
 20
87.72041470651023
 30
0.0
 10
208.4847821811101
 20
87.72041470651023
 30
0.0
  0
SPLINE
  5
5A
330
41
100
AcDbEntity
  8
_U+30EC_U+30A4_U+30E4_U+30FC 1
 62
     7
370
     5
100
AcDbSpline
210
0.0
220
0.0
230
1.0
 70
     8
 71
     3
 72
     8
 73
     4
 74
     0
 42
0.0000000001
 43
0.0000000001
 12
1.0
 22
0.0
 32
0.0
 13
1.0
 23
0.0
 33
0.0
 40
0.0
 40
0.0
 40
0.0
 40
0.0
 40
1.0
 40
1.0
 40
1.0
 40
1.0
 10
194.8359916179574
 20
92.7250965232746
 30
0.0
 10
195.3637775158548
 20
92.94487707322308
 30
0.0
 10
195.8864177802989
 20
93.22325401056554
 30
0.0
 10
196.3587166571384
 20
93.50470011449636
 30
0.0
  0
SPLINE
  5
5B
330
41
100
AcDbEntity
  8
_U+30EC_U+30A4_U+30E4_U+30FC 1
 62
     7
370
     5
100
AcDbSpline
210
0.0
220
0.0
230
1.0
 70
     8
 71
     3
 72
     8
 73
     4
 74
     0
 42
0.0000000001
 43
0.0000000001
 12
1.0
 22
0.0
 32
0.0
 13
1.0
 23
0.0
 33
0.0
 40
0.0
 40
0.0
 40
0.0
 40
0.0
 40
1.0
 40
1.0
 40
1.0
 40
1.0
 10
192.0185976011975
 20
96.61150809079064
 30
0.0
 10
190.7862742993033
 20
96.42167837341138
 30
0.0
 10
189.5267518314364
 20
95.80361172251291
 30
0.0
 10
188.6510162982227
 20
95.29169590223964
 30
0.0
  0
SPLINE
  5
5C
330
41
100
AcDbEntity
  8
_U+30EC_U+30A4_U+30E4_U+30FC 1
 62
     7
370
     5
100
AcDbSpline
210
0.0
220
0.0
230
1.0
 70
     8
 71
     3
 72
    11
 73
     7
 74
     0
 42
0.0000000001
 43
0.0000000001
 12
1.0
 22
0.0
 32
0.0
 13
1.0
 23
0.0
 33
0.0
 40
0.0
 40
0.0
 40
0.0
 40
0.0
 40
1.0
 40
1.0
 40
1.0
 40
2.0
 40
2.0
 40
2.0
 40
2.0
 10
162.8196755683462
 20
101.2082729735174
 30
0.0
 10
163.4022527757057
 20
101.3181985262685
 30
0.0
 10
163.913851095987
 20
101.5180118545042
 30
0.0
 10
164.2097963662146
 20
101.8608060124255
 30
0.0
 10
164.7685610741816
 20
102.509140995885
 30
0.0
 10
164.8033802399599
 20
104.0766737336717
 30
0.0
 10
164.712751631161
 20
105.4071777514261
 30
0.0
  0
SPLINE
  5
5D
330
41
100
AcDbEntity
  8
_U+30EC_U+30A4_U+30E4_U+30FC 1
 62
     7
370
     5
100
AcDbSpline
210
0.0
220
0.0
230
1.0
 70
     8
 71
     3
 72
     8
 73
     4
 74
     0
 42
0.0000000001
 43
0.0000000001
 12
1.0
 22
0.0
 32
0.0
 13
1.0
 23
0.0
 33
0.0
 40
0.0
 40
0.0
 40
0.0
 40
0.0
 40
1.0
 40
1.0
 40
1.0
 40
1.0
 10
130.5274249673681
 20
115.1750623394171
 30
0.0
 10
130.6276811118547
 20
115.0718777490098
 30
0.0
 10
130.7492836087523
 20
114.9488965118538
 30
0.0
 10
130.8881369385432
 20
114.8117717931299
 30
0.0
  0
POLYLINE
  5
5E
330
41
100
AcDbEntity
  8
_U+30EC_U+30A4_U+30E4_U+30FC 1
 62
     7
370
     5
100
AcDb2dPolyline
 66
     1
 10
0.0
 20
0.0
 30
0.0
  0
VERTEX
  5
5F
330
5E
100
AcDbEntity
  8
_U+30EC_U+30A4_U+30E4_U+30FC 1
 62
     7
370
     5
100
AcDbVertex
100
AcDb2dVertex
 10
93.32316067468338
 20
141.1679400096169
 30
0.0
  0
VERTEX
  5
60
330
5E
100
AcDbEntity
  8
_U+30EC_U+30A4_U+30E4_U+30FC 1
 62
     7
370
     5
100
AcDbVertex
100
AcDb2dVertex
 10
89.84911104109155
 20
142.1978747055633
 30
0.0
  0
VERTEX
  5
61
330
5E
100
AcDbEntity
  8
_U+30EC_U+30A4_U+30E4_U+30FC 1
 62
     7
370
     5
100
AcDbVertex
100
AcDb2dVertex
 10
88.38942246722019
 20
141.4554538911707
 30
0.0
  0
SEQEND
  5
62
330
5E
100
AcDbEntity
  8
_U+30EC_U+30A4_U+30E4_U+30FC 1
 62
     7
370
     5
  0
POLYLINE
  5
63
330
41
100
AcDbEntity
  8
_U+30EC_U+30A4_U+30E4_U+30FC 1
 62
     7
370
     5
100
AcDb2dPolyline
 66
     1
 10
0.0
 20
0.0
 30
0.0
  0
VERTEX
  5
64
330
63
100
AcDbEntity
  8
_U+30EC_U+30A4_U+30E4_U+30FC 1
 62
     7
370
     5
100
AcDbVertex
100
AcDb2dVertex
 10
115.2225815048715
 20
134.6760176752396
 30
0.0
  0
VERTEX
  5
65
330
63
100
AcDbEntity
  8
_U+30EC_U+30A4_U+30E4_U+30FC 1
 62
     7
370
     5
100
AcDbVertex
100
AcDb2dVertex
 10
98.52112943096104
 20
139.6269749650932
 30
0.0
  0
SEQEND
  5
66
330
63
100
AcDbEntity
  8
_U+30EC_U+30A4_U+30E4_U+30FC 1
 62
     7
370
     5
  0
SPLINE
  5
67
330
41
100
AcDbEntity
  8
_U+30EC_U+30A4_U+30E4_U+30FC 1
 62
     7
370
     5
100
AcDbSpline
210
0.0
220
0.0
230
1.0
 70
     8
 71
     3
 72
     8
 73
     4
 74
     0
 42
0.0000000001
 43
0.0000000001
 12
1.0
 22
0.0
 32
0.0
 13
1.0
 23
0.0
 33
0.0
 40
0.0
 40
0.0
 40
0.0
 40
0.0
 40
1.0
 40
1.0
 40
1.0
 40
1.0
 10
111.8894694164722
 20
136.8850062299948
 30
0.0
 10
112.3331904674749
 20
136.8193895650021
 30
0.0
 10
112.7035365691377
 20
136.9911217828431
 30
0.0
 10
113.0049851725582
 20
137.2639601092157
 30
0.0
  0
SPLINE
  5
68
330
41
100
AcDbEntity
  8
_U+30EC_U+30A4_U+30E4_U+30FC 1
 62
     7
370
     5
100
AcDbSpline
210
0.0
220
0.0
230
1.0
 70
     8
 71
     3
 72
     8
 73
     4
 74
     0
 42
0.0000000001
 43
0.0000000001
 12
1.0
 22
0.0
 32
0.0
 13
1.0
 23
0.0
 33
0.0
 40
0.0
 40
0.0
 40
0.0
 40
0.0
 40
1.0
 40
1.0
 40
1.0
 40
1.0
 10
109.0892930502336
 20
141.7353477729189
 30
0.0
 10
108.2982947370803
 20
141.8547277698733
 30
0.0
 10
107.7236550295184
 20
141.4607808354793
 30
0.0
 10
107.3388450393357
 20
141.0153283468437
 30
0.0
  0
SPLINE
  5
69
330
41
100
AcDbEntity
  8
_U+30EC_U+30A4_U+30E4_U+30FC 1
 62
     7
370
     5
100
AcDbSpline
210
0.0
220
0.0
230
1.0
 70
     8
 71
     3
 72
    14
 73
    10
 74
     0
 42
0.0000000001
 43
0.0000000001
 12
1.0
 22
0.0
 32
0.0
 13
1.0
 23
0.0
 33
0.0
 40
0.0
 40
0.0
 40
0.0
 40
0.0
 40
1.0
 40
1.0
 40
1.0
 40
2.0
 40
2.0
 40
2.0
 40
3.0
 40
3.0
 40
3.0
 40
3.0
 10
98.1397413851355
 20
142.2536841485839
 30
0.0
 10
97.85173608664819
 20
142.2462758154396
 30
0.0
 10
97.53617390053378
 20
142.2907258143056
 30
0.0
 10
97.197860020276
 20
142.3916555339529
 30
0.0
 10
94.51861869974026
 20
143.1914416308688
 30
0.0
 10
91.72980460422217
 20
146.4070779315109
 30
0.0
 10
90.98015184556962
 20
149.5588297955475
 30
0.0
 10
90.44925658133612
 20
151.7907136274963
 30
0.0
 10
90.81685101640244
 20
153.5423963605849
 30
0.0
 10
91.82625404620597
 20
154.5016696694451
 30
0.0
  0
SPLINE
  5
6A
330
41
100
AcDbEntity
  8
_U+30EC_U+30A4_U+30E4_U+30FC 1
 62
     7
370
     5
100
AcDbSpline
210
0.0
220
0.0
230
1.0
 70
     8
 71
     3
 72
    11
 73
     7
 74
     0
 42
0.0000000001
 43
0.0000000001
 12
1.0
 22
0.0
 32
0.0
 13
1.0
 23
0.0
 33
0.0
 40
0.0
 40
0.0
 40
0.0
 40
0.0
 40
1.0
 40
1.0
 40
1.0
 40
2.0
 40
2.0
 40
2.0
 40
2.0
 10
103.0865676478203
 20
151.9908797335007
 30
0.0
 10
100.2085360545784
 20
154.5149341135512
 30
0.0
 10
97.50206029029299
 20
156.3330801782775
 30
0.0
 10
95.0308872977823
 20
157.0708443261223
 30
0.0
 10
93.14091567933283
 20
157.635147645059
 30
0.0
 10
91.58752933007413
 20
157.3764204294375
 30
0.0
 10
90.52813769043479
 20
156.487067674349
 30
0.0
  0
SPLINE
  5
6B
330
41
100
AcDbEntity
  8
_U+30EC_U+30A4_U+30E4_U+30FC 1
 62
     7
370
     5
100
AcDbSpline
210
0.0
220
0.0
230
1.0
 70
     8
 71
     3
 72
    17
 73
    13
 74
     0
 42
0.0000000001
 43
0.0000000001
 12
1.0
 22
0.0
 32
0.0
 13
1.0
 23
0.0
 33
0.0
 40
0.0
 40
0.0
 40
0.0
 40
0.0
 40
1.0
 40
1.0
 40
1.0
 40
2.0
 40
2.0
 40
2.0
 40
3.0
 40
3.0
 40
3.0
 40
4.0
 40
4.0
 40
4.0
 40
4.0
 10
118.6632230837601
 20
135.1583388550994
 30
0.0
 10
115.709026770239
 20
138.6237420189693
 30
0.0
 10
112.8110279552842
 20
142.0190516545699
 30
0.0
 10
110.0132533044392
 20
145.0736485210851
 30
0.0
 10
110.1321041347404
 20
144.9889113010247
 30
0.0
 10
110.2010369107595
 20
144.942062413331
 30
0.0
 10
110.2010369107595
 20
144.942062413331
 30
0.0
 10
110.2010369107595
 20
144.942062413331
 30
0.0
 10
109.8255049758957
 20
148.9218189784657
 30
0.0
 10
108.6183347289154
 20
150.9757969816199
 30
0.0
 10
107.4115172597039
 20
153.0327030402549
 30
0.0
 10
104.0163840129876
 20
155.171559374577
 30
0.0
 10
104.0163840129876
 20
155.171559374577
 30
0.0
  0
SPLINE
  5
6C
330
41
100
AcDbEntity
  8
_U+30EC_U+30A4_U+30E4_U+30FC 1
 62
     7
370
     5
100
AcDbSpline
210
0.0
220
0.0
230
1.0
 70
     8
 71
     3
 72
    29
 73
    25
 74
     0
 42
0.0000000001
 43
0.0000000001
 12
1.0
 22
0.0
 32
0.0
 13
1.0
 23
0.0
 33
0.0
 40
0.0
 40
0.0
 40
0.0
 40
0.0
 40
1.0
 40
1.0
 40
1.0
 40
2.0
 40
2.0
 40
2.0
 40
3.0
 40
3.0
 40
3.0
 40
4.0
 40
4.0
 40
4.0
 40
5.0
 40
5.0
 40
5.0
 40
6.0
 40
6.0
 40
6.0
 40
7.0
 40
7.0
 40
7.0
 40
8.0
 40
8.0
 40
8.0
 40
8.0
 10
123.2820365770354
 20
132.311630513338
 30
0.0
 10
123.240020744774
 20
132.3147349577032
 30
0.0
 10
123.1972993569751
 20
132.3190388464823
 30
0.0
 10
123.1539076914154
 20
132.3247538463365
 30
0.0
 10
123.1539076914154
 20
132.3247538463365
 30
0.0
 10
122.33638049005
 20
132.566759395718
 30
0.0
 10
122.33638049005
 20
132.566759395718
 30
0.0
 10
122.2006316046244
 20
132.6361860606134
 30
0.0
 10
122.0655882747363
 20
132.7202177251363
 30
0.0
 10
121.9329438336759
 20
132.8215388556837
 30
0.0
 10
121.6838827289189
 20
133.0111888288241
 30
0.0
 10
121.4751088453562
 20
133.2216560456768
 30
0.0
 10
121.3045760719291
 20
133.4526582999702
 30
0.0
 10
121.1343638586052
 20
133.6836538116681
 30
0.0
 10
120.9535269142184
 20
134.0293760250702
 30
0.0
 10
120.7653905301293
 20
134.487740180043
 30
0.0
 10
120.6041710897979
 20
134.8668704481484
 30
0.0
 10
120.4739638587705
 20
135.1188948861631
 30
0.0
 10
120.3740541512243
 20
135.2434254385417
 30
0.0
 10
120.2141752664142
 20
135.4504707110373
 30
0.0
 10
120.0422666596889
 20
135.5820568187913
 30
0.0
 10
119.8579755532794
 20
135.6371959840513
 30
0.0
 10
119.7515072226623
 20
135.6688754276875
 30
0.0
 10
119.6598908361107
 20
135.6654534833304
 30
0.0
 10
119.5837261158317
 20
135.6272123731949
 30
0.0
  0
SPLINE
  5
6D
330
41
100
AcDbEntity
  8
_U+30EC_U+30A4_U+30E4_U+30FC 1
 62
     7
370
     5
100
AcDbSpline
210
0.0
220
0.0
230
1.0
 70
     8
 71
     3
 72
    23
 73
    19
 74
     0
 42
0.0000000001
 43
0.0000000001
 12
1.0
 22
0.0
 32
0.0
 13
1.0
 23
0.0
 33
0.0
 40
0.0
 40
0.0
 40
0.0
 40
0.0
 40
1.0
 40
1.0
 40
1.0
 40
2.0
 40
2.0
 40
2.0
 40
3.0
 40
3.0
 40
3.0
 40
4.0
 40
4.0
 40
4.0
 40
5.0
 40
5.0
 40
5.0
 40
6.0
 40
6.0
 40
6.0
 40
6.0
 10
125.7129223483517
 20
140.0824110760905
 30
0.0
 10
125.619894850725
 20
140.7772739084725
 30
0.0
 10
125.5644381854732
 20
141.259415285061
 30
0.0
 10
125.5461642970505
 20
141.5288316670765
 30
0.0
 10
125.5234454087412
 20
141.8765999915375
 30
0.0
 10
125.5210112421367
 20
142.2407372044698
 30
0.0
 10
125.5389323527906
 20
142.6214549725347
 30
0.0
 10
125.3253254137957
 20
142.7142708035001
 30
0.0
 10
125.0697026425394
 20
142.834356355992
 30
0.0
 10
124.7734398723199
 20
142.9812882966879
 30
0.0
 10
124.2511555244926
 20
143.2484469009832
 30
0.0
 10
123.8222451743647
 20
143.4318913407476
 30
0.0
 10
123.4863333024617
 20
143.5321507826342
 30
0.0
 10
122.8135124223218
 20
143.7331635552837
 30
0.0
 10
122.2543949365861
 20
143.7383493884847
 30
0.0
 10
121.808236892413
 20
143.5497191155193
 30
0.0
 10
121.4999091225013
 20
143.4189832974787
 30
0.0
 10
121.2525444141312
 20
143.2170849573389
 30
0.0
 10
121.0658160780204
 20
142.9438938531974
 30
0.0
  0
SPLINE
  5
6E
330
41
100
AcDbEntity
  8
_U+30EC_U+30A4_U+30E4_U+30FC 1
 62
     7
370
     5
100
AcDbSpline
210
0.0
220
0.0
230
1.0
 70
     8
 71
     3
 72
    29
 73
    25
 74
     0
 42
0.0000000001
 43
0.0000000001
 12
1.0
 22
0.0
 32
0.0
 13
1.0
 23
0.0
 33
0.0
 40
0.0
 40
0.0
 40
0.0
 40
0.0
 40
1.0
 40
1.0
 40
1.0
 40
2.0
 40
2.0
 40
2.0
 40
3.0
 40
3.0
 40
3.0
 40
4.0
 40
4.0
 40
4.0
 40
5.0
 40
5.0
 40
5.0
 40
6.0
 40
6.0
 40
6.0
 40
7.0
 40
7.0
 40
7.0
 40
8.0
 40
8.0
 40
8.0
 40
8.0
 10
126.5921151036994
 20
131.3053319278997
 30
0.0
 10
126.5921151036994
 20
131.3053319278997
 30
0.0
 10
124.8072007047919
 20
131.8344985810662
 30
0.0
 10
124.8072007047919
 20
131.8344985810662
 30
0.0
 10
125.3704809681992
 20
132.0473999645235
 30
0.0
 10
125.7532095695461
 20
132.409494411342
 30
0.0
 10
125.9519998422523
 20
132.9248641088042
 30
0.0
 10
126.159045114748
 20
133.4609452062387
 30
0.0
 10
126.1797178919983
 20
134.0765776905326
 30
0.0
 10
126.0146916351631
 20
134.7716204505784
 30
0.0
 10
125.9020465101934
 20
135.2437782163104
 30
0.0
 10
125.6670965161875
 20
135.7632787586124
 30
0.0
 10
125.3094888575614
 20
136.3324151329814
 30
0.0
 10
124.9525804233052
 20
136.9003555213306
 30
0.0
 10
124.2866418291836
 20
137.7386931526599
 30
0.0
 10
123.3106499691725
 20
138.8478617354737
 30
0.0
 10
122.7749185344176
 20
139.4638469975364
 30
0.0
 10
122.4138888582854
 20
139.9266914301727
 30
0.0
 10
122.2264902150758
 20
140.2371005889202
 30
0.0
 10
122.0390593865242
 20
140.5476508587751
 30
0.0
 10
121.9053918899344
 20
140.8716772393974
 30
0.0
 10
121.8247821697687
 20
141.2099911196552
 30
0.0
 10
121.7235027473468
 20
141.6352647199167
 30
0.0
 10
121.730026061075
 20
142.0023652661067
 30
0.0
 10
121.8447493914815
 20
142.3106930360184
 30
0.0
  0
SPLINE
  5
6F
330
41
100
AcDbEntity
  8
_U+30EC_U+30A4_U+30E4_U+30FC 1
 62
     7
370
     5
100
AcDbSpline
210
0.0
220
0.0
230
1.0
 70
     8
 71
     3
 72
    14
 73
    10
 74
     0
 42
0.0000000001
 43
0.0000000001
 12
1.0
 22
0.0
 32
0.0
 13
1.0
 23
0.0
 33
0.0
 40
0.0
 40
0.0
 40
0.0
 40
0.0
 40
1.0
 40
1.0
 40
1.0
 40
2.0
 40
2.0
 40
2.0
 40
3.0
 40
3.0
 40
3.0
 40
3.0
 10
128.985394764864
 20
130.7704888561963
 30
0.0
 10
128.9075367112948
 20
130.8619608280999
 30
0.0
 10
128.8159203247432
 20
130.9783774917966
 30
0.0
 10
128.7115333829619
 20
131.1199824881839
 30
0.0
 10
128.3918108911187
 20
131.5573563659144
 30
0.0
 10
128.1213714535737
 20
131.8083224706229
 30
0.0
 10
127.9012381258565
 20
131.8742919133843
 30
0.0
 10
127.8116678503638
 20
131.9009971904808
 30
0.0
 10
127.7369142411598
 20
131.9002916349432
 30
0.0
 10
127.6766277458585
 20
131.8722138559207
 30
0.0
  0
SPLINE
  5
70
330
41
100
AcDbEntity
  8
_U+30EC_U+30A4_U+30E4_U+30FC 1
 62
     7
370
     5
100
AcDbSpline
210
0.0
220
0.0
230
1.0
 70
     8
 71
     3
 72
    20
 73
    16
 74
     0
 42
0.0000000001
 43
0.0000000001
 12
1.0
 22
0.0
 32
0.0
 13
1.0
 23
0.0
 33
0.0
 40
0.0
 40
0.0
 40
0.0
 40
0.0
 40
1.0
 40
1.0
 40
1.0
 40
2.0
 40
2.0
 40
2.0
 40
3.0
 40
3.0
 40
3.0
 40
4.0
 40
4.0
 40
4.0
 40
5.0
 40
5.0
 40
5.0
 40
5.0
 10
128.2164450622593
 20
137.4611981597393
 30
0.0
 10
128.273665616355
 20
137.4734395483159
 30
0.0
 10
128.3205145040487
 20
137.5030728808933
 30
0.0
 10
128.3570270031172
 20
137.5505920463476
 30
0.0
 10
128.4310750567836
 20
137.6457009328101
 30
0.0
 10
128.4438456120134
 20
137.791750929084
 30
0.0
 10
128.396647190123
 20
137.9896945351452
 30
0.0
 10
128.3563214475797
 20
138.1600509196879
 30
0.0
 10
128.2409278394125
 20
138.3998339691261
 30
0.0
 10
128.051450899802
 20
138.7088320167984
 30
0.0
 10
127.8409484051724
 20
139.044041452691
 30
0.0
 10
127.7131370195442
 20
139.3067550570997
 30
0.0
 10
127.6680167429175
 20
139.4969022744709
 30
0.0
 10
127.6042698000994
 20
139.7640608787662
 30
0.0
 10
127.6080445222253
 20
139.9993636505409
 30
0.0
 10
127.6790234093034
 20
140.2024578120262
 30
0.0
  0
SPLINE
  5
71
330
41
100
AcDbEntity
  8
_U+30EC_U+30A4_U+30E4_U+30FC 1
 62
     7
370
     5
100
AcDbSpline
210
0.0
220
0.0
230
1.0
 70
     8
 71
     3
 72
    20
 73
    16
 74
     0
 42
0.0000000001
 43
0.0000000001
 12
1.0
 22
0.0
 32
0.0
 13
1.0
 23
0.0
 33
0.0
 40
0.0
 40
0.0
 40
0.0
 40
0.0
 40
1.0
 40
1.0
 40
1.0
 40
2.0
 40
2.0
 40
2.0
 40
3.0
 40
3.0
 40
3.0
 40
4.0
 40
4.0
 40
4.0
 40
5.0
 40
5.0
 40
5.0
 40
5.0
 10
134.0941460234178
 20
135.4184384896323
 30
0.0
 10
133.4647199283646
 20
135.5706973746367
 30
0.0
 10
132.7377860580214
 20
135.7701932028805
 30
0.0
 10
131.913062190173
 20
136.0163262521567
 30
0.0
 10
131.8382733031921
 20
138.3670961921835
 30
0.0
 10
131.8944388559152
 20
139.9652888538977
 30
0.0
 10
132.0818663525331
 20
140.8106819631758
 30
0.0
 10
130.5139808369776
 20
141.2787122290131
 30
0.0
 10
129.4846138565176
 20
141.5198711117495
 30
0.0
 10
128.9940025424222
 20
141.535040555807
 30
0.0
 10
128.1416914530553
 20
141.5569127774712
 30
0.0
 10
127.5477548015412
 20
141.3386527424433
 30
0.0
 10
127.2115223101192
 20
140.8806377947244
 30
0.0
 10
127.18880342181
 20
140.8494522399644
 30
0.0
 10
127.1670723112532
 20
140.8174200185594
 30
0.0
 10
127.1467555237689
 20
140.7846822416168
 30
0.0
  0
SPLINE
  5
72
330
41
100
AcDbEntity
  8
_U+30EC_U+30A4_U+30E4_U+30FC 1
 62
     7
370
     5
100
AcDbSpline
210
0.0
220
0.0
230
1.0
 70
     8
 71
     3
 72
    29
 73
    25
 74
     0
 42
0.0000000001
 43
0.0000000001
 12
1.0
 22
0.0
 32
0.0
 13
1.0
 23
0.0
 33
0.0
 40
0.0
 40
0.0
 40
0.0
 40
0.0
 40
1.0
 40
1.0
 40
1.0
 40
2.0
 40
2.0
 40
2.0
 40
3.0
 40
3.0
 40
3.0
 40
4.0
 40
4.0
 40
4.0
 40
5.0
 40
5.0
 40
5.0
 40
6.0
 40
6.0
 40
6.0
 40
7.0
 40
7.0
 40
7.0
 40
8.0
 40
8.0
 40
8.0
 40
8.0
 10
140.6587758559401
 20
127.4332110792528
 30
0.0
 10
140.6212050235653
 20
127.4371942488063
 30
0.0
 10
140.5829639134298
 20
127.4414981375854
 30
0.0
 10
140.5440525255336
 20
127.4461195263564
 30
0.0
 10
140.5440525255336
 20
127.4461195263564
 30
0.0
 10
140.5516372475623
 20
127.1670723112532
 30
0.0
 10
140.5516372475623
 20
127.1670723112532
 30
0.0
 10
140.5516372475623
 20
127.1670723112532
 30
0.0
 10
139.0922661736829
 20
127.5996131335516
 30
0.0
 10
139.0922661736829
 20
127.5996131335516
 30
0.0
 10
139.0922661736829
 20
127.5996131335516
 30
0.0
 10
139.0754033963353
 20
128.0092234008793
 30
0.0
 10
139.0754033963353
 20
128.0092234008793
 30
0.0
 10
138.7884221875252
 20
128.0530031219846
 30
0.0
 10
138.526269521456
 20
128.1106822871798
 30
0.0
 10
138.291637027442
 20
128.1806381187284
 30
0.0
 10
138.0904478659081
 20
128.2407514505281
 30
0.0
 10
137.8186360766566
 20
128.3523703365694
 30
0.0
 10
137.4761912149124
 20
128.5158475546209
 30
0.0
 10
137.2908417751966
 20
128.6012903302189
 30
0.0
 10
137.147860945511
 20
128.6657075507977
 30
0.0
 10
137.0469312258637
 20
128.7080761608279
 30
0.0
 10
136.7571948443666
 20
133.7344538103721
 30
0.0
 10
136.7816423437429
 20
136.9880173384778
 30
0.0
 10
137.1213320572989
 20
138.4682023007152
 30
0.0
  0
SPLINE
  5
73
330
41
100
AcDbEntity
  8
_U+30EC_U+30A4_U+30E4_U+30FC 1
 62
     7
370
     5
100
AcDbSpline
210
0.0
220
0.0
230
1.0
 70
     8
 71
     3
 72
    35
 73
    31
 74
     0
 42
0.0000000001
 43
0.0000000001
 12
1.0
 22
0.0
 32
0.0
 13
1.0
 23
0.0
 33
0.0
 40
0.0
 40
0.0
 40
0.0
 40
0.0
 40
1.0
 40
1.0
 40
1.0
 40
2.0
 40
2.0
 40
2.0
 40
3.0
 40
3.0
 40
3.0
 40
4.0
 40
4.0
 40
4.0
 40
5.0
 40
5.0
 40
5.0
 40
6.0
 40
6.0
 40
6.0
 40
7.0
 40
7.0
 40
7.0
 40
8.0
 40
8.0
 40
8.0
 40
9.0
 40
9.0
 40
9.0
 40
10.0
 40
10.0
 40
10.0
 40
10.0
 10
148.7040845395761
 20
125.2965740256403
 30
0.0
 10
148.5693939874567
 20
125.3485734687581
 30
0.0
 10
148.4078217693566
 20
125.4257612445667
 30
0.0
 10
148.2190151075068
 20
125.5287723530498
 30
0.0
 10
147.9440953922984
 20
125.6734465160255
 30
0.0
 10
147.7370501198027
 20
125.7662976247678
 30
0.0
 10
147.5989023455494
 20
125.8074667903841
 30
0.0
 10
147.4090726281702
 20
125.8641581778267
 30
0.0
 10
147.2688787428579
 20
125.8426034561544
 30
0.0
 10
147.1775798562982
 20
125.7432259586897
 30
0.0
 10
147.0859281919698
 20
125.6433192945719
 30
0.0
 10
147.0628565258917
 20
125.5013999686248
 30
0.0
 10
147.1066009692202
 20
125.3167176362375
 30
0.0
 10
147.1148912467864
 20
125.2822865260048
 30
0.0
 10
147.1279793020081
 20
125.2479965268796
 30
0.0
 10
147.1403618016922
 20
125.2133537499857
 30
0.0
 10
147.1403618016922
 20
125.2133537499857
 30
0.0
 10
145.061266021401
 20
125.8298681787015
 30
0.0
 10
145.061266021401
 20
125.8298681787015
 30
0.0
 10
145.061266021401
 20
125.8298681787015
 30
0.0
 10
145.0712496322574
 20
126.0948042830535
 30
0.0
 10
145.0712496322574
 20
126.0948042830535
 30
0.0
 10
144.4735382586174
 20
126.2541187234335
 30
0.0
 10
143.9595057717315
 20
126.4703009401405
 30
0.0
 10
143.5288699493846
 20
126.742119412759
 30
0.0
 10
143.4093135635458
 20
129.9884477948295
 30
0.0
 10
143.3435205096688
 20
131.9729991330883
 30
0.0
 10
143.3304360752786
 20
132.6963027446037
 30
0.0
 10
143.3073607883691
 20
134.1985329651991
 30
0.0
 10
143.3042563440038
 20
135.2358407165129
 30
0.0
 10
143.3208016213595
 20
135.808434313016
 30
0.0
  0
SPLINE
  5
74
330
41
100
AcDbEntity
  8
_U+30EC_U+30A4_U+30E4_U+30FC 1
 62
     7
370
     5
100
AcDbSpline
210
0.0
220
0.0
230
1.0
 70
     8
 71
     3
 72
    29
 73
    25
 74
     0
 42
0.0000000001
 43
0.0000000001
 12
1.0
 22
0.0
 32
0.0
 13
1.0
 23
0.0
 33
0.0
 40
0.0
 40
0.0
 40
0.0
 40
0.0
 40
1.0
 40
1.0
 40
1.0
 40
2.0
 40
2.0
 40
2.0
 40
3.0
 40
3.0
 40
3.0
 40
4.0
 40
4.0
 40
4.0
 40
5.0
 40
5.0
 40
5.0
 40
6.0
 40
6.0
 40
6.0
 40
7.0
 40
7.0
 40
7.0
 40
8.0
 40
8.0
 40
8.0
 40
8.0
 10
146.2239862695153
 20
134.0891365791011
 30
0.0
 10
146.0985737727149
 20
133.6145832999297
 30
0.0
 10
146.1058057169748
 20
133.0835082714235
 30
0.0
 10
146.2456821022951
 20
132.4952513419867
 30
0.0
 10
146.3762451545198
 20
131.9461174671074
 30
0.0
 10
146.6060445931015
 20
131.4372708134225
 30
0.0
 10
146.9353979180324
 20
130.9677236031795
 30
0.0
 10
147.1782501340589
 20
130.6181913898745
 30
0.0
 10
147.4111540170059
 20
130.4106555229528
 30
0.0
 10
147.6337215113278
 20
130.344153619088
 30
0.0
 10
147.7660131746194
 20
130.3048894534231
 30
0.0
 10
147.8652142831997
 20
130.3284902861543
 30
0.0
 10
147.9320694074615
 20
130.4163319505799
 30
0.0
 10
147.9985290020207
 20
130.5033269483605
 30
0.0
 10
148.0105940017129
 20
130.6362888894128
 30
0.0
 10
147.9685781694515
 20
130.8132069404548
 30
0.0
 10
147.9313638519059
 20
130.969593325354
 30
0.0
 10
147.8000915070833
 20
131.1983697084063
 30
0.0
 10
147.5748076239419
 20
131.4991127562893
 30
0.0
 10
147.1541554124514
 20
132.0608407975139
 30
0.0
 10
146.904035974388
 20
132.5078455083321
 30
0.0
 10
146.8248020875206
 20
132.8416791109264
 30
0.0
 10
146.685278479969
 20
133.4282074292962
 30
0.0
 10
146.7534704226737
 20
133.9129240835967
 30
0.0
 10
147.0297659711804
 20
134.2955115738361
 30
0.0
  0
SPLINE
  5
75
330
41
100
AcDbEntity
  8
_U+30EC_U+30A4_U+30E4_U+30FC 1
 62
     7
370
     5
100
AcDbSpline
210
0.0
220
0.0
230
1.0
 70
     8
 71
     3
 72
    23
 73
    19
 74
     0
 42
0.0000000001
 43
0.0000000001
 12
1.0
 22
0.0
 32
0.0
 13
1.0
 23
0.0
 33
0.0
 40
0.0
 40
0.0
 40
0.0
 40
0.0
 40
1.0
 40
1.0
 40
1.0
 40
2.0
 40
2.0
 40
2.0
 40
3.0
 40
3.0
 40
3.0
 40
4.0
 40
4.0
 40
4.0
 40
5.0
 40
5.0
 40
5.0
 40
6.0
 40
6.0
 40
6.0
 40
6.0
 10
153.8497010749671
 20
127.8177003502099
 30
0.0
 10
153.8497010749671
 20
127.8177003502099
 30
0.0
 10
152.1088838971569
 20
133.7222476995724
 30
0.0
 10
152.1088838971569
 20
133.7222476995724
 30
0.0
 10
152.0265455659242
 20
133.9473904716063
 30
0.0
 10
151.9862230669528
 20
134.0884663013404
 30
0.0
 10
151.9869286224904
 20
134.1459690776512
 30
0.0
 10
151.9731388508959
 20
134.1940526875356
 30
0.0
 10
151.8997610731363
 20
134.508236568409
 30
0.0
 10
151.7674694065027
 20
135.0899318313465
 30
0.0
 10
151.4529289138917
 20
135.0797718316057
 30
0.0
 10
151.0130150362259
 20
135.1593584962419
 30
0.0
 10
150.447300606214
 20
135.3281626586021
 30
0.0
 10
149.397927855208
 20
135.6351145952155
 30
0.0
 10
148.5266725996578
 20
135.7207337596979
 30
0.0
 10
147.8318062284964
 20
135.5851612631566
 30
0.0
 10
147.2967834643682
 20
135.4806332102678
 30
0.0
 10
146.8861148637341
 20
135.2451540496087
 30
0.0
 10
146.6012115376693
 20
134.8789388551691
 30
0.0
  0
SPLINE
  5
76
330
41
100
AcDbEntity
  8
_U+30EC_U+30A4_U+30E4_U+30FC 1
 62
     7
370
     5
100
AcDbSpline
210
0.0
220
0.0
230
1.0
 70
     8
 71
     3
 72
     8
 73
     4
 74
     0
 42
0.0000000001
 43
0.0000000001
 12
1.0
 22
0.0
 32
0.0
 13
1.0
 23
0.0
 33
0.0
 40
0.0
 40
0.0
 40
0.0
 40
0.0
 40
1.0
 40
1.0
 40
1.0
 40
1.0
 10
158.6931634514001
 20
133.5207057602697
 30
0.0
 10
158.2084115193227
 20
133.3283007651783
 30
0.0
 10
157.7078551432041
 20
132.8897274430339
 30
0.0
 10
157.1917805162578
 20
132.2058677382584
 30
0.0
  0
SPLINE
  5
77
330
41
100
AcDbEntity
  8
_U+30EC_U+30A4_U+30E4_U+30FC 1
 62
     7
370
     5
100
AcDbSpline
210
0.0
220
0.0
230
1.0
 70
     8
 71
     3
 72
    20
 73
    16
 74
     0
 42
0.0000000001
 43
0.0000000001
 12
1.0
 22
0.0
 32
0.0
 13
1.0
 23
0.0
 33
0.0
 40
0.0
 40
0.0
 40
0.0
 40
0.0
 40
1.0
 40
1.0
 40
1.0
 40
2.0
 40
2.0
 40
2.0
 40
3.0
 40
3.0
 40
3.0
 40
4.0
 40
4.0
 40
4.0
 40
5.0
 40
5.0
 40
5.0
 40
5.0
 10
168.0341896019796
 20
119.0197755746637
 30
0.0
 10
168.0341896019796
 20
119.0197755746637
 30
0.0
 10
166.6327093599565
 20
119.4352419529531
 30
0.0
 10
166.6327093599565
 20
119.4352419529531
 30
0.0
 10
166.6327093599565
 20
119.4352419529531
 30
0.0
 10
166.6413171375147
 20
119.6557280584392
 30
0.0
 10
166.6413171375147
 20
119.6557280584392
 30
0.0
 10
166.0432529861059
 20
119.8154305543648
 30
0.0
 10
165.5296085547656
 20
120.031259993303
 30
0.0
 10
165.09861995465
 20
120.3030752641462
 30
0.0
 10
164.97941634658
 20
123.5495479590995
 30
0.0
 10
164.9132705149342
 20
125.5342756862427
 30
0.0
 10
164.9005352374813
 20
126.2575759455676
 30
0.0
 10
164.8771107936345
 20
127.7599859072379
 30
0.0
 10
164.8740063492692
 20
128.7971172696674
 30
0.0
 10
164.8905516266249
 20
129.3697108661704
 30
0.0
  0
SPLINE
  5
78
330
41
100
AcDbEntity
  8
_U+30EC_U+30A4_U+30E4_U+30FC 1
 62
     7
370
     5
100
AcDbSpline
210
0.0
220
0.0
230
1.0
 70
     8
 71
     3
 72
    20
 73
    16
 74
     0
 42
0.0000000001
 43
0.0000000001
 12
1.0
 22
0.0
 32
0.0
 13
1.0
 23
0.0
 33
0.0
 40
0.0
 40
0.0
 40
0.0
 40
0.0
 40
1.0
 40
1.0
 40
1.0
 40
2.0
 40
2.0
 40
2.0
 40
3.0
 40
3.0
 40
3.0
 40
4.0
 40
4.0
 40
4.0
 40
5.0
 40
5.0
 40
5.0
 40
5.0
 10
169.1376431849392
 20
127.7641166347257
 30
0.0
 10
169.2385729045865
 20
127.4402666348065
 30
0.0
 10
169.3798251232051
 20
127.1574414781656
 30
0.0
 10
169.5624228963244
 20
126.9162825954292
 30
0.0
 10
169.7880948350115
 20
126.6177620474895
 30
0.0
 10
170.0154601069887
 20
126.4343176077252
 30
0.0
 10
170.2442055129946
 20
126.3659139983592
 30
0.0
 10
170.3875348197185
 20
126.3231926105602
 30
0.0
 10
170.4967548169321
 20
126.346617054407
 30
0.0
 10
170.5715084261361
 20
126.4365401076685
 30
0.0
 10
170.6459092575713
 20
126.5261103831611
 30
0.0
 10
170.6628073126957
 20
126.6546305238918
 30
0.0
 10
170.623190369262
 20
126.8222320422731
 30
0.0
 10
170.6114471795692
 20
126.8723617632164
 30
0.0
 10
170.5966614810499
 20
126.9207628730927
 30
0.0
 10
170.5790931481648
 20
126.9672589830176
 30
0.0
  0
SPLINE
  5
79
330
41
100
AcDbEntity
  8
_U+30EC_U+30A4_U+30E4_U+30FC 1
 62
     7
370
     5
100
AcDbSpline
210
0.0
220
0.0
230
1.0
 70
     8
 71
     3
 72
    50
 73
    46
 74
     0
 42
0.0000000001
 43
0.0000000001
 12
1.0
 22
0.0
 32
0.0
 13
1.0
 23
0.0
 33
0.0
 40
0.0
 40
0.0
 40
0.0
 40
0.0
 40
1.0
 40
1.0
 40
1.0
 40
2.0
 40
2.0
 40
2.0
 40
3.0
 40
3.0
 40
3.0
 40
4.0
 40
4.0
 40
4.0
 40
5.0
 40
5.0
 40
5.0
 40
6.0
 40
6.0
 40
6.0
 40
7.0
 40
7.0
 40
7.0
 40
8.0
 40
8.0
 40
8.0
 40
9.0
 40
9.0
 40
9.0
 40
10.0
 40
10.0
 40
10.0
 40
11.0
 40
11.0
 40
11.0
 40
12.0
 40
12.0
 40
12.0
 40
13.0
 40
13.0
 40
13.0
 40
14.0
 40
14.0
 40
14.0
 40
15.0
 40
15.0
 40
15.0
 40
15.0
 10
175.9207130118887
 20
117.2043811765338
 30
0.0
 10
175.9017335679285
 20
117.2169753428792
 30
0.0
 10
175.8824719017532
 20
117.2295342314476
 30
0.0
 10
175.8628221800323
 20
117.2422695089005
 30
0.0
 10
174.7138999563217
 20
118.0007064339956
 30
0.0
 10
173.6844944010236
 20
118.5159383652954
 30
0.0
 10
172.773622179029
 20
118.787930025023
 30
0.0
 10
172.1397114416834
 20
118.9772305757491
 30
0.0
 10
171.25120535324
 20
119.045951685107
 30
0.0
 10
170.107429271309
 20
118.994269741981
 30
0.0
 10
170.107429271309
 20
118.994269741981
 30
0.0
 10
171.831030894003
 20
121.4020485694424
 30
0.0
 10
171.831030894003
 20
121.4020485694424
 30
0.0
 10
171.831030894003
 20
121.4020485694424
 30
0.0
 10
174.8964580380196
 20
125.3847684678347
 30
0.0
 10
174.8964580380196
 20
125.3847684678347
 30
0.0
 10
175.2423610673005
 20
125.8426034561544
 30
0.0
 10
175.6251249560934
 20
126.2799805239855
 30
0.0
 10
176.0450671753828
 20
126.6968195454726
 30
0.0
 10
176.4470971781108
 20
127.099903424078
 30
0.0
 10
176.6231641050788
 20
127.4065025829227
 30
0.0
 10
176.5728579952511
 20
127.6171814664367
 30
0.0
 10
176.5587116067231
 20
127.678000353774
 30
0.0
 10
176.5135913300965
 20
127.7482736853145
 30
0.0
 10
176.4384849431237
 20
127.8269784055288
 30
0.0
 10
176.3637313339197
 20
127.9057184035199
 30
0.0
 10
176.2889777247157
 20
127.9565184022239
 30
0.0
 10
176.2142241155117
 20
127.9789197905413
 30
0.0
 10
176.1570388391929
 20
127.9959589567733
 30
0.0
 10
176.0660971782054
 20
127.9854814570406
 30
0.0
 10
175.941703289131
 20
127.9473814580126
 30
0.0
 10
175.5010838559277
 20
127.8006259062011
 30
0.0
 10
174.9994691465027
 20
127.8120206281326
 30
0.0
 10
174.4361888830954
 20
127.9799428460708
 30
0.0
 10
173.8846561193884
 20
128.1446195085362
 30
0.0
 10
173.0213030858588
 20
128.4965506106688
 30
0.0
 10
171.8465221792605
 20
129.0351749677413
 30
0.0
 10
171.331144795645
 20
129.2708305232378
 30
0.0
 10
170.8953231400971
 20
129.4420655865467
 30
0.0
 10
170.5387749573651
 20
129.5484986393869
 30
0.0
 10
169.9809937189791
 20
129.7150803018037
 30
0.0
 10
169.5624228963244
 20
129.646006414677
 30
0.0
 10
169.2823526256918
 20
129.3421589224288
 30
0.0
 10
169.1510840179297
 20
129.1997072593964
 30
0.0
 10
169.0663467978693
 20
129.0255408749509
 30
0.0
 10
169.0274001321962
 20
128.8196950468691
 30
0.0
  0
SPLINE
  5
7A
330
41
100
AcDbEntity
  8
_U+30EC_U+30A4_U+30E4_U+30FC 1
 62
     7
370
     5
100
AcDbSpline
210
0.0
220
0.0
230
1.0
 70
     8
 71
     3
 72
    38
 73
    34
 74
     0
 42
0.0000000001
 43
0.0000000001
 12
1.0
 22
0.0
 32
0.0
 13
1.0
 23
0.0
 33
0.0
 40
0.0
 40
0.0
 40
0.0
 40
0.0
 40
1.0
 40
1.0
 40
1.0
 40
2.0
 40
2.0
 40
2.0
 40
3.0
 40
3.0
 40
3.0
 40
4.0
 40
4.0
 40
4.0
 40
5.0
 40
5.0
 40
5.0
 40
6.0
 40
6.0
 40
6.0
 40
7.0
 40
7.0
 40
7.0
 40
8.0
 40
8.0
 40
8.0
 40
9.0
 40
9.0
 40
9.0
 40
10.0
 40
10.0
 40
10.0
 40
11.0
 40
11.0
 40
11.0
 40
11.0
 10
181.4528328707526
 20
115.0415712317117
 30
0.0
 10
181.4528328707526
 20
115.0415712317117
 30
0.0
 10
178.2189190643677
 20
116.0001389850344
 30
0.0
 10
178.2189190643677
 20
116.0001389850344
 30
0.0
 10
178.2557888443248
 20
116.0259975954857
 30
0.0
 10
178.2926496180422
 20
116.0527028725822
 30
0.0
 10
178.3277862838125
 20
116.083359260689
 30
0.0
 10
178.6684990528979
 20
116.3821973086206
 30
0.0
 10
178.7601507172264
 20
116.8646944152284
 30
0.0
 10
178.6016829434915
 20
117.5299597793387
 30
0.0
 10
178.5348360664776
 20
117.8105592166245
 30
0.0
 10
178.4183796148346
 20
118.054293377073
 30
0.0
 10
178.2530326746085
 20
118.2596100385015
 30
0.0
 10
178.0883560121431
 20
118.4647855888226
 30
0.0
 10
177.9174749555208
 20
118.5941491966334
 30
0.0
 10
177.7428101876254
 20
118.6463250286356
 30
0.0
 10
177.5853654694199
 20
118.6933503052137
 30
0.0
 10
177.4654915835892
 20
118.6614944726931
 30
0.0
 10
177.3838235301172
 20
118.5507222532969
 30
0.0
 10
177.3018379766533
 20
118.4399853116776
 30
0.0
 10
177.2832465882387
 20
118.2883967044338
 30
0.0
 10
177.3297471778896
 20
118.0944394871598
 30
0.0
 10
177.3528143642417
 20
117.9972844896385
 30
0.0
 10
177.4258746401555
 20
117.8308792161061
 30
0.0
 10
177.5495277333907
 20
117.5948708887938
 30
0.0
 10
177.6525388444759
 20
117.3969625605095
 30
0.0
 10
177.7211143548455
 20
117.2286875648026
 30
0.0
 10
177.7538168540112
 20
117.0905397905492
 30
0.0
 10
177.8165407412999
 20
116.8278261861405
 30
0.0
 10
177.7992943999945
 20
116.64558119079
 30
0.0
 10
177.7024876886541
 20
116.5460273044409
 30
0.0
 10
177.6101657465649
 20
116.4507773068709
 30
0.0
 10
177.4410088064361
 20
116.4375128627649
 30
0.0
 10
177.1950521460443
 20
116.5053873054777
 30
0.0
  0
SPLINE
  5
7B
330
41
100
AcDbEntity
  8
_U+30EC_U+30A4_U+30E4_U+30FC 1
 62
     7
370
     5
100
AcDbSpline
210
0.0
220
0.0
230
1.0
 70
     8
 71
     3
 72
    29
 73
    25
 74
     0
 42
0.0000000001
 43
0.0000000001
 12
1.0
 22
0.0
 32
0.0
 13
1.0
 23
0.0
 33
0.0
 40
0.0
 40
0.0
 40
0.0
 40
0.0
 40
1.0
 40
1.0
 40
1.0
 40
2.0
 40
2.0
 40
2.0
 40
3.0
 40
3.0
 40
3.0
 40
4.0
 40
4.0
 40
4.0
 40
5.0
 40
5.0
 40
5.0
 40
6.0
 40
6.0
 40
6.0
 40
7.0
 40
7.0
 40
7.0
 40
8.0
 40
8.0
 40
8.0
 40
8.0
 10
178.6003071101932
 20
124.6082340432013
 30
0.0
 10
178.5365601673751
 20
124.2427209969708
 30
0.0
 10
178.5534229447227
 20
123.8539277468144
 30
0.0
 10
178.6512834977816
 20
123.4417390729611
 30
0.0
 10
178.7287887735821
 20
123.1168660256937
 30
0.0
 10
178.8617859924112
 20
122.8324565885052
 30
0.0
 10
179.0516157097905
 20
122.5876993725272
 30
0.0
 10
179.2410971774117
 20
122.341883823243
 30
0.0
 10
179.4305695890115
 20
122.1918474381818
 30
0.0
 10
179.6207168063826
 20
122.1351944139107
 30
0.0
 10
179.7764329135211
 20
122.08848355193
 30
0.0
 10
179.8904859661669
 20
122.1136366068438
 30
0.0
 10
179.9642165198414
 20
122.2109679932496
 30
0.0
 10
180.0368887402096
 20
122.3082993796553
 30
0.0
 10
180.0506823509689
 20
122.4552313203512
 30
0.0
 10
180.0038334632752
 20
122.651269926461
 30
0.0
 10
179.9669681864379
 20
122.8064568669463
 30
0.0
 10
179.8474118005992
 20
123.0431354720192
 30
0.0
 10
179.6462226390653
 20
123.3602474083735
 30
0.0
 10
179.458121532753
 20
123.6422226789574
 30
0.0
 10
179.3471729244724
 20
123.8539277468144
 30
0.0
 10
179.3137693996158
 20
123.9958823921571
 30
0.0
 10
179.2531223713163
 20
124.2497765523463
 30
0.0
 10
179.2600368155844
 20
124.4845501574679
 30
0.0
 10
179.3340848692508
 20
124.701261540828
 30
0.0
  0
SPLINE
  5
7C
330
41
100
AcDbEntity
  8
_U+30EC_U+30A4_U+30E4_U+30FC 1
 62
     7
370
     5
100
AcDbSpline
210
0.0
220
0.0
230
1.0
 70
     8
 71
     3
 72
    32
 73
    28
 74
     0
 42
0.0000000001
 43
0.0000000001
 12
1.0
 22
0.0
 32
0.0
 13
1.0
 23
0.0
 33
0.0
 40
0.0
 40
0.0
 40
0.0
 40
0.0
 40
1.0
 40
1.0
 40
1.0
 40
2.0
 40
2.0
 40
2.0
 40
3.0
 40
3.0
 40
3.0
 40
4.0
 40
4.0
 40
4.0
 40
5.0
 40
5.0
 40
5.0
 40
6.0
 40
6.0
 40
6.0
 40
7.0
 40
7.0
 40
7.0
 40
8.0
 40
8.0
 40
8.0
 40
9.0
 40
9.0
 40
9.0
 40
9.0
 10
187.0156138421349
 20
114.3945768037734
 30
0.0
 10
186.7486269023123
 20
114.3837112484951
 30
0.0
 10
186.4606191318822
 20
114.4245305269495
 30
0.0
 10
186.1509155286723
 20
114.5168495784318
 30
0.0
 10
185.5380347109748
 20
114.6999765182043
 30
0.0
 10
184.9620191701146
 20
115.1269787295327
 30
0.0
 10
184.4242094616131
 20
115.7977503790866
 30
0.0
 10
183.8857693984731
 20
116.4683456397561
 30
0.0
 10
183.4995789296468
 20
117.2982583040087
 30
0.0
 10
183.2642761578721
 20
118.2876911488963
 30
0.0
 10
183.0530681077049
 20
119.174962515149
 30
0.0
 10
182.9900267204244
 20
120.2202077662603
 30
0.0
 10
183.0747639404848
 20
121.4225449578084
 30
0.0
 10
183.1991533817558
 20
123.109281303665
 30
0.0
 10
183.4110317096836
 20
124.4659587690533
 30
0.0
 10
183.7093805096283
 20
125.4926126317501
 30
0.0
 10
183.572251150015
 20
125.5053479092029
 30
0.0
 10
183.1860653265341
 20
125.5897323514945
 30
0.0
 10
182.5500775649817
 20
125.7451309586411
 30
0.0
 10
181.6195556442769
 20
125.9664637307722
 30
0.0
 10
181.0132364930787
 20
126.0849970610815
 30
0.0
 10
180.7321078891398
 20
126.0996373384858
 30
0.0
 10
180.1626540147789
 20
126.1316695598908
 30
0.0
 10
179.7102916217394
 20
126.0493312286581
 30
0.0
 10
179.3737018126845
 20
125.8551976224997
 30
0.0
 10
179.1694082067854
 20
125.7365231810829
 30
0.0
 10
179.002685433261
 20
125.5716701297331
 30
0.0
 10
178.8731499552815
 20
125.3604620795659
 30
0.0
  0
SPLINE
  5
7D
330
41
100
AcDbEntity
  8
_U+30EC_U+30A4_U+30E4_U+30FC 1
 62
     7
370
     5
100
AcDbSpline
210
0.0
220
0.0
230
1.0
 70
     8
 71
     3
 72
    26
 73
    22
 74
     0
 42
0.0000000001
 43
0.0000000001
 12
1.0
 22
0.0
 32
0.0
 13
1.0
 23
0.0
 33
0.0
 40
0.0
 40
0.0
 40
0.0
 40
0.0
 40
1.0
 40
1.0
 40
1.0
 40
2.0
 40
2.0
 40
2.0
 40
3.0
 40
3.0
 40
3.0
 40
4.0
 40
4.0
 40
4.0
 40
5.0
 40
5.0
 40
5.0
 40
6.0
 40
6.0
 40
6.0
 40
7.0
 40
7.0
 40
7.0
 40
7.0
 10
187.4007718856747
 20
113.3057282204412
 30
0.0
 10
187.8231527082322
 20
113.3815401629515
 30
0.0
 10
188.2155474204436
 20
113.5455112698793
 30
0.0
 10
188.5752043557124
 20
113.8052968188072
 30
0.0
 10
189.3768918352596
 20
114.3837112484951
 30
0.0
 10
189.9201695991773
 20
115.5822737179172
 30
0.0
 10
190.2044026474814
 20
117.4033478381244
 30
0.0
 10
190.4882829180168
 20
119.2237194146386
 30
0.0
 10
190.3846015317731
 20
121.169532742041
 30
0.0
 10
189.8919473776751
 20
123.2407263003116
 30
0.0
 10
189.6617999525845
 20
124.2087837756144
 30
0.0
 10
189.3806665573856
 20
124.9561787565467
 30
0.0
 10
189.0499373991565
 20
125.4824173542324
 30
0.0
 10
188.8153401829194
 20
125.8667334555388
 30
0.0
 10
188.5648679670872
 20
126.0985790051795
 30
0.0
 10
188.2978857516763
 20
126.1781656698157
 30
0.0
 10
188.1669699216829
 20
126.2172887243731
 30
0.0
 10
188.0650171465061
 20
126.2046945580278
 30
0.0
 10
187.9916040928235
 20
126.1397481707958
 30
0.0
 10
187.9916040928235
 20
126.1397481707958
 30
0.0
 10
186.5918877396444
 20
125.4357448554231
 30
0.0
 10
186.5918877396444
 20
125.4357448554231
 30
0.0
  0
POLYLINE
  5
7E
330
41
100
AcDbEntity
  8
_U+30EC_U+30A4_U+30E4_U+30FC 1
 62
     7
370
     5
100
AcDb2dPolyline
 66
     1
 10
0.0
 20
0.0
 30
0.0
  0
VERTEX
  5
7F
330
7E
100
AcDbEntity
  8
_U+30EC_U+30A4_U+30E4_U+30FC 1
 62
     7
370
     5
100
AcDbVertex
100
AcDb2dVertex
 10
197.1063233047321
 20
110.4013441278715
 30
0.0
  0
VERTEX
  5
80
330
7E
100
AcDbEntity
  8
_U+30EC_U+30A4_U+30E4_U+30FC 1
 62
     7
370
     5
100
AcDbVertex
100
AcDb2dVertex
 10
187.3794288306636
 20
113.2849143320833
 30
0.0
  0
SEQEND
  5
81
330
7E
100
AcDbEntity
  8
_U+30EC_U+30A4_U+30E4_U+30FC 1
 62
     7
370
     5
  0
SPLINE
  5
82
330
41
100
AcDbEntity
  8
_U+30EC_U+30A4_U+30E4_U+30FC 1
 62
     7
370
     5
100
AcDbSpline
210
0.0
220
0.0
230
1.0
 70
     8
 71
     3
 72
    17
 73
    13
 74
     0
 42
0.0000000001
 43
0.0000000001
 12
1.0
 22
0.0
 32
0.0
 13
1.0
 23
0.0
 33
0.0
 40
0.0
 40
0.0
 40
0.0
 40
0.0
 40
1.0
 40
1.0
 40
1.0
 40
2.0
 40
2.0
 40
2.0
 40
3.0
 40
3.0
 40
3.0
 40
4.0
 40
4.0
 40
4.0
 40
4.0
 10
197.2279258016297
 20
118.2492736498764
 30
0.0
 10
197.2031305062549
 20
118.2551297608381
 30
0.0
 10
197.1783252473396
 20
118.261515038453
 30
0.0
 10
197.1535249701946
 20
118.2683971926551
 30
0.0
 10
195.5115914009726
 20
118.71779780459
 30
0.0
 10
193.4224767320482
 20
121.0289508011831
 30
0.0
 10
192.9225906336902
 20
122.9850682512784
 30
0.0
 10
192.6035736973846
 20
124.2375351637697
 30
0.0
 10
192.7138167501276
 20
125.4757145766256
 30
0.0
 10
193.2316239591395
 20
126.1571401147965
 30
0.0
 10
193.2881036799208
 20
126.2319290017774
 30
0.0
 10
193.3494164561343
 20
126.3046012221456
 30
0.0
 10
193.4152447877882
 20
126.3740278870411
 30
0.0
  0
SPLINE
  5
83
330
41
100
AcDbEntity
  8
_U+30EC_U+30A4_U+30E4_U+30FC 1
 62
     7
370
     5
100
AcDbSpline
210
0.0
220
0.0
230
1.0
 70
     8
 71
     3
 72
    14
 73
    10
 74
     0
 42
0.0000000001
 43
0.0000000001
 12
1.0
 22
0.0
 32
0.0
 13
1.0
 23
0.0
 33
0.0
 40
0.0
 40
0.0
 40
0.0
 40
0.0
 40
1.0
 40
1.0
 40
1.0
 40
2.0
 40
2.0
 40
2.0
 40
3.0
 40
3.0
 40
3.0
 40
3.0
 10
197.9865391156092
 20
116.6076928584232
 30
0.0
 10
198.6851802088965
 20
116.5548114708835
 30
0.0
 10
199.0910157540984
 20
116.8781322959682
 30
0.0
 10
199.5075404656941
 20
117.4283245041538
 30
0.0
 10
200.0187860082067
 20
118.1040703202475
 30
0.0
 10
200.1207740611604
 20
119.1321000162425
 30
0.0
 10
199.9684798983791
 20
119.9499447175997
 30
0.0
 10
199.8144924023076
 20
120.7616158080034
 30
0.0
 10
199.1747299186293
 20
121.8433735581832
 30
0.0
 10
198.666588820482
 20
121.6635305251395
 30
0.0
  0
SPLINE
  5
84
330
41
100
AcDbEntity
  8
_U+30EC_U+30A4_U+30E4_U+30FC 1
 62
     7
370
     5
100
AcDbSpline
210
0.0
220
0.0
230
1.0
 70
     8
 71
     3
 72
    26
 73
    22
 74
     0
 42
0.0000000001
 43
0.0000000001
 12
1.0
 22
0.0
 32
0.0
 13
1.0
 23
0.0
 33
0.0
 40
0.0
 40
0.0
 40
0.0
 40
0.0
 40
1.0
 40
1.0
 40
1.0
 40
2.0
 40
2.0
 40
2.0
 40
3.0
 40
3.0
 40
3.0
 40
4.0
 40
4.0
 40
4.0
 40
5.0
 40
5.0
 40
5.0
 40
6.0
 40
6.0
 40
6.0
 40
7.0
 40
7.0
 40
7.0
 40
7.0
 10
214.8840297956295
 20
103.0810290368505
 30
0.0
 10
214.8840297956295
 20
103.0810290368505
 30
0.0
 10
216.3440711472696
 20
103.8238026290119
 30
0.0
 10
216.3440711472696
 20
103.8238026290119
 30
0.0
 10
216.3440711472696
 20
103.8238026290119
 30
0.0
 10
216.1645832792922
 20
104.7512201053515
 30
0.0
 10
216.1645832792922
 20
104.7512201053515
 30
0.0
 10
216.1645832792922
 20
104.7512201053515
 30
0.0
 10
200.0391110611017
 20
109.5319938722727
 30
0.0
 10
200.0391110611017
 20
109.5319938722727
 30
0.0
 10
200.6061962709985
 20
110.4056480166506
 30
0.0
 10
201.3382806967658
 20
110.9982088348664
 30
0.0
 10
202.062074844967
 20
111.5823382644085
 30
0.0
 10
203.6626628596881
 20
112.872869898151
 30
0.0
 10
205.3163138375598
 20
114.2083454196357
 30
0.0
 10
204.1666764579408
 20
118.71056586033
 30
0.0
 10
203.0218773204804
 20
123.1835057462158
 30
0.0
 10
199.0386635332117
 20
127.656622020986
 30
0.0
 10
195.2835205734579
 20
128.6836286614516
 30
0.0
 10
193.9309706079643
 20
129.0541511519988
 30
0.0
 10
192.7951320258309
 20
128.837619412235
 30
0.0
 10
192.0447737116407
 20
128.0752281214176
 30
0.0
  0
POLYLINE
  5
85
330
41
100
AcDbEntity
  8
_U+30EC_U+30A4_U+30E4_U+30FC 1
 62
     7
370
     5
100
AcDb2dPolyline
 66
     1
 10
0.0
 20
0.0
 30
0.0
  0
VERTEX
  5
86
330
85
100
AcDbEntity
  8
_U+30EC_U+30A4_U+30E4_U+30FC 1
 62
     7
370
     5
100
AcDbVertex
100
AcDb2dVertex
 10
214.7048892446442
 20
104.0087992909589
 30
0.0
  0
VERTEX
  5
87
330
85
100
AcDbEntity
  8
_U+30EC_U+30A4_U+30E4_U+30FC 1
 62
     7
370
     5
100
AcDbVertex
100
AcDb2dVertex
 10
216.1001605979367
 20
104.7705170493036
 30
0.0
  0
SEQEND
  5
88
330
85
100
AcDbEntity
  8
_U+30EC_U+30A4_U+30E4_U+30FC 1
 62
     7
370
     5
  0
POLYLINE
  5
89
330
41
100
AcDbEntity
  8
_U+30EC_U+30A4_U+30E4_U+30FC 1
 62
     7
370
     5
100
AcDb2dPolyline
 66
     1
 10
0.0
 20
0.0
 30
0.0
  0
VERTEX
  5
8A
330
89
100
AcDbEntity
  8
_U+30EC_U+30A4_U+30E4_U+30FC 1
 62
     7
370
     5
100
AcDbVertex
100
AcDb2dVertex
 10
200.0391110611017
 20
109.5319938722727
 30
0.0
  0
VERTEX
  5
8B
330
89
100
AcDbEntity
  8
_U+30EC_U+30A4_U+30E4_U+30FC 1
 62
     7
370
     5
100
AcDbVertex
100
AcDb2dVertex
 10
198.579417433817
 20
108.7895730578801
 30
0.0
  0
SEQEND
  5
8C
330
89
100
AcDbEntity
  8
_U+30EC_U+30A4_U+30E4_U+30FC 1
 62
     7
370
     5
  0
POLYLINE
  5
8D
330
41
100
AcDbEntity
  8
_U+30EC_U+30A4_U+30E4_U+30FC 1
 62
     7
370
     5
100
AcDb2dPolyline
 66
     1
 10
0.0
 20
0.0
 30
0.0
  0
VERTEX
  5
8E
330
8D
100
AcDbEntity
  8
_U+30EC_U+30A4_U+30E4_U+30FC 1
 62
     7
370
     5
100
AcDbVertex
100
AcDb2dVertex
 10
197.2069002466106
 20
120.9211419150447
 30
0.0
  0
VERTEX
  5
8F
330
8D
100
AcDbEntity
  8
_U+30EC_U+30A4_U+30E4_U+30FC 1
 62
     7
370
     5
100
AcDbVertex
100
AcDb2dVertex
 10
198.666588820482
 20
121.6635305251395
 30
0.0
  0
SEQEND
  5
90
330
8D
100
AcDbEntity
  8
_U+30EC_U+30A4_U+30E4_U+30FC 1
 62
     7
370
     5
  0
POLYLINE
  5
91
330
41
100
AcDbEntity
  8
_U+30EC_U+30A4_U+30E4_U+30FC 1
 62
     7
370
     5
100
AcDb2dPolyline
 66
     1
 10
0.0
 20
0.0
 30
0.0
  0
VERTEX
  5
92
330
91
100
AcDbEntity
  8
_U+30EC_U+30A4_U+30E4_U+30FC 1
 62
     7
370
     5
100
AcDbVertex
100
AcDb2dVertex
 10
183.7093805096283
 20
125.4926126317501
 30
0.0
  0
VERTEX
  5
93
330
91
100
AcDbEntity
  8
_U+30EC_U+30A4_U+30E4_U+30FC 1
 62
     7
370
     5
100
AcDbVertex
100
AcDb2dVertex
 10
182.2496872948676
 20
124.7501918173575
 30
0.0
  0
SEQEND
  5
94
330
91
100
AcDbEntity
  8
_U+30EC_U+30A4_U+30E4_U+30FC 1
 62
     7
370
     5
  0
POLYLINE
  5
95
330
41
100
AcDbEntity
  8
_U+30EC_U+30A4_U+30E4_U+30FC 1
 62
     7
370
     5
100
AcDb2dPolyline
 66
     1
 10
0.0
 20
0.0
 30
0.0
  0
VERTEX
  5
96
330
95
100
AcDbEntity
  8
_U+30EC_U+30A4_U+30E4_U+30FC 1
 62
     7
370
     5
100
AcDbVertex
100
AcDb2dVertex
 10
177.6653049118249
 20
124.927250979507
 30
0.0
  0
VERTEX
  5
188
330
95
100
AcDbEntity
  8
0
100
AcDbVertex
100
AcDb2dVertex
 10
177.6653049118249
 20
124.927250979507
 30
0.0
  0
SEQEND
  5
97
330
95
100
AcDbEntity
  8
_U+30EC_U+30A4_U+30E4_U+30FC 1
 62
     7
370
     5
  0
POLYLINE
  5
98
330
41
100
AcDbEntity
  8
_U+30EC_U+30A4_U+30E4_U+30FC 1
 62
     7
370
     5
100
AcDb2dPolyline
 66
     1
 10
0.0
 20
0.0
 30
0.0
  0
VERTEX
  5
99
330
98
100
AcDbEntity
  8
_U+30EC_U+30A4_U+30E4_U+30FC 1
 62
     7
370
     5
100
AcDbVertex
100
AcDb2dVertex
 10
177.9346860160635
 20
125.1244890300306
 30
0.0
  0
VERTEX
  5
9A
330
98
100
AcDbEntity
  8
_U+30EC_U+30A4_U+30E4_U+30FC 1
 62
     7
370
     5
100
AcDbVertex
100
AcDb2dVertex
 10
179.4402004220991
 20
125.8913573437995
 30
0.0
  0
SEQEND
  5
9B
330
98
100
AcDbEntity
  8
_U+30EC_U+30A4_U+30E4_U+30FC 1
 62
     7
370
     5
  0
POLYLINE
  5
9C
330
41
100
AcDbEntity
  8
_U+30EC_U+30A4_U+30E4_U+30FC 1
 62
     7
370
     5
100
AcDb2dPolyline
 66
     1
 10
0.0
 20
0.0
 30
0.0
  0
VERTEX
  5
9D
330
9C
100
AcDbEntity
  8
_U+30EC_U+30A4_U+30E4_U+30FC 1
 62
     7
370
     5
100
AcDbVertex
100
AcDb2dVertex
 10
178.5045279459701
 20
121.468547178857
 30
0.0
  0
VERTEX
  5
9E
330
9C
100
AcDbEntity
  8
_U+30EC_U+30A4_U+30E4_U+30FC 1
 62
     7
370
     5
100
AcDbVertex
100
AcDb2dVertex
 10
179.8584582883684
 20
122.1301818841995
 30
0.0
  0
SEQEND
  5
9F
330
9C
100
AcDbEntity
  8
_U+30EC_U+30A4_U+30E4_U+30FC 1
 62
     7
370
     5
  0
POLYLINE
  5
A0
330
41
100
AcDbEntity
  8
_U+30EC_U+30A4_U+30E4_U+30FC 1
 62
     7
370
     5
100
AcDb2dPolyline
 66
     1
 10
0.0
 20
0.0
 30
0.0
  0
VERTEX
  5
A1
330
A0
100
AcDbEntity
  8
_U+30EC_U+30A4_U+30E4_U+30FC 1
 62
     7
370
     5
100
AcDbVertex
100
AcDb2dVertex
 10
178.2189190643677
 20
116.0001389850344
 30
0.0
  0
VERTEX
  5
A2
330
A0
100
AcDbEntity
  8
_U+30EC_U+30A4_U+30E4_U+30FC 1
 62
     7
370
     5
100
AcDbVertex
100
AcDb2dVertex
 10
176.7592304904963
 20
115.2577181706418
 30
0.0
  0
SEQEND
  5
A3
330
A0
100
AcDbEntity
  8
_U+30EC_U+30A4_U+30E4_U+30FC 1
 62
     7
370
     5
  0
POLYLINE
  5
A4
330
41
100
AcDbEntity
  8
_U+30EC_U+30A4_U+30E4_U+30FC 1
 62
     7
370
     5
100
AcDb2dPolyline
 66
     1
 10
0.0
 20
0.0
 30
0.0
  0
VERTEX
  5
A5
330
A4
100
AcDbEntity
  8
_U+30EC_U+30A4_U+30E4_U+30FC 1
 62
     7
370
     5
100
AcDbVertex
100
AcDb2dVertex
 10
176.0629882860367
 20
117.9116653251561
 30
0.0
  0
VERTEX
  5
A6
330
A4
100
AcDbEntity
  8
_U+30EC_U+30A4_U+30E4_U+30FC 1
 62
     7
370
     5
100
AcDbVertex
100
AcDb2dVertex
 10
177.5040501937166
 20
118.64650141752
 30
0.0
  0
SEQEND
  5
A7
330
A4
100
AcDbEntity
  8
_U+30EC_U+30A4_U+30E4_U+30FC 1
 62
     7
370
     5
  0
POLYLINE
  5
A8
330
41
100
AcDbEntity
  8
_U+30EC_U+30A4_U+30E4_U+30FC 1
 62
     7
370
     5
100
AcDb2dPolyline
 66
     1
 10
0.0
 20
0.0
 30
0.0
  0
VERTEX
  5
A9
330
A8
100
AcDbEntity
  8
_U+30EC_U+30A4_U+30E4_U+30FC 1
 62
     7
370
     5
100
AcDbVertex
100
AcDb2dVertex
 10
170.107429271309
 20
118.994269741981
 30
0.0
  0
VERTEX
  5
AA
330
A8
100
AcDbEntity
  8
_U+30EC_U+30A4_U+30E4_U+30FC 1
 62
     7
370
     5
100
AcDbVertex
100
AcDb2dVertex
 10
168.6477406974377
 20
118.2518489275884
 30
0.0
  0
SEQEND
  5
AB
330
A8
100
AcDbEntity
  8
_U+30EC_U+30A4_U+30E4_U+30FC 1
 62
     7
370
     5
  0
POLYLINE
  5
AC
330
41
100
AcDbEntity
  8
_U+30EC_U+30A4_U+30E4_U+30FC 1
 62
     7
370
     5
100
AcDb2dPolyline
 66
     1
 10
0.0
 20
0.0
 30
0.0
  0
VERTEX
  5
AD
330
AC
100
AcDbEntity
  8
_U+30EC_U+30A4_U+30E4_U+30FC 1
 62
     7
370
     5
100
AcDbVertex
100
AcDb2dVertex
 10
174.7545355416404
 20
127.2364989761487
 30
0.0
  0
VERTEX
  5
AE
330
AC
100
AcDbEntity
  8
_U+30EC_U+30A4_U+30E4_U+30FC 1
 62
     7
370
     5
100
AcDbVertex
100
AcDb2dVertex
 10
176.0691971747672
 20
127.9778999680055
 30
0.0
  0
SEQEND
  5
AF
330
AC
100
AcDbEntity
  8
_U+30EC_U+30A4_U+30E4_U+30FC 1
 62
     7
370
     5
  0
POLYLINE
  5
B0
330
41
100
AcDbEntity
  8
_U+30EC_U+30A4_U+30E4_U+30FC 1
 62
     7
370
     5
100
AcDb2dPolyline
 66
     1
 10
0.0
 20
0.0
 30
0.0
  0
VERTEX
  5
B1
330
B0
100
AcDbEntity
  8
_U+30EC_U+30A4_U+30E4_U+30FC 1
 62
     7
370
     5
100
AcDbVertex
100
AcDb2dVertex
 10
167.9683965481025
 20
128.7278669936563
 30
0.0
  0
VERTEX
  5
B2
330
B0
100
AcDbEntity
  8
_U+30EC_U+30A4_U+30E4_U+30FC 1
 62
     7
370
     5
100
AcDbVertex
100
AcDb2dVertex
 10
169.5279917860917
 20
129.5304364176255
 30
0.0
  0
SEQEND
  5
B3
330
B0
100
AcDbEntity
  8
_U+30EC_U+30A4_U+30E4_U+30FC 1
 62
     7
370
     5
  0
POLYLINE
  5
B4
330
41
100
AcDbEntity
  8
_U+30EC_U+30A4_U+30E4_U+30FC 1
 62
     7
370
     5
100
AcDb2dPolyline
 66
     1
 10
0.0
 20
0.0
 30
0.0
  0
VERTEX
  5
B5
330
B4
100
AcDbEntity
  8
_U+30EC_U+30A4_U+30E4_U+30FC 1
 62
     7
370
     5
100
AcDbVertex
100
AcDb2dVertex
 10
169.1118198522647
 20
125.6941192932759
 30
0.0
  0
VERTEX
  5
B6
330
B4
100
AcDbEntity
  8
_U+30EC_U+30A4_U+30E4_U+30FC 1
 62
     7
370
     5
100
AcDbVertex
100
AcDb2dVertex
 10
170.4763995396736
 20
126.3686656649556
 30
0.0
  0
SEQEND
  5
B7
330
B4
100
AcDbEntity
  8
_U+30EC_U+30A4_U+30E4_U+30FC 1
 62
     7
370
     5
  0
POLYLINE
  5
B8
330
41
100
AcDbEntity
  8
_U+30EC_U+30A4_U+30E4_U+30FC 1
 62
     7
370
     5
100
AcDb2dPolyline
 66
     1
 10
0.0
 20
0.0
 30
0.0
  0
VERTEX
  5
B9
330
B8
100
AcDbEntity
  8
_U+30EC_U+30A4_U+30E4_U+30FC 1
 62
     7
370
     5
100
AcDbVertex
100
AcDb2dVertex
 10
165.1727032860933
 20
118.692680027453
 30
0.0
  0
VERTEX
  5
BA
330
B8
100
AcDbEntity
  8
_U+30EC_U+30A4_U+30E4_U+30FC 1
 62
     7
370
     5
100
AcDbVertex
100
AcDb2dVertex
 10
166.6327093599565
 20
119.4352419529531
 30
0.0
  0
SEQEND
  5
BB
330
B8
100
AcDbEntity
  8
_U+30EC_U+30A4_U+30E4_U+30FC 1
 62
     7
370
     5
  0
POLYLINE
  5
BC
330
41
100
AcDbEntity
  8
_U+30EC_U+30A4_U+30E4_U+30FC 1
 62
     7
370
     5
100
AcDb2dPolyline
 66
     1
 10
0.0
 20
0.0
 30
0.0
  0
VERTEX
  5
BD
330
BC
100
AcDbEntity
  8
_U+30EC_U+30A4_U+30E4_U+30FC 1
 62
     7
370
     5
100
AcDbVertex
100
AcDb2dVertex
 10
165.1816285636434
 20
118.9133072440466
 30
0.0
  0
VERTEX
  5
BE
330
BC
100
AcDbEntity
  8
_U+30EC_U+30A4_U+30E4_U+30FC 1
 62
     7
370
     5
100
AcDbVertex
100
AcDb2dVertex
 10
166.6413171375147
 20
119.6557280584392
 30
0.0
  0
SEQEND
  5
BF
330
BC
100
AcDbEntity
  8
_U+30EC_U+30A4_U+30E4_U+30FC 1
 62
     7
370
     5
  0
POLYLINE
  5
C0
330
41
100
AcDbEntity
  8
_U+30EC_U+30A4_U+30E4_U+30FC 1
 62
     7
370
     5
100
AcDb2dPolyline
 66
     1
 10
0.0
 20
0.0
 30
0.0
  0
VERTEX
  5
C1
330
C0
100
AcDbEntity
  8
_U+30EC_U+30A4_U+30E4_U+30FC 1
 62
     7
370
     5
100
AcDbVertex
100
AcDb2dVertex
 10
163.6389313807786
 20
119.5606544497536
 30
0.0
  0
VERTEX
  5
C2
330
C0
100
AcDbEntity
  8
_U+30EC_U+30A4_U+30E4_U+30FC 1
 62
     7
370
     5
100
AcDbVertex
100
AcDb2dVertex
 10
165.09861995465
 20
120.3030752641462
 30
0.0
  0
SEQEND
  5
C3
330
C0
100
AcDbEntity
  8
_U+30EC_U+30A4_U+30E4_U+30FC 1
 62
     7
370
     5
  0
POLYLINE
  5
C4
330
41
100
AcDbEntity
  8
_U+30EC_U+30A4_U+30E4_U+30FC 1
 62
     7
370
     5
100
AcDb2dPolyline
 66
     1
 10
0.0
 20
0.0
 30
0.0
  0
VERTEX
  5
C5
330
C4
100
AcDbEntity
  8
_U+30EC_U+30A4_U+30E4_U+30FC 1
 62
     7
370
     5
100
AcDbVertex
100
AcDb2dVertex
 10
164.934966347714
 20
129.8561561315379
 30
0.0
  0
VERTEX
  5
C6
330
C4
100
AcDbEntity
  8
_U+30EC_U+30A4_U+30E4_U+30FC 1
 62
     7
370
     5
100
AcDbVertex
100
AcDb2dVertex
 10
166.3946549215854
 20
130.5987533348149
 30
0.0
  0
SEQEND
  5
C7
330
C4
100
AcDbEntity
  8
_U+30EC_U+30A4_U+30E4_U+30FC 1
 62
     7
370
     5
  0
SPLINE
  5
C8
330
41
100
AcDbEntity
  8
_U+30EC_U+30A4_U+30E4_U+30FC 1
 62
     7
370
     5
100
AcDbSpline
210
0.0
220
0.0
230
1.0
 70
     8
 71
     3
 72
    23
 73
    19
 74
     0
 42
0.0000000001
 43
0.0000000001
 12
1.0
 22
0.0
 32
0.0
 13
1.0
 23
0.0
 33
0.0
 40
0.0
 40
0.0
 40
0.0
 40
0.0
 40
1.0
 40
1.0
 40
1.0
 40
2.0
 40
2.0
 40
2.0
 40
3.0
 40
3.0
 40
3.0
 40
4.0
 40
4.0
 40
4.0
 40
5.0
 40
5.0
 40
5.0
 40
6.0
 40
6.0
 40
6.0
 40
6.0
 10
160.6489281237266
 20
130.7933808298495
 30
0.0
 10
160.6489281237266
 20
130.7933808298495
 30
0.0
 10
162.108616697598
 20
131.5358016442421
 30
0.0
 10
162.108616697598
 20
131.5358016442421
 30
0.0
 10
162.3353116918145
 20
131.5249713667407
 30
0.0
 10
162.5723471815788
 20
131.4948088675102
 30
0.0
 10
162.8193580683543
 20
131.4443263687981
 30
0.0
 10
163.0660202842837
 20
131.3940555367473
 30
0.0
 10
163.6330752698169
 20
131.246947207167
 30
0.0
 10
164.5194999694245
 20
131.0028602689497
 30
0.0
 10
165.3470107816463
 20
130.7814922190417
 30
0.0
 10
165.9712510434984
 20
130.6473308335756
 30
0.0
 10
166.3946549215854
 20
130.5987533348149
 30
0.0
 10
166.3946549215854
 20
130.5987533348149
 30
0.0
 10
166.375710755402
 20
130.1064519584856
 30
0.0
 10
166.375710755402
 20
130.1064519584856
 30
0.0
 10
166.375710755402
 20
130.1064519584856
 30
0.0
 10
164.9160221815306
 20
129.3638547552087
 30
0.0
 10
164.9160221815306
 20
129.3638547552087
 30
0.0
  0
POLYLINE
  5
C9
330
41
100
AcDbEntity
  8
_U+30EC_U+30A4_U+30E4_U+30FC 1
 62
     7
370
     5
100
AcDb2dPolyline
 66
     1
 10
0.0
 20
0.0
 30
0.0
  0
VERTEX
  5
CA
330
C9
100
AcDbEntity
  8
_U+30EC_U+30A4_U+30E4_U+30FC 1
 62
     7
370
     5
100
AcDbVertex
100
AcDb2dVertex
 10
160.6541139569277
 20
120.2648341540107
 30
0.0
  0
VERTEX
  5
CB
330
C9
100
AcDbEntity
  8
_U+30EC_U+30A4_U+30E4_U+30FC 1
 62
     7
370
     5
100
AcDbVertex
100
AcDb2dVertex
 10
162.1203289195214
 20
120.7727988632736
 30
0.0
  0
SEQEND
  5
CC
330
C9
100
AcDbEntity
  8
_U+30EC_U+30A4_U+30E4_U+30FC 1
 62
     7
370
     5
  0
POLYLINE
  5
CD
330
41
100
AcDbEntity
  8
_U+30EC_U+30A4_U+30E4_U+30FC 1
 62
     7
370
     5
100
AcDb2dPolyline
 66
     1
 10
0.0
 20
0.0
 30
0.0
  0
VERTEX
  5
CE
330
CD
100
AcDbEntity
  8
_U+30EC_U+30A4_U+30E4_U+30FC 1
 62
     7
370
     5
100
AcDbVertex
100
AcDb2dVertex
 10
159.4889595422088
 20
120.3778288733502
 30
0.0
  0
VERTEX
  5
CF
330
CD
100
AcDbEntity
  8
_U+30EC_U+30A4_U+30E4_U+30FC 1
 62
     7
370
     5
100
AcDbVertex
100
AcDb2dVertex
 10
160.9486481160801
 20
121.1202527474976
 30
0.0
  0
SEQEND
  5
D0
330
CD
100
AcDbEntity
  8
_U+30EC_U+30A4_U+30E4_U+30FC 1
 62
     7
370
     5
  0
POLYLINE
  5
D1
330
41
100
AcDbEntity
  8
_U+30EC_U+30A4_U+30E4_U+30FC 1
 62
     7
370
     5
100
AcDb2dPolyline
 66
     1
 10
0.0
 20
0.0
 30
0.0
  0
VERTEX
  5
D2
330
D1
100
AcDbEntity
  8
_U+30EC_U+30A4_U+30E4_U+30FC 1
 62
     7
370
     5
100
AcDbVertex
100
AcDb2dVertex
 10
159.4686395427272
 20
120.774530525362
 30
0.0
  0
VERTEX
  5
D3
330
D1
100
AcDbEntity
  8
_U+30EC_U+30A4_U+30E4_U+30FC 1
 62
     7
370
     5
100
AcDbVertex
100
AcDb2dVertex
 10
160.9283281165985
 20
121.5171277473984
 30
0.0
  0
SEQEND
  5
D4
330
D1
100
AcDbEntity
  8
_U+30EC_U+30A4_U+30E4_U+30FC 1
 62
     7
370
     5
  0
POLYLINE
  5
D5
330
41
100
AcDbEntity
  8
_U+30EC_U+30A4_U+30E4_U+30FC 1
 62
     7
370
     5
100
AcDb2dPolyline
 66
     1
 10
0.0
 20
0.0
 30
0.0
  0
VERTEX
  5
D6
330
D5
100
AcDbEntity
  8
_U+30EC_U+30A4_U+30E4_U+30FC 1
 62
     7
370
     5
100
AcDbVertex
100
AcDb2dVertex
 10
157.3109801533292
 20
121.4806121785492
 30
0.0
  0
VERTEX
  5
D7
330
D5
100
AcDbEntity
  8
_U+30EC_U+30A4_U+30E4_U+30FC 1
 62
     7
370
     5
100
AcDbVertex
100
AcDb2dVertex
 10
158.7706687272006
 20
122.2232093818262
 30
0.0
  0
SEQEND
  5
D8
330
D5
100
AcDbEntity
  8
_U+30EC_U+30A4_U+30E4_U+30FC 1
 62
     7
370
     5
  0
SPLINE
  5
D9
330
41
100
AcDbEntity
  8
_U+30EC_U+30A4_U+30E4_U+30FC 1
 62
     7
370
     5
100
AcDbSpline
210
0.0
220
0.0
230
1.0
 70
     8
 71
     3
 72
    38
 73
    34
 74
     0
 42
0.0000000001
 43
0.0000000001
 12
1.0
 22
0.0
 32
0.0
 13
1.0
 23
0.0
 33
0.0
 40
0.0
 40
0.0
 40
0.0
 40
0.0
 40
1.0
 40
1.0
 40
1.0
 40
2.0
 40
2.0
 40
2.0
 40
3.0
 40
3.0
 40
3.0
 40
4.0
 40
4.0
 40
4.0
 40
5.0
 40
5.0
 40
5.0
 40
6.0
 40
6.0
 40
6.0
 40
7.0
 40
7.0
 40
7.0
 40
8.0
 40
8.0
 40
8.0
 40
9.0
 40
9.0
 40
9.0
 40
10.0
 40
10.0
 40
10.0
 40
11.0
 40
11.0
 40
11.0
 40
11.0
 10
162.2288433611974
 20
120.9941669131816
 30
0.0
 10
162.1913078065995
 20
120.9982944130763
 30
0.0
 10
162.1527139186952
 20
121.0025983018554
 30
0.0
 10
162.113802530799
 20
121.0072549684033
 30
0.0
 10
162.113802530799
 20
121.0072549684033
 30
0.0
 10
162.1203289195214
 20
120.7727988632736
 30
0.0
 10
162.1203289195214
 20
120.7727988632736
 30
0.0
 10
162.1203289195214
 20
120.7727988632736
 30
0.0
 10
160.9486481160801
 20
121.1202527474976
 30
0.0
 10
160.9486481160801
 20
121.1202527474976
 30
0.0
 10
160.9486481160801
 20
121.1202527474976
 30
0.0
 10
160.9283281165985
 20
121.5171277473984
 30
0.0
 10
160.9283281165985
 20
121.5171277473984
 30
0.0
 10
160.6158728467921
 20
121.5272846773585
 30
0.0
 10
160.3126956323046
 20
121.5760416362727
 30
0.0
 10
160.0188317509128
 20
121.6637038405448
 30
0.0
 10
159.6563878712707
 20
121.7719007822289
 30
0.0
 10
159.2398984374517
 20
121.9588055250659
 30
0.0
 10
158.7706687272006
 20
122.2232093818262
 30
0.0
 10
158.7706687272006
 20
122.2232093818262
 30
0.0
 10
158.7244901172676
 20
123.2379393559382
 30
0.0
 10
158.7244901172676
 20
123.2379393559382
 30
0.0
 10
158.7000426178913
 20
123.7259368434884
 30
0.0
 10
158.6859315071402
 20
124.0950835007373
 30
0.0
 10
158.6803928961704
 20
124.3465787720989
 30
0.0
 10
158.6803928961704
 20
124.3465787720989
 30
0.0
 10
158.5980545649377
 20
128.8613933791386
 30
0.0
 10
158.5980545649377
 20
128.8613933791386
 30
0.0
 10
158.5618948436379
 20
130.8118311071566
 30
0.0
 10
158.5939270650429
 20
132.3653971891308
 30
0.0
 10
158.6931634514001
 20
133.5207057602697
 30
0.0
 10
158.6931634514001
 20
133.5207057602697
 30
0.0
 10
157.2334748775287
 20
132.7782849458771
 30
0.0
 10
157.2334748775287
 20
132.7782849458771
 30
0.0
  0
POLYLINE
  5
DA
330
41
100
AcDbEntity
  8
_U+30EC_U+30A4_U+30E4_U+30FC 1
 62
     7
370
     5
100
AcDb2dPolyline
 66
     1
 10
0.0
 20
0.0
 30
0.0
  0
VERTEX
  5
DB
330
DA
100
AcDbEntity
  8
_U+30EC_U+30A4_U+30E4_U+30FC 1
 62
     7
370
     5
100
AcDbVertex
100
AcDb2dVertex
 10
145.7423387818032
 20
134.6303682319598
 30
0.0
  0
VERTEX
  5
DC
330
DA
100
AcDbEntity
  8
_U+30EC_U+30A4_U+30E4_U+30FC 1
 62
     7
370
     5
100
AcDbVertex
100
AcDb2dVertex
 10
147.0797193032393
 20
135.3043888550628
 30
0.0
  0
SEQEND
  5
DD
330
DA
100
AcDbEntity
  8
_U+30EC_U+30A4_U+30E4_U+30FC 1
 62
     7
370
     5
  0
POLYLINE
  5
DE
330
41
100
AcDbEntity
  8
_U+30EC_U+30A4_U+30E4_U+30FC 1
 62
     7
370
     5
100
AcDb2dPolyline
 66
     1
 10
0.0
 20
0.0
 30
0.0
  0
VERTEX
  5
DF
330
DE
100
AcDbEntity
  8
_U+30EC_U+30A4_U+30E4_U+30FC 1
 62
     7
370
     5
100
AcDbVertex
100
AcDb2dVertex
 10
144.82490491632
 20
137.037617892768
 30
0.0
  0
VERTEX
  5
E0
330
DE
100
AcDbEntity
  8
_U+30EC_U+30A4_U+30E4_U+30FC 1
 62
     7
370
     5
100
AcDbVertex
100
AcDb2dVertex
 10
143.3652163424486
 20
136.2951970783754
 30
0.0
  0
SEQEND
  5
E1
330
DE
100
AcDbEntity
  8
_U+30EC_U+30A4_U+30E4_U+30FC 1
 62
     7
370
     5
  0
SPLINE
  5
E2
330
41
100
AcDbEntity
  8
_U+30EC_U+30A4_U+30E4_U+30FC 1
 62
     7
370
     5
100
AcDbSpline
210
0.0
220
0.0
230
1.0
 70
     8
 71
     3
 72
    23
 73
    19
 74
     0
 42
0.0000000001
 43
0.0000000001
 12
1.0
 22
0.0
 32
0.0
 13
1.0
 23
0.0
 33
0.0
 40
0.0
 40
0.0
 40
0.0
 40
0.0
 40
1.0
 40
1.0
 40
1.0
 40
2.0
 40
2.0
 40
2.0
 40
3.0
 40
3.0
 40
3.0
 40
4.0
 40
4.0
 40
4.0
 40
5.0
 40
5.0
 40
5.0
 40
6.0
 40
6.0
 40
6.0
 40
6.0
 10
143.3459582974968
 20
135.8027193131618
 30
0.0
 10
143.3459582974968
 20
135.8027193131618
 30
0.0
 10
144.8059607501366
 20
136.5451401275544
 30
0.0
 10
144.8059607501366
 20
136.5451401275544
 30
0.0
 10
144.8059607501366
 20
136.5451401275544
 30
0.0
 10
144.82490491632
 20
137.037617892768
 30
0.0
 10
144.82490491632
 20
137.037617892768
 30
0.0
 10
144.4018538160018
 20
137.0861953915287
 30
0.0
 10
143.7769079986122
 20
137.2205684436561
 30
0.0
 10
142.9497499641592
 20
137.4417248269028
 30
0.0
 10
142.0629724867827
 20
137.6859916322452
 30
0.0
 10
141.4962702790183
 20
137.8330999655416
 30
0.0
 10
141.2492552853202
 20
137.8834025934125
 30
0.0
 10
141.0018875138533
 20
137.9338850921245
 30
0.0
 10
140.7655616865491
 20
137.9638359246938
 30
0.0
 10
140.5388666923326
 20
137.9747014799721
 30
0.0
 10
140.5388666923326
 20
137.9747014799721
 30
0.0
 10
139.0791781184612
 20
137.2322806655795
 30
0.0
 10
139.0791781184612
 20
137.2322806655795
 30
0.0
  0
SPLINE
  5
E3
330
41
100
AcDbEntity
  8
_U+30EC_U+30A4_U+30E4_U+30FC 1
 62
     7
370
     5
100
AcDbSpline
210
0.0
220
0.0
230
1.0
 70
     8
 71
     3
 72
    23
 73
    19
 74
     0
 42
0.0000000001
 43
0.0000000001
 12
1.0
 22
0.0
 32
0.0
 13
1.0
 23
0.0
 33
0.0
 40
0.0
 40
0.0
 40
0.0
 40
0.0
 40
1.0
 40
1.0
 40
1.0
 40
2.0
 40
2.0
 40
2.0
 40
3.0
 40
3.0
 40
3.0
 40
4.0
 40
4.0
 40
4.0
 40
5.0
 40
5.0
 40
5.0
 40
6.0
 40
6.0
 40
6.0
 40
6.0
 10
138.5820789644766
 20
137.4387967714219
 30
0.0
 10
138.5820789644766
 20
137.4387967714219
 30
0.0
 10
140.0414147605792
 20
138.1813939746989
 30
0.0
 10
140.0414147605792
 20
138.1813939746989
 30
0.0
 10
140.1140869809474
 20
138.2609806393352
 30
0.0
 10
140.1299619805424
 20
138.38656952502
 30
0.0
 10
140.0889339260335
 20
138.5579489650922
 30
0.0
 10
140.0193661500306
 20
138.850966179839
 30
0.0
 10
139.8195528217949
 20
139.1527322832514
 30
0.0
 10
139.4898467190953
 20
139.4643444095785
 30
0.0
 10
139.1604933941645
 20
139.7745736562758
 30
0.0
 10
138.7405467382115
 20
140.0064544836933
 30
0.0
 10
138.2306805209979
 20
140.1588897575822
 30
0.0
 10
137.6394920440796
 20
140.335278641971
 30
0.0
 10
137.1468378899816
 20
140.321132253443
 30
0.0
 10
136.7516915111737
 20
140.117367814197
 30
0.0
 10
136.5222448503607
 20
139.9997164283097
 30
0.0
 10
136.3265590220197
 20
139.8052300443825
 30
0.0
 10
136.1639637483901
 20
139.5335911624237
 30
0.0
  0
POLYLINE
  5
E4
330
41
100
AcDbEntity
  8
_U+30EC_U+30A4_U+30E4_U+30FC 1
 62
     7
370
     5
100
AcDb2dPolyline
 66
     1
 10
0.0
 20
0.0
 30
0.0
  0
VERTEX
  5
E5
330
E4
100
AcDbEntity
  8
_U+30EC_U+30A4_U+30E4_U+30FC 1
 62
     7
370
     5
100
AcDbVertex
100
AcDb2dVertex
 10
135.2920029373023
 20
139.37477061092
 30
0.0
  0
VERTEX
  5
E6
330
E4
100
AcDbEntity
  8
_U+30EC_U+30A4_U+30E4_U+30FC 1
 62
     7
370
     5
100
AcDbVertex
100
AcDb2dVertex
 10
136.7516915111737
 20
140.117367814197
 30
0.0
  0
SEQEND
  5
E7
330
E4
100
AcDbEntity
  8
_U+30EC_U+30A4_U+30E4_U+30FC 1
 62
     7
370
     5
  0
POLYLINE
  5
E8
330
41
100
AcDbEntity
  8
_U+30EC_U+30A4_U+30E4_U+30FC 1
 62
     7
370
     5
100
AcDb2dPolyline
 66
     1
 10
0.0
 20
0.0
 30
0.0
  0
VERTEX
  5
E9
330
E8
100
AcDbEntity
  8
_U+30EC_U+30A4_U+30E4_U+30FC 1
 62
     7
370
     5
100
AcDbVertex
100
AcDb2dVertex
 10
130.4533736163016
 20
135.2739054377641
 30
0.0
  0
VERTEX
  5
EA
330
E8
100
AcDbEntity
  8
_U+30EC_U+30A4_U+30E4_U+30FC 1
 62
     7
370
     5
100
AcDbVertex
100
AcDb2dVertex
 10
131.913062190173
 20
136.0163262521567
 30
0.0
  0
SEQEND
  5
EB
330
E8
100
AcDbEntity
  8
_U+30EC_U+30A4_U+30E4_U+30FC 1
 62
     7
370
     5
  0
POLYLINE
  5
EC
330
41
100
AcDbEntity
  8
_U+30EC_U+30A4_U+30E4_U+30FC 1
 62
     7
370
     5
100
AcDb2dPolyline
 66
     1
 10
0.0
 20
0.0
 30
0.0
  0
VERTEX
  5
ED
330
EC
100
AcDbEntity
  8
_U+30EC_U+30A4_U+30E4_U+30FC 1
 62
     7
370
     5
100
AcDbVertex
100
AcDb2dVertex
 10
130.621825000893
 20
140.0682611487832
 30
0.0
  0
VERTEX
  5
EE
330
EC
100
AcDbEntity
  8
_U+30EC_U+30A4_U+30E4_U+30FC 1
 62
     7
370
     5
100
AcDbVertex
100
AcDb2dVertex
 10
132.0818663525331
 20
140.8106819631758
 30
0.0
  0
SEQEND
  5
EF
330
EC
100
AcDbEntity
  8
_U+30EC_U+30A4_U+30E4_U+30FC 1
 62
     7
370
     5
  0
POLYLINE
  5
F0
330
41
100
AcDbEntity
  8
_U+30EC_U+30A4_U+30E4_U+30FC 1
 62
     7
370
     5
100
AcDb2dPolyline
 66
     1
 10
0.0
 20
0.0
 30
0.0
  0
VERTEX
  5
F1
330
F0
100
AcDbEntity
  8
_U+30EC_U+30A4_U+30E4_U+30FC 1
 62
     7
370
     5
100
AcDbVertex
100
AcDb2dVertex
 10
126.0153971907183
 20
140.4088328067611
 30
0.0
  0
VERTEX
  5
F2
330
F0
100
AcDbEntity
  8
_U+30EC_U+30A4_U+30E4_U+30FC 1
 62
     7
370
     5
100
AcDbVertex
100
AcDb2dVertex
 10
127.7004017420913
 20
141.2957513952451
 30
0.0
  0
SEQEND
  5
F3
330
F0
100
AcDbEntity
  8
_U+30EC_U+30A4_U+30E4_U+30FC 1
 62
     7
370
     5
  0
POLYLINE
  5
F4
330
41
100
AcDbEntity
  8
_U+30EC_U+30A4_U+30E4_U+30FC 1
 62
     7
370
     5
100
AcDb2dPolyline
 66
     1
 10
0.0
 20
0.0
 30
0.0
  0
VERTEX
  5
F5
330
F4
100
AcDbEntity
  8
_U+30EC_U+30A4_U+30E4_U+30FC 1
 62
     7
370
     5
100
AcDbVertex
100
AcDb2dVertex
 10
128.2164450622593
 20
137.4611981597393
 30
0.0
  0
VERTEX
  5
F6
330
F4
100
AcDbEntity
  8
_U+30EC_U+30A4_U+30E4_U+30FC 1
 62
     7
370
     5
100
AcDbVertex
100
AcDb2dVertex
 10
126.8546170414469
 20
136.7653087330485
 30
0.0
  0
SEQEND
  5
F7
330
F4
100
AcDbEntity
  8
_U+30EC_U+30A4_U+30E4_U+30FC 1
 62
     7
370
     5
  0
POLYLINE
  5
F8
330
41
100
AcDbEntity
  8
_U+30EC_U+30A4_U+30E4_U+30FC 1
 62
     7
370
     5
100
AcDb2dPolyline
 66
     1
 10
0.0
 20
0.0
 30
0.0
  0
VERTEX
  5
F9
330
F8
100
AcDbEntity
  8
_U+30EC_U+30A4_U+30E4_U+30FC 1
 62
     7
370
     5
100
AcDbVertex
100
AcDb2dVertex
 10
124.3441798832712
 20
138.6761295176327
 30
0.0
  0
VERTEX
  5
FA
330
F8
100
AcDbEntity
  8
_U+30EC_U+30A4_U+30E4_U+30FC 1
 62
     7
370
     5
100
AcDbVertex
100
AcDb2dVertex
 10
125.434898188778
 20
139.2221589481468
 30
0.0
  0
SEQEND
  5
FB
330
F8
100
AcDbEntity
  8
_U+30EC_U+30A4_U+30E4_U+30FC 1
 62
     7
370
     5
  0
POLYLINE
  5
FC
330
41
100
AcDbEntity
  8
_U+30EC_U+30A4_U+30E4_U+30FC 1
 62
     7
370
     5
100
AcDb2dPolyline
 66
     1
 10
0.0
 20
0.0
 30
0.0
  0
VERTEX
  5
FD
330
FC
100
AcDbEntity
  8
_U+30EC_U+30A4_U+30E4_U+30FC 1
 62
     7
370
     5
100
AcDbVertex
100
AcDb2dVertex
 10
124.0792437789192
 20
141.879034158142
 30
0.0
  0
VERTEX
  5
FE
330
FC
100
AcDbEntity
  8
_U+30EC_U+30A4_U+30E4_U+30FC 1
 62
     7
370
     5
100
AcDbVertex
100
AcDb2dVertex
 10
125.5389323527906
 20
142.6214549725347
 30
0.0
  0
SEQEND
  5
FF
330
FC
100
AcDbEntity
  8
_U+30EC_U+30A4_U+30E4_U+30FC 1
 62
     7
370
     5
  0
POLYLINE
  5
100
330
41
100
AcDbEntity
  8
_U+30EC_U+30A4_U+30E4_U+30FC 1
 62
     7
370
     5
100
AcDb2dPolyline
 66
     1
 10
0.0
 20
0.0
 30
0.0
  0
VERTEX
  5
101
330
100
100
AcDbEntity
  8
_U+30EC_U+30A4_U+30E4_U+30FC 1
 62
     7
370
     5
100
AcDbVertex
100
AcDb2dVertex
 10
120.1008630470828
 20
142.6789577488454
 30
0.0
  0
VERTEX
  5
102
330
100
100
AcDbEntity
  8
_U+30EC_U+30A4_U+30E4_U+30FC 1
 62
     7
370
     5
100
AcDbVertex
100
AcDb2dVertex
 10
121.6866343955153
 20
143.4928866169693
 30
0.0
  0
SEQEND
  5
103
330
100
100
AcDbEntity
  8
_U+30EC_U+30A4_U+30E4_U+30FC 1
 62
     7
370
     5
  0
POLYLINE
  5
104
330
41
100
AcDbEntity
  8
_U+30EC_U+30A4_U+30E4_U+30FC 1
 62
     7
370
     5
100
AcDb2dPolyline
 66
     1
 10
0.0
 20
0.0
 30
0.0
  0
VERTEX
  5
105
330
104
100
AcDbEntity
  8
_U+30EC_U+30A4_U+30E4_U+30FC 1
 62
     7
370
     5
100
AcDbVertex
100
AcDb2dVertex
 10
118.1326805972953
 20
134.8885662809282
 30
0.0
  0
VERTEX
  5
106
330
104
100
AcDbEntity
  8
_U+30EC_U+30A4_U+30E4_U+30FC 1
 62
     7
370
     5
100
AcDbVertex
100
AcDb2dVertex
 10
119.6075033374473
 20
135.6368432062825
 30
0.0
  0
SEQEND
  5
107
330
104
100
AcDbEntity
  8
_U+30EC_U+30A4_U+30E4_U+30FC 1
 62
     7
370
     5
  0
POLYLINE
  5
108
330
41
100
AcDbEntity
  8
_U+30EC_U+30A4_U+30E4_U+30FC 1
 62
     7
370
     5
100
AcDb2dPolyline
 66
     1
 10
0.0
 20
0.0
 30
0.0
  0
VERTEX
  5
109
330
108
100
AcDbEntity
  8
_U+30EC_U+30A4_U+30E4_U+30FC 1
 62
     7
370
     5
100
AcDbVertex
100
AcDb2dVertex
 10
108.718594170802
 20
144.412190204627
 30
0.0
  0
VERTEX
  5
10A
330
108
100
AcDbEntity
  8
_U+30EC_U+30A4_U+30E4_U+30FC 1
 62
     7
370
     5
100
AcDbVertex
100
AcDb2dVertex
 10
110.0342788594583
 20
145.0588318547964
 30
0.0
  0
SEQEND
  5
10B
330
108
100
AcDbEntity
  8
_U+30EC_U+30A4_U+30E4_U+30FC 1
 62
     7
370
     5
  0
POLYLINE
  5
10C
330
41
100
AcDbEntity
  8
_U+30EC_U+30A4_U+30E4_U+30FC 1
 62
     7
370
     5
100
AcDb2dPolyline
 66
     1
 10
0.0
 20
0.0
 30
0.0
  0
VERTEX
  5
10D
330
10C
100
AcDbEntity
  8
_U+30EC_U+30A4_U+30E4_U+30FC 1
 62
     7
370
     5
100
AcDbVertex
100
AcDb2dVertex
 10
102.5566954391163
 20
154.4289974490769
 30
0.0
  0
VERTEX
  5
10E
330
10C
100
AcDbEntity
  8
_U+30EC_U+30A4_U+30E4_U+30FC 1
 62
     7
370
     5
100
AcDbVertex
100
AcDb2dVertex
 10
104.0163840129876
 20
155.171559374577
 30
0.0
  0
SEQEND
  5
10F
330
10C
100
AcDbEntity
  8
_U+30EC_U+30A4_U+30E4_U+30FC 1
 62
     7
370
     5
  0
SPLINE
  5
110
330
41
100
AcDbEntity
  8
_U+30EC_U+30A4_U+30E4_U+30FC 1
 62
     7
370
     5
100
AcDbSpline
210
0.0
220
0.0
230
1.0
 70
     8
 71
     3
 72
    17
 73
    13
 74
     0
 42
0.0000000001
 43
0.0000000001
 12
1.0
 22
0.0
 32
0.0
 13
1.0
 23
0.0
 33
0.0
 40
0.0
 40
0.0
 40
0.0
 40
0.0
 40
1.0
 40
1.0
 40
1.0
 40
2.0
 40
2.0
 40
2.0
 40
3.0
 40
3.0
 40
3.0
 40
4.0
 40
4.0
 40
4.0
 40
4.0
 10
99.46092940698473
 20
140.2350192000844
 30
0.0
 10
101.3030290822111
 20
140.5233832982024
 30
0.0
 10
102.217008307779
 20
142.4200541443395
 30
0.0
 10
101.5679651865631
 20
145.1506599080093
 30
0.0
 10
101.5679651865631
 20
145.1506599080093
 30
0.0
 10
101.1931388072368
 20
146.4814787629462
 30
0.0
 10
100.3990360497183
 20
146.5896757046303
 30
0.0
 10
100.2498816090791
 20
146.6098193152275
 30
0.0
 10
100.138227445261
 20
146.5896757046303
 30
0.0
 10
100.0555716140364
 20
146.5434970946972
 30
0.0
 10
100.0555716140364
 20
146.5434970946972
 30
0.0
 10
98.72161303695738
 20
145.84485600141
 30
0.0
 10
98.72161303695738
 20
145.84485600141
 30
0.0
  0
POLYLINE
  5
111
330
41
100
AcDbEntity
  8
_U+30EC_U+30A4_U+30E4_U+30FC 1
 62
     7
370
     5
100
AcDb2dPolyline
 66
     1
 10
0.0
 20
0.0
 30
0.0
  0
VERTEX
  5
112
330
111
100
AcDbEntity
  8
_U+30EC_U+30A4_U+30E4_U+30FC 1
 62
     7
370
     5
100
AcDbVertex
100
AcDb2dVertex
 10
126.3268262215786
 20
131.1490866541081
 30
0.0
  0
VERTEX
  5
113
330
111
100
AcDbEntity
  8
_U+30EC_U+30A4_U+30E4_U+30FC 1
 62
     7
370
     5
100
AcDbVertex
100
AcDb2dVertex
 10
127.6934872978233
 20
131.8785958021634
 30
0.0
  0
SEQEND
  5
114
330
111
100
AcDbEntity
  8
_U+30EC_U+30A4_U+30E4_U+30FC 1
 62
     7
370
     5
  0
POLYLINE
  5
115
330
41
100
AcDbEntity
  8
_U+30EC_U+30A4_U+30E4_U+30FC 1
 62
     7
370
     5
100
AcDb2dPolyline
 66
     1
 10
0.0
 20
0.0
 30
0.0
  0
VERTEX
  5
116
330
115
100
AcDbEntity
  8
_U+30EC_U+30A4_U+30E4_U+30FC 1
 62
     7
370
     5
100
AcDbVertex
100
AcDb2dVertex
 10
207.0343716625576
 20
87.01344805787977
 30
0.0
  0
VERTEX
  5
117
330
115
100
AcDbEntity
  8
_U+30EC_U+30A4_U+30E4_U+30FC 1
 62
     7
370
     5
100
AcDbVertex
100
AcDb2dVertex
 10
208.4847821811101
 20
87.72041470651023
 30
0.0
  0
SEQEND
  5
118
330
115
100
AcDbEntity
  8
_U+30EC_U+30A4_U+30E4_U+30FC 1
 62
     7
370
     5
  0
POLYLINE
  5
119
330
41
100
AcDbEntity
  8
_U+30EC_U+30A4_U+30E4_U+30FC 1
 62
     7
370
     5
100
AcDb2dPolyline
 66
     1
 10
0.0
 20
0.0
 30
0.0
  0
VERTEX
  5
11A
330
119
100
AcDbEntity
  8
_U+30EC_U+30A4_U+30E4_U+30FC 1
 62
     7
370
     5
100
AcDbVertex
100
AcDb2dVertex
 10
206.2785452929514
 20
84.53747728771371
 30
0.0
  0
VERTEX
  5
11B
330
119
100
AcDbEntity
  8
_U+30EC_U+30A4_U+30E4_U+30FC 1
 62
     7
370
     5
100
AcDbVertex
100
AcDb2dVertex
 10
207.6869047014656
 20
85.25061754729778
 30
0.0
  0
SEQEND
  5
11C
330
119
100
AcDbEntity
  8
_U+30EC_U+30A4_U+30E4_U+30FC 1
 62
     7
370
     5
  0
ENDBLK
  5
44
330
41
100
AcDbEntity
  8
0
100
AcDbBlockEnd
  0
BLOCK
  5
47
330
45
100
AcDbEntity
  8
0
100
AcDbBlockBegin
  2
block 3
 70
     0
 10
0.0
 20
0.0
 30
0.0
  3
block 3
  1

  0
SPLINE
  5
49
330
45
100
AcDbEntity
  8
_U+30EC_U+30A4_U+30E4_U+30FC 1
 62
     7
370
     5
100
AcDbSpline
210
0.0
220
0.0
230
1.0
 70
    11
 71
     3
 72
    20
 73
    16
 74
     0
 42
0.0000000001
 43
0.0000000001
 12
1.0
 22
0.0
 32
0.0
 13
1.0
 23
0.0
 33
0.0
 40
0.0
 40
0.0
 40
0.0
 40
0.0
 40
1.0
 40
1.0
 40
1.0
 40
2.0
 40
2.0
 40
2.0
 40
3.0
 40
3.0
 40
3.0
 40
4.0
 40
4.0
 40
4.0
 40
5.0
 40
5.0
 40
5.0
 40
5.0
 10
149.5274678519031
 20
133.0232185507394
 30
0.0
 10
149.8127277403243
 20
131.2395388740227
 30
0.0
 10
149.9422639524319
 20
129.6165527453738
 30
0.0
 10
149.916444406965
 20
128.1535833012951
 30
0.0
 10
149.8902292315372
 20
126.6907870456265
 30
0.0
 10
149.7235064580129
 20
125.6043726288988
 30
0.0
 10
149.4175775769289
 20
124.893490147035
 30
0.0
 10
149.1553931391734
 20
124.2864654402992
 30
0.0
 10
148.8401862027705
 20
123.8704698953566
 30
0.0
 10
148.4718862121666
 20
123.6435985122557
 30
0.0
 10
148.4718862121666
 20
123.6435985122557
 30
0.0
 10
152.6470111056503
 20
122.405948266053
 30
0.0
 10
152.6470111056503
 20
122.405948266053
 30
0.0
 10
152.6470111056503
 20
122.405948266053
 30
0.0
 10
149.5274678519031
 20
133.0232185507394
 30
0.0
 10
149.5274678519031
 20
133.0232185507394
 30
0.0
  0
SPLINE
  5
4A
330
45
100
AcDbEntity
  8
_U+30EC_U+30A4_U+30E4_U+30FC 1
 62
     7
370
     5
100
AcDbSpline
210
0.0
220
0.0
230
1.0
 70
    11
 71
     3
 72
    26
 73
    22
 74
     0
 42
0.0000000001
 43
0.0000000001
 12
1.0
 22
0.0
 32
0.0
 13
1.0
 23
0.0
 33
0.0
 40
0.0
 40
0.0
 40
0.0
 40
0.0
 40
1.0
 40
1.0
 40
1.0
 40
2.0
 40
2.0
 40
2.0
 40
3.0
 40
3.0
 40
3.0
 40
4.0
 40
4.0
 40
4.0
 40
5.0
 40
5.0
 40
5.0
 40
6.0
 40
6.0
 40
6.0
 40
7.0
 40
7.0
 40
7.0
 40
7.0
 10
134.1158418561976
 20
130.7389472201271
 30
0.0
 10
134.1158418561976
 20
130.7389472201271
 30
0.0
 10
134.0951690789472
 20
133.5809954809538
 30
0.0
 10
134.0951690789472
 20
133.5809954809538
 30
0.0
 10
134.0951690789472
 20
133.5809954809538
 30
0.0
 10
131.7376963613136
 20
134.1957812986026
 30
0.0
 10
131.7376963613136
 20
134.1957812986026
 30
0.0
 10
131.3263574829188
 20
134.2948060182985
 30
0.0
 10
130.9049997158908
 20
134.3880099048096
 30
0.0
 10
130.4750694490814
 20
134.4748285137057
 30
0.0
 10
130.5170852813429
 20
132.782059668003
 30
0.0
 10
130.4378513944754
 20
131.5601080325109
 30
0.0
 10
130.235639177412
 20
130.8092558294445
 30
0.0
 10
130.0396005713023
 20
130.0768186259083
 30
0.0
 10
129.7340277453443
 20
129.5820830829745
 30
0.0
 10
129.3226888565582
 20
129.3206042007565
 30
0.0
 10
129.3226888565582
 20
129.3206042007565
 30
0.0
 10
134.0848360775898
 20
127.9088228478852
 30
0.0
 10
134.0848360775898
 20
127.9088228478852
 30
0.0
 10
134.1199693560923
 20
128.5928236637682
 30
0.0
 10
134.1306585224863
 20
129.5336819730982
 30
0.0
 10
134.1158418561976
 20
130.7389472201271
 30
0.0
  0
SPLINE
  5
4B
330
45
100
AcDbEntity
  8
_U+30EC_U+30A4_U+30E4_U+30FC 1
 62
     7
370
     5
100
AcDbSpline
210
0.0
220
0.0
230
1.0
 70
    11
 71
     3
 72
    26
 73
    22
 74
     0
 42
0.0000000001
 43
0.0000000001
 12
1.0
 22
0.0
 32
0.0
 13
1.0
 23
0.0
 33
0.0
 40
0.0
 40
0.0
 40
0.0
 40
0.0
 40
1.0
 40
1.0
 40
1.0
 40
2.0
 40
2.0
 40
2.0
 40
3.0
 40
3.0
 40
3.0
 40
4.0
 40
4.0
 40
4.0
 40
5.0
 40
5.0
 40
5.0
 40
6.0
 40
6.0
 40
6.0
 40
7.0
 40
7.0
 40
7.0
 40
7.0
 10
155.899163522681
 20
124.820465148898
 30
0.0
 10
155.899163522681
 20
124.820465148898
 30
0.0
 10
155.8309715799763
 20
127.7153595194875
 30
0.0
 10
155.8309715799763
 20
127.7153595194875
 30
0.0
 10
155.7968579697355
 20
128.9645455987292
 30
0.0
 10
155.8244138499329
 20
129.8081110786591
 30
0.0
 10
155.9136666276879
 20
130.2447761216234
 30
0.0
 10
155.596691863731
 20
129.7705369670556
 30
0.0
 10
155.150216319566
 20
128.8601586569479
 30
0.0
 10
154.5742007787058
 20
127.512618135771
 30
0.0
 10
154.1129085682522
 20
126.4251806635138
 30
0.0
 10
153.6429733024634
 20
125.0154454217014
 30
0.0
 10
153.1637638505983
 20
123.282742132573
 30
0.0
 10
153.1637638505983
 20
123.282742132573
 30
0.0
 10
152.8857749617787
 20
122.3351810456362
 30
0.0
 10
152.8857749617787
 20
122.3351810456362
 30
0.0
 10
152.8857749617787
 20
122.3351810456362
 30
0.0
 10
155.8550663015838
 20
121.4549299569821
 30
0.0
 10
155.8550663015838
 20
121.4549299569821
 30
0.0
 10
155.9232935220654
 20
122.3051949352901
 30
0.0
 10
155.9384629661228
 20
123.4253701844898
 30
0.0
 10
155.899163522681
 20
124.820465148898
 30
0.0
  0
SPLINE
  5
4C
330
45
100
AcDbEntity
  8
_U+30EC_U+30A4_U+30E4_U+30FC 1
 62
     7
370
     5
100
AcDbSpline
210
0.0
220
0.0
230
1.0
 70
    11
 71
     3
 72
    35
 73
    31
 74
     0
 42
0.0000000001
 43
0.0000000001
 12
1.0
 22
0.0
 32
0.0
 13
1.0
 23
0.0
 33
0.0
 40
0.0
 40
0.0
 40
0.0
 40
0.0
 40
1.0
 40
1.0
 40
1.0
 40
2.0
 40
2.0
 40
2.0
 40
3.0
 40
3.0
 40
3.0
 40
4.0
 40
4.0
 40
4.0
 40
5.0
 40
5.0
 40
5.0
 40
6.0
 40
6.0
 40
6.0
 40
7.0
 40
7.0
 40
7.0
 40
8.0
 40
8.0
 40
8.0
 40
9.0
 40
9.0
 40
9.0
 40
10.0
 40
10.0
 40
10.0
 40
10.0
 10
195.9549625007724
 20
103.1065348695331
 30
0.0
 10
182.7650603372749
 20
107.0711572683872
 30
0.0
 10
173.4347277344192
 20
109.9309149732065
 30
0.0
 10
164.3324219186418
 20
112.6480799038858
 30
0.0
 10
156.3880429546531
 20
115.0196666379117
 30
0.0
 10
150.2750744994968
 20
115.9775964856095
 30
0.0
 10
145.1814926850004
 20
116.2096184241345
 30
0.0
 10
146.3462590441736
 20
115.3352587242191
 30
0.0
 10
148.0702134446364
 20
113.9220662602726
 30
0.0
 10
148.9063320344163
 20
112.6504787927135
 30
0.0
 10
149.6859356256381
 20
111.4662391007038
 30
0.0
 10
150.2023670013517
 20
109.7193894230474
 30
0.0
 10
150.4962308827435
 20
108.4764122325362
 30
0.0
 10
153.8620835746512
 20
108.005453911218
 30
0.0
 10
157.2541476547791
 20
107.823914471405
 30
0.0
 10
160.5786547921861
 20
107.6485486425456
 30
0.0
 10
166.8473393544809
 20
107.3167964287871
 30
0.0
 10
172.7663505923632
 20
107.0039883812119
 30
0.0
 10
178.1937660094538
 20
104.8580412137374
 30
0.0
 10
185.8866849798578
 20
101.81533295803
 30
0.0
 10
192.7944264702933
 20
98.80567997925709
 30
0.0
 10
198.0106388393866
 20
93.8902156602166
 30
0.0
 10
197.6695682903625
 20
94.88067452383677
 30
0.0
 10
197.3198999506702
 20
96.09888671497981
 30
0.0
 10
196.9512774753543
 20
97.64916861987328
 30
0.0
 10
196.9512774753543
 20
97.64916861987328
 30
0.0
 10
196.3377263798962
 20
100.7301179857161
 30
0.0
 10
196.3377263798962
 20
100.7301179857161
 30
0.0
 10
196.1651122176333
 20
101.5893082415742
 30
0.0
 10
196.0407580541391
 20
102.3768493325934
 30
0.0
 10
195.9549625007724
 20
103.1065348695331
 30
0.0
  0
SPLINE
  5
4D
330
45
100
AcDbEntity
  8
_U+30EC_U+30A4_U+30E4_U+30FC 1
 62
     7
370
     5
100
AcDbSpline
210
0.0
220
0.0
230
1.0
 70
    11
 71
     3
 72
    20
 73
    16
 74
     0
 42
0.0000000001
 43
0.0000000001
 12
1.0
 22
0.0
 32
0.0
 13
1.0
 23
0.0
 33
0.0
 40
0.0
 40
0.0
 40
0.0
 40
0.0
 40
1.0
 40
1.0
 40
1.0
 40
2.0
 40
2.0
 40
2.0
 40
3.0
 40
3.0
 40
3.0
 40
4.0
 40
4.0
 40
4.0
 40
5.0
 40
5.0
 40
5.0
 40
5.0
 10
145.9993373863577
 20
111.7418290936729
 30
0.0
 10
145.0681451878922
 20
113.3413940528646
 30
0.0
 10
144.4824635361675
 20
115.2055423386395
 30
0.0
 10
144.2006646544679
 20
116.246130923203
 30
0.0
 10
140.5695230804394
 20
116.3489656428017
 30
0.0
 10
137.4558712154308
 20
116.0869575939305
 30
0.0
 10
134.5478535118427
 20
115.724901769834
 30
0.0
 10
137.8434328722099
 20
112.8504685098336
 30
0.0
 10
140.9967369584291
 20
110.7370827304172
 30
0.0
 10
143.8961116066821
 20
109.8715071969443
 30
0.0
 10
145.436762678488
 20
109.4117672086733
 30
0.0
 10
146.9973809720066
 20
109.0600124954251
 30
0.0
 10
148.5669950986291
 20
108.7821647247358
 30
0.0
 10
147.6268070670597
 20
109.6336291474575
 30
0.0
 10
146.6111951485257
 20
110.6917888612159
 30
0.0
 10
145.9993373863577
 20
111.7418290936729
 30
0.0
  0
SPLINE
  5
4E
330
45
100
AcDbEntity
  8
_U+30EC_U+30A4_U+30E4_U+30FC 1
 62
     7
370
     5
100
AcDbSpline
210
0.0
220
0.0
230
1.0
 70
    11
 71
     3
 72
   932
 73
   928
 74
     0
 42
0.0000000001
 43
0.0000000001
 12
1.0
 22
0.0
 32
0.0
 13
1.0
 23
0.0
 33
0.0
 40
0.0
 40
0.0
 40
0.0
 40
0.0
 40
1.0
 40
1.0
 40
1.0
 40
2.0
 40
2.0
 40
2.0
 40
3.0
 40
3.0
 40
3.0
 40
4.0
 40
4.0
 40
4.0
 40
5.0
 40
5.0
 40
5.0
 40
6.0
 40
6.0
 40
6.0
 40
7.0
 40
7.0
 40
7.0
 40
8.0
 40
8.0
 40
8.0
 40
9.0
 40
9.0
 40
9.0
 40
10.0
 40
10.0
 40
10.0
 40
11.0
 40
11.0
 40
11.0
 40
12.0
 40
12.0
 40
12.0
 40
13.0
 40
13.0
 40
13.0
 40
14.0
 40
14.0
 40
14.0
 40
15.0
 40
15.0
 40
15.0
 40
16.0
 40
16.0
 40
16.0
 40
17.0
 40
17.0
 40
17.0
 40
18.0
 40
18.0
 40
18.0
 40
19.0
 40
19.0
 40
19.0
 40
20.0
 40
20.0
 40
20.0
 40
21.0
 40
21.0
 40
21.0
 40
22.0
 40
22.0
 40
22.0
 40
23.0
 40
23.0
 40
23.0
 40
24.0
 40
24.0
 40
24.0
 40
25.0
 40
25.0
 40
25.0
 40
26.0
 40
26.0
 40
26.0
 40
27.0
 40
27.0
 40
27.0
 40
28.0
 40
28.0
 40
28.0
 40
29.0
 40
29.0
 40
29.0
 40
30.0
 40
30.0
 40
30.0
 40
31.0
 40
31.0
 40
31.0
 40
32.0
 40
32.0
 40
32.0
 40
33.0
 40
33.0
 40
33.0
 40
34.0
 40
34.0
 40
34.0
 40
35.0
 40
35.0
 40
35.0
 40
36.0
 40
36.0
 40
36.0
 40
37.0
 40
37.0
 40
37.0
 40
38.0
 40
38.0
 40
38.0
 40
39.0
 40
39.0
 40
39.0
 40
40.0
 40
40.0
 40
40.0
 40
41.0
 40
41.0
 40
41.0
 40
42.0
 40
42.0
 40
42.0
 40
43.0
 40
43.0
 40
43.0
 40
44.0
 40
44.0
 40
44.0
 40
45.0
 40
45.0
 40
45.0
 40
46.0
 40
46.0
 40
46.0
 40
47.0
 40
47.0
 40
47.0
 40
48.0
 40
48.0
 40
48.0
 40
49.0
 40
49.0
 40
49.0
 40
50.0
 40
50.0
 40
50.0
 40
51.0
 40
51.0
 40
51.0
 40
52.0
 40
52.0
 40
52.0
 40
53.0
 40
53.0
 40
53.0
 40
54.0
 40
54.0
 40
54.0
 40
55.0
 40
55.0
 40
55.0
 40
56.0
 40
56.0
 40
56.0
 40
57.0
 40
57.0
 40
57.0
 40
58.0
 40
58.0
 40
58.0
 40
59.0
 40
59.0
 40
59.0
 40
60.0
 40
60.0
 40
60.0
 40
61.0
 40
61.0
 40
61.0
 40
62.0
 40
62.0
 40
62.0
 40
63.0
 40
63.0
 40
63.0
 40
64.0
 40
64.0
 40
64.0
 40
65.0
 40
65.0
 40
65.0
 40
66.0
 40
66.0
 40
66.0
 40
67.0
 40
67.0
 40
67.0
 40
68.0
 40
68.0
 40
68.0
 40
69.0
 40
69.0
 40
69.0
 40
70.0
 40
70.0
 40
70.0
 40
71.0
 40
71.0
 40
71.0
 40
72.0
 40
72.0
 40
72.0
 40
73.0
 40
73.0
 40
73.0
 40
74.0
 40
74.0
 40
74.0
 40
75.0
 40
75.0
 40
75.0
 40
76.0
 40
76.0
 40
76.0
 40
77.0
 40
77.0
 40
77.0
 40
78.0
 40
78.0
 40
78.0
 40
79.0
 40
79.0
 40
79.0
 40
80.0
 40
80.0
 40
80.0
 40
81.0
 40
81.0
 40
81.0
 40
82.0
 40
82.0
 40
82.0
 40
83.0
 40
83.0
 40
83.0
 40
84.0
 40
84.0
 40
84.0
 40
85.0
 40
85.0
 40
85.0
 40
86.0
 40
86.0
 40
86.0
 40
87.0
 40
87.0
 40
87.0
 40
88.0
 40
88.0
 40
88.0
 40
89.0
 40
89.0
 40
89.0
 40
90.0
 40
90.0
 40
90.0
 40
91.0
 40
91.0
 40
91.0
 40
92.0
 40
92.0
 40
92.0
 40
93.0
 40
93.0
 40
93.0
 40
94.0
 40
94.0
 40
94.0
 40
95.0
 40
95.0
 40
95.0
 40
96.0
 40
96.0
 40
96.0
 40
97.0
 40
97.0
 40
97.0
 40
98.0
 40
98.0
 40
98.0
 40
99.0
 40
99.0
 40
99.0
 40
100.0
 40
100.0
 40
100.0
 40
101.0
 40
101.0
 40
101.0
 40
102.0
 40
102.0
 40
102.0
 40
103.0
 40
103.0
 40
103.0
 40
104.0
 40
104.0
 40
104.0
 40
105.0
 40
105.0
 40
105.0
 40
106.0
 40
106.0
 40
106.0
 40
107.0
 40
107.0
 40
107.0
 40
108.0
 40
108.0
 40
108.0
 40
109.0
 40
109.0
 40
109.0
 40
110.0
 40
110.0
 40
110.0
 40
111.0
 40
111.0
 40
111.0
 40
112.0
 40
112.0
 40
112.0
 40
113.0
 40
113.0
 40
113.0
 40
114.0
 40
114.0
 40
114.0
 40
115.0
 40
115.0
 40
115.0
 40
116.0
 40
116.0
 40
116.0
 40
117.0
 40
117.0
 40
117.0
 40
118.0
 40
118.0
 40
118.0
 40
119.0
 40
119.0
 40
119.0
 40
120.0
 40
120.0
 40
120.0
 40
121.0
 40
121.0
 40
121.0
 40
122.0
 40
122.0
 40
122.0
 40
123.0
 40
123.0
 40
123.0
 40
124.0
 40
124.0
 40
124.0
 40
125.0
 40
125.0
 40
125.0
 40
126.0
 40
126.0
 40
126.0
 40
127.0
 40
127.0
 40
127.0
 40
128.0
 40
128.0
 40
128.0
 40
129.0
 40
129.0
 40
129.0
 40
130.0
 40
130.0
 40
130.0
 40
131.0
 40
131.0
 40
131.0
 40
132.0
 40
132.0
 40
132.0
 40
133.0
 40
133.0
 40
133.0
 40
134.0
 40
134.0
 40
134.0
 40
135.0
 40
135.0
 40
135.0
 40
136.0
 40
136.0
 40
136.0
 40
137.0
 40
137.0
 40
137.0
 40
138.0
 40
138.0
 40
138.0
 40
139.0
 40
139.0
 40
139.0
 40
140.0
 40
140.0
 40
140.0
 40
141.0
 40
141.0
 40
141.0
 40
142.0
 40
142.0
 40
142.0
 40
143.0
 40
143.0
 40
143.0
 40
144.0
 40
144.0
 40
144.0
 40
145.0
 40
145.0
 40
145.0
 40
146.0
 40
146.0
 40
146.0
 40
147.0
 40
147.0
 40
147.0
 40
148.0
 40
148.0
 40
148.0
 40
149.0
 40
149.0
 40
149.0
 40
150.0
 40
150.0
 40
150.0
 40
151.0
 40
151.0
 40
151.0
 40
152.0
 40
152.0
 40
152.0
 40
153.0
 40
153.0
 40
153.0
 40
154.0
 40
154.0
 40
154.0
 40
155.0
 40
155.0
 40
155.0
 40
156.0
 40
156.0
 40
156.0
 40
157.0
 40
157.0
 40
157.0
 40
158.0
 40
158.0
 40
158.0
 40
159.0
 40
159.0
 40
159.0
 40
160.0
 40
160.0
 40
160.0
 40
161.0
 40
161.0
 40
161.0
 40
162.0
 40
162.0
 40
162.0
 40
163.0
 40
163.0
 40
163.0
 40
164.0
 40
164.0
 40
164.0
 40
165.0
 40
165.0
 40
165.0
 40
166.0
 40
166.0
 40
166.0
 40
167.0
 40
167.0
 40
167.0
 40
168.0
 40
168.0
 40
168.0
 40
169.0
 40
169.0
 40
169.0
 40
170.0
 40
170.0
 40
170.0
 40
171.0
 40
171.0
 40
171.0
 40
172.0
 40
172.0
 40
172.0
 40
173.0
 40
173.0
 40
173.0
 40
174.0
 40
174.0
 40
174.0
 40
175.0
 40
175.0
 40
175.0
 40
176.0
 40
176.0
 40
176.0
 40
177.0
 40
177.0
 40
177.0
 40
178.0
 40
178.0
 40
178.0
 40
179.0
 40
179.0
 40
179.0
 40
180.0
 40
180.0
 40
180.0
 40
181.0
 40
181.0
 40
181.0
 40
182.0
 40
182.0
 40
182.0
 40
183.0
 40
183.0
 40
183.0
 40
184.0
 40
184.0
 40
184.0
 40
185.0
 40
185.0
 40
185.0
 40
186.0
 40
186.0
 40
186.0
 40
187.0
 40
187.0
 40
187.0
 40
188.0
 40
188.0
 40
188.0
 40
189.0
 40
189.0
 40
189.0
 40
190.0
 40
190.0
 40
190.0
 40
191.0
 40
191.0
 40
191.0
 40
192.0
 40
192.0
 40
192.0
 40
193.0
 40
193.0
 40
193.0
 40
194.0
 40
194.0
 40
194.0
 40
195.0
 40
195.0
 40
195.0
 40
196.0
 40
196.0
 40
196.0
 40
197.0
 40
197.0
 40
197.0
 40
198.0
 40
198.0
 40
198.0
 40
199.0
 40
199.0
 40
199.0
 40
200.0
 40
200.0
 40
200.0
 40
201.0
 40
201.0
 40
201.0
 40
202.0
 40
202.0
 40
202.0
 40
203.0
 40
203.0
 40
203.0
 40
204.0
 40
204.0
 40
204.0
 40
205.0
 40
205.0
 40
205.0
 40
206.0
 40
206.0
 40
206.0
 40
207.0
 40
207.0
 40
207.0
 40
208.0
 40
208.0
 40
208.0
 40
209.0
 40
209.0
 40
209.0
 40
210.0
 40
210.0
 40
210.0
 40
211.0
 40
211.0
 40
211.0
 40
212.0
 40
212.0
 40
212.0
 40
213.0
 40
213.0
 40
213.0
 40
214.0
 40
214.0
 40
214.0
 40
215.0
 40
215.0
 40
215.0
 40
216.0
 40
216.0
 40
216.0
 40
217.0
 40
217.0
 40
217.0
 40
218.0
 40
218.0
 40
218.0
 40
219.0
 40
219.0
 40
219.0
 40
220.0
 40
220.0
 40
220.0
 40
221.0
 40
221.0
 40
221.0
 40
222.0
 40
222.0
 40
222.0
 40
223.0
 40
223.0
 40
223.0
 40
224.0
 40
224.0
 40
224.0
 40
225.0
 40
225.0
 40
225.0
 40
226.0
 40
226.0
 40
226.0
 40
227.0
 40
227.0
 40
227.0
 40
228.0
 40
228.0
 40
228.0
 40
229.0
 40
229.0
 40
229.0
 40
230.0
 40
230.0
 40
230.0
 40
231.0
 40
231.0
 40
231.0
 40
232.0
 40
232.0
 40
232.0
 40
233.0
 40
233.0
 40
233.0
 40
234.0
 40
234.0
 40
234.0
 40
235.0
 40
235.0
 40
235.0
 40
236.0
 40
236.0
 40
236.0
 40
237.0
 40
237.0
 40
237.0
 40
238.0
 40
238.0
 40
238.0
 40
239.0
 40
239.0
 40
239.0
 40
240.0
 40
240.0
 40
240.0
 40
241.0
 40
241.0
 40
241.0
 40
242.0
 40
242.0
 40
242.0
 40
243.0
 40
243.0
 40
243.0
 40
244.0
 40
244.0
 40
244.0
 40
245.0
 40
245.0
 40
245.0
 40
246.0
 40
246.0
 40
246.0
 40
247.0
 40
247.0
 40
247.0
 40
248.0
 40
248.0
 40
248.0
 40
249.0
 40
249.0
 40
249.0
 40
250.0
 40
250.0
 40
250.0
 40
251.0
 40
251.0
 40
251.0
 40
252.0
 40
252.0
 40
252.0
 40
253.0
 40
253.0
 40
253.0
 40
254.0
 40
254.0
 40
254.0
 40
255.0
 40
255.0
 40
255.0
 40
256.0
 40
256.0
 40
256.0
 40
257.0
 40
257.0
 40
257.0
 40
258.0
 40
258.0
 40
258.0
 40
259.0
 40
259.0
 40
259.0
 40
260.0
 40
260.0
 40
260.0
 40
261.0
 40
261.0
 40
261.0
 40
262.0
 40
262.0
 40
262.0
 40
263.0
 40
263.0
 40
263.0
 40
264.0
 40
264.0
 40
264.0
 40
265.0
 40
265.0
 40
265.0
 40
266.0
 40
266.0
 40
266.0
 40
267.0
 40
267.0
 40
267.0
 40
268.0
 40
268.0
 40
268.0
 40
269.0
 40
269.0
 40
269.0
 40
270.0
 40
270.0
 40
270.0
 40
271.0
 40
271.0
 40
271.0
 40
272.0
 40
272.0
 40
272.0
 40
273.0
 40
273.0
 40
273.0
 40
274.0
 40
274.0
 40
274.0
 40
275.0
 40
275.0
 40
275.0
 40
276.0
 40
276.0
 40
276.0
 40
277.0
 40
277.0
 40
277.0
 40
278.0
 40
278.0
 40
278.0
 40
279.0
 40
279.0
 40
279.0
 40
280.0
 40
280.0
 40
280.0
 40
281.0
 40
281.0
 40
281.0
 40
282.0
 40
282.0
 40
282.0
 40
283.0
 40
283.0
 40
283.0
 40
284.0
 40
284.0
 40
284.0
 40
285.0
 40
285.0
 40
285.0
 40
286.0
 40
286.0
 40
286.0
 40
287.0
 40
287.0
 40
287.0
 40
288.0
 40
288.0
 40
288.0
 40
289.0
 40
289.0
 40
289.0
 40
290.0
 40
290.0
 40
290.0
 40
291.0
 40
291.0
 40
291.0
 40
292.0
 40
292.0
 40
292.0
 40
293.0
 40
293.0
 40
293.0
 40
294.0
 40
294.0
 40
294.0
 40
295.0
 40
295.0
 40
295.0
 40
296.0
 40
296.0
 40
296.0
 40
297.0
 40
297.0
 40
297.0
 40
298.0
 40
298.0
 40
298.0
 40
299.0
 40
299.0
 40
299.0
 40
300.0
 40
300.0
 40
300.0
 40
301.0
 40
301.0
 40
301.0
 40
302.0
 40
302.0
 40
302.0
 40
303.0
 40
303.0
 40
303.0
 40
304.0
 40
304.0
 40
304.0
 40
305.0
 40
305.0
 40
305.0
 40
306.0
 40
306.0
 40
306.0
 40
307.0
 40
307.0
 40
307.0
 40
308.0
 40
308.0
 40
308.0
 40
309.0
 40
309.0
 40
309.0
 40
309.0
 10
198.579417433817
 20
108.7895730578801
 30
0.0
 10
199.1465076971271
 20
109.663227202258
 30
0.0
 10
199.8785971722523
 20
110.2557880204738
 30
0.0
 10
200.6023862710956
 20
110.8399174500159
 30
0.0
 10
202.2029742858168
 20
112.1304490837584
 30
0.0
 10
203.8566200769621
 20
113.4659246052431
 30
0.0
 10
202.7069878840695
 20
117.9680039348299
 30
0.0
 10
201.5621887466091
 20
122.4410849318232
 30
0.0
 10
197.5789749593404
 20
126.9142012065934
 30
0.0
 10
193.8238319995865
 20
127.9412110791257
 30
0.0
 10
192.3255495378109
 20
128.3516647810318
 30
0.0
 10
191.0929087359249
 20
128.0417847889375
 30
0.0
 10
190.3559912547252
 20
127.0671656471354
 30
0.0
 10
189.6194265512943
 20
126.0944515052848
 30
0.0
 10
189.4630048886183
 20
124.5750055244119
 30
0.0
 10
189.920522376946
 20
122.7880065896392
 30
0.0
 10
190.7029129125411
 20
119.7258602788722
 30
0.0
 10
193.4303789540688
 20
116.6635023014439
 30
0.0
 10
195.9990597218696
 20
115.9620742637832
 30
0.0
 10
197.0404999507402
 20
115.6765006599577
 30
0.0
 10
197.5362535715414
 20
116.0099814847832
 30
0.0
 10
198.0478518918228
 20
116.6859036897613
 30
0.0
 10
198.5590974343354
 20
117.3616495058549
 30
0.0
 10
198.661085487289
 20
118.3896792018499
 30
0.0
 10
198.5087913245077
 20
119.2073475143227
 30
0.0
 10
198.3544510506675
 20
120.0191949936108
 30
0.0
 10
197.715041344758
 20
121.1007763549062
 30
0.0
 10
197.2069002466106
 20
120.9211419150447
 30
0.0
 10
196.994351640922
 20
120.846882194717
 30
0.0
 10
197.2730460782564
 20
120.5101205366418
 30
0.0
 10
197.4453074627505
 20
119.805270554624
 30
0.0
 10
197.545919682406
 20
119.3940727873368
 30
0.0
 10
197.3054360617845
 20
118.3230042035509
 30
0.0
 10
197.07979441652
 20
117.8830550481083
 30
0.0
 10
196.8475960891105
 20
117.4348508928762
 30
0.0
 10
196.2843158257033
 20
117.3647539502201
 30
0.0
 10
195.6938363963232
 20
117.5257999706186
 30
0.0
 10
194.0519028271013
 20
117.9754122679743
 30
0.0
 10
191.962435380408
 20
120.2865299867905
 30
0.0
 10
191.4629020598189
 20
122.2426474368858
 30
0.0
 10
191.1438851235132
 20
123.4951143493771
 30
0.0
 10
191.2541281762562
 20
124.733293762233
 30
0.0
 10
191.7719353852681
 20
125.4145781892964
 30
0.0
 10
192.2869556499066
 20
126.0961833018093
 30
0.0
 10
193.1964872933692
 20
126.5903864926324
 30
0.0
 10
194.2455072666065
 20
126.3039309443849
 30
0.0
 10
197.0732327500207
 20
125.5305009641168
 30
0.0
 10
200.3119796118379
 20
121.8750882795964
 30
0.0
 10
201.1725457009941
 20
118.5081772543823
 30
0.0
 10
202.0669079003993
 20
115.0067520659333
 30
0.0
 10
200.9179812630441
 20
113.8808999715297
 30
0.0
 10
199.3266713036419
 20
112.5996787940095
 30
0.0
 10
198.362388550465
 20
111.8214157583091
 30
0.0
 10
197.2527260787748
 20
110.9770421687398
 30
0.0
 10
196.5416721730869
 20
109.393669709135
 30
0.0
 10
196.5416721730869
 20
109.393669709135
 30
0.0
 10
185.8825222021862
 20
112.5533237951922
 30
0.0
 10
185.8825222021862
 20
112.5533237951922
 30
0.0
 10
186.3269516352923
 20
112.6241262933858
 30
0.0
 10
186.7393135692165
 20
112.7910607335714
 30
0.0
 10
187.1155510596179
 20
113.0628760044146
 30
0.0
 10
187.9172032613883
 20
113.6412904341025
 30
0.0
 10
188.4608338030747
 20
114.8398529035246
 30
0.0
 10
188.7447140736101
 20
116.6607506348474
 30
0.0
 10
189.0285943441455
 20
118.4812955884014
 30
0.0
 10
188.9249129579017
 20
120.4271119276484
 30
0.0
 10
188.4322588038037
 20
122.4981290970346
 30
0.0
 10
188.2021065874531
 20
123.4661865723374
 30
0.0
 10
187.9210132612911
 20
124.2136168310466
 30
0.0
 10
187.5899360642137
 20
124.7400318176167
 30
0.0
 10
187.355651609048
 20
125.1243126411462
 30
0.0
 10
187.1048666198905
 20
125.3561581907869
 30
0.0
 10
186.8381971778049
 20
125.4357448554231
 30
0.0
 10
186.6842096817335
 20
125.4815706875873
 30
0.0
 10
186.5701919068645
 20
125.4560648549047
 30
0.0
 10
186.4957557976524
 20
125.358415968507
 30
0.0
 10
186.4213549662172
 20
125.2610845821013
 30
0.0
 10
186.4082669109956
 20
125.1114009748089
 30
0.0
 10
186.4568444097563
 20
124.9076012577861
 30
0.0
 10
186.4826677424308
 20
124.7992632049944
 30
0.0
 10
186.517804408201
 20
124.6940295965681
 30
0.0
 10
186.5636302403653
 20
124.5929234880364
 30
0.0
 10
186.5973910728373
 20
124.5193693232462
 30
0.0
 10
186.7317641249647
 20
124.2843840514634
 30
0.0
 10
186.9656557856643
 20
123.887367950481
 30
0.0
 10
187.4138999531467
 20
123.1111863036164
 30
0.0
 10
187.7298077106136
 20
122.3372271566951
 30
0.0
 10
187.9134332863549
 20
121.5650318986177
 30
0.0
 10
188.1776638418443
 20
120.4534644269761
 30
0.0
 10
188.2789415854929
 20
119.3139922338242
 30
0.0
 10
188.2190046425776
 20
118.1455922636326
 30
0.0
 10
188.1583621441247
 20
116.977192293441
 30
0.0
 10
187.9492354827933
 20
116.0216937067067
 30
0.0
 10
187.5913071585915
 20
115.2787437256609
 30
0.0
 10
187.2344018899191
 20
114.535829022392
 30
0.0
 10
186.7703227350921
 20
114.0417990349958
 30
0.0
 10
186.2005160829624
 20
113.7963362634803
 30
0.0
 10
185.7719616494513
 20
113.6096138604864
 30
0.0
 10
185.2689711067281
 20
113.6020262684375
 30
0.0
 10
184.6912269548009
 20
113.774464041816
 30
0.0
 10
184.0779933593347
 20
113.9575557038117
 30
0.0
 10
183.5023305962433
 20
114.3844168040326
 30
0.0
 10
182.9645208877417
 20
115.055329564694
 30
0.0
 10
182.4264289570252
 20
115.7259277488464
 30
0.0
 10
182.0398903557755
 20
116.5558345264129
 30
0.0
 10
181.8045875840008
 20
117.5450939456193
 30
0.0
 10
181.5933795338336
 20
118.4325769785332
 30
0.0
 10
181.5299853687843
 20
119.4777869518677
 30
0.0
 10
181.6147578666215
 20
120.6801241434158
 30
0.0
 10
181.7394693990094
 20
122.366684100388
 30
0.0
 10
181.9509903580435
 20
123.7235379546607
 30
0.0
 10
182.2496872948676
 20
124.7501918173575
 30
0.0
 10
182.1125625761437
 20
124.7629270948103
 30
0.0
 10
181.7263767526628
 20
124.8473115371019
 30
0.0
 10
181.0903889911104
 20
125.0027101442485
 30
0.0
 10
180.1599023481824
 20
125.2240429163796
 30
0.0
 10
179.5535479192074
 20
125.3425762466889
 30
0.0
 10
179.2724193152685
 20
125.3572165240932
 30
0.0
 10
178.7029654409075
 20
125.3892487454982
 30
0.0
 10
178.250281008012
 20
125.3067340253811
 30
0.0
 10
177.9140132388132
 20
125.1127768081071
 30
0.0
 10
177.5777807473912
 20
124.917443757535
 30
0.0
 10
177.3424779756164
 20
124.5963454323935
 30
0.0
 10
177.2081402012659
 20
124.1496934993441
 30
0.0
 10
177.0734143713697
 20
123.7037471218323
 30
0.0
 10
177.0679110381768
 20
123.2200535230612
 30
0.0
 10
177.1915949239103
 20
122.6993182585685
 30
0.0
 10
177.2691001997107
 20
122.3742688224168
 30
0.0
 10
177.4020974185399
 20
122.0900388583665
 30
0.0
 10
177.5919271359191
 20
121.8452785581346
 30
0.0
 10
177.7814040755296
 20
121.5994630088504
 30
0.0
 10
177.9708810151401
 20
121.4492502349048
 30
0.0
 10
178.1610282325113
 20
121.3925971918739
 30
0.0
 10
178.3167443396497
 20
121.3460627375374
 30
0.0
 10
178.4307973922956
 20
121.3712157924512
 30
0.0
 10
178.5045279459701
 20
121.468547178857
 30
0.0
 10
178.5775529441071
 20
121.5658785652627
 30
0.0
 10
178.5906409993287
 20
121.7128105059586
 30
0.0
 10
178.5441448894038
 20
121.908672723184
 30
0.0
 10
178.5072796125665
 20
122.0640360525537
 30
0.0
 10
178.3877277331806
 20
122.3007146576266
 30
0.0
 10
178.1865340651939
 20
122.6178265939809
 30
0.0
 10
177.9984329588817
 20
122.8996638581641
 30
0.0
 10
177.8874888444169
 20
123.1115038036083
 30
0.0
 10
177.8540762958978
 20
123.2532851888801
 30
0.0
 10
177.7717379646651
 20
123.598478235629
 30
0.0
 10
177.8141110666579
 20
123.9085346166077
 30
0.0
 10
177.9798415704671
 20
124.1853593317675
 30
0.0
 10
178.1458940662307
 20
124.4614784913898
 30
0.0
 10
178.4859012797786
 20
124.6290832093361
 30
0.0
 10
179.0002512666565
 20
124.6857393190018
 30
0.0
 10
179.5139309757736
 20
124.7424307064444
 30
0.0
 10
180.132315126664
 20
124.653354319828
 30
0.0
 10
180.8540631638062
 20
124.4194626591284
 30
0.0
 10
180.4854456732104
 20
122.368412711455
 30
0.0
 10
180.2932170670035
 20
120.8022558069666
 30
0.0
 10
180.2773773451854
 20
119.7208508345555
 30
0.0
 10
180.2649595677244
 20
118.8954214111695
 30
0.0
 10
180.36003317641
 20
118.0565158770163
 30
0.0
 10
180.562633449019
 20
117.2050867320714
 30
0.0
 10
180.8089428871796
 20
116.169648702932
 30
0.0
 10
181.2574998201804
 20
115.2263944156379
 30
0.0
 10
181.9099975813116
 20
114.3754562487057
 30
0.0
 10
182.1794139633271
 20
114.0235251465731
 30
0.0
 10
182.471196455883
 20
113.7246518208646
 30
0.0
 10
182.7840045034582
 20
113.4717807162048
 30
0.0
 10
182.7840045034582
 20
113.4717807162048
 30
0.0
 10
176.7592304904963
 20
115.2577181706418
 30
0.0
 10
176.7592304904963
 20
115.2577181706418
 30
0.0
 10
176.7960957673336
 20
115.2835767810931
 30
0.0
 10
176.8329610441709
 20
115.3102820581896
 30
0.0
 10
176.8680977099411
 20
115.340762057412
 30
0.0
 10
177.2088104790266
 20
115.6398117720048
 30
0.0
 10
177.3004666223418
 20
116.1222706485852
 30
0.0
 10
177.1419943696201
 20
116.7875389649461
 30
0.0
 10
177.0751429824367
 20
117.0681384022319
 30
0.0
 10
176.9586910409632
 20
117.3118725626803
 30
0.0
 10
176.7933441007371
 20
117.5171892241089
 30
0.0
 10
176.6286674382717
 20
117.7221883855456
 30
0.0
 10
176.4577818870758
 20
117.8517283822408
 30
0.0
 10
176.283121613754
 20
117.9037278253586
 30
0.0
 10
176.1256768955485
 20
117.9507531019367
 30
0.0
 10
176.0058030097179
 20
117.9190736583005
 30
0.0
 10
175.9241349562458
 20
117.8083014389043
 30
0.0
 10
175.8421494027819
 20
117.697564497285
 30
0.0
 10
175.8235580143673
 20
117.5457995011568
 30
0.0
 10
175.8700541242922
 20
117.3520186727672
 30
0.0
 10
175.8931257903703
 20
117.254866637353
 30
0.0
 10
175.9661860662841
 20
117.0884584017135
 30
0.0
 10
176.0898346742407
 20
116.8523089632937
 30
0.0
 10
176.1928457827238
 20
116.6543653572325
 30
0.0
 10
176.2614257809742
 20
116.48626675041
 30
0.0
 10
176.2941282801399
 20
116.3479425872722
 30
0.0
 10
176.3568521674285
 20
116.0854083043119
 30
0.0
 10
176.3396366123122
 20
115.9031603763974
 30
0.0
 10
176.2427991147827
 20
115.8034301011639
 30
0.0
 10
176.1459968950301
 20
115.7038762148149
 30
0.0
 10
175.9651277329778
 20
115.6938926039585
 30
0.0
 10
175.6998741286339
 20
115.7731264908259
 30
0.0
 10
175.4697219122833
 20
115.8416712112994
 30
0.0
 10
175.0370444006851
 20
116.0837120384578
 30
0.0
 10
174.4031336061609
 20
116.4998486945079
 30
0.0
 10
173.2542069688058
 20
117.258285619603
 30
0.0
 10
172.2248014395126
 20
117.7735175509028
 30
0.0
 10
171.3139292405287
 20
118.0455092106304
 30
0.0
 10
170.6800228678121
 20
118.2346333724721
 30
0.0
 10
169.7915167793686
 20
118.3035308707144
 30
0.0
 10
168.6477406974377
 20
118.2518489275884
 30
0.0
 10
168.6477406974377
 20
118.2518489275884
 30
0.0
 10
170.3713423201316
 20
120.6596277550498
 30
0.0
 10
170.3713423201316
 20
120.6596277550498
 30
0.0
 10
170.3713423201316
 20
120.6596277550498
 30
0.0
 10
173.4367694641483
 20
124.6423476534421
 30
0.0
 10
173.4367694641483
 20
124.6423476534421
 30
0.0
 10
173.7826680664348
 20
125.1001826417618
 30
0.0
 10
174.1654319455585
 20
125.5375565194923
 30
0.0
 10
174.5853786015115
 20
125.95439873108
 30
0.0
 10
174.9874041468105
 20
126.357306220801
 30
0.0
 10
175.1634755312074
 20
126.6641170463069
 30
0.0
 10
175.1131694213798
 20
126.8747638571704
 30
0.0
 10
175.0987055328599
 20
126.935403150497
 30
0.0
 10
175.0539027562251
 20
127.0058528709219
 30
0.0
 10
174.9787963692523
 20
127.0844164800287
 30
0.0
 10
174.9040471784959
 20
127.1632975891273
 30
0.0
 10
174.8292891508443
 20
127.2140975878313
 30
0.0
 10
174.7545355416404
 20
127.2364989761487
 30
0.0
 10
174.6973502653215
 20
127.2535734201575
 30
0.0
 10
174.6064041565306
 20
127.2428842537636
 30
0.0
 10
174.4820147152596
 20
127.2049959213969
 30
0.0
 10
174.0413952820563
 20
127.0582083015688
 30
0.0
 10
173.5394630726394
 20
127.0694234248556
 30
0.0
 10
172.976500309224
 20
127.2375220316782
 30
0.0
 10
172.424967545517
 20
127.4021986941436
 30
0.0
 10
171.5616145119875
 20
127.7539534073918
 30
0.0
 10
170.386829264181
 20
128.2927861714228
 30
0.0
 10
169.8714562217737
 20
128.5284064431894
 30
0.0
 10
169.4356388465303
 20
128.6996447721541
 30
0.0
 10
169.0790820753221
 20
128.8060778249943
 30
0.0
 10
168.5213051451078
 20
128.9724830985267
 30
0.0
 10
168.1027343224531
 20
128.9034092114001
 30
0.0
 10
167.8226640518205
 20
128.5997381080362
 30
0.0
 10
167.5429112811798
 20
128.2960317268955
 30
0.0
 10
167.4733082273999
 20
127.8480039605479
 30
0.0
 10
167.6138944025411
 20
127.2569953645147
 30
0.0
 10
167.7144671101364
 20
126.833238708659
 30
0.0
 10
167.8770976615429
 20
126.4718531623231
 30
0.0
 10
168.1027343224531
 20
126.1738617810366
 30
0.0
 10
168.3284062611401
 20
125.8753444129756
 30
0.0
 10
168.5557715331173
 20
125.6918999685772
 30
0.0
 10
168.7845126383928
 20
125.6234931839666
 30
0.0
 10
168.9278462458471
 20
125.5808070739445
 30
0.0
 10
169.0370662430607
 20
125.6040583019322
 30
0.0
 10
169.1118198522647
 20
125.6941192932759
 30
0.0
 10
169.1862249577036
 20
125.783548457661
 30
0.0
 10
169.2031187388244
 20
125.9122065099342
 30
0.0
 10
169.1635017953906
 20
126.0798112278805
 30
0.0
 10
169.1317870739775
 20
126.2134787244703
 30
0.0
 10
169.0797876308597
 20
126.3344109436073
 30
0.0
 10
169.0088087437816
 20
126.4425726075146
 30
0.0
 10
168.936811068877
 20
126.5514398269594
 30
0.0
 10
168.7848654161616
 20
126.7216198226177
 30
0.0
 10
168.5526670887521
 20
126.9527950944977
 30
0.0
 10
168.3290765389008
 20
127.1684481445515
 30
0.0
 10
168.1950562645422
 20
127.3703428616229
 30
0.0
 10
168.1506415434531
 20
127.5580944125551
 30
0.0
 10
168.1110246000193
 20
127.7252020192364
 30
0.0
 10
168.1416809881261
 20
127.8476511827791
 30
0.0
 10
168.2429634855422
 20
127.9263944124629
 30
0.0
 10
168.344598760727
 20
128.0050959009846
 30
0.0
 10
168.5196118118176
 20
128.0071805235536
 30
0.0
 10
168.7672970832764
 20
127.9332703472615
 30
0.0
 10
168.9109481907227
 20
127.8903725705781
 30
0.0
 10
169.2713106815291
 20
127.7026242420346
 30
0.0
 10
169.8476832908716
 20
127.3710484171605
 30
0.0
 10
170.7854328651228
 20
126.8246309311008
 30
0.0
 10
171.5736795116796
 20
126.4560166350525
 30
0.0
 10
172.2127364398204
 20
126.2651638573227
 30
0.0
 10
172.6099642074641
 20
126.1466626150639
 30
0.0
 10
172.9834147534921
 20
126.0818926167163
 30
0.0
 10
173.3334408556733
 20
126.0720501169674
 30
0.0
 10
172.9245008661062
 20
125.3425762466889
 30
0.0
 10
172.4942221790984
 20
124.6924805243824
 30
0.0
 10
172.0418508886245
 20
124.1209421111887
 30
0.0
 10
172.0418508886245
 20
124.1209421111887
 30
0.0
 10
170.1939303802133
 20
121.7781096709594
 30
0.0
 10
170.1939303802133
 20
121.7781096709594
 30
0.0
 10
169.4032495670519
 20
120.8089938623502
 30
0.0
 10
168.8248351373641
 20
120.0738049922176
 30
0.0
 10
168.4582637578272
 20
119.5713436161475
 30
0.0
 10
168.0062848804693
 20
118.9744789091526
 30
0.0
 10
167.6941471106548
 20
118.578979752576
 30
0.0
 10
167.5212154484
 20
118.385022535302
 30
0.0
 10
167.4206032287446
 20
118.276511081542
 30
0.0
 10
167.3641277359366
 20
118.1643600409316
 30
0.0
 10
167.3423923974066
 20
118.0498130994095
 30
0.0
 10
167.3423923974066
 20
118.0498130994095
 30
0.0
 10
165.1727032860933
 20
118.692680027453
 30
0.0
 10
165.1727032860933
 20
118.692680027453
 30
0.0
 10
165.1727032860933
 20
118.692680027453
 30
0.0
 10
165.1816285636434
 20
118.9133072440466
 30
0.0
 10
165.1816285636434
 20
118.9133072440466
 30
0.0
 10
164.5835644122346
 20
119.0728333510878
 30
0.0
 10
164.0699199808943
 20
119.2888391789104
 30
0.0
 10
163.6389313807786
 20
119.5606544497536
 30
0.0
 10
163.5197277727086
 20
122.8071271447069
 30
0.0
 10
163.4535860702479
 20
124.7916784829657
 30
0.0
 10
163.44084666361
 20
125.5149787422906
 30
0.0
 10
163.4067330533692
 20
127.7079511863432
 30
0.0
 10
163.4156936086961
 20
128.9097944890149
 30
0.0
 10
163.4663172185157
 20
129.1221667058191
 30
0.0
 10
163.5107672173817
 20
129.2883955904671
 30
0.0
 10
163.5907066597867
 20
129.3993441987477
 30
0.0
 10
163.7037055146294
 20
129.4563530861822
 30
0.0
 10
163.8797416256965
 20
129.5379858618773
 30
0.0
 10
164.2834916421123
 20
129.5071530848861
 30
0.0
 10
164.9160221815306
 20
129.3638547552087
 30
0.0
 10
164.9160221815306
 20
129.3638547552087
 30
0.0
 10
164.934966347714
 20
129.8561561315379
 30
0.0
 10
164.934966347714
 20
129.8561561315379
 30
0.0
 10
164.5115666255389
 20
129.904910019183
 30
0.0
 10
163.887322207775
 20
130.0390714046491
 30
0.0
 10
163.0598113955532
 20
130.2604394545571
 30
0.0
 10
162.1733866959455
 20
130.5045263927744
 30
0.0
 10
161.6063317104123
 20
130.6516347223547
 30
0.0
 10
161.359669494483
 20
130.7019408321823
 30
0.0
 10
161.1126545007849
 20
130.7523880531176
 30
0.0
 10
160.8756231179431
 20
130.7825505523481
 30
0.0
 10
160.6489281237266
 20
130.7933808298495
 30
0.0
 10
160.6489281237266
 20
130.7933808298495
 30
0.0
 10
160.6206706244475
 20
130.2725044542493
 30
0.0
 10
160.6206706244475
 20
130.2725044542493
 30
0.0
 10
161.171215610402
 20
130.2032541782382
 30
0.0
 10
161.6466189316067
 20
130.1033475141204
 30
0.0
 10
162.0469511436156
 20
129.9708794619444
 30
0.0
 10
162.1303166261342
 20
127.5520586903203
 30
0.0
 10
162.1768439180796
 20
125.9862898413775
 30
0.0
 10
162.1858044734065
 20
125.2738198595542
 30
0.0
 10
162.2288433611974
 20
122.80406108041
 30
0.0
 10
162.2436600274861
 20
121.3991205139615
 30
0.0
 10
162.2319478055626
 20
121.0587605226448
 30
0.0
 10
162.2195694038892
 20
120.7180477535594
 30
0.0
 10
162.185098917869
 20
120.4994313702478
 30
0.0
 10
162.1289366970796
 20
120.4026291504952
 30
0.0
 10
162.0986330867416
 20
120.3485483185416
 30
0.0
 10
162.0497028102121
 20
120.3091077639923
 30
0.0
 10
161.9811580897386
 20
120.2858597090298
 30
0.0
 10
161.6983008747327
 20
120.1997113778943
 30
0.0
 10
161.2559528304623
 20
120.19230304475
 30
0.0
 10
160.6541139569277
 20
120.2648341540107
 30
0.0
 10
160.6541139569277
 20
120.2648341540107
 30
0.0
 10
160.660644404279
 20
120.0304133266579
 30
0.0
 10
160.660644404279
 20
120.0304133266579
 30
0.0
 10
160.660644404279
 20
120.0304133266579
 30
0.0
 10
159.4889595422088
 20
120.3778288733502
 30
0.0
 10
159.4889595422088
 20
120.3778288733502
 30
0.0
 10
159.4889595422088
 20
120.3778288733502
 30
0.0
 10
159.4686395427272
 20
120.774530525362
 30
0.0
 10
159.4686395427272
 20
120.774530525362
 30
0.0
 10
159.1561842729208
 20
120.7848638629658
 30
0.0
 10
158.8530110713977
 20
120.8336177506109
 30
0.0
 10
158.5591471825827
 20
120.9212860808809
 30
0.0
 10
158.1966992973993
 20
121.0294799678363
 30
0.0
 10
157.7802138494439
 20
121.2163816297347
 30
0.0
 10
157.3109801533292
 20
121.4806121785492
 30
0.0
 10
157.3109801533292
 20
121.4806121785492
 30
0.0
 10
157.2648055162397
 20
122.4955185415456
 30
0.0
 10
157.2648055162397
 20
122.4955185415456
 30
0.0
 10
157.2403540440199
 20
122.9833749179883
 30
0.0
 10
157.2262429332688
 20
123.3526626863447
 30
0.0
 10
157.2207082940285
 20
123.60416108021
 30
0.0
 10
157.2207082940285
 20
123.60416108021
 30
0.0
 10
157.1380484910744
 20
128.118972564746
 30
0.0
 10
157.1380484910744
 20
128.118972564746
 30
0.0
 10
157.1022062697666
 20
130.069410292764
 30
0.0
 10
157.1342384911716
 20
131.6227999670944
 30
0.0
 10
157.2334748775287
 20
132.7782849458771
 30
0.0
 10
156.6343523928136
 20
132.5404068963903
 30
0.0
 10
156.0114879642598
 20
131.9268205231553
 30
0.0
 10
155.3641407585528
 20
130.9387638561542
 30
0.0
 10
154.4729221836041
 20
129.5064860787344
 30
0.0
 10
153.668479135146
 20
127.5832442450803
 30
0.0
 10
152.9522344311967
 20
125.1697888575964
 30
0.0
 10
152.9522344311967
 20
125.1697888575964
 30
0.0
 10
150.6491953232855
 20
132.9798268851798
 30
0.0
 10
150.6491953232855
 20
132.9798268851798
 30
0.0
 10
150.5668569920528
 20
133.2049696572137
 30
0.0
 10
150.5265697708584
 20
133.3460454869478
 30
0.0
 10
150.5272400486191
 20
133.4035835410355
 30
0.0
 10
150.5134464378598
 20
133.4514554842586
 30
0.0
 10
150.4400686619541
 20
133.7658157540164
 30
0.0
 10
150.3077769986625
 20
134.3475110169539
 30
0.0
 10
149.9932403400203
 20
134.3371746283287
 30
0.0
 10
149.5533264623546
 20
134.4169376818493
 30
0.0
 10
148.9876120323427
 20
134.5857418442095
 30
0.0
 10
147.9382392813366
 20
134.8926971884989
 30
0.0
 10
147.0666312480176
 20
134.9783129453052
 30
0.0
 10
146.3721176546251
 20
134.8426027440671
 30
0.0
 10
145.6775687834556
 20
134.7070268411152
 30
0.0
 10
145.1935576846926
 20
134.3507918502035
 30
0.0
 10
144.9203665805512
 20
133.7751290871121
 30
0.0
 10
144.6474929764017
 20
133.1984079907144
 30
0.0
 10
144.602372699775
 20
132.5250610634485
 30
0.0
 10
144.7859971860259
 20
131.752865805371
 30
0.0
 10
144.9165565806484
 20
131.2036999671991
 30
0.0
 10
145.1463560192302
 20
130.6948499990299
 30
0.0
 10
145.475709344161
 20
130.2253027887868
 30
0.0
 10
145.7185615601876
 20
129.8758058532588
 30
0.0
 10
145.9511126653658
 20
129.66823141411
 30
0.0
 10
146.1740329374564
 20
129.6017360787107
 30
0.0
 10
146.306324600748
 20
129.5622922501461
 30
0.0
 10
146.4055257093283
 20
129.5860694717617
 30
0.0
 10
146.4723770965117
 20
129.673734747303
 30
0.0
 10
146.5388404281494
 20
129.7607297450836
 30
0.0
 10
146.5509054278416
 20
129.8938680750202
 30
0.0
 10
146.5088895955802
 20
130.0706097371778
 30
0.0
 10
146.4716715409741
 20
130.2271725109614
 30
0.0
 10
146.3404029332119
 20
130.4559488940137
 30
0.0
 10
146.1151190500705
 20
130.7565155530123
 30
0.0
 10
145.69446683858
 20
131.3182435942369
 30
0.0
 10
145.4443474005167
 20
131.7654246939395
 30
0.0
 10
145.3651135136492
 20
132.0990819076494
 30
0.0
 10
145.1852674071264
 20
132.8540616106105
 30
0.0
 10
145.3499440695918
 20
133.4402724289884
 30
0.0
 10
145.8591471857574
 20
133.8569416332024
 30
0.0
 10
146.4982004291862
 20
134.3802487938965
 30
0.0
 10
147.4752221853534
 20
134.4453749663885
 30
0.0
 10
148.7898800929428
 20
134.0529768578014
 30
0.0
 10
149.0692800858147
 20
132.5419591185729
 30
0.0
 10
149.2294764706166
 20
131.0311177682288
 30
0.0
 10
149.2701164695798
 20
129.5201000290003
 30
0.0
 10
149.3118148018494
 20
128.0089059008874
 30
0.0
 10
149.2222445263567
 20
126.8663292633703
 30
0.0
 10
149.0021111986395
 20
126.094098727516
 30
0.0
 10
148.7830009264516
 20
125.321197913901
 30
0.0
 10
148.492558989417
 20
124.826815148736
 30
0.0
 10
148.1325492763794
 20
124.6099626542683
 30
0.0
 10
147.894847615777
 20
124.4630307135724
 30
0.0
 10
147.6406006778189
 20
124.4301165477455
 30
0.0
 10
147.3698084625052
 20
124.5109026567956
 30
0.0
 10
147.2144451331355
 20
124.557257655613
 30
0.0
 10
147.0115273605346
 20
124.6490504310489
 30
0.0
 10
146.7593265336354
 20
124.7863515386572
 30
0.0
 10
146.484406818427
 20
124.9310609794098
 30
0.0
 10
146.2773615459314
 20
125.0238768103752
 30
0.0
 10
146.139213771678
 20
125.0650459759915
 30
0.0
 10
145.9493840542988
 20
125.1217373634341
 30
0.0
 10
145.8091901689865
 20
125.1001826417618
 30
0.0
 10
145.7178912824269
 20
125.0006287554127
 30
0.0
 10
145.6265923958672
 20
124.9008984801793
 30
0.0
 10
145.6031679520204
 20
124.7588027465881
 30
0.0
 10
145.6469123953488
 20
124.5742999688564
 30
0.0
 10
145.6552026729151
 20
124.5398657116122
 30
0.0
 10
145.6686082281286
 20
124.505575712487
 30
0.0
 10
145.6806732278208
 20
124.4709682133699
 30
0.0
 10
145.6806732278208
 20
124.4709682133699
 30
0.0
 10
143.6015774475296
 20
125.0872709754245
 30
0.0
 10
143.6015774475296
 20
125.0872709754245
 30
0.0
 10
143.6015774475296
 20
125.0872709754245
 30
0.0
 10
143.6115610583861
 20
125.3522070797765
 30
0.0
 10
143.6115610583861
 20
125.3522070797765
 30
0.0
 10
143.013849684746
 20
125.5117331868178
 30
0.0
 10
142.4998171978601
 20
125.7277390146404
 30
0.0
 10
142.0691813755132
 20
125.999730674368
 30
0.0
 10
141.9496638534016
 20
129.2460269804369
 30
0.0
 10
141.8838319357974
 20
131.2305783186957
 30
0.0
 10
141.8707438805758
 20
131.9538785780206
 30
0.0
 10
141.8369830481038
 20
134.1466746331888
 30
0.0
 10
141.8455944089832
 20
135.3488388550518
 30
0.0
 10
141.8962497132584
 20
135.5610665415491
 30
0.0
 10
141.9410172121163
 20
135.7272954261971
 30
0.0
 10
142.0206038767525
 20
135.8382087567008
 30
0.0
 10
142.1339513738608
 20
135.8952176441353
 30
0.0
 10
142.3099874804809
 20
135.9768856976073
 30
0.0
 10
142.7134277420996
 20
135.9460529206161
 30
0.0
 10
143.3459582974968
 20
135.8027193131618
 30
0.0
 10
143.3459582974968
 20
135.8027193131618
 30
0.0
 10
143.3652163424486
 20
136.2951970783754
 30
0.0
 10
143.3652163424486
 20
136.2951970783754
 30
0.0
 10
142.9421652421304
 20
136.3435981882517
 30
0.0
 10
142.3172194247408
 20
136.4781476292635
 30
0.0
 10
141.4900613902878
 20
136.6993040125102
 30
0.0
 10
140.6032839129114
 20
136.9433944102085
 30
0.0
 10
140.0365817051469
 20
137.0905027435052
 30
0.0
 10
139.7895667114488
 20
137.1409817790199
 30
0.0
 10
139.5421989399819
 20
137.1914642777319
 30
0.0
 10
139.305520334909
 20
137.2214151103012
 30
0.0
 10
139.0791781184612
 20
137.2322806655795
 30
0.0
 10
139.0791781184612
 20
137.2322806655795
 30
0.0
 10
139.050955896959
 20
136.7113690122024
 30
0.0
 10
139.050955896959
 20
136.7113690122024
 30
0.0
 10
139.6014656051366
 20
136.6421221880618
 30
0.0
 10
140.0761986485807
 20
136.5423884609579
 30
0.0
 10
140.4768483605815
 20
136.4099204087819
 30
0.0
 10
140.5602450251205
 20
133.9909585260503
 30
0.0
 10
140.6070939128142
 20
132.4251543993306
 30
0.0
 10
140.6160544681411
 20
131.7128960841685
 30
0.0
 10
140.6587758559401
 20
129.2430989249561
 30
0.0
 10
140.6739100222207
 20
127.8380203496915
 30
0.0
 10
140.6615275225366
 20
127.4978014694823
 30
0.0
 10
140.6494625228444
 20
127.1569123115125
 30
0.0
 10
140.6153489126036
 20
126.9383312059778
 30
0.0
 10
140.5591866918142
 20
126.8415289862252
 30
0.0
 10
140.5288830814762
 20
126.7875892653791
 30
0.0
 10
140.4799528049467
 20
126.7481487108298
 30
0.0
 10
140.4114080844732
 20
126.7247242669829
 30
0.0
 10
140.1285508694673
 20
126.6386112136243
 30
0.0
 10
139.686202825197
 20
126.63120288048
 30
0.0
 10
139.0843639516623
 20
126.7037339897407
 30
0.0
 10
139.0843639516623
 20
126.7037339897407
 30
0.0
 10
139.091948673691
 20
126.4246514968607
 30
0.0
 10
139.091948673691
 20
126.4246514968607
 30
0.0
 10
139.091948673691
 20
126.4246514968607
 30
0.0
 10
137.6325775998115
 20
126.857192319159
 30
0.0
 10
137.6325775998115
 20
126.857192319159
 30
0.0
 10
137.6325775998115
 20
126.857192319159
 30
0.0
 10
137.615714822464
 20
127.2668025864867
 30
0.0
 10
137.615714822464
 20
127.2668025864867
 30
0.0
 10
137.3287301075633
 20
127.310582307592
 30
0.0
 10
137.0665809475846
 20
127.3682614727872
 30
0.0
 10
136.8319484535706
 20
127.4382173043358
 30
0.0
 10
136.6307592920367
 20
127.4983306361355
 30
0.0
 10
136.3589440211935
 20
127.6099527458754
 30
0.0
 10
136.0168554188098
 20
127.7732503513439
 30
0.0
 10
135.8311532013252
 20
127.8588695158263
 30
0.0
 10
135.6881723716397
 20
127.9231103475207
 30
0.0
 10
135.5872426519924
 20
127.9654789575509
 30
0.0
 10
135.2933787706006
 20
133.0638971889564
 30
0.0
 10
135.3226593254091
 20
136.3382712439432
 30
0.0
 10
135.6764601497162
 20
137.7879762069581
 30
0.0
 10
135.8697470892295
 20
138.6182386857763
 30
0.0
 10
136.1835781923341
 20
138.9687586768338
 30
0.0
 10
136.6162954035168
 20
138.83957496529
 30
0.0
 10
136.8185110769066
 20
138.779105348339
 30
0.0
 10
137.0900053914315
 20
138.5372761878419
 30
0.0
 10
137.432446771584
 20
138.1130256431098
 30
0.0
 10
137.7683264852372
 20
137.6909975983211
 30
0.0
 10
138.0380956450215
 20
137.4498387155847
 30
0.0
 10
138.2396375843241
 20
137.389725383785
 30
0.0
 10
138.3956711914545
 20
137.3430176071988
 30
0.0
 10
138.5100805209282
 20
137.3590689956782
 30
0.0
 10
138.5820789644766
 20
137.4387967714219
 30
0.0
 10
138.654398407076
 20
137.5185598249426
 30
0.0
 10
138.670273406671
 20
137.6441487106274
 30
0.0
 10
138.6292453521622
 20
137.8153517618152
 30
0.0
 10
138.5596775761592
 20
138.1085453654464
 30
0.0
 10
138.3595114701548
 20
138.4103114688588
 30
0.0
 10
138.030158145224
 20
138.7217789609126
 30
0.0
 10
137.700808298908
 20
139.0321528418832
 30
0.0
 10
137.2808581643402
 20
139.2640336693007
 30
0.0
 10
136.7709884551258
 20
139.4162925543052
 30
0.0
 10
136.1798034702082
 20
139.592681438694
 30
0.0
 10
135.687152743856
 20
139.5787467168273
 30
0.0
 10
135.2920029373023
 20
139.37477061092
 30
0.0
 10
134.8957982251881
 20
139.1716764494347
 30
0.0
 10
134.5991860774614
 20
138.7386417382602
 30
0.0
 10
134.4017682377919
 20
138.0752784218506
 30
0.0
 10
134.204036298392
 20
137.4120914943255
 30
0.0
 10
134.0930876901114
 20
136.1815320812752
 30
0.0
 10
134.0676171352057
 20
134.3831768493773
 30
0.0
 10
133.2073685460414
 20
134.5142690682551
 30
0.0
 10
132.0029499656575
 20
134.8112373940121
 30
0.0
 10
130.4533736163016
 20
135.2739054377641
 30
0.0
 10
130.3785847293207
 20
137.6246753777909
 30
0.0
 10
130.4347469501101
 20
139.2228645036844
 30
0.0
 10
130.621825000893
 20
140.0682611487832
 30
0.0
 10
129.0542922631063
 20
140.5362914146205
 30
0.0
 10
128.0249220115899
 20
140.7774502973569
 30
0.0
 10
127.5343139685508
 20
140.7926197414144
 30
0.0
 10
126.682002879184
 20
140.8143155741942
 30
0.0
 10
126.0880694129224
 20
140.5962283575358
 30
0.0
 10
125.7518337362479
 20
140.1382169803318
 30
0.0
 10
125.4162715225866
 20
139.6795000475902
 30
0.0
 10
125.3422234689201
 20
139.0583642301033
 30
0.0
 10
125.5285959641654
 20
138.2747777432091
 30
0.0
 10
125.6316070726485
 20
137.8424098166805
 30
0.0
 10
125.7787154022287
 20
137.4927364922681
 30
0.0
 10
125.9719670639652
 20
137.2248723324352
 30
0.0
 10
126.1652540034784
 20
136.9564790059491
 30
0.0
 10
126.3595639985212
 20
136.7933545656663
 30
0.0
 10
126.5541914935558
 20
136.7353226227024
 30
0.0
 10
126.710260378463
 20
136.6888265127775
 30
0.0
 10
126.8243166349607
 20
136.7134504010382
 30
0.0
 10
126.8973416349423
 20
136.8079948430706
 30
0.0
 10
126.9713864829123
 20
136.9032801184175
 30
0.0
 10
126.984157038142
 20
137.0493301146914
 30
0.0
 10
126.9369553726796
 20
137.2472737207526
 30
0.0
 10
126.8966360793871
 20
137.4174537164109
 30
0.0
 10
126.7812392655411
 20
137.6572367658491
 30
0.0
 10
126.5917623259306
 20
137.9664112024058
 30
0.0
 10
126.381259831301
 20
138.3016206382984
 30
0.0
 10
126.2534484456729
 20
138.5643342427071
 30
0.0
 10
126.2079753912774
 20
138.7543050711939
 30
0.0
 10
126.0739583018149
 20
139.3194903345526
 30
0.0
 10
126.2400076126824
 20
139.7408128238037
 30
0.0
 10
126.7078614896354
 20
140.0184842056086
 30
0.0
 10
127.1767416348726
 20
140.2961555874136
 30
0.0
 10
127.9822006237909
 20
140.2642997548929
 30
0.0
 10
129.1266469834826
 20
139.9227050413855
 30
0.0
 10
129.1266469834826
 20
139.9227050413855
 30
0.0
 10
129.1621364270216
 20
136.4438610770003
 30
0.0
 10
129.1621364270216
 20
136.4438610770003
 30
0.0
 10
129.2014005926866
 20
133.2921057661017
 30
0.0
 10
129.1301042056166
 20
131.3418444269682
 30
0.0
 10
128.9482119880348
 20
130.5923680572
 30
0.0
 10
128.7983519918581
 20
129.9769119617905
 30
0.0
 10
128.5595919979494
 20
129.6641039142153
 30
0.0
 10
128.2350749679413
 20
129.6429019703118
 30
0.0
 10
128.2350749679413
 20
129.6429019703118
 30
0.0
 10
127.8058117394021
 20
129.7701841892868
 30
0.0
 10
127.8058117394021
 20
129.7701841892868
 30
0.0
 10
127.7692992403336
 20
129.7944905775556
 30
0.0
 10
127.7324339634963
 20
129.817738632518
 30
0.0
 10
127.6969445199573
 20
129.8491005761624
 30
0.0
 10
127.5939334114742
 20
129.9383180738862
 30
0.0
 10
127.4458020263645
 20
130.1150597360438
 30
0.0
 10
127.2518448090905
 20
130.3775616737913
 30
0.0
 10
126.9321223172473
 20
130.8149388561853
 30
0.0
 10
126.6616860794458
 20
131.0659016562303
 30
0.0
 10
126.4415527461675
 20
131.1316947101073
 30
0.0
 10
126.3051303887988
 20
131.1725110979549
 30
0.0
 10
126.2027895580764
 20
131.1496158207612
 30
0.0
 10
126.1338920598341
 20
131.0631499896338
 30
0.0
 10
126.0649945615918
 20
130.9766841585064
 30
0.0
 10
126.0501778953032
 20
130.8516277450647
 30
0.0
 10
126.0894420609681
 20
130.6877944436544
 30
0.0
 10
126.1280359488724
 20
130.5243172256028
 30
0.0
 10
126.2103742801051
 20
130.3651791741072
 30
0.0
 10
126.3271789993474
 20
130.2087575114312
 30
0.0
 10
126.3271789993474
 20
130.2087575114312
 30
0.0
 10
123.3475121309206
 20
131.0920777666736
 30
0.0
 10
123.3475121309206
 20
131.0920777666736
 30
0.0
 10
123.9107923943279
 20
131.3049791501309
 30
0.0
 10
124.2935209956748
 20
131.6668971893056
 30
0.0
 10
124.492311268381
 20
132.1822669055272
 30
0.0
 10
124.6993565408766
 20
132.7185277445982
 30
0.0
 10
124.720029318127
 20
133.33415687614
 30
0.0
 10
124.5549998778928
 20
134.0291996361858
 30
0.0
 10
124.4423610800005
 20
134.5013574019178
 30
0.0
 10
124.2074110800592
 20
135.0208579442198
 30
0.0
 10
123.8497971181062
 20
135.5899943185888
 30
0.0
 10
123.4928918494338
 20
136.157931248544
 30
0.0
 10
122.8269532553122
 20
136.9962723382673
 30
0.0
 10
121.850958280212
 20
138.1054444099179
 30
0.0
 10
121.3152299605462
 20
138.7214261831438
 30
0.0
 10
120.9541971919791
 20
139.1840942268957
 30
0.0
 10
120.7668016412044
 20
139.4946832984596
 30
0.0
 10
120.5793708126529
 20
139.8052300443825
 30
0.0
 10
120.445703316063
 20
140.1292564250048
 30
0.0
 10
120.3650935958973
 20
140.4675703052626
 30
0.0
 10
120.2148808219518
 20
141.098372233614
 30
0.0
 10
120.3020522086167
 20
141.6011863874528
 30
0.0
 10
120.627242755876
 20
141.9747780445883
 30
0.0
 10
120.9521158031433
 20
142.3482285906164
 30
0.0
 10
121.4130905136051
 20
142.4465830325516
 30
0.0
 10
122.0097788317157
 20
142.2683244259882
 30
0.0
 10
122.3956118774278
 20
142.1532483178129
 30
0.0
 10
122.7349840909919
 20
141.919677742298
 30
0.0
 10
123.0277896390774
 20
141.5680958327414
 30
0.0
 10
123.319960187179
 20
141.216693897262
 30
0.0
 10
123.5252768486076
 20
140.7943483524814
 30
0.0
 10
123.6420462900731
 20
140.3021916315913
 30
0.0
 10
123.7240671213139
 20
139.9573478182795
 30
0.0
 10
123.8156835078654
 20
139.4576416318023
 30
0.0
 10
123.9162957275208
 20
138.8037645143765
 30
0.0
 10
123.9162957275208
 20
138.8037645143765
 30
0.0
 10
124.3441798832712
 20
138.6761295176327
 30
0.0
 10
124.3441798832712
 20
138.6761295176327
 30
0.0
 10
124.1960484981615
 20
139.7347803239576
 30
0.0
 10
124.1102529447948
 20
140.4382897504541
 30
0.0
 10
124.0864757231791
 20
140.7862344637995
 30
0.0
 10
124.0637568348699
 20
141.1341791771449
 30
0.0
 10
124.0613226682653
 20
141.4983516678541
 30
0.0
 10
124.0792437789192
 20
141.879034158142
 30
0.0
 10
123.8656368399243
 20
141.9718499891075
 30
0.0
 10
123.610014068668
 20
142.0919355415994
 30
0.0
 10
123.3137512984486
 20
142.2388674822953
 30
0.0
 10
122.7914638117732
 20
142.5060260865906
 30
0.0
 10
122.3625566004933
 20
142.6892941374706
 30
0.0
 10
122.0266416090632
 20
142.7897299682416
 30
0.0
 10
121.3538238484505
 20
142.9905663520067
 30
0.0
 10
120.7947063627147
 20
142.9959285740921
 30
0.0
 10
120.3485483185416
 20
142.8072983011267
 30
0.0
 10
119.9020727743766
 20
142.6181777421232
 30
0.0
 10
119.5837261158317
 20
142.2800366479116
 30
0.0
 10
119.3922030651622
 20
141.7925330492378
 30
0.0
 10
119.2009975144848
 20
141.305593894994
 30
0.0
 10
119.1748214040415
 20
140.7722997419328
 30
0.0
 10
119.3122666368385
 20
140.1934972566993
 30
0.0
 10
119.3804908432388
 20
139.9065125417986
 30
0.0
 10
119.489008303461
 20
139.6066514383376
 30
0.0
 10
119.6398883366211
 20
139.2922558908029
 30
0.0
 10
119.7897483327978
 20
138.9786011765827
 30
0.0
 10
119.9833880500799
 20
138.6528461848934
 30
0.0
 10
120.2193610996152
 20
138.316437304587
 30
0.0
 10
120.3854166365703
 20
138.0838861994088
 30
0.0
 10
120.7623213635409
 20
137.6312017665133
 30
0.0
 10
121.351072181854
 20
136.9587367836693
 30
0.0
 10
121.9474077221958
 20
136.2715962456442
 30
0.0
 10
122.3387793788777
 20
135.8001440354497
 30
0.0
 10
122.5265277074212
 20
135.5431454308952
 30
0.0
 10
122.7969671449661
 20
135.1662376627331
 30
0.0
 10
122.9988618620376
 20
134.8415444107341
 30
0.0
 10
123.1325293586275
 20
134.5679971224399
 30
0.0
 10
123.2648210219191
 20
134.2944532405297
 30
0.0
 10
123.3619760194405
 20
134.030575469484
 30
0.0
 10
123.4222657401246
 20
133.7765082998891
 30
0.0
 10
123.599360180051
 20
133.0308032727681
 30
0.0
 10
123.4725749691319
 20
132.436866621254
 30
0.0
 10
123.0402074165384
 20
131.9957180213976
 30
0.0
 10
122.6984363141465
 20
131.6467502525227
 30
0.0
 10
122.2492091033851
 20
131.5106485893283
 30
0.0
 10
121.6942221917987
 20
131.5821566430595
 30
0.0
 10
121.6942221917987
 20
131.5821566430595
 30
0.0
 10
120.8766919161787
 20
131.8243385813254
 30
0.0
 10
120.8766919161787
 20
131.8243385813254
 30
0.0
 10
120.7405902529842
 20
131.8937652462208
 30
0.0
 10
120.6059027476263
 20
131.9778321885206
 30
0.0
 10
120.4732583032149
 20
132.0791146859366
 30
0.0
 10
120.2245116550394
 20
132.2687680144315
 30
0.0
 10
120.0154202714849
 20
132.4792352312842
 30
0.0
 10
119.8448874980578
 20
132.7102341142799
 30
0.0
 10
119.6747075023994
 20
132.9410566083911
 30
0.0
 10
119.4938383403471
 20
133.2869552106776
 30
0.0
 10
119.3057372340349
 20
133.7453193656504
 30
0.0
 10
119.1444825159266
 20
134.1244496337558
 30
0.0
 10
119.0142722414707
 20
134.3764740717705
 30
0.0
 10
118.9143655773529
 20
134.5010046241491
 30
0.0
 10
118.7545249703115
 20
134.7080498966447
 30
0.0
 10
118.5825780858175
 20
134.8396712821756
 30
0.0
 10
118.3982869794081
 20
134.8945987807743
 30
0.0
 10
118.2194992061915
 20
134.9480093349672
 30
0.0
 10
118.0830447652283
 20
134.9025362805718
 30
0.0
 10
117.9893499705025
 20
134.7583560064724
 30
0.0
 10
117.8949436589161
 20
134.615022399018
 30
0.0
 10
117.8822083814632
 20
134.4017682377919
 30
0.0
 10
117.9490597686466
 20
134.1211721886918
 30
0.0
 10
118.0734139321407
 20
133.597681869417
 30
0.0
 10
118.4558250334957
 20
133.0208196619117
 30
0.0
 10
119.0959050171659
 20
132.3907232890979
 30
0.0
 10
119.1155547388868
 20
132.3714263451458
 30
0.0
 10
119.1362305257714
 20
132.3536816233763
 30
0.0
 10
119.15619473785
 20
132.3347374571929
 30
0.0
 10
119.15619473785
 20
132.3347374571929
 30
0.0
 10
118.9181402994788
 20
132.4051871776178
 30
0.0
 10
118.9181402994788
 20
132.4051871776178
 30
0.0
 10
118.4013944148442
 20
133.0101304955178
 30
0.0
 10
117.8853128258284
 20
133.6157793689553
 30
0.0
 10
117.3695870056524
 20
134.2205815757477
 30
0.0
 10
114.3582083047438
 20
137.7536862078329
 30
0.0
 10
111.4036944165935
 20
141.2192691749741
 30
0.0
 10
108.5539175083366
 20
144.3312277066925
 30
0.0
 10
108.6724508386459
 20
144.2464904866321
 30
0.0
 10
108.7413483368882
 20
144.1996415989384
 30
0.0
 10
108.7413483368882
 20
144.1996415989384
 30
0.0
 10
108.7413483368882
 20
144.1996415989384
 30
0.0
 10
108.3658164020244
 20
148.1793981640731
 30
0.0
 10
107.1586461550441
 20
150.2333761672272
 30
0.0
 10
105.9518286858326
 20
152.2902860730387
 30
0.0
 10
102.5566954391163
 20
154.4289974490769
 30
0.0
 10
102.5566954391163
 20
154.4289974490769
 30
0.0
 10
102.5566954391163
 20
154.4289974490769
 30
0.0
 10
103.0241965383004
 20
151.2464166288549
 30
0.0
 10
104.2620231733875
 20
148.8153859256254
 30
0.0
 10
104.2692551176475
 20
148.8012395370974
 30
0.0
 10
104.277192617445
 20
148.7874812041151
 30
0.0
 10
104.2844245617049
 20
148.7733348155871
 30
0.0
 10
100.4079966050453
 20
152.5732805519758
 30
0.0
 10
96.79029586400716
 20
155.3674215918024
 30
0.0
 10
93.57119872391095
 20
156.3284235117297
 30
0.0
 10
89.17283605834476
 20
157.6413565337895
 30
0.0
 10
86.59762890182154
 20
154.4977185584348
 30
0.0
 10
87.82892914818623
 20
149.3212692460526
 30
0.0
 10
88.83970801128801
 20
145.0695210211904
 30
0.0
 10
92.59968402647414
 20
140.7349052984423
 30
0.0
 10
96.2118814343193
 20
139.6566082984193
 30
0.0
 10
99.19429996934258
 20
138.7663700708861
 30
0.0
 10
100.9426665914047
 20
140.8982061276095
 30
0.0
 10
100.1082766126918
 20
144.4082390936167
 30
0.0
 10
100.1082766126918
 20
144.4082390936167
 30
0.0
 10
99.73345275284436
 20
145.738916837446
 30
0.0
 10
98.93934997526503
 20
145.8472548902377
 30
0.0
 10
98.14422166279897
 20
145.9551027412889
 30
0.0
 10
98.41363804481448
 20
144.9139813029363
 30
0.0
 10
98.41363804481448
 20
144.9139813029363
 30
0.0
 10
98.98757219683887
 20
142.5015458089271
 30
0.0
 10
97.78629333859715
 20
141.0379061240455
 30
0.0
 10
95.73817144640465
 20
141.6492347195603
 30
0.0
 10
93.0589301258689
 20
142.4490171991561
 30
0.0
 10
90.2701160303508
 20
145.6646571171183
 30
0.0
 10
89.52046327169826
 20
148.8162325922705
 30
0.0
 10
88.55032440755969
 20
152.8950491548779
 30
0.0
 10
90.58084268909018
 20
155.3701732583989
 30
0.0
 10
94.04491108759983
 20
154.3361463403347
 30
0.0
 10
98.75262220283294
 20
152.9308913761857
 30
0.0
 10
104.7805006601601
 20
146.7055984794506
 30
0.0
 10
111.3158527499489
 20
139.2140803372418
 30
0.0
 10
110.3174535744562
 20
139.8512322654312
 30
0.0
 10
108.9235933322387
 20
140.6580703004026
 30
0.0
 10
107.8717864146281
 20
140.9417777425425
 30
0.0
 10
106.0376242391993
 20
141.4383794471619
 30
0.0
 10
105.2617953701034
 20
139.2314722812426
 30
0.0
 10
105.2617953701034
 20
139.2314722812426
 30
0.0
 10
105.2617953701034
 20
139.2314722812426
 30
0.0
 10
108.9442661094891
 20
136.3646237432708
 30
0.0
 10
110.429778016035
 20
136.1425888548533
 30
0.0
 10
111.5142874328113
 20
135.9822126419159
 30
0.0
 10
112.1612818607495
 20
137.2386306654175
 30
0.0
 10
112.4320740760633
 20
137.9285228700391
 30
0.0
 10
113.7663501531342
 20
136.384767353868
 30
0.0
 10
115.1199231741572
 20
134.7976201721373
 30
0.0
 10
116.4855611948724
 20
133.1954833000344
 30
0.0
 10
116.5117373053157
 20
133.1646471582424
 30
0.0
 10
116.5382661935278
 20
133.1336379923668
 30
0.0
 10
116.5641277486366
 20
133.1031579931444
 30
0.0
 10
116.5641277486366
 20
133.1031579931444
 30
0.0
 10
88.38942246722019
 20
141.4554538911707
 30
0.0
 10
88.38942246722019
 20
141.4554538911707
 30
0.0
 10
91.97438543131572
 20
140.3852319740299
 30
0.0
 10
95.59035756128681
 20
131.8708346912503
 30
0.0
 10
101.7880985142804
 20
118.2589397607409
 30
0.0
 10
116.7480984103968
 20
112.7138729577629
 30
0.0
 10
124.1057726671313
 20
114.2958695840694
 30
0.0
 10
132.7329916334835
 20
115.4863181648097
 30
0.0
 10
133.378606875006
 20
114.8922051244112
 30
0.0
 10
134.0217913030415
 20
114.3237743055797
 30
0.0
 10
134.661201008951
 20
113.7806376527697
 30
0.0
 10
134.4527832997202
 20
113.9010407052535
 30
0.0
 10
134.2426301862963
 20
114.0154465356681
 30
0.0
 10
134.0311046361372
 20
114.1184576441511
 30
0.0
 10
131.9299249675205
 20
115.1393965069937
 30
0.0
 10
128.7521733819251
 20
114.7643937387831
 30
0.0
 10
128.7521733819251
 20
114.7643937387831
 30
0.0
 10
128.7521733819251
 20
114.7643937387831
 30
0.0
 10
131.1992163750513
 20
112.0884360830889
 30
0.0
 10
133.0729954939139
 20
111.3212121599593
 30
0.0
 10
134.8813343366683
 20
110.581860512155
 30
0.0
 10
137.9509277432902
 20
111.0213157787214
 30
0.0
 10
138.177619252573
 20
111.0545474445402
 30
0.0
 10
140.3052925316249
 20
109.5767613711306
 30
0.0
 10
142.3775091454249
 20
108.4740133437085
 30
0.0
 10
144.3698215945968
 20
107.8793711366568
 30
0.0
 10
149.058238141652
 20
106.4799749733799
 30
0.0
 10
153.8497010749671
 20
106.0334967393046
 30
0.0
 10
158.5508528994752
 20
105.7520153575969
 30
0.0
 10
157.3392416273319
 20
104.419467891593
 30
0.0
 10
157.9149004156997
 20
100.4899821585092
 30
0.0
 10
157.9149004156997
 20
100.4899821585092
 30
0.0
 10
157.9149004156997
 20
100.4899821585092
 30
0.0
 10
161.697630596972
 20
99.89847967359968
 30
0.0
 10
162.7501077923433
 20
101.1183851980329
 30
0.0
 10
163.431886108283
 20
101.9090333078561
 30
0.0
 10
163.3333552774634
 20
104.0701499739826
 30
0.0
 10
163.1790150036232
 20
105.4974509196469
 30
0.0
 10
168.6642859747934
 20
105.1915220385629
 30
0.0
 10
173.8491666758494
 20
104.7622620495142
 30
0.0
 10
178.5121126679988
 20
102.9191393187585
 30
0.0
 10
184.2616141879835
 20
100.6453454878789
 30
0.0
 10
189.5405454421956
 20
98.40503026725631
 30
0.0
 10
193.8654999515339
 20
95.4108995103096
 30
0.0
 10
193.139972294811
 20
95.65410450410494
 30
0.0
 10
192.3544773148507
 20
95.85116616574413
 30
0.0
 10
191.5955465008793
 20
95.91420755302471
 30
0.0
 10
189.1312526748598
 20
96.11920671446141
 30
0.0
 10
186.0372152537952
 20
93.79926955142571
 30
0.0
 10
186.0372152537952
 20
93.79926955142571
 30
0.0
 10
186.0372152537952
 20
93.79926955142571
 30
0.0
 10
189.399293223577
 20
91.52413516502479
 30
0.0
 10
191.5503909464757
 20
91.5399748868429
 30
0.0
 10
193.1186292398
 20
91.55066405323686
 30
0.0
 10
195.1994536311582
 20
92.89803053233125
 30
0.0
 10
196.2129841608564
 20
93.62771372246914
 30
0.0
 10
197.7680991211821
 20
92.32409403350502
 30
0.0
 10
199.160971585647
 20
90.88059795922057
 30
0.0
 10
200.3608746105905
 20
89.2482952230863
 30
0.0
 10
202.330468171453
 20
86.568348347013
 30
0.0
 10
204.0209439616588
 20
85.00600144242733
 30
0.0
 10
205.390749948652
 20
84.57434256455099
 30
0.0
 10
206.4421636221105
 20
84.24117923971735
 30
0.0
 10
206.402193900908
 20
84.74970839341036
 30
0.0
 10
206.4507713996687
 20
84.84203033549947
 30
0.0
 10
206.4507713996687
 20
84.84203033549947
 30
0.0
 10
207.0343716625576
 20
87.01344805787977
 30
0.0
 10
207.0343716625576
 20
87.01344805787977
 30
0.0
 10
207.0395574957586
 20
87.02346694651307
 30
0.0
 10
206.7697883359743
 20
86.74646584246884
 30
0.0
 10
206.3246886251075
 20
86.48911664504413
 30
0.0
 10
205.8795889142408
 20
86.232115855591
 30
0.0
 10
205.386581982374
 20
86.40815196221105
 30
0.0
 10
204.904299494678
 20
86.57145279137823
 30
0.0
 10
204.4801900610535
 20
86.71235223222804
 30
0.0
 10
203.5352042518288
 20
87.28942610639454
 30
0.0
 10
201.8412359617122
 20
89.49322882794863
 30
0.0
 10
200.1521360048047
 20
92.25861847961988
 30
0.0
 10
199.6257210182347
 20
93.5594888654992
 30
0.0
 10
198.6648602094149
 20
97.0469769685698
 30
0.0
 10
198.6648602094149
 20
97.0469769685698
 30
0.0
 10
198.4819499503796
 20
97.96370527851543
 30
0.0
 10
198.4819499503796
 20
97.96370527851543
 30
0.0
 10
199.6453354621787
 20
97.79179667179008
 30
0.0
 10
202.1754223420753
 20
97.49447556826426
 30
0.0
 10
202.8258739921475
 20
98.04569083197937
 30
0.0
 10
203.6792081370438
 20
98.76779164689037
 30
0.0
 10
204.189430624027
 20
100.4372771598538
 30
0.0
 10
204.189430624027
 20
100.4372771598538
 30
0.0
 10
204.189430624027
 20
100.4372771598538
 30
0.0
 10
200.0439390631206
 20
100.9068596478738
 30
0.0
 10
198.9215413139776
 20
100.4889591029797
 30
0.0
 10
198.5387774348538
 20
100.3453079955335
 30
0.0
 10
198.2993471631844
 20
100.0152491150651
 30
0.0
 10
198.1474057781719
 20
99.64352718010406
 30
0.0
 10
198.1474057781719
 20
99.64352718010406
 30
0.0
 10
198.0502507806505
 20
100.1320538343074
 30
0.0
 10
198.0502507806505
 20
100.1320538343074
 30
0.0
 10
197.8687113408375
 20
101.0353413112626
 30
0.0
 10
197.7408999552094
 20
101.8518454570985
 30
0.0
 10
197.6575385684472
 20
102.5952893270206
 30
0.0
 10
200.133862116382
 20
101.8514926793297
 30
0.0
 10
202.7421245498397
 20
101.0704805302879
 30
0.0
 10
205.5102658681074
 20
100.2443429981093
 30
0.0
 10
207.7519921998051
 20
104.385707059121
 30
0.0
 10
211.4971515487026
 20
104.092195955498
 30
0.0
 10
214.8840297956295
 20
103.0810290368505
 30
0.0
 10
214.8840297956295
 20
103.0810290368505
 30
0.0
 10
214.7048892446442
 20
104.0087992909589
 30
0.0
 10
214.7048892446442
 20
104.0087992909589
 30
0.0
 10
214.7048892446442
 20
104.0087992909589
 30
0.0
 10
198.579417433817
 20
108.7895730578801
 30
0.0
 10
198.579417433817
 20
108.7895730578801
 30
0.0
  0
ENDBLK
  5
48
330
45
100
AcDbEntity
  8
0
100
AcDbBlockEnd
  0
BLOCK
  5
125
330
123
100
AcDbEntity
  8
0
100
AcDbBlockBegin
  2
block 4
 70
     0
 10
0.0
 20
0.0
 30
0.0
  3
block 4
  1

  0
SPLINE
  5
127
330
123
100
AcDbEntity
  8
_U+30EC_U+30A4_U+30E4_U+30FC 1
370
     0
100
AcDbSpline
210
0.0
220
0.0
230
1.0
 70
    11
 71
     3
 72
    23
 73
    19
 74
     0
 42
0.0000000001
 43
0.0000000001
 12
1.0
 22
0.0
 32
0.0
 13
1.0
 23
0.0
 33
0.0
 40
0.0
 40
0.0
 40
0.0
 40
0.0
 40
1.0
 40
1.0
 40
1.0
 40
2.0
 40
2.0
 40
2.0
 40
3.0
 40
3.0
 40
3.0
 40
4.0
 40
4.0
 40
4.0
 40
5.0
 40
5.0
 40
5.0
 40
6.0
 40
6.0
 40
6.0
 40
6.0
 10
193.8820501902448
 20
49.14497677864014
 30
0.0
 10
194.1331976511195
 20
49.18562890536608
 30
0.0
 10
194.4249972387202
 20
49.21697927428185
 30
0.0
 10
194.7440130806543
 20
49.21697927428185
 30
0.0
 10
196.1175726506234
 20
49.21697927428185
 30
0.0
 10
196.5127251027816
 20
48.40428124931142
 30
0.0
 10
196.5127251027816
 20
47.56505598910456
 30
0.0
 10
196.5127251027816
 20
47.02176443108066
 30
0.0
 10
196.3690646210466
 20
46.5590881074116
 30
0.0
 10
196.0459146645302
 20
46.2225022785027
 30
0.0
 10
195.7451578286679
 20
45.91278819437873
 30
0.0
 10
195.2466525119522
 20
45.74225596785887
 30
0.0
 10
194.6227457195735
 20
45.74225596785887
 30
0.0
 10
194.3399033802345
 20
45.74225596785887
 30
0.0
 10
194.0973686580729
 20
45.75121321612052
 30
0.0
 10
193.8820501902448
 20
45.77808496090547
 30
0.0
 10
193.8820501902448
 20
45.77808496090547
 30
0.0
 10
193.8820501902448
 20
49.14497677864014
 30
0.0
 10
193.8820501902448
 20
49.14497677864014
 30
0.0
  0
SPLINE
  5
128
330
123
100
AcDbEntity
  8
_U+30EC_U+30A4_U+30E4_U+30FC 1
370
     0
100
AcDbSpline
210
0.0
220
0.0
230
1.0
 70
    11
 71
     3
 72
    20
 73
    16
 74
     0
 42
0.0000000001
 43
0.0000000001
 12
1.0
 22
0.0
 32
0.0
 13
1.0
 23
0.0
 33
0.0
 40
0.0
 40
0.0
 40
0.0
 40
0.0
 40
1.0
 40
1.0
 40
1.0
 40
2.0
 40
2.0
 40
2.0
 40
3.0
 40
3.0
 40
3.0
 40
4.0
 40
4.0
 40
4.0
 40
5.0
 40
5.0
 40
5.0
 40
5.0
 10
194.2544650122003
 20
46.06540592437531
 30
0.0
 10
194.3667751250194
 20
46.047491427852
 30
0.0
 10
194.5283501032776
 20
46.04301280372118
 30
0.0
 10
194.6899250815358
 20
46.04301280372118
 30
0.0
 10
195.6149332193255
 20
46.04301280372118
 30
0.0
 10
196.1220512747542
 20
46.56838986522178
 30
0.0
 10
196.1220512747542
 20
47.54679698303273
 30
0.0
 10
196.1220512747542
 20
48.43597612777572
 30
0.0
 10
195.6462835882412
 20
48.91622243841955
 30
0.0
 10
194.7574489530467
 20
48.91622243841955
 30
0.0
 10
194.5417859756701
 20
48.91622243841955
 30
0.0
 10
194.3712537491502
 20
48.89382931776542
 30
0.0
 10
194.2544650122003
 20
48.87143619711129
 30
0.0
 10
194.2544650122003
 20
48.87143619711129
 30
0.0
 10
194.2544650122003
 20
46.06540592437531
 30
0.0
 10
194.2544650122003
 20
46.06540592437531
 30
0.0
  0
HATCH
  5
129
330
123
100
AcDbEntity
  8
_U+30EC_U+30A4_U+30E4_U+30FC 1
 62
     7
100
AcDbHatch
 10
0.0
 20
0.0
 30
0.0
210
0.0
220
0.0
230
1.0
  2
SOLID
 70
     1
 71
     0
 91
        2
 92
        1
 93
        1
 72
     4
 94
        3
 73
     0
 74
     1
 95
       23
 96
       19
 40
0.0
 40
0.0
 40
0.0
 40
0.0
 40
1.0
 40
1.0
 40
1.0
 40
2.0
 40
2.0
 40
2.0
 40
3.0
 40
3.0
 40
3.0
 40
4.0
 40
4.0
 40
4.0
 40
5.0
 40
5.0
 40
5.0
 40
6.0
 40
6.0
 40
6.0
 40
6.0
 10
193.8820501902448
 20
49.14497677864014
 10
194.1331976511195
 20
49.18562890536608
 10
194.4249972387202
 20
49.21697927428185
 10
194.7440130806543
 20
49.21697927428185
 10
196.1175726506234
 20
49.21697927428185
 10
196.5127251027816
 20
48.40428124931142
 10
196.5127251027816
 20
47.56505598910456
 10
196.5127251027816
 20
47.02176443108066
 10
196.3690646210466
 20
46.5590881074116
 10
196.0459146645302
 20
46.2225022785027
 10
195.7451578286679
 20
45.91278819437873
 10
195.2466525119522
 20
45.74225596785887
 10
194.6227457195735
 20
45.74225596785887
 10
194.3399033802345
 20
45.74225596785887
 10
194.0973686580729
 20
45.75121321612052
 10
193.8820501902448
 20
45.77808496090547
 10
193.8820501902448
 20
45.77808496090547
 10
193.8820501902448
 20
49.14497677864014
 10
193.8820501902448
 20
49.14497677864014
 97
        0
 92
        1
 93
        1
 72
     4
 94
        3
 73
     0
 74
     1
 95
       20
 96
       16
 40
0.0
 40
0.0
 40
0.0
 40
0.0
 40
1.0
 40
1.0
 40
1.0
 40
2.0
 40
2.0
 40
2.0
 40
3.0
 40
3.0
 40
3.0
 40
4.0
 40
4.0
 40
4.0
 40
5.0
 40
5.0
 40
5.0
 40
5.0
 10
194.2544650122003
 20
46.06540592437531
 10
194.3667751250194
 20
46.047491427852
 10
194.5283501032776
 20
46.04301280372118
 10
194.6899250815358
 20
46.04301280372118
 10
195.6149332193255
 20
46.04301280372118
 10
196.1220512747542
 20
46.56838986522178
 10
196.1220512747542
 20
47.54679698303273
 10
196.1220512747542
 20
48.43597612777572
 10
195.6462835882412
 20
48.91622243841955
 10
194.7574489530467
 20
48.91622243841955
 10
194.5417859756701
 20
48.91622243841955
 10
194.3712537491502
 20
48.89382931776542
 10
194.2544650122003
 20
48.87143619711129
 10
194.2544650122003
 20
48.87143619711129
 10
194.2544650122003
 20
46.06540592437531
 10
194.2544650122003
 20
46.06540592437531
 97
        0
 75
     2
 76
     1
 98
        0
  0
POLYLINE
  5
12A
330
123
100
AcDbEntity
  8
_U+30EC_U+30A4_U+30E4_U+30FC 1
370
     0
100
AcDb2dPolyline
 66
     1
 10
0.0
 20
0.0
 30
0.0
  0
VERTEX
  5
12B
330
12A
100
AcDbEntity
  8
_U+30EC_U+30A4_U+30E4_U+30FC 1
370
     0
100
AcDbVertex
100
AcDb2dVertex
 10
197.0770317432655
 20
49.19010752949691
 30
0.0
  0
VERTEX
  5
12C
330
12A
100
AcDbEntity
  8
_U+30EC_U+30A4_U+30E4_U+30FC 1
370
     0
100
AcDbVertex
100
AcDb2dVertex
 10
197.449446565221
 20
49.19010752949691
 30
0.0
  0
VERTEX
  5
12D
330
12A
100
AcDbEntity
  8
_U+30EC_U+30A4_U+30E4_U+30FC 1
370
     0
100
AcDbVertex
100
AcDb2dVertex
 10
197.449446565221
 20
45.76912771264382
 30
0.0
  0
VERTEX
  5
12E
330
12A
100
AcDbEntity
  8
_U+30EC_U+30A4_U+30E4_U+30FC 1
370
     0
100
AcDbVertex
100
AcDb2dVertex
 10
197.0770317432655
 20
45.76912771264382
 30
0.0
  0
VERTEX
  5
12F
330
12A
100
AcDbEntity
  8
_U+30EC_U+30A4_U+30E4_U+30FC 1
370
     0
100
AcDbVertex
100
AcDb2dVertex
 10
197.0770317432655
 20
49.19010752949691
 30
0.0
  0
SEQEND
  5
130
330
12A
100
AcDbEntity
  8
_U+30EC_U+30A4_U+30E4_U+30FC 1
370
     0
  0
HATCH
  5
131
330
123
100
AcDbEntity
  8
_U+30EC_U+30A4_U+30E4_U+30FC 1
 62
     7
100
AcDbHatch
 10
0.0
 20
0.0
 30
0.0
210
0.0
220
0.0
230
1.0
  2
SOLID
 70
     1
 71
     0
 91
        1
 92
        1
 93
        4
 72
     1
 10
197.0770317432655
 20
49.19010752949691
 11
197.449446565221
 21
49.19010752949691
 72
     1
 10
197.449446565221
 20
49.19010752949691
 11
197.449446565221
 21
45.76912771264382
 72
     1
 10
197.449446565221
 20
45.76912771264382
 11
197.0770317432655
 21
45.76912771264382
 72
     1
 10
197.0770317432655
 20
45.76912771264382
 11
197.0770317432655
 21
49.19010752949691
 97
        0
 75
     2
 76
     1
 98
        0
  0
SPLINE
  5
132
330
123
100
AcDbEntity
  8
_U+30EC_U+30A4_U+30E4_U+30FC 1
370
     0
100
AcDbSpline
210
0.0
220
0.0
230
1.0
 70
    11
 71
     3
 72
    47
 73
    43
 74
     0
 42
0.0000000001
 43
0.0000000001
 12
1.0
 22
0.0
 32
0.0
 13
1.0
 23
0.0
 33
0.0
 40
0.0
 40
0.0
 40
0.0
 40
0.0
 40
1.0
 40
1.0
 40
1.0
 40
2.0
 40
2.0
 40
2.0
 40
3.0
 40
3.0
 40
3.0
 40
4.0
 40
4.0
 40
4.0
 40
5.0
 40
5.0
 40
5.0
 40
6.0
 40
6.0
 40
6.0
 40
7.0
 40
7.0
 40
7.0
 40
8.0
 40
8.0
 40
8.0
 40
9.0
 40
9.0
 40
9.0
 40
10.0
 40
10.0
 40
10.0
 40
11.0
 40
11.0
 40
11.0
 40
12.0
 40
12.0
 40
12.0
 40
13.0
 40
13.0
 40
13.0
 40
14.0
 40
14.0
 40
14.0
 40
14.0
 10
199.5499212825778
 20
47.40761512542864
 30
0.0
 10
199.8148491253935
 20
47.32252126694297
 30
0.0
 10
199.9719454795209
 20
47.06655067238891
 30
0.0
 10
200.0525607138757
 20
46.69379134088487
 30
0.0
 10
200.1603922025641
 20
46.20010915784857
 30
0.0
 10
200.2368733223366
 20
45.89935232198626
 30
0.0
 10
200.304052684299
 20
45.76912771264382
 30
0.0
 10
200.304052684299
 20
45.76912771264382
 30
0.0
 10
199.918201989951
 20
45.76912771264382
 30
0.0
 10
199.918201989951
 20
45.76912771264382
 30
0.0
 10
199.8641139908326
 20
45.86800195307049
 30
0.0
 10
199.7879773806086
 20
46.1687587889328
 30
0.0
 10
199.6980603884435
 20
46.59526161000673
 30
0.0
 10
199.5991861480169
 20
47.07102929651973
 30
0.0
 10
199.4107394249737
 20
47.28221364976554
 30
0.0
 10
199.0066297245539
 20
47.28221364976554
 30
0.0
 10
199.0066297245539
 20
47.28221364976554
 30
0.0
 10
198.5890841517416
 20
47.28221364976554
 30
0.0
 10
198.5890841517416
 20
47.28221364976554
 30
0.0
 10
198.5890841517416
 20
47.28221364976554
 30
0.0
 10
198.5890841517416
 20
45.76912771264382
 30
0.0
 10
198.5890841517416
 20
45.76912771264382
 30
0.0
 10
198.5890841517416
 20
45.76912771264382
 30
0.0
 10
198.2166693297861
 20
45.76912771264382
 30
0.0
 10
198.2166693297861
 20
45.76912771264382
 30
0.0
 10
198.2166693297861
 20
45.76912771264382
 30
0.0
 10
198.2166693297861
 20
49.14049815450931
 30
0.0
 10
198.2166693297861
 20
49.14049815450931
 30
0.0
 10
198.4275091734834
 20
49.18562890536608
 30
0.0
 10
198.7237873852149
 20
49.21250065015103
 30
0.0
 10
198.9931938521614
 20
49.21250065015103
 30
0.0
 10
199.4376111697587
 20
49.21250065015103
 30
0.0
 10
199.7294107573593
 20
49.12258365798601
 30
0.0
 10
199.9316378623435
 20
48.93413693494284
 30
0.0
 10
200.0932128406017
 20
48.7859978290771
 30
0.0
 10
200.187263947349
 20
48.55242035517716
 30
0.0
 10
200.187263947349
 20
48.29679427017162
 30
0.0
 10
200.187263947349
 20
47.84307519476422
 30
0.0
 10
199.9133788562717
 20
47.55127560716356
 30
0.0
 10
199.5499212825778
 20
47.42105099782111
 30
0.0
 10
199.5499212825778
 20
47.42105099782111
 30
0.0
 10
199.5499212825778
 20
47.40761512542864
 30
0.0
 10
199.5499212825778
 20
47.40761512542864
 30
0.0
  0
SPLINE
  5
133
330
123
100
AcDbEntity
  8
_U+30EC_U+30A4_U+30E4_U+30FC 1
370
     0
100
AcDbSpline
210
0.0
220
0.0
230
1.0
 70
    11
 71
     3
 72
    20
 73
    16
 74
     0
 42
0.0000000001
 43
0.0000000001
 12
1.0
 22
0.0
 32
0.0
 13
1.0
 23
0.0
 33
0.0
 40
0.0
 40
0.0
 40
0.0
 40
0.0
 40
1.0
 40
1.0
 40
1.0
 40
2.0
 40
2.0
 40
2.0
 40
3.0
 40
3.0
 40
3.0
 40
4.0
 40
4.0
 40
4.0
 40
5.0
 40
5.0
 40
5.0
 40
5.0
 10
199.029022845208
 20
47.56953461323538
 30
0.0
 10
199.5051350412696
 20
47.56953461323538
 30
0.0
 10
199.8103705012627
 20
47.83859657063339
 30
0.0
 10
199.8103705012627
 20
48.25166351931485
 30
0.0
 10
199.8103705012627
 20
48.75912608429215
 30
0.0
 10
199.428653921497
 20
48.91622243841955
 30
0.0
 10
199.0111083486847
 20
48.91622243841955
 30
0.0
 10
198.8092257532491
 20
48.91622243841955
 30
0.0
 10
198.6655652715142
 20
48.89830794189624
 30
0.0
 10
198.5890841517416
 20
48.88039344537295
 30
0.0
 10
198.5890841517416
 20
48.88039344537295
 30
0.0
 10
198.5890841517416
 20
47.56953461323538
 30
0.0
 10
198.5890841517416
 20
47.56953461323538
 30
0.0
 10
198.5890841517416
 20
47.56953461323538
 30
0.0
 10
199.029022845208
 20
47.56953461323538
 30
0.0
 10
199.029022845208
 20
47.56953461323538
 30
0.0
  0
HATCH
  5
134
330
123
100
AcDbEntity
  8
_U+30EC_U+30A4_U+30E4_U+30FC 1
 62
     7
100
AcDbHatch
 10
0.0
 20
0.0
 30
0.0
210
0.0
220
0.0
230
1.0
  2
SOLID
 70
     1
 71
     0
 91
        2
 92
        1
 93
        1
 72
     4
 94
        3
 73
     0
 74
     1
 95
       47
 96
       43
 40
0.0
 40
0.0
 40
0.0
 40
0.0
 40
1.0
 40
1.0
 40
1.0
 40
2.0
 40
2.0
 40
2.0
 40
3.0
 40
3.0
 40
3.0
 40
4.0
 40
4.0
 40
4.0
 40
5.0
 40
5.0
 40
5.0
 40
6.0
 40
6.0
 40
6.0
 40
7.0
 40
7.0
 40
7.0
 40
8.0
 40
8.0
 40
8.0
 40
9.0
 40
9.0
 40
9.0
 40
10.0
 40
10.0
 40
10.0
 40
11.0
 40
11.0
 40
11.0
 40
12.0
 40
12.0
 40
12.0
 40
13.0
 40
13.0
 40
13.0
 40
14.0
 40
14.0
 40
14.0
 40
14.0
 10
199.5499212825778
 20
47.40761512542864
 10
199.8148491253935
 20
47.32252126694297
 10
199.9719454795209
 20
47.06655067238891
 10
200.0525607138757
 20
46.69379134088487
 10
200.1603922025641
 20
46.20010915784857
 10
200.2368733223366
 20
45.89935232198626
 10
200.304052684299
 20
45.76912771264382
 10
200.304052684299
 20
45.76912771264382
 10
199.918201989951
 20
45.76912771264382
 10
199.918201989951
 20
45.76912771264382
 10
199.8641139908326
 20
45.86800195307049
 10
199.7879773806086
 20
46.1687587889328
 10
199.6980603884435
 20
46.59526161000673
 10
199.5991861480169
 20
47.07102929651973
 10
199.4107394249737
 20
47.28221364976554
 10
199.0066297245539
 20
47.28221364976554
 10
199.0066297245539
 20
47.28221364976554
 10
198.5890841517416
 20
47.28221364976554
 10
198.5890841517416
 20
47.28221364976554
 10
198.5890841517416
 20
47.28221364976554
 10
198.5890841517416
 20
45.76912771264382
 10
198.5890841517416
 20
45.76912771264382
 10
198.5890841517416
 20
45.76912771264382
 10
198.2166693297861
 20
45.76912771264382
 10
198.2166693297861
 20
45.76912771264382
 10
198.2166693297861
 20
45.76912771264382
 10
198.2166693297861
 20
49.14049815450931
 10
198.2166693297861
 20
49.14049815450931
 10
198.4275091734834
 20
49.18562890536608
 10
198.7237873852149
 20
49.21250065015103
 10
198.9931938521614
 20
49.21250065015103
 10
199.4376111697587
 20
49.21250065015103
 10
199.7294107573593
 20
49.12258365798601
 10
199.9316378623435
 20
48.93413693494284
 10
200.0932128406017
 20
48.7859978290771
 10
200.187263947349
 20
48.55242035517716
 10
200.187263947349
 20
48.29679427017162
 10
200.187263947349
 20
47.84307519476422
 10
199.9133788562717
 20
47.55127560716356
 10
199.5499212825778
 20
47.42105099782111
 10
199.5499212825778
 20
47.42105099782111
 10
199.5499212825778
 20
47.40761512542864
 10
199.5499212825778
 20
47.40761512542864
 97
        0
 92
        1
 93
        1
 72
     4
 94
        3
 73
     0
 74
     1
 95
       20
 96
       16
 40
0.0
 40
0.0
 40
0.0
 40
0.0
 40
1.0
 40
1.0
 40
1.0
 40
2.0
 40
2.0
 40
2.0
 40
3.0
 40
3.0
 40
3.0
 40
4.0
 40
4.0
 40
4.0
 40
5.0
 40
5.0
 40
5.0
 40
5.0
 10
199.029022845208
 20
47.56953461323538
 10
199.5051350412696
 20
47.56953461323538
 10
199.8103705012627
 20
47.83859657063339
 10
199.8103705012627
 20
48.25166351931485
 10
199.8103705012627
 20
48.75912608429215
 10
199.428653921497
 20
48.91622243841955
 10
199.0111083486847
 20
48.91622243841955
 10
198.8092257532491
 20
48.91622243841955
 10
198.6655652715142
 20
48.89830794189624
 10
198.5890841517416
 20
48.88039344537295
 10
198.5890841517416
 20
48.88039344537295
 10
198.5890841517416
 20
47.56953461323538
 10
198.5890841517416
 20
47.56953461323538
 10
198.5890841517416
 20
47.56953461323538
 10
199.029022845208
 20
47.56953461323538
 10
199.029022845208
 20
47.56953461323538
 97
        0
 75
     2
 76
     1
 98
        0
  0
SPLINE
  5
135
330
123
100
AcDbEntity
  8
_U+30EC_U+30A4_U+30E4_U+30FC 1
370
     0
100
AcDbSpline
210
0.0
220
0.0
230
1.0
 70
    11
 71
     3
 72
    23
 73
    19
 74
     0
 42
0.0000000001
 43
0.0000000001
 12
1.0
 22
0.0
 32
0.0
 13
1.0
 23
0.0
 33
0.0
 40
0.0
 40
0.0
 40
0.0
 40
0.0
 40
1.0
 40
1.0
 40
1.0
 40
2.0
 40
2.0
 40
2.0
 40
3.0
 40
3.0
 40
3.0
 40
4.0
 40
4.0
 40
4.0
 40
5.0
 40
5.0
 40
5.0
 40
6.0
 40
6.0
 40
6.0
 40
6.0
 10
200.8015244723691
 20
49.14497677864014
 30
0.0
 10
201.0526719332438
 20
49.18562890536608
 30
0.0
 10
201.3444715208445
 20
49.21697927428185
 30
0.0
 10
201.6634873627786
 20
49.21697927428185
 30
0.0
 10
203.0370469327477
 20
49.21697927428185
 30
0.0
 10
203.4321993849059
 20
48.40428124931142
 30
0.0
 10
203.4321993849059
 20
47.56505598910456
 30
0.0
 10
203.4321993849059
 20
47.02176443108066
 30
0.0
 10
203.2885389031709
 20
46.5590881074116
 30
0.0
 10
202.9653889466545
 20
46.2225022785027
 30
0.0
 10
202.6646321107922
 20
45.91278819437873
 30
0.0
 10
202.1661267940765
 20
45.74225596785887
 30
0.0
 10
201.5422200016978
 20
45.74225596785887
 30
0.0
 10
201.2593776623588
 20
45.74225596785887
 30
0.0
 10
201.0168429401972
 20
45.75121321612052
 30
0.0
 10
200.8015244723691
 20
45.77808496090547
 30
0.0
 10
200.8015244723691
 20
45.77808496090547
 30
0.0
 10
200.8015244723691
 20
49.14497677864014
 30
0.0
 10
200.8015244723691
 20
49.14497677864014
 30
0.0
  0
SPLINE
  5
136
330
123
100
AcDbEntity
  8
_U+30EC_U+30A4_U+30E4_U+30FC 1
370
     0
100
AcDbSpline
210
0.0
220
0.0
230
1.0
 70
    11
 71
     3
 72
    20
 73
    16
 74
     0
 42
0.0000000001
 43
0.0000000001
 12
1.0
 22
0.0
 32
0.0
 13
1.0
 23
0.0
 33
0.0
 40
0.0
 40
0.0
 40
0.0
 40
0.0
 40
1.0
 40
1.0
 40
1.0
 40
2.0
 40
2.0
 40
2.0
 40
3.0
 40
3.0
 40
3.0
 40
4.0
 40
4.0
 40
4.0
 40
5.0
 40
5.0
 40
5.0
 40
5.0
 10
201.1739392943246
 20
46.06540592437531
 30
0.0
 10
201.2862494071437
 20
46.047491427852
 30
0.0
 10
201.4478243854019
 20
46.04301280372118
 30
0.0
 10
201.6093993636601
 20
46.04301280372118
 30
0.0
 10
202.5344075014497
 20
46.04301280372118
 30
0.0
 10
203.0415255568785
 20
46.56838986522178
 30
0.0
 10
203.0415255568785
 20
47.54679698303273
 30
0.0
 10
203.0415255568785
 20
48.43597612777572
 30
0.0
 10
202.5657578703655
 20
48.91622243841955
 30
0.0
 10
201.676923235171
 20
48.91622243841955
 30
0.0
 10
201.4612602577944
 20
48.91622243841955
 30
0.0
 10
201.2907280312745
 20
48.89382931776542
 30
0.0
 10
201.1739392943246
 20
48.87143619711129
 30
0.0
 10
201.1739392943246
 20
48.87143619711129
 30
0.0
 10
201.1739392943246
 20
46.06540592437531
 30
0.0
 10
201.1739392943246
 20
46.06540592437531
 30
0.0
  0
HATCH
  5
137
330
123
100
AcDbEntity
  8
_U+30EC_U+30A4_U+30E4_U+30FC 1
 62
     7
100
AcDbHatch
 10
0.0
 20
0.0
 30
0.0
210
0.0
220
0.0
230
1.0
  2
SOLID
 70
     1
 71
     0
 91
        2
 92
        1
 93
        1
 72
     4
 94
        3
 73
     0
 74
     1
 95
       23
 96
       19
 40
0.0
 40
0.0
 40
0.0
 40
0.0
 40
1.0
 40
1.0
 40
1.0
 40
2.0
 40
2.0
 40
2.0
 40
3.0
 40
3.0
 40
3.0
 40
4.0
 40
4.0
 40
4.0
 40
5.0
 40
5.0
 40
5.0
 40
6.0
 40
6.0
 40
6.0
 40
6.0
 10
200.8015244723691
 20
49.14497677864014
 10
201.0526719332438
 20
49.18562890536608
 10
201.3444715208445
 20
49.21697927428185
 10
201.6634873627786
 20
49.21697927428185
 10
203.0370469327477
 20
49.21697927428185
 10
203.4321993849059
 20
48.40428124931142
 10
203.4321993849059
 20
47.56505598910456
 10
203.4321993849059
 20
47.02176443108066
 10
203.2885389031709
 20
46.5590881074116
 10
202.9653889466545
 20
46.2225022785027
 10
202.6646321107922
 20
45.91278819437873
 10
202.1661267940765
 20
45.74225596785887
 10
201.5422200016978
 20
45.74225596785887
 10
201.2593776623588
 20
45.74225596785887
 10
201.0168429401972
 20
45.75121321612052
 10
200.8015244723691
 20
45.77808496090547
 10
200.8015244723691
 20
45.77808496090547
 10
200.8015244723691
 20
49.14497677864014
 10
200.8015244723691
 20
49.14497677864014
 97
        0
 92
        1
 93
        1
 72
     4
 94
        3
 73
     0
 74
     1
 95
       20
 96
       16
 40
0.0
 40
0.0
 40
0.0
 40
0.0
 40
1.0
 40
1.0
 40
1.0
 40
2.0
 40
2.0
 40
2.0
 40
3.0
 40
3.0
 40
3.0
 40
4.0
 40
4.0
 40
4.0
 40
5.0
 40
5.0
 40
5.0
 40
5.0
 10
201.1739392943246
 20
46.06540592437531
 10
201.2862494071437
 20
46.047491427852
 10
201.4478243854019
 20
46.04301280372118
 10
201.6093993636601
 20
46.04301280372118
 10
202.5344075014497
 20
46.04301280372118
 10
203.0415255568785
 20
46.56838986522178
 10
203.0415255568785
 20
47.54679698303273
 10
203.0415255568785
 20
48.43597612777572
 10
202.5657578703655
 20
48.91622243841955
 10
201.676923235171
 20
48.91622243841955
 10
201.4612602577944
 20
48.91622243841955
 10
201.2907280312745
 20
48.89382931776542
 10
201.1739392943246
 20
48.87143619711129
 10
201.1739392943246
 20
48.87143619711129
 10
201.1739392943246
 20
46.06540592437531
 10
201.1739392943246
 20
46.06540592437531
 97
        0
 75
     2
 76
     1
 98
        0
  0
POLYLINE
  5
138
330
123
100
AcDbEntity
  8
_U+30EC_U+30A4_U+30E4_U+30FC 1
370
     0
100
AcDb2dPolyline
 66
     1
 10
0.0
 20
0.0
 30
0.0
  0
VERTEX
  5
139
330
138
100
AcDbEntity
  8
_U+30EC_U+30A4_U+30E4_U+30FC 1
370
     0
100
AcDbVertex
100
AcDb2dVertex
 10
203.7674071756207
 20
47.28221364976554
 30
0.0
  0
VERTEX
  5
13A
330
138
100
AcDbEntity
  8
_U+30EC_U+30A4_U+30E4_U+30FC 1
370
     0
100
AcDbVertex
100
AcDb2dVertex
 10
204.9931721492725
 20
47.28221364976554
 30
0.0
  0
VERTEX
  5
13B
330
138
100
AcDbEntity
  8
_U+30EC_U+30A4_U+30E4_U+30FC 1
370
     0
100
AcDbVertex
100
AcDb2dVertex
 10
204.9931721492725
 20
46.99489268629571
 30
0.0
  0
VERTEX
  5
13C
330
138
100
AcDbEntity
  8
_U+30EC_U+30A4_U+30E4_U+30FC 1
370
     0
100
AcDbVertex
100
AcDb2dVertex
 10
203.7674071756207
 20
46.99489268629571
 30
0.0
  0
VERTEX
  5
13D
330
138
100
AcDbEntity
  8
_U+30EC_U+30A4_U+30E4_U+30FC 1
370
     0
100
AcDbVertex
100
AcDb2dVertex
 10
203.7674071756207
 20
47.28221364976554
 30
0.0
  0
SEQEND
  5
13E
330
138
100
AcDbEntity
  8
_U+30EC_U+30A4_U+30E4_U+30FC 1
370
     0
  0
HATCH
  5
13F
330
123
100
AcDbEntity
  8
_U+30EC_U+30A4_U+30E4_U+30FC 1
 62
     7
100
AcDbHatch
 10
0.0
 20
0.0
 30
0.0
210
0.0
220
0.0
230
1.0
  2
SOLID
 70
     1
 71
     0
 91
        1
 92
        1
 93
        4
 72
     1
 10
203.7674071756207
 20
47.28221364976554
 11
204.9931721492725
 21
47.28221364976554
 72
     1
 10
204.9931721492725
 20
47.28221364976554
 11
204.9931721492725
 21
46.99489268629571
 72
     1
 10
204.9931721492725
 20
46.99489268629571
 11
203.7674071756207
 21
46.99489268629571
 72
     1
 10
203.7674071756207
 20
46.99489268629571
 11
203.7674071756207
 21
47.28221364976554
 97
        0
 75
     2
 76
     1
 98
        0
  0
SPLINE
  5
140
330
123
100
AcDbEntity
  8
_U+30EC_U+30A4_U+30E4_U+30FC 1
370
     0
100
AcDbSpline
210
0.0
220
0.0
230
1.0
 70
    11
 71
     3
 72
    59
 73
    55
 74
     0
 42
0.0000000001
 43
0.0000000001
 12
1.0
 22
0.0
 32
0.0
 13
1.0
 23
0.0
 33
0.0
 40
0.0
 40
0.0
 40
0.0
 40
0.0
 40
1.0
 40
1.0
 40
1.0
 40
2.0
 40
2.0
 40
2.0
 40
3.0
 40
3.0
 40
3.0
 40
4.0
 40
4.0
 40
4.0
 40
5.0
 40
5.0
 40
5.0
 40
6.0
 40
6.0
 40
6.0
 40
7.0
 40
7.0
 40
7.0
 40
8.0
 40
8.0
 40
8.0
 40
9.0
 40
9.0
 40
9.0
 40
10.0
 40
10.0
 40
10.0
 40
11.0
 40
11.0
 40
11.0
 40
12.0
 40
12.0
 40
12.0
 40
13.0
 40
13.0
 40
13.0
 40
14.0
 40
14.0
 40
14.0
 40
15.0
 40
15.0
 40
15.0
 40
16.0
 40
16.0
 40
16.0
 40
17.0
 40
17.0
 40
17.0
 40
18.0
 40
18.0
 40
18.0
 40
18.0
 10
206.5544894231878
 20
47.58744910975868
 30
0.0
 10
206.9496418753459
 20
47.51992523824779
 30
0.0
 10
207.2862277042549
 20
47.20125390586217
 30
0.0
 10
207.2862277042549
 20
46.71652897108752
 30
0.0
 10
207.2862277042549
 20
46.18219466132528
 30
0.0
 10
206.9000325003583
 20
45.71538422307392
 30
0.0
 10
206.1459010986372
 20
45.71538422307392
 30
0.0
 10
205.8093152697282
 20
45.71538422307392
 30
0.0
 10
205.5040798097351
 20
45.82287120221372
 30
0.0
 10
205.35111757019
 20
45.93070269090204
 30
0.0
 10
205.35111757019
 20
45.93070269090204
 30
0.0
 10
205.4634276830091
 20
46.21802365437187
 30
0.0
 10
205.4634276830091
 20
46.21802365437187
 30
0.0
 10
205.58469504409
 20
46.13740842001702
 30
0.0
 10
205.8541015110365
 20
46.01614105893623
 30
0.0
 10
206.150379722768
 20
46.01614105893623
 30
0.0
 10
206.716064401446
 20
46.01614105893623
 30
0.0
 10
206.9000325003583
 20
46.41094900154587
 30
0.0
 10
206.9000325003583
 20
46.72100759521835
 30
0.0
 10
206.9000325003583
 20
47.21468977825465
 30
0.0
 10
206.4824869275461
 20
47.43931000389294
 30
0.0
 10
206.0425482340796
 20
47.43931000389294
 30
0.0
 10
206.0425482340796
 20
47.43931000389294
 30
0.0
 10
205.8227511421207
 20
47.43931000389294
 30
0.0
 10
205.8227511421207
 20
47.43931000389294
 30
0.0
 10
205.8227511421207
 20
47.43931000389294
 30
0.0
 10
205.8227511421207
 20
47.71767371910113
 30
0.0
 10
205.8227511421207
 20
47.71767371910113
 30
0.0
 10
205.8227511421207
 20
47.71767371910113
 30
0.0
 10
206.0425482340796
 20
47.71767371910113
 30
0.0
 10
206.0425482340796
 20
47.71767371910113
 30
0.0
 10
206.3660427001446
 20
47.71767371910113
 30
0.0
 10
206.7832437634084
 20
47.91955631453676
 30
0.0
 10
206.7832437634084
 20
48.34158051147987
 30
0.0
 10
206.7832437634084
 20
48.63338009908053
 30
0.0
 10
206.6082329127577
 20
48.88487206950377
 30
0.0
 10
206.2041232123379
 20
48.88487206950377
 30
0.0
 10
205.957454375594
 20
48.88487206950377
 30
0.0
 10
205.723876901694
 20
48.76360470842297
 30
0.0
 10
205.5891736682208
 20
48.66473046799631
 30
0.0
 10
205.5891736682208
 20
48.66473046799631
 30
0.0
 10
205.4768635554016
 20
48.93861555907367
 30
0.0
 10
205.4768635554016
 20
48.93861555907367
 30
0.0
 10
205.6384385336598
 20
49.06436154428529
 30
0.0
 10
205.9529757514632
 20
49.19010752949691
 30
0.0
 10
206.2761257079796
 20
49.19010752949691
 30
0.0
 10
206.8910752520967
 20
49.19010752949691
 30
0.0
 10
207.164960343174
 20
48.79943370146957
 30
0.0
 10
207.164960343174
 20
48.39532400104977
 30
0.0
 10
207.164960343174
 20
48.04978092387921
 30
0.0
 10
206.9451632512151
 20
47.74006683975525
 30
0.0
 10
206.5544894231878
 20
47.60088498215116
 30
0.0
 10
206.5544894231878
 20
47.60088498215116
 30
0.0
 10
206.5544894231878
 20
47.58744910975868
 30
0.0
 10
206.5544894231878
 20
47.58744910975868
 30
0.0
  0
HATCH
  5
141
330
123
100
AcDbEntity
  8
_U+30EC_U+30A4_U+30E4_U+30FC 1
 62
     7
100
AcDbHatch
 10
0.0
 20
0.0
 30
0.0
210
0.0
220
0.0
230
1.0
  2
SOLID
 70
     1
 71
     0
 91
        1
 92
        1
 93
        1
 72
     4
 94
        3
 73
     0
 74
     1
 95
       59
 96
       55
 40
0.0
 40
0.0
 40
0.0
 40
0.0
 40
1.0
 40
1.0
 40
1.0
 40
2.0
 40
2.0
 40
2.0
 40
3.0
 40
3.0
 40
3.0
 40
4.0
 40
4.0
 40
4.0
 40
5.0
 40
5.0
 40
5.0
 40
6.0
 40
6.0
 40
6.0
 40
7.0
 40
7.0
 40
7.0
 40
8.0
 40
8.0
 40
8.0
 40
9.0
 40
9.0
 40
9.0
 40
10.0
 40
10.0
 40
10.0
 40
11.0
 40
11.0
 40
11.0
 40
12.0
 40
12.0
 40
12.0
 40
13.0
 40
13.0
 40
13.0
 40
14.0
 40
14.0
 40
14.0
 40
15.0
 40
15.0
 40
15.0
 40
16.0
 40
16.0
 40
16.0
 40
17.0
 40
17.0
 40
17.0
 40
18.0
 40
18.0
 40
18.0
 40
18.0
 10
206.5544894231878
 20
47.58744910975868
 10
206.9496418753459
 20
47.51992523824779
 10
207.2862277042549
 20
47.20125390586217
 10
207.2862277042549
 20
46.71652897108752
 10
207.2862277042549
 20
46.18219466132528
 10
206.9000325003583
 20
45.71538422307392
 10
206.1459010986372
 20
45.71538422307392
 10
205.8093152697282
 20
45.71538422307392
 10
205.5040798097351
 20
45.82287120221372
 10
205.35111757019
 20
45.93070269090204
 10
205.35111757019
 20
45.93070269090204
 10
205.4634276830091
 20
46.21802365437187
 10
205.4634276830091
 20
46.21802365437187
 10
205.58469504409
 20
46.13740842001702
 10
205.8541015110365
 20
46.01614105893623
 10
206.150379722768
 20
46.01614105893623
 10
206.716064401446
 20
46.01614105893623
 10
206.9000325003583
 20
46.41094900154587
 10
206.9000325003583
 20
46.72100759521835
 10
206.9000325003583
 20
47.21468977825465
 10
206.4824869275461
 20
47.43931000389294
 10
206.0425482340796
 20
47.43931000389294
 10
206.0425482340796
 20
47.43931000389294
 10
205.8227511421207
 20
47.43931000389294
 10
205.8227511421207
 20
47.43931000389294
 10
205.8227511421207
 20
47.43931000389294
 10
205.8227511421207
 20
47.71767371910113
 10
205.8227511421207
 20
47.71767371910113
 10
205.8227511421207
 20
47.71767371910113
 10
206.0425482340796
 20
47.71767371910113
 10
206.0425482340796
 20
47.71767371910113
 10
206.3660427001446
 20
47.71767371910113
 10
206.7832437634084
 20
47.91955631453676
 10
206.7832437634084
 20
48.34158051147987
 10
206.7832437634084
 20
48.63338009908053
 10
206.6082329127577
 20
48.88487206950377
 10
206.2041232123379
 20
48.88487206950377
 10
205.957454375594
 20
48.88487206950377
 10
205.723876901694
 20
48.76360470842297
 10
205.5891736682208
 20
48.66473046799631
 10
205.5891736682208
 20
48.66473046799631
 10
205.4768635554016
 20
48.93861555907367
 10
205.4768635554016
 20
48.93861555907367
 10
205.6384385336598
 20
49.06436154428529
 10
205.9529757514632
 20
49.19010752949691
 10
206.2761257079796
 20
49.19010752949691
 10
206.8910752520967
 20
49.19010752949691
 10
207.164960343174
 20
48.79943370146957
 10
207.164960343174
 20
48.39532400104977
 10
207.164960343174
 20
48.04978092387921
 10
206.9451632512151
 20
47.74006683975525
 10
206.5544894231878
 20
47.60088498215116
 10
206.5544894231878
 20
47.60088498215116
 10
206.5544894231878
 20
47.58744910975868
 10
206.5544894231878
 20
47.58744910975868
 97
        0
 75
     2
 76
     1
 98
        0
  0
POLYLINE
  5
142
330
123
100
AcDbEntity
  8
_U+30EC_U+30A4_U+30E4_U+30FC 1
370
     0
100
AcDb2dPolyline
 66
     1
 10
0.0
 20
0.0
 30
0.0
  0
VERTEX
  5
143
330
142
100
AcDbEntity
  8
_U+30EC_U+30A4_U+30E4_U+30FC 1
370
     0
100
AcDbVertex
100
AcDb2dVertex
 10
208.78449973079
 20
45.76912771264382
 30
0.0
  0
VERTEX
  5
144
330
142
100
AcDbEntity
  8
_U+30EC_U+30A4_U+30E4_U+30FC 1
370
     0
100
AcDbVertex
100
AcDb2dVertex
 10
208.78449973079
 20
48.78151920494628
 30
0.0
  0
VERTEX
  5
145
330
142
100
AcDbEntity
  8
_U+30EC_U+30A4_U+30E4_U+30FC 1
370
     0
100
AcDbVertex
100
AcDb2dVertex
 10
208.7755424825284
 20
48.78151920494628
 30
0.0
  0
VERTEX
  5
146
330
142
100
AcDbEntity
  8
_U+30EC_U+30A4_U+30E4_U+30FC 1
370
     0
100
AcDbVertex
100
AcDb2dVertex
 10
208.2232936762428
 20
48.46284787256067
 30
0.0
  0
VERTEX
  5
147
330
142
100
AcDbEntity
  8
_U+30EC_U+30A4_U+30E4_U+30FC 1
370
     0
100
AcDbVertex
100
AcDb2dVertex
 10
208.1337211936263
 20
48.74121158776885
 30
0.0
  0
VERTEX
  5
148
330
142
100
AcDbEntity
  8
_U+30EC_U+30A4_U+30E4_U+30FC 1
370
     0
100
AcDbVertex
100
AcDb2dVertex
 10
208.8292859720982
 20
49.13154090624766
 30
0.0
  0
VERTEX
  5
149
330
142
100
AcDbEntity
  8
_U+30EC_U+30A4_U+30E4_U+30FC 1
370
     0
100
AcDbVertex
100
AcDb2dVertex
 10
209.1483018140324
 20
49.13154090624766
 30
0.0
  0
VERTEX
  5
14A
330
142
100
AcDbEntity
  8
_U+30EC_U+30A4_U+30E4_U+30FC 1
370
     0
100
AcDbVertex
100
AcDb2dVertex
 10
209.1483018140324
 20
45.76912771264382
 30
0.0
  0
VERTEX
  5
14B
330
142
100
AcDbEntity
  8
_U+30EC_U+30A4_U+30E4_U+30FC 1
370
     0
100
AcDbVertex
100
AcDb2dVertex
 10
208.78449973079
 20
45.76912771264382
 30
0.0
  0
SEQEND
  5
14C
330
142
100
AcDbEntity
  8
_U+30EC_U+30A4_U+30E4_U+30FC 1
370
     0
  0
HATCH
  5
14D
330
123
100
AcDbEntity
  8
_U+30EC_U+30A4_U+30E4_U+30FC 1
 62
     7
100
AcDbHatch
 10
0.0
 20
0.0
 30
0.0
210
0.0
220
0.0
230
1.0
  2
SOLID
 70
     1
 71
     0
 91
        1
 92
        1
 93
        8
 72
     1
 10
208.78449973079
 20
45.76912771264382
 11
208.78449973079
 21
48.78151920494628
 72
     1
 10
208.78449973079
 20
48.78151920494628
 11
208.7755424825284
 21
48.78151920494628
 72
     1
 10
208.7755424825284
 20
48.78151920494628
 11
208.2232936762428
 21
48.46284787256067
 72
     1
 10
208.2232936762428
 20
48.46284787256067
 11
208.1337211936263
 21
48.74121158776885
 72
     1
 10
208.1337211936263
 20
48.74121158776885
 11
208.8292859720982
 21
49.13154090624766
 72
     1
 10
208.8292859720982
 20
49.13154090624766
 11
209.1483018140324
 21
49.13154090624766
 72
     1
 10
209.1483018140324
 20
49.13154090624766
 11
209.1483018140324
 21
45.76912771264382
 72
     1
 10
209.1483018140324
 20
45.76912771264382
 11
208.78449973079
 21
45.76912771264382
 97
        0
 75
     2
 76
     1
 98
        0
  0
SPLINE
  5
14E
330
123
100
AcDbEntity
  8
_U+30EC_U+30A4_U+30E4_U+30FC 1
370
     0
100
AcDbSpline
210
0.0
220
0.0
230
1.0
 70
    11
 71
     3
 72
    23
 73
    19
 74
     0
 42
0.0000000001
 43
0.0000000001
 12
1.0
 22
0.0
 32
0.0
 13
1.0
 23
0.0
 33
0.0
 40
0.0
 40
0.0
 40
0.0
 40
0.0
 40
1.0
 40
1.0
 40
1.0
 40
2.0
 40
2.0
 40
2.0
 40
3.0
 40
3.0
 40
3.0
 40
4.0
 40
4.0
 40
4.0
 40
5.0
 40
5.0
 40
5.0
 40
6.0
 40
6.0
 40
6.0
 40
6.0
 10
193.8820501902448
 20
43.76029253519464
 30
0.0
 10
194.1331976511195
 20
43.80094466192059
 30
0.0
 10
194.4249972387202
 20
43.83229503083636
 30
0.0
 10
194.7440130806543
 20
43.83229503083636
 30
0.0
 10
196.1175726506234
 20
43.83229503083636
 30
0.0
 10
196.5127251027816
 20
43.01959700586593
 30
0.0
 10
196.5127251027816
 20
42.18037174565906
 30
0.0
 10
196.5127251027816
 20
41.63708018763516
 30
0.0
 10
196.3690646210466
 20
41.17440386396611
 30
0.0
 10
196.0459146645302
 20
40.8378180350572
 30
0.0
 10
195.7451578286679
 20
40.52810395093324
 30
0.0
 10
195.2466525119522
 20
40.35757172441338
 30
0.0
 10
194.6227457195735
 20
40.35757172441338
 30
0.0
 10
194.3399033802345
 20
40.35757172441338
 30
0.0
 10
194.0973686580729
 20
40.36652897267502
 30
0.0
 10
193.8820501902448
 20
40.39340071745997
 30
0.0
 10
193.8820501902448
 20
40.39340071745997
 30
0.0
 10
193.8820501902448
 20
43.76029253519464
 30
0.0
 10
193.8820501902448
 20
43.76029253519464
 30
0.0
  0
SPLINE
  5
14F
330
123
100
AcDbEntity
  8
_U+30EC_U+30A4_U+30E4_U+30FC 1
370
     0
100
AcDbSpline
210
0.0
220
0.0
230
1.0
 70
    11
 71
     3
 72
    20
 73
    16
 74
     0
 42
0.0000000001
 43
0.0000000001
 12
1.0
 22
0.0
 32
0.0
 13
1.0
 23
0.0
 33
0.0
 40
0.0
 40
0.0
 40
0.0
 40
0.0
 40
1.0
 40
1.0
 40
1.0
 40
2.0
 40
2.0
 40
2.0
 40
3.0
 40
3.0
 40
3.0
 40
4.0
 40
4.0
 40
4.0
 40
5.0
 40
5.0
 40
5.0
 40
5.0
 10
194.2544650122003
 20
40.68072168092981
 30
0.0
 10
194.3667751250194
 20
40.66280718440651
 30
0.0
 10
194.5283501032776
 20
40.65832856027568
 30
0.0
 10
194.6899250815358
 20
40.65832856027568
 30
0.0
 10
195.6149332193255
 20
40.65832856027568
 30
0.0
 10
196.1220512747542
 20
41.18370562177628
 30
0.0
 10
196.1220512747542
 20
42.16211273958724
 30
0.0
 10
196.1220512747542
 20
43.05129188433022
 30
0.0
 10
195.6462835882412
 20
43.53153819497405
 30
0.0
 10
194.7574489530467
 20
43.53153819497405
 30
0.0
 10
194.5417859756701
 20
43.53153819497405
 30
0.0
 10
194.3712537491502
 20
43.50914507431992
 30
0.0
 10
194.2544650122003
 20
43.4867519536658
 30
0.0
 10
194.2544650122003
 20
43.4867519536658
 30
0.0
 10
194.2544650122003
 20
40.68072168092981
 30
0.0
 10
194.2544650122003
 20
40.68072168092981
 30
0.0
  0
HATCH
  5
150
330
123
100
AcDbEntity
  8
_U+30EC_U+30A4_U+30E4_U+30FC 1
 62
     7
100
AcDbHatch
 10
0.0
 20
0.0
 30
0.0
210
0.0
220
0.0
230
1.0
  2
SOLID
 70
     1
 71
     0
 91
        2
 92
        1
 93
        1
 72
     4
 94
        3
 73
     0
 74
     1
 95
       23
 96
       19
 40
0.0
 40
0.0
 40
0.0
 40
0.0
 40
1.0
 40
1.0
 40
1.0
 40
2.0
 40
2.0
 40
2.0
 40
3.0
 40
3.0
 40
3.0
 40
4.0
 40
4.0
 40
4.0
 40
5.0
 40
5.0
 40
5.0
 40
6.0
 40
6.0
 40
6.0
 40
6.0
 10
193.8820501902448
 20
43.76029253519464
 10
194.1331976511195
 20
43.80094466192059
 10
194.4249972387202
 20
43.83229503083636
 10
194.7440130806543
 20
43.83229503083636
 10
196.1175726506234
 20
43.83229503083636
 10
196.5127251027816
 20
43.01959700586593
 10
196.5127251027816
 20
42.18037174565906
 10
196.5127251027816
 20
41.63708018763516
 10
196.3690646210466
 20
41.17440386396611
 10
196.0459146645302
 20
40.8378180350572
 10
195.7451578286679
 20
40.52810395093324
 10
195.2466525119522
 20
40.35757172441338
 10
194.6227457195735
 20
40.35757172441338
 10
194.3399033802345
 20
40.35757172441338
 10
194.0973686580729
 20
40.36652897267502
 10
193.8820501902448
 20
40.39340071745997
 10
193.8820501902448
 20
40.39340071745997
 10
193.8820501902448
 20
43.76029253519464
 10
193.8820501902448
 20
43.76029253519464
 97
        0
 92
        1
 93
        1
 72
     4
 94
        3
 73
     0
 74
     1
 95
       20
 96
       16
 40
0.0
 40
0.0
 40
0.0
 40
0.0
 40
1.0
 40
1.0
 40
1.0
 40
2.0
 40
2.0
 40
2.0
 40
3.0
 40
3.0
 40
3.0
 40
4.0
 40
4.0
 40
4.0
 40
5.0
 40
5.0
 40
5.0
 40
5.0
 10
194.2544650122003
 20
40.68072168092981
 10
194.3667751250194
 20
40.66280718440651
 10
194.5283501032776
 20
40.65832856027568
 10
194.6899250815358
 20
40.65832856027568
 10
195.6149332193255
 20
40.65832856027568
 10
196.1220512747542
 20
41.18370562177628
 10
196.1220512747542
 20
42.16211273958724
 10
196.1220512747542
 20
43.05129188433022
 10
195.6462835882412
 20
43.53153819497405
 10
194.7574489530467
 20
43.53153819497405
 10
194.5417859756701
 20
43.53153819497405
 10
194.3712537491502
 20
43.50914507431992
 10
194.2544650122003
 20
43.4867519536658
 10
194.2544650122003
 20
43.4867519536658
 10
194.2544650122003
 20
40.68072168092981
 10
194.2544650122003
 20
40.68072168092981
 97
        0
 75
     2
 76
     1
 98
        0
  0
POLYLINE
  5
151
330
123
100
AcDbEntity
  8
_U+30EC_U+30A4_U+30E4_U+30FC 1
370
     0
100
AcDb2dPolyline
 66
     1
 10
0.0
 20
0.0
 30
0.0
  0
VERTEX
  5
152
330
151
100
AcDbEntity
  8
_U+30EC_U+30A4_U+30E4_U+30FC 1
370
     0
100
AcDbVertex
100
AcDb2dVertex
 10
197.0770317432655
 20
43.80542328605141
 30
0.0
  0
VERTEX
  5
153
330
151
100
AcDbEntity
  8
_U+30EC_U+30A4_U+30E4_U+30FC 1
370
     0
100
AcDbVertex
100
AcDb2dVertex
 10
197.449446565221
 20
43.80542328605141
 30
0.0
  0
VERTEX
  5
154
330
151
100
AcDbEntity
  8
_U+30EC_U+30A4_U+30E4_U+30FC 1
370
     0
100
AcDbVertex
100
AcDb2dVertex
 10
197.449446565221
 20
40.38444346919832
 30
0.0
  0
VERTEX
  5
155
330
151
100
AcDbEntity
  8
_U+30EC_U+30A4_U+30E4_U+30FC 1
370
     0
100
AcDbVertex
100
AcDb2dVertex
 10
197.0770317432655
 20
40.38444346919832
 30
0.0
  0
VERTEX
  5
156
330
151
100
AcDbEntity
  8
_U+30EC_U+30A4_U+30E4_U+30FC 1
370
     0
100
AcDbVertex
100
AcDb2dVertex
 10
197.0770317432655
 20
43.80542328605141
 30
0.0
  0
SEQEND
  5
157
330
151
100
AcDbEntity
  8
_U+30EC_U+30A4_U+30E4_U+30FC 1
370
     0
  0
HATCH
  5
158
330
123
100
AcDbEntity
  8
_U+30EC_U+30A4_U+30E4_U+30FC 1
 62
     7
100
AcDbHatch
 10
0.0
 20
0.0
 30
0.0
210
0.0
220
0.0
230
1.0
  2
SOLID
 70
     1
 71
     0
 91
        1
 92
        1
 93
        4
 72
     1
 10
197.0770317432655
 20
43.80542328605141
 11
197.449446565221
 21
43.80542328605141
 72
     1
 10
197.449446565221
 20
43.80542328605141
 11
197.449446565221
 21
40.38444346919832
 72
     1
 10
197.449446565221
 20
40.38444346919832
 11
197.0770317432655
 21
40.38444346919832
 72
     1
 10
197.0770317432655
 20
40.38444346919832
 11
197.0770317432655
 21
43.80542328605141
 97
        0
 75
     2
 76
     1
 98
        0
  0
SPLINE
  5
159
330
123
100
AcDbEntity
  8
_U+30EC_U+30A4_U+30E4_U+30FC 1
370
     0
100
AcDbSpline
210
0.0
220
0.0
230
1.0
 70
    11
 71
     3
 72
    47
 73
    43
 74
     0
 42
0.0000000001
 43
0.0000000001
 12
1.0
 22
0.0
 32
0.0
 13
1.0
 23
0.0
 33
0.0
 40
0.0
 40
0.0
 40
0.0
 40
0.0
 40
1.0
 40
1.0
 40
1.0
 40
2.0
 40
2.0
 40
2.0
 40
3.0
 40
3.0
 40
3.0
 40
4.0
 40
4.0
 40
4.0
 40
5.0
 40
5.0
 40
5.0
 40
6.0
 40
6.0
 40
6.0
 40
7.0
 40
7.0
 40
7.0
 40
8.0
 40
8.0
 40
8.0
 40
9.0
 40
9.0
 40
9.0
 40
10.0
 40
10.0
 40
10.0
 40
11.0
 40
11.0
 40
11.0
 40
12.0
 40
12.0
 40
12.0
 40
13.0
 40
13.0
 40
13.0
 40
14.0
 40
14.0
 40
14.0
 40
14.0
 10
199.5499212825778
 20
42.02293088198314
 30
0.0
 10
199.8148491253935
 20
41.93783702349747
 30
0.0
 10
199.9719454795209
 20
41.68186642894341
 30
0.0
 10
200.0525607138757
 20
41.30910709743938
 30
0.0
 10
200.1603922025641
 20
40.81542491440307
 30
0.0
 10
200.2368733223366
 20
40.51466807854077
 30
0.0
 10
200.304052684299
 20
40.38444346919832
 30
0.0
 10
200.304052684299
 20
40.38444346919832
 30
0.0
 10
199.918201989951
 20
40.38444346919832
 30
0.0
 10
199.918201989951
 20
40.38444346919832
 30
0.0
 10
199.8641139908326
 20
40.48331770962499
 30
0.0
 10
199.7879773806086
 20
40.7840745454873
 30
0.0
 10
199.6980603884435
 20
41.21057736656123
 30
0.0
 10
199.5991861480169
 20
41.68634505307423
 30
0.0
 10
199.4107394249737
 20
41.89752940632005
 30
0.0
 10
199.0066297245539
 20
41.89752940632005
 30
0.0
 10
199.0066297245539
 20
41.89752940632005
 30
0.0
 10
198.5890841517416
 20
41.89752940632005
 30
0.0
 10
198.5890841517416
 20
41.89752940632005
 30
0.0
 10
198.5890841517416
 20
41.89752940632005
 30
0.0
 10
198.5890841517416
 20
40.38444346919832
 30
0.0
 10
198.5890841517416
 20
40.38444346919832
 30
0.0
 10
198.5890841517416
 20
40.38444346919832
 30
0.0
 10
198.2166693297861
 20
40.38444346919832
 30
0.0
 10
198.2166693297861
 20
40.38444346919832
 30
0.0
 10
198.2166693297861
 20
40.38444346919832
 30
0.0
 10
198.2166693297861
 20
43.75581391106381
 30
0.0
 10
198.2166693297861
 20
43.75581391106381
 30
0.0
 10
198.4275091734834
 20
43.80094466192059
 30
0.0
 10
198.7237873852149
 20
43.82781640670554
 30
0.0
 10
198.9931938521614
 20
43.82781640670554
 30
0.0
 10
199.4376111697587
 20
43.82781640670554
 30
0.0
 10
199.7294107573593
 20
43.73789941454051
 30
0.0
 10
199.9316378623435
 20
43.54945269149735
 30
0.0
 10
200.0932128406017
 20
43.40131358563161
 30
0.0
 10
200.187263947349
 20
43.16773611173166
 30
0.0
 10
200.187263947349
 20
42.91211002672613
 30
0.0
 10
200.187263947349
 20
42.45839095131873
 30
0.0
 10
199.9133788562717
 20
42.16659136371806
 30
0.0
 10
199.5499212825778
 20
42.03636675437562
 30
0.0
 10
199.5499212825778
 20
42.03636675437562
 30
0.0
 10
199.5499212825778
 20
42.02293088198314
 30
0.0
 10
199.5499212825778
 20
42.02293088198314
 30
0.0
  0
SPLINE
  5
15A
330
123
100
AcDbEntity
  8
_U+30EC_U+30A4_U+30E4_U+30FC 1
370
     0
100
AcDbSpline
210
0.0
220
0.0
230
1.0
 70
    11
 71
     3
 72
    20
 73
    16
 74
     0
 42
0.0000000001
 43
0.0000000001
 12
1.0
 22
0.0
 32
0.0
 13
1.0
 23
0.0
 33
0.0
 40
0.0
 40
0.0
 40
0.0
 40
0.0
 40
1.0
 40
1.0
 40
1.0
 40
2.0
 40
2.0
 40
2.0
 40
3.0
 40
3.0
 40
3.0
 40
4.0
 40
4.0
 40
4.0
 40
5.0
 40
5.0
 40
5.0
 40
5.0
 10
199.029022845208
 20
42.18485036978988
 30
0.0
 10
199.5051350412696
 20
42.18485036978988
 30
0.0
 10
199.8103705012627
 20
42.4539123271879
 30
0.0
 10
199.8103705012627
 20
42.86697927586935
 30
0.0
 10
199.8103705012627
 20
43.37444184084666
 30
0.0
 10
199.428653921497
 20
43.53153819497405
 30
0.0
 10
199.0111083486847
 20
43.53153819497405
 30
0.0
 10
198.8092257532491
 20
43.53153819497405
 30
0.0
 10
198.6655652715142
 20
43.51362369845075
 30
0.0
 10
198.5890841517416
 20
43.49570920192745
 30
0.0
 10
198.5890841517416
 20
43.49570920192745
 30
0.0
 10
198.5890841517416
 20
42.18485036978988
 30
0.0
 10
198.5890841517416
 20
42.18485036978988
 30
0.0
 10
198.5890841517416
 20
42.18485036978988
 30
0.0
 10
199.029022845208
 20
42.18485036978988
 30
0.0
 10
199.029022845208
 20
42.18485036978988
 30
0.0
  0
HATCH
  5
15B
330
123
100
AcDbEntity
  8
_U+30EC_U+30A4_U+30E4_U+30FC 1
 62
     7
100
AcDbHatch
 10
0.0
 20
0.0
 30
0.0
210
0.0
220
0.0
230
1.0
  2
SOLID
 70
     1
 71
     0
 91
        2
 92
        1
 93
        1
 72
     4
 94
        3
 73
     0
 74
     1
 95
       47
 96
       43
 40
0.0
 40
0.0
 40
0.0
 40
0.0
 40
1.0
 40
1.0
 40
1.0
 40
2.0
 40
2.0
 40
2.0
 40
3.0
 40
3.0
 40
3.0
 40
4.0
 40
4.0
 40
4.0
 40
5.0
 40
5.0
 40
5.0
 40
6.0
 40
6.0
 40
6.0
 40
7.0
 40
7.0
 40
7.0
 40
8.0
 40
8.0
 40
8.0
 40
9.0
 40
9.0
 40
9.0
 40
10.0
 40
10.0
 40
10.0
 40
11.0
 40
11.0
 40
11.0
 40
12.0
 40
12.0
 40
12.0
 40
13.0
 40
13.0
 40
13.0
 40
14.0
 40
14.0
 40
14.0
 40
14.0
 10
199.5499212825778
 20
42.02293088198314
 10
199.8148491253935
 20
41.93783702349747
 10
199.9719454795209
 20
41.68186642894341
 10
200.0525607138757
 20
41.30910709743938
 10
200.1603922025641
 20
40.81542491440307
 10
200.2368733223366
 20
40.51466807854077
 10
200.304052684299
 20
40.38444346919832
 10
200.304052684299
 20
40.38444346919832
 10
199.918201989951
 20
40.38444346919832
 10
199.918201989951
 20
40.38444346919832
 10
199.8641139908326
 20
40.48331770962499
 10
199.7879773806086
 20
40.7840745454873
 10
199.6980603884435
 20
41.21057736656123
 10
199.5991861480169
 20
41.68634505307423
 10
199.4107394249737
 20
41.89752940632005
 10
199.0066297245539
 20
41.89752940632005
 10
199.0066297245539
 20
41.89752940632005
 10
198.5890841517416
 20
41.89752940632005
 10
198.5890841517416
 20
41.89752940632005
 10
198.5890841517416
 20
41.89752940632005
 10
198.5890841517416
 20
40.38444346919832
 10
198.5890841517416
 20
40.38444346919832
 10
198.5890841517416
 20
40.38444346919832
 10
198.2166693297861
 20
40.38444346919832
 10
198.2166693297861
 20
40.38444346919832
 10
198.2166693297861
 20
40.38444346919832
 10
198.2166693297861
 20
43.75581391106381
 10
198.2166693297861
 20
43.75581391106381
 10
198.4275091734834
 20
43.80094466192059
 10
198.7237873852149
 20
43.82781640670554
 10
198.9931938521614
 20
43.82781640670554
 10
199.4376111697587
 20
43.82781640670554
 10
199.7294107573593
 20
43.73789941454051
 10
199.9316378623435
 20
43.54945269149735
 10
200.0932128406017
 20
43.40131358563161
 10
200.187263947349
 20
43.16773611173166
 10
200.187263947349
 20
42.91211002672613
 10
200.187263947349
 20
42.45839095131873
 10
199.9133788562717
 20
42.16659136371806
 10
199.5499212825778
 20
42.03636675437562
 10
199.5499212825778
 20
42.03636675437562
 10
199.5499212825778
 20
42.02293088198314
 10
199.5499212825778
 20
42.02293088198314
 97
        0
 92
        1
 93
        1
 72
     4
 94
        3
 73
     0
 74
     1
 95
       20
 96
       16
 40
0.0
 40
0.0
 40
0.0
 40
0.0
 40
1.0
 40
1.0
 40
1.0
 40
2.0
 40
2.0
 40
2.0
 40
3.0
 40
3.0
 40
3.0
 40
4.0
 40
4.0
 40
4.0
 40
5.0
 40
5.0
 40
5.0
 40
5.0
 10
199.029022845208
 20
42.18485036978988
 10
199.5051350412696
 20
42.18485036978988
 10
199.8103705012627
 20
42.4539123271879
 10
199.8103705012627
 20
42.86697927586935
 10
199.8103705012627
 20
43.37444184084666
 10
199.428653921497
 20
43.53153819497405
 10
199.0111083486847
 20
43.53153819497405
 10
198.8092257532491
 20
43.53153819497405
 10
198.6655652715142
 20
43.51362369845075
 10
198.5890841517416
 20
43.49570920192745
 10
198.5890841517416
 20
43.49570920192745
 10
198.5890841517416
 20
42.18485036978988
 10
198.5890841517416
 20
42.18485036978988
 10
198.5890841517416
 20
42.18485036978988
 10
199.029022845208
 20
42.18485036978988
 10
199.029022845208
 20
42.18485036978988
 97
        0
 75
     2
 76
     1
 98
        0
  0
SPLINE
  5
15C
330
123
100
AcDbEntity
  8
_U+30EC_U+30A4_U+30E4_U+30FC 1
370
     0
100
AcDbSpline
210
0.0
220
0.0
230
1.0
 70
    11
 71
     3
 72
    23
 73
    19
 74
     0
 42
0.0000000001
 43
0.0000000001
 12
1.0
 22
0.0
 32
0.0
 13
1.0
 23
0.0
 33
0.0
 40
0.0
 40
0.0
 40
0.0
 40
0.0
 40
1.0
 40
1.0
 40
1.0
 40
2.0
 40
2.0
 40
2.0
 40
3.0
 40
3.0
 40
3.0
 40
4.0
 40
4.0
 40
4.0
 40
5.0
 40
5.0
 40
5.0
 40
6.0
 40
6.0
 40
6.0
 40
6.0
 10
200.8015244723691
 20
43.76029253519464
 30
0.0
 10
201.0526719332438
 20
43.80094466192059
 30
0.0
 10
201.3444715208445
 20
43.83229503083636
 30
0.0
 10
201.6634873627786
 20
43.83229503083636
 30
0.0
 10
203.0370469327477
 20
43.83229503083636
 30
0.0
 10
203.4321993849059
 20
43.01959700586593
 30
0.0
 10
203.4321993849059
 20
42.18037174565906
 30
0.0
 10
203.4321993849059
 20
41.63708018763516
 30
0.0
 10
203.2885389031709
 20
41.17440386396611
 30
0.0
 10
202.9653889466545
 20
40.8378180350572
 30
0.0
 10
202.6646321107922
 20
40.52810395093324
 30
0.0
 10
202.1661267940765
 20
40.35757172441338
 30
0.0
 10
201.5422200016978
 20
40.35757172441338
 30
0.0
 10
201.2593776623588
 20
40.35757172441338
 30
0.0
 10
201.0168429401972
 20
40.36652897267502
 30
0.0
 10
200.8015244723691
 20
40.39340071745997
 30
0.0
 10
200.8015244723691
 20
40.39340071745997
 30
0.0
 10
200.8015244723691
 20
43.76029253519464
 30
0.0
 10
200.8015244723691
 20
43.76029253519464
 30
0.0
  0
SPLINE
  5
15D
330
123
100
AcDbEntity
  8
_U+30EC_U+30A4_U+30E4_U+30FC 1
370
     0
100
AcDbSpline
210
0.0
220
0.0
230
1.0
 70
    11
 71
     3
 72
    20
 73
    16
 74
     0
 42
0.0000000001
 43
0.0000000001
 12
1.0
 22
0.0
 32
0.0
 13
1.0
 23
0.0
 33
0.0
 40
0.0
 40
0.0
 40
0.0
 40
0.0
 40
1.0
 40
1.0
 40
1.0
 40
2.0
 40
2.0
 40
2.0
 40
3.0
 40
3.0
 40
3.0
 40
4.0
 40
4.0
 40
4.0
 40
5.0
 40
5.0
 40
5.0
 40
5.0
 10
201.1739392943246
 20
40.68072168092981
 30
0.0
 10
201.2862494071437
 20
40.66280718440651
 30
0.0
 10
201.4478243854019
 20
40.65832856027568
 30
0.0
 10
201.6093993636601
 20
40.65832856027568
 30
0.0
 10
202.5344075014497
 20
40.65832856027568
 30
0.0
 10
203.0415255568785
 20
41.18370562177628
 30
0.0
 10
203.0415255568785
 20
42.16211273958724
 30
0.0
 10
203.0415255568785
 20
43.05129188433022
 30
0.0
 10
202.5657578703655
 20
43.53153819497405
 30
0.0
 10
201.676923235171
 20
43.53153819497405
 30
0.0
 10
201.4612602577944
 20
43.53153819497405
 30
0.0
 10
201.2907280312745
 20
43.50914507431992
 30
0.0
 10
201.1739392943246
 20
43.4867519536658
 30
0.0
 10
201.1739392943246
 20
43.4867519536658
 30
0.0
 10
201.1739392943246
 20
40.68072168092981
 30
0.0
 10
201.1739392943246
 20
40.68072168092981
 30
0.0
  0
HATCH
  5
15E
330
123
100
AcDbEntity
  8
_U+30EC_U+30A4_U+30E4_U+30FC 1
 62
     7
100
AcDbHatch
 10
0.0
 20
0.0
 30
0.0
210
0.0
220
0.0
230
1.0
  2
SOLID
 70
     1
 71
     0
 91
        2
 92
        1
 93
        1
 72
     4
 94
        3
 73
     0
 74
     1
 95
       23
 96
       19
 40
0.0
 40
0.0
 40
0.0
 40
0.0
 40
1.0
 40
1.0
 40
1.0
 40
2.0
 40
2.0
 40
2.0
 40
3.0
 40
3.0
 40
3.0
 40
4.0
 40
4.0
 40
4.0
 40
5.0
 40
5.0
 40
5.0
 40
6.0
 40
6.0
 40
6.0
 40
6.0
 10
200.8015244723691
 20
43.76029253519464
 10
201.0526719332438
 20
43.80094466192059
 10
201.3444715208445
 20
43.83229503083636
 10
201.6634873627786
 20
43.83229503083636
 10
203.0370469327477
 20
43.83229503083636
 10
203.4321993849059
 20
43.01959700586593
 10
203.4321993849059
 20
42.18037174565906
 10
203.4321993849059
 20
41.63708018763516
 10
203.2885389031709
 20
41.17440386396611
 10
202.9653889466545
 20
40.8378180350572
 10
202.6646321107922
 20
40.52810395093324
 10
202.1661267940765
 20
40.35757172441338
 10
201.5422200016978
 20
40.35757172441338
 10
201.2593776623588
 20
40.35757172441338
 10
201.0168429401972
 20
40.36652897267502
 10
200.8015244723691
 20
40.39340071745997
 10
200.8015244723691
 20
40.39340071745997
 10
200.8015244723691
 20
43.76029253519464
 10
200.8015244723691
 20
43.76029253519464
 97
        0
 92
        1
 93
        1
 72
     4
 94
        3
 73
     0
 74
     1
 95
       20
 96
       16
 40
0.0
 40
0.0
 40
0.0
 40
0.0
 40
1.0
 40
1.0
 40
1.0
 40
2.0
 40
2.0
 40
2.0
 40
3.0
 40
3.0
 40
3.0
 40
4.0
 40
4.0
 40
4.0
 40
5.0
 40
5.0
 40
5.0
 40
5.0
 10
201.1739392943246
 20
40.68072168092981
 10
201.2862494071437
 20
40.66280718440651
 10
201.4478243854019
 20
40.65832856027568
 10
201.6093993636601
 20
40.65832856027568
 10
202.5344075014497
 20
40.65832856027568
 10
203.0415255568785
 20
41.18370562177628
 10
203.0415255568785
 20
42.16211273958724
 10
203.0415255568785
 20
43.05129188433022
 10
202.5657578703655
 20
43.53153819497405
 10
201.676923235171
 20
43.53153819497405
 10
201.4612602577944
 20
43.53153819497405
 10
201.2907280312745
 20
43.50914507431992
 10
201.1739392943246
 20
43.4867519536658
 10
201.1739392943246
 20
43.4867519536658
 10
201.1739392943246
 20
40.68072168092981
 10
201.1739392943246
 20
40.68072168092981
 97
        0
 75
     2
 76
     1
 98
        0
  0
POLYLINE
  5
15F
330
123
100
AcDbEntity
  8
_U+30EC_U+30A4_U+30E4_U+30FC 1
370
     0
100
AcDb2dPolyline
 66
     1
 10
0.0
 20
0.0
 30
0.0
  0
VERTEX
  5
160
330
15F
100
AcDbEntity
  8
_U+30EC_U+30A4_U+30E4_U+30FC 1
370
     0
100
AcDbVertex
100
AcDb2dVertex
 10
203.7674071756207
 20
41.89752940632005
 30
0.0
  0
VERTEX
  5
161
330
15F
100
AcDbEntity
  8
_U+30EC_U+30A4_U+30E4_U+30FC 1
370
     0
100
AcDbVertex
100
AcDb2dVertex
 10
204.9931721492725
 20
41.89752940632005
 30
0.0
  0
VERTEX
  5
162
330
15F
100
AcDbEntity
  8
_U+30EC_U+30A4_U+30E4_U+30FC 1
370
     0
100
AcDbVertex
100
AcDb2dVertex
 10
204.9931721492725
 20
41.61020844285022
 30
0.0
  0
VERTEX
  5
163
330
15F
100
AcDbEntity
  8
_U+30EC_U+30A4_U+30E4_U+30FC 1
370
     0
100
AcDbVertex
100
AcDb2dVertex
 10
203.7674071756207
 20
41.61020844285022
 30
0.0
  0
VERTEX
  5
164
330
15F
100
AcDbEntity
  8
_U+30EC_U+30A4_U+30E4_U+30FC 1
370
     0
100
AcDbVertex
100
AcDb2dVertex
 10
203.7674071756207
 20
41.89752940632005
 30
0.0
  0
SEQEND
  5
165
330
15F
100
AcDbEntity
  8
_U+30EC_U+30A4_U+30E4_U+30FC 1
370
     0
  0
HATCH
  5
166
330
123
100
AcDbEntity
  8
_U+30EC_U+30A4_U+30E4_U+30FC 1
 62
     7
100
AcDbHatch
 10
0.0
 20
0.0
 30
0.0
210
0.0
220
0.0
230
1.0
  2
SOLID
 70
     1
 71
     0
 91
        1
 92
        1
 93
        4
 72
     1
 10
203.7674071756207
 20
41.89752940632005
 11
204.9931721492725
 21
41.89752940632005
 72
     1
 10
204.9931721492725
 20
41.89752940632005
 11
204.9931721492725
 21
41.61020844285022
 72
     1
 10
204.9931721492725
 20
41.61020844285022
 11
203.7674071756207
 21
41.61020844285022
 72
     1
 10
203.7674071756207
 20
41.61020844285022
 11
203.7674071756207
 21
41.89752940632005
 97
        0
 75
     2
 76
     1
 98
        0
  0
SPLINE
  5
167
330
123
100
AcDbEntity
  8
_U+30EC_U+30A4_U+30E4_U+30FC 1
370
     0
100
AcDbSpline
210
0.0
220
0.0
230
1.0
 70
    11
 71
     3
 72
    59
 73
    55
 74
     0
 42
0.0000000001
 43
0.0000000001
 12
1.0
 22
0.0
 32
0.0
 13
1.0
 23
0.0
 33
0.0
 40
0.0
 40
0.0
 40
0.0
 40
0.0
 40
1.0
 40
1.0
 40
1.0
 40
2.0
 40
2.0
 40
2.0
 40
3.0
 40
3.0
 40
3.0
 40
4.0
 40
4.0
 40
4.0
 40
5.0
 40
5.0
 40
5.0
 40
6.0
 40
6.0
 40
6.0
 40
7.0
 40
7.0
 40
7.0
 40
8.0
 40
8.0
 40
8.0
 40
9.0
 40
9.0
 40
9.0
 40
10.0
 40
10.0
 40
10.0
 40
11.0
 40
11.0
 40
11.0
 40
12.0
 40
12.0
 40
12.0
 40
13.0
 40
13.0
 40
13.0
 40
14.0
 40
14.0
 40
14.0
 40
15.0
 40
15.0
 40
15.0
 40
16.0
 40
16.0
 40
16.0
 40
17.0
 40
17.0
 40
17.0
 40
18.0
 40
18.0
 40
18.0
 40
18.0
 10
206.5544894231878
 20
42.20276486631319
 30
0.0
 10
206.9496418753459
 20
42.13524099480229
 30
0.0
 10
207.2862277042549
 20
41.81656966241668
 30
0.0
 10
207.2862277042549
 20
41.33184472764203
 30
0.0
 10
207.2862277042549
 20
40.79751041787978
 30
0.0
 10
206.9000325003583
 20
40.33069997962843
 30
0.0
 10
206.1459010986372
 20
40.33069997962843
 30
0.0
 10
205.8093152697282
 20
40.33069997962843
 30
0.0
 10
205.5040798097351
 20
40.43818695876822
 30
0.0
 10
205.35111757019
 20
40.54601844745654
 30
0.0
 10
205.35111757019
 20
40.54601844745654
 30
0.0
 10
205.4634276830091
 20
40.83333941092638
 30
0.0
 10
205.4634276830091
 20
40.83333941092638
 30
0.0
 10
205.58469504409
 20
40.75272417657153
 30
0.0
 10
205.8541015110365
 20
40.63145681549074
 30
0.0
 10
206.150379722768
 20
40.63145681549074
 30
0.0
 10
206.716064401446
 20
40.63145681549074
 30
0.0
 10
206.9000325003583
 20
41.02626475810037
 30
0.0
 10
206.9000325003583
 20
41.33632335177285
 30
0.0
 10
206.9000325003583
 20
41.83000553480915
 30
0.0
 10
206.4824869275461
 20
42.05462576044744
 30
0.0
 10
206.0425482340796
 20
42.05462576044744
 30
0.0
 10
206.0425482340796
 20
42.05462576044744
 30
0.0
 10
205.8227511421207
 20
42.05462576044744
 30
0.0
 10
205.8227511421207
 20
42.05462576044744
 30
0.0
 10
205.8227511421207
 20
42.05462576044744
 30
0.0
 10
205.8227511421207
 20
42.33298947565563
 30
0.0
 10
205.8227511421207
 20
42.33298947565563
 30
0.0
 10
205.8227511421207
 20
42.33298947565563
 30
0.0
 10
206.0425482340796
 20
42.33298947565563
 30
0.0
 10
206.0425482340796
 20
42.33298947565563
 30
0.0
 10
206.3660427001446
 20
42.33298947565563
 30
0.0
 10
206.7832437634084
 20
42.53487207109127
 30
0.0
 10
206.7832437634084
 20
42.95689626803438
 30
0.0
 10
206.7832437634084
 20
43.24869585563503
 30
0.0
 10
206.6082329127577
 20
43.50018782605827
 30
0.0
 10
206.2041232123379
 20
43.50018782605827
 30
0.0
 10
205.957454375594
 20
43.50018782605827
 30
0.0
 10
205.723876901694
 20
43.37892046497748
 30
0.0
 10
205.5891736682208
 20
43.28004622455081
 30
0.0
 10
205.5891736682208
 20
43.28004622455081
 30
0.0
 10
205.4768635554016
 20
43.55393131562817
 30
0.0
 10
205.4768635554016
 20
43.55393131562817
 30
0.0
 10
205.6384385336598
 20
43.67967730083979
 30
0.0
 10
205.9529757514632
 20
43.80542328605141
 30
0.0
 10
206.2761257079796
 20
43.80542328605141
 30
0.0
 10
206.8910752520967
 20
43.80542328605141
 30
0.0
 10
207.164960343174
 20
43.41474945802408
 30
0.0
 10
207.164960343174
 20
43.01063975760427
 30
0.0
 10
207.164960343174
 20
42.66509668043371
 30
0.0
 10
206.9451632512151
 20
42.35538259630975
 30
0.0
 10
206.5544894231878
 20
42.21620073870566
 30
0.0
 10
206.5544894231878
 20
42.21620073870566
 30
0.0
 10
206.5544894231878
 20
42.20276486631319
 30
0.0
 10
206.5544894231878
 20
42.20276486631319
 30
0.0
  0
HATCH
  5
168
330
123
100
AcDbEntity
  8
_U+30EC_U+30A4_U+30E4_U+30FC 1
 62
     7
100
AcDbHatch
 10
0.0
 20
0.0
 30
0.0
210
0.0
220
0.0
230
1.0
  2
SOLID
 70
     1
 71
     0
 91
        1
 92
        1
 93
        1
 72
     4
 94
        3
 73
     0
 74
     1
 95
       59
 96
       55
 40
0.0
 40
0.0
 40
0.0
 40
0.0
 40
1.0
 40
1.0
 40
1.0
 40
2.0
 40
2.0
 40
2.0
 40
3.0
 40
3.0
 40
3.0
 40
4.0
 40
4.0
 40
4.0
 40
5.0
 40
5.0
 40
5.0
 40
6.0
 40
6.0
 40
6.0
 40
7.0
 40
7.0
 40
7.0
 40
8.0
 40
8.0
 40
8.0
 40
9.0
 40
9.0
 40
9.0
 40
10.0
 40
10.0
 40
10.0
 40
11.0
 40
11.0
 40
11.0
 40
12.0
 40
12.0
 40
12.0
 40
13.0
 40
13.0
 40
13.0
 40
14.0
 40
14.0
 40
14.0
 40
15.0
 40
15.0
 40
15.0
 40
16.0
 40
16.0
 40
16.0
 40
17.0
 40
17.0
 40
17.0
 40
18.0
 40
18.0
 40
18.0
 40
18.0
 10
206.5544894231878
 20
42.20276486631319
 10
206.9496418753459
 20
42.13524099480229
 10
207.2862277042549
 20
41.81656966241668
 10
207.2862277042549
 20
41.33184472764203
 10
207.2862277042549
 20
40.79751041787978
 10
206.9000325003583
 20
40.33069997962843
 10
206.1459010986372
 20
40.33069997962843
 10
205.8093152697282
 20
40.33069997962843
 10
205.5040798097351
 20
40.43818695876822
 10
205.35111757019
 20
40.54601844745654
 10
205.35111757019
 20
40.54601844745654
 10
205.4634276830091
 20
40.83333941092638
 10
205.4634276830091
 20
40.83333941092638
 10
205.58469504409
 20
40.75272417657153
 10
205.8541015110365
 20
40.63145681549074
 10
206.150379722768
 20
40.63145681549074
 10
206.716064401446
 20
40.63145681549074
 10
206.9000325003583
 20
41.02626475810037
 10
206.9000325003583
 20
41.33632335177285
 10
206.9000325003583
 20
41.83000553480915
 10
206.4824869275461
 20
42.05462576044744
 10
206.0425482340796
 20
42.05462576044744
 10
206.0425482340796
 20
42.05462576044744
 10
205.8227511421207
 20
42.05462576044744
 10
205.8227511421207
 20
42.05462576044744
 10
205.8227511421207
 20
42.05462576044744
 10
205.8227511421207
 20
42.33298947565563
 10
205.8227511421207
 20
42.33298947565563
 10
205.8227511421207
 20
42.33298947565563
 10
206.0425482340796
 20
42.33298947565563
 10
206.0425482340796
 20
42.33298947565563
 10
206.3660427001446
 20
42.33298947565563
 10
206.7832437634084
 20
42.53487207109127
 10
206.7832437634084
 20
42.95689626803438
 10
206.7832437634084
 20
43.24869585563503
 10
206.6082329127577
 20
43.50018782605827
 10
206.2041232123379
 20
43.50018782605827
 10
205.957454375594
 20
43.50018782605827
 10
205.723876901694
 20
43.37892046497748
 10
205.5891736682208
 20
43.28004622455081
 10
205.5891736682208
 20
43.28004622455081
 10
205.4768635554016
 20
43.55393131562817
 10
205.4768635554016
 20
43.55393131562817
 10
205.6384385336598
 20
43.67967730083979
 10
205.9529757514632
 20
43.80542328605141
 10
206.2761257079796
 20
43.80542328605141
 10
206.8910752520967
 20
43.80542328605141
 10
207.164960343174
 20
43.41474945802408
 10
207.164960343174
 20
43.01063975760427
 10
207.164960343174
 20
42.66509668043371
 10
206.9451632512151
 20
42.35538259630975
 10
206.5544894231878
 20
42.21620073870566
 10
206.5544894231878
 20
42.21620073870566
 10
206.5544894231878
 20
42.20276486631319
 10
206.5544894231878
 20
42.20276486631319
 97
        0
 75
     2
 76
     1
 98
        0
  0
SPLINE
  5
169
330
123
100
AcDbEntity
  8
_U+30EC_U+30A4_U+30E4_U+30FC 1
370
     0
100
AcDbSpline
210
0.0
220
0.0
230
1.0
 70
    11
 71
     3
 72
    47
 73
    43
 74
     0
 42
0.0000000001
 43
0.0000000001
 12
1.0
 22
0.0
 32
0.0
 13
1.0
 23
0.0
 33
0.0
 40
0.0
 40
0.0
 40
0.0
 40
0.0
 40
1.0
 40
1.0
 40
1.0
 40
2.0
 40
2.0
 40
2.0
 40
3.0
 40
3.0
 40
3.0
 40
4.0
 40
4.0
 40
4.0
 40
5.0
 40
5.0
 40
5.0
 40
6.0
 40
6.0
 40
6.0
 40
7.0
 40
7.0
 40
7.0
 40
8.0
 40
8.0
 40
8.0
 40
9.0
 40
9.0
 40
9.0
 40
10.0
 40
10.0
 40
10.0
 40
11.0
 40
11.0
 40
11.0
 40
12.0
 40
12.0
 40
12.0
 40
13.0
 40
13.0
 40
13.0
 40
14.0
 40
14.0
 40
14.0
 40
14.0
 10
209.825952095981
 20
40.38444346919832
 30
0.0
 10
209.825952095981
 20
40.38444346919832
 30
0.0
 10
207.8374429818948
 20
40.38444346919832
 30
0.0
 10
207.8374429818948
 20
40.38444346919832
 30
0.0
 10
207.8374429818948
 20
40.38444346919832
 30
0.0
 10
207.8374429818948
 20
40.61354231896743
 30
0.0
 10
207.8374429818948
 20
40.61354231896743
 30
0.0
 10
207.8374429818948
 20
40.61354231896743
 30
0.0
 10
208.1650715625421
 20
40.95908539613799
 30
0.0
 10
208.1650715625421
 20
40.95908539613799
 30
0.0
 10
208.9639892055715
 20
41.76730479697761
 30
0.0
 10
209.3680989059913
 20
42.25650835588308
 30
0.0
 10
209.3680989059913
 20
42.80427853803781
 30
0.0
 10
209.3680989059913
 20
43.16325748760084
 30
0.0
 10
209.2110025518639
 20
43.49570920192745
 30
0.0
 10
208.7262776170893
 20
43.49570920192745
 30
0.0
 10
208.4568711501427
 20
43.49570920192745
 30
0.0
 10
208.2143364279812
 20
43.34757009606171
 30
0.0
 10
208.0527614497229
 20
43.21734548671926
 30
0.0
 10
208.0527614497229
 20
43.21734548671926
 30
0.0
 10
207.9270154645113
 20
43.47779470540415
 30
0.0
 10
207.9270154645113
 20
43.47779470540415
 30
0.0
 10
208.1337211936263
 20
43.6617628043165
 30
0.0
 10
208.4389566536194
 20
43.80542328605141
 30
0.0
 10
208.7979356031825
 20
43.80542328605141
 30
0.0
 10
209.4759303946796
 20
43.80542328605141
 30
0.0
 10
209.7453368616262
 20
43.31139659346658
 30
0.0
 10
209.7453368616262
 20
42.84906477934606
 30
0.0
 10
209.7453368616262
 20
42.21620073870566
 30
0.0
 10
209.3009195440289
 20
41.67738780481259
 30
0.0
 10
208.6050102560085
 20
40.9769998926613
 30
0.0
 10
208.6050102560085
 20
40.9769998926613
 30
0.0
 10
208.3400824131928
 20
40.69863617745311
 30
0.0
 10
208.3400824131928
 20
40.69863617745311
 30
0.0
 10
208.3400824131928
 20
40.69863617745311
 30
0.0
 10
208.3400824131928
 20
40.68967892919146
 30
0.0
 10
208.3400824131928
 20
40.68967892919146
 30
0.0
 10
208.3400824131928
 20
40.68967892919146
 30
0.0
 10
209.825952095981
 20
40.68967892919146
 30
0.0
 10
209.825952095981
 20
40.68967892919146
 30
0.0
 10
209.825952095981
 20
40.68967892919146
 30
0.0
 10
209.825952095981
 20
40.38444346919832
 30
0.0
 10
209.825952095981
 20
40.38444346919832
 30
0.0
  0
HATCH
  5
16A
330
123
100
AcDbEntity
  8
_U+30EC_U+30A4_U+30E4_U+30FC 1
 62
     7
100
AcDbHatch
 10
0.0
 20
0.0
 30
0.0
210
0.0
220
0.0
230
1.0
  2
SOLID
 70
     1
 71
     0
 91
        1
 92
        1
 93
        1
 72
     4
 94
        3
 73
     0
 74
     1
 95
       47
 96
       43
 40
0.0
 40
0.0
 40
0.0
 40
0.0
 40
1.0
 40
1.0
 40
1.0
 40
2.0
 40
2.0
 40
2.0
 40
3.0
 40
3.0
 40
3.0
 40
4.0
 40
4.0
 40
4.0
 40
5.0
 40
5.0
 40
5.0
 40
6.0
 40
6.0
 40
6.0
 40
7.0
 40
7.0
 40
7.0
 40
8.0
 40
8.0
 40
8.0
 40
9.0
 40
9.0
 40
9.0
 40
10.0
 40
10.0
 40
10.0
 40
11.0
 40
11.0
 40
11.0
 40
12.0
 40
12.0
 40
12.0
 40
13.0
 40
13.0
 40
13.0
 40
14.0
 40
14.0
 40
14.0
 40
14.0
 10
209.825952095981
 20
40.38444346919832
 10
209.825952095981
 20
40.38444346919832
 10
207.8374429818948
 20
40.38444346919832
 10
207.8374429818948
 20
40.38444346919832
 10
207.8374429818948
 20
40.38444346919832
 10
207.8374429818948
 20
40.61354231896743
 10
207.8374429818948
 20
40.61354231896743
 10
207.8374429818948
 20
40.61354231896743
 10
208.1650715625421
 20
40.95908539613799
 10
208.1650715625421
 20
40.95908539613799
 10
208.9639892055715
 20
41.76730479697761
 10
209.3680989059913
 20
42.25650835588308
 10
209.3680989059913
 20
42.80427853803781
 10
209.3680989059913
 20
43.16325748760084
 10
209.2110025518639
 20
43.49570920192745
 10
208.7262776170893
 20
43.49570920192745
 10
208.4568711501427
 20
43.49570920192745
 10
208.2143364279812
 20
43.34757009606171
 10
208.0527614497229
 20
43.21734548671926
 10
208.0527614497229
 20
43.21734548671926
 10
207.9270154645113
 20
43.47779470540415
 10
207.9270154645113
 20
43.47779470540415
 10
208.1337211936263
 20
43.6617628043165
 10
208.4389566536194
 20
43.80542328605141
 10
208.7979356031825
 20
43.80542328605141
 10
209.4759303946796
 20
43.80542328605141
 10
209.7453368616262
 20
43.31139659346658
 10
209.7453368616262
 20
42.84906477934606
 10
209.7453368616262
 20
42.21620073870566
 10
209.3009195440289
 20
41.67738780481259
 10
208.6050102560085
 20
40.9769998926613
 10
208.6050102560085
 20
40.9769998926613
 10
208.3400824131928
 20
40.69863617745311
 10
208.3400824131928
 20
40.69863617745311
 10
208.3400824131928
 20
40.69863617745311
 10
208.3400824131928
 20
40.68967892919146
 10
208.3400824131928
 20
40.68967892919146
 10
208.3400824131928
 20
40.68967892919146
 10
209.825952095981
 20
40.68967892919146
 10
209.825952095981
 20
40.68967892919146
 10
209.825952095981
 20
40.68967892919146
 10
209.825952095981
 20
40.38444346919832
 10
209.825952095981
 20
40.38444346919832
 97
        0
 75
     2
 76
     1
 98
        0
  0
SPLINE
  5
16B
330
123
100
AcDbEntity
  8
_U+30EC_U+30A4_U+30E4_U+30FC 1
370
     0
100
AcDbSpline
210
0.0
220
0.0
230
1.0
 70
    11
 71
     3
 72
    23
 73
    19
 74
     0
 42
0.0000000001
 43
0.0000000001
 12
1.0
 22
0.0
 32
0.0
 13
1.0
 23
0.0
 33
0.0
 40
0.0
 40
0.0
 40
0.0
 40
0.0
 40
1.0
 40
1.0
 40
1.0
 40
2.0
 40
2.0
 40
2.0
 40
3.0
 40
3.0
 40
3.0
 40
4.0
 40
4.0
 40
4.0
 40
5.0
 40
5.0
 40
5.0
 40
6.0
 40
6.0
 40
6.0
 40
6.0
 10
193.8820501902448
 20
38.37560829174914
 30
0.0
 10
194.1331976511195
 20
38.41591590892656
 30
0.0
 10
194.4249972387202
 20
38.44726627784234
 30
0.0
 10
194.7440130806543
 20
38.44726627784234
 30
0.0
 10
196.1175726506234
 20
38.44726627784234
 30
0.0
 10
196.5127251027816
 20
37.6345682528719
 30
0.0
 10
196.5127251027816
 20
36.79499848311652
 30
0.0
 10
196.5127251027816
 20
36.25205143464114
 30
0.0
 10
196.3690646210466
 20
35.78971962052061
 30
0.0
 10
196.0459146645302
 20
35.45278928206318
 30
0.0
 10
195.7451578286679
 20
35.14307519793922
 30
0.0
 10
195.2466525119522
 20
34.97254297141935
 30
0.0
 10
194.6227457195735
 20
34.97254297141935
 30
0.0
 10
194.3399033802345
 20
34.97254297141935
 30
0.0
 10
194.0973686580729
 20
34.981500219681
 30
0.0
 10
193.8820501902448
 20
35.00837196446595
 30
0.0
 10
193.8820501902448
 20
35.00837196446595
 30
0.0
 10
193.8820501902448
 20
38.37560829174914
 30
0.0
 10
193.8820501902448
 20
38.37560829174914
 30
0.0
  0
SPLINE
  5
16C
330
123
100
AcDbEntity
  8
_U+30EC_U+30A4_U+30E4_U+30FC 1
370
     0
100
AcDbSpline
210
0.0
220
0.0
230
1.0
 70
    11
 71
     3
 72
    20
 73
    16
 74
     0
 42
0.0000000001
 43
0.0000000001
 12
1.0
 22
0.0
 32
0.0
 13
1.0
 23
0.0
 33
0.0
 40
0.0
 40
0.0
 40
0.0
 40
0.0
 40
1.0
 40
1.0
 40
1.0
 40
2.0
 40
2.0
 40
2.0
 40
3.0
 40
3.0
 40
3.0
 40
4.0
 40
4.0
 40
4.0
 40
5.0
 40
5.0
 40
5.0
 40
5.0
 10
194.2544650122003
 20
35.29569292793579
 30
0.0
 10
194.3667751250194
 20
35.27777843141249
 30
0.0
 10
194.5283501032776
 20
35.27329980728166
 30
0.0
 10
194.6899250815358
 20
35.27329980728166
 30
0.0
 10
195.6149332193255
 20
35.27329980728166
 30
0.0
 10
196.1220512747542
 20
35.79867686878227
 30
0.0
 10
196.1220512747542
 20
36.77708398659322
 30
0.0
 10
196.1220512747542
 20
37.6662631313362
 30
0.0
 10
195.6462835882412
 20
38.14650944198003
 30
0.0
 10
194.7574489530467
 20
38.14650944198003
 30
0.0
 10
194.5417859756701
 20
38.14650944198003
 30
0.0
 10
194.3712537491502
 20
38.12411632132591
 30
0.0
 10
194.2544650122003
 20
38.10172320067178
 30
0.0
 10
194.2544650122003
 20
38.10172320067178
 30
0.0
 10
194.2544650122003
 20
35.29569292793579
 30
0.0
 10
194.2544650122003
 20
35.29569292793579
 30
0.0
  0
HATCH
  5
16D
330
123
100
AcDbEntity
  8
_U+30EC_U+30A4_U+30E4_U+30FC 1
 62
     7
100
AcDbHatch
 10
0.0
 20
0.0
 30
0.0
210
0.0
220
0.0
230
1.0
  2
SOLID
 70
     1
 71
     0
 91
        2
 92
        1
 93
        1
 72
     4
 94
        3
 73
     0
 74
     1
 95
       23
 96
       19
 40
0.0
 40
0.0
 40
0.0
 40
0.0
 40
1.0
 40
1.0
 40
1.0
 40
2.0
 40
2.0
 40
2.0
 40
3.0
 40
3.0
 40
3.0
 40
4.0
 40
4.0
 40
4.0
 40
5.0
 40
5.0
 40
5.0
 40
6.0
 40
6.0
 40
6.0
 40
6.0
 10
193.8820501902448
 20
38.37560829174914
 10
194.1331976511195
 20
38.41591590892656
 10
194.4249972387202
 20
38.44726627784234
 10
194.7440130806543
 20
38.44726627784234
 10
196.1175726506234
 20
38.44726627784234
 10
196.5127251027816
 20
37.6345682528719
 10
196.5127251027816
 20
36.79499848311652
 10
196.5127251027816
 20
36.25205143464114
 10
196.3690646210466
 20
35.78971962052061
 10
196.0459146645302
 20
35.45278928206318
 10
195.7451578286679
 20
35.14307519793922
 10
195.2466525119522
 20
34.97254297141935
 10
194.6227457195735
 20
34.97254297141935
 10
194.3399033802345
 20
34.97254297141935
 10
194.0973686580729
 20
34.981500219681
 10
193.8820501902448
 20
35.00837196446595
 10
193.8820501902448
 20
35.00837196446595
 10
193.8820501902448
 20
38.37560829174914
 10
193.8820501902448
 20
38.37560829174914
 97
        0
 92
        1
 93
        1
 72
     4
 94
        3
 73
     0
 74
     1
 95
       20
 96
       16
 40
0.0
 40
0.0
 40
0.0
 40
0.0
 40
1.0
 40
1.0
 40
1.0
 40
2.0
 40
2.0
 40
2.0
 40
3.0
 40
3.0
 40
3.0
 40
4.0
 40
4.0
 40
4.0
 40
5.0
 40
5.0
 40
5.0
 40
5.0
 10
194.2544650122003
 20
35.29569292793579
 10
194.3667751250194
 20
35.27777843141249
 10
194.5283501032776
 20
35.27329980728166
 10
194.6899250815358
 20
35.27329980728166
 10
195.6149332193255
 20
35.27329980728166
 10
196.1220512747542
 20
35.79867686878227
 10
196.1220512747542
 20
36.77708398659322
 10
196.1220512747542
 20
37.6662631313362
 10
195.6462835882412
 20
38.14650944198003
 10
194.7574489530467
 20
38.14650944198003
 10
194.5417859756701
 20
38.14650944198003
 10
194.3712537491502
 20
38.12411632132591
 10
194.2544650122003
 20
38.10172320067178
 10
194.2544650122003
 20
38.10172320067178
 10
194.2544650122003
 20
35.29569292793579
 10
194.2544650122003
 20
35.29569292793579
 97
        0
 75
     2
 76
     1
 98
        0
  0
POLYLINE
  5
16E
330
123
100
AcDbEntity
  8
_U+30EC_U+30A4_U+30E4_U+30FC 1
370
     0
100
AcDb2dPolyline
 66
     1
 10
0.0
 20
0.0
 30
0.0
  0
VERTEX
  5
16F
330
16E
100
AcDbEntity
  8
_U+30EC_U+30A4_U+30E4_U+30FC 1
370
     0
100
AcDbVertex
100
AcDb2dVertex
 10
197.0770317432655
 20
38.42039453305739
 30
0.0
  0
VERTEX
  5
170
330
16E
100
AcDbEntity
  8
_U+30EC_U+30A4_U+30E4_U+30FC 1
370
     0
100
AcDbVertex
100
AcDb2dVertex
 10
197.449446565221
 20
38.42039453305739
 30
0.0
  0
VERTEX
  5
171
330
16E
100
AcDbEntity
  8
_U+30EC_U+30A4_U+30E4_U+30FC 1
370
     0
100
AcDbVertex
100
AcDb2dVertex
 10
197.449446565221
 20
34.9994147162043
 30
0.0
  0
VERTEX
  5
172
330
16E
100
AcDbEntity
  8
_U+30EC_U+30A4_U+30E4_U+30FC 1
370
     0
100
AcDbVertex
100
AcDb2dVertex
 10
197.0770317432655
 20
34.9994147162043
 30
0.0
  0
VERTEX
  5
173
330
16E
100
AcDbEntity
  8
_U+30EC_U+30A4_U+30E4_U+30FC 1
370
     0
100
AcDbVertex
100
AcDb2dVertex
 10
197.0770317432655
 20
38.42039453305739
 30
0.0
  0
SEQEND
  5
174
330
16E
100
AcDbEntity
  8
_U+30EC_U+30A4_U+30E4_U+30FC 1
370
     0
  0
HATCH
  5
175
330
123
100
AcDbEntity
  8
_U+30EC_U+30A4_U+30E4_U+30FC 1
 62
     7
100
AcDbHatch
 10
0.0
 20
0.0
 30
0.0
210
0.0
220
0.0
230
1.0
  2
SOLID
 70
     1
 71
     0
 91
        1
 92
        1
 93
        4
 72
     1
 10
197.0770317432655
 20
38.42039453305739
 11
197.449446565221
 21
38.42039453305739
 72
     1
 10
197.449446565221
 20
38.42039453305739
 11
197.449446565221
 21
34.9994147162043
 72
     1
 10
197.449446565221
 20
34.9994147162043
 11
197.0770317432655
 21
34.9994147162043
 72
     1
 10
197.0770317432655
 20
34.9994147162043
 11
197.0770317432655
 21
38.42039453305739
 97
        0
 75
     2
 76
     1
 98
        0
  0
SPLINE
  5
176
330
123
100
AcDbEntity
  8
_U+30EC_U+30A4_U+30E4_U+30FC 1
370
     0
100
AcDbSpline
210
0.0
220
0.0
230
1.0
 70
    11
 71
     3
 72
    47
 73
    43
 74
     0
 42
0.0000000001
 43
0.0000000001
 12
1.0
 22
0.0
 32
0.0
 13
1.0
 23
0.0
 33
0.0
 40
0.0
 40
0.0
 40
0.0
 40
0.0
 40
1.0
 40
1.0
 40
1.0
 40
2.0
 40
2.0
 40
2.0
 40
3.0
 40
3.0
 40
3.0
 40
4.0
 40
4.0
 40
4.0
 40
5.0
 40
5.0
 40
5.0
 40
6.0
 40
6.0
 40
6.0
 40
7.0
 40
7.0
 40
7.0
 40
8.0
 40
8.0
 40
8.0
 40
9.0
 40
9.0
 40
9.0
 40
10.0
 40
10.0
 40
10.0
 40
11.0
 40
11.0
 40
11.0
 40
12.0
 40
12.0
 40
12.0
 40
13.0
 40
13.0
 40
13.0
 40
14.0
 40
14.0
 40
14.0
 40
14.0
 10
199.5499212825778
 20
36.63790212898913
 30
0.0
 10
199.8148491253935
 20
36.55280827050345
 30
0.0
 10
199.9719454795209
 20
36.29683767594939
 30
0.0
 10
200.0525607138757
 20
35.92407834444536
 30
0.0
 10
200.1603922025641
 20
35.43039616140906
 30
0.0
 10
200.2368733223366
 20
35.12963932554675
 30
0.0
 10
200.304052684299
 20
34.9994147162043
 30
0.0
 10
200.304052684299
 20
34.9994147162043
 30
0.0
 10
199.918201989951
 20
34.9994147162043
 30
0.0
 10
199.918201989951
 20
34.9994147162043
 30
0.0
 10
199.8641139908326
 20
35.09828895663097
 30
0.0
 10
199.7879773806086
 20
35.39904579249328
 30
0.0
 10
199.6980603884435
 20
35.82554861356721
 30
0.0
 10
199.5991861480169
 20
36.30131630008022
 30
0.0
 10
199.4107394249737
 20
36.51250065332603
 30
0.0
 10
199.0066297245539
 20
36.51250065332603
 30
0.0
 10
199.0066297245539
 20
36.51250065332603
 30
0.0
 10
198.5890841517416
 20
36.51250065332603
 30
0.0
 10
198.5890841517416
 20
36.51250065332603
 30
0.0
 10
198.5890841517416
 20
36.51250065332603
 30
0.0
 10
198.5890841517416
 20
34.9994147162043
 30
0.0
 10
198.5890841517416
 20
34.9994147162043
 30
0.0
 10
198.5890841517416
 20
34.9994147162043
 30
0.0
 10
198.2166693297861
 20
34.9994147162043
 30
0.0
 10
198.2166693297861
 20
34.9994147162043
 30
0.0
 10
198.2166693297861
 20
34.9994147162043
 30
0.0
 10
198.2166693297861
 20
38.37078515806979
 30
0.0
 10
198.2166693297861
 20
38.37078515806979
 30
0.0
 10
198.4275091734834
 20
38.41591590892656
 30
0.0
 10
198.7237873852149
 20
38.44278765371151
 30
0.0
 10
198.9931938521614
 20
38.44278765371151
 30
0.0
 10
199.4376111697587
 20
38.44278765371151
 30
0.0
 10
199.7294107573593
 20
38.35287066154649
 30
0.0
 10
199.9316378623435
 20
38.16442393850333
 30
0.0
 10
200.0932128406017
 20
38.01628483263758
 30
0.0
 10
200.187263947349
 20
37.78270735873765
 30
0.0
 10
200.187263947349
 20
37.52708127373211
 30
0.0
 10
200.187263947349
 20
37.0733621983247
 30
0.0
 10
199.9133788562717
 20
36.78156261072404
 30
0.0
 10
199.5499212825778
 20
36.65168251093012
 30
0.0
 10
199.5499212825778
 20
36.65168251093012
 30
0.0
 10
199.5499212825778
 20
36.63790212898913
 30
0.0
 10
199.5499212825778
 20
36.63790212898913
 30
0.0
  0
SPLINE
  5
177
330
123
100
AcDbEntity
  8
_U+30EC_U+30A4_U+30E4_U+30FC 1
370
     0
100
AcDbSpline
210
0.0
220
0.0
230
1.0
 70
    11
 71
     3
 72
    20
 73
    16
 74
     0
 42
0.0000000001
 43
0.0000000001
 12
1.0
 22
0.0
 32
0.0
 13
1.0
 23
0.0
 33
0.0
 40
0.0
 40
0.0
 40
0.0
 40
0.0
 40
1.0
 40
1.0
 40
1.0
 40
2.0
 40
2.0
 40
2.0
 40
3.0
 40
3.0
 40
3.0
 40
4.0
 40
4.0
 40
4.0
 40
5.0
 40
5.0
 40
5.0
 40
5.0
 10
199.029022845208
 20
36.79982161679587
 30
0.0
 10
199.5051350412696
 20
36.79982161679587
 30
0.0
 10
199.8103705012627
 20
37.06888357419388
 30
0.0
 10
199.8103705012627
 20
37.48195052287534
 30
0.0
 10
199.8103705012627
 20
37.98941308785263
 30
0.0
 10
199.428653921497
 20
38.14650944198003
 30
0.0
 10
199.0111083486847
 20
38.14650944198003
 30
0.0
 10
198.8092257532491
 20
38.14650944198003
 30
0.0
 10
198.6655652715142
 20
38.12859494545673
 30
0.0
 10
198.5890841517416
 20
38.11068044893343
 30
0.0
 10
198.5890841517416
 20
38.11068044893343
 30
0.0
 10
198.5890841517416
 20
36.79982161679587
 30
0.0
 10
198.5890841517416
 20
36.79982161679587
 30
0.0
 10
198.5890841517416
 20
36.79982161679587
 30
0.0
 10
199.029022845208
 20
36.79982161679587
 30
0.0
 10
199.029022845208
 20
36.79982161679587
 30
0.0
  0
HATCH
  5
178
330
123
100
AcDbEntity
  8
_U+30EC_U+30A4_U+30E4_U+30FC 1
 62
     7
100
AcDbHatch
 10
0.0
 20
0.0
 30
0.0
210
0.0
220
0.0
230
1.0
  2
SOLID
 70
     1
 71
     0
 91
        2
 92
        1
 93
        1
 72
     4
 94
        3
 73
     0
 74
     1
 95
       47
 96
       43
 40
0.0
 40
0.0
 40
0.0
 40
0.0
 40
1.0
 40
1.0
 40
1.0
 40
2.0
 40
2.0
 40
2.0
 40
3.0
 40
3.0
 40
3.0
 40
4.0
 40
4.0
 40
4.0
 40
5.0
 40
5.0
 40
5.0
 40
6.0
 40
6.0
 40
6.0
 40
7.0
 40
7.0
 40
7.0
 40
8.0
 40
8.0
 40
8.0
 40
9.0
 40
9.0
 40
9.0
 40
10.0
 40
10.0
 40
10.0
 40
11.0
 40
11.0
 40
11.0
 40
12.0
 40
12.0
 40
12.0
 40
13.0
 40
13.0
 40
13.0
 40
14.0
 40
14.0
 40
14.0
 40
14.0
 10
199.5499212825778
 20
36.63790212898913
 10
199.8148491253935
 20
36.55280827050345
 10
199.9719454795209
 20
36.29683767594939
 10
200.0525607138757
 20
35.92407834444536
 10
200.1603922025641
 20
35.43039616140906
 10
200.2368733223366
 20
35.12963932554675
 10
200.304052684299
 20
34.9994147162043
 10
200.304052684299
 20
34.9994147162043
 10
199.918201989951
 20
34.9994147162043
 10
199.918201989951
 20
34.9994147162043
 10
199.8641139908326
 20
35.09828895663097
 10
199.7879773806086
 20
35.39904579249328
 10
199.6980603884435
 20
35.82554861356721
 10
199.5991861480169
 20
36.30131630008022
 10
199.4107394249737
 20
36.51250065332603
 10
199.0066297245539
 20
36.51250065332603
 10
199.0066297245539
 20
36.51250065332603
 10
198.5890841517416
 20
36.51250065332603
 10
198.5890841517416
 20
36.51250065332603
 10
198.5890841517416
 20
36.51250065332603
 10
198.5890841517416
 20
34.9994147162043
 10
198.5890841517416
 20
34.9994147162043
 10
198.5890841517416
 20
34.9994147162043
 10
198.2166693297861
 20
34.9994147162043
 10
198.2166693297861
 20
34.9994147162043
 10
198.2166693297861
 20
34.9994147162043
 10
198.2166693297861
 20
38.37078515806979
 10
198.2166693297861
 20
38.37078515806979
 10
198.4275091734834
 20
38.41591590892656
 10
198.7237873852149
 20
38.44278765371151
 10
198.9931938521614
 20
38.44278765371151
 10
199.4376111697587
 20
38.44278765371151
 10
199.7294107573593
 20
38.35287066154649
 10
199.9316378623435
 20
38.16442393850333
 10
200.0932128406017
 20
38.01628483263758
 10
200.187263947349
 20
37.78270735873765
 10
200.187263947349
 20
37.52708127373211
 10
200.187263947349
 20
37.0733621983247
 10
199.9133788562717
 20
36.78156261072404
 10
199.5499212825778
 20
36.65168251093012
 10
199.5499212825778
 20
36.65168251093012
 10
199.5499212825778
 20
36.63790212898913
 10
199.5499212825778
 20
36.63790212898913
 97
        0
 92
        1
 93
        1
 72
     4
 94
        3
 73
     0
 74
     1
 95
       20
 96
       16
 40
0.0
 40
0.0
 40
0.0
 40
0.0
 40
1.0
 40
1.0
 40
1.0
 40
2.0
 40
2.0
 40
2.0
 40
3.0
 40
3.0
 40
3.0
 40
4.0
 40
4.0
 40
4.0
 40
5.0
 40
5.0
 40
5.0
 40
5.0
 10
199.029022845208
 20
36.79982161679587
 10
199.5051350412696
 20
36.79982161679587
 10
199.8103705012627
 20
37.06888357419388
 10
199.8103705012627
 20
37.48195052287534
 10
199.8103705012627
 20
37.98941308785263
 10
199.428653921497
 20
38.14650944198003
 10
199.0111083486847
 20
38.14650944198003
 10
198.8092257532491
 20
38.14650944198003
 10
198.6655652715142
 20
38.12859494545673
 10
198.5890841517416
 20
38.11068044893343
 10
198.5890841517416
 20
38.11068044893343
 10
198.5890841517416
 20
36.79982161679587
 10
198.5890841517416
 20
36.79982161679587
 10
198.5890841517416
 20
36.79982161679587
 10
199.029022845208
 20
36.79982161679587
 10
199.029022845208
 20
36.79982161679587
 97
        0
 75
     2
 76
     1
 98
        0
  0
SPLINE
  5
179
330
123
100
AcDbEntity
  8
_U+30EC_U+30A4_U+30E4_U+30FC 1
370
     0
100
AcDbSpline
210
0.0
220
0.0
230
1.0
 70
    11
 71
     3
 72
    23
 73
    19
 74
     0
 42
0.0000000001
 43
0.0000000001
 12
1.0
 22
0.0
 32
0.0
 13
1.0
 23
0.0
 33
0.0
 40
0.0
 40
0.0
 40
0.0
 40
0.0
 40
1.0
 40
1.0
 40
1.0
 40
2.0
 40
2.0
 40
2.0
 40
3.0
 40
3.0
 40
3.0
 40
4.0
 40
4.0
 40
4.0
 40
5.0
 40
5.0
 40
5.0
 40
6.0
 40
6.0
 40
6.0
 40
6.0
 10
200.8015244723691
 20
38.37560829174914
 30
0.0
 10
201.0526719332438
 20
38.41591590892656
 30
0.0
 10
201.3444715208445
 20
38.44726627784234
 30
0.0
 10
201.6634873627786
 20
38.44726627784234
 30
0.0
 10
203.0370469327477
 20
38.44726627784234
 30
0.0
 10
203.4321993849059
 20
37.6345682528719
 30
0.0
 10
203.4321993849059
 20
36.79499848311652
 30
0.0
 10
203.4321993849059
 20
36.25205143464114
 30
0.0
 10
203.2885389031709
 20
35.78971962052061
 30
0.0
 10
202.9653889466545
 20
35.45278928206318
 30
0.0
 10
202.6646321107922
 20
35.14307519793922
 30
0.0
 10
202.1661267940765
 20
34.97254297141935
 30
0.0
 10
201.5422200016978
 20
34.97254297141935
 30
0.0
 10
201.2593776623588
 20
34.97254297141935
 30
0.0
 10
201.0168429401972
 20
34.981500219681
 30
0.0
 10
200.8015244723691
 20
35.00837196446595
 30
0.0
 10
200.8015244723691
 20
35.00837196446595
 30
0.0
 10
200.8015244723691
 20
38.37560829174914
 30
0.0
 10
200.8015244723691
 20
38.37560829174914
 30
0.0
  0
SPLINE
  5
17A
330
123
100
AcDbEntity
  8
_U+30EC_U+30A4_U+30E4_U+30FC 1
370
     0
100
AcDbSpline
210
0.0
220
0.0
230
1.0
 70
    11
 71
     3
 72
    20
 73
    16
 74
     0
 42
0.0000000001
 43
0.0000000001
 12
1.0
 22
0.0
 32
0.0
 13
1.0
 23
0.0
 33
0.0
 40
0.0
 40
0.0
 40
0.0
 40
0.0
 40
1.0
 40
1.0
 40
1.0
 40
2.0
 40
2.0
 40
2.0
 40
3.0
 40
3.0
 40
3.0
 40
4.0
 40
4.0
 40
4.0
 40
5.0
 40
5.0
 40
5.0
 40
5.0
 10
201.1739392943246
 20
35.29569292793579
 30
0.0
 10
201.2862494071437
 20
35.27777843141249
 30
0.0
 10
201.4478243854019
 20
35.27329980728166
 30
0.0
 10
201.6093993636601
 20
35.27329980728166
 30
0.0
 10
202.5344075014497
 20
35.27329980728166
 30
0.0
 10
203.0415255568785
 20
35.79867686878227
 30
0.0
 10
203.0415255568785
 20
36.77708398659322
 30
0.0
 10
203.0415255568785
 20
37.6662631313362
 30
0.0
 10
202.5657578703655
 20
38.14650944198003
 30
0.0
 10
201.676923235171
 20
38.14650944198003
 30
0.0
 10
201.4612602577944
 20
38.14650944198003
 30
0.0
 10
201.2907280312745
 20
38.12411632132591
 30
0.0
 10
201.1739392943246
 20
38.10172320067178
 30
0.0
 10
201.1739392943246
 20
38.10172320067178
 30
0.0
 10
201.1739392943246
 20
35.29569292793579
 30
0.0
 10
201.1739392943246
 20
35.29569292793579
 30
0.0
  0
HATCH
  5
17B
330
123
100
AcDbEntity
  8
_U+30EC_U+30A4_U+30E4_U+30FC 1
 62
     7
100
AcDbHatch
 10
0.0
 20
0.0
 30
0.0
210
0.0
220
0.0
230
1.0
  2
SOLID
 70
     1
 71
     0
 91
        2
 92
        1
 93
        1
 72
     4
 94
        3
 73
     0
 74
     1
 95
       23
 96
       19
 40
0.0
 40
0.0
 40
0.0
 40
0.0
 40
1.0
 40
1.0
 40
1.0
 40
2.0
 40
2.0
 40
2.0
 40
3.0
 40
3.0
 40
3.0
 40
4.0
 40
4.0
 40
4.0
 40
5.0
 40
5.0
 40
5.0
 40
6.0
 40
6.0
 40
6.0
 40
6.0
 10
200.8015244723691
 20
38.37560829174914
 10
201.0526719332438
 20
38.41591590892656
 10
201.3444715208445
 20
38.44726627784234
 10
201.6634873627786
 20
38.44726627784234
 10
203.0370469327477
 20
38.44726627784234
 10
203.4321993849059
 20
37.6345682528719
 10
203.4321993849059
 20
36.79499848311652
 10
203.4321993849059
 20
36.25205143464114
 10
203.2885389031709
 20
35.78971962052061
 10
202.9653889466545
 20
35.45278928206318
 10
202.6646321107922
 20
35.14307519793922
 10
202.1661267940765
 20
34.97254297141935
 10
201.5422200016978
 20
34.97254297141935
 10
201.2593776623588
 20
34.97254297141935
 10
201.0168429401972
 20
34.981500219681
 10
200.8015244723691
 20
35.00837196446595
 10
200.8015244723691
 20
35.00837196446595
 10
200.8015244723691
 20
38.37560829174914
 10
200.8015244723691
 20
38.37560829174914
 97
        0
 92
        1
 93
        1
 72
     4
 94
        3
 73
     0
 74
     1
 95
       20
 96
       16
 40
0.0
 40
0.0
 40
0.0
 40
0.0
 40
1.0
 40
1.0
 40
1.0
 40
2.0
 40
2.0
 40
2.0
 40
3.0
 40
3.0
 40
3.0
 40
4.0
 40
4.0
 40
4.0
 40
5.0
 40
5.0
 40
5.0
 40
5.0
 10
201.1739392943246
 20
35.29569292793579
 10
201.2862494071437
 20
35.27777843141249
 10
201.4478243854019
 20
35.27329980728166
 10
201.6093993636601
 20
35.27329980728166
 10
202.5344075014497
 20
35.27329980728166
 10
203.0415255568785
 20
35.79867686878227
 10
203.0415255568785
 20
36.77708398659322
 10
203.0415255568785
 20
37.6662631313362
 10
202.5657578703655
 20
38.14650944198003
 10
201.676923235171
 20
38.14650944198003
 10
201.4612602577944
 20
38.14650944198003
 10
201.2907280312745
 20
38.12411632132591
 10
201.1739392943246
 20
38.10172320067178
 10
201.1739392943246
 20
38.10172320067178
 10
201.1739392943246
 20
35.29569292793579
 10
201.1739392943246
 20
35.29569292793579
 97
        0
 75
     2
 76
     1
 98
        0
  0
POLYLINE
  5
17C
330
123
100
AcDbEntity
  8
_U+30EC_U+30A4_U+30E4_U+30FC 1
370
     0
100
AcDb2dPolyline
 66
     1
 10
0.0
 20
0.0
 30
0.0
  0
VERTEX
  5
17D
330
17C
100
AcDbEntity
  8
_U+30EC_U+30A4_U+30E4_U+30FC 1
370
     0
100
AcDbVertex
100
AcDb2dVertex
 10
203.7674071756207
 20
36.51250065332603
 30
0.0
  0
VERTEX
  5
17E
330
17C
100
AcDbEntity
  8
_U+30EC_U+30A4_U+30E4_U+30FC 1
370
     0
100
AcDbVertex
100
AcDb2dVertex
 10
204.9931721492725
 20
36.51250065332603
 30
0.0
  0
VERTEX
  5
17F
330
17C
100
AcDbEntity
  8
_U+30EC_U+30A4_U+30E4_U+30FC 1
370
     0
100
AcDbVertex
100
AcDb2dVertex
 10
204.9931721492725
 20
36.22517968985619
 30
0.0
  0
VERTEX
  5
180
330
17C
100
AcDbEntity
  8
_U+30EC_U+30A4_U+30E4_U+30FC 1
370
     0
100
AcDbVertex
100
AcDb2dVertex
 10
203.7674071756207
 20
36.22517968985619
 30
0.0
  0
VERTEX
  5
181
330
17C
100
AcDbEntity
  8
_U+30EC_U+30A4_U+30E4_U+30FC 1
370
     0
100
AcDbVertex
100
AcDb2dVertex
 10
203.7674071756207
 20
36.51250065332603
 30
0.0
  0
SEQEND
  5
182
330
17C
100
AcDbEntity
  8
_U+30EC_U+30A4_U+30E4_U+30FC 1
370
     0
  0
HATCH
  5
183
330
123
100
AcDbEntity
  8
_U+30EC_U+30A4_U+30E4_U+30FC 1
 62
     7
100
AcDbHatch
 10
0.0
 20
0.0
 30
0.0
210
0.0
220
0.0
230
1.0
  2
SOLID
 70
     1
 71
     0
 91
        1
 92
        1
 93
        4
 72
     1
 10
203.7674071756207
 20
36.51250065332603
 11
204.9931721492725
 21
36.51250065332603
 72
     1
 10
204.9931721492725
 20
36.51250065332603
 11
204.9931721492725
 21
36.22517968985619
 72
     1
 10
204.9931721492725
 20
36.22517968985619
 11
203.7674071756207
 21
36.22517968985619
 72
     1
 10
203.7674071756207
 20
36.22517968985619
 11
203.7674071756207
 21
36.51250065332603
 97
        0
 75
     2
 76
     1
 98
        0
  0
SPLINE
  5
184
330
123
100
AcDbEntity
  8
_U+30EC_U+30A4_U+30E4_U+30FC 1
370
     0
100
AcDbSpline
210
0.0
220
0.0
230
1.0
 70
    11
 71
     3
 72
    59
 73
    55
 74
     0
 42
0.0000000001
 43
0.0000000001
 12
1.0
 22
0.0
 32
0.0
 13
1.0
 23
0.0
 33
0.0
 40
0.0
 40
0.0
 40
0.0
 40
0.0
 40
1.0
 40
1.0
 40
1.0
 40
2.0
 40
2.0
 40
2.0
 40
3.0
 40
3.0
 40
3.0
 40
4.0
 40
4.0
 40
4.0
 40
5.0
 40
5.0
 40
5.0
 40
6.0
 40
6.0
 40
6.0
 40
7.0
 40
7.0
 40
7.0
 40
8.0
 40
8.0
 40
8.0
 40
9.0
 40
9.0
 40
9.0
 40
10.0
 40
10.0
 40
10.0
 40
11.0
 40
11.0
 40
11.0
 40
12.0
 40
12.0
 40
12.0
 40
13.0
 40
13.0
 40
13.0
 40
14.0
 40
14.0
 40
14.0
 40
15.0
 40
15.0
 40
15.0
 40
16.0
 40
16.0
 40
16.0
 40
17.0
 40
17.0
 40
17.0
 40
18.0
 40
18.0
 40
18.0
 40
18.0
 10
206.5544894231878
 20
36.81773611331916
 30
0.0
 10
206.9496418753459
 20
36.75021224180827
 30
0.0
 10
207.2862277042549
 20
36.43154090942266
 30
0.0
 10
207.2862277042549
 20
35.946815974648
 30
0.0
 10
207.2862277042549
 20
35.41248166488575
 30
0.0
 10
206.9000325003583
 20
34.9456712266344
 30
0.0
 10
206.1459010986372
 20
34.9456712266344
 30
0.0
 10
205.8093152697282
 20
34.9456712266344
 30
0.0
 10
205.5040798097351
 20
35.0531582057742
 30
0.0
 10
205.35111757019
 20
35.16098969446252
 30
0.0
 10
205.35111757019
 20
35.16098969446252
 30
0.0
 10
205.4634276830091
 20
35.44831065793235
 30
0.0
 10
205.4634276830091
 20
35.44831065793235
 30
0.0
 10
205.58469504409
 20
35.36769542357751
 30
0.0
 10
205.8541015110365
 20
35.24642806249671
 30
0.0
 10
206.150379722768
 20
35.24642806249671
 30
0.0
 10
206.716064401446
 20
35.24642806249671
 30
0.0
 10
206.9000325003583
 20
35.64123600510634
 30
0.0
 10
206.9000325003583
 20
35.95129459877883
 30
0.0
 10
206.9000325003583
 20
36.44497678181514
 30
0.0
 10
206.4824869275461
 20
36.66959700745343
 30
0.0
 10
206.0425482340796
 20
36.66959700745343
 30
0.0
 10
206.0425482340796
 20
36.66959700745343
 30
0.0
 10
205.8227511421207
 20
36.66959700745343
 30
0.0
 10
205.8227511421207
 20
36.66959700745343
 30
0.0
 10
205.8227511421207
 20
36.66959700745343
 30
0.0
 10
205.8227511421207
 20
36.94796072266161
 30
0.0
 10
205.8227511421207
 20
36.94796072266161
 30
0.0
 10
205.8227511421207
 20
36.94796072266161
 30
0.0
 10
206.0425482340796
 20
36.94796072266161
 30
0.0
 10
206.0425482340796
 20
36.94796072266161
 30
0.0
 10
206.3660427001446
 20
36.94796072266161
 30
0.0
 10
206.7832437634084
 20
37.14984331809725
 30
0.0
 10
206.7832437634084
 20
37.57186751504035
 30
0.0
 10
206.7832437634084
 20
37.86366710264102
 30
0.0
 10
206.6082329127577
 20
38.11515907306426
 30
0.0
 10
206.2041232123379
 20
38.11515907306426
 30
0.0
 10
205.957454375594
 20
38.11515907306426
 30
0.0
 10
205.723876901694
 20
37.99389171198346
 30
0.0
 10
205.5891736682208
 20
37.89501747155679
 30
0.0
 10
205.5891736682208
 20
37.89501747155679
 30
0.0
 10
205.4768635554016
 20
38.16890256263415
 30
0.0
 10
205.4768635554016
 20
38.16890256263415
 30
0.0
 10
205.6384385336598
 20
38.29464854784577
 30
0.0
 10
205.9529757514632
 20
38.42039453305739
 30
0.0
 10
206.2761257079796
 20
38.42039453305739
 30
0.0
 10
206.8910752520967
 20
38.42039453305739
 30
0.0
 10
207.164960343174
 20
38.02972070503006
 30
0.0
 10
207.164960343174
 20
37.62561100461025
 30
0.0
 10
207.164960343174
 20
37.2800679274397
 30
0.0
 10
206.9451632512151
 20
36.97035384331573
 30
0.0
 10
206.5544894231878
 20
36.83117198571164
 30
0.0
 10
206.5544894231878
 20
36.83117198571164
 30
0.0
 10
206.5544894231878
 20
36.81773611331916
 30
0.0
 10
206.5544894231878
 20
36.81773611331916
 30
0.0
  0
HATCH
  5
185
330
123
100
AcDbEntity
  8
_U+30EC_U+30A4_U+30E4_U+30FC 1
 62
     7
100
AcDbHatch
 10
0.0
 20
0.0
 30
0.0
210
0.0
220
0.0
230
1.0
  2
SOLID
 70
     1
 71
     0
 91
        1
 92
        1
 93
        1
 72
     4
 94
        3
 73
     0
 74
     1
 95
       59
 96
       55
 40
0.0
 40
0.0
 40
0.0
 40
0.0
 40
1.0
 40
1.0
 40
1.0
 40
2.0
 40
2.0
 40
2.0
 40
3.0
 40
3.0
 40
3.0
 40
4.0
 40
4.0
 40
4.0
 40
5.0
 40
5.0
 40
5.0
 40
6.0
 40
6.0
 40
6.0
 40
7.0
 40
7.0
 40
7.0
 40
8.0
 40
8.0
 40
8.0
 40
9.0
 40
9.0
 40
9.0
 40
10.0
 40
10.0
 40
10.0
 40
11.0
 40
11.0
 40
11.0
 40
12.0
 40
12.0
 40
12.0
 40
13.0
 40
13.0
 40
13.0
 40
14.0
 40
14.0
 40
14.0
 40
15.0
 40
15.0
 40
15.0
 40
16.0
 40
16.0
 40
16.0
 40
17.0
 40
17.0
 40
17.0
 40
18.0
 40
18.0
 40
18.0
 40
18.0
 10
206.5544894231878
 20
36.81773611331916
 10
206.9496418753459
 20
36.75021224180827
 10
207.2862277042549
 20
36.43154090942266
 10
207.2862277042549
 20
35.946815974648
 10
207.2862277042549
 20
35.41248166488575
 10
206.9000325003583
 20
34.9456712266344
 10
206.1459010986372
 20
34.9456712266344
 10
205.8093152697282
 20
34.9456712266344
 10
205.5040798097351
 20
35.0531582057742
 10
205.35111757019
 20
35.16098969446252
 10
205.35111757019
 20
35.16098969446252
 10
205.4634276830091
 20
35.44831065793235
 10
205.4634276830091
 20
35.44831065793235
 10
205.58469504409
 20
35.36769542357751
 10
205.8541015110365
 20
35.24642806249671
 10
206.150379722768
 20
35.24642806249671
 10
206.716064401446
 20
35.24642806249671
 10
206.9000325003583
 20
35.64123600510634
 10
206.9000325003583
 20
35.95129459877883
 10
206.9000325003583
 20
36.44497678181514
 10
206.4824869275461
 20
36.66959700745343
 10
206.0425482340796
 20
36.66959700745343
 10
206.0425482340796
 20
36.66959700745343
 10
205.8227511421207
 20
36.66959700745343
 10
205.8227511421207
 20
36.66959700745343
 10
205.8227511421207
 20
36.66959700745343
 10
205.8227511421207
 20
36.94796072266161
 10
205.8227511421207
 20
36.94796072266161
 10
205.8227511421207
 20
36.94796072266161
 10
206.0425482340796
 20
36.94796072266161
 10
206.0425482340796
 20
36.94796072266161
 10
206.3660427001446
 20
36.94796072266161
 10
206.7832437634084
 20
37.14984331809725
 10
206.7832437634084
 20
37.57186751504035
 10
206.7832437634084
 20
37.86366710264102
 10
206.6082329127577
 20
38.11515907306426
 10
206.2041232123379
 20
38.11515907306426
 10
205.957454375594
 20
38.11515907306426
 10
205.723876901694
 20
37.99389171198346
 10
205.5891736682208
 20
37.89501747155679
 10
205.5891736682208
 20
37.89501747155679
 10
205.4768635554016
 20
38.16890256263415
 10
205.4768635554016
 20
38.16890256263415
 10
205.6384385336598
 20
38.29464854784577
 10
205.9529757514632
 20
38.42039453305739
 10
206.2761257079796
 20
38.42039453305739
 10
206.8910752520967
 20
38.42039453305739
 10
207.164960343174
 20
38.02972070503006
 10
207.164960343174
 20
37.62561100461025
 10
207.164960343174
 20
37.2800679274397
 10
206.9451632512151
 20
36.97035384331573
 10
206.5544894231878
 20
36.83117198571164
 10
206.5544894231878
 20
36.83117198571164
 10
206.5544894231878
 20
36.81773611331916
 10
206.5544894231878
 20
36.81773611331916
 97
        0
 75
     2
 76
     1
 98
        0
  0
SPLINE
  5
186
330
123
100
AcDbEntity
  8
_U+30EC_U+30A4_U+30E4_U+30FC 1
370
     0
100
AcDbSpline
210
0.0
220
0.0
230
1.0
 70
    11
 71
     3
 72
    59
 73
    55
 74
     0
 42
0.0000000001
 43
0.0000000001
 12
1.0
 22
0.0
 32
0.0
 13
1.0
 23
0.0
 33
0.0
 40
0.0
 40
0.0
 40
0.0
 40
0.0
 40
1.0
 40
1.0
 40
1.0
 40
2.0
 40
2.0
 40
2.0
 40
3.0
 40
3.0
 40
3.0
 40
4.0
 40
4.0
 40
4.0
 40
5.0
 40
5.0
 40
5.0
 40
6.0
 40
6.0
 40
6.0
 40
7.0
 40
7.0
 40
7.0
 40
8.0
 40
8.0
 40
8.0
 40
9.0
 40
9.0
 40
9.0
 40
10.0
 40
10.0
 40
10.0
 40
11.0
 40
11.0
 40
11.0
 40
12.0
 40
12.0
 40
12.0
 40
13.0
 40
13.0
 40
13.0
 40
14.0
 40
14.0
 40
14.0
 40
15.0
 40
15.0
 40
15.0
 40
16.0
 40
16.0
 40
16.0
 40
17.0
 40
17.0
 40
17.0
 40
18.0
 40
18.0
 40
18.0
 40
18.0
 10
209.0270344529516
 20
36.81773611331916
 30
0.0
 10
209.4221869051098
 20
36.75021224180827
 30
0.0
 10
209.7587727340187
 20
36.43154090942266
 30
0.0
 10
209.7587727340187
 20
35.946815974648
 30
0.0
 10
209.7587727340187
 20
35.41248166488575
 30
0.0
 10
209.3725775301221
 20
34.9456712266344
 30
0.0
 10
208.618446128401
 20
34.9456712266344
 30
0.0
 10
208.2818602994921
 20
34.9456712266344
 30
0.0
 10
207.9762803299504
 20
35.0531582057742
 30
0.0
 10
207.8236625999538
 20
35.16098969446252
 30
0.0
 10
207.8236625999538
 20
35.16098969446252
 30
0.0
 10
207.935972712773
 20
35.44831065793235
 30
0.0
 10
207.935972712773
 20
35.44831065793235
 30
0.0
 10
208.0572400738538
 20
35.36769542357751
 30
0.0
 10
208.3266465408003
 20
35.24642806249671
 30
0.0
 10
208.6229247525318
 20
35.24642806249671
 30
0.0
 10
209.1886094312098
 20
35.24642806249671
 30
0.0
 10
209.3725775301221
 20
35.64123600510634
 30
0.0
 10
209.3725775301221
 20
35.95129459877883
 30
0.0
 10
209.3725775301221
 20
36.44497678181514
 30
0.0
 10
208.9550319573099
 20
36.66959700745343
 30
0.0
 10
208.5150932638435
 20
36.66959700745343
 30
0.0
 10
208.5150932638435
 20
36.66959700745343
 30
0.0
 10
208.2952961718845
 20
36.66959700745343
 30
0.0
 10
208.2952961718845
 20
36.66959700745343
 30
0.0
 10
208.2952961718845
 20
36.66959700745343
 30
0.0
 10
208.2952961718845
 20
36.94796072266161
 30
0.0
 10
208.2952961718845
 20
36.94796072266161
 30
0.0
 10
208.2952961718845
 20
36.94796072266161
 30
0.0
 10
208.5150932638435
 20
36.94796072266161
 30
0.0
 10
208.5150932638435
 20
36.94796072266161
 30
0.0
 10
208.8382432203599
 20
36.94796072266161
 30
0.0
 10
209.2557887931722
 20
37.14984331809725
 30
0.0
 10
209.2557887931722
 20
37.57186751504035
 30
0.0
 10
209.2557887931722
 20
37.86366710264102
 30
0.0
 10
209.0807779425215
 20
38.11515907306426
 30
0.0
 10
208.6766682421017
 20
38.11515907306426
 30
0.0
 10
208.4299994053578
 20
38.11515907306426
 30
0.0
 10
208.1964219314578
 20
37.99389171198346
 30
0.0
 10
208.0617186979846
 20
37.89501747155679
 30
0.0
 10
208.0617186979846
 20
37.89501747155679
 30
0.0
 10
207.9494085851654
 20
38.16890256263415
 30
0.0
 10
207.9494085851654
 20
38.16890256263415
 30
0.0
 10
208.1109835634236
 20
38.29464854784577
 30
0.0
 10
208.425520781227
 20
38.42039453305739
 30
0.0
 10
208.7486707377434
 20
38.42039453305739
 30
0.0
 10
209.3636202818605
 20
38.42039453305739
 30
0.0
 10
209.6375053729379
 20
38.02972070503006
 30
0.0
 10
209.6375053729379
 20
37.62561100461025
 30
0.0
 10
209.6375053729379
 20
37.2800679274397
 30
0.0
 10
209.4177082809789
 20
36.97035384331573
 30
0.0
 10
209.0270344529516
 20
36.83117198571164
 30
0.0
 10
209.0270344529516
 20
36.83117198571164
 30
0.0
 10
209.0270344529516
 20
36.81773611331916
 30
0.0
 10
209.0270344529516
 20
36.81773611331916
 30
0.0
  0
HATCH
  5
187
330
123
100
AcDbEntity
  8
_U+30EC_U+30A4_U+30E4_U+30FC 1
 62
     7
100
AcDbHatch
 10
0.0
 20
0.0
 30
0.0
210
0.0
220
0.0
230
1.0
  2
SOLID
 70
     1
 71
     0
 91
        1
 92
        1
 93
        1
 72
     4
 94
        3
 73
     0
 74
     1
 95
       59
 96
       55
 40
0.0
 40
0.0
 40
0.0
 40
0.0
 40
1.0
 40
1.0
 40
1.0
 40
2.0
 40
2.0
 40
2.0
 40
3.0
 40
3.0
 40
3.0
 40
4.0
 40
4.0
 40
4.0
 40
5.0
 40
5.0
 40
5.0
 40
6.0
 40
6.0
 40
6.0
 40
7.0
 40
7.0
 40
7.0
 40
8.0
 40
8.0
 40
8.0
 40
9.0
 40
9.0
 40
9.0
 40
10.0
 40
10.0
 40
10.0
 40
11.0
 40
11.0
 40
11.0
 40
12.0
 40
12.0
 40
12.0
 40
13.0
 40
13.0
 40
13.0
 40
14.0
 40
14.0
 40
14.0
 40
15.0
 40
15.0
 40
15.0
 40
16.0
 40
16.0
 40
16.0
 40
17.0
 40
17.0
 40
17.0
 40
18.0
 40
18.0
 40
18.0
 40
18.0
 10
209.0270344529516
 20
36.81773611331916
 10
209.4221869051098
 20
36.75021224180827
 10
209.7587727340187
 20
36.43154090942266
 10
209.7587727340187
 20
35.946815974648
 10
209.7587727340187
 20
35.41248166488575
 10
209.3725775301221
 20
34.9456712266344
 10
208.618446128401
 20
34.9456712266344
 10
208.2818602994921
 20
34.9456712266344
 10
207.9762803299504
 20
35.0531582057742
 10
207.8236625999538
 20
35.16098969446252
 10
207.8236625999538
 20
35.16098969446252
 10
207.935972712773
 20
35.44831065793235
 10
207.935972712773
 20
35.44831065793235
 10
208.0572400738538
 20
35.36769542357751
 10
208.3266465408003
 20
35.24642806249671
 10
208.6229247525318
 20
35.24642806249671
 10
209.1886094312098
 20
35.24642806249671
 10
209.3725775301221
 20
35.64123600510634
 10
209.3725775301221
 20
35.95129459877883
 10
209.3725775301221
 20
36.44497678181514
 10
208.9550319573099
 20
36.66959700745343
 10
208.5150932638435
 20
36.66959700745343
 10
208.5150932638435
 20
36.66959700745343
 10
208.2952961718845
 20
36.66959700745343
 10
208.2952961718845
 20
36.66959700745343
 10
208.2952961718845
 20
36.66959700745343
 10
208.2952961718845
 20
36.94796072266161
 10
208.2952961718845
 20
36.94796072266161
 10
208.2952961718845
 20
36.94796072266161
 10
208.5150932638435
 20
36.94796072266161
 10
208.5150932638435
 20
36.94796072266161
 10
208.8382432203599
 20
36.94796072266161
 10
209.2557887931722
 20
37.14984331809725
 10
209.2557887931722
 20
37.57186751504035
 10
209.2557887931722
 20
37.86366710264102
 10
209.0807779425215
 20
38.11515907306426
 10
208.6766682421017
 20
38.11515907306426
 10
208.4299994053578
 20
38.11515907306426
 10
208.1964219314578
 20
37.99389171198346
 10
208.0617186979846
 20
37.89501747155679
 10
208.0617186979846
 20
37.89501747155679
 10
207.9494085851654
 20
38.16890256263415
 10
207.9494085851654
 20
38.16890256263415
 10
208.1109835634236
 20
38.29464854784577
 10
208.425520781227
 20
38.42039453305739
 10
208.7486707377434
 20
38.42039453305739
 10
209.3636202818605
 20
38.42039453305739
 10
209.6375053729379
 20
38.02972070503006
 10
209.6375053729379
 20
37.62561100461025
 10
209.6375053729379
 20
37.2800679274397
 10
209.4177082809789
 20
36.97035384331573
 10
209.0270344529516
 20
36.83117198571164
 10
209.0270344529516
 20
36.83117198571164
 10
209.0270344529516
 20
36.81773611331916
 10
209.0270344529516
 20
36.81773611331916
 97
        0
 75
     2
 76
     1
 98
        0
  0
ENDBLK
  5
126
330
123
100
AcDbEntity
  8
0
100
AcDbBlockEnd
  0
ENDSEC
  0
SECTION
  2
ENTITIES
  0
INSERT
  5
42
330
1F
100
AcDbEntity
  8
_U+30EC_U+30A4_U+30E4_U+30FC 1
100
AcDbBlockReference
  2
block 2
 10
0.0
 20
0.0
 30
0.0
  0
POLYLINE
  5
11D
330
1F
100
AcDbEntity
  8
_U+30EC_U+30A4_U+30E4_U+30FC 1
 62
     7
370
    13
100
AcDb2dPolyline
 66
     1
 10
0.0
 20
0.0
 30
0.0
  0
VERTEX
  5
11E
330
11D
100
AcDbEntity
  8
_U+30EC_U+30A4_U+30E4_U+30FC 1
 62
     7
370
    13
100
AcDbVertex
100
AcDb2dVertex
 10
105.9861186849577
 20
116.8236986862458
 30
0.0
  0
VERTEX
  5
11F
330
11D
100
AcDbEntity
  8
_U+30EC_U+30A4_U+30E4_U+30FC 1
 62
     7
370
    13
100
AcDbVertex
100
AcDb2dVertex
 10
105.9861186849577
 20
68.18326437161112
 30
0.0
  0
VERTEX
  5
120
330
11D
100
AcDbEntity
  8
_U+30EC_U+30A4_U+30E4_U+30FC 1
 62
     7
370
    13
100
AcDbVertex
100
AcDb2dVertex
 10
107.7500075288461
 20
68.18326437161112
 30
0.0
  0
VERTEX
  5
121
330
11D
100
AcDbEntity
  8
_U+30EC_U+30A4_U+30E4_U+30FC 1
 62
     7
370
    13
100
AcDbVertex
100
AcDb2dVertex
 10
107.7500075288461
 20
116.2997178662803
 30
0.0
  0
SEQEND
  5
122
330
11D
100
AcDbEntity
  8
_U+30EC_U+30A4_U+30E4_U+30FC 1
 62
     7
370
    13
  0
INSERT
  5
124
330
1F
100
AcDbEntity
  8
_U+30EC_U+30A4_U+30E4_U+30FC 1
100
AcDbBlockReference
  2
block 4
 10
0.0
 20
0.0
 30
0.0
  0
ENDSEC
  0
SECTION
  2
OBJECTS
  0
DICTIONARY
  5
C
330
0
100
AcDbDictionary
281
     1
  3
ACAD_GROUP
350
D
  3
ACAD_LAYOUT
350
1A
  3
ACAD_MATERIAL
350
3B
  3
ACAD_MLEADERSTYLE
350
1AA
  3
ACAD_MLINESTYLE
350
17
  3
ACAD_PLOTSETTINGS
350
19
  3
ACAD_PLOTSTYLENAME
350
E
  3
ACAD_TABLESTYLE
350
1A9
  3
ACAD_VISUALSTYLE
350
2A
  0
SUN
  5
3F
330
29
100
AcDbSun
 90
        1
290
     0
 63
     7
421
 16777215
 40
1.0
291
     1
 91
  2455826
 92
 54000000
292
     0
 70
     2
 71
   256
280
     1
  0
DICTIONARY
  5
D
102
{ACAD_REACTORS
330
C
102
}
330
C
100
AcDbDictionary
281
     1
  0
DICTIONARY
  5
1A
102
{ACAD_REACTORS
330
C
102
}
330
C
100
AcDbDictionary
281
     1
  3
Layout1
350
1E
  3
Layout2
350
26
  3
Model
350
22
  0
DICTIONARY
  5
3B
102
{ACAD_REACTORS
330
C
102
}
330
C
100
AcDbDictionary
281
     1
  3
ByBlock
350
3D
  3
ByLayer
350
3C
  3
Global
350
3E
  0
DICTIONARY
  5
1AA
102
{ACAD_REACTORS
330
C
102
}
330
C
100
AcDbDictionary
281
     1
  0
DICTIONARY
  5
17
102
{ACAD_REACTORS
330
C
102
}
330
C
100
AcDbDictionary
281
     1
  3
Standard
350
18
  0
DICTIONARY
  5
19
102
{ACAD_REACTORS
330
C
102
}
330
C
100
AcDbDictionary
281
     1
  0
ACDBDICTIONARYWDFLT
  5
E
102
{ACAD_REACTORS
330
C
102
}
330
C
100
AcDbDictionary
281
     1
  3
Normal
350
F
100
AcDbDictionaryWithDefault
340
F
  0
DICTIONARY
  5
1A9
102
{ACAD_REACTORS
330
C
102
}
330
C
100
AcDbDictionary
281
     1
  0
DICTIONARY
  5
2A
102
{ACAD_REACTORS
330
C
102
}
330
C
100
AcDbDictionary
281
     1
  3
2dWireframe
350
2F
  3
3D Hidden
350
31
  3
3dWireframe
350
30
  3
Basic
350
32
  3
Brighten
350
36
  3
ColorChange
350
3A
  3
Conceptual
350
34
  3
Dim
350
35
  3
Facepattern
350
39
  3
Flat
350
2B
  3
FlatWithEdges
350
2C
  3
Gouraud
350
2D
  3
GouraudWithEdges
350
2E
  3
Linepattern
350
38
  3
Realistic
350
33
  3
Thicken
350
37
  0
LAYOUT
  5
1E
102
{ACAD_REACTORS
330
1A
102
}
330
1A
100
AcDbPlotSettings
  1

  2
none_device
  4

  6

 40
0.0
 41
0.0
 42
0.0
 43
0.0
 44
0.0
 45
0.0
 46
0.0
 47
0.0
 48
0.0
 49
0.0
140
0.0
141
0.0
142
1.0
143
1.0
 70
   688
 72
     0
 73
     0
 74
     5
  7

 75
    16
 76
     0
 77
     2
 78
   300
147
1.0
148
0.0
149
0.0
100
AcDbLayout
  1
Layout1
 70
     1
 71
     1
 10
0.0
 20
0.0
 11
12.0
 21
9.0
 12
0.0
 22
0.0
 32
0.0
 14
1.000000000000000E+20
 24
1.000000000000000E+20
 34
1.000000000000000E+20
 15
-1.000000000000000E+20
 25
-1.000000000000000E+20
 35
-1.000000000000000E+20
146
0.0
 13
0.0
 23
0.0
 33
0.0
 16
1.0
 26
0.0
 36
0.0
 17
0.0
 27
1.0
 37
0.0
 76
     0
330
1B
  0
LAYOUT
  5
26
102
{ACAD_REACTORS
330
1A
102
}
330
1A
100
AcDbPlotSettings
  1

  2
none_device
  4

  6

 40
0.0
 41
0.0
 42
0.0
 43
0.0
 44
0.0
 45
0.0
 46
0.0
 47
0.0
 48
0.0
 49
0.0
140
0.0
141
0.0
142
1.0
143
1.0
 70
   688
 72
     0
 73
     0
 74
     5
  7

 75
    16
 76
     0
 77
     2
 78
   300
147
1.0
148
0.0
149
0.0
100
AcDbLayout
  1
Layout2
 70
     1
 71
     2
 10
0.0
 20
0.0
 11
0.0
 21
0.0
 12
0.0
 22
0.0
 32
0.0
 14
0.0
 24
0.0
 34
0.0
 15
0.0
 25
0.0
 35
0.0
146
0.0
 13
0.0
 23
0.0
 33
0.0
 16
1.0
 26
0.0
 36
0.0
 17
0.0
 27
1.0
 37
0.0
 76
     0
330
23
  0
LAYOUT
  5
22
102
{ACAD_REACTORS
330
1A
102
}
330
1A
100
AcDbPlotSettings
  1

  2
none_device
  4

  6

 40
0.0
 41
0.0
 42
0.0
 43
0.0
 44
0.0
 45
0.0
 46
0.0
 47
0.0
 48
0.0
 49
0.0
140
0.0
141
0.0
142
1.0
143
1.0
 70
  1712
 72
     0
 73
     0
 74
     0
  7

 75
     0
 76
     0
 77
     2
 78
   300
147
1.0
148
0.0
149
0.0
100
AcDbLayout
  1
Model
 70
     1
 71
     0
 10
0.0
 20
0.0
 11
12.0
 21
9.0
 12
0.0
 22
0.0
 32
0.0
 14
1.000000000000000E+20
 24
1.000000000000000E+20
 34
1.000000000000000E+20
 15
-1.000000000000000E+20
 25
-1.000000000000000E+20
 35
-1.000000000000000E+20
146
0.0
 13
0.0
 23
0.0
 33
0.0
 16
1.0
 26
0.0
 36
0.0
 17
0.0
 27
1.0
 37
0.0
 76
     0
330
1F
331
29
  0
MATERIAL
  5
3D
102
{ACAD_REACTORS
330
3B
102
}
330
3B
100
AcDbMaterial
  1
ByBlock
 72
     1
 94
      127
  0
MATERIAL
  5
3C
102
{ACAD_REACTORS
330
3B
102
}
330
3B
100
AcDbMaterial
  1
ByLayer
 72
     1
 94
      127
  0
MATERIAL
  5
3E
102
{ACAD_REACTORS
330
3B
102
}
330
3B
100
AcDbMaterial
  1
Global
 72
     1
 94
      127
  0
MLINESTYLE
  5
18
102
{ACAD_REACTORS
330
17
102
}
330
17
100
AcDbMlineStyle
  2
Standard
 70
     0
  3

 62
   256
 51
90.0
 52
90.0
 71
     2
 49
0.5
 62
   256
  6
BYLAYER
 49
-0.5
 62
   256
  6
BYLAYER
  0
ACDBPLACEHOLDER
  5
F
102
{ACAD_REACTORS
330
E
102
}
330
E
  0
VISUALSTYLE
  5
2F
102
{ACAD_REACTORS
330
2A
102
}
102
{ACAD_XDICTIONARY
360
191
102
}
330
2A
100
AcDbVisualStyle
  2
2dWireframe
 70
     4
 71
     0
 72
     2
 73
     0
 90
        0
 40
-0.6
 41
-30.0
 62
     5
 63
     7
421
 16777215
 74
     1
 91
        4
 64
     7
 65
   257
 75
     1
175
     1
 42
1.0
 92
        0
 66
   257
 43
1.0
 76
     1
 77
     6
 78
     2
 67
     7
 79
     5
170
     0
171
     0
290
     0
174
     0
 93
        1
 44
0.0
173
     0
291
     0
 45
0.0
  0
VISUALSTYLE
  5
31
102
{ACAD_REACTORS
330
2A
102
}
102
{ACAD_XDICTIONARY
360
195
102
}
330
2A
100
AcDbVisualStyle
  2
3D Hidden
 70
     6
 71
     1
 72
     2
 73
     2
 90
        0
 40
-0.6
 41
-30.0
 62
     5
 63
     7
421
 16777215
 74
     2
 91
        2
 64
     7
 65
   257
 75
     2
175
     1
 42
40.0
 92
        0
 66
   257
 43
1.0
 76
     1
 77
     6
 78
     2
 67
     7
 79
     3
170
     0
171
     0
290
     0
174
     0
 93
        1
 44
0.0
173
     0
291
     0
 45
0.0
  0
VISUALSTYLE
  5
30
102
{ACAD_REACTORS
330
2A
102
}
102
{ACAD_XDICTIONARY
360
193
102
}
330
2A
100
AcDbVisualStyle
  2
3dWireframe
 70
     5
 71
     0
 72
     2
 73
     0
 90
        0
 40
-0.6
 41
-30.0
 62
     5
 63
     7
421
 16777215
 74
     1
 91
        4
 64
     7
 65
   257
 75
     1
175
     1
 42
1.0
 92
        0
 66
   257
 43
1.0
 76
     1
 77
     6
 78
     2
 67
     7
 79
     5
170
     0
171
     0
290
     0
174
     0
 93
        1
 44
0.0
173
     0
291
     0
 45
0.0
  0
VISUALSTYLE
  5
32
102
{ACAD_REACTORS
330
2A
102
}
102
{ACAD_XDICTIONARY
360
197
102
}
330
2A
100
AcDbVisualStyle
  2
Basic
 70
     7
 71
     1
 72
     0
 73
     1
 90
        0
 40
-0.6
 41
-30.0
 62
     5
 63
     7
421
 16777215
 74
     0
 91
        4
 64
     7
 65
   257
 75
     1
175
     1
 42
1.0
 92
        8
 66
     7
 43
1.0
 76
     1
 77
     6
 78
     2
 67
     7
 79
     5
170
     0
171
     0
290
     0
174
     0
 93
        1
 44
0.0
173
     0
291
     1
 45
0.0
  0
VISUALSTYLE
  5
36
102
{ACAD_REACTORS
330
2A
102
}
102
{ACAD_XDICTIONARY
360
19F
102
}
330
2A
100
AcDbVisualStyle
  2
Brighten
 70
    12
 71
     2
 72
     2
 73
     0
 90
        0
 40
-0.6
 41
-30.0
 62
     5
 63
     7
421
 16777215
 74
     1
 91
        4
 64
     7
 65
   257
 75
     1
175
     1
 42
1.0
 92
        8
 66
     7
 43
1.0
 76
     1
 77
     6
 78
     2
 67
     7
 79
     5
170
     0
171
     0
290
     0
174
     0
 93
        1
 44
50.0
173
     0
291
     1
 45
0.0
  0
VISUALSTYLE
  5
3A
102
{ACAD_REACTORS
330
2A
102
}
102
{ACAD_XDICTIONARY
360
1A7
102
}
330
2A
100
AcDbVisualStyle
  2
ColorChange
 70
    16
 71
     2
 72
     2
 73
     3
 90
        0
 40
-0.6
 41
-30.0
 62
     5
 63
     8
421
  8421504
 74
     1
 91
        4
 64
     7
 65
   257
 75
     1
175
     1
 42
1.0
 92
        8
 66
     8
424
  8421504
 43
1.0
 76
     1
 77
     6
 78
     2
 67
     7
 79
     5
170
     0
171
     0
290
     0
174
     0
 93
        1
 44
0.0
173
     0
291
     1
 45
0.0
  0
VISUALSTYLE
  5
34
102
{ACAD_REACTORS
330
2A
102
}
102
{ACAD_XDICTIONARY
360
19B
102
}
330
2A
100
AcDbVisualStyle
  2
Conceptual
 70
     9
 71
     3
 72
     2
 73
     0
 90
        0
 40
-0.6
 41
-30.0
 62
     5
 63
     7
421
 16777215
 74
     2
 91
        2
 64
     7
 65
   257
 75
     1
175
     1
 42
40.0
 92
        8
 66
     7
 43
1.0
 76
     1
 77
     6
 78
     2
 67
     7
 79
     3
170
     0
171
     0
290
     0
174
     0
 93
        1
 44
0.0
173
     0
291
     0
 45
0.0
  0
VISUALSTYLE
  5
35
102
{ACAD_REACTORS
330
2A
102
}
102
{ACAD_XDICTIONARY
360
19D
102
}
330
2A
100
AcDbVisualStyle
  2
Dim
 70
    11
 71
     2
 72
     2
 73
     0
 90
        0
 40
-0.6
 41
-30.0
 62
     5
 63
     7
421
 16777215
 74
     1
 91
        4
 64
     7
 65
   257
 75
     1
175
     1
 42
1.0
 92
        8
 66
     7
 43
1.0
 76
     1
 77
     6
 78
     2
 67
     7
 79
     5
170
     0
171
     0
290
     0
174
     0
 93
        1
 44
-50.0
173
     0
291
     1
 45
0.0
  0
VISUALSTYLE
  5
39
102
{ACAD_REACTORS
330
2A
102
}
102
{ACAD_XDICTIONARY
360
1A5
102
}
330
2A
100
AcDbVisualStyle
  2
Facepattern
 70
    15
 71
     2
 72
     2
 73
     0
 90
        0
 40
-0.6
 41
-30.0
 62
     5
 63
     7
421
 16777215
 74
     1
 91
        4
 64
     7
 65
   257
 75
     1
175
     1
 42
1.0
 92
        8
 66
     7
 43
1.0
 76
     1
 77
     6
 78
     2
 67
     7
 79
     5
170
     0
171
     0
290
     0
174
     0
 93
        1
 44
0.0
173
     0
291
     1
 45
0.0
  0
VISUALSTYLE
  5
2B
102
{ACAD_REACTORS
330
2A
102
}
102
{ACAD_XDICTIONARY
360
189
102
}
330
2A
100
AcDbVisualStyle
  2
Flat
 70
     0
 71
     2
 72
     1
 73
     1
 90
        2
 40
-0.6
 41
30.0
 62
     5
 63
     7
421
 16777215
 74
     0
 91
        4
 64
     7
 65
   257
 75
     1
175
     1
 42
1.0
 92
        8
 66
     7
 43
1.0
 76
     1
 77
     6
 78
     2
 67
     7
 79
     5
170
     0
171
     0
290
     0
174
     0
 93
       13
 44
0.0
173
     0
291
     1
 45
0.0
  0
VISUALSTYLE
  5
2C
102
{ACAD_REACTORS
330
2A
102
}
102
{ACAD_XDICTIONARY
360
18B
102
}
330
2A
100
AcDbVisualStyle
  2
FlatWithEdges
 70
     1
 71
     2
 72
     1
 73
     1
 90
        2
 40
-0.6
 41
30.0
 62
     5
 63
     7
421
 16777215
 74
     1
 91
        4
 64
     7
 65
   257
 75
     1
175
     1
 42
1.0
 92
        0
 66
   257
 43
1.0
 76
     1
 77
     6
 78
     2
 67
     7
 79
     5
170
     0
171
     0
290
     0
174
     0
 93
       13
 44
0.0
173
     0
291
     1
 45
0.0
  0
VISUALSTYLE
  5
2D
102
{ACAD_REACTORS
330
2A
102
}
102
{ACAD_XDICTIONARY
360
18D
102
}
330
2A
100
AcDbVisualStyle
  2
Gouraud
 70
     2
 71
     2
 72
     2
 73
     1
 90
        2
 40
-0.6
 41
30.0
 62
     5
 63
     7
421
 16777215
 74
     0
 91
        4
 64
     7
 65
   257
 75
     1
175
     1
 42
1.0
 92
        0
 66
     7
 43
1.0
 76
     1
 77
     6
 78
     2
 67
     7
 79
     5
170
     0
171
     0
290
     0
174
     0
 93
       13
 44
0.0
173
     0
291
     1
 45
0.0
  0
VISUALSTYLE
  5
2E
102
{ACAD_REACTORS
330
2A
102
}
102
{ACAD_XDICTIONARY
360
18F
102
}
330
2A
100
AcDbVisualStyle
  2
GouraudWithEdges
 70
     3
 71
     2
 72
     2
 73
     1
 90
        2
 40
-0.6
 41
30.0
 62
     5
 63
     7
421
 16777215
 74
     1
 91
        4
 64
     7
 65
   257
 75
     1
175
     1
 42
1.0
 92
        0
 66
   257
 43
1.0
 76
     1
 77
     6
 78
     2
 67
     7
 79
     5
170
     0
171
     0
290
     0
174
     0
 93
       13
 44
0.0
173
     0
291
     1
 45
0.0
  0
VISUALSTYLE
  5
38
102
{ACAD_REACTORS
330
2A
102
}
102
{ACAD_XDICTIONARY
360
1A3
102
}
330
2A
100
AcDbVisualStyle
  2
Linepattern
 70
    14
 71
     2
 72
     2
 73
     0
 90
        0
 40
-0.6
 41
-30.0
 62
     5
 63
     7
421
 16777215
 74
     1
 91
        4
 64
     7
 65
   257
 75
     7
175
     7
 42
1.0
 92
        8
 66
     7
 43
1.0
 76
     1
 77
     6
 78
     2
 67
     7
 79
     5
170
     0
171
     0
290
     0
174
     0
 93
        1
 44
0.0
173
     0
291
     1
 45
0.0
  0
VISUALSTYLE
  5
33
102
{ACAD_REACTORS
330
2A
102
}
102
{ACAD_XDICTIONARY
360
199
102
}
330
2A
100
AcDbVisualStyle
  2
Realistic
 70
     8
 71
     2
 72
     2
 73
     0
 90
        0
 40
-0.6
 41
-30.0
 62
     5
 63
     7
421
 16777215
 74
     1
 91
        0
 64
     7
 65
   257
 75
     1
175
     1
 42
1.0
 92
        8
 66
     8
424
  7895160
 43
1.0
 76
     1
 77
     6
 78
     2
 67
     7
 79
     5
170
     0
171
     0
290
     0
174
     0
 93
       13
 44
0.0
173
     0
291
     0
 45
0.0
  0
VISUALSTYLE
  5
37
102
{ACAD_REACTORS
330
2A
102
}
102
{ACAD_XDICTIONARY
360
1A1
102
}
330
2A
100
AcDbVisualStyle
  2
Thicken
 70
    13
 71
     2
 72
     2
 73
     0
 90
        0
 40
-0.6
 41
-30.0
 62
     5
 63
     7
421
 16777215
 74
     1
 91
        4
 64
     7
 65
   257
 75
     1
175
     1
 42
1.0
 92
       12
 66
     7
 43
1.0
 76
     1
 77
     6
 78
     2
 67
     7
 79
     5
170
     0
171
     0
290
     0
174
     0
 93
        1
 44
0.0
173
     0
291
     1
 45
0.0
  0
DICTIONARY
  5
191
330
2F
100
AcDbDictionary
280
     1
281
     1
  3
ACAD_XREC_ROUNDTRIP
360
192
  0
DICTIONARY
  5
195
330
31
100
AcDbDictionary
280
     1
281
     1
  3
ACAD_XREC_ROUNDTRIP
360
196
  0
DICTIONARY
  5
193
330
30
100
AcDbDictionary
280
     1
281
     1
  3
ACAD_XREC_ROUNDTRIP
360
194
  0
DICTIONARY
  5
197
330
32
100
AcDbDictionary
280
     1
281
     1
  3
ACAD_XREC_ROUNDTRIP
360
198
  0
DICTIONARY
  5
19F
330
36
100
AcDbDictionary
280
     1
281
     1
  3
ACAD_XREC_ROUNDTRIP
360
1A0
  0
DICTIONARY
  5
1A7
330
3A
100
AcDbDictionary
280
     1
281
     1
  3
ACAD_XREC_ROUNDTRIP
360
1A8
  0
DICTIONARY
  5
19B
330
34
100
AcDbDictionary
280
     1
281
     1
  3
ACAD_XREC_ROUNDTRIP
360
19C
  0
DICTIONARY
  5
19D
330
35
100
AcDbDictionary
280
     1
281
     1
  3
ACAD_XREC_ROUNDTRIP
360
19E
  0
DICTIONARY
  5
1A5
330
39
100
AcDbDictionary
280
     1
281
     1
  3
ACAD_XREC_ROUNDTRIP
360
1A6
  0
DICTIONARY
  5
189
330
2B
100
AcDbDictionary
280
     1
281
     1
  3
ACAD_XREC_ROUNDTRIP
360
18A
  0
DICTIONARY
  5
18B
330
2C
100
AcDbDictionary
280
     1
281
     1
  3
ACAD_XREC_ROUNDTRIP
360
18C
  0
DICTIONARY
  5
18D
330
2D
100
AcDbDictionary
280
     1
281
     1
  3
ACAD_XREC_ROUNDTRIP
360
18E
  0
DICTIONARY
  5
18F
330
2E
100
AcDbDictionary
280
     1
281
     1
  3
ACAD_XREC_ROUNDTRIP
360
190
  0
DICTIONARY
  5
1A3
330
38
100
AcDbDictionary
280
     1
281
     1
  3
ACAD_XREC_ROUNDTRIP
360
1A4
  0
DICTIONARY
  5
199
330
33
100
AcDbDictionary
280
     1
281
     1
  3
ACAD_XREC_ROUNDTRIP
360
19A
  0
DICTIONARY
  5
1A1
330
37
100
AcDbDictionary
280
     1
281
     1
  3
ACAD_XREC_ROUNDTRIP
360
1A2
  0
XRECORD
  5
192
102
{ACAD_REACTORS
330
191
102
}
330
191
100
AcDbXrecord
280
     1
102
RTVSPropertyOp0
 70
     1
102
RTVSPropertyOp1
 70
     1
102
RTVSPropertyOp2
 70
     1
102
RTVSPropertyOp3
 70
     1
102
RTVSPropertyOp4
 70
     1
102
RTVSPropertyOp5
 70
     1
102
RTVSPropertyOp6
 70
     1
102
RTVSPropertyOp7
 70
     1
102
RTVSPropertyOp8
 70
     1
102
RTVSPropertyOp9
 70
     1
102
RTVSPropertyOp10
 70
     1
102
RTVSPropertyOp11
 70
     1
102
RTVSPropertyOp12
 70
     1
102
RTVSPropertyOp13
 70
     1
102
RTVSPropertyOp14
 70
     1
102
RTVSPropertyOp15
 70
     1
102
RTVSPropertyOp16
 70
     1
102
RTVSPropertyOp17
 70
     1
102
RTVSPropertyOp18
 70
     1
102
RTVSPropertyOp19
 70
     1
102
RTVSPropertyOp20
 70
     1
102
RTVSPropertyOp21
 70
     1
102
RTVSPropertyOp22
 70
     1
102
RTVSPropertyOp23
 70
     1
102
RTVSPropertyOp24
 70
     1
102
RTVSPropertyOp25
 70
     1
102
RTVSPropertyOp26
 70
     1
102
RTVSPropertyOp27
 70
     1
102
RTVSPropertyOp28
 70
     1
102
RTVSPropertyOp29
 70
     1
102
RTVSPropertyOp30
 70
     1
102
RTVSPropertyOp31
 70
     1
102
RTVSPropertyOp32
 70
     1
  0
XRECORD
  5
196
102
{ACAD_REACTORS
330
195
102
}
330
195
100
AcDbXrecord
280
     1
102
RTVSPropertyOp0
 70
     1
102
RTVSPropertyOp1
 70
     1
102
RTVSPropertyOp2
 70
     1
102
RTVSPropertyOp3
 70
     1
102
RTVSPropertyOp4
 70
     1
102
RTVSPropertyOp5
 70
     1
102
RTVSPropertyOp6
 70
     1
102
RTVSPropertyOp7
 70
     1
102
RTVSPropertyOp8
 70
     1
102
RTVSPropertyOp9
 70
     1
102
RTVSPropertyOp10
 70
     1
102
RTVSPropertyOp11
 70
     1
102
RTVSPropertyOp12
 70
     1
102
RTVSPropertyOp13
 70
     1
102
RTVSPropertyOp14
 70
     1
102
RTVSPropertyOp15
 70
     1
102
RTVSPropertyOp16
 70
     1
102
RTVSPropertyOp17
 70
     1
102
RTVSPropertyOp18
 70
     1
102
RTVSPropertyOp19
 70
     1
102
RTVSPropertyOp20
 70
     1
102
RTVSPropertyOp21
 70
     1
102
RTVSPropertyOp22
 70
     1
102
RTVSPropertyOp23
 70
     1
102
RTVSPropertyOp24
 70
     1
102
RTVSPropertyOp25
 70
     1
102
RTVSPropertyOp26
 70
     1
102
RTVSPropertyOp27
 70
     1
102
RTVSPropertyOp28
 70
     1
102
RTVSPropertyOp29
 70
     1
102
RTVSPropertyOp30
 70
     1
102
RTVSPropertyOp31
 70
     1
102
RTVSPropertyOp32
 70
     1
  0
XRECORD
  5
194
102
{ACAD_REACTORS
330
193
102
}
330
193
100
AcDbXrecord
280
     1
102
RTVSPropertyOp0
 70
     1
102
RTVSPropertyOp1
 70
     1
102
RTVSPropertyOp2
 70
     1
102
RTVSPropertyOp3
 70
     1
102
RTVSPropertyOp4
 70
     1
102
RTVSPropertyOp5
 70
     1
102
RTVSPropertyOp6
 70
     1
102
RTVSPropertyOp7
 70
     1
102
RTVSPropertyOp8
 70
     1
102
RTVSPropertyOp9
 70
     1
102
RTVSPropertyOp10
 70
     1
102
RTVSPropertyOp11
 70
     1
102
RTVSPropertyOp12
 70
     1
102
RTVSPropertyOp13
 70
     1
102
RTVSPropertyOp14
 70
     1
102
RTVSPropertyOp15
 70
     1
102
RTVSPropertyOp16
 70
     1
102
RTVSPropertyOp17
 70
     1
102
RTVSPropertyOp18
 70
     1
102
RTVSPropertyOp19
 70
     1
102
RTVSPropertyOp20
 70
     1
102
RTVSPropertyOp21
 70
     1
102
RTVSPropertyOp22
 70
     1
102
RTVSPropertyOp23
 70
     1
102
RTVSPropertyOp24
 70
     1
102
RTVSPropertyOp25
 70
     1
102
RTVSPropertyOp26
 70
     1
102
RTVSPropertyOp27
 70
     1
102
RTVSPropertyOp28
 70
     1
102
RTVSPropertyOp29
 70
     1
102
RTVSPropertyOp30
 70
     1
102
RTVSPropertyOp31
 70
     1
102
RTVSPropertyOp32
 70
     1
  0
XRECORD
  5
198
102
{ACAD_REACTORS
330
197
102
}
330
197
100
AcDbXrecord
280
     1
102
RTVSPropertyOp0
 70
     1
102
RTVSPropertyOp1
 70
     1
102
RTVSPropertyOp2
 70
     1
102
RTVSPropertyOp3
 70
     1
102
RTVSPropertyOp4
 70
     1
102
RTVSPropertyOp5
 70
     1
102
RTVSPropertyOp6
 70
     1
102
RTVSPropertyOp7
 70
     1
102
RTVSPropertyOp8
 70
     1
102
RTVSPropertyOp9
 70
     1
102
RTVSPropertyOp10
 70
     1
102
RTVSPropertyOp11
 70
     1
102
RTVSPropertyOp12
 70
     1
102
RTVSPropertyOp13
 70
     1
102
RTVSPropertyOp14
 70
     1
102
RTVSPropertyOp15
 70
     1
102
RTVSPropertyOp16
 70
     1
102
RTVSPropertyOp17
 70
     1
102
RTVSPropertyOp18
 70
     1
102
RTVSPropertyOp19
 70
     1
102
RTVSPropertyOp20
 70
     1
102
RTVSPropertyOp21
 70
     1
102
RTVSPropertyOp22
 70
     1
102
RTVSPropertyOp23
 70
     1
102
RTVSPropertyOp24
 70
     1
102
RTVSPropertyOp25
 70
     1
102
RTVSPropertyOp26
 70
     1
102
RTVSPropertyOp27
 70
     1
102
RTVSPropertyOp28
 70
     1
102
RTVSPropertyOp29
 70
     1
102
RTVSPropertyOp30
 70
     1
102
RTVSPropertyOp31
 70
     1
102
RTVSPropertyOp32
 70
     1
  0
XRECORD
  5
1A0
102
{ACAD_REACTORS
330
19F
102
}
330
19F
100
AcDbXrecord
280
     1
102
RTVSPropertyOp0
 70
     1
102
RTVSPropertyOp1
 70
     1
102
RTVSPropertyOp2
 70
     1
102
RTVSPropertyOp3
 70
     1
102
RTVSPropertyOp4
 70
     1
102
RTVSPropertyOp5
 70
     1
102
RTVSPropertyOp6
 70
     1
102
RTVSPropertyOp7
 70
     1
102
RTVSPropertyOp8
 70
     1
102
RTVSPropertyOp9
 70
     1
102
RTVSPropertyOp10
 70
     1
102
RTVSPropertyOp11
 70
     1
102
RTVSPropertyOp12
 70
     1
102
RTVSPropertyOp13
 70
     1
102
RTVSPropertyOp14
 70
     1
102
RTVSPropertyOp15
 70
     1
102
RTVSPropertyOp16
 70
     1
102
RTVSPropertyOp17
 70
     1
102
RTVSPropertyOp18
 70
     1
102
RTVSPropertyOp19
 70
     1
102
RTVSPropertyOp20
 70
     1
102
RTVSPropertyOp21
 70
     1
102
RTVSPropertyOp22
 70
     1
102
RTVSPropertyOp23
 70
     1
102
RTVSPropertyOp24
 70
     1
102
RTVSPropertyOp25
 70
     1
102
RTVSPropertyOp26
 70
     1
102
RTVSPropertyOp27
 70
     1
102
RTVSPropertyOp28
 70
     1
102
RTVSPropertyOp29
 70
     1
102
RTVSPropertyOp30
 70
     1
102
RTVSPropertyOp31
 70
     1
102
RTVSPropertyOp32
 70
     1
  0
XRECORD
  5
1A8
102
{ACAD_REACTORS
330
1A7
102
}
330
1A7
100
AcDbXrecord
280
     1
102
RTVSPropertyOp0
 70
     1
102
RTVSPropertyOp1
 70
     1
102
RTVSPropertyOp2
 70
     1
102
RTVSPropertyOp3
 70
     1
102
RTVSPropertyOp4
 70
     1
102
RTVSPropertyOp5
 70
     1
102
RTVSPropertyOp6
 70
     1
102
RTVSPropertyOp7
 70
     1
102
RTVSPropertyOp8
 70
     1
102
RTVSPropertyOp9
 70
     1
102
RTVSPropertyOp10
 70
     1
102
RTVSPropertyOp11
 70
     1
102
RTVSPropertyOp12
 70
     1
102
RTVSPropertyOp13
 70
     1
102
RTVSPropertyOp14
 70
     1
102
RTVSPropertyOp15
 70
     1
102
RTVSPropertyOp16
 70
     1
102
RTVSPropertyOp17
 70
     1
102
RTVSPropertyOp18
 70
     1
102
RTVSPropertyOp19
 70
     1
102
RTVSPropertyOp20
 70
     1
102
RTVSPropertyOp21
 70
     1
102
RTVSPropertyOp22
 70
     1
102
RTVSPropertyOp23
 70
     1
102
RTVSPropertyOp24
 70
     1
102
RTVSPropertyOp25
 70
     1
102
RTVSPropertyOp26
 70
     1
102
RTVSPropertyOp27
 70
     1
102
RTVSPropertyOp28
 70
     1
102
RTVSPropertyOp29
 70
     1
102
RTVSPropertyOp30
 70
     1
102
RTVSPropertyOp31
 70
     1
102
RTVSPropertyOp32
 70
     1
  0
XRECORD
  5
19C
102
{ACAD_REACTORS
330
19B
102
}
330
19B
100
AcDbXrecord
280
     1
102
RTVSPropertyOp0
 70
     1
102
RTVSPropertyOp1
 70
     1
102
RTVSPropertyOp2
 70
     1
102
RTVSPropertyOp3
 70
     1
102
RTVSPropertyOp4
 70
     1
102
RTVSPropertyOp5
 70
     1
102
RTVSPropertyOp6
 70
     1
102
RTVSPropertyOp7
 70
     1
102
RTVSPropertyOp8
 70
     1
102
RTVSPropertyOp9
 70
     1
102
RTVSPropertyOp10
 70
     1
102
RTVSPropertyOp11
 70
     1
102
RTVSPropertyOp12
 70
     1
102
RTVSPropertyOp13
 70
     1
102
RTVSPropertyOp14
 70
     1
102
RTVSPropertyOp15
 70
     1
102
RTVSPropertyOp16
 70
     1
102
RTVSPropertyOp17
 70
     1
102
RTVSPropertyOp18
 70
     1
102
RTVSPropertyOp19
 70
     1
102
RTVSPropertyOp20
 70
     1
102
RTVSPropertyOp21
 70
     1
102
RTVSPropertyOp22
 70
     1
102
RTVSPropertyOp23
 70
     1
102
RTVSPropertyOp24
 70
     1
102
RTVSPropertyOp25
 70
     1
102
RTVSPropertyOp26
 70
     1
102
RTVSPropertyOp27
 70
     1
102
RTVSPropertyOp28
 70
     1
102
RTVSPropertyOp29
 70
     1
102
RTVSPropertyOp30
 70
     1
102
RTVSPropertyOp31
 70
     1
102
RTVSPropertyOp32
 70
     1
  0
XRECORD
  5
19E
102
{ACAD_REACTORS
330
19D
102
}
330
19D
100
AcDbXrecord
280
     1
102
RTVSPropertyOp0
 70
     1
102
RTVSPropertyOp1
 70
     1
102
RTVSPropertyOp2
 70
     1
102
RTVSPropertyOp3
 70
     1
102
RTVSPropertyOp4
 70
     1
102
RTVSPropertyOp5
 70
     1
102
RTVSPropertyOp6
 70
     1
102
RTVSPropertyOp7
 70
     1
102
RTVSPropertyOp8
 70
     1
102
RTVSPropertyOp9
 70
     1
102
RTVSPropertyOp10
 70
     1
102
RTVSPropertyOp11
 70
     1
102
RTVSPropertyOp12
 70
     1
102
RTVSPropertyOp13
 70
     1
102
RTVSPropertyOp14
 70
     1
102
RTVSPropertyOp15
 70
     1
102
RTVSPropertyOp16
 70
     1
102
RTVSPropertyOp17
 70
     1
102
RTVSPropertyOp18
 70
     1
102
RTVSPropertyOp19
 70
     1
102
RTVSPropertyOp20
 70
     1
102
RTVSPropertyOp21
 70
     1
102
RTVSPropertyOp22
 70
     1
102
RTVSPropertyOp23
 70
     1
102
RTVSPropertyOp24
 70
     1
102
RTVSPropertyOp25
 70
     1
102
RTVSPropertyOp26
 70
     1
102
RTVSPropertyOp27
 70
     1
102
RTVSPropertyOp28
 70
     1
102
RTVSPropertyOp29
 70
     1
102
RTVSPropertyOp30
 70
     1
102
RTVSPropertyOp31
 70
     1
102
RTVSPropertyOp32
 70
     1
  0
XRECORD
  5
1A6
102
{ACAD_REACTORS
330
1A5
102
}
330
1A5
100
AcDbXrecord
280
     1
102
RTVSPropertyOp0
 70
     1
102
RTVSPropertyOp1
 70
     1
102
RTVSPropertyOp2
 70
     1
102
RTVSPropertyOp3
 70
     1
102
RTVSPropertyOp4
 70
     1
102
RTVSPropertyOp5
 70
     1
102
RTVSPropertyOp6
 70
     1
102
RTVSPropertyOp7
 70
     1
102
RTVSPropertyOp8
 70
     1
102
RTVSPropertyOp9
 70
     1
102
RTVSPropertyOp10
 70
     1
102
RTVSPropertyOp11
 70
     1
102
RTVSPropertyOp12
 70
     1
102
RTVSPropertyOp13
 70
     1
102
RTVSPropertyOp14
 70
     1
102
RTVSPropertyOp15
 70
     1
102
RTVSPropertyOp16
 70
     1
102
RTVSPropertyOp17
 70
     1
102
RTVSPropertyOp18
 70
     1
102
RTVSPropertyOp19
 70
     1
102
RTVSPropertyOp20
 70
     1
102
RTVSPropertyOp21
 70
     1
102
RTVSPropertyOp22
 70
     1
102
RTVSPropertyOp23
 70
     1
102
RTVSPropertyOp24
 70
     1
102
RTVSPropertyOp25
 70
     1
102
RTVSPropertyOp26
 70
     1
102
RTVSPropertyOp27
 70
     1
102
RTVSPropertyOp28
 70
     1
102
RTVSPropertyOp29
 70
     1
102
RTVSPropertyOp30
 70
     1
102
RTVSPropertyOp31
 70
     1
102
RTVSPropertyOp32
 70
     1
  0
XRECORD
  5
18A
102
{ACAD_REACTORS
330
189
102
}
330
189
100
AcDbXrecord
280
     1
102
RTVSPropertyOp0
 70
     1
102
RTVSPropertyOp1
 70
     1
102
RTVSPropertyOp2
 70
     1
102
RTVSPropertyOp3
 70
     1
102
RTVSPropertyOp4
 70
     1
102
RTVSPropertyOp5
 70
     1
102
RTVSPropertyOp6
 70
     1
102
RTVSPropertyOp7
 70
     1
102
RTVSPropertyOp8
 70
     1
102
RTVSPropertyOp9
 70
     1
102
RTVSPropertyOp10
 70
     1
102
RTVSPropertyOp11
 70
     1
102
RTVSPropertyOp12
 70
     1
102
RTVSPropertyOp13
 70
     1
102
RTVSPropertyOp14
 70
     1
102
RTVSPropertyOp15
 70
     1
102
RTVSPropertyOp16
 70
     1
102
RTVSPropertyOp17
 70
     1
102
RTVSPropertyOp18
 70
     1
102
RTVSPropertyOp19
 70
     1
102
RTVSPropertyOp20
 70
     1
102
RTVSPropertyOp21
 70
     1
102
RTVSPropertyOp22
 70
     1
102
RTVSPropertyOp23
 70
     1
102
RTVSPropertyOp24
 70
     1
102
RTVSPropertyOp25
 70
     1
102
RTVSPropertyOp26
 70
     1
102
RTVSPropertyOp27
 70
     1
102
RTVSPropertyOp28
 70
     1
102
RTVSPropertyOp29
 70
     1
102
RTVSPropertyOp30
 70
     1
102
RTVSPropertyOp31
 70
     1
102
RTVSPropertyOp32
 70
     1
  0
XRECORD
  5
18C
102
{ACAD_REACTORS
330
18B
102
}
330
18B
100
AcDbXrecord
280
     1
102
RTVSPropertyOp0
 70
     1
102
RTVSPropertyOp1
 70
     1
102
RTVSPropertyOp2
 70
     1
102
RTVSPropertyOp3
 70
     1
102
RTVSPropertyOp4
 70
     1
102
RTVSPropertyOp5
 70
     1
102
RTVSPropertyOp6
 70
     1
102
RTVSPropertyOp7
 70
     1
102
RTVSPropertyOp8
 70
     1
102
RTVSPropertyOp9
 70
     1
102
RTVSPropertyOp10
 70
     1
102
RTVSPropertyOp11
 70
     1
102
RTVSPropertyOp12
 70
     1
102
RTVSPropertyOp13
 70
     1
102
RTVSPropertyOp14
 70
     1
102
RTVSPropertyOp15
 70
     1
102
RTVSPropertyOp16
 70
     1
102
RTVSPropertyOp17
 70
     1
102
RTVSPropertyOp18
 70
     1
102
RTVSPropertyOp19
 70
     1
102
RTVSPropertyOp20
 70
     1
102
RTVSPropertyOp21
 70
     1
102
RTVSPropertyOp22
 70
     1
102
RTVSPropertyOp23
 70
     1
102
RTVSPropertyOp24
 70
     1
102
RTVSPropertyOp25
 70
     1
102
RTVSPropertyOp26
 70
     1
102
RTVSPropertyOp27
 70
     1
102
RTVSPropertyOp28
 70
     1
102
RTVSPropertyOp29
 70
     1
102
RTVSPropertyOp30
 70
     1
102
RTVSPropertyOp31
 70
     1
102
RTVSPropertyOp32
 70
     1
  0
XRECORD
  5
18E
102
{ACAD_REACTORS
330
18D
102
}
330
18D
100
AcDbXrecord
280
     1
102
RTVSPropertyOp0
 70
     1
102
RTVSPropertyOp1
 70
     1
102
RTVSPropertyOp2
 70
     1
102
RTVSPropertyOp3
 70
     1
102
RTVSPropertyOp4
 70
     1
102
RTVSPropertyOp5
 70
     1
102
RTVSPropertyOp6
 70
     1
102
RTVSPropertyOp7
 70
     1
102
RTVSPropertyOp8
 70
     1
102
RTVSPropertyOp9
 70
     1
102
RTVSPropertyOp10
 70
     1
102
RTVSPropertyOp11
 70
     1
102
RTVSPropertyOp12
 70
     1
102
RTVSPropertyOp13
 70
     1
102
RTVSPropertyOp14
 70
     1
102
RTVSPropertyOp15
 70
     1
102
RTVSPropertyOp16
 70
     1
102
RTVSPropertyOp17
 70
     1
102
RTVSPropertyOp18
 70
     1
102
RTVSPropertyOp19
 70
     1
102
RTVSPropertyOp20
 70
     1
102
RTVSPropertyOp21
 70
     1
102
RTVSPropertyOp22
 70
     1
102
RTVSPropertyOp23
 70
     1
102
RTVSPropertyOp24
 70
     1
102
RTVSPropertyOp25
 70
     1
102
RTVSPropertyOp26
 70
     1
102
RTVSPropertyOp27
 70
     1
102
RTVSPropertyOp28
 70
     1
102
RTVSPropertyOp29
 70
     1
102
RTVSPropertyOp30
 70
     1
102
RTVSPropertyOp31
 70
     1
102
RTVSPropertyOp32
 70
     1
  0
XRECORD
  5
190
102
{ACAD_REACTORS
330
18F
102
}
330
18F
100
AcDbXrecord
280
     1
102
RTVSPropertyOp0
 70
     1
102
RTVSPropertyOp1
 70
     1
102
RTVSPropertyOp2
 70
     1
102
RTVSPropertyOp3
 70
     1
102
RTVSPropertyOp4
 70
     1
102
RTVSPropertyOp5
 70
     1
102
RTVSPropertyOp6
 70
     1
102
RTVSPropertyOp7
 70
     1
102
RTVSPropertyOp8
 70
     1
102
RTVSPropertyOp9
 70
     1
102
RTVSPropertyOp10
 70
     1
102
RTVSPropertyOp11
 70
     1
102
RTVSPropertyOp12
 70
     1
102
RTVSPropertyOp13
 70
     1
102
RTVSPropertyOp14
 70
     1
102
RTVSPropertyOp15
 70
     1
102
RTVSPropertyOp16
 70
     1
102
RTVSPropertyOp17
 70
     1
102
RTVSPropertyOp18
 70
     1
102
RTVSPropertyOp19
 70
     1
102
RTVSPropertyOp20
 70
     1
102
RTVSPropertyOp21
 70
     1
102
RTVSPropertyOp22
 70
     1
102
RTVSPropertyOp23
 70
     1
102
RTVSPropertyOp24
 70
     1
102
RTVSPropertyOp25
 70
     1
102
RTVSPropertyOp26
 70
     1
102
RTVSPropertyOp27
 70
     1
102
RTVSPropertyOp28
 70
     1
102
RTVSPropertyOp29
 70
     1
102
RTVSPropertyOp30
 70
     1
102
RTVSPropertyOp31
 70
     1
102
RTVSPropertyOp32
 70
     1
  0
XRECORD
  5
1A4
102
{ACAD_REACTORS
330
1A3
102
}
330
1A3
100
AcDbXrecord
280
     1
102
RTVSPropertyOp0
 70
     1
102
RTVSPropertyOp1
 70
     1
102
RTVSPropertyOp2
 70
     1
102
RTVSPropertyOp3
 70
     1
102
RTVSPropertyOp4
 70
     1
102
RTVSPropertyOp5
 70
     1
102
RTVSPropertyOp6
 70
     1
102
RTVSPropertyOp7
 70
     1
102
RTVSPropertyOp8
 70
     1
102
RTVSPropertyOp9
 70
     1
102
RTVSPropertyOp10
 70
     1
102
RTVSPropertyOp11
 70
     1
102
RTVSPropertyOp12
 70
     1
102
RTVSPropertyOp13
 70
     1
102
RTVSPropertyOp14
 70
     1
102
RTVSPropertyOp15
 70
     1
102
RTVSPropertyOp16
 70
     1
102
RTVSPropertyOp17
 70
     1
102
RTVSPropertyOp18
 70
     1
102
RTVSPropertyOp19
 70
     1
102
RTVSPropertyOp20
 70
     1
102
RTVSPropertyOp21
 70
     1
102
RTVSPropertyOp22
 70
     1
102
RTVSPropertyOp23
 70
     1
102
RTVSPropertyOp24
 70
     1
102
RTVSPropertyOp25
 70
     1
102
RTVSPropertyOp26
 70
     1
102
RTVSPropertyOp27
 70
     1
102
RTVSPropertyOp28
 70
     1
102
RTVSPropertyOp29
 70
     1
102
RTVSPropertyOp30
 70
     1
102
RTVSPropertyOp31
 70
     1
102
RTVSPropertyOp32
 70
     1
  0
XRECORD
  5
19A
102
{ACAD_REACTORS
330
199
102
}
330
199
100
AcDbXrecord
280
     1
102
RTVSPropertyOp0
 70
     1
102
RTVSPropertyOp1
 70
     1
102
RTVSPropertyOp2
 70
     1
102
RTVSPropertyOp3
 70
     1
102
RTVSPropertyOp4
 70
     1
102
RTVSPropertyOp5
 70
     1
102
RTVSPropertyOp6
 70
     1
102
RTVSPropertyOp7
 70
     1
102
RTVSPropertyOp8
 70
     1
102
RTVSPropertyOp9
 70
     1
102
RTVSPropertyOp10
 70
     1
102
RTVSPropertyOp11
 70
     1
102
RTVSPropertyOp12
 70
     1
102
RTVSPropertyOp13
 70
     1
102
RTVSPropertyOp14
 70
     1
102
RTVSPropertyOp15
 70
     1
102
RTVSPropertyOp16
 70
     1
102
RTVSPropertyOp17
 70
     1
102
RTVSPropertyOp18
 70
     1
102
RTVSPropertyOp19
 70
     1
102
RTVSPropertyOp20
 70
     1
102
RTVSPropertyOp21
 70
     1
102
RTVSPropertyOp22
 70
     1
102
RTVSPropertyOp23
 70
     1
102
RTVSPropertyOp24
 70
     1
102
RTVSPropertyOp25
 70
     1
102
RTVSPropertyOp26
 70
     1
102
RTVSPropertyOp27
 70
     1
102
RTVSPropertyOp28
 70
     1
102
RTVSPropertyOp29
 70
     1
102
RTVSPropertyOp30
 70
     1
102
RTVSPropertyOp31
 70
     1
102
RTVSPropertyOp32
 70
     1
  0
XRECORD
  5
1A2
102
{ACAD_REACTORS
330
1A1
102
}
330
1A1
100
AcDbXrecord
280
     1
102
RTVSPropertyOp0
 70
     1
102
RTVSPropertyOp1
 70
     1
102
RTVSPropertyOp2
 70
     1
102
RTVSPropertyOp3
 70
     1
102
RTVSPropertyOp4
 70
     1
102
RTVSPropertyOp5
 70
     1
102
RTVSPropertyOp6
 70
     1
102
RTVSPropertyOp7
 70
     1
102
RTVSPropertyOp8
 70
     1
102
RTVSPropertyOp9
 70
     1
102
RTVSPropertyOp10
 70
     1
102
RTVSPropertyOp11
 70
     1
102
RTVSPropertyOp12
 70
     1
102
RTVSPropertyOp13
 70
     1
102
RTVSPropertyOp14
 70
     1
102
RTVSPropertyOp15
 70
     1
102
RTVSPropertyOp16
 70
     1
102
RTVSPropertyOp17
 70
     1
102
RTVSPropertyOp18
 70
     1
102
RTVSPropertyOp19
 70
     1
102
RTVSPropertyOp20
 70
     1
102
RTVSPropertyOp21
 70
     1
102
RTVSPropertyOp22
 70
     1
102
RTVSPropertyOp23
 70
     1
102
RTVSPropertyOp24
 70
     1
102
RTVSPropertyOp25
 70
     1
102
RTVSPropertyOp26
 70
     1
102
RTVSPropertyOp27
 70
     1
102
RTVSPropertyOp28
 70
     1
102
RTVSPropertyOp29
 70
     1
102
RTVSPropertyOp30
 70
     1
102
RTVSPropertyOp31
 70
     1
102
RTVSPropertyOp32
 70
     1
  0
ENDSEC
  0
EOF
