  0
SECTION
  2
HEADER
  9
$ACADVER
  1
AC1015
  9
$ACADMAINTVER
 70
               6
  9
$DWGCODEPAGE
  3
ANSI_932
  9
$INSBASE
 10
0.0
 20
0.0
 30
0.0
  9
$EXTMIN
 10
258.0
 20
93.64500000000001
 30
0.0
  9
$EXTMAX
 10
291.1611111111111
 20
108.25
 30
0.0
  9
$LIMMIN
 10
0.0
 20
0.0
  9
$LIMMAX
 10
0.0
 20
0.0
  9
$ORTHOMODE
 70
               0
  9
$REGENMODE
 70
               1
  9
$FILLMODE
 70
               1
  9
$QTEXTMODE
 70
               0
  9
$MIRRTEXT
 70
               1
  9
$LTSCALE
 40
12.699999999999999
  9
$ATTMODE
 70
               1
  9
$TEXTSIZE
 40
0.2
  9
$TRACEWID
 40
1.0
  9
$TEXTSTYLE
  7
Standard
  9
$CLAYER
  8
0
  9
$CELTYPE
  6
Continuous
  9
$CECOLOR
 62
             256
  9
$CELTSCALE
 40
1.0
  9
$DISPSILH
 70
               0
  9
$DIMSCALE
 40
1.0
  9
$DIMASZ
 40
0.18
  9
$DIMEXO
 40
0.0625
  9
$DIMDLI
 40
0.38
  9
$DIMRND
 40
0.0
  9
$DIMDLE
 40
0.0
  9
$DIMEXE
 40
0.18
  9
$DIMTP
 40
0.0
  9
$DIMTM
 40
0.0
  9
$DIMTXT
 40
0.18
  9
$DIMCEN
 40
0.09
  9
$DIMTSZ
 40
0.0
  9
$DIMTOL
 70
               0
  9
$DIMLIM
 70
               0
  9
$DIMTIH
 70
               1
  9
$DIMTOH
 70
               1
  9
$DIMSE1
 70
               0
  9
$DIMSE2
 70
               0
  9
$DIMTAD
 70
               0
  9
$DIMZIN
 70
               0
  9
$DIMBLK
  1

  9
$DIMASO
 70
               1
  9
$DIMSHO
 70
               1
  9
$DIMPOST
  1

  9
$DIMAPOST
  1

  9
$DIMALT
 70
               0
  9
$DIMALTD
 70
               2
  9
$DIMALTF
 40
25.399999999999999
  9
$DIMLFAC
 40
1.0
  9
$DIMTOFL
 70
               0
  9
$DIMTVP
 40
0.0
  9
$DIMTIX
 70
               0
  9
$DIMSOXD
 70
               0
  9
$DIMSAH
 70
               0
  9
$DIMBLK1
  1

  9
$DIMBLK2
  1

  9
$DIMSTYLE
  2
Standard
  9
$DIMCLRD
 70
               0
  9
$DIMCLRE
 70
               0
  9
$DIMCLRT
 70
               0
  9
$DIMTFAC
 40
1.0
  9
$DIMGAP
 40
0.09
  9
$DIMJUST
 70
               0
  9
$DIMSD1
 70
               0
  9
$DIMSD2
 70
               0
  9
$DIMTOLJ
 70
               1
  9
$DIMTZIN
 70
               0
  9
$DIMALTZ
 70
               0
  9
$DIMALTTZ
 70
               0
  9
$DIMUPT
 70
               0
  9
$DIMDEC
 70
               4
  9
$DIMTDEC
 70
               4
  9
$DIMALTU
 70
               2
  9
$DIMALTTD
 70
               2
  9
$DIMTXSTY
  7
Standard
  9
$DIMAUNIT
 70
               0
  9
$DIMADEC
 70
               0
  9
$DIMALTRND
 40
0.0
  9
$DIMAZIN
 70
               0
  9
$DIMDSEP
 70
               0
  9
$DIMATFIT
 70
               3
  9
$DIMFRAC
 70
               0
  9
$DIMLDRBLK
  1

  9
$DIMLUNIT
 70
               2
  9
$DIMLWD
 70
               0
  9
$DIMLWE
 70
               0
  9
$DIMTMOVE
 70
               0
  9
$LUNITS
 70
               2
  9
$LUPREC
 70
               4
  9
$SKETCHINC
 40
0.1
  9
$FILLETRAD
 40
0.0
  9
$AUNITS
 70
               0
  9
$AUPREC
 70
               0
  9
$MENU
  1
acad
  9
$ELEVATION
 40
0.0
  9
$PELEVATION
 40
0.0
  9
$THICKNESS
 40
0.0
  9
$LIMCHECK
 70
               0
  9
$CHAMFERA
 40
0.0
  9
$CHAMFERB
 40
0.0
  9
$CHAMFERC
 40
0.0
  9
$CHAMFERD
 40
0.0
  9
$SKPOLY
 70
               0
  9
$TDCREATE
 40
2458072.712974537
  9
$TDUCREATE
 40
0.000000000
  9
$TDUPDATE
 40
2458072.712974537
  9
$TDUUPDATE
 40
0.000000000
  9
$TDINDWG
 40
0.0000000000
  9
$TDUSRTIMER
 40
0.0000000000
  9
$USRTIMER
 70
               1
  9
$ANGBASE
 50
0.0
  9
$ANGDIR
 70
               0
  9
$PDMODE
 70
               1
  9
$PDSIZE
 40
-2.0
  9
$PLINEWID
 40
0.0
  9
$SPLFRAME
 70
               0
  9
$SPLINETYPE
 70
               6
  9
$SPLINESEGS
 70
               8
  9
$HANDSEED
  5
290
  9
$SURFTAB1
 70
               6
  9
$SURFTAB2
 70
               6
  9
$SURFTYPE
 70
               6
  9
$SURFU
 70
               6
  9
$SURFV
 70
               6
  9
$UCSBASE
  2

  9
$UCSNAME
  2

  9
$UCSORG
 10
0.0
 20
0.0
 30
0.0
  9
$UCSXDIR
 10
1.0
 20
0.0
 30
0.0
  9
$UCSYDIR
 10
0.0
 20
1.0
 30
0.0
  9
$UCSORTHOREF
  2

  9
$UCSORTHOVIEW
 70
               0
  9
$UCSORGTOP
 10
0.0
 20
0.0
 30
0.0
  9
$UCSORGBOTTOM
 10
0.0
 20
0.0
 30
0.0
  9
$UCSORGLEFT
 10
0.0
 20
0.0
 30
0.0
  9
$UCSORGRIGHT
 10
0.0
 20
0.0
 30
0.0
  9
$UCSORGFRONT
 10
0.0
 20
0.0
 30
0.0
  9
$UCSORGBACK
 10
0.0
 20
0.0
 30
0.0
  9
$PUCSBASE
  2

  9
$PUCSNAME
  2

  9
$PUCSORG
 10
0.0
 20
0.0
 30
0.0
  9
$PUCSXDIR
 10
1.0
 20
0.0
 30
0.0
  9
$PUCSYDIR
 10
0.0
 20
1.0
 30
0.0
  9
$PUCSORTHOREF
  2

  9
$PUCSORTHOVIEW
 70
               0
  9
$PUCSORGTOP
 10
0.0
 20
0.0
 30
0.0
  9
$PUCSORGBOTTOM
 10
0.0
 20
0.0
 30
0.0
  9
$PUCSORGLEFT
 10
0.0
 20
0.0
 30
0.0
  9
$PUCSORGRIGHT
 10
0.0
 20
0.0
 30
0.0
  9
$PUCSORGFRONT
 10
0.0
 20
0.0
 30
0.0
  9
$PUCSORGBACK
 10
0.0
 20
0.0
 30
0.0
  9
$USERI1
 70
               0
  9
$USERI2
 70
               0
  9
$USERI3
 70
               0
  9
$USERI4
 70
               0
  9
$USERI5
 70
               0
  9
$USERR1
 40
0.0
  9
$USERR2
 40
0.0
  9
$USERR3
 40
0.0
  9
$USERR4
 40
0.0
  9
$USERR5
 40
0.0
  9
$WORLDVIEW
 70
               1
  9
$SHADEDGE
 70
               3
  9
$SHADEDIF
 70
              70
  9
$TILEMODE
 70
               1
  9
$MAXACTVP
 70
              16
  9
$PINSBASE
 10
0.0
 20
0.0
 30
0.0
  9
$PLIMCHECK
 70
               0
  9
$PEXTMIN
 10
1.0000000000000000E+20
 20
1.0000000000000000E+20
 30
1.0000000000000000E+20
  9
$PEXTMAX
 10
-1.0000000000000000E+20
 20
-1.0000000000000000E+20
 30
-1.0000000000000000E+20
  9
$PLIMMIN
 10
0.0
 20
0.0
  9
$PLIMMAX
 10
12.0
 20
9.0
  9
$UNITMODE
 70
               0
  9
$VISRETAIN
 70
               0
  9
$PLINEGEN
 70
               1
  9
$PSLTSCALE
 70
               0
  9
$TREEDEPTH
 70
            3020
  9
$CMLSTYLE
  2
Standard
  9
$CMLJUST
 70
               0
  9
$CMLSCALE
 40
1.0
  9
$PROXYGRAPHICS
 70
               0
  9
$MEASUREMENT
 70
               1
  9
$CELWEIGHT
370
               0
  9
$ENDCAPS
280
               0
  9
$JOINSTYLE
280
               0
  9
$LWDISPLAY
290
               1
  9
$INSUNITS
 70
               4
  9
$HYPERLINKBASE
  1

  9
$STYLESHEET
  1

  9
$XEDIT
290
               1
  9
$CEPSNTYPE
380
               0
  9
$PSTYLEMODE
290
               1
  9
$FINGERPRINTGUID
  2

  9
$VERSIONGUID
  2

  9
$EXTNAMES
290
               1
  9
$PSVPSCALE
 40
0.0
  0
ENDSEC
  0
SECTION
  2
CLASSES
  0
CLASS
  1
LWPOLYLINE
  2
AcDbPolyline
  3
AutoCAD 2000
 90
    32768
280
               0
281
               1
  0
CLASS
  1
IMAGE
  2
AcDbRasterImage
  3
ISM
 90
    32895
280
               0
281
               1
  0
CLASS
  1
OLE2FRAME
  2
AcDbOle2Frame
  3
AutoCAD 2000
 90
    32768
280
               0
281
               1
  0
CLASS
  1
HATCH
  2
AcDbHatch
  3
AutoCAD 2000
 90
    32768
280
               0
281
               1
  0
CLASS
  1
DICTIONARYVAR
  2
AcDbDictionaryVar
  3
AutoCAD 2000
 90
    32768
280
               0
281
               0
  0
CLASS
  1
RASTERVARIABLES
  2
AcDbRasterVariables
  3
ISM
 90
    32768
280
               0
281
               0
  0
CLASS
  1
IMAGEDEF
  2
AcDbRasterImageDef
  3
ISM
 90
    32768
280
               0
281
               0
  0
CLASS
  1
IMAGEDEF_REACTOR
  2
AcDbRasterImageDefReactor
  3
ISM
 90
    32769
280
               0
281
               0
  0
CLASS
  1
IDBUFFER
  2
AcDbIdBuffer
  3
AutoCAD 2000
 90
    32768
280
               0
281
               0
  0
CLASS
  1
SPATIAL_FILTER
  2
AcDbSpatialFilter
  3
AutoCAD 2000
 90
    32768
280
               0
281
               0
  0
CLASS
  1
XRECORD
  2
AcDbXrecord
  3
AutoCAD 2000
 90
    32768
280
               0
281
               0
  0
CLASS
  1
SORTENTSTABLE
  2
AcDbSortentsTable
  3
AutoCAD 2000
 90
    32768
280
               0
281
               0
  0
CLASS
  1
LAYER_INDEX
  2
AcDbLayerIndex
  3
AutoCAD 2000
 90
    32768
280
               0
281
               0
  0
CLASS
  1
SPATIAL_INDEX
  2
AcDbSpatialIndex
  3
AutoCAD 2000
 90
    32768
280
               0
281
               0
  0
CLASS
  1
OBJECT_PTR
  2
CAseDLPNTableRecord
  3
"ASE-LPNTableRecord"
 90
    32769
280
               0
281
               0
  0
CLASS
  1
LAYOUT
  2
AcDbLayout
  3
AutoCAD 2000
 90
        0
280
               0
281
               0
  0
CLASS
  1
PLOTSETTINGS
  2
AcDbPlotSettings
  3
AutoCAD 2000
 90
    32768
280
               0
281
               0
  0
CLASS
  1
ACDBDICTIONARYWDFLT
  2
AcDbDictionaryWithDefault
  3
AutoCAD 2000
 90
        0
280
               0
281
               0
  0
CLASS
  1
ACDBPLACEHOLDER
  2
AcDbPlaceHolder
  3
AutoCAD 2000
 90
        0
280
               0
281
               0
  0
CLASS
  1
VBA_PROJECT
  2
AcDbVbaProject
  3
acadvba
 90
    32768
280
               0
281
               0
  0
CLASS
  1
WIPEOUT
  2
AcDbWipeout
  3
WipeOut|AutoCAD Express Tool|expresstools@autodesk.com
 90
    32895
280
               0
281
               1
  0
CLASS
  1
WIPEOUTVARIABLES
  2
AcDbWipeoutVariables
  3
WipeOut|AutoCAD Express Tool|expresstools@autodesk.com
 90
        0
280
               0
281
               0
  0
CLASS
  1
RTEXT
  2
RText
  3
RText|AutoCAD Express Tool|expresstools@autodesk.com
 90
    32768
280
               0
281
               1
  0
CLASS
  1
ARCALIGNEDTEXT
  2
AcDbArcAlignedText
  3
ATEXT|AutoCAD Express Tool|expresstools@autodesk.com
 90
    32768
280
               0
281
               1
  0
ENDSEC
  0
SECTION
  2
TABLES
  0
TABLE
  2
VPORT
  5
7
100
AcDbSymbolTable
 70
               1
  0
VPORT
  5
15
100
AcDbSymbolTableRecord
100
AcDbViewportTableRecord
  2
*ACTIVE
 70
               0
 10
0.0
 20
0.0
 11
1.0
 21
1.0
 12
274.58055555555552
 22
100.94750000000001
 13
0.0
 23
0.0
 14
1.0
 24
1.0
 15
0.0
 25
0.0
 16
0.0
 26
0.0
 36
1.0
 17
0.0
 27
0.0
 37
0.0
 40
14.60499999999999
 41
0.688564
 42
50.0
 43
0.0
 44
0.0
 50
0.0
 51
0.0
 71
               0
 72
             100
 73
               1
 74
               1
 75
               0
 76
               0
 77
               0
 78
               0
281
               0
 65
               0
110
0.0
120
0.0
130
0.0
111
1.0
121
0.0
131
0.0
112
0.0
122
1.0
132
0.0
345
0
346
0
 79
               0
146
0.0
  0
ENDTAB
  0
TABLE
  2
LTYPE
  5
4
100
AcDbSymbolTable
 70
              13
  0
LTYPE
  5
11
100
AcDbSymbolTableRecord
100
AcDbLinetypeTableRecord
  2
ByBlock
 70
              64
  3

 72
              65
 73
               0
 40
0.0
  0
LTYPE
  5
12
100
AcDbSymbolTableRecord
100
AcDbLinetypeTableRecord
  2
ByLayer
 70
              64
  3

 72
              65
 73
               0
 40
0.0
  0
LTYPE
  5
13
100
AcDbSymbolTableRecord
100
AcDbLinetypeTableRecord
  2
Continuous
 70
              64
  3
Solid line
 72
              65
 73
               0
 40
0.0
  0
LTYPE
  5
26
100
AcDbSymbolTableRecord
100
AcDbLinetypeTableRecord
  2
STYLE_01
 70
               0
  3

 72
              65
 73
               2
 40
0.15
 49
0.1
 74
               0
 49
-0.05
 74
               0
  0
LTYPE
  5
27
100
AcDbSymbolTableRecord
100
AcDbLinetypeTableRecord
  2
STYLE_02
 70
               0
  3

 72
              65
 73
               6
 40
0.9999999999999999
 49
0.4999999999999999
 74
               0
 49
-0.1
 74
               0
 49
0.1
 74
               0
 49
-0.1
 74
               0
 49
0.1
 74
               0
 49
-0.1
 74
               0
  0
LTYPE
  5
28
100
AcDbSymbolTableRecord
100
AcDbLinetypeTableRecord
  2
STYLE_03
 70
               0
  3

 72
              65
 73
               4
 40
0.7999999999999999
 49
0.4999999999999999
 74
               0
 49
-0.1
 74
               0
 49
0.1
 74
               0
 49
-0.1
 74
               0
  0
LTYPE
  5
29
100
AcDbSymbolTableRecord
100
AcDbLinetypeTableRecord
  2
STYLE_04
 70
               0
  3

 72
              65
 73
               4
 40
1.5999999999999999
 49
0.9999999999999999
 74
               0
 49
-0.2000000000000001
 74
               0
 49
0.2
 74
               0
 49
-0.2
 74
               0
  0
LTYPE
  5
2A
100
AcDbSymbolTableRecord
100
AcDbLinetypeTableRecord
  2
STYLE_05
 70
               0
  3

 72
              65
 73
               2
 40
0.05
 49
0.0002
 74
               0
 49
-0.0498
 74
               0
  0
LTYPE
  5
2B
100
AcDbSymbolTableRecord
100
AcDbLinetypeTableRecord
  2
STYLE_06
 70
               0
  3

 72
              65
 73
               4
 40
0.416656
 49
0.25
 74
               0
 49
-0.083312
 74
               0
 49
0.027772
 74
               0
 49
-0.055572
 74
               0
  0
LTYPE
  5
2C
100
AcDbSymbolTableRecord
100
AcDbLinetypeTableRecord
  2
STYLE_07
 70
               0
  3

 72
              65
 73
               6
 40
0.75
 49
0.25
 74
               0
 49
-0.083312
 74
               0
 49
0.2500000000000001
 74
               0
 49
-0.083344
 74
               0
 49
0.027772
 74
               0
 49
-0.055572
 74
               0
  0
LTYPE
  5
2D
100
AcDbSymbolTableRecord
100
AcDbLinetypeTableRecord
  2
STYLE_08
 70
               0
  3

 72
              65
 73
               6
 40
0.5
 49
0.25
 74
               0
 49
-0.083312
 74
               0
 49
0.027772
 74
               0
 49
-0.055572
 74
               0
 49
0.027772
 74
               0
 49
-0.055572
 74
               0
  0
LTYPE
  5
2E
100
AcDbSymbolTableRecord
100
AcDbLinetypeTableRecord
  2
STYLE_09
 70
               0
  3

 72
              65
 73
               4
 40
2.0
 49
1.5
 74
               0
 49
-0.1111139999999999
 74
               0
 49
0.2777720000000001
 74
               0
 49
-0.1111139999999999
 74
               0
  0
LTYPE
  5
2F
100
AcDbSymbolTableRecord
100
AcDbLinetypeTableRecord
  2
STYLE_10
 70
               0
  3

 72
              65
 73
               6
 40
2.375
 49
1.5
 74
               0
 49
-0.1111139999999999
 74
               0
 49
0.2777720000000001
 74
               0
 49
-0.1111139999999999
 74
               0
 49
0.25
 74
               0
 49
-0.125
 74
               0
  0
ENDTAB
  0
TABLE
  2
LAYER
  5
2
100
AcDbSymbolTable
 70
               6
  0
LAYER
  5
14
100
AcDbSymbolTableRecord
100
AcDbLayerTableRecord
  2
0
 70
               0
 62
               7
  6
Continuous
290
               1
370
              15
390
1D
  0
LAYER
  5
30
100
AcDbSymbolTableRecord
100
AcDbLayerTableRecord
  2
Defpoints
 70
               0
 62
               7
  6
Continuous
290
               0
370
              -3
390
1D
  0
LAYER
  5
31
100
AcDbSymbolTableRecord
100
AcDbLayerTableRecord
  2
一般
 70
               0
 62
               7
  6
Continuous
290
               1
370
               5
390
1D
  0
LAYER
  5
32
100
AcDbSymbolTableRecord
100
AcDbLayerTableRecord
  2
寸法
 70
               0
 62
               7
  6
Continuous
290
               1
370
               5
390
1D
  0
LAYER
  5
33
100
AcDbSymbolTableRecord
100
AcDbLayerTableRecord
  2
レイヤー_1
 70
               0
 62
              19
  6
Continuous
290
               1
370
              15
390
1D
  0
LAYER
  5
34
100
AcDbSymbolTableRecord
100
AcDbLayerTableRecord
  2
FORMAT
 70
               0
 62
               7
  6
Continuous
290
               1
370
              15
390
1D
  0
ENDTAB
  0
TABLE
  2
STYLE
  5
3
100
AcDbSymbolTable
 70
               2
  0
STYLE
  5
17
100
AcDbSymbolTableRecord
100
AcDbTextStyleTableRecord
  2
Standard
 70
               0
 40
0.0
 41
1.0
 50
0.0
 71
               0
 42
0.0
  3
txt
  4
BIGFONT.SHX
  0
STYLE
  5
25
100
AcDbSymbolTableRecord
100
AcDbTextStyleTableRecord
  2
Arial
 70
               0
 40
0.0
 41
1.0
 50
0.0
 71
               0
 42
0.0
  3
Arial
  4

1001
ACAD
1000
Arial
1071
        0
  0
ENDTAB
  0
TABLE
  2
VIEW
  5
5
100
AcDbSymbolTable
 70
               0
  0
ENDTAB
  0
TABLE
  2
UCS
  5
6
100
AcDbSymbolTable
 70
               0
  0
ENDTAB
  0
TABLE
  2
APPID
  5
8
100
AcDbSymbolTable
 70
               1
  0
APPID
  5
16
100
AcDbSymbolTableRecord
100
AcDbRegAppTableRecord
  2
ACAD
 70
               0
  0
ENDTAB
  0
TABLE
  2
DIMSTYLE
  5
9
100
AcDbSymbolTable
 70
               1
100
AcDbDimStyleTable
 71
               0
  0
DIMSTYLE
105
18
100
AcDbSymbolTableRecord
100
AcDbDimStyleTableRecord
  2
Standard
 70
               0
  3

  4

 40
1.0
 41
0.18
 42
0.0625
 43
0.38
 44
0.18
 45
0.0
 46
0.0
 47
0.0
 48
0.0
 71
               0
 72
               0
 73
               1
 74
               1
 75
               0
 76
               0
 77
               0
 78
               0
 79
               0
140
0.18
141
0.09
142
0.0
143
25.399999999999999
144
1.0
145
0.0
146
1.0
147
0.09
148
0.0
170
               0
171
               2
172
               0
173
               0
174
               0
175
               0
176
               0
177
               0
178
               0
179
               0
271
               4
272
               4
273
               2
274
               2
275
               0
276
               0
277
               2
278
              46
279
               0
280
               0
281
               0
282
               0
283
               1
284
               0
285
               0
286
               0
288
               0
340
17
341
0
342
0
343
0
344
0
371
              -2
372
              -2
  0
ENDTAB
  0
TABLE
  2
BLOCK_RECORD
  5
1
100
AcDbSymbolTable
 70
               1
  0
BLOCK_RECORD
  5
A
100
AcDbSymbolTableRecord
100
AcDbBlockTableRecord
  2
*MODEL_SPACE
340
20
  0
BLOCK_RECORD
  5
B
100
AcDbSymbolTableRecord
100
AcDbBlockTableRecord
  2
*PAPER_SPACE
340
21
  0
BLOCK_RECORD
  5
24
100
AcDbSymbolTableRecord
100
AcDbBlockTableRecord
  2
*U0
340
0
102
{BLKREFS
331
28E
102
}
  0
ENDTAB
  0
ENDSEC
  0
SECTION
  2
BLOCKS
  0
BLOCK
  5
D
100
AcDbEntity
  8
0
100
AcDbBlockBegin
  2
*MODEL_SPACE
 70
               0
 10
0.0
 20
0.0
 30
0.0
  3
*MODEL_SPACE
  1

  0
ENDBLK
  5
E
100
AcDbEntity
  8
0
100
AcDbBlockEnd
  0
BLOCK
  5
F
100
AcDbEntity
 67
               1
  8
0
100
AcDbBlockBegin
  2
*PAPER_SPACE
 70
               0
 10
0.0
 20
0.0
 30
0.0
  3
*PAPER_SPACE
  1

  0
ENDBLK
  5
10
100
AcDbEntity
 67
               1
  8
0
100
AcDbBlockEnd
  0
BLOCK
  5
35
100
AcDbEntity
  8
一般
100
AcDbBlockBegin
  2
*U0
 70
               1
 10
0.0
 20
0.0
 30
0.0
  3
*U0
  1

  0
LINE
  5
36
100
AcDbEntity
  8
0
370
              25
  6
Continuous
 62
               7
100
AcDbLine
 10
-73.240551896299991
 20
-36.002864771800006
 30
0.0
 11
-71.65276567090001
 21
-35.319993006399997
 31
0.0
  0
LINE
  5
37
100
AcDbEntity
  8
0
370
              25
  6
Continuous
 62
               7
100
AcDbLine
 10
-81.925057163899993
 20
-11.435270193700006
 30
0.0
 11
-83.512843389300002
 21
-12.118141959100001
 31
0.0
  0
LINE
  5
38
100
AcDbEntity
  8
0
370
              25
  6
Continuous
 62
               7
100
AcDbLine
 10
70.077911876799988
 20
75.525122052600011
 30
0.0
 11
70.085488645700025
 21
75.39587637950001
 31
0.0
  0
LINE
  5
39
100
AcDbEntity
  8
0
370
              25
  6
Continuous
 62
               7
100
AcDbLine
 10
76.075205909399983
 20
75.7470115502
 30
0.0
 11
76.067629140500003
 21
75.876257223399989
 31
0.0
  0
LINE
  5
3A
100
AcDbEntity
  8
0
370
              25
  6
Continuous
 62
               7
100
AcDbLine
 10
73.873651248499982
 20
75.631503773100007
 30
0.0
 11
73.915472837499976
 21
74.918104763200006
 31
0.0
  0
LINE
  5
3B
100
AcDbEntity
  8
0
370
              25
  6
Continuous
 62
               7
100
AcDbLine
 10
72.310096501200007
 20
75.118233431800007
 30
0.0
 11
72.271895119500016
 21
75.76987839649999
 31
0.0
  0
LINE
  5
3C
100
AcDbEntity
  8
0
370
              25
  6
Continuous
 62
               7
100
AcDbLine
 10
51.89929323299998
 20
86.790436255099991
 30
0.0
 11
51.906870001900018
 21
86.661190581999989
 31
0.0
  0
LINE
  5
3D
100
AcDbEntity
  8
0
370
              25
  6
Continuous
 62
               7
100
AcDbLine
 10
57.896587265599976
 20
87.012325752799995
 30
0.0
 11
57.889010496699996
 21
87.141571425899997
 31
0.0
  0
LINE
  5
3E
100
AcDbEntity
  8
0
370
              25
  6
Continuous
 62
               7
100
AcDbLine
 10
55.695033168999998
 20
86.896817625900013
 30
0.0
 11
55.736854757999993
 21
86.183418616000012
 31
0.0
  0
LINE
  5
3F
100
AcDbEntity
  8
0
370
              25
  6
Continuous
 62
               7
100
AcDbLine
 10
54.131478421700024
 20
86.383547284600013
 30
0.0
 11
54.093277039999975
 21
87.035192249299996
 31
0.0
  0
LINE
  5
40
100
AcDbEntity
  8
0
370
              25
  6
Continuous
 62
               7
100
AcDbLine
 10
-68.853616484000014
 20
15.773742096500001
 30
0.0
 11
-68.846039715100005
 21
15.6444964234
 31
0.0
  0
LINE
  5
41
100
AcDbEntity
  8
0
370
              25
  6
Continuous
 62
               7
100
AcDbLine
 10
-62.85632245139999
 20
15.99563159409999
 30
0.0
 11
-62.863899220299999
 21
16.124877267199992
 31
0.0
  0
LINE
  5
42
100
AcDbEntity
  8
0
370
              25
  6
Continuous
 62
               7
100
AcDbLine
 10
-65.057883027299994
 20
15.880121272999986
 30
0.0
 11
-65.0160614383
 21
15.166722263100013
 31
0.0
  0
LINE
  5
43
100
AcDbEntity
  8
0
370
              25
  6
Continuous
 62
               7
100
AcDbLine
 10
-66.621437774599997
 20
15.366850931699986
 30
0.0
 11
-66.659639156299988
 21
16.018495896500013
 31
0.0
  0
LINE
  5
44
100
AcDbEntity
  8
0
370
              25
  6
Continuous
 62
               7
100
AcDbLine
 10
-87.032235127800007
 20
27.039056299000009
 30
0.0
 11
-87.024658359
 21
26.909810625900008
 31
0.0
  0
LINE
  5
45
100
AcDbEntity
  8
0
370
              25
  6
Continuous
 62
               7
100
AcDbLine
 10
-81.034941095199997
 20
27.260945796599998
 30
0.0
 11
-81.042517864100006
 21
27.3901914697
 31
0.0
  0
LINE
  5
46
100
AcDbEntity
  8
0
370
              25
  6
Continuous
 62
               7
100
AcDbLine
 10
-83.236501106800006
 20
27.145435125799992
 30
0.0
 11
-83.194679517799997
 21
26.43203611589999
 31
0.0
  0
LINE
  5
47
100
AcDbEntity
  8
0
370
              25
  6
Continuous
 62
               7
100
AcDbLine
 10
-84.800055854099995
 20
26.632164784499992
 30
0.0
 11
-84.8382572358
 21
27.283809749299991
 31
0.0
  0
LINE
  5
48
100
AcDbEntity
  8
0
370
              25
  6
Continuous
 62
               7
100
AcDbLine
 10
-89.485544572899997
 20
-33.782975080400007
 30
0.0
 11
-93.021354213799995
 21
26.531402213099994
 31
0.0
  0
LINE
  5
49
100
AcDbEntity
  8
0
370
              25
  6
Continuous
 62
               7
100
AcDbLine
 10
-93.021354213799995
 20
26.531402213099994
 30
0.0
 11
-68.783197526900011
 21
11.510984208999986
 31
0.0
  0
LINE
  5
4A
100
AcDbEntity
  8
0
370
              25
  6
Continuous
 62
               7
100
AcDbLine
 10
-68.783197526900011
 20
11.510984208999986
 30
0.0
 11
-65.247387886000013
 21
-48.803393084500001
 31
0.0
  0
LINE
  5
4B
100
AcDbEntity
  8
0
370
              25
  6
Continuous
 62
               7
100
AcDbLine
 10
-65.247387886000013
 20
-48.803393084500001
 30
0.0
 11
-89.485544572899997
 21
-33.782975080400007
 31
0.0
  0
LINE
  5
4C
100
AcDbEntity
  8
0
370
              25
  6
Continuous
 62
               7
100
AcDbLine
 10
-78.729885115600013
 20
-13.05530582130001
 30
0.0
 11
-78.755158895899996
 21
-12.624181842700011
 31
0.0
  0
POLYLINE
  5
4D
100
AcDbEntity
  8
0
370
              25
  6
Continuous
 62
               7
100
AcDb2dPolyline
 66
               1
 10
0.0
 20
0.0
 30
0.0
 75
               5
  0
VERTEX
  5
4E
100
AcDbEntity
  8
0
370
              25
  6
Continuous
 62
               7
100
AcDbVertex
100
AcDb2dVertex
 10
-77.41755621050001
 20
-35.441211385900004
 30
0.0
  0
VERTEX
  5
4F
100
AcDbEntity
  8
0
370
              25
  6
Continuous
 62
               7
100
AcDbVertex
100
AcDb2dVertex
 10
-76.465312236500012
 20
-35.899608632099998
 30
0.0
  0
VERTEX
  5
50
100
AcDbEntity
  8
0
370
              25
  6
Continuous
 62
               7
100
AcDbVertex
100
AcDb2dVertex
 10
-75.541755512500004
 20
-36.180317785300005
 30
0.0
  0
VERTEX
  5
51
100
AcDbEntity
  8
0
370
              25
  6
Continuous
 62
               7
100
AcDbVertex
100
AcDb2dVertex
 10
-74.660746782699988
 20
-36.279129333499995
 30
0.0
  0
VERTEX
  5
52
100
AcDbEntity
  8
0
370
              25
  6
Continuous
 62
               7
100
AcDbVertex
100
AcDb2dVertex
 10
-73.835509363299991
 20
-36.194553340100001
 30
0.0
  0
VERTEX
  5
53
100
AcDbEntity
  8
0
370
              25
  6
Continuous
 62
               7
100
AcDbVertex
100
AcDb2dVertex
 10
-73.078428203399994
 20
-35.927865088199994
 30
0.0
  0
VERTEX
  5
54
100
AcDbEntity
  8
0
370
              25
  6
Continuous
 62
               7
100
AcDbVertex
100
AcDb2dVertex
 10
-72.400866337800011
 20
-35.483065711400002
 30
0.0
  0
VERTEX
  5
55
100
AcDbEntity
  8
0
370
              25
  6
Continuous
 62
               7
100
AcDbVertex
100
AcDb2dVertex
 10
-71.812993000799992
 20
-34.866829409600001
 30
0.0
  0
VERTEX
  5
56
100
AcDbEntity
  8
0
370
              25
  6
Continuous
 62
               7
100
AcDbVertex
100
AcDb2dVertex
 10
-71.323630788799989
 20
-34.088406382900004
 30
0.0
  0
VERTEX
  5
57
100
AcDbEntity
  8
0
370
              25
  6
Continuous
 62
               7
100
AcDbVertex
100
AcDb2dVertex
 10
-70.940125113400001
 20
-33.159479472900003
 30
0.0
  0
VERTEX
  5
58
100
AcDbEntity
  8
0
370
              25
  6
Continuous
 62
               7
100
AcDbVertex
100
AcDb2dVertex
 10
-70.668231527300009
 20
-32.093989621800006
 30
0.0
  0
VERTEX
  5
59
100
AcDbEntity
  8
0
370
              25
  6
Continuous
 62
               7
100
AcDbVertex
100
AcDb2dVertex
 10
-70.512029854699989
 20
-30.907930801600003
 30
0.0
  0
VERTEX
  5
5A
100
AcDbEntity
  8
0
370
              25
  6
Continuous
 62
               7
100
AcDbVertex
100
AcDb2dVertex
 10
-70.473865882000013
 20
-29.619101571200005
 30
0.0
  0
VERTEX
  5
5B
100
AcDbEntity
  8
0
370
              25
  6
Continuous
 62
               7
100
AcDbVertex
100
AcDb2dVertex
 10
-70.554311671199997
 20
-28.246845093900006
 30
0.0
  0
VERTEX
  5
5C
100
AcDbEntity
  8
0
370
              25
  6
Continuous
 62
               7
100
AcDbVertex
100
AcDb2dVertex
 10
-70.752159733899987
 20
-26.811758890600004
 30
0.0
  0
VERTEX
  5
5D
100
AcDbEntity
  8
0
370
              25
  6
Continuous
 62
               7
100
AcDbVertex
100
AcDb2dVertex
 10
-71.064441565999999
 20
-25.335378671599997
 30
0.0
  0
VERTEX
  5
5E
100
AcDbEntity
  8
0
370
              25
  6
Continuous
 62
               7
100
AcDbVertex
100
AcDb2dVertex
 10
-71.486468802500013
 20
-23.839865935099994
 30
0.0
  0
VERTEX
  5
5F
100
AcDbEntity
  8
0
370
              25
  6
Continuous
 62
               7
100
AcDbVertex
100
AcDb2dVertex
 10
-72.011908280699998
 20
-22.347664502000001
 30
0.0
  0
VERTEX
  5
60
100
AcDbEntity
  8
0
370
              25
  6
Continuous
 62
               7
100
AcDbVertex
100
AcDb2dVertex
 10
-72.632874313900004
 20
-20.881169581899997
 30
0.0
  0
VERTEX
  5
61
100
AcDbEntity
  8
0
370
              25
  6
Continuous
 62
               7
100
AcDbVertex
100
AcDb2dVertex
 10
-73.340046220200009
 20
-19.462392789999996
 30
0.0
  0
VERTEX
  5
62
100
AcDbEntity
  8
0
370
              25
  6
Continuous
 62
               7
100
AcDbVertex
100
AcDb2dVertex
 10
-74.122810916300011
 20
-18.112626323200004
 30
0.0
  0
VERTEX
  5
63
100
AcDbEntity
  8
0
370
              25
  6
Continuous
 62
               7
100
AcDbVertex
100
AcDb2dVertex
 10
-74.969420325399994
 20
-16.852128115099987
 30
0.0
  0
VERTEX
  5
64
100
AcDbEntity
  8
0
370
              25
  6
Continuous
 62
               7
100
AcDbVertex
100
AcDb2dVertex
 10
-75.867167712899999
 20
-15.699818073599999
 30
0.0
  0
VERTEX
  5
65
100
AcDbEntity
  8
0
370
              25
  6
Continuous
 62
               7
100
AcDbVertex
100
AcDb2dVertex
 10
-76.802579611499993
 20
-14.672989017499987
 30
0.0
  0
VERTEX
  5
66
100
AcDbEntity
  8
0
370
              25
  6
Continuous
 62
               7
100
AcDbVertex
100
AcDb2dVertex
 10
-77.761616563800004
 20
-13.78705274699999
 30
0.0
  0
VERTEX
  5
67
100
AcDbEntity
  8
0
370
              25
  6
Continuous
 62
               7
100
AcDbVertex
100
AcDb2dVertex
 10
-78.729885115600013
 20
-13.05530582130001
 30
0.0
  0
SEQEND
  5
68
100
AcDbEntity
  8
0
370
              25
  6
Continuous
 62
               7
  0
LINE
  5
69
100
AcDbEntity
  8
0
370
              25
  6
Continuous
 62
               7
100
AcDbLine
 10
-77.392282312600003
 20
-35.872337370699995
 30
0.0
 11
-77.41755621050001
 21
-35.441211385900004
 31
0.0
  0
POLYLINE
  5
6A
100
AcDbEntity
  8
0
370
              25
  6
Continuous
 62
               7
100
AcDb2dPolyline
 66
               1
 10
0.0
 20
0.0
 30
0.0
 75
               5
  0
VERTEX
  5
6B
100
AcDbEntity
  8
0
370
              25
  6
Continuous
 62
               7
100
AcDbVertex
100
AcDb2dVertex
 10
-78.755158895899996
 20
-12.624181842700011
 30
0.0
  0
VERTEX
  5
6C
100
AcDbEntity
  8
0
370
              25
  6
Continuous
 62
               7
100
AcDbVertex
100
AcDb2dVertex
 10
-77.748693096599993
 20
-13.382920619599986
 30
0.0
  0
VERTEX
  5
6D
100
AcDbEntity
  8
0
370
              25
  6
Continuous
 62
               7
100
AcDbVertex
100
AcDb2dVertex
 10
-76.751670356200009
 20
-14.302211930200002
 30
0.0
  0
VERTEX
  5
6E
100
AcDbEntity
  8
0
370
              25
  6
Continuous
 62
               7
100
AcDbVertex
100
AcDb2dVertex
 10
-75.779082048699991
 20
-15.36823324880001
 30
0.0
  0
VERTEX
  5
6F
100
AcDbEntity
  8
0
370
              25
  6
Continuous
 62
               7
100
AcDbVertex
100
AcDb2dVertex
 10
-74.8455526905
 20
-16.564955408700001
 30
0.0
  0
VERTEX
  5
70
100
AcDbEntity
  8
0
370
              25
  6
Continuous
 62
               7
100
AcDbVertex
100
AcDb2dVertex
 10
-73.965119130000005
 20
-17.874383448799989
 30
0.0
  0
VERTEX
  5
71
100
AcDbEntity
  8
0
370
              25
  6
Continuous
 62
               7
100
AcDbVertex
100
AcDb2dVertex
 10
-73.151019858000012
 20
-19.276829465899993
 30
0.0
  0
VERTEX
  5
72
100
AcDbEntity
  8
0
370
              25
  6
Continuous
 62
               7
100
AcDbVertex
100
AcDb2dVertex
 10
-72.415496569299989
 20
-20.751203782299996
 30
0.0
  0
VERTEX
  5
73
100
AcDbEntity
  8
0
370
              25
  6
Continuous
 62
               7
100
AcDbVertex
100
AcDb2dVertex
 10
-71.769607950499989
 20
-22.275338747399999
 30
0.0
  0
VERTEX
  5
74
100
AcDbEntity
  8
0
370
              25
  6
Continuous
 62
               7
100
AcDbVertex
100
AcDb2dVertex
 10
-71.223066676000002
 20
-23.826315556899999
 30
0.0
  0
VERTEX
  5
75
100
AcDbEntity
  8
0
370
              25
  6
Continuous
 62
               7
100
AcDbVertex
100
AcDb2dVertex
 10
-70.784089994800013
 20
-25.380814356499997
 30
0.0
  0
VERTEX
  5
76
100
AcDbEntity
  8
0
370
              25
  6
Continuous
 62
               7
100
AcDbVertex
100
AcDb2dVertex
 10
-70.459279332699992
 20
-26.915461055199998
 30
0.0
  0
VERTEX
  5
77
100
AcDbEntity
  8
0
370
              25
  6
Continuous
 62
               7
100
AcDbVertex
100
AcDb2dVertex
 10
-70.253518095499999
 20
-28.407179101599993
 30
0.0
  0
VERTEX
  5
78
100
AcDbEntity
  8
0
370
              25
  6
Continuous
 62
               7
100
AcDbVertex
100
AcDb2dVertex
 10
-70.169900696799999
 20
-29.833537373799999
 30
0.0
  0
VERTEX
  5
79
100
AcDbEntity
  8
0
370
              25
  6
Continuous
 62
               7
100
AcDbVertex
100
AcDb2dVertex
 10
-70.209684302200003
 20
-31.173090953900001
 30
0.0
  0
VERTEX
  5
7A
100
AcDbEntity
  8
0
370
              25
  6
Continuous
 62
               7
100
AcDbVertex
100
AcDb2dVertex
 10
-70.372270340699998
 20
-32.405696494300003
 30
0.0
  0
VERTEX
  5
7B
100
AcDbEntity
  8
0
370
              25
  6
Continuous
 62
               7
100
AcDbVertex
100
AcDb2dVertex
 10
-70.65521475189999
 20
-33.512819830699996
 30
0.0
  0
VERTEX
  5
7C
100
AcDbEntity
  8
0
370
              25
  6
Continuous
 62
               7
100
AcDbVertex
100
AcDb2dVertex
 10
-71.054262216300003
 20
-34.477814811800002
 30
0.0
  0
VERTEX
  5
7D
100
AcDbEntity
  8
0
370
              25
  6
Continuous
 62
               7
100
AcDbVertex
100
AcDb2dVertex
 10
-71.563413306400008
 20
-35.286169356399995
 30
0.0
  0
VERTEX
  5
7E
100
AcDbEntity
  8
0
370
              25
  6
Continuous
 62
               7
100
AcDbVertex
100
AcDb2dVertex
 10
-72.175011295899992
 20
-35.925731594599995
 30
0.0
  0
VERTEX
  5
7F
100
AcDbEntity
  8
0
370
              25
  6
Continuous
 62
               7
100
AcDbVertex
100
AcDb2dVertex
 10
-72.87986094819999
 20
-36.386882165599999
 30
0.0
  0
VERTEX
  5
80
100
AcDbEntity
  8
0
370
              25
  6
Continuous
 62
               7
100
AcDbVertex
100
AcDb2dVertex
 10
-73.667363294599994
 20
-36.662688874400004
 30
0.0
  0
VERTEX
  5
81
100
AcDbEntity
  8
0
370
              25
  6
Continuous
 62
               7
100
AcDbVertex
100
AcDb2dVertex
 10
-74.525677220099993
 20
-36.749002976599996
 30
0.0
  0
VERTEX
  5
82
100
AcDbEntity
  8
0
370
              25
  6
Continuous
 62
               7
100
AcDbVertex
100
AcDb2dVertex
 10
-75.441896850099994
 20
-36.644527112199995
 30
0.0
  0
VERTEX
  5
83
100
AcDbEntity
  8
0
370
              25
  6
Continuous
 62
               7
100
AcDbVertex
100
AcDb2dVertex
 10
-76.402245210199993
 20
-36.350832942899999
 30
0.0
  0
VERTEX
  5
84
100
AcDbEntity
  8
0
370
              25
  6
Continuous
 62
               7
100
AcDbVertex
100
AcDb2dVertex
 10
-77.392282312600003
 20
-35.872337370699995
 30
0.0
  0
SEQEND
  5
85
100
AcDbEntity
  8
0
370
              25
  6
Continuous
 62
               7
  0
LINE
  5
86
100
AcDbEntity
  8
0
370
              25
  6
Continuous
 62
               7
100
AcDbLine
 10
-78.023510170000009
 20
-35.065700909599997
 30
0.0
 11
-77.998236272100002
 21
-35.4968268943
 31
0.0
  0
POLYLINE
  5
87
100
AcDbEntity
  8
0
370
              25
  6
Continuous
 62
               7
100
AcDb2dPolyline
 66
               1
 10
0.0
 20
0.0
 30
0.0
 75
               5
  0
VERTEX
  5
88
100
AcDbEntity
  8
0
370
              25
  6
Continuous
 62
               7
100
AcDbVertex
100
AcDb2dVertex
 10
-79.335839075100012
 20
-12.679795344899986
 30
0.0
  0
VERTEX
  5
89
100
AcDbEntity
  8
0
370
              25
  6
Continuous
 62
               7
100
AcDbVertex
100
AcDb2dVertex
 10
-80.28808304910001
 20
-12.221398098799995
 30
0.0
  0
VERTEX
  5
8A
100
AcDbEntity
  8
0
370
              25
  6
Continuous
 62
               7
100
AcDbVertex
100
AcDb2dVertex
 10
-81.211639796599997
 20
-11.940688544300002
 30
0.0
  0
VERTEX
  5
8B
100
AcDbEntity
  8
0
370
              25
  6
Continuous
 62
               7
100
AcDbVertex
100
AcDb2dVertex
 10
-82.092648385199993
 20
-11.841879403500002
 30
0.0
  0
VERTEX
  5
8C
100
AcDbEntity
  8
0
370
              25
  6
Continuous
 62
               7
100
AcDbVertex
100
AcDb2dVertex
 10
-82.917885922300002
 20
-11.926453390799992
 30
0.0
  0
VERTEX
  5
8D
100
AcDbEntity
  8
0
370
              25
  6
Continuous
 62
               7
100
AcDbVertex
100
AcDb2dVertex
 10
-83.674967035099996
 20
-12.193142445099994
 30
0.0
  0
VERTEX
  5
8E
100
AcDbEntity
  8
0
370
              25
  6
Continuous
 62
               7
100
AcDbVertex
100
AcDb2dVertex
 10
-84.352528853699994
 20
-12.637942624299995
 30
0.0
  0
VERTEX
  5
8F
100
AcDbEntity
  8
0
370
              25
  6
Continuous
 62
               7
100
AcDbVertex
100
AcDb2dVertex
 10
-84.940402237699999
 20
-13.254178123700001
 30
0.0
  0
VERTEX
  5
90
100
AcDbEntity
  8
0
370
              25
  6
Continuous
 62
               7
100
AcDbVertex
100
AcDb2dVertex
 10
-85.429764449800004
 20
-14.032601150400012
 30
0.0
  0
VERTEX
  5
91
100
AcDbEntity
  8
0
370
              25
  6
Continuous
 62
               7
100
AcDbVertex
100
AcDb2dVertex
 10
-85.813270125100004
 20
-14.961528060400013
 30
0.0
  0
VERTEX
  5
92
100
AcDbEntity
  8
0
370
              25
  6
Continuous
 62
               7
100
AcDbVertex
100
AcDb2dVertex
 10
-86.085163758199997
 20
-16.027017109000013
 30
0.0
  0
VERTEX
  5
93
100
AcDbEntity
  8
0
370
              25
  6
Continuous
 62
               7
100
AcDbVertex
100
AcDb2dVertex
 10
-86.241365336800001
 20
-17.213077534200011
 30
0.0
  0
VERTEX
  5
94
100
AcDbEntity
  8
0
370
              25
  6
Continuous
 62
               7
100
AcDbVertex
100
AcDb2dVertex
 10
-86.279529309500006
 20
-18.501906764500006
 30
0.0
  0
VERTEX
  5
95
100
AcDbEntity
  8
0
370
              25
  6
Continuous
 62
               7
100
AcDbVertex
100
AcDb2dVertex
 10
-86.199083520299993
 20
-19.874163241899993
 30
0.0
  0
VERTEX
  5
96
100
AcDbEntity
  8
0
370
              25
  6
Continuous
 62
               7
100
AcDbVertex
100
AcDb2dVertex
 10
-86.001235457600004
 20
-21.309249445099994
 30
0.0
  0
VERTEX
  5
97
100
AcDbEntity
  8
0
370
              25
  6
Continuous
 62
               7
100
AcDbVertex
100
AcDb2dVertex
 10
-85.688953719599994
 20
-22.785628059299995
 30
0.0
  0
VERTEX
  5
98
100
AcDbEntity
  8
0
370
              25
  6
Continuous
 62
               7
100
AcDbVertex
100
AcDb2dVertex
 10
-85.266926436000006
 20
-24.281141598199994
 30
0.0
  0
VERTEX
  5
99
100
AcDbEntity
  8
0
370
              25
  6
Continuous
 62
               7
100
AcDbVertex
100
AcDb2dVertex
 10
-84.741486957800007
 20
-25.773343031300001
 30
0.0
  0
VERTEX
  5
9A
100
AcDbEntity
  8
0
370
              25
  6
Continuous
 62
               7
100
AcDbVertex
100
AcDb2dVertex
 10
-84.120520924600001
 20
-27.239837951400006
 30
0.0
  0
VERTEX
  5
9B
100
AcDbEntity
  8
0
370
              25
  6
Continuous
 62
               7
100
AcDbVertex
100
AcDb2dVertex
 10
-83.413348971299996
 20
-28.658615545700002
 30
0.0
  0
VERTEX
  5
9C
100
AcDbEntity
  8
0
370
              25
  6
Continuous
 62
               7
100
AcDbVertex
100
AcDb2dVertex
 10
-82.630584322199994
 20
-30.008381210099998
 30
0.0
  0
VERTEX
  5
9D
100
AcDbEntity
  8
0
370
              25
  6
Continuous
 62
               7
100
AcDbVertex
100
AcDb2dVertex
 10
-81.783974960100011
 20
-31.268878615800006
 30
0.0
  0
VERTEX
  5
9E
100
AcDbEntity
  8
0
370
              25
  6
Continuous
 62
               7
100
AcDbVertex
100
AcDb2dVertex
 10
-80.886227455099998
 20
-32.421190663399997
 30
0.0
  0
VERTEX
  5
9F
100
AcDbEntity
  8
0
370
              25
  6
Continuous
 62
               7
100
AcDbVertex
100
AcDb2dVertex
 10
-79.950815697600007
 20
-33.448017312100006
 30
0.0
  0
VERTEX
  5
A0
100
AcDbEntity
  8
0
370
              25
  6
Continuous
 62
               7
100
AcDbVertex
100
AcDb2dVertex
 10
-78.991778721799989
 20
-34.333953983800001
 30
0.0
  0
VERTEX
  5
A1
100
AcDbEntity
  8
0
370
              25
  6
Continuous
 62
               7
100
AcDbVertex
100
AcDb2dVertex
 10
-78.023510170000009
 20
-35.065700909599997
 30
0.0
  0
SEQEND
  5
A2
100
AcDbEntity
  8
0
370
              25
  6
Continuous
 62
               7
  0
LINE
  5
A3
100
AcDbEntity
  8
0
370
              25
  6
Continuous
 62
               7
100
AcDbLine
 10
-79.361112855399995
 20
-12.248671366299988
 30
0.0
 11
-79.335839075100012
 21
-12.679795344899986
 31
0.0
  0
POLYLINE
  5
A4
100
AcDbEntity
  8
0
370
              25
  6
Continuous
 62
               7
100
AcDb2dPolyline
 66
               1
 10
0.0
 20
0.0
 30
0.0
 75
               5
  0
VERTEX
  5
A5
100
AcDbEntity
  8
0
370
              25
  6
Continuous
 62
               7
100
AcDbVertex
100
AcDb2dVertex
 10
-77.998236272100002
 20
-35.4968268943
 30
0.0
  0
VERTEX
  5
A6
100
AcDbEntity
  8
0
370
              25
  6
Continuous
 62
               7
100
AcDbVertex
100
AcDb2dVertex
 10
-79.004702141899998
 20
-34.738086913700002
 30
0.0
  0
VERTEX
  5
A7
100
AcDbEntity
  8
0
370
              25
  6
Continuous
 62
               7
100
AcDbVertex
100
AcDb2dVertex
 10
-80.00172488230001
 20
-33.8187956031
 30
0.0
  0
VERTEX
  5
A8
100
AcDbEntity
  8
0
370
              25
  6
Continuous
 62
               7
100
AcDbVertex
100
AcDb2dVertex
 10
-80.974313166299993
 20
-32.752774685800006
 30
0.0
  0
VERTEX
  5
A9
100
AcDbEntity
  8
0
370
              25
  6
Continuous
 62
               7
100
AcDbVertex
100
AcDb2dVertex
 10
-81.907842501000005
 20
-31.556052926999996
 30
0.0
  0
VERTEX
  5
AA
100
AcDbEntity
  8
0
370
              25
  6
Continuous
 62
               7
100
AcDbVertex
100
AcDb2dVertex
 10
-82.7882761085
 20
-30.246624084499999
 30
0.0
  0
VERTEX
  5
AB
100
AcDbEntity
  8
0
370
              25
  6
Continuous
 62
               7
100
AcDbVertex
100
AcDb2dVertex
 10
-83.602375333500007
 20
-28.844178869800004
 30
0.0
  0
VERTEX
  5
AC
100
AcDbEntity
  8
0
370
              25
  6
Continuous
 62
               7
100
AcDbVertex
100
AcDb2dVertex
 10
-84.337898669200001
 20
-27.369803751000006
 30
0.0
  0
VERTEX
  5
AD
100
AcDbEntity
  8
0
370
              25
  6
Continuous
 62
               7
100
AcDbVertex
100
AcDb2dVertex
 10
-84.983787241000002
 20
-25.8456695884
 30
0.0
  0
VERTEX
  5
AE
100
AcDbEntity
  8
0
370
              25
  6
Continuous
 62
               7
100
AcDbVertex
100
AcDb2dVertex
 10
-85.530328562500003
 20
-24.294691976400003
 30
0.0
  0
VERTEX
  5
AF
100
AcDbEntity
  8
0
370
              25
  6
Continuous
 62
               7
100
AcDbVertex
100
AcDb2dVertex
 10
-85.969305243799994
 20
-22.740193176800005
 30
0.0
  0
VERTEX
  5
B0
100
AcDbEntity
  8
0
370
              25
  6
Continuous
 62
               7
100
AcDbVertex
100
AcDb2dVertex
 10
-86.294115858799998
 20
-21.205547280499999
 30
0.0
  0
VERTEX
  5
B1
100
AcDbEntity
  8
0
370
              25
  6
Continuous
 62
               7
100
AcDbVertex
100
AcDb2dVertex
 10
-86.499877096000006
 20
-19.713829234200006
 30
0.0
  0
VERTEX
  5
B2
100
AcDbEntity
  8
0
370
              25
  6
Continuous
 62
               7
100
AcDbVertex
100
AcDb2dVertex
 10
-86.583494494700005
 20
-18.287470961999986
 30
0.0
  0
VERTEX
  5
B3
100
AcDbEntity
  8
0
370
              25
  6
Continuous
 62
               7
100
AcDbVertex
100
AcDb2dVertex
 10
-86.543710889300002
 20
-16.947917381899998
 30
0.0
  0
VERTEX
  5
B4
100
AcDbEntity
  8
0
370
              25
  6
Continuous
 62
               7
100
AcDbVertex
100
AcDb2dVertex
 10
-86.381124897800007
 20
-15.715311038999999
 30
0.0
  0
VERTEX
  5
B5
100
AcDbEntity
  8
0
370
              25
  6
Continuous
 62
               7
100
AcDbVertex
100
AcDb2dVertex
 10
-86.0981804866
 20
-14.608187702599992
 30
0.0
  0
VERTEX
  5
B6
100
AcDbEntity
  8
0
370
              25
  6
Continuous
 62
               7
100
AcDbVertex
100
AcDb2dVertex
 10
-85.699132975200001
 20
-13.64319352390001
 30
0.0
  0
VERTEX
  5
B7
100
AcDbEntity
  8
0
370
              25
  6
Continuous
 62
               7
100
AcDbVertex
100
AcDb2dVertex
 10
-85.189981932099997
 20
-12.834838176900007
 30
0.0
  0
VERTEX
  5
B8
100
AcDbEntity
  8
0
370
              25
  6
Continuous
 62
               7
100
AcDbVertex
100
AcDb2dVertex
 10
-84.578383895599998
 20
-12.19527674119999
 30
0.0
  0
VERTEX
  5
B9
100
AcDbEntity
  8
0
370
              25
  6
Continuous
 62
               7
100
AcDbVertex
100
AcDb2dVertex
 10
-83.873534290400002
 20
-11.734125367699988
 30
0.0
  0
VERTEX
  5
BA
100
AcDbEntity
  8
0
370
              25
  6
Continuous
 62
               7
100
AcDbVertex
100
AcDb2dVertex
 10
-83.086031896899996
 20
-11.458319461400009
 30
0.0
  0
VERTEX
  5
BB
100
AcDbEntity
  8
0
370
              25
  6
Continuous
 62
               7
100
AcDbVertex
100
AcDb2dVertex
 10
-82.227717994900004
 20
-11.372004957999991
 30
0.0
  0
VERTEX
  5
BC
100
AcDbEntity
  8
0
370
              25
  6
Continuous
 62
               7
100
AcDbVertex
100
AcDb2dVertex
 10
-81.311498388500013
 20
-11.476480421100007
 30
0.0
  0
VERTEX
  5
BD
100
AcDbEntity
  8
0
370
              25
  6
Continuous
 62
               7
100
AcDbVertex
100
AcDb2dVertex
 10
-80.351150028299998
 20
-11.770174590399989
 30
0.0
  0
VERTEX
  5
BE
100
AcDbEntity
  8
0
370
              25
  6
Continuous
 62
               7
100
AcDbVertex
100
AcDb2dVertex
 10
-79.361112855399995
 20
-12.248671366299988
 30
0.0
  0
SEQEND
  5
BF
100
AcDbEntity
  8
0
370
              25
  6
Continuous
 62
               7
  0
LINE
  5
C0
100
AcDbEntity
  8
0
370
              25
  6
Continuous
 62
               7
100
AcDbLine
 10
-77.518093406899993
 20
-33.726232636800006
 30
0.0
 11
-78.124047366399992
 21
-33.350722160499998
 31
0.0
  0
LINE
  5
C1
100
AcDbEntity
  8
0
370
              25
  6
Continuous
 62
               7
100
AcDbLine
 10
-78.629347825100012
 20
-14.770286175299987
 30
0.0
 11
-77.518093406899993
 21
-33.726232636800006
 31
0.0
  0
LINE
  5
C2
100
AcDbEntity
  8
0
370
              25
  6
Continuous
 62
               7
100
AcDbLine
 10
-79.235301784600011
 20
-14.394775698899991
 30
0.0
 11
-78.629347825100012
 21
-14.770286175299987
 31
0.0
  0
LINE
  5
C3
100
AcDbEntity
  8
0
370
              25
  6
Continuous
 62
               7
100
AcDbLine
 10
-78.124047366399992
 20
-33.350722160499998
 30
0.0
 11
-79.235301784600011
 21
-14.394775698899991
 31
0.0
  0
LINE
  5
C4
100
AcDbEntity
  8
0
370
              25
  6
Continuous
 62
               7
100
AcDbLine
 10
-75.043673537500013
 20
-41.071957835800006
 30
0.0
 11
-79.891305213500004
 21
-38.067874025099997
 31
0.0
  0
LINE
  5
C5
100
AcDbEntity
  8
0
370
              25
  6
Continuous
 62
               7
100
AcDbLine
 10
-75.144696683500001
 20
-39.348689683800004
 30
0.0
 11
-75.043673537500013
 21
-41.071957835800006
 31
0.0
  0
LINE
  5
C6
100
AcDbEntity
  8
0
370
              25
  6
Continuous
 62
               7
100
AcDbLine
 10
-79.992328359499993
 20
-36.344605873199995
 30
0.0
 11
-75.144696683500001
 21
-39.348689683800004
 31
0.0
  0
LINE
  5
C7
100
AcDbEntity
  8
0
370
              25
  6
Continuous
 62
               7
100
AcDbLine
 10
-79.891305213500004
 20
-38.067874025099997
 30
0.0
 11
-79.992328359499993
 21
-36.344605873199995
 31
0.0
  0
LINE
  5
C8
100
AcDbEntity
  8
0
370
              25
  6
Continuous
 62
               7
100
AcDbLine
 10
-91.433567988500002
 20
27.214273978499989
 30
0.0
 11
-93.021354213799995
 21
26.531402213099994
 31
0.0
  0
LINE
  5
C9
100
AcDbEntity
  8
0
370
              25
  6
Continuous
 62
               7
100
AcDbLine
 10
-67.195411301500002
 20
12.193855974400009
 30
0.0
 11
-91.433567988500002
 21
27.214273978499989
 31
0.0
  0
LINE
  5
CA
100
AcDbEntity
  8
0
370
              25
  6
Continuous
 62
               7
100
AcDbLine
 10
-68.783197526900011
 20
11.510984208999986
 30
0.0
 11
-67.195411301500002
 21
12.193855974400009
 31
0.0
  0
LINE
  5
CB
100
AcDbEntity
  8
0
370
              25
  6
Continuous
 62
               7
100
AcDbLine
 10
-67.195411301500002
 20
12.193855974400009
 30
0.0
 11
-67.094388155500013
 21
10.470587822499994
 31
0.0
  0
LINE
  5
CC
100
AcDbEntity
  8
0
370
              25
  6
Continuous
 62
               7
100
AcDbLine
 10
80.569985147199986
 20
73.977771391900006
 30
0.0
 11
-67.094388155500013
 21
10.470587822499994
 31
0.0
  0
LINE
  5
CD
100
AcDbEntity
  8
0
370
              25
  6
Continuous
 62
               7
100
AcDbLine
 10
80.468962001199998
 20
75.701039543900009
 30
0.0
 11
80.569985147199986
 21
73.977771391900006
 31
0.0
  0
LINE
  5
CE
100
AcDbEntity
  8
0
370
              25
  6
Continuous
 62
               7
100
AcDbLine
 10
80.468962001199998
 20
75.701039543900009
 30
0.0
 11
82.056748226500019
 21
76.383911309300004
 31
0.0
  0
LINE
  5
CF
100
AcDbEntity
  8
0
370
              25
  6
Continuous
 62
               7
100
AcDbLine
 10
82.056748226500019
 20
76.383911309300004
 30
0.0
 11
85.592557867499977
 21
16.069534015800002
 31
0.0
  0
LINE
  5
D0
100
AcDbEntity
  8
0
370
              25
  6
Continuous
 62
               7
100
AcDbLine
 10
85.592557867499977
 20
16.069534015800002
 30
0.0
 11
-65.247387886000013
 21
-48.803393084500001
 31
0.0
  0
LINE
  5
D1
100
AcDbEntity
  8
0
370
              25
  6
Continuous
 62
               7
100
AcDbLine
 10
80.147688334300028
 20
74.239469289699997
 30
0.0
 11
80.569985147199986
 21
73.977771391900006
 31
0.0
  0
LINE
  5
D2
100
AcDbEntity
  8
0
370
              25
  6
Continuous
 62
               7
100
AcDbLine
 10
-77.392282312600003
 20
-35.872337370699995
 30
0.0
 11
-76.955142024600008
 21
-35.684332993599995
 31
0.0
  0
POLYLINE
  5
D3
100
AcDbEntity
  8
0
370
              25
  6
Continuous
 62
               7
100
AcDb2dPolyline
 66
               1
 10
0.0
 20
0.0
 30
0.0
 75
               5
  0
VERTEX
  5
D4
100
AcDbEntity
  8
0
370
              25
  6
Continuous
 62
               7
100
AcDbVertex
100
AcDb2dVertex
 10
-72.292461857099994
 20
-36.019965257400003
 30
0.0
  0
VERTEX
  5
D5
100
AcDbEntity
  8
0
370
              25
  6
Continuous
 62
               7
100
AcDbVertex
100
AcDb2dVertex
 10
-72.937890994700012
 20
-36.066131211200002
 30
0.0
  0
VERTEX
  5
D6
100
AcDbEntity
  8
0
370
              25
  6
Continuous
 62
               7
100
AcDbVertex
100
AcDb2dVertex
 10
-73.33872972910001
 20
-36.043227175200002
 30
0.0
  0
SEQEND
  5
D7
100
AcDbEntity
  8
0
370
              25
  6
Continuous
 62
               7
  0
LINE
  5
D8
100
AcDbEntity
  8
0
370
              25
  6
Continuous
 62
               7
100
AcDbLine
 10
-78.729885115600013
 20
-13.05530582130001
 30
0.0
 11
-78.364984413299993
 21
-12.898370093500006
 31
0.0
  0
LINE
  5
D9
100
AcDbEntity
  8
0
370
              25
  6
Continuous
 62
               7
100
AcDbLine
 10
-71.65276567090001
 20
-35.319993006399997
 30
0.0
 11
-71.555942611000006
 21
-35.276488817499995
 31
0.0
  0
ARC
  5
DA
100
AcDbEntity
  8
0
370
              25
  6
Continuous
 62
               7
100
AcDbCircle
 10
-80.370348392099999
 20
-14.634100448600009
 30
0.0
 40
4.0750729138595263
100
AcDbArc
 50
127.89188843590003
 51
142.64685277109996
  0
LINE
  5
DB
100
AcDbEntity
  8
0
370
              25
  6
Continuous
 62
               7
100
AcDbLine
 10
-81.826882141099986
 20
-11.394910592200006
 30
0.0
 11
-81.925057163899993
 21
-11.435270193700006
 31
0.0
  0
LINE
  5
DC
100
AcDbEntity
  8
0
370
              25
  6
Continuous
 62
               7
100
AcDbLine
 10
-78.124047366399992
 20
-33.350722160499998
 30
0.0
 11
-77.554470795599997
 21
-33.105759864999996
 31
0.0
  0
LINE
  5
DD
100
AcDbEntity
  8
0
370
              25
  6
Continuous
 62
               7
100
AcDbLine
 10
-79.891305213500004
 20
-38.067874025099997
 30
0.0
 11
-78.309386643000011
 21
-37.3875258084
 31
0.0
  0
LINE
  5
DE
100
AcDbEntity
  8
0
370
              25
  6
Continuous
 62
               7
100
AcDbLine
 10
56.230805314300028
 20
90.721457547999989
 30
0.0
 11
80.468962001199998
 21
75.701039543900009
 31
0.0
  0
LINE
  5
DF
100
AcDbEntity
  8
0
370
              25
  6
Continuous
 62
               7
100
AcDbLine
 10
82.056748226500019
 20
76.383911309300004
 30
0.0
 11
57.818591539599993
 21
91.404329313400012
 31
0.0
  0
LINE
  5
E0
100
AcDbEntity
  8
0
370
              25
  6
Continuous
 62
               7
100
AcDbLine
 10
57.818591539599993
 20
91.404329313400012
 30
0.0
 11
56.230805314300028
 21
90.721457547999989
 31
0.0
  0
LINE
  5
E1
100
AcDbEntity
  8
0
370
              25
  6
Continuous
 62
               7
100
AcDbLine
 10
56.230805314300028
 20
90.721457547999989
 30
0.0
 11
56.256154856600006
 21
90.289041208899988
 31
0.0
  0
LINE
  5
E2
100
AcDbEntity
  8
0
370
              25
  6
Continuous
 62
               7
100
AcDbLine
 10
-80.522205544200006
 20
21.287444773299995
 30
0.0
 11
-75.674573868200014
 21
18.283360962699987
 31
0.0
  0
LINE
  5
E3
100
AcDbEntity
  8
0
370
              25
  6
Continuous
 62
               7
100
AcDbLine
 10
-75.681607572199994
 20
18.085897112200001
 30
0.0
 11
-75.674573868200014
 21
18.283360962699987
 31
0.0
  0
LINE
  5
E4
100
AcDbEntity
  8
0
370
              25
  6
Continuous
 62
               7
100
AcDbLine
 10
-80.522205544200006
 20
21.287444773299995
 30
0.0
 11
-80.957021348000012
 21
20.721944130999987
 31
0.0
  0
LINE
  5
E5
100
AcDbEntity
  8
0
370
              25
  6
Continuous
 62
               7
100
AcDbLine
 10
-75.674573868200014
 20
18.283360962699987
 30
0.0
 11
69.608111224000027
 21
80.766233068199995
 31
0.0
  0
LINE
  5
E6
100
AcDbEntity
  8
0
370
              25
  6
Continuous
 62
               7
100
AcDbLine
 10
69.729562599799976
 20
80.624027810999991
 30
0.0
 11
69.608111224000027
 21
80.766233068199995
 31
0.0
  0
LINE
  5
E7
100
AcDbEntity
  8
0
370
              25
  6
Continuous
 62
               7
100
AcDbLine
 10
69.608111224000027
 20
80.766233068199995
 30
0.0
 11
64.760479547999978
 21
83.770316878800003
 31
0.0
  0
LINE
  5
E8
100
AcDbEntity
  8
0
370
              25
  6
Continuous
 62
               7
100
AcDbLine
 10
64.760479547999978
 20
83.770316878800003
 30
0.0
 11
-80.522205544200006
 21
21.287444773299995
 31
0.0
  0
POLYLINE
  5
E9
100
AcDbEntity
  8
0
370
              25
  6
Continuous
 62
               7
100
AcDb2dPolyline
 66
               1
 10
0.0
 20
0.0
 30
0.0
 75
               5
  0
VERTEX
  5
EA
100
AcDbEntity
  8
0
370
              25
  6
Continuous
 62
               7
100
AcDbVertex
100
AcDb2dVertex
 10
75.454452239899979
 20
76.7249989078
 30
0.0
  0
VERTEX
  5
EB
100
AcDbEntity
  8
0
370
              25
  6
Continuous
 62
               7
100
AcDbVertex
100
AcDb2dVertex
 10
75.843796322300022
 20
76.398528651899994
 30
0.0
  0
VERTEX
  5
EC
100
AcDbEntity
  8
0
370
              25
  6
Continuous
 62
               7
100
AcDbVertex
100
AcDb2dVertex
 10
76.044299976399998
 20
76.0245024484
 30
0.0
  0
VERTEX
  5
ED
100
AcDbEntity
  8
0
370
              25
  6
Continuous
 62
               7
100
AcDbVertex
100
AcDb2dVertex
 10
76.042298370399976
 20
75.628408425400011
 30
0.0
  0
VERTEX
  5
EE
100
AcDbEntity
  8
0
370
              25
  6
Continuous
 62
               7
100
AcDbVertex
100
AcDb2dVertex
 10
75.837928491299976
 20
75.2372409619
 30
0.0
  0
VERTEX
  5
EF
100
AcDbEntity
  8
0
370
              25
  6
Continuous
 62
               7
100
AcDbVertex
100
AcDb2dVertex
 10
75.445118753299994
 20
74.877656720999994
 30
0.0
  0
VERTEX
  5
F0
100
AcDbEntity
  8
0
370
              25
  6
Continuous
 62
               7
100
AcDbVertex
100
AcDb2dVertex
 10
74.890631470100004
 20
74.574158777299999
 30
0.0
  0
VERTEX
  5
F1
100
AcDbEntity
  8
0
370
              25
  6
Continuous
 62
               7
100
AcDbVertex
100
AcDb2dVertex
 10
74.21226649800002
 20
74.347434211999996
 30
0.0
  0
VERTEX
  5
F2
100
AcDbEntity
  8
0
370
              25
  6
Continuous
 62
               7
100
AcDbVertex
100
AcDb2dVertex
 10
73.45624619580002
 20
74.212932041800002
 30
0.0
  0
VERTEX
  5
F3
100
AcDbEntity
  8
0
370
              25
  6
Continuous
 62
               7
100
AcDbVertex
100
AcDb2dVertex
 10
72.674087024699986
 20
74.179815163200004
 30
0.0
  0
VERTEX
  5
F4
100
AcDbEntity
  8
0
370
              25
  6
Continuous
 62
               7
100
AcDbVertex
100
AcDb2dVertex
 10
71.919102002399995
 20
74.250345966800012
 30
0.0
  0
VERTEX
  5
F5
100
AcDbEntity
  8
0
370
              25
  6
Continuous
 62
               7
100
AcDbVertex
100
AcDb2dVertex
 10
71.242738636199988
 20
74.419715424600014
 30
0.0
  0
VERTEX
  5
F6
100
AcDbEntity
  8
0
370
              25
  6
Continuous
 62
               7
100
AcDbVertex
100
AcDb2dVertex
 10
70.691087648800021
 20
74.676381067699992
 30
0.0
  0
VERTEX
  5
F7
100
AcDbEntity
  8
0
370
              25
  6
Continuous
 62
               7
100
AcDbVertex
100
AcDb2dVertex
 10
70.301744130700001
 20
75.002850973800008
 30
0.0
  0
VERTEX
  5
F8
100
AcDbEntity
  8
0
370
              25
  6
Continuous
 62
               7
100
AcDbVertex
100
AcDb2dVertex
 10
70.101240476600026
 20
75.376877177300003
 30
0.0
  0
VERTEX
  5
F9
100
AcDbEntity
  8
0
370
              25
  6
Continuous
 62
               7
100
AcDbVertex
100
AcDb2dVertex
 10
70.103242082599991
 20
75.772971200299992
 30
0.0
  0
VERTEX
  5
FA
100
AcDbEntity
  8
0
370
              25
  6
Continuous
 62
               7
100
AcDbVertex
100
AcDb2dVertex
 10
70.30761731230001
 20
76.164141557499988
 30
0.0
  0
VERTEX
  5
FB
100
AcDbEntity
  8
0
370
              25
  6
Continuous
 62
               7
100
AcDbVertex
100
AcDb2dVertex
 10
70.700427050299993
 20
76.523725798399994
 30
0.0
  0
VERTEX
  5
FC
100
AcDbEntity
  8
0
370
              25
  6
Continuous
 62
               7
100
AcDbVertex
100
AcDb2dVertex
 10
71.254908418599996
 20
76.827221198100005
 30
0.0
  0
VERTEX
  5
FD
100
AcDbEntity
  8
0
370
              25
  6
Continuous
 62
               7
100
AcDbVertex
100
AcDb2dVertex
 10
71.933279305700012
 20
77.053948307300004
 30
0.0
  0
VERTEX
  5
FE
100
AcDbEntity
  8
0
370
              25
  6
Continuous
 62
               7
100
AcDbVertex
100
AcDb2dVertex
 10
72.689299607900011
 20
77.188450477499998
 30
0.0
  0
VERTEX
  5
FF
100
AcDbEntity
  8
0
370
              25
  6
Continuous
 62
               7
100
AcDbVertex
100
AcDb2dVertex
 10
73.471453428400025
 20
77.221564462499998
 30
0.0
  0
VERTEX
  5
100
100
AcDbEntity
  8
0
370
              25
  6
Continuous
 62
               7
100
AcDbVertex
100
AcDb2dVertex
 10
74.226438450600028
 20
77.151033658899991
 30
0.0
  0
VERTEX
  5
101
100
AcDbEntity
  8
0
370
              25
  6
Continuous
 62
               7
100
AcDbVertex
100
AcDb2dVertex
 10
74.902801816799979
 20
76.981664201099989
 30
0.0
  0
VERTEX
  5
102
100
AcDbEntity
  8
0
370
              25
  6
Continuous
 62
               7
100
AcDbVertex
100
AcDb2dVertex
 10
75.454452239899979
 20
76.7249989078
 30
0.0
  0
SEQEND
  5
103
100
AcDbEntity
  8
0
370
              25
  6
Continuous
 62
               7
  0
LINE
  5
104
100
AcDbEntity
  8
0
370
              25
  6
Continuous
 62
               7
100
AcDbLine
 10
74.744162229499977
 20
76.165071570599991
 30
0.0
 11
74.259399344100018
 21
76.465479776800009
 31
0.0
  0
LINE
  5
105
100
AcDbEntity
  8
0
370
              25
  6
Continuous
 62
               7
100
AcDbLine
 10
74.259399344100018
 20
76.465479776800009
 30
0.0
 11
73.624284853999995
 21
76.192331070600005
 31
0.0
  0
ARC
  5
106
100
AcDbEntity
  8
0
370
              25
  6
Continuous
 62
               7
100
AcDbCircle
 10
73.226618293000001
 20
77.118288213099987
 30
0.0
 40
1.0077377255419924
100
AcDbArc
 50
243.96954198899886
 51
293.24184957600136
  0
LINE
  5
107
100
AcDbEntity
  8
0
370
              25
  6
Continuous
 62
               7
100
AcDbLine
 10
72.784373723700014
 20
76.212774511100008
 30
0.0
 11
72.299610273899987
 21
76.513183067
 31
0.0
  0
LINE
  5
108
100
AcDbEntity
  8
0
370
              25
  6
Continuous
 62
               7
100
AcDbLine
 10
72.299610273899987
 20
76.513183067
 30
0.0
 11
71.664495783800021
 21
76.240034360900012
 31
0.0
  0
LINE
  5
109
100
AcDbEntity
  8
0
370
              25
  6
Continuous
 62
               7
100
AcDbLine
 10
71.664495783800021
 20
76.240034360900012
 30
0.0
 11
72.149259233599992
 21
75.939625804999991
 31
0.0
  0
POLYLINE
  5
10A
100
AcDbEntity
  8
0
370
              25
  6
Continuous
 62
               7
100
AcDb2dPolyline
 66
               1
 10
0.0
 20
0.0
 30
0.0
 75
               5
  0
VERTEX
  5
10B
100
AcDbEntity
  8
0
370
              25
  6
Continuous
 62
               7
100
AcDbVertex
100
AcDb2dVertex
 10
72.149259233599992
 20
75.939625804999991
 30
0.0
  0
VERTEX
  5
10C
100
AcDbEntity
  8
0
370
              25
  6
Continuous
 62
               7
100
AcDbVertex
100
AcDb2dVertex
 10
72.211038225899983
 20
75.891735312099996
 30
0.0
  0
VERTEX
  5
10D
100
AcDbEntity
  8
0
370
              25
  6
Continuous
 62
               7
100
AcDbVertex
100
AcDb2dVertex
 10
72.252133035399993
 20
75.837811043100004
 30
0.0
  0
VERTEX
  5
10E
100
AcDbEntity
  8
0
370
              25
  6
Continuous
 62
               7
100
AcDbVertex
100
AcDb2dVertex
 10
72.270970953100004
 20
75.779926674899997
 30
0.0
  0
VERTEX
  5
10F
100
AcDbEntity
  8
0
370
              25
  6
Continuous
 62
               7
100
AcDbVertex
100
AcDb2dVertex
 10
72.266827163799974
 20
75.720307269699987
 30
0.0
  0
VERTEX
  5
110
100
AcDbEntity
  8
0
370
              25
  6
Continuous
 62
               7
100
AcDbVertex
100
AcDb2dVertex
 10
72.239861534499994
 20
75.661244383400003
 30
0.0
  0
VERTEX
  5
111
100
AcDbEntity
  8
0
370
              25
  6
Continuous
 62
               7
100
AcDbVertex
100
AcDb2dVertex
 10
72.191104674899975
 20
75.60500535349999
 30
0.0
  0
VERTEX
  5
112
100
AcDbEntity
  8
0
370
              25
  6
Continuous
 62
               7
100
AcDbVertex
100
AcDb2dVertex
 10
72.122436933400024
 20
75.553753173199993
 30
0.0
  0
VERTEX
  5
113
100
AcDbEntity
  8
0
370
              25
  6
Continuous
 62
               7
100
AcDbVertex
100
AcDb2dVertex
 10
72.036492713600012
 20
75.509456761299987
 30
0.0
  0
SEQEND
  5
114
100
AcDbEntity
  8
0
370
              25
  6
Continuous
 62
               7
  0
LINE
  5
115
100
AcDbEntity
  8
0
370
              25
  6
Continuous
 62
               7
100
AcDbLine
 10
72.036492713600012
 20
75.509456761299987
 30
0.0
 11
71.401378223499989
 21
75.236308055100011
 31
0.0
  0
LINE
  5
116
100
AcDbEntity
  8
0
370
              25
  6
Continuous
 62
               7
100
AcDbLine
 10
71.401378223499989
 20
75.236308055100011
 30
0.0
 11
71.886141108900006
 21
74.935899848899993
 31
0.0
  0
LINE
  5
117
100
AcDbEntity
  8
0
370
              25
  6
Continuous
 62
               7
100
AcDbLine
 10
71.886141108900006
 20
74.935899848899993
 30
0.0
 11
72.521255599100016
 21
75.209048555099997
 31
0.0
  0
ARC
  5
118
100
AcDbEntity
  8
0
370
              25
  6
Continuous
 62
               7
100
AcDbCircle
 10
72.918922147599972
 20
74.283094180799992
 30
0.0
 40
1.0077351770748066
100
AcDbArc
 50
63.969434723300125
 51
113.24191102939922
  0
LINE
  5
119
100
AcDbEntity
  8
0
370
              25
  6
Continuous
 62
               7
100
AcDbLine
 10
73.361167293700021
 20
75.188604764899992
 30
0.0
 11
73.845929614700026
 21
74.888196908400005
 31
0.0
  0
LINE
  5
11A
100
AcDbEntity
  8
0
370
              25
  6
Continuous
 62
               7
100
AcDbLine
 10
73.845929614700026
 20
74.888196908400005
 30
0.0
 11
74.481044104899979
 21
75.161345614499993
 31
0.0
  0
LINE
  5
11B
100
AcDbEntity
  8
0
370
              25
  6
Continuous
 62
               7
100
AcDbLine
 10
74.481044104899979
 20
75.161345614499993
 30
0.0
 11
73.996281783799986
 21
75.461753471000009
 31
0.0
  0
POLYLINE
  5
11C
100
AcDbEntity
  8
0
370
              25
  6
Continuous
 62
               7
100
AcDb2dPolyline
 66
               1
 10
0.0
 20
0.0
 30
0.0
 75
               5
  0
VERTEX
  5
11D
100
AcDbEntity
  8
0
370
              25
  6
Continuous
 62
               7
100
AcDbVertex
100
AcDb2dVertex
 10
73.996281783799986
 20
75.461753471000009
 30
0.0
  0
VERTEX
  5
11E
100
AcDbEntity
  8
0
370
              25
  6
Continuous
 62
               7
100
AcDbVertex
100
AcDb2dVertex
 10
73.934508706500026
 20
75.509646507799999
 30
0.0
  0
VERTEX
  5
11F
100
AcDbEntity
  8
0
370
              25
  6
Continuous
 62
               7
100
AcDbVertex
100
AcDb2dVertex
 10
73.893407417599974
 20
75.563568582599999
 30
0.0
  0
VERTEX
  5
120
100
AcDbEntity
  8
0
370
              25
  6
Continuous
 62
               7
100
AcDbVertex
100
AcDb2dVertex
 10
73.874569499900019
 20
75.621452950800006
 30
0.0
  0
VERTEX
  5
121
100
AcDbEntity
  8
0
370
              25
  6
Continuous
 62
               7
100
AcDbVertex
100
AcDb2dVertex
 10
73.878713289199993
 20
75.681072355999987
 30
0.0
  0
VERTEX
  5
122
100
AcDbEntity
  8
0
370
              25
  6
Continuous
 62
               7
100
AcDbVertex
100
AcDb2dVertex
 10
73.905684833500004
 20
75.740137786199995
 30
0.0
  0
VERTEX
  5
123
100
AcDbEntity
  8
0
370
              25
  6
Continuous
 62
               7
100
AcDbVertex
100
AcDb2dVertex
 10
73.954435213800025
 20
75.796374621899986
 30
0.0
  0
VERTEX
  5
124
100
AcDbEntity
  8
0
370
              25
  6
Continuous
 62
               7
100
AcDbVertex
100
AcDb2dVertex
 10
74.023103519599999
 20
75.847626452500009
 30
0.0
  0
VERTEX
  5
125
100
AcDbEntity
  8
0
370
              25
  6
Continuous
 62
               7
100
AcDbVertex
100
AcDb2dVertex
 10
74.109047739400012
 20
75.891922864399987
 30
0.0
  0
SEQEND
  5
126
100
AcDbEntity
  8
0
370
              25
  6
Continuous
 62
               7
  0
LINE
  5
127
100
AcDbEntity
  8
0
370
              25
  6
Continuous
 62
               7
100
AcDbLine
 10
74.109047739400012
 20
75.891922864399987
 30
0.0
 11
74.744162229499977
 21
76.165071570599991
 31
0.0
  0
LINE
  5
128
100
AcDbEntity
  8
0
370
              25
  6
Continuous
 62
               7
100
AcDbLine
 10
73.668482468600018
 20
75.438401454699999
 30
0.0
 11
73.879647064300002
 21
75.529218680599996
 31
0.0
  0
LINE
  5
129
100
AcDbEntity
  8
0
370
              25
  6
Continuous
 62
               7
100
AcDbLine
 10
72.274271446400007
 20
75.729347364099993
 30
0.0
 11
72.343807888599997
 21
75.75925345120001
 31
0.0
  0
LINE
  5
12A
100
AcDbEntity
  8
0
370
              25
  6
Continuous
 62
               7
100
AcDbLine
 10
72.343807888599997
 20
75.75925345120001
 30
0.0
 11
72.82857133829998
 21
75.45884489529999
 31
0.0
  0
ARC
  5
12B
100
AcDbEntity
  8
0
370
              25
  6
Continuous
 62
               7
100
AcDbCircle
 10
73.270815907600024
 20
76.36435859720001
 30
0.0
 40
1.0077377255422721
100
AcDbArc
 50
243.9695419889994
 51
293.24184957599857
  0
LINE
  5
12C
100
AcDbEntity
  8
0
370
              25
  6
Continuous
 62
               7
100
AcDbLine
 10
72.82857133829998
 20
75.45884489529999
 30
0.0
 11
72.784373723700014
 21
76.212774511100008
 31
0.0
  0
LINE
  5
12D
100
AcDbEntity
  8
0
370
              25
  6
Continuous
 62
               7
100
AcDbLine
 10
73.668482468600018
 20
75.438401454699999
 30
0.0
 11
73.624284853999995
 21
76.192331070600005
 31
0.0
  0
LINE
  5
12E
100
AcDbEntity
  8
0
370
              25
  6
Continuous
 62
               7
100
AcDbLine
 10
74.259399344100018
 20
76.465479776800009
 30
0.0
 11
74.288498648899974
 21
75.969099420100008
 31
0.0
  0
LINE
  5
12F
100
AcDbEntity
  8
0
370
              25
  6
Continuous
 62
               7
100
AcDbLine
 10
72.343807888599997
 20
75.75925345120001
 30
0.0
 11
72.299610273899987
 21
76.513183067
 31
0.0
  0
POLYLINE
  5
130
100
AcDbEntity
  8
0
370
              25
  6
Continuous
 62
               7
100
AcDb2dPolyline
 66
               1
 10
0.0
 20
0.0
 30
0.0
 75
               5
  0
VERTEX
  5
131
100
AcDbEntity
  8
0
370
              25
  6
Continuous
 62
               7
100
AcDbVertex
100
AcDb2dVertex
 10
57.275834724700019
 20
87.990312410799987
 30
0.0
  0
VERTEX
  5
132
100
AcDbEntity
  8
0
370
              25
  6
Continuous
 62
               7
100
AcDbVertex
100
AcDb2dVertex
 10
57.665178242799982
 20
87.6638425047
 30
0.0
  0
VERTEX
  5
133
100
AcDbEntity
  8
0
370
              25
  6
Continuous
 62
               7
100
AcDbVertex
100
AcDb2dVertex
 10
57.865681896900014
 20
87.289816301200005
 30
0.0
  0
VERTEX
  5
134
100
AcDbEntity
  8
0
370
              25
  6
Continuous
 62
               7
100
AcDbVertex
100
AcDb2dVertex
 10
57.863680290899993
 20
86.893722278199988
 30
0.0
  0
VERTEX
  5
135
100
AcDbEntity
  8
0
370
              25
  6
Continuous
 62
               7
100
AcDbVertex
100
AcDb2dVertex
 10
57.659310976200004
 20
86.502554464899987
 30
0.0
  0
VERTEX
  5
136
100
AcDbEntity
  8
0
370
              25
  6
Continuous
 62
               7
100
AcDbVertex
100
AcDb2dVertex
 10
57.266501238099977
 20
86.14297022400001
 30
0.0
  0
VERTEX
  5
137
100
AcDbEntity
  8
0
370
              25
  6
Continuous
 62
               7
100
AcDbVertex
100
AcDb2dVertex
 10
56.712013954899987
 20
85.839472280400003
 30
0.0
  0
VERTEX
  5
138
100
AcDbEntity
  8
0
370
              25
  6
Continuous
 62
               7
100
AcDbVertex
100
AcDb2dVertex
 10
56.033648982800003
 20
85.612747715099999
 30
0.0
  0
VERTEX
  5
139
100
AcDbEntity
  8
0
370
              25
  6
Continuous
 62
               7
100
AcDbVertex
100
AcDb2dVertex
 10
55.277628680600003
 20
85.478245544900005
 30
0.0
  0
VERTEX
  5
13A
100
AcDbEntity
  8
0
370
              25
  6
Continuous
 62
               7
100
AcDbVertex
100
AcDb2dVertex
 10
54.495468945200003
 20
85.44512901600001
 30
0.0
  0
VERTEX
  5
13B
100
AcDbEntity
  8
0
370
              25
  6
Continuous
 62
               7
100
AcDbVertex
100
AcDb2dVertex
 10
53.740483922900012
 20
85.515659819599989
 30
0.0
  0
VERTEX
  5
13C
100
AcDbEntity
  8
0
370
              25
  6
Continuous
 62
               7
100
AcDbVertex
100
AcDb2dVertex
 10
53.064120556700004
 20
85.685029277399991
 30
0.0
  0
VERTEX
  5
13D
100
AcDbEntity
  8
0
370
              25
  6
Continuous
 62
               7
100
AcDbVertex
100
AcDb2dVertex
 10
52.512470133600004
 20
85.941694570700008
 30
0.0
  0
VERTEX
  5
13E
100
AcDbEntity
  8
0
370
              25
  6
Continuous
 62
               7
100
AcDbVertex
100
AcDb2dVertex
 10
52.123126051200018
 20
86.268164826600014
 30
0.0
  0
VERTEX
  5
13F
100
AcDbEntity
  8
0
370
              25
  6
Continuous
 62
               7
100
AcDbVertex
100
AcDb2dVertex
 10
51.922622397099985
 20
86.642191030100008
 30
0.0
  0
VERTEX
  5
140
100
AcDbEntity
  8
0
370
              25
  6
Continuous
 62
               7
100
AcDbVertex
100
AcDb2dVertex
 10
51.924624003100007
 20
87.038285053099997
 30
0.0
  0
VERTEX
  5
141
100
AcDbEntity
  8
0
370
              25
  6
Continuous
 62
               7
100
AcDbVertex
100
AcDb2dVertex
 10
52.128999797099993
 20
87.429455060599992
 30
0.0
  0
VERTEX
  5
142
100
AcDbEntity
  8
0
370
              25
  6
Continuous
 62
               7
100
AcDbVertex
100
AcDb2dVertex
 10
52.52180953520002
 20
87.78903930140001
 30
0.0
  0
VERTEX
  5
143
100
AcDbEntity
  8
0
370
              25
  6
Continuous
 62
               7
100
AcDbVertex
100
AcDb2dVertex
 10
53.076290903399979
 20
88.092534701200009
 30
0.0
  0
VERTEX
  5
144
100
AcDbEntity
  8
0
370
              25
  6
Continuous
 62
               7
100
AcDbVertex
100
AcDb2dVertex
 10
53.754661790499995
 20
88.319261810400008
 30
0.0
  0
VERTEX
  5
145
100
AcDbEntity
  8
0
370
              25
  6
Continuous
 62
               7
100
AcDbVertex
100
AcDb2dVertex
 10
54.510682092699994
 20
88.453763980600002
 30
0.0
  0
VERTEX
  5
146
100
AcDbEntity
  8
0
370
              25
  6
Continuous
 62
               7
100
AcDbVertex
100
AcDb2dVertex
 10
55.292835348799997
 20
88.486878315300004
 30
0.0
  0
VERTEX
  5
147
100
AcDbEntity
  8
0
370
              25
  6
Continuous
 62
               7
100
AcDbVertex
100
AcDb2dVertex
 10
56.047820371099988
 20
88.416347511699996
 30
0.0
  0
VERTEX
  5
148
100
AcDbEntity
  8
0
370
              25
  6
Continuous
 62
               7
100
AcDbVertex
100
AcDb2dVertex
 10
56.724183737299995
 20
88.246978053899994
 30
0.0
  0
VERTEX
  5
149
100
AcDbEntity
  8
0
370
              25
  6
Continuous
 62
               7
100
AcDbVertex
100
AcDb2dVertex
 10
57.275834724700019
 20
87.990312410799987
 30
0.0
  0
SEQEND
  5
14A
100
AcDbEntity
  8
0
370
              25
  6
Continuous
 62
               7
  0
LINE
  5
14B
100
AcDbEntity
  8
0
370
              25
  6
Continuous
 62
               7
100
AcDbLine
 10
56.565544149999994
 20
87.430385423399997
 30
0.0
 11
56.080781264599977
 21
87.730793629599987
 31
0.0
  0
LINE
  5
14C
100
AcDbEntity
  8
0
370
              25
  6
Continuous
 62
               7
100
AcDbLine
 10
56.080781264599977
 20
87.730793629599987
 30
0.0
 11
55.445666774500012
 21
87.457644923400011
 31
0.0
  0
ARC
  5
14D
100
AcDbEntity
  8
0
370
              25
  6
Continuous
 62
               7
100
AcDbCircle
 10
55.048000225900012
 20
88.383599297699988
 30
0.0
 40
1.0077351770751368
100
AcDbArc
 50
243.96943472329846
 51
293.24191102940108
  0
LINE
  5
14E
100
AcDbEntity
  8
0
370
              25
  6
Continuous
 62
               7
100
AcDbLine
 10
54.605755079900007
 20
87.478088713599988
 30
0.0
 11
54.120992758800014
 21
87.778496570100003
 31
0.0
  0
LINE
  5
14F
100
AcDbEntity
  8
0
370
              25
  6
Continuous
 62
               7
100
AcDbLine
 10
54.120992758800014
 20
87.778496570100003
 30
0.0
 11
53.485878268600004
 21
87.505347863999987
 31
0.0
  0
LINE
  5
150
100
AcDbEntity
  8
0
370
              25
  6
Continuous
 62
               7
100
AcDbLine
 10
53.485878268600004
 20
87.505347863999987
 30
0.0
 11
53.970640589699997
 21
87.204940007499999
 31
0.0
  0
POLYLINE
  5
151
100
AcDbEntity
  8
0
370
              25
  6
Continuous
 62
               7
100
AcDb2dPolyline
 66
               1
 10
0.0
 20
0.0
 30
0.0
 75
               5
  0
VERTEX
  5
152
100
AcDbEntity
  8
0
370
              25
  6
Continuous
 62
               7
100
AcDbVertex
100
AcDb2dVertex
 10
53.970640589699997
 20
87.204940007499999
 30
0.0
  0
VERTEX
  5
153
100
AcDbEntity
  8
0
370
              25
  6
Continuous
 62
               7
100
AcDbVertex
100
AcDb2dVertex
 10
54.032419581999989
 20
87.157049514600004
 30
0.0
  0
VERTEX
  5
154
100
AcDbEntity
  8
0
370
              25
  6
Continuous
 62
               7
100
AcDbVertex
100
AcDb2dVertex
 10
54.073514955900009
 20
87.10312489590001
 30
0.0
  0
VERTEX
  5
155
100
AcDbEntity
  8
0
370
              25
  6
Continuous
 62
               7
100
AcDbVertex
100
AcDb2dVertex
 10
54.092352873600021
 20
87.045240527700003
 30
0.0
  0
VERTEX
  5
156
100
AcDbEntity
  8
0
370
              25
  6
Continuous
 62
               7
100
AcDbVertex
100
AcDb2dVertex
 10
54.08820908429999
 20
86.985621122499992
 30
0.0
  0
VERTEX
  5
157
100
AcDbEntity
  8
0
370
              25
  6
Continuous
 62
               7
100
AcDbVertex
100
AcDb2dVertex
 10
54.06124345500001
 20
86.926558236200009
 30
0.0
  0
VERTEX
  5
158
100
AcDbEntity
  8
0
370
              25
  6
Continuous
 62
               7
100
AcDbVertex
100
AcDb2dVertex
 10
54.012487159800003
 20
86.870318856599994
 30
0.0
  0
VERTEX
  5
159
100
AcDbEntity
  8
0
370
              25
  6
Continuous
 62
               7
100
AcDbVertex
100
AcDb2dVertex
 10
53.943818853899984
 20
86.819067025999999
 30
0.0
  0
VERTEX
  5
15A
100
AcDbEntity
  8
0
370
              25
  6
Continuous
 62
               7
100
AcDbVertex
100
AcDb2dVertex
 10
53.857874634100028
 20
86.774770614099992
 30
0.0
  0
SEQEND
  5
15B
100
AcDbEntity
  8
0
370
              25
  6
Continuous
 62
               7
  0
LINE
  5
15C
100
AcDbEntity
  8
0
370
              25
  6
Continuous
 62
               7
100
AcDbLine
 10
53.857874634100028
 20
86.774770614099992
 30
0.0
 11
53.222760144000006
 21
86.501621907899988
 31
0.0
  0
LINE
  5
15D
100
AcDbEntity
  8
0
370
              25
  6
Continuous
 62
               7
100
AcDbLine
 10
53.222760144000006
 20
86.501621907899988
 30
0.0
 11
53.707523029400022
 21
86.201213701699999
 31
0.0
  0
LINE
  5
15E
100
AcDbEntity
  8
0
370
              25
  6
Continuous
 62
               7
100
AcDbLine
 10
53.707523029400022
 20
86.201213701699999
 30
0.0
 11
54.342637519499988
 21
86.474362407900003
 31
0.0
  0
ARC
  5
15F
100
AcDbEntity
  8
0
370
              25
  6
Continuous
 62
               7
100
AcDbCircle
 10
54.740304080600026
 20
85.548405265399992
 30
0.0
 40
1.0077377255424502
100
AcDbArc
 50
63.96954198900076
 51
113.24184957600006
  0
LINE
  5
160
100
AcDbEntity
  8
0
370
              25
  6
Continuous
 62
               7
100
AcDbLine
 10
55.182548649800026
 20
86.4539189674
 30
0.0
 11
55.667312099599997
 21
86.153510411500008
 31
0.0
  0
LINE
  5
161
100
AcDbEntity
  8
0
370
              25
  6
Continuous
 62
               7
100
AcDbLine
 10
55.667312099599997
 20
86.153510411500008
 30
0.0
 11
56.302426589700019
 21
86.426659117599996
 31
0.0
  0
LINE
  5
162
100
AcDbEntity
  8
0
370
              25
  6
Continuous
 62
               7
100
AcDbLine
 10
56.302426589700019
 20
86.426659117599996
 30
0.0
 11
55.817663139899992
 21
86.727067673499988
 31
0.0
  0
POLYLINE
  5
163
100
AcDbEntity
  8
0
370
              25
  6
Continuous
 62
               7
100
AcDb2dPolyline
 66
               1
 10
0.0
 20
0.0
 30
0.0
 75
               5
  0
VERTEX
  5
164
100
AcDbEntity
  8
0
370
              25
  6
Continuous
 62
               7
100
AcDbVertex
100
AcDb2dVertex
 10
55.817663139899992
 20
86.727067673499988
 30
0.0
  0
VERTEX
  5
165
100
AcDbEntity
  8
0
370
              25
  6
Continuous
 62
               7
100
AcDbVertex
100
AcDb2dVertex
 10
55.755890062599974
 20
86.774960710300007
 30
0.0
  0
VERTEX
  5
166
100
AcDbEntity
  8
0
370
              25
  6
Continuous
 62
               7
100
AcDbVertex
100
AcDb2dVertex
 10
55.71478933809999
 20
86.828882435400004
 30
0.0
  0
VERTEX
  5
167
100
AcDbEntity
  8
0
370
              25
  6
Continuous
 62
               7
100
AcDbVertex
100
AcDb2dVertex
 10
55.695951420399979
 20
86.886766803600011
 30
0.0
  0
VERTEX
  5
168
100
AcDbEntity
  8
0
370
              25
  6
Continuous
 62
               7
100
AcDbVertex
100
AcDb2dVertex
 10
55.700095209700009
 20
86.946386208799993
 30
0.0
  0
VERTEX
  5
169
100
AcDbEntity
  8
0
370
              25
  6
Continuous
 62
               7
100
AcDbVertex
100
AcDb2dVertex
 10
55.727066753899976
 20
87.005451639
 30
0.0
  0
VERTEX
  5
16A
100
AcDbEntity
  8
0
370
              25
  6
Continuous
 62
               7
100
AcDbVertex
100
AcDb2dVertex
 10
55.775817698600008
 20
87.061688124999989
 30
0.0
  0
VERTEX
  5
16B
100
AcDbEntity
  8
0
370
              25
  6
Continuous
 62
               7
100
AcDbVertex
100
AcDb2dVertex
 10
55.844485440100016
 20
87.112940305299986
 30
0.0
  0
VERTEX
  5
16C
100
AcDbEntity
  8
0
370
              25
  6
Continuous
 62
               7
100
AcDbVertex
100
AcDb2dVertex
 10
55.930429659900028
 20
87.157236717199993
 30
0.0
  0
SEQEND
  5
16D
100
AcDbEntity
  8
0
370
              25
  6
Continuous
 62
               7
  0
LINE
  5
16E
100
AcDbEntity
  8
0
370
              25
  6
Continuous
 62
               7
100
AcDbLine
 10
55.930429659900028
 20
87.157236717199993
 30
0.0
 11
56.565544149999994
 21
87.430385423399997
 31
0.0
  0
LINE
  5
16F
100
AcDbEntity
  8
0
370
              25
  6
Continuous
 62
               7
100
AcDbLine
 10
55.489864389099978
 20
86.703715307500005
 30
0.0
 11
55.701028984800018
 21
86.794532533400002
 31
0.0
  0
LINE
  5
170
100
AcDbEntity
  8
0
370
              25
  6
Continuous
 62
               7
100
AcDbLine
 10
54.09565393119999
 20
86.994660867199997
 30
0.0
 11
54.16519037339998
 21
87.024566954300013
 31
0.0
  0
LINE
  5
171
100
AcDbEntity
  8
0
370
              25
  6
Continuous
 62
               7
100
AcDbLine
 10
54.16519037339998
 20
87.024566954300013
 30
0.0
 11
54.649952694499973
 21
86.724159097799998
 31
0.0
  0
ARC
  5
172
100
AcDbEntity
  8
0
370
              25
  6
Continuous
 62
               7
100
AcDbCircle
 10
55.092197840600022
 20
87.629669681899998
 30
0.0
 40
1.0077351770749847
100
AcDbArc
 50
243.96943472330148
 51
293.24191102940131
  0
LINE
  5
173
100
AcDbEntity
  8
0
370
              25
  6
Continuous
 62
               7
100
AcDbLine
 10
54.649952694499973
 20
86.724159097799998
 30
0.0
 11
54.605755079900007
 21
87.478088713599988
 31
0.0
  0
LINE
  5
174
100
AcDbEntity
  8
0
370
              25
  6
Continuous
 62
               7
100
AcDbLine
 10
55.489864389099978
 20
86.703715307500005
 30
0.0
 11
55.445666774500012
 21
87.457644923400011
 31
0.0
  0
LINE
  5
175
100
AcDbEntity
  8
0
370
              25
  6
Continuous
 62
               7
100
AcDbLine
 10
56.080781264599977
 20
87.730793629599987
 30
0.0
 11
56.109880569399991
 21
87.234413272900014
 31
0.0
  0
LINE
  5
176
100
AcDbEntity
  8
0
370
              25
  6
Continuous
 62
               7
100
AcDbLine
 10
54.16519037339998
 20
87.024566954300013
 30
0.0
 11
54.120992758800014
 21
87.778496570100003
 31
0.0
  0
POLYLINE
  5
177
100
AcDbEntity
  8
0
370
              25
  6
Continuous
 62
               7
100
AcDb2dPolyline
 66
               1
 10
0.0
 20
0.0
 30
0.0
 75
               5
  0
VERTEX
  5
178
100
AcDbEntity
  8
0
370
              25
  6
Continuous
 62
               7
100
AcDbVertex
100
AcDb2dVertex
 10
-63.477076120899994
 20
16.973618951600002
 30
0.0
  0
VERTEX
  5
179
100
AcDbEntity
  8
0
370
              25
  6
Continuous
 62
               7
100
AcDbVertex
100
AcDb2dVertex
 10
-63.087732038500008
 20
16.647148695699997
 30
0.0
  0
VERTEX
  5
17A
100
AcDbEntity
  8
0
370
              25
  6
Continuous
 62
               7
100
AcDbVertex
100
AcDb2dVertex
 10
-62.887228384400004
 20
16.27312249229999
 30
0.0
  0
VERTEX
  5
17B
100
AcDbEntity
  8
0
370
              25
  6
Continuous
 62
               7
100
AcDbVertex
100
AcDb2dVertex
 10
-62.889229990399997
 20
15.877028469300001
 30
0.0
  0
VERTEX
  5
17C
100
AcDbEntity
  8
0
370
              25
  6
Continuous
 62
               7
100
AcDbVertex
100
AcDb2dVertex
 10
-63.093605784400012
 20
15.485858461800007
 30
0.0
  0
VERTEX
  5
17D
100
AcDbEntity
  8
0
370
              25
  6
Continuous
 62
               7
100
AcDbVertex
100
AcDb2dVertex
 10
-63.48641552250001
 20
15.126274220900001
 30
0.0
  0
VERTEX
  5
17E
100
AcDbEntity
  8
0
370
              25
  6
Continuous
 62
               7
100
AcDbVertex
100
AcDb2dVertex
 10
-64.040896890699997
 20
14.822778821199989
 30
0.0
  0
VERTEX
  5
17F
100
AcDbEntity
  8
0
370
              25
  6
Continuous
 62
               7
100
AcDbVertex
100
AcDb2dVertex
 10
-64.719267777800013
 20
14.596051711999991
 30
0.0
  0
VERTEX
  5
180
100
AcDbEntity
  8
0
370
              25
  6
Continuous
 62
               7
100
AcDbVertex
100
AcDb2dVertex
 10
-65.475288080000013
 20
14.461549541799997
 30
0.0
  0
VERTEX
  5
181
100
AcDbEntity
  8
0
370
              25
  6
Continuous
 62
               7
100
AcDbVertex
100
AcDb2dVertex
 10
-66.257441336099987
 20
14.428435207099994
 30
0.0
  0
VERTEX
  5
182
100
AcDbEntity
  8
0
370
              25
  6
Continuous
 62
               7
100
AcDbVertex
100
AcDb2dVertex
 10
-67.012426358400006
 20
14.498966010700002
 30
0.0
  0
VERTEX
  5
183
100
AcDbEntity
  8
0
370
              25
  6
Continuous
 62
               7
100
AcDbVertex
100
AcDb2dVertex
 10
-67.688789724600014
 20
14.668335468500004
 30
0.0
  0
VERTEX
  5
184
100
AcDbEntity
  8
0
370
              25
  6
Continuous
 62
               7
100
AcDbVertex
100
AcDb2dVertex
 10
-68.240440712000009
 20
14.925001111499995
 30
0.0
  0
VERTEX
  5
185
100
AcDbEntity
  8
0
370
              25
  6
Continuous
 62
               7
100
AcDbVertex
100
AcDb2dVertex
 10
-68.6297842301
 20
15.251471017699998
 30
0.0
  0
VERTEX
  5
186
100
AcDbEntity
  8
0
370
              25
  6
Continuous
 62
               7
100
AcDbVertex
100
AcDb2dVertex
 10
-68.830287884200004
 20
15.625497221100005
 30
0.0
  0
VERTEX
  5
187
100
AcDbEntity
  8
0
370
              25
  6
Continuous
 62
               7
100
AcDbVertex
100
AcDb2dVertex
 10
-68.828286278200011
 20
16.02159124420001
 30
0.0
  0
VERTEX
  5
188
100
AcDbEntity
  8
0
370
              25
  6
Continuous
 62
               7
100
AcDbVertex
100
AcDb2dVertex
 10
-68.623916963499994
 20
16.412759057399995
 30
0.0
  0
VERTEX
  5
189
100
AcDbEntity
  8
0
370
              25
  6
Continuous
 62
               7
100
AcDbVertex
100
AcDb2dVertex
 10
-68.231107225399995
 20
16.772343298300001
 30
0.0
  0
VERTEX
  5
18A
100
AcDbEntity
  8
0
370
              25
  6
Continuous
 62
               7
100
AcDbVertex
100
AcDb2dVertex
 10
-67.676619942200006
 20
17.075841241999996
 30
0.0
  0
VERTEX
  5
18B
100
AcDbEntity
  8
0
370
              25
  6
Continuous
 62
               7
100
AcDbVertex
100
AcDb2dVertex
 10
-66.998254970099993
 20
17.302565807299999
 30
0.0
  0
VERTEX
  5
18C
100
AcDbEntity
  8
0
370
              25
  6
Continuous
 62
               7
100
AcDbVertex
100
AcDb2dVertex
 10
-66.242234667899993
 20
17.437067977499993
 30
0.0
  0
VERTEX
  5
18D
100
AcDbEntity
  8
0
370
              25
  6
Continuous
 62
               7
100
AcDbVertex
100
AcDb2dVertex
 10
-65.460074932499992
 20
17.470184506399988
 30
0.0
  0
VERTEX
  5
18E
100
AcDbEntity
  8
0
370
              25
  6
Continuous
 62
               7
100
AcDbVertex
100
AcDb2dVertex
 10
-64.705089910200002
 20
17.399653702699993
 30
0.0
  0
VERTEX
  5
18F
100
AcDbEntity
  8
0
370
              25
  6
Continuous
 62
               7
100
AcDbVertex
100
AcDb2dVertex
 10
-64.028726543999994
 20
17.230284245000007
 30
0.0
  0
VERTEX
  5
190
100
AcDbEntity
  8
0
370
              25
  6
Continuous
 62
               7
100
AcDbVertex
100
AcDb2dVertex
 10
-63.477076120899994
 20
16.973618951600002
 30
0.0
  0
SEQEND
  5
191
100
AcDbEntity
  8
0
370
              25
  6
Continuous
 62
               7
  0
LINE
  5
192
100
AcDbEntity
  8
0
370
              25
  6
Continuous
 62
               7
100
AcDbLine
 10
-64.187366131299996
 20
16.413691614399994
 30
0.0
 11
-64.672129016700012
 21
16.714099820600012
 31
0.0
  0
LINE
  5
193
100
AcDbEntity
  8
0
370
              25
  6
Continuous
 62
               7
100
AcDbLine
 10
-64.672129016700012
 20
16.714099820600012
 30
0.0
 11
-65.307243506800006
 21
16.440951114499995
 31
0.0
  0
ARC
  5
194
100
AcDbEntity
  8
0
370
              25
  6
Continuous
 62
               7
100
AcDbCircle
 10
-65.704910067899988
 20
17.366908257000006
 30
0.0
 40
1.0077377255421449
100
AcDbArc
 50
243.96954198899948
 51
293.24184957599965
  0
LINE
  5
195
100
AcDbEntity
  8
0
370
              25
  6
Continuous
 62
               7
100
AcDbLine
 10
-66.147154637099987
 20
16.461394554999998
 30
0.0
 11
-66.631918086899987
 21
16.76180311089999
 31
0.0
  0
LINE
  5
196
100
AcDbEntity
  8
0
370
              25
  6
Continuous
 62
               7
100
AcDbLine
 10
-66.631918086899987
 20
16.76180311089999
 30
0.0
 11
-67.267032577000009
 21
16.488654404699986
 31
0.0
  0
LINE
  5
197
100
AcDbEntity
  8
0
370
              25
  6
Continuous
 62
               7
100
AcDbLine
 10
-67.267032577000009
 20
16.488654404699986
 30
0.0
 11
-66.78226912720001
 21
16.188245848799994
 31
0.0
  0
POLYLINE
  5
198
100
AcDbEntity
  8
0
370
              25
  6
Continuous
 62
               7
100
AcDb2dPolyline
 66
               1
 10
0.0
 20
0.0
 30
0.0
 75
               5
  0
VERTEX
  5
199
100
AcDbEntity
  8
0
370
              25
  6
Continuous
 62
               7
100
AcDbVertex
100
AcDb2dVertex
 10
-66.78226912720001
 20
16.188245848799994
 30
0.0
  0
VERTEX
  5
19A
100
AcDbEntity
  8
0
370
              25
  6
Continuous
 62
               7
100
AcDbVertex
100
AcDb2dVertex
 10
-66.720496049899992
 20
16.140352812099991
 30
0.0
  0
VERTEX
  5
19B
100
AcDbEntity
  8
0
370
              25
  6
Continuous
 62
               7
100
AcDbVertex
100
AcDb2dVertex
 10
-66.679395325400009
 20
16.086431086999994
 30
0.0
  0
VERTEX
  5
19C
100
AcDbEntity
  8
0
370
              25
  6
Continuous
 62
               7
100
AcDbVertex
100
AcDb2dVertex
 10
-66.660557407699997
 20
16.028546718799987
 30
0.0
  0
VERTEX
  5
19D
100
AcDbEntity
  8
0
370
              25
  6
Continuous
 62
               7
100
AcDbVertex
100
AcDb2dVertex
 10
-66.664701196999999
 20
15.968927313499989
 30
0.0
  0
VERTEX
  5
19E
100
AcDbEntity
  8
0
370
              25
  6
Continuous
 62
               7
100
AcDbVertex
100
AcDb2dVertex
 10
-66.691672741199994
 20
15.909861883399998
 30
0.0
  0
VERTEX
  5
19F
100
AcDbEntity
  8
0
370
              25
  6
Continuous
 62
               7
100
AcDbVertex
100
AcDb2dVertex
 10
-66.740423685899998
 20
15.853625397400009
 30
0.0
  0
VERTEX
  5
1A0
100
AcDbEntity
  8
0
370
              25
  6
Continuous
 62
               7
100
AcDbVertex
100
AcDb2dVertex
 10
-66.809091427400006
 20
15.802373216999996
 30
0.0
  0
VERTEX
  5
1A1
100
AcDbEntity
  8
0
370
              25
  6
Continuous
 62
               7
100
AcDbVertex
100
AcDb2dVertex
 10
-66.89503564719999
 20
15.758076805200005
 30
0.0
  0
SEQEND
  5
1A2
100
AcDbEntity
  8
0
370
              25
  6
Continuous
 62
               7
  0
LINE
  5
1A3
100
AcDbEntity
  8
0
370
              25
  6
Continuous
 62
               7
100
AcDbLine
 10
-66.89503564719999
 20
15.758076805200005
 30
0.0
 11
-67.530150137300012
 21
15.484928099000001
 31
0.0
  0
LINE
  5
1A4
100
AcDbEntity
  8
0
370
              25
  6
Continuous
 62
               7
100
AcDbLine
 10
-67.530150137300012
 20
15.484928099000001
 30
0.0
 11
-67.045387251899996
 21
15.184519892800012
 31
0.0
  0
LINE
  5
1A5
100
AcDbEntity
  8
0
370
              25
  6
Continuous
 62
               7
100
AcDbLine
 10
-67.045387251899996
 20
15.184519892800012
 30
0.0
 11
-66.410272761700014
 21
15.457668598999987
 31
0.0
  0
ARC
  5
1A6
100
AcDbEntity
  8
0
370
              25
  6
Continuous
 62
               7
100
AcDbCircle
 10
-66.012606213200002
 20
14.531714224599995
 30
0.0
 40
1.0077351770748322
100
AcDbArc
 50
63.969434723300836
 51
113.24191102940007
  0
LINE
  5
1A7
100
AcDbEntity
  8
0
370
              25
  6
Continuous
 62
               7
100
AcDbLine
 10
-65.570361067199997
 20
15.437224808699995
 30
0.0
 11
-65.085598746100004
 21
15.136816952200007
 31
0.0
  0
LINE
  5
1A8
100
AcDbEntity
  8
0
370
              25
  6
Continuous
 62
               7
100
AcDbLine
 10
-65.085598746100004
 20
15.136816952200007
 30
0.0
 11
-64.450484255899994
 21
15.409965658400012
 31
0.0
  0
LINE
  5
1A9
100
AcDbEntity
  8
0
370
              25
  6
Continuous
 62
               7
100
AcDbLine
 10
-64.450484255899994
 20
15.409965658400012
 30
0.0
 11
-64.935246576999987
 21
15.710373514899999
 31
0.0
  0
POLYLINE
  5
1AA
100
AcDbEntity
  8
0
370
              25
  6
Continuous
 62
               7
100
AcDb2dPolyline
 66
               1
 10
0.0
 20
0.0
 30
0.0
 75
               5
  0
VERTEX
  5
1AB
100
AcDbEntity
  8
0
370
              25
  6
Continuous
 62
               7
100
AcDbVertex
100
AcDb2dVertex
 10
-64.935246576999987
 20
15.710373514899999
 30
0.0
  0
VERTEX
  5
1AC
100
AcDbEntity
  8
0
370
              25
  6
Continuous
 62
               7
100
AcDbVertex
100
AcDb2dVertex
 10
-64.997025569300007
 20
15.758264007700006
 30
0.0
  0
VERTEX
  5
1AD
100
AcDbEntity
  8
0
370
              25
  6
Continuous
 62
               7
100
AcDbVertex
100
AcDb2dVertex
 10
-65.038120943199999
 20
15.812188626400001
 30
0.0
  0
VERTEX
  5
1AE
100
AcDbEntity
  8
0
370
              25
  6
Continuous
 62
               7
100
AcDbVertex
100
AcDb2dVertex
 10
-65.056958860900011
 20
15.870072994699996
 30
0.0
  0
VERTEX
  5
1AF
100
AcDbEntity
  8
0
370
              25
  6
Continuous
 62
               7
100
AcDbVertex
100
AcDb2dVertex
 10
-65.052815071600008
 20
15.929692399900006
 30
0.0
  0
VERTEX
  5
1B0
100
AcDbEntity
  8
0
370
              25
  6
Continuous
 62
               7
100
AcDbVertex
100
AcDb2dVertex
 10
-65.0258494423
 20
15.988755286100002
 30
0.0
  0
VERTEX
  5
1B1
100
AcDbEntity
  8
0
370
              25
  6
Continuous
 62
               7
100
AcDbVertex
100
AcDb2dVertex
 10
-64.977093147099993
 20
16.044994665800004
 30
0.0
  0
VERTEX
  5
1B2
100
AcDbEntity
  8
0
370
              25
  6
Continuous
 62
               7
100
AcDbVertex
100
AcDb2dVertex
 10
-64.908424841200002
 20
16.096246496399999
 30
0.0
  0
VERTEX
  5
1B3
100
AcDbEntity
  8
0
370
              25
  6
Continuous
 62
               7
100
AcDbVertex
100
AcDb2dVertex
 10
-64.82248062139999
 20
16.140542908300006
 30
0.0
  0
SEQEND
  5
1B4
100
AcDbEntity
  8
0
370
              25
  6
Continuous
 62
               7
  0
LINE
  5
1B5
100
AcDbEntity
  8
0
370
              25
  6
Continuous
 62
               7
100
AcDbLine
 10
-64.82248062139999
 20
16.140542908300006
 30
0.0
 11
-64.187366131299996
 21
16.413691614399994
 31
0.0
  0
LINE
  5
1B6
100
AcDbEntity
  8
0
370
              25
  6
Continuous
 62
               7
100
AcDbLine
 10
-65.263045892200012
 20
15.687021498599989
 30
0.0
 11
-65.051887211500002
 21
15.777836180599991
 31
0.0
  0
LINE
  5
1B7
100
AcDbEntity
  8
0
370
              25
  6
Continuous
 62
               7
100
AcDbLine
 10
-66.657262829399997
 20
15.977964864099988
 30
0.0
 11
-66.587720472200004
 21
16.007873495000013
 31
0.0
  0
LINE
  5
1B8
100
AcDbEntity
  8
0
370
              25
  6
Continuous
 62
               7
100
AcDbLine
 10
-66.587720472200004
 20
16.007873495000013
 30
0.0
 11
-66.102957022499993
 21
15.707464939099992
 31
0.0
  0
ARC
  5
1B9
100
AcDbEntity
  8
0
370
              25
  6
Continuous
 62
               7
100
AcDbCircle
 10
-65.660712453200006
 20
16.6129786411
 30
0.0
 40
1.0077377255421069
100
AcDbArc
 50
243.96954198900022
 51
293.24184957600028
  0
LINE
  5
1BA
100
AcDbEntity
  8
0
370
              25
  6
Continuous
 62
               7
100
AcDbLine
 10
-66.102957022499993
 20
15.707464939099992
 30
0.0
 11
-66.147154637099987
 21
16.461394554999998
 31
0.0
  0
LINE
  5
1BB
100
AcDbEntity
  8
0
370
              25
  6
Continuous
 62
               7
100
AcDbLine
 10
-65.263045892200012
 20
15.687021498599989
 30
0.0
 11
-65.307243506800006
 21
16.440951114499995
 31
0.0
  0
LINE
  5
1BC
100
AcDbEntity
  8
0
370
              25
  6
Continuous
 62
               7
100
AcDbLine
 10
-64.672129016700012
 20
16.714099820600012
 30
0.0
 11
-64.643029711899999
 21
16.217719463999998
 31
0.0
  0
LINE
  5
1BD
100
AcDbEntity
  8
0
370
              25
  6
Continuous
 62
               7
100
AcDbLine
 10
-66.587720472200004
 20
16.007873495000013
 30
0.0
 11
-66.631918086899987
 21
16.76180311089999
 31
0.0
  0
POLYLINE
  5
1BE
100
AcDbEntity
  8
0
370
              25
  6
Continuous
 62
               7
100
AcDb2dPolyline
 66
               1
 10
0.0
 20
0.0
 30
0.0
 75
               5
  0
VERTEX
  5
1BF
100
AcDbEntity
  8
0
370
              25
  6
Continuous
 62
               7
100
AcDbVertex
100
AcDb2dVertex
 10
-81.655693636100011
 20
28.238932454700006
 30
0.0
  0
VERTEX
  5
1C0
100
AcDbEntity
  8
0
370
              25
  6
Continuous
 62
               7
100
AcDbVertex
100
AcDb2dVertex
 10
-81.266350117999991
 20
27.912462548500002
 30
0.0
  0
VERTEX
  5
1C1
100
AcDbEntity
  8
0
370
              25
  6
Continuous
 62
               7
100
AcDbVertex
100
AcDb2dVertex
 10
-81.065846463899987
 20
27.538436345099996
 30
0.0
  0
VERTEX
  5
1C2
100
AcDbEntity
  8
0
370
              25
  6
Continuous
 62
               7
100
AcDbVertex
100
AcDb2dVertex
 10
-81.067848069900009
 20
27.142342322100006
 30
0.0
  0
VERTEX
  5
1C3
100
AcDbEntity
  8
0
370
              25
  6
Continuous
 62
               7
100
AcDbVertex
100
AcDb2dVertex
 10
-81.2722232996
 20
26.75117196490001
 30
0.0
  0
VERTEX
  5
1C4
100
AcDbEntity
  8
0
370
              25
  6
Continuous
 62
               7
100
AcDbVertex
100
AcDb2dVertex
 10
-81.665033037600011
 20
26.391587724000004
 30
0.0
  0
VERTEX
  5
1C5
100
AcDbEntity
  8
0
370
              25
  6
Continuous
 62
               7
100
AcDbVertex
100
AcDb2dVertex
 10
-82.2195144059
 20
26.088092324200005
 30
0.0
  0
VERTEX
  5
1C6
100
AcDbEntity
  8
0
370
              25
  6
Continuous
 62
               7
100
AcDbVertex
100
AcDb2dVertex
 10
-82.897885293000002
 20
25.861365215099994
 30
0.0
  0
VERTEX
  5
1C7
100
AcDbEntity
  8
0
370
              25
  6
Continuous
 62
               7
100
AcDbVertex
100
AcDb2dVertex
 10
-83.653905595099999
 20
25.726863044800012
 30
0.0
  0
VERTEX
  5
1C8
100
AcDbEntity
  8
0
370
              25
  6
Continuous
 62
               7
100
AcDbVertex
100
AcDb2dVertex
 10
-84.436059415599999
 20
25.6937490599
 30
0.0
  0
VERTEX
  5
1C9
100
AcDbEntity
  8
0
370
              25
  6
Continuous
 62
               7
100
AcDbVertex
100
AcDb2dVertex
 10
-85.191044437900004
 20
25.764279863500008
 30
0.0
  0
VERTEX
  5
1CA
100
AcDbEntity
  8
0
370
              25
  6
Continuous
 62
               7
100
AcDbVertex
100
AcDb2dVertex
 10
-85.867407804099997
 20
25.93364932130001
 30
0.0
  0
VERTEX
  5
1CB
100
AcDbEntity
  8
0
370
              25
  6
Continuous
 62
               7
100
AcDbVertex
100
AcDb2dVertex
 10
-86.419058227199997
 20
26.190314614599998
 30
0.0
  0
VERTEX
  5
1CC
100
AcDbEntity
  8
0
370
              25
  6
Continuous
 62
               7
100
AcDbVertex
100
AcDb2dVertex
 10
-86.808402309599998
 20
26.516784870500004
 30
0.0
  0
VERTEX
  5
1CD
100
AcDbEntity
  8
0
370
              25
  6
Continuous
 62
               7
100
AcDbVertex
100
AcDb2dVertex
 10
-87.008905963700002
 20
26.890811073900011
 30
0.0
  0
VERTEX
  5
1CE
100
AcDbEntity
  8
0
370
              25
  6
Continuous
 62
               7
100
AcDbVertex
100
AcDb2dVertex
 10
-87.006904357699995
 20
27.286905096999988
 30
0.0
  0
VERTEX
  5
1CF
100
AcDbEntity
  8
0
370
              25
  6
Continuous
 62
               7
100
AcDbVertex
100
AcDb2dVertex
 10
-86.802534478599995
 20
27.678072560499999
 30
0.0
  0
VERTEX
  5
1D0
100
AcDbEntity
  8
0
370
              25
  6
Continuous
 62
               7
100
AcDbVertex
100
AcDb2dVertex
 10
-86.409724740599998
 20
28.037656801400004
 30
0.0
  0
VERTEX
  5
1D1
100
AcDbEntity
  8
0
370
              25
  6
Continuous
 62
               7
100
AcDbVertex
100
AcDb2dVertex
 10
-85.855237457399994
 20
28.341154745099999
 30
0.0
  0
VERTEX
  5
1D2
100
AcDbEntity
  8
0
370
              25
  6
Continuous
 62
               7
100
AcDbVertex
100
AcDb2dVertex
 10
-85.176872485299995
 20
28.567879310400002
 30
0.0
  0
VERTEX
  5
1D3
100
AcDbEntity
  8
0
370
              25
  6
Continuous
 62
               7
100
AcDbVertex
100
AcDb2dVertex
 10
-84.420852183099996
 20
28.702381480599996
 30
0.0
  0
VERTEX
  5
1D4
100
AcDbEntity
  8
0
370
              25
  6
Continuous
 62
               7
100
AcDbVertex
100
AcDb2dVertex
 10
-83.638693012000005
 20
28.735498359199994
 30
0.0
  0
VERTEX
  5
1D5
100
AcDbEntity
  8
0
370
              25
  6
Continuous
 62
               7
100
AcDbVertex
100
AcDb2dVertex
 10
-82.8837079897
 20
28.664967555499999
 30
0.0
  0
VERTEX
  5
1D6
100
AcDbEntity
  8
0
370
              25
  6
Continuous
 62
               7
100
AcDbVertex
100
AcDb2dVertex
 10
-82.207344623500006
 20
28.495598097800013
 30
0.0
  0
VERTEX
  5
1D7
100
AcDbEntity
  8
0
370
              25
  6
Continuous
 62
               7
100
AcDbVertex
100
AcDb2dVertex
 10
-81.655693636100011
 20
28.238932454700006
 30
0.0
  0
SEQEND
  5
1D8
100
AcDbEntity
  8
0
370
              25
  6
Continuous
 62
               7
  0
LINE
  5
1D9
100
AcDbEntity
  8
0
370
              25
  6
Continuous
 62
               7
100
AcDbLine
 10
-82.365984210799994
 20
27.6790054672
 30
0.0
 11
-82.850747096199996
 21
27.979413673399989
 31
0.0
  0
LINE
  5
1DA
100
AcDbEntity
  8
0
370
              25
  6
Continuous
 62
               7
100
AcDbLine
 10
-82.850747096199996
 20
27.979413673399989
 30
0.0
 11
-83.485861586400006
 21
27.706264967300001
 31
0.0
  0
ARC
  5
1DB
100
AcDbEntity
  8
0
370
              25
  6
Continuous
 62
               7
100
AcDbCircle
 10
-83.883528134900004
 20
28.632219341600006
 30
0.0
 40
1.0077351770749972
100
AcDbArc
 50
243.9694347233
 51
293.24191102939983
  0
LINE
  5
1DC
100
AcDbEntity
  8
0
370
              25
  6
Continuous
 62
               7
100
AcDbLine
 10
-84.325773280899995
 20
27.726708757500006
 30
0.0
 11
-84.810535602000002
 21
28.027116613999993
 31
0.0
  0
LINE
  5
1DD
100
AcDbEntity
  8
0
370
              25
  6
Continuous
 62
               7
100
AcDbLine
 10
-84.810535602000002
 20
28.027116613999993
 30
0.0
 11
-85.445650092199998
 21
27.753967907799989
 31
0.0
  0
LINE
  5
1DE
100
AcDbEntity
  8
0
370
              25
  6
Continuous
 62
               7
100
AcDbLine
 10
-85.445650092199998
 20
27.753967907799989
 30
0.0
 11
-84.960887771100005
 21
27.453560051300002
 31
0.0
  0
POLYLINE
  5
1DF
100
AcDbEntity
  8
0
370
              25
  6
Continuous
 62
               7
100
AcDb2dPolyline
 66
               1
 10
0.0
 20
0.0
 30
0.0
 75
               5
  0
VERTEX
  5
1E0
100
AcDbEntity
  8
0
370
              25
  6
Continuous
 62
               7
100
AcDbVertex
100
AcDb2dVertex
 10
-84.960887771100005
 20
27.453560051300002
 30
0.0
  0
VERTEX
  5
1E1
100
AcDbEntity
  8
0
370
              25
  6
Continuous
 62
               7
100
AcDbVertex
100
AcDb2dVertex
 10
-84.899114693800001
 20
27.405667014599999
 30
0.0
  0
VERTEX
  5
1E2
100
AcDbEntity
  8
0
370
              25
  6
Continuous
 62
               7
100
AcDbVertex
100
AcDb2dVertex
 10
-84.858013404900007
 20
27.3517449398
 30
0.0
  0
VERTEX
  5
1E3
100
AcDbEntity
  8
0
370
              25
  6
Continuous
 62
               7
100
AcDbVertex
100
AcDb2dVertex
 10
-84.839175487199995
 20
27.293860571599993
 30
0.0
  0
VERTEX
  5
1E4
100
AcDbEntity
  8
0
370
              25
  6
Continuous
 62
               7
100
AcDbVertex
100
AcDb2dVertex
 10
-84.843319276499997
 20
27.234241166299995
 30
0.0
  0
VERTEX
  5
1E5
100
AcDbEntity
  8
0
370
              25
  6
Continuous
 62
               7
100
AcDbVertex
100
AcDb2dVertex
 10
-84.870290820700006
 20
27.175175736200003
 30
0.0
  0
VERTEX
  5
1E6
100
AcDbEntity
  8
0
370
              25
  6
Continuous
 62
               7
100
AcDbVertex
100
AcDb2dVertex
 10
-84.919041200999999
 20
27.118938900399996
 30
0.0
  0
VERTEX
  5
1E7
100
AcDbEntity
  8
0
370
              25
  6
Continuous
 62
               7
100
AcDbVertex
100
AcDb2dVertex
 10
-84.987709506900003
 20
27.067687069800002
 30
0.0
  0
VERTEX
  5
1E8
100
AcDbEntity
  8
0
370
              25
  6
Continuous
 62
               7
100
AcDbVertex
100
AcDb2dVertex
 10
-85.073653726700002
 20
27.023390658000011
 30
0.0
  0
SEQEND
  5
1E9
100
AcDbEntity
  8
0
370
              25
  6
Continuous
 62
               7
  0
LINE
  5
1EA
100
AcDbEntity
  8
0
370
              25
  6
Continuous
 62
               7
100
AcDbLine
 10
-85.073653726700002
 20
27.023390658000011
 30
0.0
 11
-85.708768216799996
 21
26.750241951800007
 31
0.0
  0
LINE
  5
1EB
100
AcDbEntity
  8
0
370
              25
  6
Continuous
 62
               7
100
AcDbLine
 10
-85.708768216799996
 20
26.750241951800007
 30
0.0
 11
-85.224005331399994
 21
26.449833745599989
 31
0.0
  0
LINE
  5
1EC
100
AcDbEntity
  8
0
370
              25
  6
Continuous
 62
               7
100
AcDbLine
 10
-85.224005331399994
 20
26.449833745599989
 30
0.0
 11
-84.5888908413
 21
26.722982451799993
 31
0.0
  0
ARC
  5
1ED
100
AcDbEntity
  8
0
370
              25
  6
Continuous
 62
               7
100
AcDbCircle
 10
-84.191224280200004
 20
25.797025309300011
 30
0.0
 40
1.0077377255420752
100
AcDbArc
 50
63.969541989000241
 51
113.24184957600021
  0
LINE
  5
1EE
100
AcDbEntity
  8
0
370
              25
  6
Continuous
 62
               7
100
AcDbLine
 10
-83.748979711000004
 20
26.702539011200003
 30
0.0
 11
-83.264216261200005
 21
26.402130455300011
 31
0.0
  0
LINE
  5
1EF
100
AcDbEntity
  8
0
370
              25
  6
Continuous
 62
               7
100
AcDbLine
 10
-83.264216261200005
 20
26.402130455300011
 30
0.0
 11
-82.629101771099997
 21
26.675279161499986
 31
0.0
  0
LINE
  5
1F0
100
AcDbEntity
  8
0
370
              25
  6
Continuous
 62
               7
100
AcDbLine
 10
-82.629101771099997
 20
26.675279161499986
 30
0.0
 11
-83.113865220899996
 21
26.975687717400007
 31
0.0
  0
POLYLINE
  5
1F1
100
AcDbEntity
  8
0
370
              25
  6
Continuous
 62
               7
100
AcDb2dPolyline
 66
               1
 10
0.0
 20
0.0
 30
0.0
 75
               5
  0
VERTEX
  5
1F2
100
AcDbEntity
  8
0
370
              25
  6
Continuous
 62
               7
100
AcDbVertex
100
AcDb2dVertex
 10
-83.113865220899996
 20
26.975687717400007
 30
0.0
  0
VERTEX
  5
1F3
100
AcDbEntity
  8
0
370
              25
  6
Continuous
 62
               7
100
AcDbVertex
100
AcDb2dVertex
 10
-83.175644213200002
 20
27.023578210300002
 30
0.0
  0
VERTEX
  5
1F4
100
AcDbEntity
  8
0
370
              25
  6
Continuous
 62
               7
100
AcDbVertex
100
AcDb2dVertex
 10
-83.216739022699997
 20
27.077502479200007
 30
0.0
  0
VERTEX
  5
1F5
100
AcDbEntity
  8
0
370
              25
  6
Continuous
 62
               7
100
AcDbVertex
100
AcDb2dVertex
 10
-83.235576940399994
 20
27.135386847500001
 30
0.0
  0
VERTEX
  5
1F6
100
AcDbEntity
  8
0
370
              25
  6
Continuous
 62
               7
100
AcDbVertex
100
AcDb2dVertex
 10
-83.231433151100006
 20
27.195006252700011
 30
0.0
  0
VERTEX
  5
1F7
100
AcDbEntity
  8
0
370
              25
  6
Continuous
 62
               7
100
AcDbVertex
100
AcDb2dVertex
 10
-83.204467521799998
 20
27.254069138900007
 30
0.0
  0
VERTEX
  5
1F8
100
AcDbEntity
  8
0
370
              25
  6
Continuous
 62
               7
100
AcDbVertex
100
AcDb2dVertex
 10
-83.155710662199994
 20
27.310308168900008
 30
0.0
  0
VERTEX
  5
1F9
100
AcDbEntity
  8
0
370
              25
  6
Continuous
 62
               7
100
AcDbVertex
100
AcDb2dVertex
 10
-83.0870429207
 20
27.361560349200005
 30
0.0
  0
VERTEX
  5
1FA
100
AcDbEntity
  8
0
370
              25
  6
Continuous
 62
               7
100
AcDbVertex
100
AcDb2dVertex
 10
-83.001098700900002
 20
27.405856761100011
 30
0.0
  0
SEQEND
  5
1FB
100
AcDbEntity
  8
0
370
              25
  6
Continuous
 62
               7
  0
LINE
  5
1FC
100
AcDbEntity
  8
0
370
              25
  6
Continuous
 62
               7
100
AcDbLine
 10
-83.001098700900002
 20
27.405856761100011
 30
0.0
 11
-82.365984210799994
 21
27.6790054672
 31
0.0
  0
LINE
  5
1FD
100
AcDbEntity
  8
0
370
              25
  6
Continuous
 62
               7
100
AcDbLine
 10
-83.441663971699995
 20
26.952335351399995
 30
0.0
 11
-83.230505291
 21
27.043150033399996
 31
0.0
  0
LINE
  5
1FE
100
AcDbEntity
  8
0
370
              25
  6
Continuous
 62
               7
100
AcDbLine
 10
-84.8358803446
 20
27.243278367199991
 30
0.0
 11
-84.766337987399993
 21
27.273186998099987
 31
0.0
  0
LINE
  5
1FF
100
AcDbEntity
  8
0
370
              25
  6
Continuous
 62
               7
100
AcDbLine
 10
-84.766337987399993
 20
27.273186998099987
 30
0.0
 11
-84.2815756663
 21
26.9727791416
 31
0.0
  0
ARC
  5
200
100
AcDbEntity
  8
0
370
              25
  6
Continuous
 62
               7
100
AcDbCircle
 10
-83.839330520199994
 20
27.8782897257
 30
0.0
 40
1.0077351770750926
100
AcDbArc
 50
243.96943472329997
 51
293.24191102940017
  0
LINE
  5
201
100
AcDbEntity
  8
0
370
              25
  6
Continuous
 62
               7
100
AcDbLine
 10
-84.2815756663
 20
26.9727791416
 30
0.0
 11
-84.325773280899995
 21
27.726708757500006
 31
0.0
  0
LINE
  5
202
100
AcDbEntity
  8
0
370
              25
  6
Continuous
 62
               7
100
AcDbLine
 10
-83.441663971699995
 20
26.952335351399995
 30
0.0
 11
-83.485861586400006
 21
27.706264967300001
 31
0.0
  0
LINE
  5
203
100
AcDbEntity
  8
0
370
              25
  6
Continuous
 62
               7
100
AcDbLine
 10
-82.850747096199996
 20
27.979413673399989
 30
0.0
 11
-82.821647791399997
 21
27.483033316800004
 31
0.0
  0
LINE
  5
204
100
AcDbEntity
  8
0
370
              25
  6
Continuous
 62
               7
100
AcDbLine
 10
-84.766337987399993
 20
27.273186998099987
 30
0.0
 11
-84.810535602000002
 21
28.027116613999993
 31
0.0
  0
LINE
  5
205
100
AcDbEntity
  8
0
370
              25
  6
Continuous
 62
               7
100
AcDbLine
 10
80.173037112100019
 20
73.807052814600013
 30
0.0
 11
80.072013966099973
 21
75.5303209665
 31
0.0
  0
LINE
  5
206
100
AcDbEntity
  8
0
370
              25
  6
Continuous
 62
               7
100
AcDbLine
 10
80.173037112100019
 20
73.807052814600013
 30
0.0
 11
-66.697440120399989
 21
10.641306399799987
 31
0.0
  0
LINE
  5
207
100
AcDbEntity
  8
0
370
              25
  6
Continuous
 62
               7
100
AcDbLine
 10
-66.697440120399989
 20
10.641306399799987
 30
0.0
 11
-66.798463266499994
 21
12.364574551700002
 31
0.0
  0
LINE
  5
208
100
AcDbEntity
  8
0
370
              25
  6
Continuous
 62
               7
100
AcDbLine
 10
80.072013966099973
 20
75.5303209665
 30
0.0
 11
-66.798463266499994
 21
12.364574551700002
 31
0.0
  0
LINE
  5
209
100
AcDbEntity
  8
0
370
              25
  6
Continuous
 62
               7
100
AcDbLine
 10
-66.697440120399989
 20
10.641306399799987
 30
0.0
 11
-67.119736933300004
 21
10.903004297600006
 31
0.0
  0
LINE
  5
20A
100
AcDbEntity
  8
0
370
              25
  6
Continuous
 62
               7
100
AcDbLine
 10
-75.862422481700008
 20
17.564814964199996
 30
0.0
 11
-75.887772024100002
 21
17.997231303299998
 31
0.0
  0
LINE
  5
20B
100
AcDbEntity
  8
0
370
              25
  6
Continuous
 62
               7
100
AcDbLine
 10
-66.798463266499994
 20
12.364574551700002
 30
0.0
 11
-75.887772024100002
 21
17.997231303299998
 31
0.0
  0
LINE
  5
20C
100
AcDbEntity
  8
0
370
              25
  6
Continuous
 62
               7
100
AcDbLine
 10
70.982705208500022
 20
81.162977718099995
 30
0.0
 11
80.072013966099973
 21
75.5303209665
 31
0.0
  0
LINE
  5
20D
100
AcDbEntity
  8
0
370
              25
  6
Continuous
 62
               7
100
AcDbLine
 10
-75.887772024100002
 20
17.997231303299998
 30
0.0
 11
70.982705208500022
 21
81.162977718099995
 31
0.0
  0
POLYLINE
  5
20E
100
AcDbEntity
  8
0
370
              25
  6
Continuous
 62
               7
100
AcDb2dPolyline
 66
               1
 10
0.0
 20
0.0
 30
0.0
 75
               5
  0
VERTEX
  5
20F
100
AcDbEntity
  8
0
370
              25
  6
Continuous
 62
               7
100
AcDbVertex
100
AcDb2dVertex
 10
71.164015483400021
 20
76.883547671200006
 30
0.0
  0
VERTEX
  5
210
100
AcDbEntity
  8
0
370
              25
  6
Continuous
 62
               7
100
AcDbVertex
100
AcDb2dVertex
 10
70.602069833600012
 20
76.578915557100004
 30
0.0
  0
VERTEX
  5
211
100
AcDbEntity
  8
0
370
              25
  6
Continuous
 62
               7
100
AcDbVertex
100
AcDb2dVertex
 10
70.195365344899983
 20
76.219099701200008
 30
0.0
  0
VERTEX
  5
212
100
AcDbEntity
  8
0
370
              25
  6
Continuous
 62
               7
100
AcDbVertex
100
AcDb2dVertex
 10
69.969453252700021
 20
75.826708472700005
 30
0.0
  0
VERTEX
  5
213
100
AcDbEntity
  8
0
370
              25
  6
Continuous
 62
               7
100
AcDbVertex
100
AcDb2dVertex
 10
69.938539350700012
 20
75.426401073899996
 30
0.0
  0
VERTEX
  5
214
100
AcDbEntity
  8
0
370
              25
  6
Continuous
 62
               7
100
AcDbVertex
100
AcDb2dVertex
 10
70.104562385599991
 20
75.043328828900002
 30
0.0
  0
VERTEX
  5
215
100
AcDbEntity
  8
0
370
              25
  6
Continuous
 62
               7
100
AcDbVertex
100
AcDb2dVertex
 10
70.45708906279998
 20
74.701560962999991
 30
0.0
  0
VERTEX
  5
216
100
AcDbEntity
  8
0
370
              25
  6
Continuous
 62
               7
100
AcDbVertex
100
AcDb2dVertex
 10
70.973964082400016
 20
74.422570288999992
 30
0.0
  0
VERTEX
  5
217
100
AcDbEntity
  8
0
370
              25
  6
Continuous
 62
               7
100
AcDbVertex
100
AcDb2dVertex
 10
71.622717275199989
 20
74.2238892867
 30
0.0
  0
VERTEX
  5
218
100
AcDbEntity
  8
0
370
              25
  6
Continuous
 62
               7
100
AcDbVertex
100
AcDb2dVertex
 10
72.362582280900028
 20
74.118001942799992
 30
0.0
  0
VERTEX
  5
219
100
AcDbEntity
  8
0
370
              25
  6
Continuous
 62
               7
100
AcDbVertex
100
AcDb2dVertex
 10
73.147072213700028
 20
74.111561040200002
 30
0.0
  0
VERTEX
  5
21A
100
AcDbEntity
  8
0
370
              25
  6
Continuous
 62
               7
100
AcDbVertex
100
AcDb2dVertex
 10
73.926890701099978
 20
74.204968884500005
 30
0.0
  0
VERTEX
  5
21B
100
AcDbEntity
  8
0
370
              25
  6
Continuous
 62
               7
100
AcDbVertex
100
AcDb2dVertex
 10
74.653045467100014
 20
74.392360312400001
 30
0.0
  0
VERTEX
  5
21C
100
AcDbEntity
  8
0
370
              25
  6
Continuous
 62
               7
100
AcDbVertex
100
AcDb2dVertex
 10
75.279902652600015
 20
74.661957734299989
 30
0.0
  0
VERTEX
  5
21D
100
AcDbEntity
  8
0
370
              25
  6
Continuous
 62
               7
100
AcDbVertex
100
AcDb2dVertex
 10
75.768080356300004
 20
74.996823864899994
 30
0.0
  0
VERTEX
  5
21E
100
AcDbEntity
  8
0
370
              25
  6
Continuous
 62
               7
100
AcDbVertex
100
AcDb2dVertex
 10
76.08689743399998
 20
75.375914897200005
 30
0.0
  0
VERTEX
  5
21F
100
AcDbEntity
  8
0
370
              25
  6
Continuous
 62
               7
100
AcDbVertex
100
AcDb2dVertex
 10
76.216330237399973
 20
75.775413770900002
 30
0.0
  0
VERTEX
  5
220
100
AcDbEntity
  8
0
370
              25
  6
Continuous
 62
               7
100
AcDbVertex
100
AcDb2dVertex
 10
76.148240734800027
 20
76.170216912499995
 30
0.0
  0
VERTEX
  5
221
100
AcDbEntity
  8
0
370
              25
  6
Continuous
 62
               7
100
AcDbVertex
100
AcDb2dVertex
 10
75.886906552899973
 20
76.535518269400001
 30
0.0
  0
VERTEX
  5
222
100
AcDbEntity
  8
0
370
              25
  6
Continuous
 62
               7
100
AcDbVertex
100
AcDb2dVertex
 10
75.448753931199974
 20
76.848365706900012
 30
0.0
  0
VERTEX
  5
223
100
AcDbEntity
  8
0
370
              25
  6
Continuous
 62
               7
100
AcDbVertex
100
AcDb2dVertex
 10
74.861302205000015
 20
77.089097501100014
 30
0.0
  0
VERTEX
  5
224
100
AcDbEntity
  8
0
370
              25
  6
Continuous
 62
               7
100
AcDbVertex
100
AcDb2dVertex
 10
74.161476366099976
 20
77.242592957200003
 30
0.0
  0
VERTEX
  5
225
100
AcDbEntity
  8
0
370
              25
  6
Continuous
 62
               7
100
AcDbVertex
100
AcDb2dVertex
 10
73.393241700500027
 20
77.299204218200003
 30
0.0
  0
VERTEX
  5
226
100
AcDbEntity
  8
0
370
              25
  6
Continuous
 62
               7
100
AcDbVertex
100
AcDb2dVertex
 10
72.604871681199995
 20
77.255375126300009
 30
0.0
  0
VERTEX
  5
227
100
AcDbEntity
  8
0
370
              25
  6
Continuous
 62
               7
100
AcDbVertex
100
AcDb2dVertex
 10
71.845900282000002
 20
77.113859544299999
 30
0.0
  0
VERTEX
  5
228
100
AcDbEntity
  8
0
370
              25
  6
Continuous
 62
               7
100
AcDbVertex
100
AcDb2dVertex
 10
71.164015483400021
 20
76.883547671200006
 30
0.0
  0
SEQEND
  5
229
100
AcDbEntity
  8
0
370
              25
  6
Continuous
 62
               7
  0
POLYLINE
  5
22A
100
AcDbEntity
  8
0
370
              25
  6
Continuous
 62
               7
100
AcDb2dPolyline
 66
               1
 10
0.0
 20
0.0
 30
0.0
 75
               5
  0
VERTEX
  5
22B
100
AcDbEntity
  8
0
370
              25
  6
Continuous
 62
               7
100
AcDbVertex
100
AcDb2dVertex
 10
-67.767512877400009
 20
17.132167715099996
 30
0.0
  0
VERTEX
  5
22C
100
AcDbEntity
  8
0
370
              25
  6
Continuous
 62
               7
100
AcDbVertex
100
AcDb2dVertex
 10
-68.329464442100004
 20
16.827533057099998
 30
0.0
  0
VERTEX
  5
22D
100
AcDbEntity
  8
0
370
              25
  6
Continuous
 62
               7
100
AcDbVertex
100
AcDb2dVertex
 10
-68.736168930899993
 20
16.467717201200003
 30
0.0
  0
VERTEX
  5
22E
100
AcDbEntity
  8
0
370
              25
  6
Continuous
 62
               7
100
AcDbVertex
100
AcDb2dVertex
 10
-68.962075108100009
 20
16.075328516599996
 30
0.0
  0
VERTEX
  5
22F
100
AcDbEntity
  8
0
370
              25
  6
Continuous
 62
               7
100
AcDbVertex
100
AcDb2dVertex
 10
-68.99298901009999
 20
15.675021117799986
 30
0.0
  0
VERTEX
  5
230
100
AcDbEntity
  8
0
370
              25
  6
Continuous
 62
               7
100
AcDbVertex
100
AcDb2dVertex
 10
-68.826965975200011
 20
15.291948872700004
 30
0.0
  0
VERTEX
  5
231
100
AcDbEntity
  8
0
370
              25
  6
Continuous
 62
               7
100
AcDbVertex
100
AcDb2dVertex
 10
-68.474445212999996
 20
14.950178462999986
 30
0.0
  0
VERTEX
  5
232
100
AcDbEntity
  8
0
370
              25
  6
Continuous
 62
               7
100
AcDbVertex
100
AcDb2dVertex
 10
-67.957564278400014
 20
14.671190332900011
 30
0.0
  0
VERTEX
  5
233
100
AcDbEntity
  8
0
370
              25
  6
Continuous
 62
               7
100
AcDbVertex
100
AcDb2dVertex
 10
-67.308811085600013
 20
14.472509330599991
 30
0.0
  0
VERTEX
  5
234
100
AcDbEntity
  8
0
370
              25
  6
Continuous
 62
               7
100
AcDbVertex
100
AcDb2dVertex
 10
-66.568946079900002
 20
14.366621986599995
 30
0.0
  0
VERTEX
  5
235
100
AcDbEntity
  8
0
370
              25
  6
Continuous
 62
               7
100
AcDbVertex
100
AcDb2dVertex
 10
-65.784456147100002
 20
14.360181084099992
 30
0.0
  0
VERTEX
  5
236
100
AcDbEntity
  8
0
370
              25
  6
Continuous
 62
               7
100
AcDbVertex
100
AcDb2dVertex
 10
-65.004637659699995
 20
14.453588928399995
 30
0.0
  0
VERTEX
  5
237
100
AcDbEntity
  8
0
370
              25
  6
Continuous
 62
               7
100
AcDbVertex
100
AcDb2dVertex
 10
-64.278482893699987
 20
14.640980356200004
 30
0.0
  0
VERTEX
  5
238
100
AcDbEntity
  8
0
370
              25
  6
Continuous
 62
               7
100
AcDbVertex
100
AcDb2dVertex
 10
-63.651625708199987
 20
14.910577778200008
 30
0.0
  0
VERTEX
  5
239
100
AcDbEntity
  8
0
370
              25
  6
Continuous
 62
               7
100
AcDbVertex
100
AcDb2dVertex
 10
-63.163448004499998
 20
15.245443908699997
 30
0.0
  0
VERTEX
  5
23A
100
AcDbEntity
  8
0
370
              25
  6
Continuous
 62
               7
100
AcDbVertex
100
AcDb2dVertex
 10
-62.844630926799994
 20
15.624534941099995
 30
0.0
  0
VERTEX
  5
23B
100
AcDbEntity
  8
0
370
              25
  6
Continuous
 62
               7
100
AcDbVertex
100
AcDb2dVertex
 10
-62.7151981234
 20
16.024033814700005
 30
0.0
  0
VERTEX
  5
23C
100
AcDbEntity
  8
0
370
              25
  6
Continuous
 62
               7
100
AcDbVertex
100
AcDb2dVertex
 10
-62.783287626000003
 20
16.418836956299998
 30
0.0
  0
VERTEX
  5
23D
100
AcDbEntity
  8
0
370
              25
  6
Continuous
 62
               7
100
AcDbVertex
100
AcDb2dVertex
 10
-63.0446218079
 20
16.784138313200003
 30
0.0
  0
VERTEX
  5
23E
100
AcDbEntity
  8
0
370
              25
  6
Continuous
 62
               7
100
AcDbVertex
100
AcDb2dVertex
 10
-63.482780344600002
 20
17.096983206900006
 30
0.0
  0
VERTEX
  5
23F
100
AcDbEntity
  8
0
370
              25
  6
Continuous
 62
               7
100
AcDbVertex
100
AcDb2dVertex
 10
-64.070226155799986
 20
17.337717544899988
 30
0.0
  0
VERTEX
  5
240
100
AcDbEntity
  8
0
370
              25
  6
Continuous
 62
               7
100
AcDbVertex
100
AcDb2dVertex
 10
-64.770051994699998
 20
17.491213001099993
 30
0.0
  0
VERTEX
  5
241
100
AcDbEntity
  8
0
370
              25
  6
Continuous
 62
               7
100
AcDbVertex
100
AcDb2dVertex
 10
-65.538286660300002
 20
17.547824262099994
 30
0.0
  0
VERTEX
  5
242
100
AcDbEntity
  8
0
370
              25
  6
Continuous
 62
               7
100
AcDbVertex
100
AcDb2dVertex
 10
-66.326662594499993
 20
17.503992626300004
 30
0.0
  0
VERTEX
  5
243
100
AcDbEntity
  8
0
370
              25
  6
Continuous
 62
               7
100
AcDbVertex
100
AcDb2dVertex
 10
-67.085633993800002
 20
17.362477044200006
 30
0.0
  0
VERTEX
  5
244
100
AcDbEntity
  8
0
370
              25
  6
Continuous
 62
               7
100
AcDbVertex
100
AcDb2dVertex
 10
-67.767512877400009
 20
17.132167715099996
 30
0.0
  0
SEQEND
  5
245
100
AcDbEntity
  8
0
370
              25
  6
Continuous
 62
               7
  0
LINE
  5
246
100
AcDbEntity
  8
0
370
              25
  6
Continuous
 62
               7
100
AcDbLine
 10
-81.947311195800012
 20
21.752335804300003
 30
0.0
 11
-91.036619953400006
 21
27.384992555800011
 31
0.0
  0
LINE
  5
247
100
AcDbEntity
  8
0
370
              25
  6
Continuous
 62
               7
100
AcDbLine
 10
-91.036619953400006
 20
27.384992555800011
 30
0.0
 11
55.833857279200004
 21
90.550738970600008
 31
0.0
  0
LINE
  5
248
100
AcDbEntity
  8
0
370
              25
  6
Continuous
 62
               7
100
AcDbLine
 10
55.833857279200004
 20
90.550738970600008
 30
0.0
 11
64.923166036800012
 21
84.9180822191
 31
0.0
  0
LINE
  5
249
100
AcDbEntity
  8
0
370
              25
  6
Continuous
 62
               7
100
AcDbLine
 10
64.923166036800012
 20
84.9180822191
 30
0.0
 11
-81.947311195800012
 21
21.752335804300003
 31
0.0
  0
POLYLINE
  5
24A
100
AcDbEntity
  8
0
370
              25
  6
Continuous
 62
               7
100
AcDb2dPolyline
 66
               1
 10
0.0
 20
0.0
 30
0.0
 75
               5
  0
VERTEX
  5
24B
100
AcDbEntity
  8
0
370
              25
  6
Continuous
 62
               7
100
AcDbVertex
100
AcDb2dVertex
 10
-82.128621470599995
 20
26.031765851100005
 30
0.0
  0
VERTEX
  5
24C
100
AcDbEntity
  8
0
370
              25
  6
Continuous
 62
               7
100
AcDbVertex
100
AcDb2dVertex
 10
-81.566675820900002
 20
26.336397965200007
 30
0.0
  0
VERTEX
  5
24D
100
AcDbEntity
  8
0
370
              25
  6
Continuous
 62
               7
100
AcDbVertex
100
AcDb2dVertex
 10
-81.159971332200001
 20
26.69621382119999
 30
0.0
  0
VERTEX
  5
24E
100
AcDbEntity
  8
0
370
              25
  6
Continuous
 62
               7
100
AcDbVertex
100
AcDb2dVertex
 10
-80.934059240000011
 20
27.088605049600005
 30
0.0
  0
VERTEX
  5
24F
100
AcDbEntity
  8
0
370
              25
  6
Continuous
 62
               7
100
AcDbVertex
100
AcDb2dVertex
 10
-80.903145337900014
 20
27.488912448399986
 30
0.0
  0
VERTEX
  5
250
100
AcDbEntity
  8
0
370
              25
  6
Continuous
 62
               7
100
AcDbVertex
100
AcDb2dVertex
 10
-81.069168372900009
 20
27.871984693499996
 30
0.0
  0
VERTEX
  5
251
100
AcDbEntity
  8
0
370
              25
  6
Continuous
 62
               7
100
AcDbVertex
100
AcDb2dVertex
 10
-81.421695050099999
 20
28.213752559299991
 30
0.0
  0
VERTEX
  5
252
100
AcDbEntity
  8
0
370
              25
  6
Continuous
 62
               7
100
AcDbVertex
100
AcDb2dVertex
 10
-81.938570069700006
 20
28.492743233400006
 30
0.0
  0
VERTEX
  5
253
100
AcDbEntity
  8
0
370
              25
  6
Continuous
 62
               7
100
AcDbVertex
100
AcDb2dVertex
 10
-82.587323262500007
 20
28.69142423560001
 30
0.0
  0
VERTEX
  5
254
100
AcDbEntity
  8
0
370
              25
  6
Continuous
 62
               7
100
AcDbVertex
100
AcDb2dVertex
 10
-83.327188268200004
 20
28.797311579600006
 30
0.0
  0
VERTEX
  5
255
100
AcDbEntity
  8
0
370
              25
  6
Continuous
 62
               7
100
AcDbVertex
100
AcDb2dVertex
 10
-84.111678201000004
 20
28.803752482199997
 30
0.0
  0
VERTEX
  5
256
100
AcDbEntity
  8
0
370
              25
  6
Continuous
 62
               7
100
AcDbVertex
100
AcDb2dVertex
 10
-84.891496688399997
 20
28.710344637800006
 30
0.0
  0
VERTEX
  5
257
100
AcDbEntity
  8
0
370
              25
  6
Continuous
 62
               7
100
AcDbVertex
100
AcDb2dVertex
 10
-85.617651454400004
 20
28.522953209999997
 30
0.0
  0
VERTEX
  5
258
100
AcDbEntity
  8
0
370
              25
  6
Continuous
 62
               7
100
AcDbVertex
100
AcDb2dVertex
 10
-86.244508639900005
 20
28.253355788100009
 30
0.0
  0
VERTEX
  5
259
100
AcDbEntity
  8
0
370
              25
  6
Continuous
 62
               7
100
AcDbVertex
100
AcDb2dVertex
 10
-86.732686343599994
 20
27.918489657500004
 30
0.0
  0
VERTEX
  5
25A
100
AcDbEntity
  8
0
370
              25
  6
Continuous
 62
               7
100
AcDbVertex
100
AcDb2dVertex
 10
-87.051503421299998
 20
27.539398625199993
 30
0.0
  0
VERTEX
  5
25B
100
AcDbEntity
  8
0
370
              25
  6
Continuous
 62
               7
100
AcDbVertex
100
AcDb2dVertex
 10
-87.180936224700005
 20
27.139899751499996
 30
0.0
  0
VERTEX
  5
25C
100
AcDbEntity
  8
0
370
              25
  6
Continuous
 62
               7
100
AcDbVertex
100
AcDb2dVertex
 10
-87.112846722100002
 20
26.745096609900003
 30
0.0
  0
VERTEX
  5
25D
100
AcDbEntity
  8
0
370
              25
  6
Continuous
 62
               7
100
AcDbVertex
100
AcDb2dVertex
 10
-86.851512540200005
 20
26.379795252999998
 30
0.0
  0
VERTEX
  5
25E
100
AcDbEntity
  8
0
370
              25
  6
Continuous
 62
               7
100
AcDbVertex
100
AcDb2dVertex
 10
-86.413359918500007
 20
26.066947815399999
 30
0.0
  0
VERTEX
  5
25F
100
AcDbEntity
  8
0
370
              25
  6
Continuous
 62
               7
100
AcDbVertex
100
AcDb2dVertex
 10
-85.825908192300005
 20
25.826216021300013
 30
0.0
  0
VERTEX
  5
260
100
AcDbEntity
  8
0
370
              25
  6
Continuous
 62
               7
100
AcDbVertex
100
AcDb2dVertex
 10
-85.126082353399994
 20
25.672720565199995
 30
0.0
  0
VERTEX
  5
261
100
AcDbEntity
  8
0
370
              25
  6
Continuous
 62
               7
100
AcDbVertex
100
AcDb2dVertex
 10
-84.357847687800003
 20
25.616109304100007
 30
0.0
  0
VERTEX
  5
262
100
AcDbEntity
  8
0
370
              25
  6
Continuous
 62
               7
100
AcDbVertex
100
AcDb2dVertex
 10
-83.569477668499999
 20
25.659938396099989
 30
0.0
  0
VERTEX
  5
263
100
AcDbEntity
  8
0
370
              25
  6
Continuous
 62
               7
100
AcDbVertex
100
AcDb2dVertex
 10
-82.810506269300006
 20
25.8014539781
 30
0.0
  0
VERTEX
  5
264
100
AcDbEntity
  8
0
370
              25
  6
Continuous
 62
               7
100
AcDbVertex
100
AcDb2dVertex
 10
-82.128621470599995
 20
26.031765851100005
 30
0.0
  0
SEQEND
  5
265
100
AcDbEntity
  8
0
370
              25
  6
Continuous
 62
               7
  0
POLYLINE
  5
266
100
AcDbEntity
  8
0
370
              25
  6
Continuous
 62
               7
100
AcDb2dPolyline
 66
               1
 10
0.0
 20
0.0
 30
0.0
 75
               5
  0
VERTEX
  5
267
100
AcDbEntity
  8
0
370
              25
  6
Continuous
 62
               7
100
AcDbVertex
100
AcDb2dVertex
 10
56.802906890200006
 20
85.783145807300002
 30
0.0
  0
VERTEX
  5
268
100
AcDbEntity
  8
0
370
              25
  6
Continuous
 62
               7
100
AcDbVertex
100
AcDb2dVertex
 10
57.364858454800014
 20
86.0877804653
 30
0.0
  0
VERTEX
  5
269
100
AcDbEntity
  8
0
370
              25
  6
Continuous
 62
               7
100
AcDbVertex
100
AcDb2dVertex
 10
57.771562943599974
 20
86.447596321199995
 30
0.0
  0
VERTEX
  5
26A
100
AcDbEntity
  8
0
370
              25
  6
Continuous
 62
               7
100
AcDbVertex
100
AcDb2dVertex
 10
57.997469120800019
 20
86.839985005800003
 30
0.0
  0
VERTEX
  5
26B
100
AcDbEntity
  8
0
370
              25
  6
Continuous
 62
               7
100
AcDbVertex
100
AcDb2dVertex
 10
58.028383022900016
 20
87.240292404600012
 30
0.0
  0
VERTEX
  5
26C
100
AcDbEntity
  8
0
370
              25
  6
Continuous
 62
               7
100
AcDbVertex
100
AcDb2dVertex
 10
57.862359987899993
 20
87.623364649699994
 30
0.0
  0
VERTEX
  5
26D
100
AcDbEntity
  8
0
370
              25
  6
Continuous
 62
               7
100
AcDbVertex
100
AcDb2dVertex
 10
57.509839225699977
 20
87.965135059400012
 30
0.0
  0
VERTEX
  5
26E
100
AcDbEntity
  8
0
370
              25
  6
Continuous
 62
               7
100
AcDbVertex
100
AcDb2dVertex
 10
56.992958291100024
 20
88.244123189499987
 30
0.0
  0
VERTEX
  5
26F
100
AcDbEntity
  8
0
370
              25
  6
Continuous
 62
               7
100
AcDbVertex
100
AcDb2dVertex
 10
56.344205098299994
 20
88.442804191800008
 30
0.0
  0
VERTEX
  5
270
100
AcDbEntity
  8
0
370
              25
  6
Continuous
 62
               7
100
AcDbVertex
100
AcDb2dVertex
 10
55.604340092600012
 20
88.548691535800003
 30
0.0
  0
VERTEX
  5
271
100
AcDbEntity
  8
0
370
              25
  6
Continuous
 62
               7
100
AcDbVertex
100
AcDb2dVertex
 10
54.819850159800012
 20
88.555132438300006
 30
0.0
  0
VERTEX
  5
272
100
AcDbEntity
  8
0
370
              25
  6
Continuous
 62
               7
100
AcDbVertex
100
AcDb2dVertex
 10
54.040031672400005
 20
88.461724594000003
 30
0.0
  0
VERTEX
  5
273
100
AcDbEntity
  8
0
370
              25
  6
Continuous
 62
               7
100
AcDbVertex
100
AcDb2dVertex
 10
53.313876906400026
 20
88.274333166100007
 30
0.0
  0
VERTEX
  5
274
100
AcDbEntity
  8
0
370
              25
  6
Continuous
 62
               7
100
AcDbVertex
100
AcDb2dVertex
 10
52.687019720900025
 20
88.004735744199991
 30
0.0
  0
VERTEX
  5
275
100
AcDbEntity
  8
0
370
              25
  6
Continuous
 62
               7
100
AcDbVertex
100
AcDb2dVertex
 10
52.198842017199979
 20
87.669869613700001
 30
0.0
  0
VERTEX
  5
276
100
AcDbEntity
  8
0
370
              25
  6
Continuous
 62
               7
100
AcDbVertex
100
AcDb2dVertex
 10
51.880024939500004
 20
87.290778581300003
 30
0.0
  0
VERTEX
  5
277
100
AcDbEntity
  8
0
370
              25
  6
Continuous
 62
               7
100
AcDbVertex
100
AcDb2dVertex
 10
51.750592136100011
 20
86.891279707600006
 30
0.0
  0
VERTEX
  5
278
100
AcDbEntity
  8
0
370
              25
  6
Continuous
 62
               7
100
AcDbVertex
100
AcDb2dVertex
 10
51.818681638700014
 20
86.496476566000013
 30
0.0
  0
VERTEX
  5
279
100
AcDbEntity
  8
0
370
              25
  6
Continuous
 62
               7
100
AcDbVertex
100
AcDb2dVertex
 10
52.080015820600011
 20
86.131175209100007
 30
0.0
  0
VERTEX
  5
27A
100
AcDbEntity
  8
0
370
              25
  6
Continuous
 62
               7
100
AcDbVertex
100
AcDb2dVertex
 10
52.518174357299984
 20
85.818330315499992
 30
0.0
  0
VERTEX
  5
27B
100
AcDbEntity
  8
0
370
              25
  6
Continuous
 62
               7
100
AcDbVertex
100
AcDb2dVertex
 10
53.105620168500025
 20
85.577595977399994
 30
0.0
  0
VERTEX
  5
27C
100
AcDbEntity
  8
0
370
              25
  6
Continuous
 62
               7
100
AcDbVertex
100
AcDb2dVertex
 10
53.805446007400008
 20
85.424100521300005
 30
0.0
  0
VERTEX
  5
27D
100
AcDbEntity
  8
0
370
              25
  6
Continuous
 62
               7
100
AcDbVertex
100
AcDb2dVertex
 10
54.573680673000013
 20
85.367489260300005
 30
0.0
  0
VERTEX
  5
27E
100
AcDbEntity
  8
0
370
              25
  6
Continuous
 62
               7
100
AcDbVertex
100
AcDb2dVertex
 10
55.362056607199975
 20
85.411320896099994
 30
0.0
  0
VERTEX
  5
27F
100
AcDbEntity
  8
0
370
              25
  6
Continuous
 62
               7
100
AcDbVertex
100
AcDb2dVertex
 10
56.121028006500012
 20
85.552836478100005
 30
0.0
  0
VERTEX
  5
280
100
AcDbEntity
  8
0
370
              25
  6
Continuous
 62
               7
100
AcDbVertex
100
AcDb2dVertex
 10
56.802906890200006
 20
85.783145807300002
 30
0.0
  0
SEQEND
  5
281
100
AcDbEntity
  8
0
370
              25
  6
Continuous
 62
               7
  0
LINE
  5
282
100
AcDbEntity
  8
0
370
              25
  6
Continuous
 62
               7
100
AcDbLine
 10
-81.92196165339999
 20
21.319919465200002
 30
0.0
 11
-81.947311195800012
 21
21.752335804300003
 31
0.0
  0
LINE
  5
283
100
AcDbEntity
  8
0
370
              25
  6
Continuous
 62
               7
100
AcDbLine
 10
-91.011270410999998
 20
26.952576216799997
 30
0.0
 11
-91.036619953400006
 21
27.384992555800011
 31
0.0
  0
LINE
  5
284
100
AcDbEntity
  8
0
370
              25
  6
Continuous
 62
               7
100
AcDbLine
 10
64.999120860900007
 20
83.62243330550001
 30
0.0
 11
64.923166036800012
 21
84.9180822191
 31
0.0
  0
LINE
  5
285
100
AcDbEntity
  8
0
370
              25
  6
Continuous
 62
               8
100
AcDbLine
 10
74.0253810886
 20
74.965373114399995
 30
0.0
 11
73.996281783799986
 21
75.461753471000009
 31
0.0
  0
LINE
  5
286
100
AcDbEntity
  8
0
370
              25
  6
Continuous
 62
               8
100
AcDbLine
 10
72.065592018500013
 20
75.013076404700001
 30
0.0
 11
72.036492713600012
 21
75.509456761299987
 31
0.0
  0
LINE
  5
287
100
AcDbEntity
  8
0
370
              25
  6
Continuous
 62
               8
100
AcDbLine
 10
55.846762444799992
 20
86.230687316900003
 30
0.0
 11
55.817663139899992
 21
86.727067673499988
 31
0.0
  0
LINE
  5
288
100
AcDbEntity
  8
0
370
              25
  6
Continuous
 62
               8
100
AcDbLine
 10
53.886973938899985
 20
86.278390257500007
 30
0.0
 11
53.857874634100028
 21
86.774770614099992
 31
0.0
  0
LINE
  5
289
100
AcDbEntity
  8
0
370
              25
  6
Continuous
 62
               8
100
AcDbLine
 10
-64.906147272200002
 20
15.213993158199997
 30
0.0
 11
-64.935246576999987
 21
15.710373514899999
 31
0.0
  0
LINE
  5
28A
100
AcDbEntity
  8
0
370
              25
  6
Continuous
 62
               8
100
AcDbLine
 10
-66.865936342299989
 20
15.261696448500004
 30
0.0
 11
-66.89503564719999
 21
15.758076805200005
 31
0.0
  0
LINE
  5
28B
100
AcDbEntity
  8
0
370
              25
  6
Continuous
 62
               8
100
AcDbLine
 10
-83.084765915999995
 20
26.479307360799993
 30
0.0
 11
-83.113865220899996
 21
26.975687717400007
 31
0.0
  0
LINE
  5
28C
100
AcDbEntity
  8
0
370
              25
  6
Continuous
 62
               8
100
AcDbLine
 10
-85.044554421900003
 20
26.52701030130001
 30
0.0
 11
-85.073653726700002
 21
27.023390658000011
 31
0.0
  0
ENDBLK
  5
28D
100
AcDbEntity
  8
一般
100
AcDbBlockEnd
  0
ENDSEC
  0
SECTION
  2
ENTITIES
  0
INSERT
  5
28E
100
AcDbEntity
  8
一般
 62
               7
100
AcDbBlockReference
  2
*U0
 10
210.0
 20
148.5
 30
0.0
 41
0.5
 42
0.5
 43
0.5
  0
MTEXT
  5
28F
100
AcDbEntity
  8
0
 62
               7
100
AcDbMText
 10
258.0
 20
107.47168402777777
 30
0.0
 40
3.0316840277777768
 41
0.0
 71
               1
 72
               1
  1
HAC-D25S^I\PHAC-W25S^I\PHAC-B25S^I
  7
Arial
 73
               1
 44
0.9673603504928806
  0
ENDSEC
  0
SECTION
  2
OBJECTS
  0
DICTIONARY
  5
19
100
AcDbDictionary
280
               0
281
               1
  3
ACAD_GROUP
350
1A
  3
ACAD_MLINESTYLE
350
1B
  3
ACAD_LAYOUT
350
1E
  3
ACAD_PLOTSETTINGS
350
22
  3
ACAD_PLOTSTYLENAME
350
1F
  3
ACAD_WIPEOUT_VARS
350
23
  0
DICTIONARY
  5
1A
102
{ACAD_REACTORS
330
19
102
}
100
AcDbDictionary
280
               0
281
               1
  0
DICTIONARY
  5
1B
102
{ACAD_REACTORS
330
19
102
}
100
AcDbDictionary
280
               0
281
               1
  3
Standard
350
1C
  0
MLINESTYLE
  5
1C
102
{ACAD_REACTORS
330
1B
102
}
100
AcDbMlineStyle
  2
Standard
 70
               0
  3

 62
               0
 51
90.0
 52
90.0
 71
               2
 49
0.5
 62
             256
  6
ByLayer
 49
-0.5
 62
             256
  6
ByLayer
  0
ACDBDICTIONARYWDFLT
  5
1F
102
{ACAD_REACTORS
330
19
102
}
100
AcDbDictionary
281
               1
  3
Normal
350
1D
100
AcDbDictionaryWithDefault
340
1D
  0
ACDBPLACEHOLDER
  5
1D
102
{ACAD_REACTORS
330
1F
102
}
  0
LAYOUT
  5
20
102
{ACAD_REACTORS
330
1E
102
}
100
AcDbPlotSettings
  1

  2

  4

  6

 40
0.0
 41
0.0
 42
0.0
 43
0.0
 44
0.0
 45
0.0
 46
0.0
 47
0.0
 48
0.0
 49
0.0
140
0.0
141
0.0
142
1.0
143
1.0
 70
            1024
 72
               0
 73
               0
 74
               0
  7

 75
               0
147
1.0
148
0.0
149
0.0
100
AcDbLayout
  1
Model
 70
               0
 71
               0
 10
0.0
 20
0.0
 11
0.0
 21
0.0
 12
0.0
 22
0.0
 32
0.0
 14
0.0
 24
0.0
 34
0.0
 15
0.0
 25
0.0
 35
0.0
146
0.0
 13
0.0
 23
0.0
 33
0.0
 16
0.0
 26
0.0
 36
0.0
 17
0.0
 27
0.0
 37
0.0
 76
               0
330
A
331
0
345
0
346
0
  0
LAYOUT
  5
21
102
{ACAD_REACTORS
330
1E
102
}
100
AcDbPlotSettings
  1

  2

  4

  6

 40
0.0
 41
0.0
 42
0.0
 43
0.0
 44
0.0
 45
0.0
 46
0.0
 47
0.0
 48
0.0
 49
0.0
140
0.0
141
0.0
142
1.0
143
1.0
 70
               0
 72
               0
 73
               0
 74
               0
  7

 75
               0
147
1.0
148
0.0
149
0.0
100
AcDbLayout
  1
Layout1
 70
               0
 71
               0
 10
0.0
 20
0.0
 11
0.0
 21
0.0
 12
0.0
 22
0.0
 32
0.0
 14
0.0
 24
0.0
 34
0.0
 15
0.0
 25
0.0
 35
0.0
146
0.0
 13
0.0
 23
0.0
 33
0.0
 16
0.0
 26
0.0
 36
0.0
 17
0.0
 27
0.0
 37
0.0
 76
               0
330
B
331
0
345
0
346
0
  0
DICTIONARY
  5
1E
102
{ACAD_REACTORS
330
19
102
}
100
AcDbDictionary
280
               0
281
               1
  3
Layout1
350
21
  3
Model
350
20
  0
DICTIONARY
  5
22
102
{ACAD_REACTORS
330
19
102
}
100
AcDbDictionary
280
               0
281
               1
  0
WIPEOUTVARIABLES
  5
23
100
AcDbWipeoutVariables
 70
               1
  0
ENDSEC
  0
EOF
