  0
SECTION
  2
HEADER
  9
$ACADVER
  1
AC1015
  9
$ACADMAINTVER
 70
     6
  9
$DWGCODEPAGE
  3
DOS932
  9
$INSBASE
 10
0.0
 20
0.0
 30
0.0
  9
$EXTMIN
 10
0.0
 20
0.0
 30
0.0
  9
$EXTMAX
 10
210.0
 20
297.0
 30
0.0
  9
$LIMMIN
 10
0.0
 20
0.0
  9
$LIMMAX
 10
210.0
 20
297.0
  9
$ORTHOMODE
 70
     0
  9
$REGENMODE
 70
     1
  9
$FILLMODE
 70
     1
  9
$QTEXTMODE
 70
     0
  9
$MIRRTEXT
 70
     1
  9
$LTSCALE
 40
1.0
  9
$ATTMODE
 70
     1
  9
$TEXTSIZE
 40
3.5
  9
$TRACEWID
 40
1.0
  9
$TEXTSTYLE
  7
Standard
  9
$CLAYER
  8
0
  9
$CELTYPE
  6
ByLayer
  9
$CECOLOR
 62
   256
  9
$CELTSCALE
 40
1.0
  9
$DISPSILH
 70
     0
  9
$DIMSCALE
 40
1.0
  9
$DIMASZ
 40
3.302
  9
$DIMEXO
 40
1.0
  9
$DIMDLI
 40
3.75
  9
$DIMRND
 40
0.0
  9
$DIMDLE
 40
0.0
  9
$DIMEXE
 40
1.0
  9
$DIMTP
 40
0.0
  9
$DIMTM
 40
0.0
  9
$DIMTXT
 40
3.5
  9
$DIMCEN
 40
2.5
  9
$DIMTSZ
 40
0.0
  9
$DIMTOL
 70
     0
  9
$DIMLIM
 70
     0
  9
$DIMTIH
 70
     1
  9
$DIMTOH
 70
     1
  9
$DIMSE1
 70
     0
  9
$DIMSE2
 70
     0
  9
$DIMTAD
 70
     1
  9
$DIMZIN
 70
     1
  9
$DIMBLK
  1

  9
$DIMASO
 70
     1
  9
$DIMSHO
 70
     1
  9
$DIMPOST
  1

  9
$DIMAPOST
  1

  9
$DIMALT
 70
     0
  9
$DIMALTD
 70
     3
  9
$DIMALTF
 40
0.0393700787
  9
$DIMLFAC
 40
100.0
  9
$DIMTOFL
 70
     1
  9
$DIMTVP
 40
0.0
  9
$DIMTIX
 70
     0
  9
$DIMSOXD
 70
     0
  9
$DIMSAH
 70
     0
  9
$DIMBLK1
  1

  9
$DIMBLK2
  1

  9
$DIMSTYLE
  2
ISO-25
  9
$DIMCLRD
 70
     0
  9
$DIMCLRE
 70
     0
  9
$DIMCLRT
 70
     0
  9
$DIMTFAC
 40
1.0
  9
$DIMGAP
 40
1.524
  9
$DIMJUST
 70
     0
  9
$DIMSD1
 70
     0
  9
$DIMSD2
 70
     0
  9
$DIMTOLJ
 70
     0
  9
$DIMTZIN
 70
     1
  9
$DIMALTZ
 70
     0
  9
$DIMALTTZ
 70
     0
  9
$DIMUPT
 70
     0
  9
$DIMDEC
 70
     2
  9
$DIMTDEC
 70
     2
  9
$DIMALTU
 70
     2
  9
$DIMALTTD
 70
     3
  9
$DIMTXSTY
  7
Standard
  9
$DIMAUNIT
 70
     0
  9
$DIMADEC
 70
     2
  9
$DIMALTRND
 40
0.0
  9
$DIMAZIN
 70
     0
  9
$DIMDSEP
 70
    44
  9
$DIMATFIT
 70
     3
  9
$DIMFRAC
 70
     0
  9
$DIMLDRBLK
  1

  9
$DIMLUNIT
 70
     2
  9
$DIMLWD
 70
    -2
  9
$DIMLWE
 70
    -2
  9
$DIMTMOVE
 70
     0
  9
$LUNITS
 70
     2
  9
$LUPREC
 70
     2
  9
$SKETCHINC
 40
1.0
  9
$FILLETRAD
 40
10.0
  9
$AUNITS
 70
     0
  9
$AUPREC
 70
     2
  9
$MENU
  1
.
  9
$ELEVATION
 40
0.0
  9
$PELEVATION
 40
0.0
  9
$THICKNESS
 40
0.0
  9
$LIMCHECK
 70
     0
  9
$CHAMFERA
 40
0.0
  9
$CHAMFERB
 40
0.0
  9
$CHAMFERC
 40
0.0
  9
$CHAMFERD
 40
0.0
  9
$SKPOLY
 70
     0
  9
$TDCREATE
 40
2459242.79176772
  9
$TDUCREATE
 40
2459242.41676772
  9
$TDUPDATE
 40
2459242.791768704
  9
$TDUUPDATE
 40
2459242.416768704
  9
$TDINDWG
 40
0.0000000116
  9
$TDUSRTIMER
 40
0.0000000116
  9
$USRTIMER
 70
     1
  9
$ANGBASE
 50
0.0
  9
$ANGDIR
 70
     0
  9
$PDMODE
 70
     0
  9
$PDSIZE
 40
-1.0
  9
$PLINEWID
 40
0.0
  9
$SPLFRAME
 70
     0
  9
$SPLINETYPE
 70
     6
  9
$SPLINESEGS
 70
     8
  9
$HANDSEED
  5
440
  9
$SURFTAB1
 70
     6
  9
$SURFTAB2
 70
     6
  9
$SURFTYPE
 70
     6
  9
$SURFU
 70
     6
  9
$SURFV
 70
     6
  9
$UCSBASE
  2

  9
$UCSNAME
  2

  9
$UCSORG
 10
0.0
 20
0.0
 30
0.0
  9
$UCSXDIR
 10
1.0
 20
0.0
 30
0.0
  9
$UCSYDIR
 10
0.0
 20
1.0
 30
0.0
  9
$UCSORTHOREF
  2

  9
$UCSORTHOVIEW
 70
     0
  9
$UCSORGTOP
 10
0.0
 20
0.0
 30
0.0
  9
$UCSORGBOTTOM
 10
0.0
 20
0.0
 30
0.0
  9
$UCSORGLEFT
 10
0.0
 20
0.0
 30
0.0
  9
$UCSORGRIGHT
 10
0.0
 20
0.0
 30
0.0
  9
$UCSORGFRONT
 10
0.0
 20
0.0
 30
0.0
  9
$UCSORGBACK
 10
0.0
 20
0.0
 30
0.0
  9
$PUCSBASE
  2

  9
$PUCSNAME
  2

  9
$PUCSORG
 10
0.0
 20
0.0
 30
0.0
  9
$PUCSXDIR
 10
1.0
 20
0.0
 30
0.0
  9
$PUCSYDIR
 10
0.0
 20
1.0
 30
0.0
  9
$PUCSORTHOREF
  2

  9
$PUCSORTHOVIEW
 70
     0
  9
$PUCSORGTOP
 10
0.0
 20
0.0
 30
0.0
  9
$PUCSORGBOTTOM
 10
0.0
 20
0.0
 30
0.0
  9
$PUCSORGLEFT
 10
0.0
 20
0.0
 30
0.0
  9
$PUCSORGRIGHT
 10
0.0
 20
0.0
 30
0.0
  9
$PUCSORGFRONT
 10
0.0
 20
0.0
 30
0.0
  9
$PUCSORGBACK
 10
0.0
 20
0.0
 30
0.0
  9
$USERI1
 70
     0
  9
$USERI2
 70
     0
  9
$USERI3
 70
     0
  9
$USERI4
 70
     0
  9
$USERI5
 70
     0
  9
$USERR1
 40
0.0
  9
$USERR2
 40
0.0
  9
$USERR3
 40
0.0
  9
$USERR4
 40
0.0
  9
$USERR5
 40
0.0
  9
$WORLDVIEW
 70
     1
  9
$SHADEDGE
 70
     3
  9
$SHADEDIF
 70
    70
  9
$TILEMODE
 70
     1
  9
$MAXACTVP
 70
    64
  9
$PINSBASE
 10
0.0
 20
0.0
 30
0.0
  9
$PLIMCHECK
 70
     0
  9
$PEXTMIN
 10
1.0000000000E+20
 20
1.0000000000E+20
 30
1.0000000000E+20
  9
$PEXTMAX
 10
-1.0000000000E+20
 20
-1.0000000000E+20
 30
-1.0000000000E+20
  9
$PLIMMIN
 10
0.0
 20
0.0
  9
$PLIMMAX
 10
420.0
 20
297.0
  9
$UNITMODE
 70
     0
  9
$VISRETAIN
 70
     1
  9
$PLINEGEN
 70
     0
  9
$PSLTSCALE
 70
     1
  9
$TREEDEPTH
 70
  3020
  9
$CMLSTYLE
  2
Standard
  9
$CMLJUST
 70
     0
  9
$CMLSCALE
 40
20.0
  9
$PROXYGRAPHICS
 70
     1
  9
$MEASUREMENT
 70
     1
  9
$CELWEIGHT
370
    -1
  9
$ENDCAPS
280
     0
  9
$JOINSTYLE
280
     0
  9
$LWDISPLAY
290
     1
  9
$INSUNITS
 70
     4
  9
$HYPERLINKBASE
  1

  9
$STYLESHEET
  1

  9
$XEDIT
290
     1
  9
$CEPSNTYPE
380
     0
  9
$PSTYLEMODE
290
     1
  9
$FINGERPRINTGUID
  2
{79d9496b-22e5-4cea-bc69-ff0d566be319}
  9
$VERSIONGUID
  2
{FAEB1C32-E019-11D5-929B-00C0DF256EC4}
  9
$EXTNAMES
290
     1
  9
$PSVPSCALE
 40
0.0
  9
$OLESTARTUP
290
     0
  0
ENDSEC
  0
SECTION
  2
CLASSES
  0
CLASS
  1
ACDBDICTIONARYWDFLT
  2
AcDbDictionaryWithDefault
  3
ObjectDBX Classes
 90
        0
280
     0
281
     0
  0
CLASS
  1
VISUALSTYLE
  2
AcDbVisualStyle
  3
ObjectDBX Classes
 90
     4095
280
     0
281
     0
  0
CLASS
  1
MATERIAL
  2
AcDbMaterial
  3
ObjectDBX Classes
 90
     1153
280
     0
281
     0
  0
CLASS
  1
SCALE
  2
AcDbScale
  3
ObjectDBX Classes
 90
     1153
280
     0
281
     0
  0
CLASS
  1
TABLESTYLE
  2
AcDbTableStyle
  3
ObjectDBX Classes
 90
     4095
280
     0
281
     0
  0
CLASS
  1
MLEADERSTYLE
  2
AcDbMLeaderStyle
  3
ACDB_MLEADERSTYLE_CLASS
 90
     4095
280
     0
281
     0
  0
CLASS
  1
SUN
  2
AcDbSun
  3
SCENEOE
 90
     1153
280
     0
281
     0
  0
CLASS
  1
ACDBPLACEHOLDER
  2
AcDbPlaceHolder
  3
ObjectDBX Classes
 90
        0
280
     0
281
     0
  0
CLASS
  1
LAYOUT
  2
AcDbLayout
  3
ObjectDBX Classes
 90
        0
280
     0
281
     0
  0
ENDSEC
  0
SECTION
  2
TABLES
  0
TABLE
  2
VPORT
  5
8
330
0
100
AcDbSymbolTable
 70
     1
  0
VPORT
  5
29
330
8
100
AcDbSymbolTableRecord
100
AcDbViewportTableRecord
  2
*Active
 70
     0
 10
0.0
 20
0.0
 11
1.0
 21
1.0
 12
105.0
 22
148.5
 13
0.0
 23
0.0
 14
10.0
 24
10.0
 15
10.0
 25
10.0
 16
0.0
 26
0.0
 36
1.0
 17
0.0
 27
0.0
 37
0.0
 40
297.0
 41
0.7070707071
 42
50.0
 43
0.0
 44
0.0
 50
0.0
 51
0.0
 71
     0
 72
  2000
 73
     1
 74
     3
 75
     0
 76
     0
 77
     0
 78
     0
281
     0
 65
     1
110
0.0
120
0.0
130
0.0
111
1.0
121
0.0
131
0.0
112
0.0
122
1.0
132
0.0
 79
     0
146
0.0
  0
ENDTAB
  0
TABLE
  2
LTYPE
  5
5
330
0
100
AcDbSymbolTable
 70
     6
  0
LTYPE
  5
14
330
5
100
AcDbSymbolTableRecord
100
AcDbLinetypeTableRecord
  2
ByBlock
 70
     0
  3

 72
    65
 73
     0
 40
0.0
  0
LTYPE
  5
15
330
5
100
AcDbSymbolTableRecord
100
AcDbLinetypeTableRecord
  2
ByLayer
 70
     0
  3

 72
    65
 73
     0
 40
0.0
  0
LTYPE
  5
16
330
5
100
AcDbSymbolTableRecord
100
AcDbLinetypeTableRecord
  2
Continuous
 70
     0
  3
Solid line
 72
    65
 73
     0
 40
0.0
  0
LTYPE
  5
6E
330
5
100
AcDbSymbolTableRecord
100
AcDbLinetypeTableRecord
  2
HIDDEN
 70
     0
  3
Hidden __ __ __ __ __ __ __ __ __ __ __ __ __ __
 72
    65
 73
     2
 40
1.905
 49
1.27
 74
     0
 49
-0.635
 74
     0
  0
LTYPE
  5
6F
330
5
100
AcDbSymbolTableRecord
100
AcDbLinetypeTableRecord
  2
PHANTOM
 70
     0
  3
Phantom ______  __  __  ______  __  __  ______
 72
    65
 73
     6
 40
12.7
 49
6.35
 74
     0
 49
-1.27
 74
     0
 49
1.27
 74
     0
 49
-1.27
 74
     0
 49
1.27
 74
     0
 49
-1.27
 74
     0
  0
LTYPE
  5
70
330
5
100
AcDbSymbolTableRecord
100
AcDbLinetypeTableRecord
  2
CENTER
 70
     0
  3
Center ____ _ ____ _ ____ _ ____ _ ____ _ ____
 72
    65
 73
     4
 40
10.16
 49
6.35
 74
     0
 49
-1.27
 74
     0
 49
1.27
 74
     0
 49
-1.27
 74
     0
  0
LTYPE
  5
71
330
5
100
AcDbSymbolTableRecord
100
AcDbLinetypeTableRecord
  2
CENTERX2
 70
     0
  3
Center (2x) ________  __  ________  __  _____
 72
    65
 73
     4
 40
20.32
 49
12.7
 74
     0
 49
-2.54
 74
     0
 49
2.54
 74
     0
 49
-2.54
 74
     0
  0
LTYPE
  5
72
330
5
100
AcDbSymbolTableRecord
100
AcDbLinetypeTableRecord
  2
DOT2
 70
     0
  3
Dot (.5x) ........................................
 72
    65
 73
     2
 40
0.635
 49
0.0
 74
     0
 49
-0.635
 74
     0
  0
ENDTAB
  0
TABLE
  2
LAYER
  5
2
330
0
100
AcDbSymbolTable
 70
     2
  0
LAYER
  5
10
330
2
100
AcDbSymbolTableRecord
100
AcDbLayerTableRecord
  2
0
 70
     0
 62
     7
  6
Continuous
370
    -3
390
F
  0
LAYER
  5
73
330
2
100
AcDbSymbolTableRecord
100
AcDbLayerTableRecord
  2
SLD-0
 70
     0
 62
   179
  6
Continuous
370
    -3
390
F
  0
ENDTAB
  0
TABLE
  2
STYLE
  5
3
330
0
100
AcDbSymbolTable
 70
     2
  0
STYLE
  5
11
330
3
100
AcDbSymbolTableRecord
100
AcDbTextStyleTableRecord
  2
Standard
 70
     0
 40
0.0
 41
1.0
 50
0.0
 71
     0
 42
3.5
  3
txt
  4
bigfont
  0
STYLE
  5
7A
330
3
100
AcDbSymbolTableRecord
100
AcDbTextStyleTableRecord
  2
SLDTEXTSTYLE0
 70
     0
 40
0.0
 41
0.7
 50
0.0
 71
     0
 42
3.5
  3
TXT
  4
bigfont
  0
ENDTAB
  0
TABLE
  2
VIEW
  5
6
330
0
100
AcDbSymbolTable
 70
     0
  0
ENDTAB
  0
TABLE
  2
UCS
  5
7
330
0
100
AcDbSymbolTable
 70
     0
  0
ENDTAB
  0
TABLE
  2
APPID
  5
9
330
0
100
AcDbSymbolTable
 70
     1
  0
APPID
  5
12
330
9
100
AcDbSymbolTableRecord
100
AcDbRegAppTableRecord
  2
ACAD
 70
     0
  0
ENDTAB
  0
TABLE
  2
DIMSTYLE
  5
A
330
0
100
AcDbSymbolTable
 70
     1
100
AcDbDimStyleTable
  0
DIMSTYLE
105
27
330
A
100
AcDbSymbolTableRecord
100
AcDbDimStyleTableRecord
  2
ISO-25
 70
     0
 41
2.5
 42
0.625
 43
3.75
 44
1.25
 73
     0
 74
     0
 77
     1
 78
     8
140
2.5
141
2.5
143
0.0393700787
147
0.625
171
     3
172
     1
178
     0
271
     2
272
     2
274
     3
278
    44
283
     0
284
     8
340
11
  0
ENDTAB
  0
TABLE
  2
BLOCK_RECORD
  5
1
330
0
100
AcDbSymbolTable
 70
     6
  0
BLOCK_RECORD
  5
1F
330
1
100
AcDbSymbolTableRecord
100
AcDbBlockTableRecord
  2
*Model_Space
340
22
  0
BLOCK_RECORD
  5
1B
330
1
100
AcDbSymbolTableRecord
100
AcDbBlockTableRecord
  2
*Paper_Space
340
1E
  0
BLOCK_RECORD
  5
23
330
1
100
AcDbSymbolTableRecord
100
AcDbBlockTableRecord
  2
*Paper_Space0
340
26
  0
BLOCK_RECORD
  5
74
330
1
100
AcDbSymbolTableRecord
100
AcDbBlockTableRecord
  2
SW_NOTE_0
340
0
102
{BLKREFS
331
43C
102
}
  0
BLOCK_RECORD
  5
77
330
1
100
AcDbSymbolTableRecord
100
AcDbBlockTableRecord
  2
SW_NOTE_0_1
340
0
102
{BLKREFS
331
7C
102
}
  0
BLOCK_RECORD
  5
7D
330
1
100
AcDbSymbolTableRecord
100
AcDbBlockTableRecord
  2
SW_NOTE_0_2
340
0
102
{BLKREFS
331
81
102
}
  0
BLOCK_RECORD
  5
82
330
1
100
AcDbSymbolTableRecord
100
AcDbBlockTableRecord
  2
SW_NOTE_0_3
340
0
102
{BLKREFS
331
86
102
}
  0
BLOCK_RECORD
  5
87
330
1
100
AcDbSymbolTableRecord
100
AcDbBlockTableRecord
  2
SW_NOTE_0_4
340
0
102
{BLKREFS
331
8B
102
}
  0
ENDTAB
  0
ENDSEC
  0
SECTION
  2
BLOCKS
  0
BLOCK
  5
20
330
1F
100
AcDbEntity
  8
0
100
AcDbBlockBegin
  2
*Model_Space
 70
     0
 10
0.0
 20
0.0
 30
0.0
  3
*Model_Space
  1

  0
ENDBLK
  5
21
330
1F
100
AcDbEntity
  8
0
100
AcDbBlockEnd
  0
BLOCK
  5
1C
330
1B
100
AcDbEntity
 67
     1
  8
0
100
AcDbBlockBegin
  2
*Paper_Space
 70
     0
 10
0.0
 20
0.0
 30
0.0
  3
*Paper_Space
  1

  0
ENDBLK
  5
1D
330
1B
100
AcDbEntity
 67
     1
  8
0
100
AcDbBlockEnd
  0
BLOCK
  5
24
330
23
100
AcDbEntity
  8
0
100
AcDbBlockBegin
  2
*Paper_Space0
 70
     0
 10
0.0
 20
0.0
 30
0.0
  3
*Paper_Space0
  1

  0
ENDBLK
  5
25
330
23
100
AcDbEntity
  8
0
100
AcDbBlockEnd
  0
BLOCK
  5
75
330
74
100
AcDbEntity
  8
0
100
AcDbBlockBegin
  2
SW_NOTE_0
 70
     0
 10
0.0
 20
0.0
 30
0.0
  3
SW_NOTE_0
  1

  0
INSERT
  5
7C
330
74
100
AcDbEntity
  8
SLD-0
 62
   179
100
AcDbBlockReference
  2
SW_NOTE_0_1
 10
0.0
 20
-12.7272745154
 30
0.0
  0
INSERT
  5
81
330
74
100
AcDbEntity
  8
SLD-0
 62
   179
100
AcDbBlockReference
  2
SW_NOTE_0_2
 10
0.0
 20
-462.7272551439
 30
0.0
  0
INSERT
  5
86
330
74
100
AcDbEntity
  8
SLD-0
 62
   179
100
AcDbBlockReference
  2
SW_NOTE_0_3
 10
0.0
 20
-912.7272357724
 30
0.0
  0
INSERT
  5
8B
330
74
100
AcDbEntity
  8
SLD-0
 62
   179
100
AcDbBlockReference
  2
SW_NOTE_0_4
 10
0.0
 20
-1330.2909192744
 30
0.0
  0
ENDBLK
  5
76
330
74
100
AcDbEntity
  8
0
100
AcDbBlockEnd
  0
BLOCK
  5
78
330
77
100
AcDbEntity
  8
0
100
AcDbBlockBegin
  2
SW_NOTE_0_1
 70
     0
 10
0.0
 20
0.0
 30
0.0
  3
SW_NOTE_0_1
  1

  0
MTEXT
  5
7B
330
77
100
AcDbEntity
  8
SLD-0
 62
     0
100
AcDbMText
 10
0.0
 20
451.1737089202
 30
0.0
 40
350.0
 41
0.0
 71
     1
 72
     1
  1
HAC-D35T
  7
SLDTEXTSTYLE0
 73
     1
 44
1.0
  0
ENDBLK
  5
79
330
77
100
AcDbEntity
  8
0
100
AcDbBlockEnd
  0
BLOCK
  5
7E
330
7D
100
AcDbEntity
  8
0
100
AcDbBlockBegin
  2
SW_NOTE_0_2
 70
     0
 10
0.0
 20
0.0
 30
0.0
  3
SW_NOTE_0_2
  1

  0
MTEXT
  5
80
330
7D
100
AcDbEntity
  8
SLD-0
 62
     0
100
AcDbMText
 10
0.0
 20
451.1737089202
 30
0.0
 40
350.0
 41
0.0
 71
     1
 72
     1
  1
HAC-W35T
  7
SLDTEXTSTYLE0
 73
     1
 44
1.0
  0
ENDBLK
  5
7F
330
7D
100
AcDbEntity
  8
0
100
AcDbBlockEnd
  0
BLOCK
  5
83
330
82
100
AcDbEntity
  8
0
100
AcDbBlockBegin
  2
SW_NOTE_0_3
 70
     0
 10
0.0
 20
0.0
 30
0.0
  3
SW_NOTE_0_3
  1

  0
MTEXT
  5
85
330
82
100
AcDbEntity
  8
SLD-0
 62
     0
100
AcDbMText
 10
0.0
 20
451.1737089202
 30
0.0
 40
350.0
 41
0.0
 71
     1
 72
     1
  1
HAC-B35T
  7
SLDTEXTSTYLE0
 73
     1
 44
1.0
  0
ENDBLK
  5
84
330
82
100
AcDbEntity
  8
0
100
AcDbBlockEnd
  0
BLOCK
  5
88
330
87
100
AcDbEntity
  8
0
100
AcDbBlockBegin
  2
SW_NOTE_0_4
 70
     0
 10
0.0
 20
0.0
 30
0.0
  3
SW_NOTE_0_4
  1

  0
MTEXT
  5
8A
330
87
100
AcDbEntity
  8
SLD-0
 62
     0
100
AcDbMText
 10
0.0
 20
451.1737089202
 30
0.0
 40
350.0
 41
0.0
 71
     1
 72
     1
  1
HAC-H35T
  7
SLDTEXTSTYLE0
 73
     1
 44
1.0
  0
ENDBLK
  5
89
330
87
100
AcDbEntity
  8
0
100
AcDbBlockEnd
  0
ENDSEC
  0
SECTION
  2
ENTITIES
  0
LINE
  5
8C
330
1F
100
AcDbEntity
  8
SLD-0
  6
Continuous
 62
   179
370
    25
100
AcDbLine
 10
27.5561579578
 20
178.4446850948
 30
0.0
 11
21.0865357035
 21
180.119146832
 31
0.0
  0
LINE
  5
8D
330
1F
100
AcDbEntity
  8
SLD-0
  6
Continuous
 62
   179
370
    25
100
AcDbLine
 10
21.3454582804
 20
179.432363861
 30
0.0
 11
27.4058201425
 21
177.8638259105
 31
0.0
  0
LINE
  5
8E
330
1F
100
AcDbEntity
  8
SLD-0
  6
Continuous
 62
   179
370
    25
100
AcDbLine
 10
27.5443741195
 20
177.8941214613
 30
0.0
 11
27.6922487729
 21
177.8558496914
 31
0.0
  0
LINE
  5
8F
330
1F
100
AcDbEntity
  8
SLD-0
  6
Continuous
 62
   179
370
    25
100
AcDbLine
 10
27.7523794287
 20
178.0881949298
 30
0.0
 11
27.6793588906
 21
178.1069848181
 31
0.0
  0
LINE
  5
90
330
1F
100
AcDbEntity
  8
SLD-0
  6
Continuous
 62
   179
370
    25
100
AcDbLine
 10
27.7523794287
 20
178.3277430169
 30
0.0
 11
27.6608839653
 21
178.3489592902
 31
0.0
  0
LINE
  5
91
330
1F
100
AcDbEntity
  8
SLD-0
  6
Continuous
 62
   179
370
    25
100
AcDbLine
 10
27.7368941419
 20
177.8349340491
 30
0.0
 11
27.940214526
 21
177.6989907555
 31
0.0
  0
LINE
  5
92
330
1F
100
AcDbEntity
  8
SLD-0
  6
Continuous
 62
   179
370
    25
100
AcDbLine
 10
28.073609721
 20
177.8985024027
 30
0.0
 11
27.8702938073
 21
178.0344468139
 31
0.0
  0
LINE
  5
93
330
1F
100
AcDbEntity
  8
SLD-0
  6
Continuous
 62
   179
370
    25
100
AcDbLine
 10
27.7593924558
 20
178.0859705164
 30
0.0
 11
27.8215044253
 21
178.0881759308
 31
0.0
  0
LINE
  5
94
330
1F
100
AcDbEntity
  8
SLD-0
  6
Continuous
 62
   179
370
    25
100
AcDbLine
 10
27.8215044253
 20
178.0881759308
 30
0.0
 11
28.024820339
 21
178.118873813
 31
0.0
  0
LINE
  5
95
330
1F
100
AcDbEntity
  8
SLD-0
  6
Continuous
 62
   179
370
    25
100
AcDbLine
 10
27.9889994376
 20
178.3561844907
 30
0.0
 11
27.7856790536
 21
178.3254843734
 31
0.0
  0
LINE
  5
96
330
1F
100
AcDbEntity
  8
SLD-0
  6
Continuous
 62
   179
370
    25
100
AcDbLine
 10
28.0581199639
 20
177.6452437572
 30
0.0
 11
28.5822906606
 21
177.5095776252
 31
0.0
  0
LINE
  5
97
330
1F
100
AcDbEntity
  8
SLD-0
  6
Continuous
 62
   179
370
    25
100
AcDbLine
 10
28.6424257868
 20
177.7419217459
 30
0.0
 11
28.1182595604
 21
177.8775878779
 31
0.0
  0
LINE
  5
98
330
1F
100
AcDbEntity
  8
SLD-0
  6
Continuous
 62
   179
370
    25
100
AcDbLine
 10
28.0581199639
 20
178.1166151695
 30
0.0
 11
28.5822906606
 21
177.9809490375
 31
0.0
  0
LINE
  5
99
330
1F
100
AcDbEntity
  8
SLD-0
  6
Continuous
 62
   179
370
    25
100
AcDbLine
 10
28.6424257868
 20
178.2132942758
 30
0.0
 11
28.1182595604
 21
178.3489592902
 31
0.0
  0
LINE
  5
9A
330
1F
100
AcDbEntity
  8
SLD-0
  6
Continuous
 62
   179
370
    25
100
AcDbLine
 10
28.5572388285
 20
177.2620834939
 30
0.0
 11
198.2628741377
 21
133.3390344463
 31
0.0
  0
LINE
  5
9B
330
1F
100
AcDbEntity
  8
SLD-0
  6
Continuous
 62
   179
370
    25
100
AcDbLine
 10
151.3861575239
 20
146.0852224908
 30
0.0
 11
152.2346966975
 21
145.8656032167
 31
0.0
  0
LINE
  5
9C
330
1F
100
AcDbEntity
  8
SLD-0
  6
Continuous
 62
   179
370
    25
100
AcDbLine
 10
152.2833162062
 20
146.7063058696
 30
0.0
 11
151.4347770326
 21
146.9259162031
 31
0.0
  0
LINE
  5
9D
330
1F
100
AcDbEntity
  8
SLD-0
  6
Continuous
 62
   179
370
    25
100
AcDbLine
 10
189.0042373054
 20
136.3489468179
 30
0.0
 11
189.852763068
 21
136.1293275438
 31
0.0
  0
LINE
  5
9E
330
1F
100
AcDbEntity
  8
SLD-0
  6
Continuous
 62
   179
370
    25
100
AcDbLine
 10
189.9014004581
 20
136.9700301967
 30
0.0
 11
189.0528568142
 21
137.1896405302
 31
0.0
  0
LINE
  5
9F
330
1F
100
AcDbEntity
  8
SLD-0
  6
Continuous
 62
   179
370
    25
100
AcDbLine
 10
132.3225603514
 20
151.019239851
 30
0.0
 11
133.1710928195
 21
150.7996250473
 31
0.0
  0
LINE
  5
A0
330
1F
100
AcDbEntity
  8
SLD-0
  6
Continuous
 62
   179
370
    25
100
AcDbLine
 10
133.2197100931
 20
151.6403277002
 30
0.0
 11
132.3711888008
 21
151.859942504
 31
0.0
  0
LINE
  5
A1
330
1F
100
AcDbEntity
  8
SLD-0
  6
Continuous
 62
   179
370
    25
100
AcDbLine
 10
94.7044861578
 20
160.7555177591
 30
0.0
 11
95.5530082882
 21
160.5359029553
 31
0.0
  0
LINE
  5
A2
330
1F
100
AcDbEntity
  8
SLD-0
  6
Continuous
 62
   179
370
    25
100
AcDbLine
 10
95.6016361789
 20
161.3766011379
 30
0.0
 11
94.753104549
 21
161.5962181769
 31
0.0
  0
LINE
  5
A3
330
1F
100
AcDbEntity
  8
SLD-0
  6
Continuous
 62
   179
370
    25
100
AcDbLine
 10
38.0228036158
 20
175.4258163802
 30
0.0
 11
38.8713338487
 21
175.2062004588
 31
0.0
  0
LINE
  5
A4
330
1F
100
AcDbEntity
  8
SLD-0
  6
Continuous
 62
   179
370
    25
100
AcDbLine
 10
38.9199488871
 20
176.0469008766
 30
0.0
 11
38.0714231246
 21
176.2665167979
 31
0.0
  0
LINE
  5
A5
330
1F
100
AcDbEntity
  8
SLD-0
  6
Continuous
 62
   179
370
    25
100
AcDbLine
 10
75.640878927
 20
165.6895418249
 30
0.0
 11
76.4894113951
 21
165.4699247859
 31
0.0
  0
LINE
  5
A6
330
1F
100
AcDbEntity
  8
SLD-0
  6
Continuous
 62
   179
370
    25
100
AcDbLine
 10
76.5380309038
 20
166.3106274388
 30
0.0
 11
75.6894984358
 21
166.5302422426
 31
0.0
  0
LINE
  5
A7
330
1F
100
AcDbEntity
  8
SLD-0
  6
Continuous
 62
   179
370
    25
100
AcDbLine
 10
142.1699264162
 20
148.1347967468
 30
0.0
 11
198.7384744995
 21
133.4937844954
 31
0.0
  0
LINE
  5
A8
330
1F
100
AcDbEntity
  8
SLD-0
  6
Continuous
 62
   179
370
    25
100
AcDbLine
 10
28.8065725081
 20
177.4753928713
 30
0.0
 11
85.3751194738
 21
162.8343772672
 31
0.0
  0
LINE
  5
A9
330
1F
100
AcDbEntity
  8
SLD-0
  6
Continuous
 62
   179
370
    25
100
AcDbLine
 10
28.3085354679
 20
177.8472699754
 30
0.0
 11
28.3860870712
 21
177.8271992288
 31
0.0
  0
LINE
  5
AA
330
1F
100
AcDbEntity
  8
SLD-0
  6
Continuous
 62
   179
370
    25
100
AcDbLine
 10
85.4882539325
 20
162.8050964854
 30
0.0
 11
142.0567997806
 21
148.1640775285
 31
0.0
  0
LINE
  5
AB
330
1F
100
AcDbEntity
  8
SLD-0
  6
Continuous
 62
   179
370
    25
100
AcDbLine
 10
27.4058201425
 20
177.8638259105
 30
0.0
 11
27.4154403322
 21
177.8616946719
 31
0.0
  0
LINE
  5
AC
330
1F
100
AcDbEntity
  8
SLD-0
  6
Continuous
 62
   179
370
    25
100
AcDbLine
 10
27.4154403322
 20
177.8616946719
 30
0.0
 11
27.4809890502
 21
177.8644785814
 31
0.0
  0
LINE
  5
AD
330
1F
100
AcDbEntity
  8
SLD-0
  6
Continuous
 62
   179
370
    25
100
AcDbLine
 10
27.4809890502
 20
177.8644785814
 30
0.0
 11
27.5465467089
 21
177.8956279687
 31
0.0
  0
LINE
  5
AE
330
1F
100
AcDbEntity
  8
SLD-0
  6
Continuous
 62
   179
370
    25
100
AcDbLine
 10
27.5465467089
 20
177.8956279687
 30
0.0
 11
27.6056804769
 21
177.9520918212
 31
0.0
  0
LINE
  5
AF
330
1F
100
AcDbEntity
  8
SLD-0
  6
Continuous
 62
   179
370
    25
100
AcDbLine
 10
27.6056804769
 20
177.9520918212
 30
0.0
 11
27.652610194
 21
178.0283470235
 31
0.0
  0
LINE
  5
B0
330
1F
100
AcDbEntity
  8
SLD-0
  6
Continuous
 62
   179
370
    25
100
AcDbLine
 10
27.652610194
 20
178.0283470235
 30
0.0
 11
27.6827403419
 21
178.1169258587
 31
0.0
  0
LINE
  5
B1
330
1F
100
AcDbEntity
  8
SLD-0
  6
Continuous
 62
   179
370
    25
100
AcDbLine
 10
27.6827403419
 20
178.1169258587
 30
0.0
 11
27.6931249612
 21
178.2091603212
 31
0.0
  0
LINE
  5
B2
330
1F
100
AcDbEntity
  8
SLD-0
  6
Continuous
 62
   179
370
    25
100
AcDbLine
 10
27.6931249612
 20
178.2091603212
 30
0.0
 11
27.6827403419
 21
178.2960191898
 31
0.0
  0
LINE
  5
B3
330
1F
100
AcDbEntity
  8
SLD-0
  6
Continuous
 62
   179
370
    25
100
AcDbLine
 10
27.6827403419
 20
178.2960191898
 30
0.0
 11
27.652610194
 21
178.3689998619
 31
0.0
  0
LINE
  5
B4
330
1F
100
AcDbEntity
  8
SLD-0
  6
Continuous
 62
   179
370
    25
100
AcDbLine
 10
27.652610194
 20
178.3689998619
 30
0.0
 11
27.6056804769
 21
178.4209620736
 31
0.0
  0
LINE
  5
B5
330
1F
100
AcDbEntity
  8
SLD-0
  6
Continuous
 62
   179
370
    25
100
AcDbLine
 10
27.6056804769
 20
178.4209620736
 30
0.0
 11
27.5561579578
 21
178.4446850948
 31
0.0
  0
LINE
  5
B6
330
1F
100
AcDbEntity
  8
SLD-0
  6
Continuous
 62
   179
370
    25
100
AcDbLine
 10
28.5822906606
 20
177.5095776252
 30
0.0
 11
28.6123582237
 21
177.5098391406
 31
0.0
  0
LINE
  5
B7
330
1F
100
AcDbEntity
  8
SLD-0
  6
Continuous
 62
   179
370
    25
100
AcDbLine
 10
28.6123582237
 20
177.5098391406
 30
0.0
 11
28.6448353045
 21
177.527065628
 31
0.0
  0
LINE
  5
B8
330
1F
100
AcDbEntity
  8
SLD-0
  6
Continuous
 62
   179
370
    25
100
AcDbLine
 10
28.6448353045
 20
177.527065628
 30
0.0
 11
28.6723592394
 21
177.5593169562
 31
0.0
  0
LINE
  5
B9
330
1F
100
AcDbEntity
  8
SLD-0
  6
Continuous
 62
   179
370
    25
100
AcDbLine
 10
28.6723592394
 20
177.5593169562
 30
0.0
 11
28.6907547229
 21
177.6016824476
 31
0.0
  0
LINE
  5
BA
330
1F
100
AcDbEntity
  8
SLD-0
  6
Continuous
 62
   179
370
    25
100
AcDbLine
 10
28.6907547229
 20
177.6016824476
 30
0.0
 11
28.6972143762
 21
177.6477113895
 31
0.0
  0
LINE
  5
BB
330
1F
100
AcDbEntity
  8
SLD-0
  6
Continuous
 62
   179
370
    25
100
AcDbLine
 10
28.5822906606
 20
177.9809490375
 30
0.0
 11
28.6123582237
 21
177.9812105529
 31
0.0
  0
LINE
  5
BC
330
1F
100
AcDbEntity
  8
SLD-0
  6
Continuous
 62
   179
370
    25
100
AcDbLine
 10
28.6123582237
 20
177.9812105529
 30
0.0
 11
28.6448353045
 21
177.9984381578
 31
0.0
  0
LINE
  5
BD
330
1F
100
AcDbEntity
  8
SLD-0
  6
Continuous
 62
   179
370
    25
100
AcDbLine
 10
28.6448353045
 20
177.9984381578
 30
0.0
 11
28.6723592394
 21
178.0306894861
 31
0.0
  0
LINE
  5
BE
330
1F
100
AcDbEntity
  8
SLD-0
  6
Continuous
 62
   179
370
    25
100
AcDbLine
 10
28.6723592394
 20
178.0306894861
 30
0.0
 11
28.6907547229
 21
178.0730549775
 31
0.0
  0
LINE
  5
BF
330
1F
100
AcDbEntity
  8
SLD-0
  6
Continuous
 62
   179
370
    25
100
AcDbLine
 10
28.6907547229
 20
178.0730549775
 30
0.0
 11
28.6972143762
 21
178.1190828017
 31
0.0
  0
LINE
  5
C0
330
1F
100
AcDbEntity
  8
SLD-0
  6
Continuous
 62
   179
370
    25
100
AcDbLine
 10
28.5607212298
 20
178.2344401411
 30
0.0
 11
28.7679263466
 21
178.2880686752
 31
0.0
  0
LINE
  5
C1
330
1F
100
AcDbEntity
  8
SLD-0
  6
Continuous
 62
   179
370
    25
100
AcDbLine
 10
28.7679263466
 20
178.2880686752
 30
0.0
 11
28.7679263466
 21
177.5153287284
 31
0.0
  0
LINE
  5
C2
330
1F
100
AcDbEntity
  8
SLD-0
  6
Continuous
 62
   179
370
    25
100
AcDbLine
 10
28.7679263466
 20
177.5153287284
 30
0.0
 11
28.7560843938
 21
177.4309408448
 31
0.0
  0
LINE
  5
C3
330
1F
100
AcDbEntity
  8
SLD-0
  6
Continuous
 62
   179
370
    25
100
AcDbLine
 10
28.7560843938
 20
177.4309408448
 30
0.0
 11
28.7223600858
 21
177.3532718949
 31
0.0
  0
LINE
  5
C4
330
1F
100
AcDbEntity
  8
SLD-0
  6
Continuous
 62
   179
370
    25
100
AcDbLine
 10
28.7223600858
 20
177.3532718949
 30
0.0
 11
28.6718898528
 21
177.2941448323
 31
0.0
  0
LINE
  5
C5
330
1F
100
AcDbEntity
  8
SLD-0
  6
Continuous
 62
   179
370
    25
100
AcDbLine
 10
28.6718898528
 20
177.2941448323
 30
0.0
 11
28.6123582237
 21
177.2625618212
 31
0.0
  0
LINE
  5
C6
330
1F
100
AcDbEntity
  8
SLD-0
  6
Continuous
 62
   179
370
    25
100
AcDbLine
 10
28.6123582237
 20
177.2625618212
 30
0.0
 11
28.552831065
 21
177.2633296035
 31
0.0
  0
LINE
  5
C7
330
1F
100
AcDbEntity
  8
SLD-0
  6
Continuous
 62
   179
370
    25
100
AcDbLine
 10
28.552831065
 20
177.2633296035
 30
0.0
 11
28.502360832
 21
177.2963330678
 31
0.0
  0
LINE
  5
C8
330
1F
100
AcDbEntity
  8
SLD-0
  6
Continuous
 62
   179
370
    25
100
AcDbLine
 10
28.502360832
 20
177.2963330678
 30
0.0
 11
28.468636524
 21
177.3565453074
 31
0.0
  0
LINE
  5
C9
330
1F
100
AcDbEntity
  8
SLD-0
  6
Continuous
 62
   179
370
    25
100
AcDbLine
 10
28.468636524
 20
177.3565453074
 30
0.0
 11
28.4567990415
 21
177.4348021082
 31
0.0
  0
LINE
  5
CA
330
1F
100
AcDbEntity
  8
SLD-0
  6
Continuous
 62
   179
370
    25
100
AcDbLine
 10
28.4567990415
 20
177.4348021082
 30
0.0
 11
28.4567990415
 21
177.5420591764
 31
0.0
  0
LINE
  5
CB
330
1F
100
AcDbEntity
  8
SLD-0
  6
Continuous
 62
   179
370
    25
100
AcDbLine
 10
28.4567990415
 20
177.7899668149
 30
0.0
 11
28.4567990415
 21
178.0134305887
 31
0.0
  0
LINE
  5
CC
330
1F
100
AcDbEntity
  8
SLD-0
  6
Continuous
 62
   179
370
    25
100
AcDbLine
 10
198.4720685594
 20
133.5627306781
 30
0.0
 11
198.4616794699
 21
133.5077811561
 31
0.0
  0
LINE
  5
CD
330
1F
100
AcDbEntity
  8
SLD-0
  6
Continuous
 62
   179
370
    25
100
AcDbLine
 10
198.4616794699
 20
133.5077811561
 30
0.0
 11
198.4279551618
 21
133.4301624976
 31
0.0
  0
LINE
  5
CE
330
1F
100
AcDbEntity
  8
SLD-0
  6
Continuous
 62
   179
370
    25
100
AcDbLine
 10
198.4279551618
 20
133.4301624976
 30
0.0
 11
198.3774849289
 21
133.3710779033
 31
0.0
  0
LINE
  5
CF
330
1F
100
AcDbEntity
  8
SLD-0
  6
Continuous
 62
   179
370
    25
100
AcDbLine
 10
198.3774849289
 20
133.3710779033
 30
0.0
 11
198.3179935329
 21
133.3395127736
 31
0.0
  0
LINE
  5
D0
330
1F
100
AcDbEntity
  8
SLD-0
  6
Continuous
 62
   179
370
    25
100
AcDbLine
 10
198.3179935329
 20
133.3395127736
 30
0.0
 11
198.2628741377
 21
133.3390344463
 31
0.0
  0
LINE
  5
D1
330
1F
100
AcDbEntity
  8
SLD-0
  6
Continuous
 62
   179
370
    25
100
AcDbLine
 10
28.7820571177
 20
178.2844108127
 30
0.0
 11
28.7679263466
 21
178.2880686752
 31
0.0
  0
LINE
  5
D2
330
1F
100
AcDbEntity
  8
SLD-0
  6
Continuous
 62
   179
370
    25
100
AcDbLine
 10
150.6590017193
 20
147.32805086
 30
0.0
 11
149.8945140355
 21
147.1301843009
 31
0.0
  0
LINE
  5
D3
330
1F
100
AcDbEntity
  8
SLD-0
  6
Continuous
 62
   179
370
    25
100
AcDbLine
 10
150.6590017193
 20
147.1735019765
 30
0.0
 11
150.6590017193
 21
147.32805086
 31
0.0
  0
LINE
  5
D4
330
1F
100
AcDbEntity
  8
SLD-0
  6
Continuous
 62
   179
370
    25
100
AcDbLine
 10
150.1930707209
 20
147.0529143296
 30
0.0
 11
150.6590017193
 21
147.1735019765
 31
0.0
  0
LINE
  5
D5
330
1F
100
AcDbEntity
  8
SLD-0
  6
Continuous
 62
   179
370
    25
100
AcDbLine
 10
150.6590017193
 20
147.32805086
 30
0.0
 11
150.8852684014
 21
147.32805086
 31
0.0
  0
LINE
  5
D6
330
1F
100
AcDbEntity
  8
SLD-0
  6
Continuous
 62
   179
370
    25
100
AcDbLine
 10
150.8852684014
 20
147.32805086
 30
0.0
 11
150.8852684014
 21
147.1735019765
 31
0.0
  0
LINE
  5
D7
330
1F
100
AcDbEntity
  8
SLD-0
  6
Continuous
 62
   179
370
    25
100
AcDbLine
 10
150.8852684014
 20
147.1735019765
 30
0.0
 11
150.6590017193
 21
147.1735019765
 31
0.0
  0
LINE
  5
D8
330
1F
100
AcDbEntity
  8
SLD-0
  6
Continuous
 62
   179
370
    25
100
AcDbLine
 10
150.7587530725
 20
146.9065014802
 30
0.0
 11
150.8117222302
 21
146.9202120386
 31
0.0
  0
LINE
  5
D9
330
1F
100
AcDbEntity
  8
SLD-0
  6
Continuous
 62
   179
370
    25
100
AcDbLine
 10
150.8852684014
 20
147.1735019765
 30
0.0
 11
151.3378062361
 21
147.0563699089
 31
0.0
  0
LINE
  5
DA
330
1F
100
AcDbEntity
  8
SLD-0
  6
Continuous
 62
   179
370
    25
100
AcDbLine
 10
151.2416356318
 20
147.0314834795
 30
0.0
 11
151.3378062361
 21
147.0563699089
 31
0.0
  0
LINE
  5
DB
330
1F
100
AcDbEntity
  8
SLD-0
  6
Continuous
 62
   179
370
    25
100
AcDbLine
 10
152.6388832443
 20
146.7196275077
 30
0.0
 11
152.1863454097
 21
146.8367595754
 31
0.0
  0
LINE
  5
DC
330
1F
100
AcDbEntity
  8
SLD-0
  6
Continuous
 62
   179
370
    25
100
AcDbLine
 10
152.6388832443
 20
146.6610659442
 30
0.0
 11
152.6388832443
 21
146.7196275077
 31
0.0
  0
LINE
  5
DD
330
1F
100
AcDbEntity
  8
SLD-0
  6
Continuous
 62
   179
370
    25
100
AcDbLine
 10
152.2844025009
 20
146.5693209849
 30
0.0
 11
152.6388832443
 21
146.6610659442
 31
0.0
  0
LINE
  5
DE
330
1F
100
AcDbEntity
  8
SLD-0
  6
Continuous
 62
   179
370
    25
100
AcDbLine
 10
150.4468658083
 20
147.0380683027
 30
0.0
 11
150.4078396671
 21
147.0229585252
 31
0.0
  0
LINE
  5
DF
330
1F
100
AcDbEntity
  8
SLD-0
  6
Continuous
 62
   179
370
    25
100
AcDbLine
 10
150.4078396671
 20
147.0229585252
 30
0.0
 11
150.3941469901
 21
147.005130776
 31
0.0
  0
LINE
  5
E0
330
1F
100
AcDbEntity
  8
SLD-0
  6
Continuous
 62
   179
370
    25
100
AcDbLine
 10
150.3941469901
 20
147.005130776
 30
0.0
 11
150.3949650638
 21
147.0006559573
 31
0.0
  0
LINE
  5
E1
330
1F
100
AcDbEntity
  8
SLD-0
  6
Continuous
 62
   179
370
    25
100
AcDbLine
 10
150.7014208548
 20
146.9721843086
 30
0.0
 11
150.9842597955
 21
147.0453952036
 31
0.0
  0
LINE
  5
E2
330
1F
100
AcDbEntity
  8
SLD-0
  6
Continuous
 62
   179
370
    25
100
AcDbLine
 10
150.9842597955
 20
147.0453952036
 30
0.0
 11
151.0232859366
 21
147.0605049811
 31
0.0
  0
LINE
  5
E3
330
1F
100
AcDbEntity
  8
SLD-0
  6
Continuous
 62
   179
370
    25
100
AcDbLine
 10
151.0232859366
 20
147.0605049811
 30
0.0
 11
151.0369786136
 21
147.0783327303
 31
0.0
  0
LINE
  5
E4
330
1F
100
AcDbEntity
  8
SLD-0
  6
Continuous
 62
   179
370
    25
100
AcDbLine
 10
151.0369786136
 20
147.0783327303
 30
0.0
 11
151.0232859366
 21
147.0961649499
 31
0.0
  0
LINE
  5
E5
330
1F
100
AcDbEntity
  8
SLD-0
  6
Continuous
 62
   179
370
    25
100
AcDbLine
 10
151.0232859366
 20
147.0961649499
 30
0.0
 11
150.9842597955
 21
147.1112747274
 31
0.0
  0
LINE
  5
E6
330
1F
100
AcDbEntity
  8
SLD-0
  6
Continuous
 62
   179
370
    25
100
AcDbLine
 10
150.9842597955
 20
147.1112747274
 30
0.0
 11
150.9258546942
 21
147.1213732443
 31
0.0
  0
LINE
  5
E7
330
1F
100
AcDbEntity
  8
SLD-0
  6
Continuous
 62
   179
370
    25
100
AcDbLine
 10
150.9258546942
 20
147.1213732443
 30
0.0
 11
150.8569845074
 21
147.1249227009
 31
0.0
  0
LINE
  5
E8
330
1F
100
AcDbEntity
  8
SLD-0
  6
Continuous
 62
   179
370
    25
100
AcDbLine
 10
150.8569845074
 20
147.1249227009
 30
0.0
 11
150.7880874985
 21
147.1213732443
 31
0.0
  0
LINE
  5
E9
330
1F
100
AcDbEntity
  8
SLD-0
  6
Continuous
 62
   179
370
    25
100
AcDbLine
 10
150.7880874985
 20
147.1213732443
 30
0.0
 11
150.7297047489
 21
147.1112791977
 31
0.0
  0
LINE
  5
EA
330
1F
100
AcDbEntity
  8
SLD-0
  6
Continuous
 62
   179
370
    25
100
AcDbLine
 10
150.7297047489
 20
147.1112791977
 30
0.0
 11
150.4468658083
 21
147.0380683027
 31
0.0
  0
LINE
  5
EB
330
1F
100
AcDbEntity
  8
SLD-0
  6
Continuous
 62
   179
370
    25
100
AcDbLine
 10
152.2886403911
 20
146.6538060985
 30
0.0
 11
152.2960790508
 21
146.6578785859
 31
0.0
  0
LINE
  5
EC
330
1F
100
AcDbEntity
  8
SLD-0
  6
Continuous
 62
   179
370
    25
100
AcDbLine
 10
152.2960790508
 20
146.6578785859
 30
0.0
 11
152.3097717278
 21
146.6757063351
 31
0.0
  0
LINE
  5
ED
330
1F
100
AcDbEntity
  8
SLD-0
  6
Continuous
 62
   179
370
    25
100
AcDbLine
 10
152.3097717278
 20
146.6757063351
 30
0.0
 11
152.2960790508
 21
146.6935385547
 31
0.0
  0
LINE
  5
EE
330
1F
100
AcDbEntity
  8
SLD-0
  6
Continuous
 62
   179
370
    25
100
AcDbLine
 10
152.2960790508
 20
146.6935385547
 30
0.0
 11
152.2903927677
 21
146.6967348538
 31
0.0
  0
LINE
  5
EF
330
1F
100
AcDbEntity
  8
SLD-0
  6
Continuous
 62
   179
370
    25
100
AcDbLine
 10
152.1863454097
 20
146.7314024053
 30
0.0
 11
152.1863454097
 21
146.8367595754
 31
0.0
  0
LINE
  5
F0
330
1F
100
AcDbEntity
  8
SLD-0
  6
Continuous
 62
   179
370
    25
100
AcDbLine
 10
151.3378062361
 20
146.9018254958
 30
0.0
 11
151.3378062361
 21
147.0563699089
 31
0.0
  0
LINE
  5
F1
330
1F
100
AcDbEntity
  8
SLD-0
  6
Continuous
 62
   179
370
    25
100
AcDbLine
 10
152.6388832443
 20
146.7196275077
 30
0.0
 11
152.6388832443
 21
146.8741763912
 31
0.0
  0
LINE
  5
F2
330
1F
100
AcDbEntity
  8
SLD-0
  6
Continuous
 62
   179
370
    25
100
AcDbLine
 10
150.8852684014
 20
147.32805086
 30
0.0
 11
152.6388832443
 21
146.8741763912
 31
0.0
  0
LINE
  5
F3
330
1F
100
AcDbEntity
  8
SLD-0
  6
Continuous
 62
   179
370
    25
100
AcDbLine
 10
151.4307716005
 20
146.9258849106
 30
0.0
 11
151.3378062361
 21
146.9018254958
 31
0.0
  0
LINE
  5
F4
330
1F
100
AcDbEntity
  8
SLD-0
  6
Continuous
 62
   179
370
    25
100
AcDbLine
 10
151.4420637005
 20
146.9122816406
 30
0.0
 11
151.4419832342
 21
146.9154242955
 31
0.0
  0
LINE
  5
F5
330
1F
100
AcDbEntity
  8
SLD-0
  6
Continuous
 62
   179
370
    25
100
AcDbLine
 10
151.4419832342
 20
146.9154242955
 30
0.0
 11
151.4414333813
 21
146.918356844
 31
0.0
  0
LINE
  5
F6
330
1F
100
AcDbEntity
  8
SLD-0
  6
Continuous
 62
   179
370
    25
100
AcDbLine
 10
151.4414333813
 20
146.918356844
 30
0.0
 11
151.440440964
 21
146.9209541164
 31
0.0
  0
LINE
  5
F7
330
1F
100
AcDbEntity
  8
SLD-0
  6
Continuous
 62
   179
370
    25
100
AcDbLine
 10
151.440440964
 20
146.9209541164
 30
0.0
 11
151.4390462153
 21
146.9231132946
 31
0.0
  0
LINE
  5
F8
330
1F
100
AcDbEntity
  8
SLD-0
  6
Continuous
 62
   179
370
    25
100
AcDbLine
 10
151.4390462153
 20
146.9231132946
 30
0.0
 11
151.4372938388
 21
146.9247405015
 31
0.0
  0
LINE
  5
F9
330
1F
100
AcDbEntity
  8
SLD-0
  6
Continuous
 62
   179
370
    25
100
AcDbLine
 10
151.4372938388
 20
146.9247405015
 30
0.0
 11
151.4352911227
 21
146.9257686816
 31
0.0
  0
LINE
  5
FA
330
1F
100
AcDbEntity
  8
SLD-0
  6
Continuous
 62
   179
370
    25
100
AcDbLine
 10
151.4352911227
 20
146.9257686816
 30
0.0
 11
151.4330783003
 21
146.9261576019
 31
0.0
  0
LINE
  5
FB
330
1F
100
AcDbEntity
  8
SLD-0
  6
Continuous
 62
   179
370
    25
100
AcDbLine
 10
151.4330783003
 20
146.9261576019
 30
0.0
 11
151.4307716005
 21
146.9258849106
 31
0.0
  0
LINE
  5
FC
330
1F
100
AcDbEntity
  8
SLD-0
  6
Continuous
 62
   179
370
    25
100
AcDbLine
 10
151.401455056
 20
146.1025585018
 30
0.0
 11
151.4420637005
 21
146.9122816406
 31
0.0
  0
LINE
  5
FD
330
1F
100
AcDbEntity
  8
SLD-0
  6
Continuous
 62
   179
370
    25
100
AcDbLine
 10
151.3820939772
 20
146.0877929411
 30
0.0
 11
151.3846688979
 21
146.085776814
 31
0.0
  0
LINE
  5
FE
330
1F
100
AcDbEntity
  8
SLD-0
  6
Continuous
 62
   179
370
    25
100
AcDbLine
 10
151.3846688979
 20
146.085776814
 30
0.0
 11
151.3877042644
 21
146.0849855624
 31
0.0
  0
LINE
  5
FF
330
1F
100
AcDbEntity
  8
SLD-0
  6
Continuous
 62
   179
370
    25
100
AcDbLine
 10
151.3877042644
 20
146.0849855624
 30
0.0
 11
151.3909273856
 21
146.085481771
 31
0.0
  0
LINE
  5
100
330
1F
100
AcDbEntity
  8
SLD-0
  6
Continuous
 62
   179
370
    25
100
AcDbLine
 10
151.3909273856
 20
146.085481771
 30
0.0
 11
151.3940923922
 21
146.0872252069
 31
0.0
  0
LINE
  5
101
330
1F
100
AcDbEntity
  8
SLD-0
  6
Continuous
 62
   179
370
    25
100
AcDbLine
 10
151.3940923922
 20
146.0872252069
 30
0.0
 11
151.3969355338
 21
146.0900638781
 31
0.0
  0
LINE
  5
102
330
1F
100
AcDbEntity
  8
SLD-0
  6
Continuous
 62
   179
370
    25
100
AcDbLine
 10
151.3969355338
 20
146.0900638781
 30
0.0
 11
151.3992243522
 21
146.0937787376
 31
0.0
  0
LINE
  5
103
330
1F
100
AcDbEntity
  8
SLD-0
  6
Continuous
 62
   179
370
    25
100
AcDbLine
 10
151.3992243522
 20
146.0937787376
 30
0.0
 11
151.4007666223
 21
146.0980613313
 31
0.0
  0
LINE
  5
104
330
1F
100
AcDbEntity
  8
SLD-0
  6
Continuous
 62
   179
370
    25
100
AcDbLine
 10
151.4007666223
 20
146.0980613313
 30
0.0
 11
151.401455056
 21
146.1025585018
 31
0.0
  0
LINE
  5
105
330
1F
100
AcDbEntity
  8
SLD-0
  6
Continuous
 62
   179
370
    25
100
AcDbLine
 10
151.281251859
 20
146.2020505748
 30
0.0
 11
151.3820939772
 21
146.0877929411
 31
0.0
  0
LINE
  5
106
330
1F
100
AcDbEntity
  8
SLD-0
  6
Continuous
 62
   179
370
    25
100
AcDbLine
 10
151.281251859
 20
146.2252338014
 30
0.0
 11
151.281251859
 21
146.2020505748
 31
0.0
  0
LINE
  5
107
330
1F
100
AcDbEntity
  8
SLD-0
  6
Continuous
 62
   179
370
    25
100
AcDbLine
 10
151.3201036566
 20
146.2738980136
 30
0.0
 11
151.281251859
 21
146.2252338014
 31
0.0
  0
LINE
  5
108
330
1F
100
AcDbEntity
  8
SLD-0
  6
Continuous
 62
   179
370
    25
100
AcDbLine
 10
151.3511189335
 20
146.7728291235
 30
0.0
 11
151.3378062361
 21
146.5075363002
 31
0.0
  0
LINE
  5
109
330
1F
100
AcDbEntity
  8
SLD-0
  6
Continuous
 62
   179
370
    25
100
AcDbLine
 10
151.3284006231
 20
146.3200588308
 30
0.0
 11
151.3270505779
 21
146.2928344093
 31
0.0
  0
LINE
  5
10A
330
1F
100
AcDbEntity
  8
SLD-0
  6
Continuous
 62
   179
370
    25
100
AcDbLine
 10
151.3398268335
 20
146.7864323936
 30
0.0
 11
151.3421335333
 21
146.7867050848
 31
0.0
  0
LINE
  5
10B
330
1F
100
AcDbEntity
  8
SLD-0
  6
Continuous
 62
   179
370
    25
100
AcDbLine
 10
151.3421335333
 20
146.7867050848
 30
0.0
 11
151.3443463557
 21
146.7863251052
 31
0.0
  0
LINE
  5
10C
330
1F
100
AcDbEntity
  8
SLD-0
  6
Continuous
 62
   179
370
    25
100
AcDbLine
 10
151.3443463557
 20
146.7863251052
 30
0.0
 11
151.3463490718
 21
146.7852924548
 31
0.0
  0
LINE
  5
10D
330
1F
100
AcDbEntity
  8
SLD-0
  6
Continuous
 62
   179
370
    25
100
AcDbLine
 10
151.3463490718
 20
146.7852924548
 30
0.0
 11
151.3481059187
 21
146.783665248
 31
0.0
  0
LINE
  5
10E
330
1F
100
AcDbEntity
  8
SLD-0
  6
Continuous
 62
   179
370
    25
100
AcDbLine
 10
151.3481059187
 20
146.783665248
 30
0.0
 11
151.349496197
 21
146.7815015994
 31
0.0
  0
LINE
  5
10F
330
1F
100
AcDbEntity
  8
SLD-0
  6
Continuous
 62
   179
370
    25
100
AcDbLine
 10
151.349496197
 20
146.7815015994
 30
0.0
 11
151.3504886144
 21
146.778904327
 31
0.0
  0
LINE
  5
110
330
1F
100
AcDbEntity
  8
SLD-0
  6
Continuous
 62
   179
370
    25
100
AcDbLine
 10
151.3504886144
 20
146.778904327
 30
0.0
 11
151.3510429375
 21
146.7759717784
 31
0.0
  0
LINE
  5
111
330
1F
100
AcDbEntity
  8
SLD-0
  6
Continuous
 62
   179
370
    25
100
AcDbLine
 10
151.3510429375
 20
146.7759717784
 30
0.0
 11
151.3511189335
 21
146.7728291235
 31
0.0
  0
LINE
  5
112
330
1F
100
AcDbEntity
  8
SLD-0
  6
Continuous
 62
   179
370
    25
100
AcDbLine
 10
151.281251859
 20
146.7712734423
 30
0.0
 11
151.3398268335
 21
146.7864323936
 31
0.0
  0
LINE
  5
113
330
1F
100
AcDbEntity
  8
SLD-0
  6
Continuous
 62
   179
370
    25
100
AcDbLine
 10
151.2529679649
 20
146.779405006
 30
0.0
 11
151.2529679649
 21
146.7785914026
 31
0.0
  0
LINE
  5
114
330
1F
100
AcDbEntity
  8
SLD-0
  6
Continuous
 62
   179
370
    25
100
AcDbLine
 10
151.2529679649
 20
147.0189575634
 30
0.0
 11
151.2529679649
 21
146.779405006
 31
0.0
  0
LINE
  5
115
330
1F
100
AcDbEntity
  8
SLD-0
  6
Continuous
 62
   179
370
    25
100
AcDbLine
 10
151.2416356318
 20
147.0314834795
 30
0.0
 11
151.2438484543
 21
147.0317561708
 31
0.0
  0
LINE
  5
116
330
1F
100
AcDbEntity
  8
SLD-0
  6
Continuous
 62
   179
370
    25
100
AcDbLine
 10
151.2438484543
 20
147.0317561708
 30
0.0
 11
151.2459673994
 21
147.0314298354
 31
0.0
  0
LINE
  5
117
330
1F
100
AcDbEntity
  8
SLD-0
  6
Continuous
 62
   179
370
    25
100
AcDbLine
 10
151.2459673994
 20
147.0314298354
 30
0.0
 11
151.2479298823
 21
147.0305089436
 31
0.0
  0
LINE
  5
118
330
1F
100
AcDbEntity
  8
SLD-0
  6
Continuous
 62
   179
370
    25
100
AcDbLine
 10
151.2479298823
 20
147.0305089436
 30
0.0
 11
151.2496464961
 21
147.029024788
 31
0.0
  0
LINE
  5
119
330
1F
100
AcDbEntity
  8
SLD-0
  6
Continuous
 62
   179
370
    25
100
AcDbLine
 10
151.2496464961
 20
147.029024788
 30
0.0
 11
151.2510591262
 21
147.027048894
 31
0.0
  0
LINE
  5
11A
330
1F
100
AcDbEntity
  8
SLD-0
  6
Continuous
 62
   179
370
    25
100
AcDbLine
 10
151.2510591262
 20
147.027048894
 30
0.0
 11
151.2520917766
 21
147.0246483169
 31
0.0
  0
LINE
  5
11B
330
1F
100
AcDbEntity
  8
SLD-0
  6
Continuous
 62
   179
370
    25
100
AcDbLine
 10
151.2520917766
 20
147.0246483169
 30
0.0
 11
151.2527399772
 21
147.0219169341
 31
0.0
  0
LINE
  5
11C
330
1F
100
AcDbEntity
  8
SLD-0
  6
Continuous
 62
   179
370
    25
100
AcDbLine
 10
151.2527399772
 20
147.0219169341
 30
0.0
 11
151.2529679649
 21
147.0189575634
 31
0.0
  0
LINE
  5
11D
330
1F
100
AcDbEntity
  8
SLD-0
  6
Continuous
 62
   179
370
    25
100
AcDbLine
 10
151.401455056
 20
146.1025585018
 30
0.0
 11
152.2499763482
 21
145.8829481683
 31
0.0
  0
LINE
  5
11E
330
1F
100
AcDbEntity
  8
SLD-0
  6
Continuous
 62
   179
370
    25
100
AcDbLine
 10
152.2905849927
 20
146.6926623664
 30
0.0
 11
151.4420637005
 21
146.9122816406
 31
0.0
  0
LINE
  5
11F
330
1F
100
AcDbEntity
  8
SLD-0
  6
Continuous
 62
   179
370
    25
100
AcDbLine
 10
152.2499763482
 20
145.8829481683
 30
0.0
 11
152.2905849927
 21
146.6926623664
 31
0.0
  0
LINE
  5
120
330
1F
100
AcDbEntity
  8
SLD-0
  6
Continuous
 62
   179
370
    25
100
AcDbLine
 10
152.2499763482
 20
145.8829481683
 30
0.0
 11
152.2493102663
 21
145.8784465275
 31
0.0
  0
LINE
  5
121
330
1F
100
AcDbEntity
  8
SLD-0
  6
Continuous
 62
   179
370
    25
100
AcDbLine
 10
152.2493102663
 20
145.8784465275
 30
0.0
 11
152.2477456444
 21
145.8741684042
 31
0.0
  0
LINE
  5
122
330
1F
100
AcDbEntity
  8
SLD-0
  6
Continuous
 62
   179
370
    25
100
AcDbLine
 10
152.2477456444
 20
145.8741684042
 30
0.0
 11
152.245456826
 21
145.8704490743
 31
0.0
  0
LINE
  5
123
330
1F
100
AcDbEntity
  8
SLD-0
  6
Continuous
 62
   179
370
    25
100
AcDbLine
 10
152.245456826
 20
145.8704490743
 30
0.0
 11
152.2426136844
 21
145.8676059328
 31
0.0
  0
LINE
  5
124
330
1F
100
AcDbEntity
  8
SLD-0
  6
Continuous
 62
   179
370
    25
100
AcDbLine
 10
152.2426136844
 20
145.8676059328
 30
0.0
 11
152.2394486778
 21
145.8658669672
 31
0.0
  0
LINE
  5
125
330
1F
100
AcDbEntity
  8
SLD-0
  6
Continuous
 62
   179
370
    25
100
AcDbLine
 10
152.2394486778
 20
145.8658669672
 30
0.0
 11
152.2362255566
 21
145.8653752289
 31
0.0
  0
LINE
  5
126
330
1F
100
AcDbEntity
  8
SLD-0
  6
Continuous
 62
   179
370
    25
100
AcDbLine
 10
152.2362255566
 20
145.8653752289
 30
0.0
 11
152.2346966975
 21
145.8656032167
 31
0.0
  0
LINE
  5
127
330
1F
100
AcDbEntity
  8
SLD-0
  6
Continuous
 62
   179
370
    25
100
AcDbLine
 10
150.8004122489
 20
146.8957189999
 30
0.0
 11
150.8004122489
 21
146.9018299661
 31
0.0
  0
LINE
  5
128
330
1F
100
AcDbEntity
  8
SLD-0
  6
Continuous
 62
   179
370
    25
100
AcDbLine
 10
188.2770636194
 20
137.5917751871
 30
0.0
 11
187.512580406
 21
137.393908628
 31
0.0
  0
LINE
  5
129
330
1F
100
AcDbEntity
  8
SLD-0
  6
Continuous
 62
   179
370
    25
100
AcDbLine
 10
188.2770636194
 20
137.4372263036
 30
0.0
 11
188.2770636194
 21
137.5917751871
 31
0.0
  0
LINE
  5
12A
330
1F
100
AcDbEntity
  8
SLD-0
  6
Continuous
 62
   179
370
    25
100
AcDbLine
 10
187.8111549728
 20
137.3166386567
 30
0.0
 11
188.2770636194
 21
137.4372263036
 31
0.0
  0
LINE
  5
12B
330
1F
100
AcDbEntity
  8
SLD-0
  6
Continuous
 62
   179
370
    25
100
AcDbLine
 10
188.3768417948
 20
137.1702258072
 30
0.0
 11
188.4298064821
 21
137.1839363657
 31
0.0
  0
LINE
  5
12C
330
1F
100
AcDbEntity
  8
SLD-0
  6
Continuous
 62
   179
370
    25
100
AcDbLine
 10
188.5033526533
 20
137.4372263036
 30
0.0
 11
188.2770636194
 21
137.4372263036
 31
0.0
  0
LINE
  5
12D
330
1F
100
AcDbEntity
  8
SLD-0
  6
Continuous
 62
   179
370
    25
100
AcDbLine
 10
188.5033526533
 20
137.4372263036
 30
0.0
 11
188.9558860176
 21
137.3200942359
 31
0.0
  0
LINE
  5
12E
330
1F
100
AcDbEntity
  8
SLD-0
  6
Continuous
 62
   179
370
    25
100
AcDbLine
 10
188.8597198837
 20
137.2952078066
 30
0.0
 11
188.9558860176
 21
137.3200942359
 31
0.0
  0
LINE
  5
12F
330
1F
100
AcDbEntity
  8
SLD-0
  6
Continuous
 62
   179
370
    25
100
AcDbLine
 10
190.2569719665
 20
136.9833518348
 30
0.0
 11
189.8044117801
 21
137.1004839025
 31
0.0
  0
LINE
  5
130
330
1F
100
AcDbEntity
  8
SLD-0
  6
Continuous
 62
   179
370
    25
100
AcDbLine
 10
190.2569719665
 20
136.9247902713
 30
0.0
 11
190.2569719665
 21
136.9833518348
 31
0.0
  0
LINE
  5
131
330
1F
100
AcDbEntity
  8
SLD-0
  6
Continuous
 62
   179
370
    25
100
AcDbLine
 10
189.9024912231
 20
136.833045312
 30
0.0
 11
190.2569719665
 21
136.9247902713
 31
0.0
  0
LINE
  5
132
330
1F
100
AcDbEntity
  8
SLD-0
  6
Continuous
 62
   179
370
    25
100
AcDbLine
 10
188.0649455898
 20
137.3017926298
 30
0.0
 11
188.0259283893
 21
137.2866828523
 31
0.0
  0
LINE
  5
133
330
1F
100
AcDbEntity
  8
SLD-0
  6
Continuous
 62
   179
370
    25
100
AcDbLine
 10
188.0259283893
 20
137.2866828523
 30
0.0
 11
188.0122133606
 21
137.2688551031
 31
0.0
  0
LINE
  5
134
330
1F
100
AcDbEntity
  8
SLD-0
  6
Continuous
 62
   179
370
    25
100
AcDbLine
 10
188.0122133606
 20
137.2688551031
 30
0.0
 11
188.0130537861
 21
137.2643802844
 31
0.0
  0
LINE
  5
135
330
1F
100
AcDbEntity
  8
SLD-0
  6
Continuous
 62
   179
370
    25
100
AcDbLine
 10
188.3195051067
 20
137.2359086357
 30
0.0
 11
188.6023440473
 21
137.3091195307
 31
0.0
  0
LINE
  5
136
330
1F
100
AcDbEntity
  8
SLD-0
  6
Continuous
 62
   179
370
    25
100
AcDbLine
 10
188.6023440473
 20
137.3091195307
 30
0.0
 11
188.6413701885
 21
137.3242293082
 31
0.0
  0
LINE
  5
137
330
1F
100
AcDbEntity
  8
SLD-0
  6
Continuous
 62
   179
370
    25
100
AcDbLine
 10
188.6413701885
 20
137.3242293082
 30
0.0
 11
188.6550673359
 21
137.3420570574
 31
0.0
  0
LINE
  5
138
330
1F
100
AcDbEntity
  8
SLD-0
  6
Continuous
 62
   179
370
    25
100
AcDbLine
 10
188.6550673359
 20
137.3420570574
 30
0.0
 11
188.6413523071
 21
137.359889277
 31
0.0
  0
LINE
  5
139
330
1F
100
AcDbEntity
  8
SLD-0
  6
Continuous
 62
   179
370
    25
100
AcDbLine
 10
188.6413523071
 20
137.359889277
 30
0.0
 11
188.6023440473
 21
137.3749990545
 31
0.0
  0
LINE
  5
13A
330
1F
100
AcDbEntity
  8
SLD-0
  6
Continuous
 62
   179
370
    25
100
AcDbLine
 10
188.6023440473
 20
137.3749990545
 30
0.0
 11
188.5439434164
 21
137.3850975714
 31
0.0
  0
LINE
  5
13B
330
1F
100
AcDbEntity
  8
SLD-0
  6
Continuous
 62
   179
370
    25
100
AcDbLine
 10
188.5439434164
 20
137.3850975714
 30
0.0
 11
188.4750642889
 21
137.388647028
 31
0.0
  0
LINE
  5
13C
330
1F
100
AcDbEntity
  8
SLD-0
  6
Continuous
 62
   179
370
    25
100
AcDbLine
 10
188.4750642889
 20
137.388647028
 30
0.0
 11
188.4061762207
 21
137.3850975714
 31
0.0
  0
LINE
  5
13D
330
1F
100
AcDbEntity
  8
SLD-0
  6
Continuous
 62
   179
370
    25
100
AcDbLine
 10
188.4061762207
 20
137.3850975714
 30
0.0
 11
188.3477934711
 21
137.3749990545
 31
0.0
  0
LINE
  5
13E
330
1F
100
AcDbEntity
  8
SLD-0
  6
Continuous
 62
   179
370
    25
100
AcDbLine
 10
188.3477934711
 20
137.3749990545
 30
0.0
 11
188.0649455898
 21
137.3017926298
 31
0.0
  0
LINE
  5
13F
330
1F
100
AcDbEntity
  8
SLD-0
  6
Continuous
 62
   179
370
    25
100
AcDbLine
 10
189.9067201727
 20
136.9175304256
 30
0.0
 11
189.9141588323
 21
136.921602913
 31
0.0
  0
LINE
  5
140
330
1F
100
AcDbEntity
  8
SLD-0
  6
Continuous
 62
   179
370
    25
100
AcDbLine
 10
189.9141588323
 20
136.921602913
 30
0.0
 11
189.9278559797
 21
136.9394306622
 31
0.0
  0
LINE
  5
141
330
1F
100
AcDbEntity
  8
SLD-0
  6
Continuous
 62
   179
370
    25
100
AcDbLine
 10
189.9278559797
 20
136.9394306622
 30
0.0
 11
189.9141588323
 21
136.9572628818
 31
0.0
  0
LINE
  5
142
330
1F
100
AcDbEntity
  8
SLD-0
  6
Continuous
 62
   179
370
    25
100
AcDbLine
 10
189.9141588323
 20
136.9572628818
 30
0.0
 11
189.9084814899
 21
136.9604591809
 31
0.0
  0
LINE
  5
143
330
1F
100
AcDbEntity
  8
SLD-0
  6
Continuous
 62
   179
370
    25
100
AcDbLine
 10
188.2770636194
 20
137.5917751871
 30
0.0
 11
188.5033526533
 21
137.5917751871
 31
0.0
  0
LINE
  5
144
330
1F
100
AcDbEntity
  8
SLD-0
  6
Continuous
 62
   179
370
    25
100
AcDbLine
 10
188.5033526533
 20
137.5917751871
 30
0.0
 11
188.5033526533
 21
137.4372263036
 31
0.0
  0
LINE
  5
145
330
1F
100
AcDbEntity
  8
SLD-0
  6
Continuous
 62
   179
370
    25
100
AcDbLine
 10
189.8044117801
 20
136.9951267324
 30
0.0
 11
189.8044117801
 21
137.1004839025
 31
0.0
  0
LINE
  5
146
330
1F
100
AcDbEntity
  8
SLD-0
  6
Continuous
 62
   179
370
    25
100
AcDbLine
 10
188.9558860176
 20
137.1655498229
 30
0.0
 11
188.9558860176
 21
137.3200942359
 31
0.0
  0
LINE
  5
147
330
1F
100
AcDbEntity
  8
SLD-0
  6
Continuous
 62
   179
370
    25
100
AcDbLine
 10
190.2569719665
 20
136.9833518348
 30
0.0
 11
190.2569719665
 21
137.1379007183
 31
0.0
  0
LINE
  5
148
330
1F
100
AcDbEntity
  8
SLD-0
  6
Continuous
 62
   179
370
    25
100
AcDbLine
 10
188.5033526533
 20
137.5917751871
 30
0.0
 11
190.2569719665
 21
137.1379007183
 31
0.0
  0
LINE
  5
149
330
1F
100
AcDbEntity
  8
SLD-0
  6
Continuous
 62
   179
370
    25
100
AcDbLine
 10
189.048851382
 20
137.1896092377
 30
0.0
 11
188.9558860176
 21
137.1655498229
 31
0.0
  0
LINE
  5
14A
330
1F
100
AcDbEntity
  8
SLD-0
  6
Continuous
 62
   179
370
    25
100
AcDbLine
 10
189.060143482
 20
137.1760059677
 30
0.0
 11
189.0600719564
 21
137.1791486226
 31
0.0
  0
LINE
  5
14B
330
1F
100
AcDbEntity
  8
SLD-0
  6
Continuous
 62
   179
370
    25
100
AcDbLine
 10
189.0600719564
 20
137.1791486226
 30
0.0
 11
189.0595176332
 21
137.1820811711
 31
0.0
  0
LINE
  5
14C
330
1F
100
AcDbEntity
  8
SLD-0
  6
Continuous
 62
   179
370
    25
100
AcDbLine
 10
189.0595176332
 20
137.1820811711
 30
0.0
 11
189.0585252159
 21
137.1846784435
 31
0.0
  0
LINE
  5
14D
330
1F
100
AcDbEntity
  8
SLD-0
  6
Continuous
 62
   179
370
    25
100
AcDbLine
 10
189.0585252159
 20
137.1846784435
 30
0.0
 11
189.0571304672
 21
137.1868376217
 31
0.0
  0
LINE
  5
14E
330
1F
100
AcDbEntity
  8
SLD-0
  6
Continuous
 62
   179
370
    25
100
AcDbLine
 10
189.0571304672
 20
137.1868376217
 30
0.0
 11
189.0553780906
 21
137.1884648285
 31
0.0
  0
LINE
  5
14F
330
1F
100
AcDbEntity
  8
SLD-0
  6
Continuous
 62
   179
370
    25
100
AcDbLine
 10
189.0553780906
 20
137.1884648285
 30
0.0
 11
189.0533574932
 21
137.1894930087
 31
0.0
  0
LINE
  5
150
330
1F
100
AcDbEntity
  8
SLD-0
  6
Continuous
 62
   179
370
    25
100
AcDbLine
 10
189.0533574932
 20
137.1894930087
 30
0.0
 11
189.0511580818
 21
137.189881929
 31
0.0
  0
LINE
  5
151
330
1F
100
AcDbEntity
  8
SLD-0
  6
Continuous
 62
   179
370
    25
100
AcDbLine
 10
189.0511580818
 20
137.189881929
 30
0.0
 11
189.048851382
 21
137.1896092377
 31
0.0
  0
LINE
  5
152
330
1F
100
AcDbEntity
  8
SLD-0
  6
Continuous
 62
   179
370
    25
100
AcDbLine
 10
189.0195348375
 20
136.3662828289
 30
0.0
 11
189.060143482
 21
137.1760059677
 31
0.0
  0
LINE
  5
153
330
1F
100
AcDbEntity
  8
SLD-0
  6
Continuous
 62
   179
370
    25
100
AcDbLine
 10
189.0001782291
 20
136.3515172682
 30
0.0
 11
189.0027531498
 21
136.3495011411
 31
0.0
  0
LINE
  5
154
330
1F
100
AcDbEntity
  8
SLD-0
  6
Continuous
 62
   179
370
    25
100
AcDbLine
 10
189.0027531498
 20
136.3495011411
 30
0.0
 11
189.005784046
 21
136.3487098895
 31
0.0
  0
LINE
  5
155
330
1F
100
AcDbEntity
  8
SLD-0
  6
Continuous
 62
   179
370
    25
100
AcDbLine
 10
189.005784046
 20
136.3487098895
 30
0.0
 11
189.0090116375
 21
136.3492060981
 31
0.0
  0
LINE
  5
156
330
1F
100
AcDbEntity
  8
SLD-0
  6
Continuous
 62
   179
370
    25
100
AcDbLine
 10
189.0090116375
 20
136.3492060981
 30
0.0
 11
189.0121766441
 21
136.350949534
 31
0.0
  0
LINE
  5
157
330
1F
100
AcDbEntity
  8
SLD-0
  6
Continuous
 62
   179
370
    25
100
AcDbLine
 10
189.0121766441
 20
136.350949534
 30
0.0
 11
189.0150197857
 21
136.3537882052
 31
0.0
  0
LINE
  5
158
330
1F
100
AcDbEntity
  8
SLD-0
  6
Continuous
 62
   179
370
    25
100
AcDbLine
 10
189.0150197857
 20
136.3537882052
 30
0.0
 11
189.017308604
 21
136.3575030647
 31
0.0
  0
LINE
  5
159
330
1F
100
AcDbEntity
  8
SLD-0
  6
Continuous
 62
   179
370
    25
100
AcDbLine
 10
189.017308604
 20
136.3575030647
 30
0.0
 11
189.0188553446
 21
136.3617856584
 31
0.0
  0
LINE
  5
15A
330
1F
100
AcDbEntity
  8
SLD-0
  6
Continuous
 62
   179
370
    25
100
AcDbLine
 10
189.0188553446
 20
136.3617856584
 30
0.0
 11
189.0195348375
 21
136.3662828289
 31
0.0
  0
LINE
  5
15B
330
1F
100
AcDbEntity
  8
SLD-0
  6
Continuous
 62
   179
370
    25
100
AcDbLine
 10
188.8993182295
 20
136.4657749019
 30
0.0
 11
189.0001782291
 21
136.3515172682
 31
0.0
  0
LINE
  5
15C
330
1F
100
AcDbEntity
  8
SLD-0
  6
Continuous
 62
   179
370
    25
100
AcDbLine
 10
188.8993182295
 20
136.4889536582
 30
0.0
 11
188.8993182295
 21
136.4657749019
 31
0.0
  0
LINE
  5
15D
330
1F
100
AcDbEntity
  8
SLD-0
  6
Continuous
 62
   179
370
    25
100
AcDbLine
 10
188.9381923788
 20
136.5376223407
 30
0.0
 11
188.8993182295
 21
136.4889536582
 31
0.0
  0
LINE
  5
15E
330
1F
100
AcDbEntity
  8
SLD-0
  6
Continuous
 62
   179
370
    25
100
AcDbLine
 10
188.9692076557
 20
137.0365534506
 30
0.0
 11
188.9558860176
 21
136.7712606273
 31
0.0
  0
LINE
  5
15F
330
1F
100
AcDbEntity
  8
SLD-0
  6
Continuous
 62
   179
370
    25
100
AcDbLine
 10
188.9464893453
 20
136.5837831579
 30
0.0
 11
188.9451303594
 21
136.5565587364
 31
0.0
  0
LINE
  5
160
330
1F
100
AcDbEntity
  8
SLD-0
  6
Continuous
 62
   179
370
    25
100
AcDbLine
 10
188.9579155557
 20
137.0501567207
 30
0.0
 11
188.9602222555
 21
137.0504294119
 31
0.0
  0
LINE
  5
161
330
1F
100
AcDbEntity
  8
SLD-0
  6
Continuous
 62
   179
370
    25
100
AcDbLine
 10
188.9602222555
 20
137.0504294119
 30
0.0
 11
188.9624127262
 21
137.050044962
 31
0.0
  0
LINE
  5
162
330
1F
100
AcDbEntity
  8
SLD-0
  6
Continuous
 62
   179
370
    25
100
AcDbLine
 10
188.9624127262
 20
137.050044962
 30
0.0
 11
188.9644333237
 21
137.0490167819
 31
0.0
  0
LINE
  5
163
330
1F
100
AcDbEntity
  8
SLD-0
  6
Continuous
 62
   179
370
    25
100
AcDbLine
 10
188.9644333237
 20
137.0490167819
 30
0.0
 11
188.9661857002
 21
137.0473895751
 31
0.0
  0
LINE
  5
164
330
1F
100
AcDbEntity
  8
SLD-0
  6
Continuous
 62
   179
370
    25
100
AcDbLine
 10
188.9661857002
 20
137.0473895751
 30
0.0
 11
188.9675804489
 21
137.0452259264
 31
0.0
  0
LINE
  5
165
330
1F
100
AcDbEntity
  8
SLD-0
  6
Continuous
 62
   179
370
    25
100
AcDbLine
 10
188.9675804489
 20
137.0452259264
 30
0.0
 11
188.9685728662
 21
137.0426286541
 31
0.0
  0
LINE
  5
166
330
1F
100
AcDbEntity
  8
SLD-0
  6
Continuous
 62
   179
370
    25
100
AcDbLine
 10
188.9685728662
 20
137.0426286541
 30
0.0
 11
188.9691271894
 21
137.0396961055
 31
0.0
  0
LINE
  5
167
330
1F
100
AcDbEntity
  8
SLD-0
  6
Continuous
 62
   179
370
    25
100
AcDbLine
 10
188.9691271894
 20
137.0396961055
 30
0.0
 11
188.9692076557
 21
137.0365534506
 31
0.0
  0
LINE
  5
168
330
1F
100
AcDbEntity
  8
SLD-0
  6
Continuous
 62
   179
370
    25
100
AcDbLine
 10
188.8993182295
 20
137.0349932991
 30
0.0
 11
188.9579155557
 21
137.0501567207
 31
0.0
  0
LINE
  5
169
330
1F
100
AcDbEntity
  8
SLD-0
  6
Continuous
 62
   179
370
    25
100
AcDbLine
 10
188.8710298651
 20
137.0431293331
 30
0.0
 11
188.8710477464
 21
137.0423157297
 31
0.0
  0
LINE
  5
16A
330
1F
100
AcDbEntity
  8
SLD-0
  6
Continuous
 62
   179
370
    25
100
AcDbLine
 10
188.8710298651
 20
137.2826774202
 30
0.0
 11
188.8710298651
 21
137.0431293331
 31
0.0
  0
LINE
  5
16B
330
1F
100
AcDbEntity
  8
SLD-0
  6
Continuous
 62
   179
370
    25
100
AcDbLine
 10
188.8597198837
 20
137.2952078066
 30
0.0
 11
188.8619371765
 21
137.2954804979
 31
0.0
  0
LINE
  5
16C
330
1F
100
AcDbEntity
  8
SLD-0
  6
Continuous
 62
   179
370
    25
100
AcDbLine
 10
188.8619371765
 20
137.2954804979
 30
0.0
 11
188.8640471809
 21
137.2951541625
 31
0.0
  0
LINE
  5
16D
330
1F
100
AcDbEntity
  8
SLD-0
  6
Continuous
 62
   179
370
    25
100
AcDbLine
 10
188.8640471809
 20
137.2951541625
 30
0.0
 11
188.8660141342
 21
137.2942288003
 31
0.0
  0
LINE
  5
16E
330
1F
100
AcDbEntity
  8
SLD-0
  6
Continuous
 62
   179
370
    25
100
AcDbLine
 10
188.8660141342
 20
137.2942288003
 30
0.0
 11
188.867730748
 21
137.292749115
 31
0.0
  0
LINE
  5
16F
330
1F
100
AcDbEntity
  8
SLD-0
  6
Continuous
 62
   179
370
    25
100
AcDbLine
 10
188.867730748
 20
137.292749115
 30
0.0
 11
188.869143378
 21
137.2907732211
 31
0.0
  0
LINE
  5
170
330
1F
100
AcDbEntity
  8
SLD-0
  6
Continuous
 62
   179
370
    25
100
AcDbLine
 10
188.869143378
 20
137.2907732211
 30
0.0
 11
188.8701715582
 21
137.288372644
 31
0.0
  0
LINE
  5
171
330
1F
100
AcDbEntity
  8
SLD-0
  6
Continuous
 62
   179
370
    25
100
AcDbLine
 10
188.8701715582
 20
137.288372644
 30
0.0
 11
188.870824229
 21
137.2856412611
 31
0.0
  0
LINE
  5
172
330
1F
100
AcDbEntity
  8
SLD-0
  6
Continuous
 62
   179
370
    25
100
AcDbLine
 10
188.870824229
 20
137.2856412611
 30
0.0
 11
188.8710298651
 21
137.2826774202
 31
0.0
  0
LINE
  5
173
330
1F
100
AcDbEntity
  8
SLD-0
  6
Continuous
 62
   179
370
    25
100
AcDbLine
 10
189.0195348375
 20
136.3662828289
 30
0.0
 11
189.8680606001
 21
136.1466724954
 31
0.0
  0
LINE
  5
174
330
1F
100
AcDbEntity
  8
SLD-0
  6
Continuous
 62
   179
370
    25
100
AcDbLine
 10
189.9086692446
 20
136.9563866935
 30
0.0
 11
189.060143482
 21
137.1760059677
 31
0.0
  0
LINE
  5
175
330
1F
100
AcDbEntity
  8
SLD-0
  6
Continuous
 62
   179
370
    25
100
AcDbLine
 10
189.8680606001
 20
136.1466724954
 30
0.0
 11
189.9086692446
 21
136.9563866935
 31
0.0
  0
LINE
  5
176
330
1F
100
AcDbEntity
  8
SLD-0
  6
Continuous
 62
   179
370
    25
100
AcDbLine
 10
189.8680606001
 20
136.1466724954
 30
0.0
 11
189.8673900478
 21
136.1421708546
 31
0.0
  0
LINE
  5
177
330
1F
100
AcDbEntity
  8
SLD-0
  6
Continuous
 62
   179
370
    25
100
AcDbLine
 10
189.8673900478
 20
136.1421708546
 30
0.0
 11
189.8658254259
 21
136.1378882609
 31
0.0
  0
LINE
  5
178
330
1F
100
AcDbEntity
  8
SLD-0
  6
Continuous
 62
   179
370
    25
100
AcDbLine
 10
189.8658254259
 20
136.1378882609
 30
0.0
 11
189.8635366075
 21
136.1341734014
 31
0.0
  0
LINE
  5
179
330
1F
100
AcDbEntity
  8
SLD-0
  6
Continuous
 62
   179
370
    25
100
AcDbLine
 10
189.8635366075
 20
136.1341734014
 30
0.0
 11
189.8607024067
 21
136.1313302598
 31
0.0
  0
LINE
  5
17A
330
1F
100
AcDbEntity
  8
SLD-0
  6
Continuous
 62
   179
370
    25
100
AcDbLine
 10
189.8607024067
 20
136.1313302598
 30
0.0
 11
189.8575284593
 21
136.1295912943
 31
0.0
  0
LINE
  5
17B
330
1F
100
AcDbEntity
  8
SLD-0
  6
Continuous
 62
   179
370
    25
100
AcDbLine
 10
189.8575284593
 20
136.1295912943
 30
0.0
 11
189.8543098085
 21
136.1290950857
 31
0.0
  0
LINE
  5
17C
330
1F
100
AcDbEntity
  8
SLD-0
  6
Continuous
 62
   179
370
    25
100
AcDbLine
 10
189.8543098085
 20
136.1290950857
 30
0.0
 11
189.852763068
 21
136.1293275438
 31
0.0
  0
LINE
  5
17D
330
1F
100
AcDbEntity
  8
SLD-0
  6
Continuous
 62
   179
370
    25
100
AcDbLine
 10
188.4184965008
 20
137.159443327
 30
0.0
 11
188.4184965008
 21
137.1655542932
 31
0.0
  0
LINE
  5
17E
330
1F
100
AcDbEntity
  8
SLD-0
  6
Continuous
 62
   179
370
    25
100
AcDbLine
 10
131.5953933709
 20
152.2620726905
 30
0.0
 11
130.8309101575
 21
152.0642106019
 31
0.0
  0
LINE
  5
17F
330
1F
100
AcDbEntity
  8
SLD-0
  6
Continuous
 62
   179
370
    25
100
AcDbLine
 10
131.5953933709
 20
152.1075238071
 30
0.0
 11
131.5953933709
 21
152.2620726905
 31
0.0
  0
LINE
  5
180
330
1F
100
AcDbEntity
  8
SLD-0
  6
Continuous
 62
   179
370
    25
100
AcDbLine
 10
131.1294668429
 20
151.9869361601
 30
0.0
 11
131.5953933709
 21
152.1075238071
 31
0.0
  0
LINE
  5
181
330
1F
100
AcDbEntity
  8
SLD-0
  6
Continuous
 62
   179
370
    25
100
AcDbLine
 10
131.5953933709
 20
152.2620726905
 30
0.0
 11
131.8216622882
 21
152.2620682202
 31
0.0
  0
LINE
  5
182
330
1F
100
AcDbEntity
  8
SLD-0
  6
Continuous
 62
   179
370
    25
100
AcDbLine
 10
131.8216622882
 20
152.2620682202
 30
0.0
 11
131.8216622882
 21
152.1075238071
 31
0.0
  0
LINE
  5
183
330
1F
100
AcDbEntity
  8
SLD-0
  6
Continuous
 62
   179
370
    25
100
AcDbLine
 10
131.8216622882
 20
152.1075238071
 30
0.0
 11
131.5953933709
 21
152.1075238071
 31
0.0
  0
LINE
  5
184
330
1F
100
AcDbEntity
  8
SLD-0
  6
Continuous
 62
   179
370
    25
100
AcDbLine
 10
131.6951581352
 20
151.8405277811
 30
0.0
 11
131.7481250577
 21
151.8542338691
 31
0.0
  0
LINE
  5
185
330
1F
100
AcDbEntity
  8
SLD-0
  6
Continuous
 62
   179
370
    25
100
AcDbLine
 10
131.8216622882
 20
152.1075238071
 30
0.0
 11
132.2742090636
 21
151.9903962098
 31
0.0
  0
LINE
  5
186
330
1F
100
AcDbEntity
  8
SLD-0
  6
Continuous
 62
   179
370
    25
100
AcDbLine
 10
132.1780496352
 20
151.9655053101
 30
0.0
 11
132.2742090636
 21
151.9903962098
 31
0.0
  0
LINE
  5
187
330
1F
100
AcDbEntity
  8
SLD-0
  6
Continuous
 62
   179
370
    25
100
AcDbLine
 10
133.5752972477
 20
151.6536538086
 30
0.0
 11
133.1227415316
 21
151.770781406
 31
0.0
  0
LINE
  5
188
330
1F
100
AcDbEntity
  8
SLD-0
  6
Continuous
 62
   179
370
    25
100
AcDbLine
 10
133.5752972477
 20
151.5950877748
 30
0.0
 11
133.5752972477
 21
151.6536538086
 31
0.0
  0
LINE
  5
189
330
1F
100
AcDbEntity
  8
SLD-0
  6
Continuous
 62
   179
370
    25
100
AcDbLine
 10
133.2207986229
 20
151.5033383451
 30
0.0
 11
133.5752972477
 21
151.5950877748
 31
0.0
  0
LINE
  5
18A
330
1F
100
AcDbEntity
  8
SLD-0
  6
Continuous
 62
   179
370
    25
100
AcDbLine
 10
131.3832574599
 20
151.9720946036
 30
0.0
 11
131.3442424946
 21
151.9569803558
 31
0.0
  0
LINE
  5
18B
330
1F
100
AcDbEntity
  8
SLD-0
  6
Continuous
 62
   179
370
    25
100
AcDbLine
 10
131.3442424946
 20
151.9569803558
 30
0.0
 11
131.3305386417
 21
151.9391526065
 31
0.0
  0
LINE
  5
18C
330
1F
100
AcDbEntity
  8
SLD-0
  6
Continuous
 62
   179
370
    25
100
AcDbLine
 10
131.3305386417
 20
151.9391526065
 30
0.0
 11
131.3313678913
 21
151.9346777878
 31
0.0
  0
LINE
  5
18D
330
1F
100
AcDbEntity
  8
SLD-0
  6
Continuous
 62
   179
370
    25
100
AcDbLine
 10
131.6378214472
 20
151.9062106095
 30
0.0
 11
131.920662623
 21
151.9794125638
 31
0.0
  0
LINE
  5
18E
330
1F
100
AcDbEntity
  8
SLD-0
  6
Continuous
 62
   179
370
    25
100
AcDbLine
 10
131.920662623
 20
151.9794125638
 30
0.0
 11
131.9596775883
 21
151.994531282
 31
0.0
  0
LINE
  5
18F
330
1F
100
AcDbEntity
  8
SLD-0
  6
Continuous
 62
   179
370
    25
100
AcDbLine
 10
131.9596775883
 20
151.994531282
 30
0.0
 11
131.9733814411
 21
152.0123545609
 31
0.0
  0
LINE
  5
190
330
1F
100
AcDbEntity
  8
SLD-0
  6
Continuous
 62
   179
370
    25
100
AcDbLine
 10
131.9733814411
 20
152.0123545609
 30
0.0
 11
131.9596775883
 21
152.0301823102
 31
0.0
  0
LINE
  5
191
330
1F
100
AcDbEntity
  8
SLD-0
  6
Continuous
 62
   179
370
    25
100
AcDbLine
 10
131.9596775883
 20
152.0301823102
 30
0.0
 11
131.9206536823
 21
152.0453010283
 31
0.0
  0
LINE
  5
192
330
1F
100
AcDbEntity
  8
SLD-0
  6
Continuous
 62
   179
370
    25
100
AcDbLine
 10
131.9206536823
 20
152.0453010283
 30
0.0
 11
131.8622597568
 21
152.0553995452
 31
0.0
  0
LINE
  5
193
330
1F
100
AcDbEntity
  8
SLD-0
  6
Continuous
 62
   179
370
    25
100
AcDbLine
 10
131.8622597568
 20
152.0553995452
 30
0.0
 11
131.793376159
 21
152.0589445315
 31
0.0
  0
LINE
  5
194
330
1F
100
AcDbEntity
  8
SLD-0
  6
Continuous
 62
   179
370
    25
100
AcDbLine
 10
131.793376159
 20
152.0589445315
 30
0.0
 11
131.7245015018
 21
152.0553995452
 31
0.0
  0
LINE
  5
195
330
1F
100
AcDbEntity
  8
SLD-0
  6
Continuous
 62
   179
370
    25
100
AcDbLine
 10
131.7245015018
 20
152.0553995452
 30
0.0
 11
131.6660986357
 21
152.0453010283
 31
0.0
  0
LINE
  5
196
330
1F
100
AcDbEntity
  8
SLD-0
  6
Continuous
 62
   179
370
    25
100
AcDbLine
 10
131.6660986357
 20
152.0453010283
 30
0.0
 11
131.3832574599
 21
151.9720946036
 31
0.0
  0
LINE
  5
197
330
1F
100
AcDbEntity
  8
SLD-0
  6
Continuous
 62
   179
370
    25
100
AcDbLine
 10
133.2250521593
 20
151.5878279291
 30
0.0
 11
133.2324707024
 21
151.5919004164
 31
0.0
  0
LINE
  5
198
330
1F
100
AcDbEntity
  8
SLD-0
  6
Continuous
 62
   179
370
    25
100
AcDbLine
 10
133.2324707024
 20
151.5919004164
 30
0.0
 11
133.2461656146
 21
151.6097281657
 31
0.0
  0
LINE
  5
199
330
1F
100
AcDbEntity
  8
SLD-0
  6
Continuous
 62
   179
370
    25
100
AcDbLine
 10
133.2461656146
 20
151.6097281657
 30
0.0
 11
133.2324707024
 21
151.6275559149
 31
0.0
  0
LINE
  5
19A
330
1F
100
AcDbEntity
  8
SLD-0
  6
Continuous
 62
   179
370
    25
100
AcDbLine
 10
133.2324707024
 20
151.6275559149
 30
0.0
 11
133.2267866545
 21
151.6307566844
 31
0.0
  0
LINE
  5
19B
330
1F
100
AcDbEntity
  8
SLD-0
  6
Continuous
 62
   179
370
    25
100
AcDbLine
 10
133.1227415316
 20
151.6654287062
 30
0.0
 11
133.1227415316
 21
151.770781406
 31
0.0
  0
LINE
  5
19C
330
1F
100
AcDbEntity
  8
SLD-0
  6
Continuous
 62
   179
370
    25
100
AcDbLine
 10
132.2742090636
 20
151.8358473263
 30
0.0
 11
132.2742090636
 21
151.9903962098
 31
0.0
  0
LINE
  5
19D
330
1F
100
AcDbEntity
  8
SLD-0
  6
Continuous
 62
   179
370
    25
100
AcDbLine
 10
133.5752972477
 20
151.6536538086
 30
0.0
 11
133.5752972477
 21
151.8082026921
 31
0.0
  0
LINE
  5
19E
330
1F
100
AcDbEntity
  8
SLD-0
  6
Continuous
 62
   179
370
    25
100
AcDbLine
 10
131.8216622882
 20
152.2620682202
 30
0.0
 11
133.5752972477
 21
151.8082026921
 31
0.0
  0
LINE
  5
19F
330
1F
100
AcDbEntity
  8
SLD-0
  6
Continuous
 62
   179
370
    25
100
AcDbLine
 10
132.3671833687
 20
151.8599112115
 30
0.0
 11
132.2742090636
 21
151.8358473263
 31
0.0
  0
LINE
  5
1A0
330
1F
100
AcDbEntity
  8
SLD-0
  6
Continuous
 62
   179
370
    25
100
AcDbLine
 10
132.3784553521
 20
151.8463034711
 30
0.0
 11
132.3783793562
 21
151.8494416557
 31
0.0
  0
LINE
  5
1A1
330
1F
100
AcDbEntity
  8
SLD-0
  6
Continuous
 62
   179
370
    25
100
AcDbLine
 10
132.3783793562
 20
151.8494416557
 30
0.0
 11
132.3778451495
 21
151.8523742042
 31
0.0
  0
LINE
  5
1A2
330
1F
100
AcDbEntity
  8
SLD-0
  6
Continuous
 62
   179
370
    25
100
AcDbLine
 10
132.3778451495
 20
151.8523742042
 30
0.0
 11
132.3768527322
 21
151.8549804173
 31
0.0
  0
LINE
  5
1A3
330
1F
100
AcDbEntity
  8
SLD-0
  6
Continuous
 62
   179
370
    25
100
AcDbLine
 10
132.3768527322
 20
151.8549804173
 30
0.0
 11
132.3754423373
 21
151.8571351252
 31
0.0
  0
LINE
  5
1A4
330
1F
100
AcDbEntity
  8
SLD-0
  6
Continuous
 62
   179
370
    25
100
AcDbLine
 10
132.3754423373
 20
151.8571351252
 30
0.0
 11
132.373705607
 21
151.8587668024
 31
0.0
  0
LINE
  5
1A5
330
1F
100
AcDbEntity
  8
SLD-0
  6
Continuous
 62
   179
370
    25
100
AcDbLine
 10
132.373705607
 20
151.8587668024
 30
0.0
 11
132.3716850095
 21
151.8597949825
 31
0.0
  0
LINE
  5
1A6
330
1F
100
AcDbEntity
  8
SLD-0
  6
Continuous
 62
   179
370
    25
100
AcDbLine
 10
132.3716850095
 20
151.8597949825
 30
0.0
 11
132.3694721871
 21
151.8601794324
 31
0.0
  0
LINE
  5
1A7
330
1F
100
AcDbEntity
  8
SLD-0
  6
Continuous
 62
   179
370
    25
100
AcDbLine
 10
132.3694721871
 20
151.8601794324
 30
0.0
 11
132.3671833687
 21
151.8599112115
 31
0.0
  0
LINE
  5
1A8
330
1F
100
AcDbEntity
  8
SLD-0
  6
Continuous
 62
   179
370
    25
100
AcDbLine
 10
132.3378578835
 20
151.0365848027
 30
0.0
 11
132.3784553521
 21
151.8463034711
 31
0.0
  0
LINE
  5
1A9
330
1F
100
AcDbEntity
  8
SLD-0
  6
Continuous
 62
   179
370
    25
100
AcDbLine
 10
132.3184990399
 20
151.0218147717
 30
0.0
 11
132.3210739606
 21
151.0198031149
 31
0.0
  0
LINE
  5
1AA
330
1F
100
AcDbEntity
  8
SLD-0
  6
Continuous
 62
   179
370
    25
100
AcDbLine
 10
132.3210739606
 20
151.0198031149
 30
0.0
 11
132.3240959161
 21
151.0190118633
 31
0.0
  0
LINE
  5
1AB
330
1F
100
AcDbEntity
  8
SLD-0
  6
Continuous
 62
   179
370
    25
100
AcDbLine
 10
132.3240959161
 20
151.0190118633
 30
0.0
 11
132.3273190372
 21
151.0195036016
 31
0.0
  0
LINE
  5
1AC
330
1F
100
AcDbEntity
  8
SLD-0
  6
Continuous
 62
   179
370
    25
100
AcDbLine
 10
132.3273190372
 20
151.0195036016
 30
0.0
 11
132.330486279
 21
151.0212425671
 31
0.0
  0
LINE
  5
1AD
330
1F
100
AcDbEntity
  8
SLD-0
  6
Continuous
 62
   179
370
    25
100
AcDbLine
 10
132.330486279
 20
151.0212425671
 30
0.0
 11
132.3333361261
 21
151.024090179
 31
0.0
  0
LINE
  5
1AE
330
1F
100
AcDbEntity
  8
SLD-0
  6
Continuous
 62
   179
370
    25
100
AcDbLine
 10
132.3333361261
 20
151.024090179
 30
0.0
 11
132.3356249445
 21
151.0278050385
 31
0.0
  0
LINE
  5
1AF
330
1F
100
AcDbEntity
  8
SLD-0
  6
Continuous
 62
   179
370
    25
100
AcDbLine
 10
132.3356249445
 20
151.0278050385
 30
0.0
 11
132.3371806257
 21
151.0320876322
 31
0.0
  0
LINE
  5
1B0
330
1F
100
AcDbEntity
  8
SLD-0
  6
Continuous
 62
   179
370
    25
100
AcDbLine
 10
132.3371806257
 20
151.0320876322
 30
0.0
 11
132.3378578835
 21
151.0365848027
 31
0.0
  0
LINE
  5
1B1
330
1F
100
AcDbEntity
  8
SLD-0
  6
Continuous
 62
   179
370
    25
100
AcDbLine
 10
132.217647981
 20
151.1360724054
 30
0.0
 11
132.3184990399
 21
151.0218147717
 31
0.0
  0
LINE
  5
1B2
330
1F
100
AcDbEntity
  8
SLD-0
  6
Continuous
 62
   179
370
    25
100
AcDbLine
 10
132.217647981
 20
151.159255632
 30
0.0
 11
132.217647981
 21
151.1360724054
 31
0.0
  0
LINE
  5
1B3
330
1F
100
AcDbEntity
  8
SLD-0
  6
Continuous
 62
   179
370
    25
100
AcDbLine
 10
132.2564997785
 20
151.2079153739
 30
0.0
 11
132.217647981
 21
151.159255632
 31
0.0
  0
LINE
  5
1B4
330
1F
100
AcDbEntity
  8
SLD-0
  6
Continuous
 62
   179
370
    25
100
AcDbLine
 10
132.2875128203
 20
151.7068554245
 30
0.0
 11
132.2742090636
 21
151.4415626011
 31
0.0
  0
LINE
  5
1B5
330
1F
100
AcDbEntity
  8
SLD-0
  6
Continuous
 62
   179
370
    25
100
AcDbLine
 10
132.2648146265
 20
151.2540851317
 30
0.0
 11
132.2634422295
 21
151.2268562398
 31
0.0
  0
LINE
  5
1B6
330
1F
100
AcDbEntity
  8
SLD-0
  6
Continuous
 62
   179
370
    25
100
AcDbLine
 10
132.2762318962
 20
151.7204586945
 30
0.0
 11
132.2785296552
 21
151.7207313858
 31
0.0
  0
LINE
  5
1B7
330
1F
100
AcDbEntity
  8
SLD-0
  6
Continuous
 62
   179
370
    25
100
AcDbLine
 10
132.2785296552
 20
151.7207313858
 30
0.0
 11
132.2807424777
 21
151.7203424654
 31
0.0
  0
LINE
  5
1B8
330
1F
100
AcDbEntity
  8
SLD-0
  6
Continuous
 62
   179
370
    25
100
AcDbLine
 10
132.2807424777
 20
151.7203424654
 30
0.0
 11
132.2827541344
 21
151.7193142853
 31
0.0
  0
LINE
  5
1B9
330
1F
100
AcDbEntity
  8
SLD-0
  6
Continuous
 62
   179
370
    25
100
AcDbLine
 10
132.2827541344
 20
151.7193142853
 30
0.0
 11
132.2844998055
 21
151.7176870785
 31
0.0
  0
LINE
  5
1BA
330
1F
100
AcDbEntity
  8
SLD-0
  6
Continuous
 62
   179
370
    25
100
AcDbLine
 10
132.2844998055
 20
151.7176870785
 30
0.0
 11
132.2859012597
 21
151.7155279003
 31
0.0
  0
LINE
  5
1BB
330
1F
100
AcDbEntity
  8
SLD-0
  6
Continuous
 62
   179
370
    25
100
AcDbLine
 10
132.2859012597
 20
151.7155279003
 30
0.0
 11
132.286893677
 21
151.7129306279
 31
0.0
  0
LINE
  5
1BC
330
1F
100
AcDbEntity
  8
SLD-0
  6
Continuous
 62
   179
370
    25
100
AcDbLine
 10
132.286893677
 20
151.7129306279
 30
0.0
 11
132.2874368244
 21
151.7099980793
 31
0.0
  0
LINE
  5
1BD
330
1F
100
AcDbEntity
  8
SLD-0
  6
Continuous
 62
   179
370
    25
100
AcDbLine
 10
132.2874368244
 20
151.7099980793
 30
0.0
 11
132.2875128203
 21
151.7068554245
 31
0.0
  0
LINE
  5
1BE
330
1F
100
AcDbEntity
  8
SLD-0
  6
Continuous
 62
   179
370
    25
100
AcDbLine
 10
132.217647981
 20
151.7052952729
 30
0.0
 11
132.2762318962
 21
151.7204586945
 31
0.0
  0
LINE
  5
1BF
330
1F
100
AcDbEntity
  8
SLD-0
  6
Continuous
 62
   179
370
    25
100
AcDbLine
 10
132.1893618517
 20
151.7134313069
 30
0.0
 11
132.1893797331
 21
151.7126087628
 31
0.0
  0
LINE
  5
1C0
330
1F
100
AcDbEntity
  8
SLD-0
  6
Continuous
 62
   179
370
    25
100
AcDbLine
 10
132.1893618517
 20
151.952979394
 30
0.0
 11
132.1893618517
 21
151.7134313069
 31
0.0
  0
LINE
  5
1C1
330
1F
100
AcDbEntity
  8
SLD-0
  6
Continuous
 62
   179
370
    25
100
AcDbLine
 10
132.1780496352
 20
151.9655053101
 30
0.0
 11
132.1802535169
 21
151.9657824717
 31
0.0
  0
LINE
  5
1C2
330
1F
100
AcDbEntity
  8
SLD-0
  6
Continuous
 62
   179
370
    25
100
AcDbLine
 10
132.1802535169
 20
151.9657824717
 30
0.0
 11
132.1823791676
 21
151.9654471956
 31
0.0
  0
LINE
  5
1C3
330
1F
100
AcDbEntity
  8
SLD-0
  6
Continuous
 62
   179
370
    25
100
AcDbLine
 10
132.1823791676
 20
151.9654471956
 30
0.0
 11
132.184334945
 21
151.9645263038
 31
0.0
  0
LINE
  5
1C4
330
1F
100
AcDbEntity
  8
SLD-0
  6
Continuous
 62
   179
370
    25
100
AcDbLine
 10
132.184334945
 20
151.9645263038
 30
0.0
 11
132.1860426181
 21
151.9630510889
 31
0.0
  0
LINE
  5
1C5
330
1F
100
AcDbEntity
  8
SLD-0
  6
Continuous
 62
   179
370
    25
100
AcDbLine
 10
132.1860426181
 20
151.9630510889
 30
0.0
 11
132.187453013
 21
151.9610707245
 31
0.0
  0
LINE
  5
1C6
330
1F
100
AcDbEntity
  8
SLD-0
  6
Continuous
 62
   179
370
    25
100
AcDbLine
 10
132.187453013
 20
151.9610707245
 30
0.0
 11
132.1885035448
 21
151.9586701475
 31
0.0
  0
LINE
  5
1C7
330
1F
100
AcDbEntity
  8
SLD-0
  6
Continuous
 62
   179
370
    25
100
AcDbLine
 10
132.1885035448
 20
151.9586701475
 30
0.0
 11
132.1891405695
 21
151.9559387646
 31
0.0
  0
LINE
  5
1C8
330
1F
100
AcDbEntity
  8
SLD-0
  6
Continuous
 62
   179
370
    25
100
AcDbLine
 10
132.1891405695
 20
151.9559387646
 30
0.0
 11
132.1893618517
 21
151.952979394
 31
0.0
  0
LINE
  5
1C9
330
1F
100
AcDbEntity
  8
SLD-0
  6
Continuous
 62
   179
370
    25
100
AcDbLine
 10
132.3378578835
 20
151.0365848027
 30
0.0
 11
133.1863903516
 21
150.8169655285
 31
0.0
  0
LINE
  5
1CA
330
1F
100
AcDbEntity
  8
SLD-0
  6
Continuous
 62
   179
370
    25
100
AcDbLine
 10
133.2269967609
 20
151.6266886673
 30
0.0
 11
132.3784553521
 21
151.8463034711
 31
0.0
  0
LINE
  5
1CB
330
1F
100
AcDbEntity
  8
SLD-0
  6
Continuous
 62
   179
370
    25
100
AcDbLine
 10
133.1863903516
 20
150.8169655285
 30
0.0
 11
133.2269967609
 21
151.6266886673
 31
0.0
  0
LINE
  5
1CC
330
1F
100
AcDbEntity
  8
SLD-0
  6
Continuous
 62
   179
370
    25
100
AcDbLine
 10
133.1863903516
 20
150.8169655285
 30
0.0
 11
133.1857019179
 21
150.8124683581
 31
0.0
  0
LINE
  5
1CD
330
1F
100
AcDbEntity
  8
SLD-0
  6
Continuous
 62
   179
370
    25
100
AcDbLine
 10
133.1857019179
 20
150.8124683581
 30
0.0
 11
133.1841574126
 21
150.8081902347
 31
0.0
  0
LINE
  5
1CE
330
1F
100
AcDbEntity
  8
SLD-0
  6
Continuous
 62
   179
370
    25
100
AcDbLine
 10
133.1841574126
 20
150.8081902347
 30
0.0
 11
133.1818685942
 21
150.8044753752
 31
0.0
  0
LINE
  5
1CF
330
1F
100
AcDbEntity
  8
SLD-0
  6
Continuous
 62
   179
370
    25
100
AcDbLine
 10
133.1818685942
 20
150.8044753752
 30
0.0
 11
133.1790075712
 21
150.8016322337
 31
0.0
  0
LINE
  5
1D0
330
1F
100
AcDbEntity
  8
SLD-0
  6
Continuous
 62
   179
370
    25
100
AcDbLine
 10
133.1790075712
 20
150.8016322337
 30
0.0
 11
133.1758425646
 21
150.7998932682
 31
0.0
  0
LINE
  5
1D1
330
1F
100
AcDbEntity
  8
SLD-0
  6
Continuous
 62
   179
370
    25
100
AcDbLine
 10
133.1758425646
 20
150.7998932682
 30
0.0
 11
133.1726172083
 21
150.7993970595
 31
0.0
  0
LINE
  5
1D2
330
1F
100
AcDbEntity
  8
SLD-0
  6
Continuous
 62
   179
370
    25
100
AcDbLine
 10
133.1726172083
 20
150.7993970595
 30
0.0
 11
133.1710928195
 21
150.7996250473
 31
0.0
  0
LINE
  5
1D3
330
1F
100
AcDbEntity
  8
SLD-0
  6
Continuous
 62
   179
370
    25
100
AcDbLine
 10
131.7368128412
 20
151.8297453008
 30
0.0
 11
131.7368128412
 21
151.8358473263
 31
0.0
  0
LINE
  5
1D4
330
1F
100
AcDbEntity
  8
SLD-0
  6
Continuous
 62
   179
370
    25
100
AcDbLine
 10
93.9773096778
 20
161.9983483634
 30
0.0
 11
93.2128253468
 21
161.8004862748
 31
0.0
  0
LINE
  5
1D5
330
1F
100
AcDbEntity
  8
SLD-0
  6
Continuous
 62
   179
370
    25
100
AcDbLine
 10
93.9773096778
 20
161.84379948
 30
0.0
 11
93.9773096778
 21
161.9983483634
 31
0.0
  0
LINE
  5
1D6
330
1F
100
AcDbEntity
  8
SLD-0
  6
Continuous
 62
   179
370
    25
100
AcDbLine
 10
93.5113920905
 20
161.7232095979
 30
0.0
 11
93.9773096778
 21
161.84379948
 31
0.0
  0
LINE
  5
1D7
330
1F
100
AcDbEntity
  8
SLD-0
  6
Continuous
 62
   179
370
    25
100
AcDbLine
 10
94.0770733245
 20
161.5767989836
 30
0.0
 11
94.1300503053
 21
161.590509542
 31
0.0
  0
LINE
  5
1D8
330
1F
100
AcDbEntity
  8
SLD-0
  6
Continuous
 62
   179
370
    25
100
AcDbLine
 10
94.2035880946
 20
161.84379948
 30
0.0
 11
93.9773096778
 21
161.84379948
 31
0.0
  0
LINE
  5
1D9
330
1F
100
AcDbEntity
  8
SLD-0
  6
Continuous
 62
   179
370
    25
100
AcDbLine
 10
94.2035880946
 20
161.84379948
 30
0.0
 11
94.65613487
 21
161.7266718827
 31
0.0
  0
LINE
  5
1DA
330
1F
100
AcDbEntity
  8
SLD-0
  6
Continuous
 62
   179
370
    25
100
AcDbLine
 10
94.5599665009
 20
161.701780983
 30
0.0
 11
94.65613487
 21
161.7266718827
 31
0.0
  0
LINE
  5
1DB
330
1F
100
AcDbEntity
  8
SLD-0
  6
Continuous
 62
   179
370
    25
100
AcDbLine
 10
95.957213834
 20
161.3899272464
 30
0.0
 11
95.5046570004
 21
161.5070548437
 31
0.0
  0
LINE
  5
1DC
330
1F
100
AcDbEntity
  8
SLD-0
  6
Continuous
 62
   179
370
    25
100
AcDbLine
 10
95.957213834
 20
161.3313634477
 30
0.0
 11
95.957213834
 21
161.3899272464
 31
0.0
  0
LINE
  5
1DD
330
1F
100
AcDbEntity
  8
SLD-0
  6
Continuous
 62
   179
370
    25
100
AcDbLine
 10
95.6027233117
 20
161.2396162532
 30
0.0
 11
95.957213834
 21
161.3313634477
 31
0.0
  0
LINE
  5
1DE
330
1F
100
AcDbEntity
  8
SLD-0
  6
Continuous
 62
   179
370
    25
100
AcDbLine
 10
93.7651838251
 20
161.7083702765
 30
0.0
 11
93.7261593603
 21
161.6932560287
 31
0.0
  0
LINE
  5
1DF
330
1F
100
AcDbEntity
  8
SLD-0
  6
Continuous
 62
   179
370
    25
100
AcDbLine
 10
93.7261593603
 20
161.6932560287
 30
0.0
 11
93.7124549486
 21
161.6754260443
 31
0.0
  0
LINE
  5
1E0
330
1F
100
AcDbEntity
  8
SLD-0
  6
Continuous
 62
   179
370
    25
100
AcDbLine
 10
93.7124549486
 20
161.6754260443
 30
0.0
 11
93.713284757
 21
161.6709556959
 31
0.0
  0
LINE
  5
1E1
330
1F
100
AcDbEntity
  8
SLD-0
  6
Continuous
 62
   179
370
    25
100
AcDbLine
 10
94.0197383129
 20
161.6424862824
 30
0.0
 11
94.3025794887
 21
161.7156904719
 31
0.0
  0
LINE
  5
1E2
330
1F
100
AcDbEntity
  8
SLD-0
  6
Continuous
 62
   179
370
    25
100
AcDbLine
 10
94.3025794887
 20
161.7156904719
 30
0.0
 11
94.3416033947
 21
161.7308047197
 31
0.0
  0
LINE
  5
1E3
330
1F
100
AcDbEntity
  8
SLD-0
  6
Continuous
 62
   179
370
    25
100
AcDbLine
 10
94.3416033947
 20
161.7308047197
 30
0.0
 11
94.3552983069
 21
161.748632469
 31
0.0
  0
LINE
  5
1E4
330
1F
100
AcDbEntity
  8
SLD-0
  6
Continuous
 62
   179
370
    25
100
AcDbLine
 10
94.3552983069
 20
161.748632469
 30
0.0
 11
94.3415938952
 21
161.7664624534
 31
0.0
  0
LINE
  5
1E5
330
1F
100
AcDbEntity
  8
SLD-0
  6
Continuous
 62
   179
370
    25
100
AcDbLine
 10
94.3415938952
 20
161.7664624534
 30
0.0
 11
94.3025794887
 21
161.781574466
 31
0.0
  0
LINE
  5
1E6
330
1F
100
AcDbEntity
  8
SLD-0
  6
Continuous
 62
   179
370
    25
100
AcDbLine
 10
94.3025794887
 20
161.781574466
 30
0.0
 11
94.2441855632
 21
161.7916752182
 31
0.0
  0
LINE
  5
1E7
330
1F
100
AcDbEntity
  8
SLD-0
  6
Continuous
 62
   179
370
    25
100
AcDbLine
 10
94.2441855632
 20
161.7916752182
 30
0.0
 11
94.1753019654
 21
161.7952202044
 31
0.0
  0
LINE
  5
1E8
330
1F
100
AcDbEntity
  8
SLD-0
  6
Continuous
 62
   179
370
    25
100
AcDbLine
 10
94.1753019654
 20
161.7952202044
 30
0.0
 11
94.1064178087
 21
161.7916752182
 31
0.0
  0
LINE
  5
1E9
330
1F
100
AcDbEntity
  8
SLD-0
  6
Continuous
 62
   179
370
    25
100
AcDbLine
 10
94.1064178087
 20
161.7916752182
 30
0.0
 11
94.0480244421
 21
161.781574466
 31
0.0
  0
LINE
  5
1EA
330
1F
100
AcDbEntity
  8
SLD-0
  6
Continuous
 62
   179
370
    25
100
AcDbLine
 10
94.0480244421
 20
161.781574466
 30
0.0
 11
93.7651838251
 21
161.7083702765
 31
0.0
  0
LINE
  5
1EB
330
1F
100
AcDbEntity
  8
SLD-0
  6
Continuous
 62
   179
370
    25
100
AcDbLine
 10
95.6069578492
 20
161.324103602
 30
0.0
 11
95.6143870094
 21
161.3281760893
 31
0.0
  0
LINE
  5
1EC
330
1F
100
AcDbEntity
  8
SLD-0
  6
Continuous
 62
   179
370
    25
100
AcDbLine
 10
95.6143870094
 20
161.3281760893
 30
0.0
 11
95.6280911416
 21
161.3460060738
 31
0.0
  0
LINE
  5
1ED
330
1F
100
AcDbEntity
  8
SLD-0
  6
Continuous
 62
   179
370
    25
100
AcDbLine
 10
95.6280911416
 20
161.3460060738
 30
0.0
 11
95.6143870094
 21
161.3638315878
 31
0.0
  0
LINE
  5
1EE
330
1F
100
AcDbEntity
  8
SLD-0
  6
Continuous
 62
   179
370
    25
100
AcDbLine
 10
95.6143870094
 20
161.3638315878
 30
0.0
 11
95.6087124609
 21
161.3670323573
 31
0.0
  0
LINE
  5
1EF
330
1F
100
AcDbEntity
  8
SLD-0
  6
Continuous
 62
   179
370
    25
100
AcDbLine
 10
93.9773096778
 20
161.9983483634
 30
0.0
 11
94.2035880946
 21
161.9983483634
 31
0.0
  0
LINE
  5
1F0
330
1F
100
AcDbEntity
  8
SLD-0
  6
Continuous
 62
   179
370
    25
100
AcDbLine
 10
94.2035880946
 20
161.9983483634
 30
0.0
 11
94.2035880946
 21
161.84379948
 31
0.0
  0
LINE
  5
1F1
330
1F
100
AcDbEntity
  8
SLD-0
  6
Continuous
 62
   179
370
    25
100
AcDbLine
 10
95.5046570004
 20
161.4016999088
 30
0.0
 11
95.5046570004
 21
161.5070548437
 31
0.0
  0
LINE
  5
1F2
330
1F
100
AcDbEntity
  8
SLD-0
  6
Continuous
 62
   179
370
    25
100
AcDbLine
 10
94.65613487
 20
161.5721207641
 30
0.0
 11
94.65613487
 21
161.7266718827
 31
0.0
  0
LINE
  5
1F3
330
1F
100
AcDbEntity
  8
SLD-0
  6
Continuous
 62
   179
370
    25
100
AcDbLine
 10
95.957213834
 20
161.3899272464
 30
0.0
 11
95.957213834
 21
161.5444738946
 31
0.0
  0
LINE
  5
1F4
330
1F
100
AcDbEntity
  8
SLD-0
  6
Continuous
 62
   179
370
    25
100
AcDbLine
 10
94.2035880946
 20
161.9983483634
 30
0.0
 11
95.957213834
 21
161.5444738946
 31
0.0
  0
LINE
  5
1F5
330
1F
100
AcDbEntity
  8
SLD-0
  6
Continuous
 62
   179
370
    25
100
AcDbLine
 10
94.7490991168
 20
161.5961824141
 30
0.0
 11
94.65613487
 21
161.5721207641
 31
0.0
  0
LINE
  5
1F6
330
1F
100
AcDbEntity
  8
SLD-0
  6
Continuous
 62
   179
370
    25
100
AcDbLine
 10
94.7603811585
 20
161.582579144
 30
0.0
 11
94.7603048832
 21
161.5857217989
 31
0.0
  0
LINE
  5
1F7
330
1F
100
AcDbEntity
  8
SLD-0
  6
Continuous
 62
   179
370
    25
100
AcDbLine
 10
94.7603048832
 20
161.5857217989
 30
0.0
 11
94.7597611771
 21
161.5886521123
 31
0.0
  0
LINE
  5
1F8
330
1F
100
AcDbEntity
  8
SLD-0
  6
Continuous
 62
   179
370
    25
100
AcDbLine
 10
94.7597611771
 20
161.5886521123
 30
0.0
 11
94.7587693185
 21
161.5912516199
 31
0.0
  0
LINE
  5
1F9
330
1F
100
AcDbEntity
  8
SLD-0
  6
Continuous
 62
   179
370
    25
100
AcDbLine
 10
94.7587693185
 20
161.5912516199
 30
0.0
 11
94.7573675849
 21
161.5934130333
 31
0.0
  0
LINE
  5
1FA
330
1F
100
AcDbEntity
  8
SLD-0
  6
Continuous
 62
   179
370
    25
100
AcDbLine
 10
94.7573675849
 20
161.5934130333
 30
0.0
 11
94.7556221933
 21
161.5950402401
 31
0.0
  0
LINE
  5
1FB
330
1F
100
AcDbEntity
  8
SLD-0
  6
Continuous
 62
   179
370
    25
100
AcDbLine
 10
94.7556221933
 20
161.5950402401
 30
0.0
 11
94.7536004782
 21
161.5960684202
 31
0.0
  0
LINE
  5
1FC
330
1F
100
AcDbEntity
  8
SLD-0
  6
Continuous
 62
   179
370
    25
100
AcDbLine
 10
94.7536004782
 20
161.5960684202
 30
0.0
 11
94.7513974347
 21
161.5964551054
 31
0.0
  0
LINE
  5
1FD
330
1F
100
AcDbEntity
  8
SLD-0
  6
Continuous
 62
   179
370
    25
100
AcDbLine
 10
94.7513974347
 20
161.5964551054
 30
0.0
 11
94.7490991168
 21
161.5961824141
 31
0.0
  0
LINE
  5
1FE
330
1F
100
AcDbEntity
  8
SLD-0
  6
Continuous
 62
   179
370
    25
100
AcDbLine
 10
94.7197831311
 20
160.7728560052
 30
0.0
 11
94.7603811585
 21
161.582579144
 31
0.0
  0
LINE
  5
1FF
330
1F
100
AcDbEntity
  8
SLD-0
  6
Continuous
 62
   179
370
    25
100
AcDbLine
 10
94.7004139498
 20
160.7580926798
 30
0.0
 11
94.70299837
 21
160.7560765527
 31
0.0
  0
LINE
  5
200
330
1F
100
AcDbEntity
  8
SLD-0
  6
Continuous
 62
   179
370
    25
100
AcDbLine
 10
94.70299837
 20
160.7560765527
 30
0.0
 11
94.7060217225
 21
160.755285301
 31
0.0
  0
LINE
  5
201
330
1F
100
AcDbEntity
  8
SLD-0
  6
Continuous
 62
   179
370
    25
100
AcDbLine
 10
94.7060217225
 20
160.755285301
 30
0.0
 11
94.709245123
 21
160.7557792745
 31
0.0
  0
LINE
  5
202
330
1F
100
AcDbEntity
  8
SLD-0
  6
Continuous
 62
   179
370
    25
100
AcDbLine
 10
94.709245123
 20
160.7557792745
 30
0.0
 11
94.7124112473
 21
160.7575204752
 31
0.0
  0
LINE
  5
203
330
1F
100
AcDbEntity
  8
SLD-0
  6
Continuous
 62
   179
370
    25
100
AcDbLine
 10
94.7124112473
 20
160.7575204752
 30
0.0
 11
94.7152532712
 21
160.7603636168
 31
0.0
  0
LINE
  5
204
330
1F
100
AcDbEntity
  8
SLD-0
  6
Continuous
 62
   179
370
    25
100
AcDbLine
 10
94.7152532712
 20
160.7603636168
 30
0.0
 11
94.7175515891
 21
160.7640784762
 31
0.0
  0
LINE
  5
205
330
1F
100
AcDbEntity
  8
SLD-0
  6
Continuous
 62
   179
370
    25
100
AcDbLine
 10
94.7175515891
 20
160.7640784762
 30
0.0
 11
94.7190963738
 21
160.76836107
 31
0.0
  0
LINE
  5
206
330
1F
100
AcDbEntity
  8
SLD-0
  6
Continuous
 62
   179
370
    25
100
AcDbLine
 10
94.7190963738
 20
160.76836107
 30
0.0
 11
94.7197831311
 21
160.7728560052
 31
0.0
  0
LINE
  5
207
330
1F
100
AcDbEntity
  8
SLD-0
  6
Continuous
 62
   179
370
    25
100
AcDbLine
 10
94.5995628909
 20
160.8723480783
 30
0.0
 11
94.7004139498
 21
160.7580926798
 31
0.0
  0
LINE
  5
208
330
1F
100
AcDbEntity
  8
SLD-0
  6
Continuous
 62
   179
370
    25
100
AcDbLine
 10
94.5995628909
 20
160.8955313049
 30
0.0
 11
94.5995628909
 21
160.8723480783
 31
0.0
  0
LINE
  5
209
330
1F
100
AcDbEntity
  8
SLD-0
  6
Continuous
 62
   179
370
    25
100
AcDbLine
 10
94.6384253055
 20
160.9441910468
 30
0.0
 11
94.5995628909
 21
160.8955313049
 31
0.0
  0
LINE
  5
20A
330
1F
100
AcDbEntity
  8
SLD-0
  6
Continuous
 62
   179
370
    25
100
AcDbLine
 10
94.6694386267
 20
161.4431310974
 30
0.0
 11
94.65613487
 21
161.1778338037
 31
0.0
  0
LINE
  5
20B
330
1F
100
AcDbEntity
  8
SLD-0
  6
Continuous
 62
   179
370
    25
100
AcDbLine
 10
94.6467317716
 20
160.9903563343
 30
0.0
 11
94.6453680359
 21
160.9631341479
 31
0.0
  0
LINE
  5
20C
330
1F
100
AcDbEntity
  8
SLD-0
  6
Continuous
 62
   179
370
    25
100
AcDbLine
 10
94.6581470855
 20
161.4567343674
 30
0.0
 11
94.6604551823
 21
161.4570070587
 31
0.0
  0
LINE
  5
20D
330
1F
100
AcDbEntity
  8
SLD-0
  6
Continuous
 62
   179
370
    25
100
AcDbLine
 10
94.6604551823
 20
161.4570070587
 30
0.0
 11
94.6626579464
 21
161.4566203735
 31
0.0
  0
LINE
  5
20E
330
1F
100
AcDbEntity
  8
SLD-0
  6
Continuous
 62
   179
370
    25
100
AcDbLine
 10
94.6626579464
 20
161.4566203735
 30
0.0
 11
94.6646799408
 21
161.4555899582
 31
0.0
  0
LINE
  5
20F
330
1F
100
AcDbEntity
  8
SLD-0
  6
Continuous
 62
   179
370
    25
100
AcDbLine
 10
94.6646799408
 20
161.4555899582
 30
0.0
 11
94.6664250531
 21
161.4539605163
 31
0.0
  0
LINE
  5
210
330
1F
100
AcDbEntity
  8
SLD-0
  6
Continuous
 62
   179
370
    25
100
AcDbLine
 10
94.6664250531
 20
161.4539605163
 30
0.0
 11
94.6678175666
 21
161.4518035732
 31
0.0
  0
LINE
  5
211
330
1F
100
AcDbEntity
  8
SLD-0
  6
Continuous
 62
   179
370
    25
100
AcDbLine
 10
94.6678175666
 20
161.4518035732
 30
0.0
 11
94.6688091457
 21
161.4492018304
 31
0.0
  0
LINE
  5
212
330
1F
100
AcDbEntity
  8
SLD-0
  6
Continuous
 62
   179
370
    25
100
AcDbLine
 10
94.6688091457
 20
161.4492018304
 30
0.0
 11
94.6693623514
 21
161.4462692819
 31
0.0
  0
LINE
  5
213
330
1F
100
AcDbEntity
  8
SLD-0
  6
Continuous
 62
   179
370
    25
100
AcDbLine
 10
94.6693623514
 20
161.4462692819
 30
0.0
 11
94.6694386267
 21
161.4431310974
 31
0.0
  0
LINE
  5
214
330
1F
100
AcDbEntity
  8
SLD-0
  6
Continuous
 62
   179
370
    25
100
AcDbLine
 10
94.5995628909
 20
161.4415709458
 30
0.0
 11
94.6581470855
 21
161.4567343674
 31
0.0
  0
LINE
  5
215
330
1F
100
AcDbEntity
  8
SLD-0
  6
Continuous
 62
   179
370
    25
100
AcDbLine
 10
94.571277041
 20
161.4497047446
 30
0.0
 11
94.57129604
 21
161.4488889061
 31
0.0
  0
LINE
  5
216
330
1F
100
AcDbEntity
  8
SLD-0
  6
Continuous
 62
   179
370
    25
100
AcDbLine
 10
94.571277041
 20
161.6892550669
 30
0.0
 11
94.571277041
 21
161.4497047446
 31
0.0
  0
LINE
  5
217
330
1F
100
AcDbEntity
  8
SLD-0
  6
Continuous
 62
   179
370
    25
100
AcDbLine
 10
94.5599665009
 20
161.701780983
 30
0.0
 11
94.5621692651
 21
161.7020559094
 31
0.0
  0
LINE
  5
218
330
1F
100
AcDbEntity
  8
SLD-0
  6
Continuous
 62
   179
370
    25
100
AcDbLine
 10
94.5621692651
 20
161.7020559094
 30
0.0
 11
94.5642960333
 21
161.7017251037
 31
0.0
  0
LINE
  5
219
330
1F
100
AcDbEntity
  8
SLD-0
  6
Continuous
 62
   179
370
    25
100
AcDbLine
 10
94.5642960333
 20
161.7017251037
 30
0.0
 11
94.5662512519
 21
161.7008042119
 31
0.0
  0
LINE
  5
21A
330
1F
100
AcDbEntity
  8
SLD-0
  6
Continuous
 62
   179
370
    25
100
AcDbLine
 10
94.5662512519
 20
161.7008042119
 30
0.0
 11
94.5679678657
 21
161.6993245266
 31
0.0
  0
LINE
  5
21B
330
1F
100
AcDbEntity
  8
SLD-0
  6
Continuous
 62
   179
370
    25
100
AcDbLine
 10
94.5679678657
 20
161.6993245266
 30
0.0
 11
94.5693790988
 21
161.6973463974
 31
0.0
  0
LINE
  5
21C
330
1F
100
AcDbEntity
  8
SLD-0
  6
Continuous
 62
   179
370
    25
100
AcDbLine
 10
94.5693790988
 20
161.6973463974
 30
0.0
 11
94.5704187342
 21
161.6949458204
 31
0.0
  0
LINE
  5
21D
330
1F
100
AcDbEntity
  8
SLD-0
  6
Continuous
 62
   179
370
    25
100
AcDbLine
 10
94.5704187342
 20
161.6949458204
 30
0.0
 11
94.5710672141
 21
161.6922122024
 31
0.0
  0
LINE
  5
21E
330
1F
100
AcDbEntity
  8
SLD-0
  6
Continuous
 62
   179
370
    25
100
AcDbLine
 10
94.5710672141
 20
161.6922122024
 30
0.0
 11
94.571277041
 21
161.6892550669
 31
0.0
  0
LINE
  5
21F
330
1F
100
AcDbEntity
  8
SLD-0
  6
Continuous
 62
   179
370
    25
100
AcDbLine
 10
94.7197831311
 20
160.7728560052
 30
0.0
 11
95.5683052615
 21
160.5532434366
 31
0.0
  0
LINE
  5
220
330
1F
100
AcDbEntity
  8
SLD-0
  6
Continuous
 62
   179
370
    25
100
AcDbLine
 10
95.6089127884
 20
161.3629643403
 30
0.0
 11
94.7603811585
 21
161.582579144
 31
0.0
  0
LINE
  5
221
330
1F
100
AcDbEntity
  8
SLD-0
  6
Continuous
 62
   179
370
    25
100
AcDbLine
 10
95.5683052615
 20
160.5532434366
 30
0.0
 11
95.6089127884
 21
161.3629643403
 31
0.0
  0
LINE
  5
222
330
1F
100
AcDbEntity
  8
SLD-0
  6
Continuous
 62
   179
370
    25
100
AcDbLine
 10
95.5683052615
 20
160.5532434366
 30
0.0
 11
95.5676282831
 21
160.5487462662
 31
0.0
  0
LINE
  5
223
330
1F
100
AcDbEntity
  8
SLD-0
  6
Continuous
 62
   179
370
    25
100
AcDbLine
 10
95.5676282831
 20
160.5487462662
 30
0.0
 11
95.5660737195
 21
160.5444636724
 31
0.0
  0
LINE
  5
224
330
1F
100
AcDbEntity
  8
SLD-0
  6
Continuous
 62
   179
370
    25
100
AcDbLine
 10
95.5660737195
 20
160.5444636724
 30
0.0
 11
95.5637849011
 21
160.540748813
 31
0.0
  0
LINE
  5
225
330
1F
100
AcDbEntity
  8
SLD-0
  6
Continuous
 62
   179
370
    25
100
AcDbLine
 10
95.5637849011
 20
160.540748813
 30
0.0
 11
95.5609333777
 21
160.5379056714
 31
0.0
  0
LINE
  5
226
330
1F
100
AcDbEntity
  8
SLD-0
  6
Continuous
 62
   179
370
    25
100
AcDbLine
 10
95.5609333777
 20
160.5379056714
 30
0.0
 11
95.5577672534
 21
160.5361644707
 31
0.0
  0
LINE
  5
227
330
1F
100
AcDbEntity
  8
SLD-0
  6
Continuous
 62
   179
370
    25
100
AcDbLine
 10
95.5577672534
 20
160.5361644707
 30
0.0
 11
95.5545438529
 21
160.5356704972
 31
0.0
  0
LINE
  5
228
330
1F
100
AcDbEntity
  8
SLD-0
  6
Continuous
 62
   179
370
    25
100
AcDbLine
 10
95.5545438529
 20
160.5356704972
 30
0.0
 11
95.5530082882
 21
160.5359029553
 31
0.0
  0
LINE
  5
229
330
1F
100
AcDbEntity
  8
SLD-0
  6
Continuous
 62
   179
370
    25
100
AcDbLine
 10
94.1187297069
 20
161.5660187386
 30
0.0
 11
94.1187297069
 21
161.5721274696
 31
0.0
  0
LINE
  5
22A
330
1F
100
AcDbEntity
  8
SLD-0
  6
Continuous
 62
   179
370
    25
100
AcDbLine
 10
37.2956344002
 20
176.6686458669
 30
0.0
 11
36.5311511867
 21
176.4707826607
 31
0.0
  0
LINE
  5
22B
330
1F
100
AcDbEntity
  8
SLD-0
  6
Continuous
 62
   179
370
    25
100
AcDbLine
 10
37.2956344002
 20
176.5140981011
 30
0.0
 11
37.2956344002
 21
176.6686458669
 31
0.0
  0
LINE
  5
22C
330
1F
100
AcDbEntity
  8
SLD-0
  6
Continuous
 62
   179
370
    25
100
AcDbLine
 10
36.8297123425
 20
176.3935082189
 30
0.0
 11
37.2956344002
 21
176.5140981011
 31
0.0
  0
LINE
  5
22D
330
1F
100
AcDbEntity
  8
SLD-0
  6
Continuous
 62
   179
370
    25
100
AcDbLine
 10
37.3953991645
 20
176.2470987223
 30
0.0
 11
37.4483638518
 21
176.2608081631
 31
0.0
  0
LINE
  5
22E
330
1F
100
AcDbEntity
  8
SLD-0
  6
Continuous
 62
   179
370
    25
100
AcDbLine
 10
37.5219010823
 20
176.5140981011
 30
0.0
 11
37.2956344002
 21
176.5140981011
 31
0.0
  0
LINE
  5
22F
330
1F
100
AcDbEntity
  8
SLD-0
  6
Continuous
 62
   179
370
    25
100
AcDbLine
 10
37.5219010823
 20
176.5140981011
 30
0.0
 11
37.974452328
 21
176.3969705037
 31
0.0
  0
LINE
  5
230
330
1F
100
AcDbEntity
  8
SLD-0
  6
Continuous
 62
   179
370
    25
100
AcDbLine
 10
37.8782861941
 20
176.3720807217
 30
0.0
 11
37.974452328
 21
176.3969705037
 31
0.0
  0
LINE
  5
231
330
1F
100
AcDbEntity
  8
SLD-0
  6
Continuous
 62
   179
370
    25
100
AcDbLine
 10
39.2755293362
 20
176.0602258674
 30
0.0
 11
38.8229825609
 21
176.1773545824
 31
0.0
  0
LINE
  5
232
330
1F
100
AcDbEntity
  8
SLD-0
  6
Continuous
 62
   179
370
    25
100
AcDbLine
 10
39.2755293362
 20
176.0016620688
 30
0.0
 11
39.2755293362
 21
176.0602258674
 31
0.0
  0
LINE
  5
233
330
1F
100
AcDbEntity
  8
SLD-0
  6
Continuous
 62
   179
370
    25
100
AcDbLine
 10
38.9210441225
 20
175.9099148742
 30
0.0
 11
39.2755293362
 21
176.0016620688
 31
0.0
  0
LINE
  5
234
330
1F
100
AcDbEntity
  8
SLD-0
  6
Continuous
 62
   179
370
    25
100
AcDbLine
 10
37.0835029595
 20
176.37866778
 30
0.0
 11
37.0444768184
 21
176.3635546498
 31
0.0
  0
LINE
  5
235
330
1F
100
AcDbEntity
  8
SLD-0
  6
Continuous
 62
   179
370
    25
100
AcDbLine
 10
37.0444768184
 20
176.3635546498
 30
0.0
 11
37.030779671
 21
176.3457257829
 31
0.0
  0
LINE
  5
236
330
1F
100
AcDbEntity
  8
SLD-0
  6
Continuous
 62
   179
370
    25
100
AcDbLine
 10
37.030779671
 20
176.3457257829
 30
0.0
 11
37.0316022151
 21
176.341254317
 31
0.0
  0
LINE
  5
237
330
1F
100
AcDbEntity
  8
SLD-0
  6
Continuous
 62
   179
370
    25
100
AcDbLine
 10
37.3380535357
 20
176.3127849035
 30
0.0
 11
37.6208969467
 21
176.385989093
 31
0.0
  0
LINE
  5
238
330
1F
100
AcDbEntity
  8
SLD-0
  6
Continuous
 62
   179
370
    25
100
AcDbLine
 10
37.6208969467
 20
176.385989093
 30
0.0
 11
37.6599230879
 21
176.4011033408
 31
0.0
  0
LINE
  5
239
330
1F
100
AcDbEntity
  8
SLD-0
  6
Continuous
 62
   179
370
    25
100
AcDbLine
 10
37.6599230879
 20
176.4011033408
 30
0.0
 11
37.6736157649
 21
176.41893109
 31
0.0
  0
LINE
  5
23A
330
1F
100
AcDbEntity
  8
SLD-0
  6
Continuous
 62
   179
370
    25
100
AcDbLine
 10
37.6736157649
 20
176.41893109
 30
0.0
 11
37.6599186175
 21
176.4367588393
 31
0.0
  0
LINE
  5
23B
330
1F
100
AcDbEntity
  8
SLD-0
  6
Continuous
 62
   179
370
    25
100
AcDbLine
 10
37.6599186175
 20
176.4367588393
 30
0.0
 11
37.6208969467
 21
176.4518730871
 31
0.0
  0
LINE
  5
23C
330
1F
100
AcDbEntity
  8
SLD-0
  6
Continuous
 62
   179
370
    25
100
AcDbLine
 10
37.6208969467
 20
176.4518730871
 30
0.0
 11
37.5625007861
 21
176.4619727216
 31
0.0
  0
LINE
  5
23D
330
1F
100
AcDbEntity
  8
SLD-0
  6
Continuous
 62
   179
370
    25
100
AcDbLine
 10
37.5625007861
 20
176.4619727216
 30
0.0
 11
37.4936216586
 21
176.4655177079
 31
0.0
  0
LINE
  5
23E
330
1F
100
AcDbEntity
  8
SLD-0
  6
Continuous
 62
   179
370
    25
100
AcDbLine
 10
37.4936216586
 20
176.4655177079
 30
0.0
 11
37.4247380607
 21
176.4619738392
 31
0.0
  0
LINE
  5
23F
330
1F
100
AcDbEntity
  8
SLD-0
  6
Continuous
 62
   179
370
    25
100
AcDbLine
 10
37.4247380607
 20
176.4619738392
 30
0.0
 11
37.3663419001
 21
176.4518730871
 31
0.0
  0
LINE
  5
240
330
1F
100
AcDbEntity
  8
SLD-0
  6
Continuous
 62
   179
370
    25
100
AcDbLine
 10
37.3663419001
 20
176.4518730871
 30
0.0
 11
37.0835029595
 21
176.37866778
 31
0.0
  0
LINE
  5
241
330
1F
100
AcDbEntity
  8
SLD-0
  6
Continuous
 62
   179
370
    25
100
AcDbLine
 10
38.9252820127
 20
175.9944011055
 30
0.0
 11
38.932716202
 21
175.9984747104
 31
0.0
  0
LINE
  5
242
330
1F
100
AcDbEntity
  8
SLD-0
  6
Continuous
 62
   179
370
    25
100
AcDbLine
 10
38.932716202
 20
175.9984747104
 30
0.0
 11
38.9464088791
 21
176.0163035772
 31
0.0
  0
LINE
  5
243
330
1F
100
AcDbEntity
  8
SLD-0
  6
Continuous
 62
   179
370
    25
100
AcDbLine
 10
38.9464088791
 20
176.0163035772
 30
0.0
 11
38.9327117317
 21
176.0341313265
 31
0.0
  0
LINE
  5
244
330
1F
100
AcDbEntity
  8
SLD-0
  6
Continuous
 62
   179
370
    25
100
AcDbLine
 10
38.9327117317
 20
176.0341313265
 30
0.0
 11
38.9270343893
 21
176.0373298607
 31
0.0
  0
LINE
  5
245
330
1F
100
AcDbEntity
  8
SLD-0
  6
Continuous
 62
   179
370
    25
100
AcDbLine
 10
37.2956344002
 20
176.6686458669
 30
0.0
 11
37.5219010823
 21
176.6686458669
 31
0.0
  0
LINE
  5
246
330
1F
100
AcDbEntity
  8
SLD-0
  6
Continuous
 62
   179
370
    25
100
AcDbLine
 10
37.5219010823
 20
176.6686458669
 30
0.0
 11
37.5219010823
 21
176.5140981011
 31
0.0
  0
LINE
  5
247
330
1F
100
AcDbEntity
  8
SLD-0
  6
Continuous
 62
   179
370
    25
100
AcDbLine
 10
38.8229825609
 20
176.0719996474
 30
0.0
 11
38.8229825609
 21
176.1773545824
 31
0.0
  0
LINE
  5
248
330
1F
100
AcDbEntity
  8
SLD-0
  6
Continuous
 62
   179
370
    25
100
AcDbLine
 10
37.974452328
 20
176.2424216203
 30
0.0
 11
37.974452328
 21
176.3969705037
 31
0.0
  0
LINE
  5
249
330
1F
100
AcDbEntity
  8
SLD-0
  6
Continuous
 62
   179
370
    25
100
AcDbLine
 10
39.2755293362
 20
176.0602258674
 30
0.0
 11
39.2755293362
 21
176.2147736333
 31
0.0
  0
LINE
  5
24A
330
1F
100
AcDbEntity
  8
SLD-0
  6
Continuous
 62
   179
370
    25
100
AcDbLine
 10
37.5219010823
 20
176.6686458669
 30
0.0
 11
39.2755293362
 21
176.2147736333
 31
0.0
  0
LINE
  5
24B
330
1F
100
AcDbEntity
  8
SLD-0
  6
Continuous
 62
   179
370
    25
100
AcDbLine
 10
38.0674132221
 20
176.2664821527
 30
0.0
 11
37.974452328
 21
176.2424216203
 31
0.0
  0
LINE
  5
24C
330
1F
100
AcDbEntity
  8
SLD-0
  6
Continuous
 62
   179
370
    25
100
AcDbLine
 10
38.0787008517
 20
176.2528777651
 30
0.0
 11
38.0786248558
 21
176.2560193024
 31
0.0
  0
LINE
  5
24D
330
1F
100
AcDbEntity
  8
SLD-0
  6
Continuous
 62
   179
370
    25
100
AcDbLine
 10
38.0786248558
 20
176.2560193024
 30
0.0
 11
38.0780750029
 21
176.2589507334
 31
0.0
  0
LINE
  5
24E
330
1F
100
AcDbEntity
  8
SLD-0
  6
Continuous
 62
   179
370
    25
100
AcDbLine
 10
38.0780750029
 20
176.2589507334
 30
0.0
 11
38.0770825856
 21
176.2615513585
 31
0.0
  0
LINE
  5
24F
330
1F
100
AcDbEntity
  8
SLD-0
  6
Continuous
 62
   179
370
    25
100
AcDbLine
 10
38.0770825856
 20
176.2615513585
 30
0.0
 11
38.0756878369
 21
176.2637105368
 31
0.0
  0
LINE
  5
250
330
1F
100
AcDbEntity
  8
SLD-0
  6
Continuous
 62
   179
370
    25
100
AcDbLine
 10
38.0756878369
 20
176.2637105368
 30
0.0
 11
38.0739399307
 21
176.2653388612
 31
0.0
  0
LINE
  5
251
330
1F
100
AcDbEntity
  8
SLD-0
  6
Continuous
 62
   179
370
    25
100
AcDbLine
 10
38.0739399307
 20
176.2653388612
 30
0.0
 11
38.0719238036
 21
176.2663681589
 31
0.0
  0
LINE
  5
252
330
1F
100
AcDbEntity
  8
SLD-0
  6
Continuous
 62
   179
370
    25
100
AcDbLine
 10
38.0719238036
 20
176.2663681589
 30
0.0
 11
38.0697154515
 21
176.2667537264
 31
0.0
  0
LINE
  5
253
330
1F
100
AcDbEntity
  8
SLD-0
  6
Continuous
 62
   179
370
    25
100
AcDbLine
 10
38.0697154515
 20
176.2667537264
 30
0.0
 11
38.0674132221
 21
176.2664821527
 31
0.0
  0
LINE
  5
254
330
1F
100
AcDbEntity
  8
SLD-0
  6
Continuous
 62
   179
370
    25
100
AcDbLine
 10
38.0380966776
 20
175.4431557439
 30
0.0
 11
38.0787008517
 21
176.2528777651
 31
0.0
  0
LINE
  5
255
330
1F
100
AcDbEntity
  8
SLD-0
  6
Continuous
 62
   179
370
    25
100
AcDbLine
 10
38.0187400692
 20
175.4283901833
 30
0.0
 11
38.0213149898
 21
175.4263762913
 31
0.0
  0
LINE
  5
256
330
1F
100
AcDbEntity
  8
SLD-0
  6
Continuous
 62
   179
370
    25
100
AcDbLine
 10
38.0213149898
 20
175.4263762913
 30
0.0
 11
38.0243369453
 21
175.4255850397
 31
0.0
  0
LINE
  5
257
330
1F
100
AcDbEntity
  8
SLD-0
  6
Continuous
 62
   179
370
    25
100
AcDbLine
 10
38.0243369453
 20
175.4255850397
 30
0.0
 11
38.0275600665
 21
175.4260778956
 31
0.0
  0
LINE
  5
258
330
1F
100
AcDbEntity
  8
SLD-0
  6
Continuous
 62
   179
370
    25
100
AcDbLine
 10
38.0275600665
 20
175.4260778956
 30
0.0
 11
38.0307250731
 21
175.4278190963
 31
0.0
  0
LINE
  5
259
330
1F
100
AcDbEntity
  8
SLD-0
  6
Continuous
 62
   179
370
    25
100
AcDbLine
 10
38.0307250731
 20
175.4278190963
 30
0.0
 11
38.033572685
 21
175.4306633554
 31
0.0
  0
LINE
  5
25A
330
1F
100
AcDbEntity
  8
SLD-0
  6
Continuous
 62
   179
370
    25
100
AcDbLine
 10
38.033572685
 20
175.4306633554
 30
0.0
 11
38.0358659737
 21
175.4343770973
 31
0.0
  0
LINE
  5
25B
330
1F
100
AcDbEntity
  8
SLD-0
  6
Continuous
 62
   179
370
    25
100
AcDbLine
 10
38.0358659737
 20
175.4343770973
 30
0.0
 11
38.0374171846
 21
175.4386585734
 31
0.0
  0
LINE
  5
25C
330
1F
100
AcDbEntity
  8
SLD-0
  6
Continuous
 62
   179
370
    25
100
AcDbLine
 10
38.0374171846
 20
175.4386585734
 30
0.0
 11
38.0380966776
 21
175.4431557439
 31
0.0
  0
LINE
  5
25D
330
1F
100
AcDbEntity
  8
SLD-0
  6
Continuous
 62
   179
370
    25
100
AcDbLine
 10
37.9178890102
 20
175.5426466994
 30
0.0
 11
38.0187400692
 21
175.4283901833
 31
0.0
  0
LINE
  5
25E
330
1F
100
AcDbEntity
  8
SLD-0
  6
Continuous
 62
   179
370
    25
100
AcDbLine
 10
37.9178890102
 20
175.5658288084
 30
0.0
 11
37.9178890102
 21
175.5426466994
 31
0.0
  0
LINE
  5
25F
330
1F
100
AcDbEntity
  8
SLD-0
  6
Continuous
 62
   179
370
    25
100
AcDbLine
 10
37.9567408078
 20
175.6144907854
 30
0.0
 11
37.9178890102
 21
175.5658288084
 31
0.0
  0
LINE
  5
260
330
1F
100
AcDbEntity
  8
SLD-0
  6
Continuous
 62
   179
370
    25
100
AcDbLine
 10
37.9877516144
 20
176.1134286008
 30
0.0
 11
37.974452328
 21
175.8481335423
 31
0.0
  0
LINE
  5
261
330
1F
100
AcDbEntity
  8
SLD-0
  6
Continuous
 62
   179
370
    25
100
AcDbLine
 10
37.9650511854
 20
175.6606549553
 30
0.0
 11
37.9636877291
 21
175.6334316514
 31
0.0
  0
LINE
  5
262
330
1F
100
AcDbEntity
  8
SLD-0
  6
Continuous
 62
   179
370
    25
100
AcDbLine
 10
37.9764729255
 20
176.1270329885
 30
0.0
 11
37.9787706845
 21
176.1273045621
 31
0.0
  0
LINE
  5
263
330
1F
100
AcDbEntity
  8
SLD-0
  6
Continuous
 62
   179
370
    25
100
AcDbLine
 10
37.9787706845
 20
176.1273045621
 30
0.0
 11
37.9809835069
 21
176.1269189946
 31
0.0
  0
LINE
  5
264
330
1F
100
AcDbEntity
  8
SLD-0
  6
Continuous
 62
   179
370
    25
100
AcDbLine
 10
37.9809835069
 20
176.1269189946
 30
0.0
 11
37.9829951637
 21
176.1258896969
 31
0.0
  0
LINE
  5
265
330
1F
100
AcDbEntity
  8
SLD-0
  6
Continuous
 62
   179
370
    25
100
AcDbLine
 10
37.9829951637
 20
176.1258896969
 30
0.0
 11
37.9847385996
 21
176.1242613725
 31
0.0
  0
LINE
  5
266
330
1F
100
AcDbEntity
  8
SLD-0
  6
Continuous
 62
   179
370
    25
100
AcDbLine
 10
37.9847385996
 20
176.1242613725
 30
0.0
 11
37.9861378186
 21
176.1221021942
 31
0.0
  0
LINE
  5
267
330
1F
100
AcDbEntity
  8
SLD-0
  6
Continuous
 62
   179
370
    25
100
AcDbLine
 10
37.9861378186
 20
176.1221021942
 30
0.0
 11
37.9871302359
 21
176.1195004515
 31
0.0
  0
LINE
  5
268
330
1F
100
AcDbEntity
  8
SLD-0
  6
Continuous
 62
   179
370
    25
100
AcDbLine
 10
37.9871302359
 20
176.1195004515
 30
0.0
 11
37.9876800888
 21
176.1165690206
 31
0.0
  0
LINE
  5
269
330
1F
100
AcDbEntity
  8
SLD-0
  6
Continuous
 62
   179
370
    25
100
AcDbLine
 10
37.9876800888
 20
176.1165690206
 30
0.0
 11
37.9877516144
 21
176.1134286008
 31
0.0
  0
LINE
  5
26A
330
1F
100
AcDbEntity
  8
SLD-0
  6
Continuous
 62
   179
370
    25
100
AcDbLine
 10
37.9178890102
 20
176.1118695668
 30
0.0
 11
37.9764729255
 21
176.1270329885
 31
0.0
  0
LINE
  5
26B
330
1F
100
AcDbEntity
  8
SLD-0
  6
Continuous
 62
   179
370
    25
100
AcDbLine
 10
37.8896006458
 20
176.1200033657
 30
0.0
 11
37.8896140569
 21
176.1191864095
 31
0.0
  0
LINE
  5
26C
330
1F
100
AcDbEntity
  8
SLD-0
  6
Continuous
 62
   179
370
    25
100
AcDbLine
 10
37.8896006458
 20
176.3595525704
 30
0.0
 11
37.8896006458
 21
176.1200033657
 31
0.0
  0
LINE
  5
26D
330
1F
100
AcDbEntity
  8
SLD-0
  6
Continuous
 62
   179
370
    25
100
AcDbLine
 10
37.8782861941
 20
176.3720807217
 30
0.0
 11
37.8804945462
 21
176.3723534129
 31
0.0
  0
LINE
  5
26E
330
1F
100
AcDbEntity
  8
SLD-0
  6
Continuous
 62
   179
370
    25
100
AcDbLine
 10
37.8804945462
 20
176.3723534129
 30
0.0
 11
37.8826134913
 21
176.3720237247
 31
0.0
  0
LINE
  5
26F
330
1F
100
AcDbEntity
  8
SLD-0
  6
Continuous
 62
   179
370
    25
100
AcDbLine
 10
37.8826134913
 20
176.3720237247
 30
0.0
 11
37.8845715039
 21
176.3711017154
 31
0.0
  0
LINE
  5
270
330
1F
100
AcDbEntity
  8
SLD-0
  6
Continuous
 62
   179
370
    25
100
AcDbLine
 10
37.8845715039
 20
176.3711017154
 30
0.0
 11
37.8862881177
 21
176.3696231477
 31
0.0
  0
LINE
  5
271
330
1F
100
AcDbEntity
  8
SLD-0
  6
Continuous
 62
   179
370
    25
100
AcDbLine
 10
37.8862881177
 20
176.3696231477
 30
0.0
 11
37.8876918071
 21
176.3676461361
 31
0.0
  0
LINE
  5
272
330
1F
100
AcDbEntity
  8
SLD-0
  6
Continuous
 62
   179
370
    25
100
AcDbLine
 10
37.8876918071
 20
176.3676461361
 30
0.0
 11
37.8887378686
 21
176.3652444414
 31
0.0
  0
LINE
  5
273
330
1F
100
AcDbEntity
  8
SLD-0
  6
Continuous
 62
   179
370
    25
100
AcDbLine
 10
37.8887378686
 20
176.3652444414
 30
0.0
 11
37.8893815987
 21
176.3625130586
 31
0.0
  0
LINE
  5
274
330
1F
100
AcDbEntity
  8
SLD-0
  6
Continuous
 62
   179
370
    25
100
AcDbLine
 10
37.8893815987
 20
176.3625130586
 30
0.0
 11
37.8896006458
 21
176.3595525704
 31
0.0
  0
LINE
  5
275
330
1F
100
AcDbEntity
  8
SLD-0
  6
Continuous
 62
   179
370
    25
100
AcDbLine
 10
38.0380966776
 20
175.4431557439
 30
0.0
 11
38.8866224401
 21
175.2235420577
 31
0.0
  0
LINE
  5
276
330
1F
100
AcDbEntity
  8
SLD-0
  6
Continuous
 62
   179
370
    25
100
AcDbLine
 10
38.9272266143
 20
176.0332629613
 30
0.0
 11
38.0787008517
 21
176.2528777651
 31
0.0
  0
LINE
  5
277
330
1F
100
AcDbEntity
  8
SLD-0
  6
Continuous
 62
   179
370
    25
100
AcDbLine
 10
38.8866224401
 20
175.2235420577
 30
0.0
 11
38.9272266143
 21
176.0332629613
 31
0.0
  0
LINE
  5
278
330
1F
100
AcDbEntity
  8
SLD-0
  6
Continuous
 62
   179
370
    25
100
AcDbLine
 10
38.8866224401
 20
175.2235420577
 30
0.0
 11
38.8859429472
 21
175.2190437696
 31
0.0
  0
LINE
  5
279
330
1F
100
AcDbEntity
  8
SLD-0
  6
Continuous
 62
   179
370
    25
100
AcDbLine
 10
38.8859429472
 20
175.2190437696
 30
0.0
 11
38.8843917363
 21
175.2147622935
 31
0.0
  0
LINE
  5
27A
330
1F
100
AcDbEntity
  8
SLD-0
  6
Continuous
 62
   179
370
    25
100
AcDbLine
 10
38.8843917363
 20
175.2147622935
 30
0.0
 11
38.8820984476
 21
175.211047434
 31
0.0
  0
LINE
  5
27B
330
1F
100
AcDbEntity
  8
SLD-0
  6
Continuous
 62
   179
370
    25
100
AcDbLine
 10
38.8820984476
 20
175.211047434
 30
0.0
 11
38.8792508357
 21
175.2082042925
 31
0.0
  0
LINE
  5
27C
330
1F
100
AcDbEntity
  8
SLD-0
  6
Continuous
 62
   179
370
    25
100
AcDbLine
 10
38.8792508357
 20
175.2082042925
 30
0.0
 11
38.876085829
 21
175.2064642094
 31
0.0
  0
LINE
  5
27D
330
1F
100
AcDbEntity
  8
SLD-0
  6
Continuous
 62
   179
370
    25
100
AcDbLine
 10
38.876085829
 20
175.2064642094
 30
0.0
 11
38.8728627079
 21
175.2059702359
 31
0.0
  0
LINE
  5
27E
330
1F
100
AcDbEntity
  8
SLD-0
  6
Continuous
 62
   179
370
    25
100
AcDbLine
 10
38.8728627079
 20
175.2059702359
 30
0.0
 11
38.8713338487
 21
175.2062004588
 31
0.0
  0
LINE
  5
27F
330
1F
100
AcDbEntity
  8
SLD-0
  6
Continuous
 62
   179
370
    25
100
AcDbLine
 10
37.4370494001
 20
176.2363173596
 30
0.0
 11
37.4370494001
 21
176.2424249731
 31
0.0
  0
LINE
  5
280
330
1F
100
AcDbEntity
  8
SLD-0
  6
Continuous
 62
   179
370
    25
100
AcDbLine
 10
74.9137119465
 20
166.932370194
 30
0.0
 11
74.1492287331
 21
166.7345081053
 31
0.0
  0
LINE
  5
281
330
1F
100
AcDbEntity
  8
SLD-0
  6
Continuous
 62
   179
370
    25
100
AcDbLine
 10
74.9137119465
 20
166.7778213106
 30
0.0
 11
74.9137119465
 21
166.932370194
 31
0.0
  0
LINE
  5
282
330
1F
100
AcDbEntity
  8
SLD-0
  6
Continuous
 62
   179
370
    25
100
AcDbLine
 10
74.4477854185
 20
166.6572314284
 30
0.0
 11
74.9137119465
 21
166.7778213106
 31
0.0
  0
LINE
  5
283
330
1F
100
AcDbEntity
  8
SLD-0
  6
Continuous
 62
   179
370
    25
100
AcDbLine
 10
75.0134767108
 20
166.5108230494
 30
0.0
 11
75.0664436333
 21
166.5245336078
 31
0.0
  0
LINE
  5
284
330
1F
100
AcDbEntity
  8
SLD-0
  6
Continuous
 62
   179
370
    25
100
AcDbLine
 10
75.1399920397
 20
166.7778190754
 30
0.0
 11
74.9137119465
 21
166.7778213106
 31
0.0
  0
LINE
  5
285
330
1F
100
AcDbEntity
  8
SLD-0
  6
Continuous
 62
   179
370
    25
100
AcDbLine
 10
75.1399920397
 20
166.7778190754
 30
0.0
 11
75.5925276392
 21
166.6606937132
 31
0.0
  0
LINE
  5
286
330
1F
100
AcDbEntity
  8
SLD-0
  6
Continuous
 62
   179
370
    25
100
AcDbLine
 10
75.496370446
 20
166.6358050488
 30
0.0
 11
75.5925276392
 21
166.6606937132
 31
0.0
  0
LINE
  5
287
330
1F
100
AcDbEntity
  8
SLD-0
  6
Continuous
 62
   179
370
    25
100
AcDbLine
 10
76.8936068826
 20
166.3239513121
 30
0.0
 11
76.4410601073
 21
166.4410789094
 31
0.0
  0
LINE
  5
288
330
1F
100
AcDbEntity
  8
SLD-0
  6
Continuous
 62
   179
370
    25
100
AcDbLine
 10
76.8936180585
 20
166.2653875134
 30
0.0
 11
76.8936068826
 21
166.3239513121
 31
0.0
  0
LINE
  5
289
330
1F
100
AcDbEntity
  8
SLD-0
  6
Continuous
 62
   179
370
    25
100
AcDbLine
 10
76.5391261392
 20
166.1736380837
 30
0.0
 11
76.8936180585
 21
166.2653875134
 31
0.0
  0
LINE
  5
28A
330
1F
100
AcDbEntity
  8
SLD-0
  6
Continuous
 62
   179
370
    25
100
AcDbLine
 10
74.7015782707
 20
166.6423943422
 30
0.0
 11
74.6625633054
 21
166.6272778593
 31
0.0
  0
LINE
  5
28B
330
1F
100
AcDbEntity
  8
SLD-0
  6
Continuous
 62
   179
370
    25
100
AcDbLine
 10
74.6625633054
 20
166.6272778593
 30
0.0
 11
74.6488594525
 21
166.60945011
 31
0.0
  0
LINE
  5
28C
330
1F
100
AcDbEntity
  8
SLD-0
  6
Continuous
 62
   179
370
    25
100
AcDbLine
 10
74.6488594525
 20
166.60945011
 30
0.0
 11
74.6496887021
 21
166.6049775265
 31
0.0
  0
LINE
  5
28D
330
1F
100
AcDbEntity
  8
SLD-0
  6
Continuous
 62
   179
370
    25
100
AcDbLine
 10
74.956142258
 20
166.5765058778
 30
0.0
 11
75.2389834338
 21
166.6497123025
 31
0.0
  0
LINE
  5
28E
330
1F
100
AcDbEntity
  8
SLD-0
  6
Continuous
 62
   179
370
    25
100
AcDbLine
 10
75.2389834338
 20
166.6497123025
 30
0.0
 11
75.277998399
 21
166.6648265503
 31
0.0
  0
LINE
  5
28F
330
1F
100
AcDbEntity
  8
SLD-0
  6
Continuous
 62
   179
370
    25
100
AcDbLine
 10
75.277998399
 20
166.6648265503
 30
0.0
 11
75.2917022519
 21
166.6826542995
 31
0.0
  0
LINE
  5
290
330
1F
100
AcDbEntity
  8
SLD-0
  6
Continuous
 62
   179
370
    25
100
AcDbLine
 10
75.2917022519
 20
166.6826542995
 30
0.0
 11
75.277998399
 21
166.700484284
 31
0.0
  0
LINE
  5
291
330
1F
100
AcDbEntity
  8
SLD-0
  6
Continuous
 62
   179
370
    25
100
AcDbLine
 10
75.277998399
 20
166.700484284
 30
0.0
 11
75.2389722579
 21
166.7155962966
 31
0.0
  0
LINE
  5
292
330
1F
100
AcDbEntity
  8
SLD-0
  6
Continuous
 62
   179
370
    25
100
AcDbLine
 10
75.2389722579
 20
166.7155962966
 30
0.0
 11
75.1805805676
 21
166.7256970487
 31
0.0
  0
LINE
  5
293
330
1F
100
AcDbEntity
  8
SLD-0
  6
Continuous
 62
   179
370
    25
100
AcDbLine
 10
75.1805805676
 20
166.7256970487
 30
0.0
 11
75.1116947346
 21
166.729242035
 31
0.0
  0
LINE
  5
294
330
1F
100
AcDbEntity
  8
SLD-0
  6
Continuous
 62
   179
370
    25
100
AcDbLine
 10
75.1116947346
 20
166.729242035
 30
0.0
 11
75.0428223126
 21
166.7256970487
 31
0.0
  0
LINE
  5
295
330
1F
100
AcDbEntity
  8
SLD-0
  6
Continuous
 62
   179
370
    25
100
AcDbLine
 10
75.0428223126
 20
166.7256970487
 30
0.0
 11
74.9844172113
 21
166.7155962966
 31
0.0
  0
LINE
  5
296
330
1F
100
AcDbEntity
  8
SLD-0
  6
Continuous
 62
   179
370
    25
100
AcDbLine
 10
74.9844172113
 20
166.7155962966
 30
0.0
 11
74.7015782707
 21
166.6423943422
 31
0.0
  0
LINE
  5
297
330
1F
100
AcDbEntity
  8
SLD-0
  6
Continuous
 62
   179
370
    25
100
AcDbLine
 10
76.5433617943
 20
166.2581276677
 30
0.0
 11
76.5507892781
 21
166.2622001551
 31
0.0
  0
LINE
  5
298
330
1F
100
AcDbEntity
  8
SLD-0
  6
Continuous
 62
   179
370
    25
100
AcDbLine
 10
76.5507892781
 20
166.2622001551
 30
0.0
 11
76.5644953661
 21
166.2800256691
 31
0.0
  0
LINE
  5
299
330
1F
100
AcDbEntity
  8
SLD-0
  6
Continuous
 62
   179
370
    25
100
AcDbLine
 10
76.5644953661
 20
166.2800256691
 30
0.0
 11
76.5507892781
 21
166.2978578887
 31
0.0
  0
LINE
  5
29A
330
1F
100
AcDbEntity
  8
SLD-0
  6
Continuous
 62
   179
370
    25
100
AcDbLine
 10
76.5507892781
 20
166.2978578887
 30
0.0
 11
76.545116406
 21
166.3010541878
 31
0.0
  0
LINE
  5
29B
330
1F
100
AcDbEntity
  8
SLD-0
  6
Continuous
 62
   179
370
    25
100
AcDbLine
 10
74.9137119465
 20
166.932370194
 30
0.0
 11
75.1399920397
 21
166.932370194
 31
0.0
  0
LINE
  5
29C
330
1F
100
AcDbEntity
  8
SLD-0
  6
Continuous
 62
   179
370
    25
100
AcDbLine
 10
75.1399920397
 20
166.932370194
 30
0.0
 11
75.1399920397
 21
166.7778190754
 31
0.0
  0
LINE
  5
29D
330
1F
100
AcDbEntity
  8
SLD-0
  6
Continuous
 62
   179
370
    25
100
AcDbLine
 10
76.4410601073
 20
166.3357239745
 30
0.0
 11
76.4410601073
 21
166.4410789094
 31
0.0
  0
LINE
  5
29E
330
1F
100
AcDbEntity
  8
SLD-0
  6
Continuous
 62
   179
370
    25
100
AcDbLine
 10
75.5925276392
 20
166.506147065
 30
0.0
 11
75.5925276392
 21
166.6606937132
 31
0.0
  0
LINE
  5
29F
330
1F
100
AcDbEntity
  8
SLD-0
  6
Continuous
 62
   179
370
    25
100
AcDbLine
 10
76.8936068826
 20
166.3239513121
 30
0.0
 11
76.8936068826
 21
166.4785001956
 31
0.0
  0
LINE
  5
2A0
330
1F
100
AcDbEntity
  8
SLD-0
  6
Continuous
 62
   179
370
    25
100
AcDbLine
 10
75.1399920397
 20
166.932370194
 30
0.0
 11
76.8936068826
 21
166.4785001956
 31
0.0
  0
LINE
  5
2A1
330
1F
100
AcDbEntity
  8
SLD-0
  6
Continuous
 62
   179
370
    25
100
AcDbLine
 10
75.6854930036
 20
166.5302064798
 30
0.0
 11
75.5925276392
 21
166.506147065
 31
0.0
  0
LINE
  5
2A2
330
1F
100
AcDbEntity
  8
SLD-0
  6
Continuous
 62
   179
370
    25
100
AcDbLine
 10
75.6967739277
 20
166.5166032098
 30
0.0
 11
75.6966979318
 21
166.5197436295
 31
0.0
  0
LINE
  5
2A3
330
1F
100
AcDbEntity
  8
SLD-0
  6
Continuous
 62
   179
370
    25
100
AcDbLine
 10
75.6966979318
 20
166.5197436295
 30
0.0
 11
75.6961547845
 21
166.522676178
 31
0.0
  0
LINE
  5
2A4
330
1F
100
AcDbEntity
  8
SLD-0
  6
Continuous
 62
   179
370
    25
100
AcDbLine
 10
75.6961547845
 20
166.522676178
 30
0.0
 11
75.6951623671
 21
166.5252779208
 31
0.0
  0
LINE
  5
2A5
330
1F
100
AcDbEntity
  8
SLD-0
  6
Continuous
 62
   179
370
    25
100
AcDbLine
 10
75.6951623671
 20
166.5252779208
 30
0.0
 11
75.6937609129
 21
166.5274348639
 31
0.0
  0
LINE
  5
2A6
330
1F
100
AcDbEntity
  8
SLD-0
  6
Continuous
 62
   179
370
    25
100
AcDbLine
 10
75.6937609129
 20
166.5274348639
 30
0.0
 11
75.6920264178
 21
166.5290643058
 31
0.0
  0
LINE
  5
2A7
330
1F
100
AcDbEntity
  8
SLD-0
  6
Continuous
 62
   179
370
    25
100
AcDbLine
 10
75.6920264178
 20
166.5290643058
 30
0.0
 11
75.6900035851
 21
166.530092486
 31
0.0
  0
LINE
  5
2A8
330
1F
100
AcDbEntity
  8
SLD-0
  6
Continuous
 62
   179
370
    25
100
AcDbLine
 10
75.6900035851
 20
166.530092486
 30
0.0
 11
75.6877997034
 21
166.5304791711
 31
0.0
  0
LINE
  5
2A9
330
1F
100
AcDbEntity
  8
SLD-0
  6
Continuous
 62
   179
370
    25
100
AcDbLine
 10
75.6877997034
 20
166.5304791711
 30
0.0
 11
75.6854930036
 21
166.5302064798
 31
0.0
  0
LINE
  5
2AA
330
1F
100
AcDbEntity
  8
SLD-0
  6
Continuous
 62
   179
370
    25
100
AcDbLine
 10
75.6561764591
 20
165.7068823061
 30
0.0
 11
75.6967739277
 21
166.5166032098
 31
0.0
  0
LINE
  5
2AB
330
1F
100
AcDbEntity
  8
SLD-0
  6
Continuous
 62
   179
370
    25
100
AcDbLine
 10
75.6368176155
 20
165.6921145103
 30
0.0
 11
75.6393925362
 21
165.6901028536
 31
0.0
  0
LINE
  5
2AC
330
1F
100
AcDbEntity
  8
SLD-0
  6
Continuous
 62
   179
370
    25
100
AcDbLine
 10
75.6393925362
 20
165.6901028536
 30
0.0
 11
75.6424144917
 21
165.6893093668
 31
0.0
  0
LINE
  5
2AD
330
1F
100
AcDbEntity
  8
SLD-0
  6
Continuous
 62
   179
370
    25
100
AcDbLine
 10
75.6424144917
 20
165.6893093668
 30
0.0
 11
75.645639848
 21
165.6898033402
 31
0.0
  0
LINE
  5
2AE
330
1F
100
AcDbEntity
  8
SLD-0
  6
Continuous
 62
   179
370
    25
100
AcDbLine
 10
75.645639848
 20
165.6898033402
 30
0.0
 11
75.6488048547
 21
165.6915445409
 31
0.0
  0
LINE
  5
2AF
330
1F
100
AcDbEntity
  8
SLD-0
  6
Continuous
 62
   179
370
    25
100
AcDbLine
 10
75.6488048547
 20
165.6915445409
 30
0.0
 11
75.6516479962
 21
165.6943876825
 31
0.0
  0
LINE
  5
2B0
330
1F
100
AcDbEntity
  8
SLD-0
  6
Continuous
 62
   179
370
    25
100
AcDbLine
 10
75.6516479962
 20
165.6943876825
 30
0.0
 11
75.6539457553
 21
165.698102542
 31
0.0
  0
LINE
  5
2B1
330
1F
100
AcDbEntity
  8
SLD-0
  6
Continuous
 62
   179
370
    25
100
AcDbLine
 10
75.6539457553
 20
165.698102542
 30
0.0
 11
75.6554992013
 21
165.7023829005
 31
0.0
  0
LINE
  5
2B2
330
1F
100
AcDbEntity
  8
SLD-0
  6
Continuous
 62
   179
370
    25
100
AcDbLine
 10
75.6554992013
 20
165.7023829005
 30
0.0
 11
75.6561764591
 21
165.7068823061
 31
0.0
  0
LINE
  5
2B3
330
1F
100
AcDbEntity
  8
SLD-0
  6
Continuous
 62
   179
370
    25
100
AcDbLine
 10
75.5359665566
 20
165.806372144
 30
0.0
 11
75.6368176155
 21
165.6921145103
 31
0.0
  0
LINE
  5
2B4
330
1F
100
AcDbEntity
  8
SLD-0
  6
Continuous
 62
   179
370
    25
100
AcDbLine
 10
75.5359665566
 20
165.8295531354
 30
0.0
 11
75.5359665566
 21
165.806372144
 31
0.0
  0
LINE
  5
2B5
330
1F
100
AcDbEntity
  8
SLD-0
  6
Continuous
 62
   179
370
    25
100
AcDbLine
 10
75.5748183542
 20
165.8782173477
 30
0.0
 11
75.5359665566
 21
165.8295531354
 31
0.0
  0
LINE
  5
2B6
330
1F
100
AcDbEntity
  8
SLD-0
  6
Continuous
 62
   179
370
    25
100
AcDbLine
 10
75.6058313959
 20
166.3771529279
 30
0.0
 11
75.5925276392
 21
166.1118601046
 31
0.0
  0
LINE
  5
2B7
330
1F
100
AcDbEntity
  8
SLD-0
  6
Continuous
 62
   179
370
    25
100
AcDbLine
 10
75.5831354373
 20
165.9243781648
 30
0.0
 11
75.5817608052
 21
165.8971559785
 31
0.0
  0
LINE
  5
2B8
330
1F
100
AcDbEntity
  8
SLD-0
  6
Continuous
 62
   179
370
    25
100
AcDbLine
 10
75.5945504718
 20
166.390756198
 30
0.0
 11
75.5968482309
 21
166.3910288892
 31
0.0
  0
LINE
  5
2B9
330
1F
100
AcDbEntity
  8
SLD-0
  6
Continuous
 62
   179
370
    25
100
AcDbLine
 10
75.5968482309
 20
166.3910288892
 30
0.0
 11
75.5990610533
 21
166.3906422041
 31
0.0
  0
LINE
  5
2BA
330
1F
100
AcDbEntity
  8
SLD-0
  6
Continuous
 62
   179
370
    25
100
AcDbLine
 10
75.5990610533
 20
166.3906422041
 30
0.0
 11
75.6010727101
 21
166.389614024
 31
0.0
  0
LINE
  5
2BB
330
1F
100
AcDbEntity
  8
SLD-0
  6
Continuous
 62
   179
370
    25
100
AcDbLine
 10
75.6010727101
 20
166.389614024
 30
0.0
 11
75.6028183811
 21
166.3879868172
 31
0.0
  0
LINE
  5
2BC
330
1F
100
AcDbEntity
  8
SLD-0
  6
Continuous
 62
   179
370
    25
100
AcDbLine
 10
75.6028183811
 20
166.3879868172
 30
0.0
 11
75.6042198353
 21
166.3858254037
 31
0.0
  0
LINE
  5
2BD
330
1F
100
AcDbEntity
  8
SLD-0
  6
Continuous
 62
   179
370
    25
100
AcDbLine
 10
75.6042198353
 20
166.3858254037
 30
0.0
 11
75.6052122526
 21
166.3832258962
 31
0.0
  0
LINE
  5
2BE
330
1F
100
AcDbEntity
  8
SLD-0
  6
Continuous
 62
   179
370
    25
100
AcDbLine
 10
75.6052122526
 20
166.3832258962
 30
0.0
 11
75.6057554
 21
166.3802955828
 31
0.0
  0
LINE
  5
2BF
330
1F
100
AcDbEntity
  8
SLD-0
  6
Continuous
 62
   179
370
    25
100
AcDbLine
 10
75.6057554
 20
166.3802955828
 30
0.0
 11
75.6058313959
 21
166.3771529279
 31
0.0
  0
LINE
  5
2C0
330
1F
100
AcDbEntity
  8
SLD-0
  6
Continuous
 62
   179
370
    25
100
AcDbLine
 10
75.5359665566
 20
166.3755927763
 30
0.0
 11
75.5945504718
 21
166.390756198
 31
0.0
  0
LINE
  5
2C1
330
1F
100
AcDbEntity
  8
SLD-0
  6
Continuous
 62
   179
370
    25
100
AcDbLine
 10
75.5076804273
 20
166.3837288104
 30
0.0
 11
75.5076983087
 21
166.3829107366
 31
0.0
  0
LINE
  5
2C2
330
1F
100
AcDbEntity
  8
SLD-0
  6
Continuous
 62
   179
370
    25
100
AcDbLine
 10
75.5076804273
 20
166.6232768975
 30
0.0
 11
75.5076804273
 21
166.3837288104
 31
0.0
  0
LINE
  5
2C3
330
1F
100
AcDbEntity
  8
SLD-0
  6
Continuous
 62
   179
370
    25
100
AcDbLine
 10
75.496370446
 20
166.6358050488
 30
0.0
 11
75.4985720926
 21
166.63607774
 31
0.0
  0
LINE
  5
2C4
330
1F
100
AcDbEntity
  8
SLD-0
  6
Continuous
 62
   179
370
    25
100
AcDbLine
 10
75.4985720926
 20
166.63607774
 30
0.0
 11
75.5006999784
 21
166.6357491694
 31
0.0
  0
LINE
  5
2C5
330
1F
100
AcDbEntity
  8
SLD-0
  6
Continuous
 62
   179
370
    25
100
AcDbLine
 10
75.5006999784
 20
166.6357491694
 30
0.0
 11
75.5026535206
 21
166.6348260425
 31
0.0
  0
LINE
  5
2C6
330
1F
100
AcDbEntity
  8
SLD-0
  6
Continuous
 62
   179
370
    25
100
AcDbLine
 10
75.5026535206
 20
166.6348260425
 30
0.0
 11
75.5043611937
 21
166.6333485923
 31
0.0
  0
LINE
  5
2C7
330
1F
100
AcDbEntity
  8
SLD-0
  6
Continuous
 62
   179
370
    25
100
AcDbLine
 10
75.5043611937
 20
166.6333485923
 30
0.0
 11
75.5057738238
 21
166.6313704632
 31
0.0
  0
LINE
  5
2C8
330
1F
100
AcDbEntity
  8
SLD-0
  6
Continuous
 62
   179
370
    25
100
AcDbLine
 10
75.5057738238
 20
166.6313704632
 30
0.0
 11
75.5068221205
 21
166.6289698861
 31
0.0
  0
LINE
  5
2C9
330
1F
100
AcDbEntity
  8
SLD-0
  6
Continuous
 62
   179
370
    25
100
AcDbLine
 10
75.5068221205
 20
166.6289698861
 30
0.0
 11
75.5074613803
 21
166.6262385033
 31
0.0
  0
LINE
  5
2CA
330
1F
100
AcDbEntity
  8
SLD-0
  6
Continuous
 62
   179
370
    25
100
AcDbLine
 10
75.5074613803
 20
166.6262385033
 30
0.0
 11
75.5076804273
 21
166.6232768975
 31
0.0
  0
LINE
  5
2CB
330
1F
100
AcDbEntity
  8
SLD-0
  6
Continuous
 62
   179
370
    25
100
AcDbLine
 10
75.6561764591
 20
165.7068823061
 30
0.0
 11
76.5046999865
 21
165.4872675024
 31
0.0
  0
LINE
  5
2CC
330
1F
100
AcDbEntity
  8
SLD-0
  6
Continuous
 62
   179
370
    25
100
AcDbLine
 10
76.5453063958
 20
166.2969861708
 30
0.0
 11
75.6967739277
 21
166.5166032098
 31
0.0
  0
LINE
  5
2CD
330
1F
100
AcDbEntity
  8
SLD-0
  6
Continuous
 62
   179
370
    25
100
AcDbLine
 10
76.5046999865
 20
165.4872675024
 30
0.0
 11
76.5453063958
 21
166.2969861708
 31
0.0
  0
LINE
  5
2CE
330
1F
100
AcDbEntity
  8
SLD-0
  6
Continuous
 62
   179
370
    25
100
AcDbLine
 10
76.5046999865
 20
165.4872675024
 30
0.0
 11
76.5040227287
 21
165.4827680967
 31
0.0
  0
LINE
  5
2CF
330
1F
100
AcDbEntity
  8
SLD-0
  6
Continuous
 62
   179
370
    25
100
AcDbLine
 10
76.5040227287
 20
165.4827680967
 30
0.0
 11
76.5024670475
 21
165.478485503
 31
0.0
  0
LINE
  5
2D0
330
1F
100
AcDbEntity
  8
SLD-0
  6
Continuous
 62
   179
370
    25
100
AcDbLine
 10
76.5024670475
 20
165.478485503
 30
0.0
 11
76.5001782291
 21
165.4747706435
 31
0.0
  0
LINE
  5
2D1
330
1F
100
AcDbEntity
  8
SLD-0
  6
Continuous
 62
   179
370
    25
100
AcDbLine
 10
76.5001782291
 20
165.4747706435
 30
0.0
 11
76.4973373227
 21
165.4719297371
 31
0.0
  0
LINE
  5
2D2
330
1F
100
AcDbEntity
  8
SLD-0
  6
Continuous
 62
   179
370
    25
100
AcDbLine
 10
76.4973373227
 20
165.4719297371
 30
0.0
 11
76.4941700809
 21
165.4701863013
 31
0.0
  0
LINE
  5
2D3
330
1F
100
AcDbEntity
  8
SLD-0
  6
Continuous
 62
   179
370
    25
100
AcDbLine
 10
76.4941700809
 20
165.4701863013
 30
0.0
 11
76.4909469598
 21
165.4696923278
 31
0.0
  0
LINE
  5
2D4
330
1F
100
AcDbEntity
  8
SLD-0
  6
Continuous
 62
   179
370
    25
100
AcDbLine
 10
76.4909469598
 20
165.4696923278
 30
0.0
 11
76.4894113951
 21
165.4699247859
 31
0.0
  0
LINE
  5
2D5
330
1F
100
AcDbEntity
  8
SLD-0
  6
Continuous
 62
   179
370
    25
100
AcDbLine
 10
75.055133652
 20
166.5000428043
 30
0.0
 11
75.055133652
 21
166.5061493001
 31
0.0
  0
LINE
  5
2D6
330
1F
100
AcDbEntity
  8
SLD-0
  6
Continuous
 62
   179
370
    25
100
AcDbLine
 10
142.2302716487
 20
149.1138343297
 30
0.0
 11
142.1600067132
 21
149.0956444822
 31
0.0
  0
LINE
  5
2D7
330
1F
100
AcDbEntity
  8
SLD-0
  6
Continuous
 62
   179
370
    25
100
AcDbLine
 10
142.2868439071
 20
149.0512002788
 30
0.0
 11
142.2302716487
 21
149.1138343297
 31
0.0
  0
LINE
  5
2D8
330
1F
100
AcDbEntity
  8
SLD-0
  6
Continuous
 62
   179
370
    25
100
AcDbLine
 10
142.2868439071
 20
148.6802865348
 30
0.0
 11
142.2868439071
 21
149.0512002788
 31
0.0
  0
LINE
  5
2D9
330
1F
100
AcDbEntity
  8
SLD-0
  6
Continuous
 62
   179
370
    25
100
AcDbLine
 10
142.2189616673
 20
148.6472640715
 30
0.0
 11
142.2755339258
 21
148.6619044624
 31
0.0
  0
LINE
  5
2DA
330
1F
100
AcDbEntity
  8
SLD-0
  6
Continuous
 62
   179
370
    25
100
AcDbLine
 10
142.2019877546
 20
148.1405903183
 30
0.0
 11
142.2019877546
 21
148.6196864925
 31
0.0
  0
LINE
  5
2DB
330
1F
100
AcDbEntity
  8
SLD-0
  6
Continuous
 62
   179
370
    25
100
AcDbLine
 10
142.1799578779
 20
148.1348816834
 30
0.0
 11
142.2019877546
 21
148.1405903183
 31
0.0
  0
LINE
  5
2DC
330
1F
100
AcDbEntity
  8
SLD-0
  6
Continuous
 62
   179
370
    25
100
AcDbLine
 10
142.1327331178
 20
148.2326258502
 30
0.0
 11
142.1531223767
 21
148.1543589912
 31
0.0
  0
LINE
  5
2DD
330
1F
100
AcDbEntity
  8
SLD-0
  6
Continuous
 62
   179
370
    25
100
AcDbLine
 10
142.1312802546
 20
148.3063508354
 30
0.0
 11
142.1312802546
 21
148.244467803
 31
0.0
  0
LINE
  5
2DE
330
1F
100
AcDbEntity
  8
SLD-0
  6
Continuous
 62
   179
370
    25
100
AcDbLine
 10
142.1391033643
 20
148.3388547383
 30
0.0
 11
142.134275388
 21
148.3244065724
 31
0.0
  0
LINE
  5
2DF
330
1F
100
AcDbEntity
  8
SLD-0
  6
Continuous
 62
   179
370
    25
100
AcDbLine
 10
142.134275388
 20
148.3853597723
 30
0.0
 11
142.1391033643
 21
148.3734105311
 31
0.0
  0
LINE
  5
2E0
330
1F
100
AcDbEntity
  8
SLD-0
  6
Continuous
 62
   179
370
    25
100
AcDbLine
 10
142.1312802546
 20
148.4608997188
 30
0.0
 11
142.1312802546
 21
148.4018687687
 31
0.0
  0
LINE
  5
2E1
330
1F
100
AcDbEntity
  8
SLD-0
  6
Continuous
 62
   179
370
    25
100
AcDbLine
 10
142.1391033643
 20
148.4933991514
 30
0.0
 11
142.134275388
 21
148.4789509855
 31
0.0
  0
LINE
  5
2E2
330
1F
100
AcDbEntity
  8
SLD-0
  6
Continuous
 62
   179
370
    25
100
AcDbLine
 10
142.134275388
 20
148.5399086557
 30
0.0
 11
142.1391033643
 21
148.5279638849
 31
0.0
  0
LINE
  5
2E3
330
1F
100
AcDbEntity
  8
SLD-0
  6
Continuous
 62
   179
370
    25
100
AcDbLine
 10
142.1312802546
 20
148.6154486022
 30
0.0
 11
142.1312802546
 21
148.5564131818
 31
0.0
  0
LINE
  5
2E4
330
1F
100
AcDbEntity
  8
SLD-0
  6
Continuous
 62
   179
370
    25
100
AcDbLine
 10
142.1424382441
 20
148.657934793
 30
0.0
 11
142.134275388
 21
148.6334998689
 31
0.0
  0
LINE
  5
2E5
330
1F
100
AcDbEntity
  8
SLD-0
  6
Continuous
 62
   179
370
    25
100
AcDbLine
 10
142.1454154961
 20
148.6867908917
 30
0.0
 11
142.1454154961
 21
148.6759860597
 31
0.0
  0
LINE
  5
2E6
330
1F
100
AcDbEntity
  8
SLD-0
  6
Continuous
 62
   179
370
    25
100
AcDbLine
 10
142.2019877546
 20
148.1405903183
 30
0.0
 11
198.7705358379
 21
133.4995735965
 31
0.0
  0
LINE
  5
2E7
330
1F
100
AcDbEntity
  8
SLD-0
  6
Continuous
 62
   179
370
    25
100
AcDbLine
 10
198.7705358379
 20
133.4995735965
 30
0.0
 11
198.7705358379
 21
133.9786742411
 31
0.0
  0
LINE
  5
2E8
330
1F
100
AcDbEntity
  8
SLD-0
  6
Continuous
 62
   179
370
    25
100
AcDbLine
 10
198.7484880798
 20
133.493869432
 30
0.0
 11
198.7705358379
 21
133.4995735965
 31
0.0
  0
LINE
  5
2E9
330
1F
100
AcDbEntity
  8
SLD-0
  6
Continuous
 62
   179
370
    25
100
AcDbLine
 10
142.1799578779
 20
148.1348816834
 30
0.0
 11
198.7484880798
 21
133.493869432
 31
0.0
  0
LINE
  5
2EA
330
1F
100
AcDbEntity
  8
SLD-0
  6
Continuous
 62
     7
370
    25
100
AcDbLine
 10
198.8553919905
 20
134.4101880274
 30
0.0
 11
189.8972609155
 21
136.7287207923
 31
0.0
  0
LINE
  5
2EB
330
1F
100
AcDbEntity
  8
SLD-0
  6
Continuous
 62
   179
370
    25
100
AcDbLine
 10
188.9658459537
 20
136.9697887979
 30
0.0
 11
152.2791766637
 21
146.4649964653
 31
0.0
  0
LINE
  5
2EC
330
1F
100
AcDbEntity
  8
SLD-0
  6
Continuous
 62
   179
370
    25
100
AcDbLine
 10
151.3477617019
 20
146.7060644708
 30
0.0
 11
142.2868439071
 21
149.0512002788
 31
0.0
  0
LINE
  5
2ED
330
1F
100
AcDbEntity
  8
SLD-0
  6
Continuous
 62
   179
370
    25
100
AcDbLine
 10
198.8553919905
 20
134.0392698131
 30
0.0
 11
198.8553919905
 21
134.4101880274
 31
0.0
  0
LINE
  5
2EE
330
1F
100
AcDbEntity
  8
SLD-0
  6
Continuous
 62
   179
370
    25
100
AcDbLine
 10
198.7875052803
 20
134.0062428794
 30
0.0
 11
198.8440820091
 21
134.0208877407
 31
0.0
  0
LINE
  5
2EF
330
1F
100
AcDbEntity
  8
SLD-0
  6
Continuous
 62
   179
370
    25
100
AcDbLine
 10
142.2302716487
 20
149.1138343297
 30
0.0
 11
151.3501443975
 21
146.7534412227
 31
0.0
  0
LINE
  5
2F0
330
1F
100
AcDbEntity
  8
SLD-0
  6
Continuous
 62
   179
370
    25
100
AcDbLine
 10
152.2815414779
 20
146.5123776875
 30
0.0
 11
188.9682331198
 21
137.0171655498
 31
0.0
  0
LINE
  5
2F1
330
1F
100
AcDbEntity
  8
SLD-0
  6
Continuous
 62
   179
370
    25
100
AcDbLine
 10
189.8996302002
 20
136.7761020146
 30
0.0
 11
198.7988242023
 21
134.4728220783
 31
0.0
  0
LINE
  5
2F2
330
1F
100
AcDbEntity
  8
SLD-0
  6
Continuous
 62
   179
370
    25
100
AcDbLine
 10
198.7988242023
 20
134.4728220783
 30
0.0
 11
198.8553919905
 21
134.4101880274
 31
0.0
  0
LINE
  5
2F3
330
1F
100
AcDbEntity
  8
SLD-0
  6
Continuous
 62
   179
370
    25
100
AcDbLine
 10
28.3578031771
 20
178.322662466
 30
0.0
 11
28.3388489001
 21
178.2918662361
 31
0.0
  0
LINE
  5
2F4
330
1F
100
AcDbEntity
  8
SLD-0
  6
Continuous
 62
   179
370
    25
100
AcDbLine
 10
28.866922211
 20
178.4544315718
 30
0.0
 11
28.3578031771
 21
178.322662466
 31
0.0
  0
LINE
  5
2F5
330
1F
100
AcDbEntity
  8
SLD-0
  6
Continuous
 62
   179
370
    25
100
AcDbLine
 10
28.9234899991
 20
178.3917975209
 30
0.0
 11
28.866922211
 21
178.4544315718
 31
0.0
  0
LINE
  5
2F6
330
1F
100
AcDbEntity
  8
SLD-0
  6
Continuous
 62
   179
370
    25
100
AcDbLine
 10
28.9234899991
 20
178.0208826594
 30
0.0
 11
28.9234899991
 21
178.3917975209
 31
0.0
  0
LINE
  5
2F7
330
1F
100
AcDbEntity
  8
SLD-0
  6
Continuous
 62
   179
370
    25
100
AcDbLine
 10
28.8556077593
 20
177.9878579609
 30
0.0
 11
28.9121755474
 21
178.0024994693
 31
0.0
  0
LINE
  5
2F8
330
1F
100
AcDbEntity
  8
SLD-0
  6
Continuous
 62
   179
370
    25
100
AcDbLine
 10
28.8386338466
 20
177.4811842076
 30
0.0
 11
28.8386338466
 21
177.9602837346
 31
0.0
  0
LINE
  5
2F9
330
1F
100
AcDbEntity
  8
SLD-0
  6
Continuous
 62
   179
370
    25
100
AcDbLine
 10
28.8165905588
 20
177.4754800431
 30
0.0
 11
28.8386338466
 21
177.4811842076
 31
0.0
  0
LINE
  5
2FA
330
1F
100
AcDbEntity
  8
SLD-0
  6
Continuous
 62
   179
370
    25
100
AcDbLine
 10
28.7693747394
 20
177.5732219748
 30
0.0
 11
28.789759528
 21
177.4949539981
 31
0.0
  0
LINE
  5
2FB
330
1F
100
AcDbEntity
  8
SLD-0
  6
Continuous
 62
   179
370
    25
100
AcDbLine
 10
28.7679263466
 20
177.6469480775
 30
0.0
 11
28.7679263466
 21
177.5850650452
 31
0.0
  0
LINE
  5
2FC
330
1F
100
AcDbEntity
  8
SLD-0
  6
Continuous
 62
   179
370
    25
100
AcDbLine
 10
28.7757405155
 20
177.6794497452
 30
0.0
 11
28.7709125393
 21
177.6649993442
 31
0.0
  0
LINE
  5
2FD
330
1F
100
AcDbEntity
  8
SLD-0
  6
Continuous
 62
   179
370
    25
100
AcDbLine
 10
28.7709125393
 20
177.725958132
 30
0.0
 11
28.7757405155
 21
177.7140088908
 31
0.0
  0
LINE
  5
2FE
330
1F
100
AcDbEntity
  8
SLD-0
  6
Continuous
 62
   179
370
    25
100
AcDbLine
 10
28.7679263466
 20
177.8014958433
 30
0.0
 11
28.7679263466
 21
177.7424637757
 31
0.0
  0
LINE
  5
2FF
330
1F
100
AcDbEntity
  8
SLD-0
  6
Continuous
 62
   179
370
    25
100
AcDbLine
 10
28.7757405155
 20
177.8339986287
 30
0.0
 11
28.7709125393
 21
177.8195482276
 31
0.0
  0
LINE
  5
300
330
1F
100
AcDbEntity
  8
SLD-0
  6
Continuous
 62
   179
370
    25
100
AcDbLine
 10
28.7709125393
 20
177.8805058978
 30
0.0
 11
28.7757405155
 21
177.8685566566
 31
0.0
  0
LINE
  5
301
330
1F
100
AcDbEntity
  8
SLD-0
  6
Continuous
 62
   179
370
    25
100
AcDbLine
 10
28.7679263466
 20
177.9560436092
 30
0.0
 11
28.7679263466
 21
177.8970126591
 31
0.0
  0
LINE
  5
302
330
1F
100
AcDbEntity
  8
SLD-0
  6
Continuous
 62
   179
370
    25
100
AcDbLine
 10
28.7790798657
 20
177.9985309176
 30
0.0
 11
28.7709125393
 21
177.9740959934
 31
0.0
  0
LINE
  5
303
330
1F
100
AcDbEntity
  8
SLD-0
  6
Continuous
 62
   179
370
    25
100
AcDbLine
 10
28.7820705288
 20
178.3165593229
 30
0.0
 11
28.7820705288
 21
178.0165833018
 31
0.0
  0
LINE
  5
304
330
1F
100
AcDbEntity
  8
SLD-0
  6
Continuous
 62
   179
370
    25
100
AcDbLine
 10
28.5127543919
 20
178.2468565337
 30
0.0
 11
28.7820705288
 21
178.3165593229
 31
0.0
  0
LINE
  5
305
330
1F
100
AcDbEntity
  8
SLD-0
  6
Continuous
 62
   179
370
    25
100
AcDbLine
 10
28.4426548593
 20
177.9287376038
 30
0.0
 11
28.4426548593
 21
178.0170906864
 31
0.0
  0
LINE
  5
306
330
1F
100
AcDbEntity
  8
SLD-0
  6
Continuous
 62
   179
370
    25
100
AcDbLine
 10
28.4538083785
 20
177.8920248679
 30
0.0
 11
28.445641052
 21
177.9122308425
 31
0.0
  0
LINE
  5
307
330
1F
100
AcDbEntity
  8
SLD-0
  6
Continuous
 62
   179
370
    25
100
AcDbLine
 10
28.4567990415
 20
177.8164871566
 30
0.0
 11
28.4567990415
 21
177.8755181066
 31
0.0
  0
LINE
  5
308
330
1F
100
AcDbEntity
  8
SLD-0
  6
Continuous
 62
   179
370
    25
100
AcDbLine
 10
28.4514435642
 20
177.7913526229
 30
0.0
 11
28.4538083785
 21
177.7984336547
 31
0.0
  0
LINE
  5
309
330
1F
100
AcDbEntity
  8
SLD-0
  6
Continuous
 62
   179
370
    25
100
AcDbLine
 10
28.4567990415
 20
177.504538425
 30
0.0
 11
28.4567990415
 21
177.5420591764
 31
0.0
  0
LINE
  5
30A
330
1F
100
AcDbEntity
  8
SLD-0
  6
Continuous
 62
   179
370
    25
100
AcDbLine
 10
28.4349613898
 20
177.4031252198
 30
0.0
 11
28.4553506487
 21
177.4919454537
 31
0.0
  0
LINE
  5
30B
330
1F
100
AcDbEntity
  8
SLD-0
  6
Continuous
 62
   179
370
    25
100
AcDbLine
 10
28.3860826009
 20
177.3640566103
 30
0.0
 11
28.4081258886
 21
177.3697607748
 31
0.0
  0
LINE
  5
30C
330
1F
100
AcDbEntity
  8
SLD-0
  6
Continuous
 62
   179
370
    25
100
AcDbLine
 10
28.3860826009
 20
177.8431550197
 30
0.0
 11
28.3860826009
 21
177.8082673035
 31
0.0
  0
LINE
  5
30D
330
1F
100
AcDbEntity
  8
SLD-0
  6
Continuous
 62
   179
370
    25
100
AcDbLine
 10
28.3860826009
 20
177.560359665
 30
0.0
 11
28.3860826009
 21
177.3640566103
 31
0.0
  0
LINE
  5
30E
330
1F
100
AcDbEntity
  8
SLD-0
  6
Continuous
 62
   179
370
    25
100
AcDbLine
 10
28.3691131585
 20
177.861946129
 30
0.0
 11
28.3724256866
 21
177.8623574011
 31
0.0
  0
LINE
  5
30F
330
1F
100
AcDbEntity
  8
SLD-0
  6
Continuous
 62
   179
370
    25
100
AcDbLine
 10
28.3724256866
 20
177.8623574011
 30
0.0
 11
28.3756085747
 21
177.8618611924
 31
0.0
  0
LINE
  5
310
330
1F
100
AcDbEntity
  8
SLD-0
  6
Continuous
 62
   179
370
    25
100
AcDbLine
 10
28.3756085747
 20
177.8618611924
 30
0.0
 11
28.3785455935
 21
177.8604798548
 31
0.0
  0
LINE
  5
311
330
1F
100
AcDbEntity
  8
SLD-0
  6
Continuous
 62
   179
370
    25
100
AcDbLine
 10
28.3785455935
 20
177.8604798548
 30
0.0
 11
28.3811160438
 21
177.8582614444
 31
0.0
  0
LINE
  5
312
330
1F
100
AcDbEntity
  8
SLD-0
  6
Continuous
 62
   179
370
    25
100
AcDbLine
 10
28.3811160438
 20
177.8582614444
 30
0.0
 11
28.3832260483
 21
177.8552953682
 31
0.0
  0
LINE
  5
313
330
1F
100
AcDbEntity
  8
SLD-0
  6
Continuous
 62
   179
370
    25
100
AcDbLine
 10
28.3832260483
 20
177.8552953682
 30
0.0
 11
28.3847906702
 21
177.8516933851
 31
0.0
  0
LINE
  5
314
330
1F
100
AcDbEntity
  8
SLD-0
  6
Continuous
 62
   179
370
    25
100
AcDbLine
 10
28.3847906702
 20
177.8516933851
 30
0.0
 11
28.3857607358
 21
177.8475940756
 31
0.0
  0
LINE
  5
315
330
1F
100
AcDbEntity
  8
SLD-0
  6
Continuous
 62
   179
370
    25
100
AcDbLine
 10
28.3857607358
 20
177.8475940756
 30
0.0
 11
28.3860826009
 21
177.8431550197
 31
0.0
  0
LINE
  5
316
330
1F
100
AcDbEntity
  8
SLD-0
  6
Continuous
 62
   179
370
    25
100
AcDbLine
 10
28.3125453704
 20
177.8473046206
 30
0.0
 11
28.3691131585
 21
177.861946129
 31
0.0
  0
LINE
  5
317
330
1F
100
AcDbEntity
  8
SLD-0
  6
Continuous
 62
   179
370
    25
100
AcDbLine
 10
28.301235389
 20
177.8598316542
 30
0.0
 11
28.3014499657
 21
177.8568722836
 31
0.0
  0
LINE
  5
318
330
1F
100
AcDbEntity
  8
SLD-0
  6
Continuous
 62
   179
370
    25
100
AcDbLine
 10
28.3014499657
 20
177.8568722836
 30
0.0
 11
28.3020936959
 21
177.8541397832
 31
0.0
  0
LINE
  5
319
330
1F
100
AcDbEntity
  8
SLD-0
  6
Continuous
 62
   179
370
    25
100
AcDbLine
 10
28.3020936959
 20
177.8541397832
 30
0.0
 11
28.3031397574
 21
177.8517380885
 31
0.0
  0
LINE
  5
31A
330
1F
100
AcDbEntity
  8
SLD-0
  6
Continuous
 62
   179
370
    25
100
AcDbLine
 10
28.3031397574
 20
177.8517380885
 30
0.0
 11
28.3045434468
 21
177.8497599594
 31
0.0
  0
LINE
  5
31B
330
1F
100
AcDbEntity
  8
SLD-0
  6
Continuous
 62
   179
370
    25
100
AcDbLine
 10
28.3045434468
 20
177.8497599594
 30
0.0
 11
28.3062600606
 21
177.8482825093
 31
0.0
  0
LINE
  5
31C
330
1F
100
AcDbEntity
  8
SLD-0
  6
Continuous
 62
   179
370
    25
100
AcDbLine
 10
28.3062600606
 20
177.8482825093
 30
0.0
 11
28.3082180732
 21
177.8473604999
 31
0.0
  0
LINE
  5
31D
330
1F
100
AcDbEntity
  8
SLD-0
  6
Continuous
 62
   179
370
    25
100
AcDbLine
 10
28.3082180732
 20
177.8473604999
 30
0.0
 11
28.3103370183
 21
177.8470308117
 31
0.0
  0
LINE
  5
31E
330
1F
100
AcDbEntity
  8
SLD-0
  6
Continuous
 62
   179
370
    25
100
AcDbLine
 10
28.3103370183
 20
177.8470308117
 30
0.0
 11
28.3125453704
 21
177.8473046206
 31
0.0
  0
LINE
  5
31F
330
1F
100
AcDbEntity
  8
SLD-0
  6
Continuous
 62
   179
370
    25
100
AcDbLine
 10
28.301235389
 20
178.0536927811
 30
0.0
 11
28.301235389
 21
177.8598316542
 31
0.0
  0
LINE
  5
320
330
1F
100
AcDbEntity
  8
SLD-0
  6
Continuous
 62
   179
370
    25
100
AcDbLine
 10
28.8386338466
 20
177.4811842076
 30
0.0
 11
85.4071729892
 21
162.8401686035
 31
0.0
  0
LINE
  5
321
330
1F
100
AcDbEntity
  8
SLD-0
  6
Continuous
 62
   179
370
    25
100
AcDbLine
 10
85.3851330542
 20
162.834464439
 30
0.0
 11
85.4071729892
 21
162.8401686035
 31
0.0
  0
LINE
  5
322
330
1F
100
AcDbEntity
  8
SLD-0
  6
Continuous
 62
   179
370
    25
100
AcDbLine
 10
28.8165905588
 20
177.4754800431
 30
0.0
 11
85.3851330542
 21
162.834464439
 31
0.0
  0
LINE
  5
323
330
1F
100
AcDbEntity
  8
SLD-0
  6
Continuous
 62
   179
370
    25
100
AcDbLine
 10
85.4071729892
 20
162.8401686035
 30
0.0
 11
85.4071729892
 21
163.3192670129
 31
0.0
  0
LINE
  5
324
330
1F
100
AcDbEntity
  8
SLD-0
  6
Continuous
 62
   179
370
    25
100
AcDbLine
 10
85.4920302593
 20
163.7507807992
 30
0.0
 11
76.533900302
 21
166.0693180345
 31
0.0
  0
LINE
  5
325
330
1F
100
AcDbEntity
  8
SLD-0
  6
Continuous
 62
   179
370
    25
100
AcDbLine
 10
75.6024942808
 20
166.3103838048
 30
0.0
 11
38.9158138149
 21
175.8055937074
 31
0.0
  0
LINE
  5
326
330
1F
100
AcDbEntity
  8
SLD-0
  6
Continuous
 62
   179
370
    25
100
AcDbLine
 10
37.9844077938
 20
176.0466605954
 30
0.0
 11
28.9234899991
 21
178.3917975209
 31
0.0
  0
LINE
  5
327
330
1F
100
AcDbEntity
  8
SLD-0
  6
Continuous
 62
   179
370
    25
100
AcDbLine
 10
85.4920302593
 20
163.3798670552
 30
0.0
 11
85.4920302593
 21
163.7507807992
 31
0.0
  0
LINE
  5
328
330
1F
100
AcDbEntity
  8
SLD-0
  6
Continuous
 62
   179
370
    25
100
AcDbLine
 10
85.4241480195
 20
163.3468423567
 30
0.0
 11
85.4807202779
 21
163.3614849828
 31
0.0
  0
LINE
  5
329
330
1F
100
AcDbEntity
  8
SLD-0
  6
Continuous
 62
   179
370
    25
100
AcDbLine
 10
28.866922211
 20
178.4544315718
 30
0.0
 11
37.9867860191
 21
176.0940373473
 31
0.0
  0
LINE
  5
32A
330
1F
100
AcDbEntity
  8
SLD-0
  6
Continuous
 62
   179
370
    25
100
AcDbLine
 10
38.9181875699
 20
175.8529715769
 30
0.0
 11
75.6048590951
 21
166.3577627919
 31
0.0
  0
LINE
  5
32B
330
1F
100
AcDbEntity
  8
SLD-0
  6
Continuous
 62
   179
370
    25
100
AcDbLine
 10
76.5362762921
 20
166.1166947864
 30
0.0
 11
85.4354580008
 21
163.8134170852
 31
0.0
  0
LINE
  5
32C
330
1F
100
AcDbEntity
  8
SLD-0
  6
Continuous
 62
   179
370
    25
100
AcDbLine
 10
85.4354580008
 20
163.8134170852
 30
0.0
 11
85.4920302593
 21
163.7507807992
 31
0.0
  0
LINE
  5
32D
330
1F
100
AcDbEntity
  8
SLD-0
  6
Continuous
 62
   179
370
    25
100
AcDbLine
 10
28.3860826009
 20
177.3640566103
 30
0.0
 11
28.474385392
 21
177.3412030719
 31
0.0
  0
LINE
  5
32E
330
1F
100
AcDbEntity
  8
SLD-0
  6
Continuous
 62
   179
370
    25
100
AcDbLine
 10
85.5486025178
 20
163.7841340683
 30
0.0
 11
85.4783264064
 21
163.765946456
 31
0.0
  0
LINE
  5
32F
330
1F
100
AcDbEntity
  8
SLD-0
  6
Continuous
 62
   179
370
    25
100
AcDbLine
 10
85.6051647179
 20
163.7215000175
 30
0.0
 11
85.5486025178
 21
163.7841340683
 31
0.0
  0
LINE
  5
330
330
1F
100
AcDbEntity
  8
SLD-0
  6
Continuous
 62
   179
370
    25
100
AcDbLine
 10
85.6051647179
 20
163.3505840383
 30
0.0
 11
85.6051647179
 21
163.7215000175
 31
0.0
  0
LINE
  5
331
330
1F
100
AcDbEntity
  8
SLD-0
  6
Continuous
 62
   179
370
    25
100
AcDbLine
 10
85.5372824781
 20
163.3175593398
 30
0.0
 11
85.5938547366
 21
163.3322019659
 31
0.0
  0
LINE
  5
332
330
1F
100
AcDbEntity
  8
SLD-0
  6
Continuous
 62
   179
370
    25
100
AcDbLine
 10
85.5203163885
 20
162.8108878217
 30
0.0
 11
85.5203163885
 21
163.2899862311
 31
0.0
  0
LINE
  5
333
330
1F
100
AcDbEntity
  8
SLD-0
  6
Continuous
 62
   179
370
    25
100
AcDbLine
 10
85.4982675128
 20
162.805181422
 30
0.0
 11
85.5203163885
 21
162.8108878217
 31
0.0
  0
LINE
  5
334
330
1F
100
AcDbEntity
  8
SLD-0
  6
Continuous
 62
   179
370
    25
100
AcDbLine
 10
85.4510505759
 20
162.9029233537
 30
0.0
 11
85.4714409523
 21
162.8246564947
 31
0.0
  0
LINE
  5
335
330
1F
100
AcDbEntity
  8
SLD-0
  6
Continuous
 62
   179
370
    25
100
AcDbLine
 10
85.4496010654
 20
162.976650574
 30
0.0
 11
85.4496010654
 21
162.9147675417
 31
0.0
  0
LINE
  5
336
330
1F
100
AcDbEntity
  8
SLD-0
  6
Continuous
 62
   179
370
    25
100
AcDbLine
 10
85.4574219399
 20
163.0091522418
 30
0.0
 11
85.4525861405
 21
162.9947018407
 31
0.0
  0
LINE
  5
337
330
1F
100
AcDbEntity
  8
SLD-0
  6
Continuous
 62
   179
370
    25
100
AcDbLine
 10
85.4525861405
 20
163.0556595109
 30
0.0
 11
85.4574219399
 21
163.0437102697
 31
0.0
  0
LINE
  5
338
330
1F
100
AcDbEntity
  8
SLD-0
  6
Continuous
 62
   179
370
    25
100
AcDbLine
 10
85.4496010654
 20
163.1311972223
 30
0.0
 11
85.4496010654
 21
163.0721662722
 31
0.0
  0
LINE
  5
339
330
1F
100
AcDbEntity
  8
SLD-0
  6
Continuous
 62
   179
370
    25
100
AcDbLine
 10
85.4574219399
 20
163.16369889
 30
0.0
 11
85.4525861405
 21
163.149248489
 31
0.0
  0
LINE
  5
33A
330
1F
100
AcDbEntity
  8
SLD-0
  6
Continuous
 62
   179
370
    25
100
AcDbLine
 10
85.4525861405
 20
163.2102083943
 30
0.0
 11
85.4574219399
 21
163.1982591532
 31
0.0
  0
LINE
  5
33B
330
1F
100
AcDbEntity
  8
SLD-0
  6
Continuous
 62
   179
370
    25
100
AcDbLine
 10
85.4496010654
 20
163.2857461057
 30
0.0
 11
85.4496010654
 21
163.2267129205
 31
0.0
  0
LINE
  5
33C
330
1F
100
AcDbEntity
  8
SLD-0
  6
Continuous
 62
   179
370
    25
100
AcDbLine
 10
85.4607590549
 20
163.3282345317
 30
0.0
 11
85.4525861405
 21
163.3037996076
 31
0.0
  0
LINE
  5
33D
330
1F
100
AcDbEntity
  8
SLD-0
  6
Continuous
 62
   179
370
    25
100
AcDbLine
 10
85.46374413
 20
163.3570928655
 30
0.0
 11
85.46374413
 21
163.3462857984
 31
0.0
  0
LINE
  5
33E
330
1F
100
AcDbEntity
  8
SLD-0
  6
Continuous
 62
   179
370
    25
100
AcDbLine
 10
85.5203163885
 20
162.8108878217
 30
0.0
 11
142.0888611191
 21
148.1698711
 31
0.0
  0
LINE
  5
33F
330
1F
100
AcDbEntity
  8
SLD-0
  6
Continuous
 62
   179
370
    25
100
AcDbLine
 10
142.066813361
 20
148.1641624651
 30
0.0
 11
142.0888611191
 21
148.1698711
 31
0.0
  0
LINE
  5
340
330
1F
100
AcDbEntity
  8
SLD-0
  6
Continuous
 62
   179
370
    25
100
AcDbLine
 10
85.4982675128
 20
162.805181422
 30
0.0
 11
142.066813361
 21
148.1641624651
 31
0.0
  0
LINE
  5
341
330
1F
100
AcDbEntity
  8
SLD-0
  6
Continuous
 62
   179
370
    25
100
AcDbLine
 10
142.0888611191
 20
148.1698711
 30
0.0
 11
142.0888611191
 21
148.6489672742
 31
0.0
  0
LINE
  5
342
330
1F
100
AcDbEntity
  8
SLD-0
  6
Continuous
 62
   179
370
    25
100
AcDbLine
 10
142.1736993902
 20
149.0804810606
 30
0.0
 11
133.2155727856
 21
151.3990182958
 31
0.0
  0
LINE
  5
343
330
1F
100
AcDbEntity
  8
SLD-0
  6
Continuous
 62
   179
370
    25
100
AcDbLine
 10
132.2841667645
 20
151.6400863014
 30
0.0
 11
95.5974876956
 21
161.1352962039
 31
0.0
  0
LINE
  5
344
330
1F
100
AcDbEntity
  8
SLD-0
  6
Continuous
 62
   179
370
    25
100
AcDbLine
 10
94.666091174
 20
161.3763619743
 30
0.0
 11
85.6051647179
 21
163.7215000175
 31
0.0
  0
LINE
  5
345
330
1F
100
AcDbEntity
  8
SLD-0
  6
Continuous
 62
   179
370
    25
100
AcDbLine
 10
142.1736993902
 20
148.7095717869
 30
0.0
 11
142.1736993902
 21
149.0804810606
 31
0.0
  0
LINE
  5
346
330
1F
100
AcDbEntity
  8
SLD-0
  6
Continuous
 62
   179
370
    25
100
AcDbLine
 10
142.1058171504
 20
148.6765448533
 30
0.0
 11
142.1623894089
 21
148.6911852441
 31
0.0
  0
LINE
  5
347
330
1F
100
AcDbEntity
  8
SLD-0
  6
Continuous
 62
   179
370
    25
100
AcDbLine
 10
85.5486025178
 20
163.7841340683
 30
0.0
 11
94.6684660465
 21
161.4237387262
 31
0.0
  0
LINE
  5
348
330
1F
100
AcDbEntity
  8
SLD-0
  6
Continuous
 62
   179
370
    25
100
AcDbLine
 10
95.5998720676
 20
161.1826729558
 30
0.0
 11
132.2865405195
 21
151.6874630533
 31
0.0
  0
LINE
  5
349
330
1F
100
AcDbEntity
  8
SLD-0
  6
Continuous
 62
   179
370
    25
100
AcDbLine
 10
133.2179554813
 20
151.4463950477
 30
0.0
 11
142.1171494835
 21
149.1431151114
 31
0.0
  0
LINE
  5
34A
330
1F
100
AcDbEntity
  8
SLD-0
  6
Continuous
 62
   179
370
    25
100
AcDbLine
 10
142.1171494835
 20
149.1431151114
 30
0.0
 11
142.1736993902
 21
149.0804810606
 31
0.0
  0
LINE
  5
34B
330
1F
100
AcDbEntity
  8
SLD-0
  6
Continuous
 62
     8
370
    25
100
AcDbLine
 10
142.1490007155
 20
148.1701437912
 30
0.0
 11
142.0888611191
 21
148.1857140146
 31
0.0
  0
LINE
  5
34C
330
1F
100
AcDbEntity
  8
SLD-0
  6
Continuous
 62
     8
370
    25
100
AcDbLine
 10
85.467330467
 20
162.8404412947
 30
0.0
 11
85.4071819299
 21
162.8560115181
 31
0.0
  0
LINE
  5
34D
330
1F
100
AcDbEntity
  8
SLD-0
  6
Continuous
 62
     8
370
    25
100
AcDbLine
 10
28.7856512778
 20
177.5107410334
 30
0.0
 11
28.7679263466
 21
177.5153287284
 31
0.0
  0
LINE
  5
34E
330
1F
100
AcDbEntity
  8
SLD-0
  6
Continuous
 62
     8
370
    25
100
AcDbLine
 10
150.8117222302
 20
146.9202120386
 30
0.0
 11
151.2529679649
 21
146.8060125194
 31
0.0
  0
LINE
  5
34F
330
1F
100
AcDbEntity
  8
SLD-0
  6
Continuous
 62
     8
370
    25
100
AcDbLine
 10
151.2491502874
 20
147.0295433484
 30
0.0
 11
151.2416356318
 21
147.0314834795
 31
0.0
  0
LINE
  5
350
330
1F
100
AcDbEntity
  8
SLD-0
  6
Continuous
 62
     8
370
    25
100
AcDbLine
 10
150.9842597955
 20
147.1112791977
 30
0.0
 11
150.9842597955
 21
147.0453952036
 31
0.0
  0
LINE
  5
351
330
1F
100
AcDbEntity
  8
SLD-0
  6
Continuous
 62
     8
370
    25
100
AcDbLine
 10
151.3473236077
 20
146.7844922624
 30
0.0
 11
151.3398268335
 21
146.7864323936
 31
0.0
  0
LINE
  5
352
330
1F
100
AcDbEntity
  8
SLD-0
  6
Continuous
 62
     8
370
    25
100
AcDbLine
 10
150.7014208548
 20
147.1039567671
 30
0.0
 11
150.7014208548
 21
146.9721843086
 31
0.0
  0
LINE
  5
353
330
1F
100
AcDbEntity
  8
SLD-0
  6
Continuous
 62
     8
370
    25
100
AcDbLine
 10
151.2529679649
 20
146.7846978984
 30
0.0
 11
150.8004122489
 21
146.9018299661
 31
0.0
  0
LINE
  5
354
330
1F
100
AcDbEntity
  8
SLD-0
  6
Continuous
 62
     8
370
    25
100
AcDbLine
 10
188.4298064821
 20
137.1839363657
 30
0.0
 11
188.8710298651
 21
137.0697368465
 31
0.0
  0
LINE
  5
355
330
1F
100
AcDbEntity
  8
SLD-0
  6
Continuous
 62
     8
370
    25
100
AcDbLine
 10
188.8672211283
 20
137.2932676754
 30
0.0
 11
188.8597198837
 21
137.2952078066
 31
0.0
  0
LINE
  5
356
330
1F
100
AcDbEntity
  8
SLD-0
  6
Continuous
 62
     8
370
    25
100
AcDbLine
 10
188.6023440473
 20
137.3750035248
 30
0.0
 11
188.6023440473
 21
137.3091195307
 31
0.0
  0
LINE
  5
357
330
1F
100
AcDbEntity
  8
SLD-0
  6
Continuous
 62
     8
370
    25
100
AcDbLine
 10
188.9654078596
 20
137.0482165895
 30
0.0
 11
188.9579155557
 21
137.0501567207
 31
0.0
  0
LINE
  5
358
330
1F
100
AcDbEntity
  8
SLD-0
  6
Continuous
 62
     8
370
    25
100
AcDbLine
 10
188.3195051067
 20
137.3676810942
 30
0.0
 11
188.3195051067
 21
137.2359086357
 31
0.0
  0
LINE
  5
359
330
1F
100
AcDbEntity
  8
SLD-0
  6
Continuous
 62
     8
370
    25
100
AcDbLine
 10
188.8710298651
 20
137.0484222255
 30
0.0
 11
188.4184965008
 21
137.1655542932
 31
0.0
  0
LINE
  5
35A
330
1F
100
AcDbEntity
  8
SLD-0
  6
Continuous
 62
     8
370
    25
100
AcDbLine
 10
131.7481250577
 20
151.8542338691
 30
0.0
 11
132.1893618517
 21
151.74003435
 31
0.0
  0
LINE
  5
35B
330
1F
100
AcDbEntity
  8
SLD-0
  6
Continuous
 62
     8
370
    25
100
AcDbLine
 10
132.1855464094
 20
151.9635651789
 30
0.0
 11
132.1780496352
 21
151.9655053101
 31
0.0
  0
LINE
  5
35C
330
1F
100
AcDbEntity
  8
SLD-0
  6
Continuous
 62
     8
370
    25
100
AcDbLine
 10
131.920662623
 20
152.0453010283
 30
0.0
 11
131.920662623
 21
151.9794125638
 31
0.0
  0
LINE
  5
35D
330
1F
100
AcDbEntity
  8
SLD-0
  6
Continuous
 62
     8
370
    25
100
AcDbLine
 10
132.2837264352
 20
151.7185185633
 30
0.0
 11
132.2762318962
 21
151.7204586945
 31
0.0
  0
LINE
  5
35E
330
1F
100
AcDbEntity
  8
SLD-0
  6
Continuous
 62
     8
370
    25
100
AcDbLine
 10
131.6378214472
 20
152.0379785977
 30
0.0
 11
131.6378214472
 21
151.9062106095
 31
0.0
  0
LINE
  5
35F
330
1F
100
AcDbEntity
  8
SLD-0
  6
Continuous
 62
     8
370
    25
100
AcDbLine
 10
132.1893618517
 20
151.7187241993
 30
0.0
 11
131.7368128412
 21
151.8358473263
 31
0.0
  0
LINE
  5
360
330
1F
100
AcDbEntity
  8
SLD-0
  6
Continuous
 62
     8
370
    25
100
AcDbLine
 10
94.1300503053
 20
161.590509542
 30
0.0
 11
94.571277041
 21
161.4763077877
 31
0.0
  0
LINE
  5
361
330
1F
100
AcDbEntity
  8
SLD-0
  6
Continuous
 62
     8
370
    25
100
AcDbLine
 10
94.5674621575
 20
161.6998408518
 30
0.0
 11
94.5599665009
 21
161.701780983
 31
0.0
  0
LINE
  5
362
330
1F
100
AcDbEntity
  8
SLD-0
  6
Continuous
 62
     8
370
    25
100
AcDbLine
 10
94.3025794887
 20
161.781574466
 30
0.0
 11
94.3025794887
 21
161.7156904719
 31
0.0
  0
LINE
  5
363
330
1F
100
AcDbEntity
  8
SLD-0
  6
Continuous
 62
     8
370
    25
100
AcDbLine
 10
94.6656430215
 20
161.4547942362
 30
0.0
 11
94.6581470855
 21
161.4567343674
 31
0.0
  0
LINE
  5
364
330
1F
100
AcDbEntity
  8
SLD-0
  6
Continuous
 62
     8
370
    25
100
AcDbLine
 10
94.0197383129
 20
161.7742565058
 30
0.0
 11
94.0197383129
 21
161.6424862824
 31
0.0
  0
LINE
  5
365
330
1F
100
AcDbEntity
  8
SLD-0
  6
Continuous
 62
     8
370
    25
100
AcDbLine
 10
94.571277041
 20
161.4549976371
 30
0.0
 11
94.1187297069
 21
161.5721274696
 31
0.0
  0
LINE
  5
366
330
1F
100
AcDbEntity
  8
SLD-0
  6
Continuous
 62
     8
370
    25
100
AcDbLine
 10
37.4483638518
 20
176.2608081631
 30
0.0
 11
37.8896006458
 21
176.1466075264
 31
0.0
  0
LINE
  5
367
330
1F
100
AcDbEntity
  8
SLD-0
  6
Continuous
 62
     8
370
    25
100
AcDbLine
 10
37.8857874387
 20
176.3701394729
 30
0.0
 11
37.8782861941
 21
176.3720807217
 31
0.0
  0
LINE
  5
368
330
1F
100
AcDbEntity
  8
SLD-0
  6
Continuous
 62
     8
370
    25
100
AcDbLine
 10
37.6208969467
 20
176.4518742047
 30
0.0
 11
37.6208969467
 21
176.385989093
 31
0.0
  0
LINE
  5
369
330
1F
100
AcDbEntity
  8
SLD-0
  6
Continuous
 62
     8
370
    25
100
AcDbLine
 10
37.9839652293
 20
176.1250917397
 30
0.0
 11
37.9764729255
 21
176.1270329885
 31
0.0
  0
LINE
  5
36A
330
1F
100
AcDbEntity
  8
SLD-0
  6
Continuous
 62
     8
370
    25
100
AcDbLine
 10
37.3380535357
 20
176.4445540092
 30
0.0
 11
37.3380535357
 21
176.3127849035
 31
0.0
  0
LINE
  5
36B
330
1F
100
AcDbEntity
  8
SLD-0
  6
Continuous
 62
     8
370
    25
100
AcDbLine
 10
37.8896006458
 20
176.1252962581
 30
0.0
 11
37.4370494001
 21
176.2424249731
 31
0.0
  0
LINE
  5
36C
330
1F
100
AcDbEntity
  8
SLD-0
  6
Continuous
 62
     8
370
    25
100
AcDbLine
 10
75.0664436333
 20
166.5245336078
 30
0.0
 11
75.5076804273
 21
166.4103318534
 31
0.0
  0
LINE
  5
36D
330
1F
100
AcDbEntity
  8
SLD-0
  6
Continuous
 62
     8
370
    25
100
AcDbLine
 10
75.503864985
 20
166.6338649176
 30
0.0
 11
75.496370446
 21
166.6358050488
 31
0.0
  0
LINE
  5
36E
330
1F
100
AcDbEntity
  8
SLD-0
  6
Continuous
 62
     8
370
    25
100
AcDbLine
 10
75.2389834338
 20
166.7155962966
 30
0.0
 11
75.2389834338
 21
166.6497123025
 31
0.0
  0
LINE
  5
36F
330
1F
100
AcDbEntity
  8
SLD-0
  6
Continuous
 62
     8
370
    25
100
AcDbLine
 10
75.602047246
 20
166.3888160668
 30
0.0
 11
75.5945504718
 21
166.390756198
 31
0.0
  0
LINE
  5
370
330
1F
100
AcDbEntity
  8
SLD-0
  6
Continuous
 62
     8
370
    25
100
AcDbLine
 10
74.956142258
 20
166.7082761012
 30
0.0
 11
74.956142258
 21
166.5765058778
 31
0.0
  0
LINE
  5
371
330
1F
100
AcDbEntity
  8
SLD-0
  6
Continuous
 62
     8
370
    25
100
AcDbLine
 10
75.5076804273
 20
166.3890217028
 30
0.0
 11
75.055133652
 21
166.5061493001
 31
0.0
  0
LINE
  5
372
330
1F
100
AcDbEntity
  8
SLD-0
  6
Continuous
 62
     7
370
    25
100
AcDbLine
 10
198.7705358379
 20
133.9786742411
 30
0.0
 11
189.8748108261
 21
136.2810511671
 31
0.0
  0
LINE
  5
373
330
1F
100
AcDbEntity
  8
SLD-0
  6
Continuous
 62
     7
370
    25
100
AcDbLine
 10
188.9288225286
 20
136.525896617
 30
0.0
 11
152.2567265742
 21
146.0173357807
 31
0.0
  0
LINE
  5
374
330
1F
100
AcDbEntity
  8
SLD-0
  6
Continuous
 62
     7
370
    25
100
AcDbLine
 10
151.3107427471
 20
146.2621722899
 30
0.0
 11
142.2019877546
 21
148.6196864925
 31
0.0
  0
LINE
  5
375
330
1F
100
AcDbEntity
  8
SLD-0
  6
Continuous
 62
     7
370
    25
100
AcDbLine
 10
142.2868439071
 20
148.6802865348
 30
0.0
 11
151.3378062361
 21
146.3377256475
 31
0.0
  0
LINE
  5
376
330
1F
100
AcDbEntity
  8
SLD-0
  6
Continuous
 62
     7
370
    25
100
AcDbLine
 10
152.2608080023
 20
146.0988347016
 30
0.0
 11
188.9558860176
 21
136.6014499746
 31
0.0
  0
LINE
  5
377
330
1F
100
AcDbEntity
  8
SLD-0
  6
Continuous
 62
     7
370
    25
100
AcDbLine
 10
189.8788967245
 20
136.3625590287
 30
0.0
 11
198.8553919905
 21
134.0392698131
 31
0.0
  0
LINE
  5
378
330
1F
100
AcDbEntity
  8
SLD-0
  6
Continuous
 62
     7
370
    25
100
AcDbLine
 10
198.8440820091
 20
134.0208877407
 30
0.0
 11
189.8778417223
 21
136.3415215693
 31
0.0
  0
LINE
  5
379
330
1F
100
AcDbEntity
  8
SLD-0
  6
Continuous
 62
     7
370
    25
100
AcDbLine
 10
188.9464267605
 20
136.5825851045
 30
0.0
 11
152.2597619407
 21
146.0777972422
 31
0.0
  0
LINE
  5
37A
330
1F
100
AcDbEntity
  8
SLD-0
  6
Continuous
 62
     7
370
    25
100
AcDbLine
 10
151.3283469789
 20
146.3188607774
 30
0.0
 11
142.2755339258
 21
148.6619044624
 31
0.0
  0
LINE
  5
37B
330
1F
100
AcDbEntity
  8
SLD-0
  6
Continuous
 62
     7
370
    25
100
AcDbLine
 10
142.2189616673
 20
148.6472640715
 30
0.0
 11
151.326782357
 21
146.289982327
 31
0.0
  0
LINE
  5
37C
330
1F
100
AcDbEntity
  8
SLD-0
  6
Continuous
 62
     7
370
    25
100
AcDbLine
 10
152.2583135479
 20
146.0488919697
 30
0.0
 11
188.9448621385
 21
136.5537066541
 31
0.0
  0
LINE
  5
37D
330
1F
100
AcDbEntity
  8
SLD-0
  6
Continuous
 62
     7
370
    25
100
AcDbLine
 10
189.8763933294
 20
136.3126162968
 30
0.0
 11
198.7875052803
 21
134.0062428794
 31
0.0
  0
LINE
  5
37E
330
1F
100
AcDbEntity
  8
SLD-0
  6
Continuous
 62
     7
370
    25
100
AcDbLine
 10
85.4071729892
 20
163.3192670129
 30
0.0
 11
76.5114502125
 21
165.6216528795
 31
0.0
  0
LINE
  5
37F
330
1F
100
AcDbEntity
  8
SLD-0
  6
Continuous
 62
     7
370
    25
100
AcDbLine
 10
75.5654529743
 20
165.8664938591
 30
0.0
 11
38.8933681958
 21
175.3579274349
 31
0.0
  0
LINE
  5
380
330
1F
100
AcDbEntity
  8
SLD-0
  6
Continuous
 62
     7
370
    25
100
AcDbLine
 10
37.9473798983
 20
175.6027684144
 30
0.0
 11
28.8386338466
 21
177.9602837346
 31
0.0
  0
LINE
  5
381
330
1F
100
AcDbEntity
  8
SLD-0
  6
Continuous
 62
     7
370
    25
100
AcDbLine
 10
28.9234899991
 20
178.0208826594
 30
0.0
 11
37.974452328
 21
175.6783206544
 31
0.0
  0
LINE
  5
382
330
1F
100
AcDbEntity
  8
SLD-0
  6
Continuous
 62
     7
370
    25
100
AcDbLine
 10
38.8974540942
 20
175.4394297085
 30
0.0
 11
75.5925276392
 21
165.9420449815
 31
0.0
  0
LINE
  5
383
330
1F
100
AcDbEntity
  8
SLD-0
  6
Continuous
 62
     7
370
    25
100
AcDbLine
 10
76.5155338757
 20
165.7031562708
 30
0.0
 11
85.4920302593
 21
163.3798670552
 31
0.0
  0
LINE
  5
384
330
1F
100
AcDbEntity
  8
SLD-0
  6
Continuous
 62
     7
370
    25
100
AcDbLine
 10
85.4807202779
 20
163.3614849828
 30
0.0
 11
76.5144744032
 21
165.6821165762
 31
0.0
  0
LINE
  5
385
330
1F
100
AcDbEntity
  8
SLD-0
  6
Continuous
 62
     7
370
    25
100
AcDbLine
 10
75.5830773228
 20
165.9231823466
 30
0.0
 11
38.896399092
 21
175.4183933667
 31
0.0
  0
LINE
  5
386
330
1F
100
AcDbEntity
  8
SLD-0
  6
Continuous
 62
     7
370
    25
100
AcDbLine
 10
37.9649930709
 20
175.6594580195
 30
0.0
 11
28.9121755474
 21
178.0024994693
 31
0.0
  0
LINE
  5
387
330
1F
100
AcDbEntity
  8
SLD-0
  6
Continuous
 62
     7
370
    25
100
AcDbLine
 10
28.8556077593
 20
177.9878579609
 30
0.0
 11
37.9634239786
 21
175.6305818043
 31
0.0
  0
LINE
  5
388
330
1F
100
AcDbEntity
  8
SLD-0
  6
Continuous
 62
     7
370
    25
100
AcDbLine
 10
38.8949506991
 20
175.3894847415
 30
0.0
 11
75.5815037601
 21
165.8943038962
 31
0.0
  0
LINE
  5
389
330
1F
100
AcDbEntity
  8
SLD-0
  6
Continuous
 62
     7
370
    25
100
AcDbLine
 10
76.5130237751
 20
165.6532090686
 30
0.0
 11
85.4241480195
 21
163.3468423567
 31
0.0
  0
LINE
  5
38A
330
1F
100
AcDbEntity
  8
SLD-0
  6
Continuous
 62
     8
370
    25
100
AcDbLine
 10
28.4349613898
 20
177.4031252198
 30
0.0
 11
28.4593963139
 21
177.3967996768
 31
0.0
  0
LINE
  5
38B
330
1F
100
AcDbEntity
  8
SLD-0
  6
Continuous
 62
     8
370
    25
100
AcDbLine
 10
28.4568035119
 20
177.4915688268
 30
0.0
 11
28.4553506487
 21
177.4919454537
 31
0.0
  0
LINE
  5
38C
330
1F
100
AcDbEntity
  8
SLD-0
  6
Continuous
 62
     8
370
    25
100
AcDbLine
 10
28.4695305937
 20
177.3538675688
 30
0.0
 11
28.4081258886
 21
177.3697607748
 31
0.0
  0
LINE
  5
38D
330
1F
100
AcDbEntity
  8
SLD-0
  6
Continuous
 62
     8
370
    25
100
AcDbLine
 10
28.4567901008
 20
177.7976625196
 30
0.0
 11
28.4538083785
 21
177.7984336547
 31
0.0
  0
LINE
  5
38E
330
1F
100
AcDbEntity
  8
SLD-0
  6
Continuous
 62
     8
370
    25
100
AcDbLine
 10
28.4538083785
 20
177.8920248679
 30
0.0
 11
28.4567901008
 21
177.8912526153
 31
0.0
  0
LINE
  5
38F
330
1F
100
AcDbEntity
  8
SLD-0
  6
Continuous
 62
     8
370
    25
100
AcDbLine
 10
28.4567945712
 20
177.9093441151
 30
0.0
 11
28.445641052
 21
177.9122308425
 31
0.0
  0
LINE
  5
390
330
1F
100
AcDbEntity
  8
SLD-0
  6
Continuous
 62
     8
370
    25
100
AcDbLine
 10
28.4426548593
 20
177.9287376038
 30
0.0
 11
28.4567901008
 21
177.9250797413
 31
0.0
  0
LINE
  5
391
330
1F
100
AcDbEntity
  8
SLD-0
  6
Continuous
 62
     8
370
    25
100
AcDbLine
 10
28.380360555
 20
177.8590348146
 30
0.0
 11
28.3691131585
 21
177.861946129
 31
0.0
  0
LINE
  5
392
330
1F
100
AcDbEntity
  8
SLD-0
  6
Continuous
 62
     8
370
    25
100
AcDbLine
 10
28.3125453704
 20
177.8473046206
 30
0.0
 11
28.3860781305
 21
177.8282743476
 31
0.0
  0
LINE
  5
393
330
1F
100
AcDbEntity
  8
SLD-0
  6
Continuous
 62
     7
370
    25
100
AcDbLine
 10
142.0888611191
 20
148.6489672742
 30
0.0
 11
133.1931226962
 21
150.9513531409
 31
0.0
  0
LINE
  5
394
330
1F
100
AcDbEntity
  8
SLD-0
  6
Continuous
 62
     7
370
    25
100
AcDbLine
 10
132.2471343987
 20
151.1961941205
 30
0.0
 11
95.5750479438
 21
160.6876288138
 31
0.0
  0
LINE
  5
395
330
1F
100
AcDbEntity
  8
SLD-0
  6
Continuous
 62
     7
370
    25
100
AcDbLine
 10
94.6290602051
 20
160.9324675582
 30
0.0
 11
85.5203163885
 21
163.2899862311
 31
0.0
  0
LINE
  5
396
330
1F
100
AcDbEntity
  8
SLD-0
  6
Continuous
 62
     7
370
    25
100
AcDbLine
 10
85.6051647179
 20
163.3505840383
 30
0.0
 11
94.65613487
 21
161.0080209158
 31
0.0
  0
LINE
  5
397
330
1F
100
AcDbEntity
  8
SLD-0
  6
Continuous
 62
     7
370
    25
100
AcDbLine
 10
95.5791296512
 20
160.7691322051
 30
0.0
 11
132.2742090636
 21
151.2717474781
 31
0.0
  0
LINE
  5
398
330
1F
100
AcDbEntity
  8
SLD-0
  6
Continuous
 62
     7
370
    25
100
AcDbLine
 10
133.1972220056
 20
151.0328565321
 30
0.0
 11
142.1736993902
 21
148.7095717869
 31
0.0
  0
LINE
  5
399
330
1F
100
AcDbEntity
  8
SLD-0
  6
Continuous
 62
     7
370
    25
100
AcDbLine
 10
142.1623894089
 20
148.6911852441
 30
0.0
 11
133.1961558276
 21
151.0118146024
 31
0.0
  0
LINE
  5
39A
330
1F
100
AcDbEntity
  8
SLD-0
  6
Continuous
 62
     7
370
    25
100
AcDbLine
 10
132.2647498064
 20
151.2528870783
 30
0.0
 11
95.5780805164
 21
160.7480947457
 31
0.0
  0
LINE
  5
39B
330
1F
100
AcDbEntity
  8
SLD-0
  6
Continuous
 62
     7
370
    25
100
AcDbLine
 10
94.6466744953
 20
160.9891605161
 30
0.0
 11
85.5938547366
 21
163.3322019659
 31
0.0
  0
LINE
  5
39C
330
1F
100
AcDbEntity
  8
SLD-0
  6
Continuous
 62
     7
370
    25
100
AcDbLine
 10
85.5372824781
 20
163.3175593398
 30
0.0
 11
94.6451009326
 21
160.9602843009
 31
0.0
  0
LINE
  5
39D
330
1F
100
AcDbEntity
  8
SLD-0
  6
Continuous
 62
     7
370
    25
100
AcDbLine
 10
95.5766310059
 20
160.719187238
 30
0.0
 11
132.2631851845
 21
151.2240086279
 31
0.0
  0
LINE
  5
39E
330
1F
100
AcDbEntity
  8
SLD-0
  6
Continuous
 62
     7
370
    25
100
AcDbLine
 10
133.1947051995
 20
150.9829093299
 30
0.0
 11
142.1058171504
 21
148.6765448533
 31
0.0
  0
LINE
  5
39F
330
1F
100
AcDbEntity
  8
SLD-0
  6
Continuous
 62
   179
370
    25
100
AcDbLine
 10
11.8118100526
 20
182.2207569725
 30
0.0
 11
10.1171456935
 21
182.6593160279
 31
0.0
  0
LINE
  5
3A0
330
1F
100
AcDbEntity
  8
SLD-0
  6
Continuous
 62
   179
370
    25
100
AcDbLine
 10
10.05460552
 20
182.4276491649
 30
0.0
 11
11.7516659858
 21
181.988415087
 31
0.0
  0
LINE
  5
3A1
330
1F
100
AcDbEntity
  8
SLD-0
  6
Continuous
 62
   179
370
    25
100
AcDbLine
 10
11.8118100526
 20
182.46030953
 30
0.0
 11
10.1171456935
 21
182.898864115
 31
0.0
  0
LINE
  5
3A2
330
1F
100
AcDbEntity
  8
SLD-0
  6
Continuous
 62
   179
370
    25
100
AcDbLine
 10
10.0522004726
 20
182.667876745
 30
0.0
 11
10.0846641424
 21
182.6597362406
 31
0.0
  0
LINE
  5
3A3
330
1F
100
AcDbEntity
  8
SLD-0
  6
Continuous
 62
   179
370
    25
100
AcDbLine
 10
19.319706476
 20
180.5832862503
 30
0.0
 11
11.8472867372
 21
182.516926492
 31
0.0
  0
LINE
  5
3A4
330
1F
100
AcDbEntity
  8
SLD-0
  6
Continuous
 62
   179
370
    25
100
AcDbLine
 10
11.7161893013
 20
181.9318025954
 30
0.0
 11
19.5786290529
 21
179.8964976914
 31
0.0
  0
LINE
  5
3A5
330
1F
100
AcDbEntity
  8
SLD-0
  6
Continuous
 62
   179
370
    25
100
AcDbLine
 10
11.7516659858
 20
181.988415087
 30
0.0
 11
11.7817514303
 21
181.9886788375
 31
0.0
  0
LINE
  5
3A6
330
1F
100
AcDbEntity
  8
SLD-0
  6
Continuous
 62
   179
370
    25
100
AcDbLine
 10
11.7817514303
 20
181.9886788375
 30
0.0
 11
11.8142151001
 21
182.0059030897
 31
0.0
  0
LINE
  5
3A7
330
1F
100
AcDbEntity
  8
SLD-0
  6
Continuous
 62
   179
370
    25
100
AcDbLine
 10
11.8142151001
 20
182.0059030897
 30
0.0
 11
11.8417345646
 21
182.0381521828
 31
0.0
  0
LINE
  5
3A8
330
1F
100
AcDbEntity
  8
SLD-0
  6
Continuous
 62
   179
370
    25
100
AcDbLine
 10
11.8417345646
 20
182.0381521828
 30
0.0
 11
11.8601434591
 21
182.0805221445
 31
0.0
  0
LINE
  5
3A9
330
1F
100
AcDbEntity
  8
SLD-0
  6
Continuous
 62
   179
370
    25
100
AcDbLine
 10
11.8601434591
 20
182.0805221445
 30
0.0
 11
11.8665897014
 21
182.1265488512
 31
0.0
  0
LINE
  5
3AA
330
1F
100
AcDbEntity
  8
SLD-0
  6
Continuous
 62
   179
370
    25
100
AcDbLine
 10
11.8665897014
 20
182.1265488512
 30
0.0
 11
11.8601434591
 21
182.1692362077
 31
0.0
  0
LINE
  5
3AB
330
1F
100
AcDbEntity
  8
SLD-0
  6
Continuous
 62
   179
370
    25
100
AcDbLine
 10
11.8601434591
 20
182.1692362077
 30
0.0
 11
11.8417345646
 21
182.2020798571
 31
0.0
  0
LINE
  5
3AC
330
1F
100
AcDbEntity
  8
SLD-0
  6
Continuous
 62
   179
370
    25
100
AcDbLine
 10
11.8417345646
 20
182.2020798571
 30
0.0
 11
11.8142151001
 21
182.2200819499
 31
0.0
  0
LINE
  5
3AD
330
1F
100
AcDbEntity
  8
SLD-0
  6
Continuous
 62
   179
370
    25
100
AcDbLine
 10
11.8142151001
 20
182.2200819499
 30
0.0
 11
11.8118100526
 21
182.2207569725
 31
0.0
  0
LINE
  5
3AE
330
1F
100
AcDbEntity
  8
SLD-0
  6
Continuous
 62
   179
370
    25
100
AcDbLine
 10
10.0062721136
 20
182.5678929336
 30
0.0
 11
9.9998258712
 21
182.5218617566
 31
0.0
  0
LINE
  5
3AF
330
1F
100
AcDbEntity
  8
SLD-0
  6
Continuous
 62
   179
370
    25
100
AcDbLine
 10
9.9998258712
 20
182.5218617566
 30
0.0
 11
10.0062721136
 21
182.4791744001
 31
0.0
  0
LINE
  5
3B0
330
1F
100
AcDbEntity
  8
SLD-0
  6
Continuous
 62
   179
370
    25
100
AcDbLine
 10
10.0062721136
 20
182.4791744001
 30
0.0
 11
10.0246810081
 21
182.4463307507
 31
0.0
  0
LINE
  5
3B1
330
1F
100
AcDbEntity
  8
SLD-0
  6
Continuous
 62
   179
370
    25
100
AcDbLine
 10
10.0246810081
 20
182.4463307507
 30
0.0
 11
10.0522004726
 21
182.4283286579
 31
0.0
  0
LINE
  5
3B2
330
1F
100
AcDbEntity
  8
SLD-0
  6
Continuous
 62
   179
370
    25
100
AcDbLine
 10
10.0522004726
 20
182.4283286579
 30
0.0
 11
10.0846641424
 21
182.4279084451
 31
0.0
  0
LINE
  5
3B3
330
1F
100
AcDbEntity
  8
SLD-0
  6
Continuous
 62
   179
370
    25
100
AcDbLine
 10
10.0846641424
 20
182.4279084451
 30
0.0
 11
10.1171456935
 21
182.4451371677
 31
0.0
  0
LINE
  5
3B4
330
1F
100
AcDbEntity
  8
SLD-0
  6
Continuous
 62
   179
370
    25
100
AcDbLine
 10
10.1171456935
 20
182.4451371677
 30
0.0
 11
10.1446740987
 21
182.4773862607
 31
0.0
  0
LINE
  5
3B5
330
1F
100
AcDbEntity
  8
SLD-0
  6
Continuous
 62
   179
370
    25
100
AcDbLine
 10
10.1446740987
 20
182.4773862607
 30
0.0
 11
10.1630740526
 21
182.5197562225
 31
0.0
  0
LINE
  5
3B6
330
1F
100
AcDbEntity
  8
SLD-0
  6
Continuous
 62
   179
370
    25
100
AcDbLine
 10
10.1630740526
 20
182.5197562225
 30
0.0
 11
10.1695202949
 21
182.5657829292
 31
0.0
  0
LINE
  5
3B7
330
1F
100
AcDbEntity
  8
SLD-0
  6
Continuous
 62
   179
370
    25
100
AcDbLine
 10
10.1695202949
 20
182.5657829292
 30
0.0
 11
10.1630740526
 21
182.6084702856
 31
0.0
  0
LINE
  5
3B8
330
1F
100
AcDbEntity
  8
SLD-0
  6
Continuous
 62
   179
370
    25
100
AcDbLine
 10
10.1630740526
 20
182.6084702856
 30
0.0
 11
10.1446740987
 21
182.641313935
 31
0.0
  0
LINE
  5
3B9
330
1F
100
AcDbEntity
  8
SLD-0
  6
Continuous
 62
   179
370
    25
100
AcDbLine
 10
10.1446740987
 20
182.641313935
 30
0.0
 11
10.1171456935
 21
182.6593160279
 31
0.0
  0
LINE
  5
3BA
330
1F
100
AcDbEntity
  8
SLD-0
  6
Continuous
 62
   179
370
    25
100
AcDbLine
 10
10.1171456935
 20
182.6593160279
 30
0.0
 11
10.0846641424
 21
182.6597362406
 31
0.0
  0
LINE
  5
3BB
330
1F
100
AcDbEntity
  8
SLD-0
  6
Continuous
 62
   179
370
    25
100
AcDbLine
 10
10.0846641424
 20
182.6597362406
 30
0.0
 11
10.0522004726
 21
182.642507518
 31
0.0
  0
LINE
  5
3BC
330
1F
100
AcDbEntity
  8
SLD-0
  6
Continuous
 62
   179
370
    25
100
AcDbLine
 10
10.0522004726
 20
182.642507518
 30
0.0
 11
10.0246810081
 21
182.6102539546
 31
0.0
  0
LINE
  5
3BD
330
1F
100
AcDbEntity
  8
SLD-0
  6
Continuous
 62
   179
370
    25
100
AcDbLine
 10
10.0246810081
 20
182.6102539546
 30
0.0
 11
10.0062721136
 21
182.5678929336
 31
0.0
  0
LINE
  5
3BE
330
1F
100
AcDbEntity
  8
SLD-0
  6
Continuous
 62
   179
370
    25
100
AcDbLine
 10
11.7823415163
 20
182.2283878572
 30
0.0
 11
11.8142151001
 21
182.2454556472
 31
0.0
  0
LINE
  5
3BF
330
1F
100
AcDbEntity
  8
SLD-0
  6
Continuous
 62
   179
370
    25
100
AcDbLine
 10
11.8142151001
 20
182.2454556472
 30
0.0
 11
11.8417345646
 21
182.2777047403
 31
0.0
  0
LINE
  5
3C0
330
1F
100
AcDbEntity
  8
SLD-0
  6
Continuous
 62
   179
370
    25
100
AcDbLine
 10
11.8417345646
 20
182.2777047403
 30
0.0
 11
11.8601434591
 21
182.3200702317
 31
0.0
  0
LINE
  5
3C1
330
1F
100
AcDbEntity
  8
SLD-0
  6
Continuous
 62
   179
370
    25
100
AcDbLine
 10
11.8601434591
 20
182.3200702317
 30
0.0
 11
11.8665897014
 21
182.3660969384
 31
0.0
  0
LINE
  5
3C2
330
1F
100
AcDbEntity
  8
SLD-0
  6
Continuous
 62
   179
370
    25
100
AcDbLine
 10
11.8665897014
 20
182.3660969384
 30
0.0
 11
11.8601434591
 21
182.4087842948
 31
0.0
  0
LINE
  5
3C3
330
1F
100
AcDbEntity
  8
SLD-0
  6
Continuous
 62
   179
370
    25
100
AcDbLine
 10
11.8601434591
 20
182.4087842948
 30
0.0
 11
11.8417345646
 21
182.4416279442
 31
0.0
  0
LINE
  5
3C4
330
1F
100
AcDbEntity
  8
SLD-0
  6
Continuous
 62
   179
370
    25
100
AcDbLine
 10
11.8417345646
 20
182.4416279442
 30
0.0
 11
11.8142151001
 21
182.4596300371
 31
0.0
  0
LINE
  5
3C5
330
1F
100
AcDbEntity
  8
SLD-0
  6
Continuous
 62
   179
370
    25
100
AcDbLine
 10
11.8142151001
 20
182.4596300371
 30
0.0
 11
11.8118100526
 21
182.46030953
 31
0.0
  0
LINE
  5
3C6
330
1F
100
AcDbEntity
  8
SLD-0
  6
Continuous
 62
   179
370
    25
100
AcDbLine
 10
10.0062721136
 20
182.8074410207
 30
0.0
 11
9.9998258712
 21
182.7614098437
 31
0.0
  0
LINE
  5
3C7
330
1F
100
AcDbEntity
  8
SLD-0
  6
Continuous
 62
   179
370
    25
100
AcDbLine
 10
9.9998258712
 20
182.7614098437
 30
0.0
 11
10.0062721136
 21
182.7187224872
 31
0.0
  0
LINE
  5
3C8
330
1F
100
AcDbEntity
  8
SLD-0
  6
Continuous
 62
   179
370
    25
100
AcDbLine
 10
10.0062721136
 20
182.7187224872
 30
0.0
 11
10.0246810081
 21
182.6858788378
 31
0.0
  0
LINE
  5
3C9
330
1F
100
AcDbEntity
  8
SLD-0
  6
Continuous
 62
   179
370
    25
100
AcDbLine
 10
10.0246810081
 20
182.6858788378
 30
0.0
 11
10.0522004726
 21
182.667876745
 31
0.0
  0
LINE
  5
3CA
330
1F
100
AcDbEntity
  8
SLD-0
  6
Continuous
 62
   179
370
    25
100
AcDbLine
 10
10.0522004726
 20
182.667876745
 30
0.0
 11
10.0846641424
 21
182.6674610026
 31
0.0
  0
LINE
  5
3CB
330
1F
100
AcDbEntity
  8
SLD-0
  6
Continuous
 62
   179
370
    25
100
AcDbLine
 10
10.0846641424
 20
182.6674610026
 30
0.0
 11
10.1171456935
 21
182.6846852548
 31
0.0
  0
LINE
  5
3CC
330
1F
100
AcDbEntity
  8
SLD-0
  6
Continuous
 62
   179
370
    25
100
AcDbLine
 10
10.1171456935
 20
182.6846852548
 30
0.0
 11
10.1446740987
 21
182.7169388182
 31
0.0
  0
LINE
  5
3CD
330
1F
100
AcDbEntity
  8
SLD-0
  6
Continuous
 62
   179
370
    25
100
AcDbLine
 10
10.1446740987
 20
182.7169388182
 30
0.0
 11
10.1630740526
 21
182.7593043096
 31
0.0
  0
LINE
  5
3CE
330
1F
100
AcDbEntity
  8
SLD-0
  6
Continuous
 62
   179
370
    25
100
AcDbLine
 10
10.1630740526
 20
182.7593043096
 30
0.0
 11
10.1695202949
 21
182.8053310163
 31
0.0
  0
LINE
  5
3CF
330
1F
100
AcDbEntity
  8
SLD-0
  6
Continuous
 62
   179
370
    25
100
AcDbLine
 10
10.1695202949
 20
182.8053310163
 30
0.0
 11
10.1630740526
 21
182.8480183728
 31
0.0
  0
LINE
  5
3D0
330
1F
100
AcDbEntity
  8
SLD-0
  6
Continuous
 62
   179
370
    25
100
AcDbLine
 10
10.1630740526
 20
182.8480183728
 30
0.0
 11
10.1446740987
 21
182.8808620221
 31
0.0
  0
LINE
  5
3D1
330
1F
100
AcDbEntity
  8
SLD-0
  6
Continuous
 62
   179
370
    25
100
AcDbLine
 10
10.1446740987
 20
182.8808620221
 30
0.0
 11
10.1171456935
 21
182.898864115
 31
0.0
  0
LINE
  5
3D2
330
1F
100
AcDbEntity
  8
SLD-0
  6
Continuous
 62
   179
370
    25
100
AcDbLine
 10
10.1171456935
 20
182.898864115
 30
0.0
 11
10.0846641424
 21
182.8992843277
 31
0.0
  0
LINE
  5
3D3
330
1F
100
AcDbEntity
  8
SLD-0
  6
Continuous
 62
   179
370
    25
100
AcDbLine
 10
10.0846641424
 20
182.8992843277
 30
0.0
 11
10.0522004726
 21
182.8820556052
 31
0.0
  0
LINE
  5
3D4
330
1F
100
AcDbEntity
  8
SLD-0
  6
Continuous
 62
   179
370
    25
100
AcDbLine
 10
10.0522004726
 20
182.8820556052
 30
0.0
 11
10.0246810081
 21
182.8498020418
 31
0.0
  0
LINE
  5
3D5
330
1F
100
AcDbEntity
  8
SLD-0
  6
Continuous
 62
   179
370
    25
100
AcDbLine
 10
10.0246810081
 20
182.8498020418
 30
0.0
 11
10.0062721136
 21
182.8074410207
 31
0.0
  0
LINE
  5
3D6
330
1F
100
AcDbEntity
  8
SLD-0
  6
Continuous
 62
   179
370
    25
100
AcDbLine
 10
11.6001122358
 20
182.0276423938
 30
0.0
 11
11.6101258161
 21
182.0096179492
 31
0.0
  0
LINE
  5
3D7
330
1F
100
AcDbEntity
  8
SLD-0
  6
Continuous
 62
   179
370
    25
100
AcDbLine
 10
11.6101258161
 20
182.0096179492
 30
0.0
 11
11.6570465925
 21
181.9576590903
 31
0.0
  0
LINE
  5
3D8
330
1F
100
AcDbEntity
  8
SLD-0
  6
Continuous
 62
   179
370
    25
100
AcDbLine
 10
11.6570465925
 20
181.9576590903
 30
0.0
 11
11.7161893013
 21
181.9318025954
 31
0.0
  0
LINE
  5
3D9
330
1F
100
AcDbEntity
  8
SLD-0
  6
Continuous
 62
   179
370
    25
100
AcDbLine
 10
11.7161893013
 20
181.9318025954
 30
0.0
 11
11.7817514303
 21
181.934583152
 31
0.0
  0
LINE
  5
3DA
330
1F
100
AcDbEntity
  8
SLD-0
  6
Continuous
 62
   179
370
    25
100
AcDbLine
 10
11.7817514303
 20
181.934583152
 30
0.0
 11
11.8472867372
 21
181.9657370098
 31
0.0
  0
LINE
  5
3DB
330
1F
100
AcDbEntity
  8
SLD-0
  6
Continuous
 62
   179
370
    25
100
AcDbLine
 10
11.8472867372
 20
181.9657370098
 30
0.0
 11
11.906429446
 21
182.0221975095
 31
0.0
  0
LINE
  5
3DC
330
1F
100
AcDbEntity
  8
SLD-0
  6
Continuous
 62
   179
370
    25
100
AcDbLine
 10
11.906429446
 20
182.0221975095
 30
0.0
 11
11.9533502224
 21
182.0984527118
 31
0.0
  0
LINE
  5
3DD
330
1F
100
AcDbEntity
  8
SLD-0
  6
Continuous
 62
   179
370
    25
100
AcDbLine
 10
11.9533502224
 20
182.0984527118
 30
0.0
 11
11.983489311
 21
182.1870326645
 31
0.0
  0
LINE
  5
3DE
330
1F
100
AcDbEntity
  8
SLD-0
  6
Continuous
 62
   179
370
    25
100
AcDbLine
 10
11.983489311
 20
182.1870326645
 30
0.0
 11
11.9938605192
 21
182.2792648919
 31
0.0
  0
LINE
  5
3DF
330
1F
100
AcDbEntity
  8
SLD-0
  6
Continuous
 62
   179
370
    25
100
AcDbLine
 10
11.9938605192
 20
182.2792648919
 30
0.0
 11
11.983489311
 21
182.3661282308
 31
0.0
  0
LINE
  5
3E0
330
1F
100
AcDbEntity
  8
SLD-0
  6
Continuous
 62
   179
370
    25
100
AcDbLine
 10
11.983489311
 20
182.3661282308
 30
0.0
 11
11.9533502224
 21
182.4391066677
 31
0.0
  0
LINE
  5
3E1
330
1F
100
AcDbEntity
  8
SLD-0
  6
Continuous
 62
   179
370
    25
100
AcDbLine
 10
11.9533502224
 20
182.4391066677
 30
0.0
 11
11.906429446
 21
182.4910744674
 31
0.0
  0
LINE
  5
3E2
330
1F
100
AcDbEntity
  8
SLD-0
  6
Continuous
 62
   179
370
    25
100
AcDbLine
 10
11.906429446
 20
182.4910744674
 30
0.0
 11
11.8472867372
 21
182.516926492
 31
0.0
  0
LINE
  5
3E3
330
1F
100
AcDbEntity
  8
SLD-0
  6
Continuous
 62
   179
370
    25
100
AcDbLine
 10
11.8472867372
 20
182.516926492
 30
0.0
 11
11.7817514303
 21
182.5141414649
 31
0.0
  0
LINE
  5
3E4
330
1F
100
AcDbEntity
  8
SLD-0
  6
Continuous
 62
   179
370
    25
100
AcDbLine
 10
11.7817514303
 20
182.5141414649
 30
0.0
 11
11.7183440092
 21
182.484498585
 31
0.0
  0
ARC
  5
3E5
330
1F
100
AcDbEntity
  8
SLD-0
  6
Continuous
 62
   179
370
    25
100
AcDbCircle
 10
28.6124902903
 20
177.6614760889
 30
0.0
 40
0.0858349444087392
100
AcDbArc
 50
350.7720669851
 51
69.5887228873
  0
ARC
  5
3E6
330
1F
100
AcDbEntity
  8
SLD-0
  6
Continuous
 62
   179
370
    25
100
AcDbCircle
 10
28.6124752741
 20
178.1328397228
 30
0.0
 40
0.0858485195363106
100
AcDbArc
 50
350.7787982717
 51
69.5814008566
  0
ARC
  5
3E7
330
1F
100
AcDbEntity
  8
SLD-0
  6
Continuous
 62
   179
370
    25
100
AcDbCircle
 10
150.5759562554
 20
147.5381888004
 30
0.0
 40
0.5797434349998789
100
AcDbArc
 50
268.1127007603
 51
282.4984971767
  0
ARC
  5
3E8
330
1F
100
AcDbEntity
  8
SLD-0
  6
Continuous
 62
   179
370
    25
100
AcDbCircle
 10
151.29353593
 20
146.294386987
 30
0.0
 40
0.0335505905244217
100
AcDbArc
 50
322.360668174
 51
357.3476494254
  0
ARC
  5
3E9
330
1F
100
AcDbEntity
  8
SLD-0
  6
Continuous
 62
   179
370
    25
100
AcDbCircle
 10
152.2782237279
 20
146.6948347428
 30
0.0
 40
0.0125507005748677
100
AcDbArc
 50
350.0325858641
 51
66.0617079256
  0
ARC
  5
3EA
330
1F
100
AcDbEntity
  8
SLD-0
  6
Continuous
 62
   179
370
    25
100
AcDbCircle
 10
150.8191232716
 20
146.9029879865
 30
0.0
 40
0.0187468232826159
100
AcDbArc
 50
113.2528210956
 51
183.5415039476
  0
ARC
  5
3EB
330
1F
100
AcDbEntity
  8
SLD-0
  6
Continuous
 62
   179
370
    25
100
AcDbCircle
 10
188.1940407431
 20
137.8019042291
 30
0.0
 40
0.579734696494799
100
AcDbArc
 50
268.1122069327
 51
282.4986647428
  0
ARC
  5
3EC
330
1F
100
AcDbEntity
  8
SLD-0
  6
Continuous
 62
   179
370
    25
100
AcDbCircle
 10
188.9115605058
 20
136.5581189946
 30
0.0
 40
0.0336060928609739
100
AcDbArc
 50
322.4170865741
 51
357.3389242505
  0
ARC
  5
3ED
330
1F
100
AcDbEntity
  8
SLD-0
  6
Continuous
 62
   179
370
    25
100
AcDbCircle
 10
189.896283629
 20
136.9585460967
 30
0.0
 40
0.0125724497842099
100
AcDbArc
 50
350.1100238987
 51
65.9842699106
  0
ARC
  5
3EE
330
1F
100
AcDbEntity
  8
SLD-0
  6
Continuous
 62
   179
370
    25
100
AcDbCircle
 10
188.4372198651
 20
137.1667047201
 30
0.0
 40
0.0187586741004964
100
AcDbArc
 50
113.2782984351
 51
183.5160265946
  0
ARC
  5
3EF
330
1F
100
AcDbEntity
  8
SLD-0
  6
Continuous
 62
   179
370
    25
100
AcDbCircle
 10
131.5123140239
 20
152.4722776034
 30
0.0
 40
0.5798137243425995
100
AcDbArc
 50
268.1162797011
 51
282.5012920008
  0
ARC
  5
3F0
330
1F
100
AcDbEntity
  8
SLD-0
  6
Continuous
 62
   179
370
    25
100
AcDbCircle
 10
132.2299721769
 20
151.2283813647
 30
0.0
 40
0.0335047821706636
100
AcDbArc
 50
322.3498866246
 51
357.3910165814
  0
ARC
  5
3F1
330
1F
100
AcDbEntity
  8
SLD-0
  6
Continuous
 62
   179
370
    25
100
AcDbCircle
 10
133.2146185054
 20
151.6288415426
 30
0.0
 40
0.0125640789827703
100
AcDbArc
 50
350.1335856963
 51
66.0932323119
  0
ARC
  5
3F2
330
1F
100
AcDbEntity
  8
SLD-0
  6
Continuous
 62
   179
370
    25
100
AcDbCircle
 10
131.7555217977
 20
151.8370099066
 30
0.0
 40
0.01874504324917
100
AcDbArc
 50
113.2408495164
 51
183.5558052255
  0
ARC
  5
3F3
330
1F
100
AcDbEntity
  8
SLD-0
  6
Continuous
 62
   179
370
    25
100
AcDbCircle
 10
93.8942424422
 20
162.2084416395
 30
0.0
 40
0.5797022337503348
100
AcDbArc
 50
268.1156589899
 51
282.5025656421
  0
ARC
  5
3F4
330
1F
100
AcDbEntity
  8
SLD-0
  6
Continuous
 62
   179
370
    25
100
AcDbCircle
 10
94.6117614565
 20
160.9647072867
 30
0.0
 40
0.0336433789957869
100
AcDbArc
 50
322.423866524
 51
357.319915722
  0
ARC
  5
3F5
330
1F
100
AcDbEntity
  8
SLD-0
  6
Continuous
 62
   179
370
    25
100
AcDbCircle
 10
95.5965128188
 20
161.3651075055
 30
0.0
 40
0.0125838151531123
100
AcDbArc
 50
350.1940837504
 51
65.9747716845
  0
ARC
  5
3F6
330
1F
100
AcDbEntity
  8
SLD-0
  6
Continuous
 62
   179
370
    25
100
AcDbCircle
 10
94.1374703921
 20
161.5732629507
 30
0.0
 40
0.0187750525756977
100
AcDbArc
 50
113.2790660452
 51
183.4672607372
  0
ARC
  5
3F7
330
1F
100
AcDbEntity
  8
SLD-0
  6
Continuous
 62
   179
370
    25
100
AcDbCircle
 10
37.2125588222
 20
176.8787341512
 30
0.0
 40
0.5796960187256037
100
AcDbArc
 50
268.115966424
 51
282.5025847031
  0
ARC
  5
3F8
330
1F
100
AcDbEntity
  8
SLD-0
  6
Continuous
 62
   179
370
    25
100
AcDbCircle
 10
37.9301506251
 20
175.634987629
 30
0.0
 40
0.0335731799617454
100
AcDbArc
 50
322.3734359355
 51
357.3436267717
  0
ARC
  5
3F9
330
1F
100
AcDbEntity
  8
SLD-0
  6
Continuous
 62
   179
370
    25
100
AcDbCircle
 10
38.9148640656
 20
176.035426618
 30
0.0
 40
0.0125504589380679
100
AcDbArc
 50
350.0728071079
 51
66.0994573173
  0
ARC
  5
3FA
330
1F
100
AcDbEntity
  8
SLD-0
  6
Continuous
 62
   179
370
    25
100
AcDbCircle
 10
37.4557727935
 20
176.2435746275
 30
0.0
 40
0.0187586557569993
100
AcDbArc
 50
113.2635559519
 51
183.5136661342
  0
ARC
  5
3FB
330
1F
100
AcDbEntity
  8
SLD-0
  6
Continuous
 62
   179
370
    25
100
AcDbCircle
 10
74.8306476077
 20
167.1426409698
 30
0.0
 40
0.5798774436249156
100
AcDbArc
 50
268.1161079028
 51
282.4986033917
  0
ARC
  5
3FC
330
1F
100
AcDbEntity
  8
SLD-0
  6
Continuous
 62
   179
370
    25
100
AcDbCircle
 10
75.5482813631
 20
165.8986869606
 30
0.0
 40
0.033514428905768
100
AcDbArc
 50
322.3547890628
 51
357.3817441921
  0
ARC
  5
3FD
330
1F
100
AcDbEntity
  8
SLD-0
  6
Continuous
 62
   179
370
    25
100
AcDbCircle
 10
76.5329363891
 20
166.2991495037
 30
0.0
 40
0.0125577495621706
100
AcDbArc
 50
350.0801284753
 51
66.0658199377
  0
ARC
  5
3FE
330
1F
100
AcDbEntity
  8
SLD-0
  6
Continuous
 62
   179
370
    25
100
AcDbCircle
 10
75.073842812
 20
166.5073105607
 30
0.0
 40
0.0187451645440492
100
AcDbArc
 50
113.2488027362
 51
183.551740628
  0
ARC
  5
3FF
330
1F
100
AcDbEntity
  8
SLD-0
  6
Continuous
 62
   179
370
    25
100
AcDbCircle
 10
142.2681328844
 20
148.6791285144
 30
0.0
 40
0.0187468232826641
100
AcDbArc
 50
293.252821095
 51
3.5415039457
  0
ARC
  5
400
330
1F
100
AcDbEntity
  8
SLD-0
  6
Continuous
 62
   179
370
    25
100
AcDbCircle
 10
142.2300857727
 20
148.6214047355
 30
0.0
 40
0.0281505058204372
100
AcDbArc
 50
113.2762888105
 51
183.4993796036
  0
ARC
  5
401
330
1F
100
AcDbEntity
  8
SLD-0
  6
Continuous
 62
   179
370
    25
100
AcDbCircle
 10
142.1755997144
 20
148.1571024813
 30
0.0
 40
0.0226441482158864
100
AcDbArc
 50
186.9588632912
 51
281.0965642675
  0
ARC
  5
402
330
1F
100
AcDbEntity
  8
SLD-0
  6
Continuous
 62
   179
370
    25
100
AcDbCircle
 10
142.1787181275
 20
148.2442777509
 30
0.0
 40
0.0474382535619021
100
AcDbArc
 50
179.770455003
 51
194.2186223255
  0
ARC
  5
403
330
1F
100
AcDbEntity
  8
SLD-0
  6
Continuous
 62
   179
370
    25
100
AcDbCircle
 10
142.1886753917
 20
148.3061062671
 30
0.0
 40
0.0573956580866867
100
AcDbArc
 50
161.4069242726
 51
179.7558565923
  0
ARC
  5
404
330
1F
100
AcDbEntity
  8
SLD-0
  6
Continuous
 62
   179
370
    25
100
AcDbCircle
 10
142.0908522776
 20
148.3561326347
 30
0.0
 40
0.0512512738320426
100
AcDbArc
 50
340.2984147532
 51
19.7015852473
  0
ARC
  5
405
330
1F
100
AcDbEntity
  8
SLD-0
  6
Continuous
 62
   179
370
    25
100
AcDbCircle
 10
142.17558396
 20
148.4013803449
 30
0.0
 40
0.0443063975716204
100
AcDbArc
 50
179.3683713627
 51
201.1976291592
  0
ARC
  5
406
330
1F
100
AcDbEntity
  8
SLD-0
  6
Continuous
 62
   179
370
    25
100
AcDbCircle
 10
142.1886448592
 20
148.4606556851
 30
0.0
 40
0.0573651236388086
100
AcDbArc
 50
161.4019389094
 51
179.7562605861
  0
ARC
  5
407
330
1F
100
AcDbEntity
  8
SLD-0
  6
Continuous
 62
   179
370
    25
100
AcDbCircle
 10
142.0908205295
 20
148.5106815181
 30
0.0
 40
0.0512826708682176
100
AcDbArc
 50
340.3056705261
 51
19.6943294738
  0
ARC
  5
408
330
1F
100
AcDbEntity
  8
SLD-0
  6
Continuous
 62
   179
370
    25
100
AcDbCircle
 10
142.1755978349
 20
148.5559316146
 30
0.0
 40
0.0443201966320532
100
AcDbArc
 50
179.3774325507
 51
201.1940194985
  0
ARC
  5
409
330
1F
100
AcDbEntity
  8
SLD-0
  6
Continuous
 62
   179
370
    25
100
AcDbCircle
 10
142.1886448592
 20
148.6152045686
 30
0.0
 40
0.0573651236388136
100
AcDbArc
 50
161.4019389094
 51
179.7562605849
  0
ARC
  5
40A
330
1F
100
AcDbEntity
  8
SLD-0
  6
Continuous
 62
   179
370
    25
100
AcDbCircle
 10
142.0892922607
 20
148.6759714838
 30
0.0
 40
0.0561232373320321
100
AcDbArc
 50
341.2538085201
 51
0.0148804337
  0
ARC
  5
40B
330
1F
100
AcDbEntity
  8
SLD-0
  6
Continuous
 62
   179
370
    25
100
AcDbCircle
 10
198.7433218261
 20
133.51262688
 30
0.0
 40
0.0194558996776465
100
AcDbArc
 50
255.5731177024
 51
285.3988409647
  0
ARC
  5
40C
330
1F
100
AcDbEntity
  8
SLD-0
  6
Continuous
 62
   179
370
    25
100
AcDbCircle
 10
198.8366756671
 20
134.038115054
 30
0.0
 40
0.0187519126172042
100
AcDbArc
 50
293.263767263
 51
3.5305577784
  0
ARC
  5
40D
330
1F
100
AcDbEntity
  8
SLD-0
  6
Continuous
 62
   179
370
    25
100
AcDbCircle
 10
198.798617739
 20
133.980395824
 30
0.0
 40
0.028134623081499
100
AcDbArc
 50
113.2643837709
 51
183.5081717948
  0
ARC
  5
40E
330
1F
100
AcDbEntity
  8
SLD-0
  6
Continuous
 62
   179
370
    25
100
AcDbCircle
 10
28.9047599677
 20
178.0197370904
 30
0.0
 40
0.0187650313777742
100
AcDbArc
 50
293.2772490611
 51
3.4999730424
  0
ARC
  5
40F
330
1F
100
AcDbEntity
  8
SLD-0
  6
Continuous
 62
   179
370
    25
100
AcDbCircle
 10
28.8667076235
 20
177.9620137557
 30
0.0
 40
0.0281270319706643
100
AcDbArc
 50
113.243107723
 51
183.5263412679
  0
ARC
  5
410
330
1F
100
AcDbEntity
  8
SLD-0
  6
Continuous
 62
   179
370
    25
100
AcDbCircle
 10
28.8122373057
 20
177.4977029198
 30
0.0
 40
0.0226452437225408
100
AcDbArc
 50
186.9723699078
 51
281.0833602202
  0
ARC
  5
411
330
1F
100
AcDbEntity
  8
SLD-0
  6
Continuous
 62
   179
370
    25
100
AcDbCircle
 10
28.8149619389
 20
177.5848073364
 30
0.0
 40
0.0470362983676006
100
AcDbArc
 50
179.686078701
 51
194.2590766248
  0
ARC
  5
412
330
1F
100
AcDbEntity
  8
SLD-0
  6
Continuous
 62
   179
370
    25
100
AcDbCircle
 10
28.8248974721
 20
177.6467960676
 30
0.0
 40
0.0569713283186958
100
AcDbArc
 50
161.3663156206
 51
179.8471241979
  0
ARC
  5
413
330
1F
100
AcDbEntity
  8
SLD-0
  6
Continuous
 62
   179
370
    25
100
AcDbCircle
 10
28.7275162592
 20
177.696729318
 30
0.0
 40
0.0512265802813945
100
AcDbArc
 50
340.286532772
 51
19.7134672282
  0
ARC
  5
414
330
1F
100
AcDbEntity
  8
SLD-0
  6
Continuous
 62
   179
370
    25
100
AcDbCircle
 10
28.8119402781
 20
177.7419038018
 30
0.0
 40
0.0440174935422916
100
AcDbArc
 50
179.2710851055
 51
201.2389054227
  0
ARC
  5
415
330
1F
100
AcDbEntity
  8
SLD-0
  6
Continuous
 62
   179
370
    25
100
AcDbCircle
 10
28.8249096094
 20
177.8013429526
 30
0.0
 40
0.0569834679514744
100
AcDbArc
 50
161.3683109653
 51
179.8462711658
  0
ARC
  5
416
330
1F
100
AcDbEntity
  8
SLD-0
  6
Continuous
 62
   179
370
    25
100
AcDbCircle
 10
28.7275203715
 20
177.8512776427
 30
0.0
 40
0.051222520572743
100
AcDbArc
 50
340.285569594
 51
19.7144304062
  0
ARC
  5
417
330
1F
100
AcDbEntity
  8
SLD-0
  6
Continuous
 62
   179
370
    25
100
AcDbCircle
 10
28.8119369539
 20
177.8964510042
 30
0.0
 40
0.0440141910131405
100
AcDbArc
 50
179.2688419641
 51
201.2397894039
  0
ARC
  5
418
330
1F
100
AcDbEntity
  8
SLD-0
  6
Continuous
 62
   179
370
    25
100
AcDbCircle
 10
28.8248973558
 20
177.9558927455
 30
0.0
 40
0.0569712089432234
100
AcDbArc
 50
161.3663055132
 51
179.8482766168
  0
ARC
  5
419
330
1F
100
AcDbEntity
  8
SLD-0
  6
Continuous
 62
   179
370
    25
100
AcDbCircle
 10
28.7247526576
 20
178.0168049965
 30
0.0
 40
0.0573182998900424
100
AcDbArc
 50
341.4085706406
 51
359.778391845
  0
ARC
  5
41A
330
1F
100
AcDbEntity
  8
SLD-0
  6
Continuous
 62
   179
370
    25
100
AcDbCircle
 10
28.4869667428
 20
177.928230452
 30
0.0
 40
0.0443147856029815
100
AcDbArc
 50
179.3442753876
 51
201.1643559801
  0
ARC
  5
41B
330
1F
100
AcDbEntity
  8
SLD-0
  6
Continuous
 62
   179
370
    25
100
AcDbCircle
 10
28.4125574597
 20
177.8760268044
 30
0.0
 40
0.0442445062721464
100
AcDbArc
 50
359.3412316774
 51
21.1974483983
  0
ARC
  5
41C
330
1F
100
AcDbEntity
  8
SLD-0
  6
Continuous
 62
   179
370
    25
100
AcDbCircle
 10
28.3994860259
 20
177.8167069157
 30
0.0
 40
0.0573134369968837
100
AcDbArc
 50
341.4077982054
 51
359.7803080729
  0
ARC
  5
41D
330
1F
100
AcDbEntity
  8
SLD-0
  6
Continuous
 62
   179
370
    25
100
AcDbCircle
 10
28.3998861251
 20
177.5047045397
 30
0.0
 40
0.056913158830148
100
AcDbArc
 50
347.0450322845
 51
359.832768275
  0
ARC
  5
41E
330
1F
100
AcDbEntity
  8
SLD-0
  6
Continuous
 62
   179
370
    25
100
AcDbCircle
 10
28.3924704765
 20
177.4098269587
 30
0.0
 40
0.0430161716007186
100
AcDbArc
 50
291.3425155376
 51
351.0370470016
  0
ARC
  5
41F
330
1F
100
AcDbEntity
  8
SLD-0
  6
Continuous
 62
   179
370
    25
100
AcDbCircle
 10
85.3799613537
 20
162.8533643925
 30
0.0
 40
0.019594762825356
100
AcDbArc
 50
255.6939865457
 51
285.3035486999
  0
ARC
  5
420
330
1F
100
AcDbEntity
  8
SLD-0
  6
Continuous
 62
   179
370
    25
100
AcDbCircle
 10
85.4733166034
 20
163.3787106549
 30
0.0
 40
0.0187493514148328
100
AcDbArc
 50
293.2582595417
 51
3.5360654997
  0
ARC
  5
421
330
1F
100
AcDbEntity
  8
SLD-0
  6
Continuous
 62
   179
370
    25
100
AcDbCircle
 10
85.4352666451
 20
163.3209853943
 30
0.0
 40
0.0281461603230505
100
AcDbArc
 50
113.2679513716
 51
183.5002028752
  0
ARC
  5
422
330
1F
100
AcDbEntity
  8
SLD-0
  6
Continuous
 62
   179
370
    25
100
AcDbCircle
 10
85.5864577936
 20
163.3494234963
 30
0.0
 40
0.0187428886785234
100
AcDbArc
 50
293.2443534433
 51
3.5499715938
  0
ARC
  5
423
330
1F
100
AcDbEntity
  8
SLD-0
  6
Continuous
 62
   179
370
    25
100
AcDbCircle
 10
85.5483784271
 20
163.2917255779
 30
0.0
 40
0.0281158912177062
100
AcDbArc
 50
113.2441750762
 51
183.5467808533
  0
ARC
  5
424
330
1F
100
AcDbEntity
  8
SLD-0
  6
Continuous
 62
   179
370
    25
100
AcDbCircle
 10
85.4939126063
 20
162.8273967045
 30
0.0
 40
0.0226381090990518
100
AcDbArc
 50
186.9523650298
 51
281.0911617713
  0
ARC
  5
425
330
1F
100
AcDbEntity
  8
SLD-0
  6
Continuous
 62
   179
370
    25
100
AcDbCircle
 10
85.4970867711
 20
162.9145681268
 30
0.0
 40
0.0474861244332158
100
AcDbArc
 50
179.7593893614
 51
194.1951162203
  0
ARC
  5
426
330
1F
100
AcDbEntity
  8
SLD-0
  6
Continuous
 62
   179
370
    25
100
AcDbCircle
 10
85.507092441
 20
162.9764158745
 30
0.0
 40
0.0574918546189443
100
AcDbArc
 50
161.454245211
 51
179.7661002687
  0
ARC
  5
427
330
1F
100
AcDbEntity
  8
SLD-0
  6
Continuous
 62
   179
370
    25
100
AcDbCircle
 10
85.4091022792
 20
163.0264312557
 30
0.0
 40
0.051316215093163
100
AcDbArc
 50
340.3230515105
 51
19.6769484893
  0
ARC
  5
428
330
1F
100
AcDbEntity
  8
SLD-0
  6
Continuous
 62
   179
370
    25
100
AcDbCircle
 10
85.4939870218
 20
163.0716697177
 30
0.0
 40
0.0443887338538729
100
AcDbArc
 50
179.3590474366
 51
201.142071309
  0
ARC
  5
429
330
1F
100
AcDbEntity
  8
SLD-0
  6
Continuous
 62
   179
370
    25
100
AcDbCircle
 10
85.5070673444
 20
163.1309666729
 30
0.0
 40
0.0574667414740246
100
AcDbArc
 50
161.4502096093
 51
179.7701358698
  0
ARC
  5
42A
330
1F
100
AcDbEntity
  8
SLD-0
  6
Continuous
 62
   179
370
    25
100
AcDbCircle
 10
85.4090972086
 20
163.1809790216
 30
0.0
 40
0.0513213659201352
100
AcDbArc
 50
340.3237827938
 51
19.6762172067
  0
ARC
  5
42B
330
1F
100
AcDbEntity
  8
SLD-0
  6
Continuous
 62
   179
370
    25
100
AcDbCircle
 10
85.4939641386
 20
163.2262143953
 30
0.0
 40
0.0443658741253341
100
AcDbArc
 50
179.3561719969
 51
201.1476642942
  0
ARC
  5
42C
330
1F
100
AcDbEntity
  8
SLD-0
  6
Continuous
 62
   179
370
    25
100
AcDbCircle
 10
85.5071171964
 20
163.2855095771
 30
0.0
 40
0.057516617354716
100
AcDbArc
 50
161.4582503011
 51
179.7643788555
  0
ARC
  5
42D
330
1F
100
AcDbEntity
  8
SLD-0
  6
Continuous
 62
   179
370
    25
100
AcDbCircle
 10
85.4066748294
 20
163.3464507008
 30
0.0
 40
0.0570695388909512
100
AcDbArc
 50
341.3859018955
 51
359.8344435842
  0
ARC
  5
42E
330
1F
100
AcDbEntity
  8
SLD-0
  6
Continuous
 62
   179
370
    25
100
AcDbCircle
 10
142.0616449463
 20
148.1831746709
 30
0.0
 40
0.019702194754686
100
AcDbArc
 50
255.7637847433
 51
285.208173922
  0
ARC
  5
42F
330
1F
100
AcDbEntity
  8
SLD-0
  6
Continuous
 62
   179
370
    25
100
AcDbCircle
 10
142.1550043812
 20
148.7083997279
 30
0.0
 40
0.0187317133223961
100
AcDbArc
 50
293.2193720365
 51
3.5873885443
  0
ARC
  5
430
330
1F
100
AcDbEntity
  8
SLD-0
  6
Continuous
 62
   179
370
    25
100
AcDbCircle
 10
142.1169141643
 20
148.6507203874
 30
0.0
 40
0.0281077703173469
100
AcDbArc
 50
113.2536479896
 51
183.5759231694
  0
ARC
  5
431
330
1F
100
AcDbEntity
  8
SLD-0
  6
Continuous
 62
   179
370
    18
100
AcDbCircle
 10
24.3930256856
 20
182.2998306175
 30
0.0
 40
5.35585028490993
100
AcDbArc
 50
157.380135052
 51
202.619864948
  0
ARC
  5
432
330
1F
100
AcDbEntity
  8
SLD-0
  6
Continuous
 62
   179
370
    18
100
AcDbCircle
 10
14.5053020827
 20
178.179945783
 30
0.0
 40
5.355850284909889
100
AcDbArc
 50
337.380135052
 51
22.6198649481
  0
ARC
  5
433
330
1F
100
AcDbEntity
  8
SLD-0
  6
Continuous
 62
   179
370
    18
100
AcDbCircle
 10
26.1598574165
 20
181.8356984657
 30
0.0
 40
5.355850284909932
100
AcDbArc
 50
157.380135052
 51
202.619864948
  0
ARC
  5
434
330
1F
100
AcDbEntity
  8
SLD-0
  6
Continuous
 62
   179
370
    18
100
AcDbCircle
 10
16.2721338136
 20
177.7158136311
 30
0.0
 40
5.35585028490992
100
AcDbArc
 50
337.380135052
 51
22.6198649481
  0
SPLINE
  5
435
330
1F
100
AcDbEntity
  8
SLD-0
  6
Continuous
 62
   179
370
    25
100
AcDbSpline
210
0.0
220
0.0
230
1.0
 70
     8
 71
     3
 72
     9
 73
     5
 74
     0
 42
0.00000001
 43
0.00000001
 40
0.0
 40
0.0
 40
0.0
 40
0.0
 40
0.4511305902400294
 40
1.0
 40
1.0
 40
1.0
 40
1.0
 10
27.87029380729774
 20
178.0344468138706
 30
0.0
 10
27.85363127410534
 20
178.0448245732734
 30
0.0
 10
27.81669621903951
 20
178.0678284653329
 30
0.0
 10
27.77517122669365
 20
178.0809777110383
 30
0.0
 10
27.75237942865447
 20
178.0881949297674
 30
0.0
  0
SPLINE
  5
436
330
1F
100
AcDbEntity
  8
SLD-0
  6
Continuous
 62
   179
370
    25
100
AcDbSpline
210
0.0
220
0.0
230
1.0
 70
     8
 71
     3
 72
     9
 73
     5
 74
     0
 42
0.00000001
 43
0.00000001
 40
0.0
 40
0.0
 40
0.0
 40
0.0
 40
0.4032078301037423
 40
1.0
 40
1.0
 40
1.0
 40
1.0
 10
27.69224877288891
 20
177.8558496914392
 30
0.0
 10
27.69861635604066
 20
177.8538569218845
 30
0.0
 10
27.71440866629935
 20
177.848914633055
 30
0.0
 10
27.72849032079792
 20
177.8401592143725
 30
0.0
 10
27.73689414194175
 20
177.8349340490587
 30
0.0
  0
SPLINE
  5
437
330
1F
100
AcDbEntity
  8
SLD-0
  6
Continuous
 62
   179
370
    25
100
AcDbSpline
210
0.0
220
0.0
230
1.0
 70
     8
 71
     3
 72
     9
 73
     5
 74
     0
 42
0.00000001
 43
0.00000001
 40
0.0
 40
0.0
 40
0.0
 40
0.0
 40
0.4078329228311616
 40
1.0
 40
1.0
 40
1.0
 40
1.0
 10
27.78567905357434
 20
178.3254843733793
 30
0.0
 10
27.78111599538942
 20
178.3250511079898
 30
0.0
 10
27.76992744750606
 20
178.3239887479761
 30
0.0
 10
27.75890597928034
 20
178.3263467096276
 30
0.0
 10
27.752379428655
 20
178.3277430168868
 30
0.0
  0
SPLINE
  5
438
330
1F
100
AcDbEntity
  8
SLD-0
  6
Continuous
 62
   179
370
    25
100
AcDbSpline
210
0.0
220
0.0
230
1.0
 70
     8
 71
     3
 72
     9
 73
     5
 74
     0
 42
0.00000001
 43
0.00000001
 40
0.0
 40
0.0
 40
0.0
 40
0.0
 40
0.4029793824272159
 40
1.0
 40
1.0
 40
1.0
 40
1.0
 10
28.11825956037571
 20
177.8775878779181
 30
0.0
 10
28.11189510652171
 20
177.8795794387502
 30
0.0
 10
28.09610160905866
 20
177.8845215298821
 30
0.0
 10
28.08201795363384
 20
177.8932758769931
 30
0.0
 10
28.07360972097443
 20
177.8985024027117
 30
0.0
  0
SPLINE
  5
439
330
1F
100
AcDbEntity
  8
SLD-0
  6
Continuous
 62
   179
370
    25
100
AcDbSpline
210
0.0
220
0.0
230
1.0
 70
     8
 71
     3
 72
     9
 73
     5
 74
     0
 42
0.00000001
 43
0.00000001
 40
0.0
 40
0.0
 40
0.0
 40
0.0
 40
0.451130106068247
 40
1.0
 40
1.0
 40
1.0
 40
1.0
 10
27.94021452596694
 20
177.6989907554873
 30
0.0
 10
27.95687551761864
 20
177.6886129247609
 30
0.0
 10
27.99380719526018
 20
177.6656088499125
 30
0.0
 10
28.03532957806659
 20
177.6524604939305
 30
0.0
 10
28.05811996391365
 20
177.6452437571771
 30
0.0
  0
SPLINE
  5
43A
330
1F
100
AcDbEntity
  8
SLD-0
  6
Continuous
 62
   179
370
    25
100
AcDbSpline
210
0.0
220
0.0
230
1.0
 70
     8
 71
     3
 72
     9
 73
     5
 74
     0
 42
0.00000001
 43
0.00000001
 40
0.0
 40
0.0
 40
0.0
 40
0.0
 40
0.4492401046825878
 40
1.0
 40
1.0
 40
1.0
 40
1.0
 10
28.11825956037542
 20
178.3489592901951
 30
0.0
 10
28.0991042094866
 20
178.3530761133271
 30
0.0
 10
28.05646475969322
 20
178.3622400839726
 30
0.0
 10
28.01296007383075
 20
178.3583351640285
 30
0.0
 10
27.98899943759937
 20
178.356184490729
 30
0.0
  0
SPLINE
  5
43B
330
1F
100
AcDbEntity
  8
SLD-0
  6
Continuous
 62
   179
370
    25
100
AcDbSpline
210
0.0
220
0.0
230
1.0
 70
     8
 71
     3
 72
     9
 73
     5
 74
     0
 42
0.00000001
 43
0.00000001
 40
0.0
 40
0.0
 40
0.0
 40
0.0
 40
0.4080979834914736
 40
1.0
 40
1.0
 40
1.0
 40
1.0
 10
28.02482033899371
 20
178.1188738129624
 30
0.0
 10
28.0293864007145
 20
178.1193073553672
 30
0.0
 10
28.04057504144658
 20
178.1203697041715
 30
0.0
 10
28.0515963997243
 20
178.1180111829319
 30
0.0
 10
28.05811996391359
 20
178.1166151694541
 30
0.0
  0
INSERT
  5
43C
330
1F
100
AcDbEntity
  8
0
  6
Continuous
 62
     7
100
AcDbBlockReference
  2
SW_NOTE_0
 10
161.448798991
 20
114.5279262023
 30
0.0
 41
0.01
 42
0.01
 43
0.01
  0
HATCH
  5
43D
330
1F
100
AcDbEntity
  8
0
  6
Continuous
 62
     7
100
AcDbHatch
 10
0.0
 20
0.0
 30
0.0
210
0.0
220
0.0
230
1.0
  2
SOLID
 70
     1
 71
     0
 91
        1
 92
        0
 93
       21
 72
     1
 10
27.82150442531695
 20
178.0881759307866
 11
28.02482033899375
 21
178.1188738129624
 72
     4
 94
        3
 73
     1
 74
     0
 95
        9
 96
        5
 40
0.0
 40
0.0
 40
0.0
 40
0.0
 40
0.4080979834914736
 40
1.0
 40
1.0
 40
1.0
 40
1.0
 10
28.02482033899371
 20
178.1188738129624
 42
1.0
 10
28.0293864007145
 20
178.1193073553672
 42
1.0
 10
28.04057504144658
 20
178.1203697041715
 42
1.0
 10
28.0515963997243
 20
178.1180111829319
 42
1.0
 10
28.05811996391359
 20
178.1166151694541
 42
1.0
 72
     1
 10
28.05811996391364
 20
178.1166151694543
 11
28.58229066064854
 21
177.9809490374813
 72
     1
 10
28.58229066064854
 20
177.9809490374813
 11
28.61235822370615
 21
177.9812105528597
 72
     1
 10
28.61235822370615
 20
177.9812105528597
 11
28.64483530452776
 21
177.9984381578453
 72
     1
 10
28.64483530452776
 20
177.9984381578453
 11
28.67235923936936
 21
178.0306894860749
 72
     1
 10
28.67235923936936
 20
178.0306894860749
 11
28.69075472286294
 21
178.0730549774656
 72
     1
 10
28.69075472286294
 20
178.0730549774656
 11
28.69721437623993
 21
178.1190828017478
 72
     2
 10
28.61247527411215
 20
178.1328397228085
 40
0.0858485195360601
 50
350.7787982716507
 51
429.5814008566224
 73
     1
 72
     1
 10
28.64242578676254
 20
178.2132942758092
 11
28.11825956037589
 21
178.3489592901953
 72
     4
 94
        3
 73
     1
 74
     0
 95
        9
 96
        5
 40
0.0
 40
0.0
 40
0.0
 40
0.0
 40
0.4492401046825878
 40
1.0
 40
1.0
 40
1.0
 40
1.0
 10
28.11825956037542
 20
178.3489592901951
 42
1.0
 10
28.0991042094866
 20
178.3530761133271
 42
1.0
 10
28.05646475969322
 20
178.3622400839726
 42
1.0
 10
28.01296007383075
 20
178.3583351640285
 42
1.0
 10
27.98899943759937
 20
178.356184490729
 42
1.0
 72
     1
 10
27.98899943759934
 20
178.3561844907292
 11
27.78567905357428
 21
178.3254843733795
 72
     4
 94
        3
 73
     1
 74
     0
 95
        9
 96
        5
 40
0.0
 40
0.0
 40
0.0
 40
0.0
 40
0.4078329228311616
 40
1.0
 40
1.0
 40
1.0
 40
1.0
 10
27.78567905357434
 20
178.3254843733793
 42
1.0
 10
27.78111599538942
 20
178.3250511079898
 42
1.0
 10
27.76992744750606
 20
178.3239887479761
 42
1.0
 10
27.75890597928034
 20
178.3263467096276
 42
1.0
 10
27.752379428655
 20
178.3277430168868
 42
1.0
 72
     1
 10
27.75237942865497
 20
178.3277430168869
 11
27.66088396528618
 21
178.3489592901953
 72
     1
 10
27.66088396528618
 20
178.3489592901953
 11
27.68274034193094
 21
178.2960191897633
 72
     1
 10
27.68274034193094
 20
178.2960191897633
 11
27.69312496116654
 21
178.2091603211645
 72
     1
 10
27.69312496116654
 20
178.2091603211645
 11
27.68274034193095
 21
178.1169258586649
 72
     1
 10
27.68274034193095
 20
178.1169258586649
 11
27.67935889056467
 21
178.1069848180924
 72
     1
 10
27.67935889056467
 20
178.1069848180924
 11
27.75237942865496
 21
178.0881949297673
 72
     4
 94
        3
 73
     1
 74
     0
 95
        8
 96
        4
 40
0.0
 40
0.0
 40
0.0
 40
0.0
 40
0.0563076170901684
 40
0.0563076170901684
 40
0.0563076170901684
 40
0.0563076170901684
 10
27.75237942865447
 20
178.0881949297674
 42
1.0
 10
27.75471760202316
 20
178.0874545270752
 42
1.0
 10
27.75705577539184
 20
178.086714124383
 42
1.0
 10
27.75939245583147
 20
178.0859705163555
 42
1.0
 72
     1
 10
27.75939245583152
 20
178.0859705163555
 11
27.82150442531695
 21
178.0881759307866
 97
        0
 75
     0
 76
     1
 98
        1
 10
0.0
 20
0.0
  0
HATCH
  5
43E
330
1F
100
AcDbEntity
  8
0
  6
Continuous
 62
     7
100
AcDbHatch
 10
0.0
 20
0.0
 30
0.0
210
0.0
220
0.0
230
1.0
  2
SOLID
 70
     1
 71
     0
 91
        1
 92
        0
 93
       20
 72
     1
 10
10.11714569354856
 20
182.8988641149868
 11
10.14467409873816
 21
182.8808620221484
 72
     1
 10
10.14467409873816
 20
182.8808620221484
 11
10.16307405258096
 21
182.8480183727608
 72
     1
 10
10.16307405258096
 20
182.8480183727608
 11
10.16952029491297
 21
182.8053310162889
 72
     1
 10
10.16952029491297
 20
182.8053310162889
 11
10.16307405258096
 21
182.7593043095932
 72
     1
 10
10.16307405258096
 20
182.7593043095932
 11
10.14467409873816
 21
182.7169388182037
 72
     1
 10
10.14467409873816
 20
182.7169388182037
 11
10.11714569354856
 21
182.6846852548
 72
     1
 10
10.11714569354856
 20
182.6846852548
 11
10.08466414237896
 21
182.667461002576
 72
     1
 10
10.08466414237896
 20
182.667461002576
 11
10.05220047260136
 21
182.6678767449725
 72
     1
 10
10.05220047260136
 20
182.6678767449725
 11
10.08466414237897
 21
182.6597362406127
 72
     1
 10
10.08466414237897
 20
182.6597362406127
 11
10.11714569354856
 21
182.6593160278671
 72
     1
 10
10.11714569354856
 20
182.6593160278671
 11
11.78233550243216
 21
182.2283846368756
 72
     1
 10
11.78233550243216
 20
182.2283846368756
 11
11.81421510005856
 21
182.2454556472168
 72
     1
 10
11.81421510005856
 20
182.2454556472168
 11
11.84173456455098
 21
182.2777047402736
 72
     1
 10
11.84173456455098
 20
182.2777047402736
 11
11.86014345908975
 21
182.3200702316632
 72
     1
 10
11.86014345908975
 20
182.3200702316632
 11
11.86658970142296
 21
182.3660969383589
 72
     1
 10
11.86658970142296
 20
182.3660969383589
 11
11.86014345908977
 21
182.4087842948309
 72
     1
 10
11.86014345908977
 20
182.4087842948309
 11
11.84173456455094
 21
182.4416279442184
 72
     1
 10
11.84173456455094
 20
182.4416279442184
 11
11.81421510005856
 21
182.4596300370568
 72
     1
 10
11.81421510005856
 20
182.4596300370568
 11
11.81181005264136
 21
182.4603095300068
 72
     1
 10
11.81181005264136
 20
182.4603095300068
 11
10.11714569354856
 21
182.8988641149868
 97
        0
 75
     0
 76
     1
 98
        1
 10
0.0
 20
0.0
  0
ENDSEC
  0
SECTION
  2
OBJECTS
  0
DICTIONARY
  5
C
330
0
100
AcDbDictionary
281
     1
  3
ACAD_GROUP
350
D
  3
ACAD_LAYOUT
350
1A
  3
ACAD_MLINESTYLE
350
17
  3
ACAD_PLOTSETTINGS
350
19
  3
ACAD_PLOTSTYLENAME
350
E
  3
ACAD_SCALELIST
350
47
  3
DWGPROPS
350
43F
  0
DICTIONARY
  5
D
102
{ACAD_REACTORS
330
C
102
}
330
C
100
AcDbDictionary
281
     1
  0
DICTIONARY
  5
1A
102
{ACAD_REACTORS
330
C
102
}
330
C
100
AcDbDictionary
281
     1
  3
Layout1
350
1E
  3
Layout2
350
26
  3
Model
350
22
  0
DICTIONARY
  5
17
102
{ACAD_REACTORS
330
C
102
}
330
C
100
AcDbDictionary
281
     1
  3
Standard
350
18
  0
DICTIONARY
  5
19
102
{ACAD_REACTORS
330
C
102
}
330
C
100
AcDbDictionary
281
     1
  0
ACDBDICTIONARYWDFLT
  5
E
102
{ACAD_REACTORS
330
C
102
}
330
C
100
AcDbDictionary
281
     1
  3
Normal
350
F
100
AcDbDictionaryWithDefault
340
F
  0
DICTIONARY
  5
47
102
{ACAD_REACTORS
330
C
102
}
330
C
100
AcDbDictionary
281
     1
  3
A0
350
48
  3
A1
350
49
  3
A2
350
4A
  3
A3
350
4B
  3
A4
350
4C
  3
A5
350
4D
  3
A6
350
4E
  3
A7
350
4F
  3
A8
350
50
  3
A9
350
51
  3
B0
350
52
  3
B1
350
53
  3
B2
350
54
  3
B3
350
55
  3
B4
350
56
  3
B5
350
57
  3
B6
350
58
  3
B7
350
59
  3
B8
350
5A
  3
B9
350
5B
  3
C0
350
5C
  3
C1
350
5D
  3
C2
350
5E
  3
C3
350
5F
  3
C4
350
60
  3
C5
350
61
  3
C6
350
62
  3
C7
350
63
  3
C8
350
64
  3
C9
350
65
  3
D0
350
66
  3
D1
350
67
  3
D2
350
68
  0
XRECORD
  5
43F
102
{ACAD_REACTORS
330
C
102
}
330
C
100
AcDbXrecord
280
     1
  1
DWGPROPS COOKIE
  2

  3

  4

  6

  7

  8
9128
  9

300
=
301
=
302
=
303
=
304
=
305
=
306
=
307
=
308
=
309
=
 40
0.0
 41
2459242.41676772
 42
2459242.416768704
  1

 90
        0
  0
LAYOUT
  5
1E
102
{ACAD_REACTORS
330
1A
102
}
330
1A
100
AcDbPlotSettings
  1

  2
none_device
  4

  6

 40
0.0
 41
0.0
 42
0.0
 43
0.0
 44
0.0
 45
0.0
 46
0.0
 47
0.0
 48
0.0
 49
0.0
140
0.0
141
0.0
142
1.0
143
1.0
 70
   688
 72
     1
 73
     0
 74
     5
  7

 75
    16
147
1.0
148
0.0
149
0.0
100
AcDbLayout
  1
Layout1
 70
     1
 71
     1
 10
0.0
 20
0.0
 11
420.0
 21
297.0
 12
0.0
 22
0.0
 32
0.0
 14
1.0000000000E+20
 24
1.0000000000E+20
 34
1.0000000000E+20
 15
-1.0000000000E+20
 25
-1.0000000000E+20
 35
-1.0000000000E+20
146
0.0
 13
0.0
 23
0.0
 33
0.0
 16
1.0
 26
0.0
 36
0.0
 17
0.0
 27
1.0
 37
0.0
 76
     0
330
1B
  0
LAYOUT
  5
26
102
{ACAD_REACTORS
330
1A
102
}
330
1A
100
AcDbPlotSettings
  1

  2
none_device
  4

  6

 40
0.0
 41
0.0
 42
0.0
 43
0.0
 44
0.0
 45
0.0
 46
0.0
 47
0.0
 48
0.0
 49
0.0
140
0.0
141
0.0
142
1.0
143
1.0
 70
   688
 72
     1
 73
     0
 74
     5
  7

 75
    16
147
1.0
148
0.0
149
0.0
100
AcDbLayout
  1
Layout2
 70
     1
 71
     2
 10
0.0
 20
0.0
 11
0.0
 21
0.0
 12
0.0
 22
0.0
 32
0.0
 14
0.0
 24
0.0
 34
0.0
 15
0.0
 25
0.0
 35
0.0
146
0.0
 13
0.0
 23
0.0
 33
0.0
 16
1.0
 26
0.0
 36
0.0
 17
0.0
 27
1.0
 37
0.0
 76
     0
330
23
  0
LAYOUT
  5
22
102
{ACAD_REACTORS
330
1A
102
}
330
1A
100
AcDbPlotSettings
  1

  2
none_device
  4
Letter_(8.50_x_11.00_Inches)
  6

 40
6.35
 41
6.35
 42
6.35000508
 43
6.35000508
 44
215.9
 45
279.4
 46
0.0
 47
0.0
 48
0.0
 49
0.0
140
0.0
141
0.0
142
1.0
143
1.0
 70
  1712
 72
     1
 73
     0
 74
     0
  7

 75
     0
147
1.0
148
0.0
149
0.0
100
AcDbLayout
  1
Model
 70
     1
 71
     0
 10
0.0
 20
0.0
 11
210.0
 21
297.0
 12
0.0
 22
0.0
 32
0.0
 14
0.0
 24
0.0
 34
0.0
 15
210.0
 25
297.0
 35
0.0
146
0.0
 13
0.0
 23
0.0
 33
0.0
 16
1.0
 26
0.0
 36
0.0
 17
0.0
 27
1.0
 37
0.0
 76
     0
330
1F
331
29
  0
MLINESTYLE
  5
18
102
{ACAD_REACTORS
330
17
102
}
330
17
100
AcDbMlineStyle
  2
Standard
 70
     0
  3

 62
   256
 51
90.0
 52
90.0
 71
     2
 49
0.5
 62
   256
  6
BYLAYER
 49
-0.5
 62
   256
  6
BYLAYER
  0
ACDBPLACEHOLDER
  5
F
102
{ACAD_REACTORS
330
E
102
}
330
E
  0
SCALE
  5
48
102
{ACAD_REACTORS
330
47
102
}
330
47
100
AcDbScale
 70
     0
300
1:1
140
1.0
141
1.0
290
     1
  0
SCALE
  5
49
102
{ACAD_REACTORS
330
47
102
}
330
47
100
AcDbScale
 70
     0
300
1:2
140
1.0
141
2.0
290
     0
  0
SCALE
  5
4A
102
{ACAD_REACTORS
330
47
102
}
330
47
100
AcDbScale
 70
     0
300
1:4
140
1.0
141
4.0
290
     0
  0
SCALE
  5
4B
102
{ACAD_REACTORS
330
47
102
}
330
47
100
AcDbScale
 70
     0
300
1:5
140
1.0
141
5.0
290
     0
  0
SCALE
  5
4C
102
{ACAD_REACTORS
330
47
102
}
330
47
100
AcDbScale
 70
     0
300
1:8
140
1.0
141
8.0
290
     0
  0
SCALE
  5
4D
102
{ACAD_REACTORS
330
47
102
}
330
47
100
AcDbScale
 70
     0
300
1:10
140
1.0
141
10.0
290
     0
  0
SCALE
  5
4E
102
{ACAD_REACTORS
330
47
102
}
330
47
100
AcDbScale
 70
     0
300
1:16
140
1.0
141
16.0
290
     0
  0
SCALE
  5
4F
102
{ACAD_REACTORS
330
47
102
}
330
47
100
AcDbScale
 70
     0
300
1:20
140
1.0
141
20.0
290
     0
  0
SCALE
  5
50
102
{ACAD_REACTORS
330
47
102
}
330
47
100
AcDbScale
 70
     0
300
1:30
140
1.0
141
30.0
290
     0
  0
SCALE
  5
51
102
{ACAD_REACTORS
330
47
102
}
330
47
100
AcDbScale
 70
     0
300
1:40
140
1.0
141
40.0
290
     0
  0
SCALE
  5
52
102
{ACAD_REACTORS
330
47
102
}
330
47
100
AcDbScale
 70
     0
300
1:50
140
1.0
141
50.0
290
     0
  0
SCALE
  5
53
102
{ACAD_REACTORS
330
47
102
}
330
47
100
AcDbScale
 70
     0
300
1:100
140
1.0
141
100.0
290
     0
  0
SCALE
  5
54
102
{ACAD_REACTORS
330
47
102
}
330
47
100
AcDbScale
 70
     0
300
2:1
140
2.0
141
1.0
290
     0
  0
SCALE
  5
55
102
{ACAD_REACTORS
330
47
102
}
330
47
100
AcDbScale
 70
     0
300
4:1
140
4.0
141
1.0
290
     0
  0
SCALE
  5
56
102
{ACAD_REACTORS
330
47
102
}
330
47
100
AcDbScale
 70
     0
300
8:1
140
8.0
141
1.0
290
     0
  0
SCALE
  5
57
102
{ACAD_REACTORS
330
47
102
}
330
47
100
AcDbScale
 70
     0
300
10:1
140
10.0
141
1.0
290
     0
  0
SCALE
  5
58
102
{ACAD_REACTORS
330
47
102
}
330
47
100
AcDbScale
 70
     0
300
100:1
140
100.0
141
1.0
290
     0
  0
SCALE
  5
59
102
{ACAD_REACTORS
330
47
102
}
330
47
100
AcDbScale
 70
     0
300
1/128" = 1'-0"
140
0.0078125
141
12.0
290
     0
  0
SCALE
  5
5A
102
{ACAD_REACTORS
330
47
102
}
330
47
100
AcDbScale
 70
     0
300
1/64" = 1'-0"
140
0.015625
141
12.0
290
     0
  0
SCALE
  5
5B
102
{ACAD_REACTORS
330
47
102
}
330
47
100
AcDbScale
 70
     0
300
1/32" = 1'-0"
140
0.03125
141
12.0
290
     0
  0
SCALE
  5
5C
102
{ACAD_REACTORS
330
47
102
}
330
47
100
AcDbScale
 70
     0
300
1/16" = 1'-0"
140
0.0625
141
12.0
290
     0
  0
SCALE
  5
5D
102
{ACAD_REACTORS
330
47
102
}
330
47
100
AcDbScale
 70
     0
300
3/32" = 1'-0"
140
0.09375
141
12.0
290
     0
  0
SCALE
  5
5E
102
{ACAD_REACTORS
330
47
102
}
330
47
100
AcDbScale
 70
     0
300
1/8" = 1'-0"
140
0.125
141
12.0
290
     0
  0
SCALE
  5
5F
102
{ACAD_REACTORS
330
47
102
}
330
47
100
AcDbScale
 70
     0
300
3/16" = 1'-0"
140
0.1875
141
12.0
290
     0
  0
SCALE
  5
60
102
{ACAD_REACTORS
330
47
102
}
330
47
100
AcDbScale
 70
     0
300
1/4" = 1'-0"
140
0.25
141
12.0
290
     0
  0
SCALE
  5
61
102
{ACAD_REACTORS
330
47
102
}
330
47
100
AcDbScale
 70
     0
300
3/8" = 1'-0"
140
0.375
141
12.0
290
     0
  0
SCALE
  5
62
102
{ACAD_REACTORS
330
47
102
}
330
47
100
AcDbScale
 70
     0
300
1/2" = 1'-0"
140
0.5
141
12.0
290
     0
  0
SCALE
  5
63
102
{ACAD_REACTORS
330
47
102
}
330
47
100
AcDbScale
 70
     0
300
3/4" = 1'-0"
140
0.75
141
12.0
290
     0
  0
SCALE
  5
64
102
{ACAD_REACTORS
330
47
102
}
330
47
100
AcDbScale
 70
     0
300
1" = 1'-0"
140
1.0
141
12.0
290
     0
  0
SCALE
  5
65
102
{ACAD_REACTORS
330
47
102
}
330
47
100
AcDbScale
 70
     0
300
1-1/2" = 1'-0"
140
1.5
141
12.0
290
     0
  0
SCALE
  5
66
102
{ACAD_REACTORS
330
47
102
}
330
47
100
AcDbScale
 70
     0
300
3" = 1'-0"
140
3.0
141
12.0
290
     0
  0
SCALE
  5
67
102
{ACAD_REACTORS
330
47
102
}
330
47
100
AcDbScale
 70
     0
300
6" = 1'-0"
140
6.0
141
12.0
290
     0
  0
SCALE
  5
68
102
{ACAD_REACTORS
330
47
102
}
330
47
100
AcDbScale
 70
     0
300
1'-0" = 1'-0"
140
12.0
141
12.0
290
     0
  0
ENDSEC
  0
EOF
