  0
SECTION
  2
HEADER
  9
$ACADVER
  1
AC1032
  9
$ACADMAINTVER
 90
        4
  9
$DWGCODEPAGE
  3
ANSI_932
  9
$LASTSAVEDBY
  1
9128
  9
$REQUIREDVERSIONS
160
                 0
  9
$INSBASE
 10
0.0
 20
0.0
 30
0.0
  9
$EXTMIN
 10
0.0
 20
-0.0000000000001705
 30
0.0
  9
$EXTMAX
 10
297.0000000000002
 20
210.0
 30
0.0
  9
$LIMMIN
 10
0.0
 20
0.0
  9
$LIMMAX
 10
210.0
 20
297.0
  9
$ORTHOMODE
 70
     0
  9
$REGENMODE
 70
     1
  9
$FILLMODE
 70
     1
  9
$QTEXTMODE
 70
     0
  9
$MIRRTEXT
 70
     1
  9
$LTSCALE
 40
1.0
  9
$ATTMODE
 70
     1
  9
$TEXTSIZE
 40
3.5
  9
$TRACEWID
 40
1.0
  9
$TEXTSTYLE
  7
Standard
  9
$CLAYER
  8
0
  9
$CELTYPE
  6
ByLayer
  9
$CECOLOR
 62
   256
  9
$CELTSCALE
 40
1.0
  9
$DISPSILH
 70
     0
  9
$DIMSCALE
 40
1.0
  9
$DIMASZ
 40
3.302
  9
$DIMEXO
 40
1.0
  9
$DIMDLI
 40
3.75
  9
$DIMRND
 40
0.0
  9
$DIMDLE
 40
0.0
  9
$DIMEXE
 40
1.0
  9
$DIMTP
 40
0.0
  9
$DIMTM
 40
0.0
  9
$DIMTXT
 40
3.5
  9
$DIMCEN
 40
2.5
  9
$DIMTSZ
 40
0.0
  9
$DIMTOL
 70
     0
  9
$DIMLIM
 70
     0
  9
$DIMTIH
 70
     1
  9
$DIMTOH
 70
     1
  9
$DIMSE1
 70
     0
  9
$DIMSE2
 70
     0
  9
$DIMTAD
 70
     1
  9
$DIMZIN
 70
     1
  9
$DIMBLK
  1

  9
$DIMASO
 70
     1
  9
$DIMSHO
 70
     1
  9
$DIMPOST
  1

  9
$DIMAPOST
  1

  9
$DIMALT
 70
     0
  9
$DIMALTD
 70
     3
  9
$DIMALTF
 40
0.0393700787401575
  9
$DIMLFAC
 40
100.0
  9
$DIMTOFL
 70
     1
  9
$DIMTVP
 40
0.0
  9
$DIMTIX
 70
     0
  9
$DIMSOXD
 70
     0
  9
$DIMSAH
 70
     0
  9
$DIMBLK1
  1

  9
$DIMBLK2
  1

  9
$DIMSTYLE
  2
ISO-25
  9
$DIMCLRD
 70
     0
  9
$DIMCLRE
 70
     0
  9
$DIMCLRT
 70
     0
  9
$DIMTFAC
 40
1.0
  9
$DIMGAP
 40
1.524
  9
$DIMJUST
 70
     0
  9
$DIMSD1
 70
     0
  9
$DIMSD2
 70
     0
  9
$DIMTOLJ
 70
     0
  9
$DIMTZIN
 70
     1
  9
$DIMALTZ
 70
     0
  9
$DIMALTTZ
 70
     0
  9
$DIMUPT
 70
     0
  9
$DIMDEC
 70
     2
  9
$DIMTDEC
 70
     2
  9
$DIMALTU
 70
     2
  9
$DIMALTTD
 70
     3
  9
$DIMTXSTY
  7
Standard
  9
$DIMAUNIT
 70
     0
  9
$DIMADEC
 70
     2
  9
$DIMALTRND
 40
0.0
  9
$DIMAZIN
 70
     0
  9
$DIMDSEP
 70
    44
  9
$DIMATFIT
 70
     3
  9
$DIMFRAC
 70
     0
  9
$DIMLDRBLK
  1

  9
$DIMLUNIT
 70
     2
  9
$DIMLWD
 70
    -2
  9
$DIMLWE
 70
    -2
  9
$DIMTMOVE
 70
     0
  9
$DIMFXL
 40
1.0
  9
$DIMFXLON
 70
     0
  9
$DIMJOGANG
 40
0.7853981633974483
  9
$DIMTFILL
 70
     0
  9
$DIMTFILLCLR
 70
     0
  9
$DIMARCSYM
 70
     0
  9
$DIMLTYPE
  6

  9
$DIMLTEX1
  6

  9
$DIMLTEX2
  6

  9
$DIMTXTDIRECTION
 70
     0
  9
$LUNITS
 70
     2
  9
$LUPREC
 70
     2
  9
$SKETCHINC
 40
1.0
  9
$FILLETRAD
 40
10.0
  9
$AUNITS
 70
     0
  9
$AUPREC
 70
     2
  9
$MENU
  1
.
  9
$ELEVATION
 40
0.0
  9
$PELEVATION
 40
0.0
  9
$THICKNESS
 40
0.0
  9
$LIMCHECK
 70
     0
  9
$CHAMFERA
 40
0.0
  9
$CHAMFERB
 40
0.0
  9
$CHAMFERC
 40
0.0
  9
$CHAMFERD
 40
0.0
  9
$SKPOLY
 70
     0
  9
$TDCREATE
 40
2459629.486316933
  9
$TDUCREATE
 40
2459629.111316933
  9
$TDUPDATE
 40
2459635.723985683
  9
$TDUUPDATE
 40
2459635.348985683
  9
$TDINDWG
 40
0.0033653588
  9
$TDUSRTIMER
 40
0.0000647454
  9
$USRTIMER
 70
     1
  9
$ANGBASE
 50
0.0
  9
$ANGDIR
 70
     0
  9
$PDMODE
 70
     0
  9
$PDSIZE
 40
-1.0
  9
$PLINEWID
 40
0.0
  9
$SPLFRAME
 70
     0
  9
$SPLINETYPE
 70
     6
  9
$SPLINESEGS
 70
     8
  9
$HANDSEED
  5
65F
  9
$SURFTAB1
 70
     6
  9
$SURFTAB2
 70
     6
  9
$SURFTYPE
 70
     6
  9
$SURFU
 70
     6
  9
$SURFV
 70
     6
  9
$UCSBASE
  2

  9
$UCSNAME
  2

  9
$UCSORG
 10
0.0
 20
0.0
 30
0.0
  9
$UCSXDIR
 10
1.0
 20
0.0
 30
0.0
  9
$UCSYDIR
 10
0.0
 20
1.0
 30
0.0
  9
$UCSORTHOREF
  2

  9
$UCSORTHOVIEW
 70
     0
  9
$UCSORGTOP
 10
0.0
 20
0.0
 30
0.0
  9
$UCSORGBOTTOM
 10
0.0
 20
0.0
 30
0.0
  9
$UCSORGLEFT
 10
0.0
 20
0.0
 30
0.0
  9
$UCSORGRIGHT
 10
0.0
 20
0.0
 30
0.0
  9
$UCSORGFRONT
 10
0.0
 20
0.0
 30
0.0
  9
$UCSORGBACK
 10
0.0
 20
0.0
 30
0.0
  9
$PUCSBASE
  2

  9
$PUCSNAME
  2

  9
$PUCSORG
 10
0.0
 20
0.0
 30
0.0
  9
$PUCSXDIR
 10
1.0
 20
0.0
 30
0.0
  9
$PUCSYDIR
 10
0.0
 20
1.0
 30
0.0
  9
$PUCSORTHOREF
  2

  9
$PUCSORTHOVIEW
 70
     0
  9
$PUCSORGTOP
 10
0.0
 20
0.0
 30
0.0
  9
$PUCSORGBOTTOM
 10
0.0
 20
0.0
 30
0.0
  9
$PUCSORGLEFT
 10
0.0
 20
0.0
 30
0.0
  9
$PUCSORGRIGHT
 10
0.0
 20
0.0
 30
0.0
  9
$PUCSORGFRONT
 10
0.0
 20
0.0
 30
0.0
  9
$PUCSORGBACK
 10
0.0
 20
0.0
 30
0.0
  9
$USERI1
 70
     0
  9
$USERI2
 70
     0
  9
$USERI3
 70
     0
  9
$USERI4
 70
     0
  9
$USERI5
 70
     0
  9
$USERR1
 40
0.0
  9
$USERR2
 40
0.0
  9
$USERR3
 40
0.0
  9
$USERR4
 40
0.0
  9
$USERR5
 40
0.0
  9
$WORLDVIEW
 70
     1
  9
$SHADEDGE
 70
     3
  9
$SHADEDIF
 70
    70
  9
$TILEMODE
 70
     1
  9
$MAXACTVP
 70
    64
  9
$PINSBASE
 10
0.0
 20
0.0
 30
0.0
  9
$PLIMCHECK
 70
     0
  9
$PEXTMIN
 10
1.000000000000000E+20
 20
1.000000000000000E+20
 30
1.000000000000000E+20
  9
$PEXTMAX
 10
-1.000000000000000E+20
 20
-1.000000000000000E+20
 30
-1.000000000000000E+20
  9
$PLIMMIN
 10
0.0
 20
0.0
  9
$PLIMMAX
 10
0.0
 20
0.0
  9
$UNITMODE
 70
     0
  9
$VISRETAIN
 70
     1
  9
$PLINEGEN
 70
     0
  9
$PSLTSCALE
 70
     1
  9
$TREEDEPTH
 70
  3020
  9
$CMLSTYLE
  2
Standard
  9
$CMLJUST
 70
     0
  9
$CMLSCALE
 40
20.0
  9
$PROXYGRAPHICS
 70
     1
  9
$MEASUREMENT
 70
     1
  9
$CELWEIGHT
370
    -1
  9
$ENDCAPS
280
     0
  9
$JOINSTYLE
280
     0
  9
$LWDISPLAY
290
     1
  9
$INSUNITS
 70
     4
  9
$HYPERLINKBASE
  1

  9
$STYLESHEET
  1

  9
$XEDIT
290
     1
  9
$CEPSNTYPE
380
     0
  9
$PSTYLEMODE
290
     1
  9
$FINGERPRINTGUID
  2
{0d375390-5716-4af1-a86c-5130061aa51d}
  9
$VERSIONGUID
  2
{FAEB1C32-E019-11D5-929B-00C0DF256EC4}
  9
$EXTNAMES
290
     1
  9
$PSVPSCALE
 40
0.0
  9
$OLESTARTUP
290
     0
  9
$SORTENTS
280
   127
  9
$INDEXCTL
280
     0
  9
$HIDETEXT
280
     1
  9
$XCLIPFRAME
280
     2
  9
$HALOGAP
280
     0
  9
$OBSCOLOR
 70
   257
  9
$OBSLTYPE
280
     0
  9
$INTERSECTIONDISPLAY
280
     0
  9
$INTERSECTIONCOLOR
 70
   257
  9
$DIMASSOC
280
     2
  9
$PROJECTNAME
  1

  9
$CAMERADISPLAY
290
     0
  9
$LENSLENGTH
 40
50.0
  9
$CAMERAHEIGHT
 40
0.0
  9
$STEPSPERSEC
 40
2.0
  9
$STEPSIZE
 40
6.0
  9
$3DDWFPREC
 40
2.0
  9
$PSOLWIDTH
 40
0.25
  9
$PSOLHEIGHT
 40
4.0
  9
$LOFTANG1
 40
1.570796326794897
  9
$LOFTANG2
 40
1.570796326794897
  9
$LOFTMAG1
 40
0.0
  9
$LOFTMAG2
 40
0.0
  9
$LOFTPARAM
 70
     7
  9
$LOFTNORMALS
280
     1
  9
$LATITUDE
 40
37.795
  9
$LONGITUDE
 40
-122.394
  9
$NORTHDIRECTION
 40
0.0
  9
$TIMEZONE
 70
 -8000
  9
$LIGHTGLYPHDISPLAY
280
     1
  9
$TILEMODELIGHTSYNCH
280
     1
  9
$SOLIDHIST
280
     0
  9
$SHOWHIST
280
     1
  9
$DWFFRAME
280
     2
  9
$DGNFRAME
280
     2
  9
$REALWORLDSCALE
290
     1
  9
$INTERFERECOLOR
 62
   256
  9
$CSHADOW
280
     0
  9
$SHADOWPLANELOCATION
 40
0.0
  0
ENDSEC
  0
SECTION
  2
CLASSES
  0
CLASS
  1
ACDBDICTIONARYWDFLT
  2
AcDbDictionaryWithDefault
  3
ObjectDBX Classes
 90
        0
 91
        3
280
     0
281
     0
  0
CLASS
  1
VISUALSTYLE
  2
AcDbVisualStyle
  3
ObjectDBX Classes
 90
     4095
 91
        3
280
     0
281
     0
  0
CLASS
  1
MATERIAL
  2
AcDbMaterial
  3
ObjectDBX Classes
 90
     1153
 91
        3
280
     0
281
     0
  0
CLASS
  1
SCALE
  2
AcDbScale
  3
ObjectDBX Classes
 90
     1153
 91
        3
280
     0
281
     0
  0
CLASS
  1
TABLESTYLE
  2
AcDbTableStyle
  3
ObjectDBX Classes
 90
     4095
 91
        3
280
     0
281
     0
  0
CLASS
  1
MLEADERSTYLE
  2
AcDbMLeaderStyle
  3
ACDB_MLEADERSTYLE_CLASS
 90
     4095
 91
        3
280
     0
281
     0
  0
CLASS
  1
SUN
  2
AcDbSun
  3
SCENEOE
 90
     1153
 91
        3
280
     0
281
     0
  0
CLASS
  1
ACDBPLACEHOLDER
  2
AcDbPlaceHolder
  3
ObjectDBX Classes
 90
        0
 91
        1
280
     0
281
     0
  0
CLASS
  1
LAYOUT
  2
AcDbLayout
  3
ObjectDBX Classes
 90
        0
 91
        1
280
     0
281
     0
  0
CLASS
  1
DICTIONARYVAR
  2
AcDbDictionaryVar
  3
ObjectDBX Classes
 90
        0
 91
        3
280
     0
281
     0
  0
CLASS
  1
CELLSTYLEMAP
  2
AcDbCellStyleMap
  3
ObjectDBX Classes
 90
     1152
 91
        3
280
     0
281
     0
  0
ENDSEC
  0
SECTION
  2
TABLES
  0
TABLE
  2
VPORT
  5
8
330
0
100
AcDbSymbolTable
 70
     1
  0
VPORT
  5
29
330
8
100
AcDbSymbolTableRecord
100
AcDbViewportTableRecord
  2
*Active
 70
     0
 10
0.0
 20
0.0
 11
1.0
 21
1.0
 12
271.0367659027527
 22
88.3058828581432
 13
0.0
 23
0.0
 14
10.0
 24
10.0
 15
10.0
 25
10.0
 16
0.0
 26
0.0
 36
1.0
 17
0.0
 27
0.0
 37
0.0
 40
371.2499999999981
 41
2.260623229461757
 42
50.0
 43
0.0
 44
0.0
 50
0.0
 51
0.0
 71
    16
 72
  2000
 73
     1
 74
     3
 75
     0
 76
     0
 77
     0
 78
     0
281
     0
 65
     1
110
0.0
120
0.0
130
0.0
111
1.0
121
0.0
131
0.0
112
0.0
122
1.0
132
0.0
 79
     0
146
0.0
348
17B
 60
     3
 61
     5
292
     1
282
     1
141
0.0
142
0.0
 63
   256
361
4A8
  0
ENDTAB
  0
TABLE
  2
LTYPE
  5
5
330
0
100
AcDbSymbolTable
 70
     6
  0
LTYPE
  5
14
330
5
100
AcDbSymbolTableRecord
100
AcDbLinetypeTableRecord
  2
ByBlock
 70
     0
  3

 72
    65
 73
     0
 40
0.0
  0
LTYPE
  5
15
330
5
100
AcDbSymbolTableRecord
100
AcDbLinetypeTableRecord
  2
ByLayer
 70
     0
  3

 72
    65
 73
     0
 40
0.0
  0
LTYPE
  5
16
330
5
100
AcDbSymbolTableRecord
100
AcDbLinetypeTableRecord
  2
Continuous
 70
     0
  3
Solid line
 72
    65
 73
     0
 40
0.0
  0
LTYPE
  5
6E
330
5
100
AcDbSymbolTableRecord
100
AcDbLinetypeTableRecord
  2
HIDDEN
 70
     0
  3
Hidden __ __ __ __ __ __ __ __ __ __ __ __ __ __
 72
    65
 73
     2
 40
1.905
 49
1.27
 74
     0
 49
-0.635
 74
     0
  0
LTYPE
  5
6F
330
5
100
AcDbSymbolTableRecord
100
AcDbLinetypeTableRecord
  2
PHANTOM
 70
     0
  3
Phantom ______  __  __  ______  __  __  ______
 72
    65
 73
     6
 40
12.7
 49
6.35
 74
     0
 49
-1.27
 74
     0
 49
1.27
 74
     0
 49
-1.27
 74
     0
 49
1.27
 74
     0
 49
-1.27
 74
     0
  0
LTYPE
  5
70
330
5
100
AcDbSymbolTableRecord
100
AcDbLinetypeTableRecord
  2
CENTER
 70
     0
  3
Center ____ _ ____ _ ____ _ ____ _ ____ _ ____
 72
    65
 73
     4
 40
10.16
 49
6.35
 74
     0
 49
-1.27
 74
     0
 49
1.27
 74
     0
 49
-1.27
 74
     0
  0
LTYPE
  5
71
330
5
100
AcDbSymbolTableRecord
100
AcDbLinetypeTableRecord
  2
CENTERX2
 70
     0
  3
Center (2x) ________  __  ________  __  _____
 72
    65
 73
     4
 40
20.32
 49
12.7
 74
     0
 49
-2.54
 74
     0
 49
2.54
 74
     0
 49
-2.54
 74
     0
  0
LTYPE
  5
72
330
5
100
AcDbSymbolTableRecord
100
AcDbLinetypeTableRecord
  2
DOT2
 70
     0
  3
Dot (.5x) ........................................
 72
    65
 73
     2
 40
0.635
 49
0.0
 74
     0
 49
-0.635
 74
     0
  0
ENDTAB
  0
TABLE
  2
LAYER
  5
2
102
{ACAD_XDICTIONARY
360
617
102
}
330
0
100
AcDbSymbolTable
 70
     2
  0
LAYER
  5
10
330
2
100
AcDbSymbolTableRecord
100
AcDbLayerTableRecord
  2
0
 70
     0
 62
     7
  6
Continuous
370
    -3
390
F
347
192
348
0
  0
LAYER
  5
73
330
2
100
AcDbSymbolTableRecord
100
AcDbLayerTableRecord
  2
FORMAT
 70
     0
 62
    -7
  6
Continuous
370
    -3
390
F
347
192
348
0
  0
ENDTAB
  0
TABLE
  2
STYLE
  5
3
330
0
100
AcDbSymbolTable
 70
     2
  0
STYLE
  5
11
330
3
100
AcDbSymbolTableRecord
100
AcDbTextStyleTableRecord
  2
Standard
 70
     0
 40
0.0
 41
1.0
 50
0.0
 71
     0
 42
3.5
  3
txt
  4
bigfont
  0
STYLE
  5
603
330
3
100
AcDbSymbolTableRecord
100
AcDbTextStyleTableRecord
  2
Arial
 70
     0
 40
0.0
 41
1.0
 50
0.0
 71
     0
 42
3.5
  3
Arial
  4

1001
ACAD
1000
Arial
1071
        0
  0
ENDTAB
  0
TABLE
  2
VIEW
  5
6
330
0
100
AcDbSymbolTable
 70
     0
  0
ENDTAB
  0
TABLE
  2
UCS
  5
7
330
0
100
AcDbSymbolTable
 70
     0
  0
ENDTAB
  0
TABLE
  2
APPID
  5
9
330
0
100
AcDbSymbolTable
 70
     2
  0
APPID
  5
12
330
9
100
AcDbSymbolTableRecord
100
AcDbRegAppTableRecord
  2
ACAD
 70
     0
  0
APPID
  5
61A
330
9
100
AcDbSymbolTableRecord
100
AcDbRegAppTableRecord
  2
PLOTTRANSPARENCY
 70
     0
  0
ENDTAB
  0
TABLE
  2
DIMSTYLE
  5
A
330
0
100
AcDbSymbolTable
 70
     2
100
AcDbDimStyleTable
  0
DIMSTYLE
105
27
330
A
100
AcDbSymbolTableRecord
100
AcDbDimStyleTableRecord
  2
ISO-25
 70
     0
 41
2.5
 42
0.625
 43
3.75
 44
1.25
 73
     0
 74
     0
 77
     1
 78
     8
140
2.5
141
2.5
143
0.03937007874016
147
0.625
171
     3
172
     1
178
     0
271
     2
272
     2
274
     3
278
    44
283
     0
284
     8
340
11
  0
DIMSTYLE
105
602
330
A
100
AcDbSymbolTableRecord
100
AcDbDimStyleTableRecord
  2
Standard
 70
     0
178
     0
340
11
  0
ENDTAB
  0
TABLE
  2
BLOCK_RECORD
  5
1
330
0
100
AcDbSymbolTable
 70
     2
  0
BLOCK_RECORD
  5
1F
330
1
100
AcDbSymbolTableRecord
100
AcDbBlockTableRecord
  2
*Model_Space
340
22
 70
     0
280
     1
281
     0
  0
BLOCK_RECORD
  5
1B
330
1
100
AcDbSymbolTableRecord
100
AcDbBlockTableRecord
  2
*Paper_Space
340
1E
 70
     0
280
     1
281
     0
  0
BLOCK_RECORD
  5
23
330
1
100
AcDbSymbolTableRecord
100
AcDbBlockTableRecord
  2
*Paper_Space0
340
26
 70
     0
280
     1
281
     0
  0
BLOCK_RECORD
  5
74
330
1
100
AcDbSymbolTableRecord
100
AcDbBlockTableRecord
  2
SW_BROKEN_VIEW_0
340
0
102
{BLKREFS
331
77
102
}
 70
     0
280
     1
281
     0
  0
ENDTAB
  0
ENDSEC
  0
SECTION
  2
BLOCKS
  0
BLOCK
  5
20
330
1F
100
AcDbEntity
  8
0
100
AcDbBlockBegin
  2
*Model_Space
 70
     0
 10
0.0
 20
0.0
 30
0.0
  3
*Model_Space
  1

  0
ENDBLK
  5
21
330
1F
100
AcDbEntity
  8
0
100
AcDbBlockEnd
  0
BLOCK
  5
1C
330
1B
100
AcDbEntity
 67
     1
  8
0
100
AcDbBlockBegin
  2
*Paper_Space
 70
     0
 10
0.0
 20
0.0
 30
0.0
  3
*Paper_Space
  1

  0
ENDBLK
  5
1D
330
1B
100
AcDbEntity
 67
     1
  8
0
100
AcDbBlockEnd
  0
BLOCK
  5
24
330
23
100
AcDbEntity
  8
0
100
AcDbBlockBegin
  2
*Paper_Space0
 70
     0
 10
0.0
 20
0.0
 30
0.0
  3
*Paper_Space0
  1

  0
ENDBLK
  5
25
330
23
100
AcDbEntity
  8
0
100
AcDbBlockEnd
  0
BLOCK
  5
75
330
74
100
AcDbEntity
  8
0
100
AcDbBlockBegin
  2
SW_BROKEN_VIEW_0
 70
     0
 10
0.0
 20
0.0
 30
0.0
  3
SW_BROKEN_VIEW_0
  1

  0
ENDBLK
  5
76
330
74
100
AcDbEntity
  8
0
100
AcDbBlockEnd
  0
ENDSEC
  0
SECTION
  2
ENTITIES
  0
INSERT
  5
77
330
1F
100
AcDbEntity
  8
0
  6
Continuous
 62
     7
100
AcDbBlockReference
  2
SW_BROKEN_VIEW_0
 10
0.0
 20
0.0
 30
0.0
  0
LINE
  5
78
330
1F
100
AcDbEntity
  8
0
  6
Continuous
 62
     0
370
     0
100
AcDbLine
 10
287.2447016187031
 20
133.0741931774089
 30
0.0
 11
289.8527100034077
 21
133.4235964991519
 31
0.0
  0
LINE
  5
79
330
1F
100
AcDbEntity
  8
0
  6
Continuous
 62
     0
370
     0
100
AcDbLine
 10
289.8168542332966
 20
133.6912058569858
 30
0.0
 11
287.208845848592
 21
133.3417998530337
 31
0.0
  0
LINE
  5
7A
330
1F
100
AcDbEntity
  8
0
  6
Continuous
 62
     0
370
     0
100
AcDbLine
 10
289.8398997731526
 20
133.66350400228
 30
0.0
 11
289.8527100034077
 21
133.6652179338405
 31
0.0
  0
LINE
  5
7B
330
1F
100
AcDbEntity
  8
0
  6
Continuous
 62
     0
370
     0
100
AcDbLine
 10
289.8168542332966
 20
133.9328272916743
 30
0.0
 11
287.208845848592
 21
133.5834212877223
 31
0.0
  0
LINE
  5
7C
330
1F
100
AcDbEntity
  8
0
  6
Continuous
 62
     0
370
     0
100
AcDbLine
 10
284.162392849477
 20
132.5777431108424
 30
0.0
 11
287.2715880818684
 21
132.9942955352733
 31
0.0
  0
LINE
  5
7D
330
1F
100
AcDbEntity
  8
0
  6
Continuous
 62
     0
370
     0
100
AcDbLine
 10
287.1819593854268
 20
133.6633189298579
 30
0.0
 11
283.9231398053486
 21
133.2267196752498
 31
0.0
  0
LWPOLYLINE
  5
7E
330
1F
100
AcDbEntity
  8
0
  6
Continuous
 62
     0
370
     0
100
AcDbPolyline
 90
       17
 70
   128
 43
0.0
 10
289.8024990506489
 20
133.6623801567027
 10
289.7998382993061
 20
133.6226029970119
 10
289.8024990506489
 20
133.5728989817569
 10
289.810073608907
 20
133.5208346225688
 10
289.8214032597859
 20
133.4743385292956
 10
289.8347713895161
 20
133.4404890515277
 10
289.8481395192463
 20
133.4244387127826
 10
289.8594906277974
 20
133.4286283232639
 10
289.8670651860554
 20
133.452424881644
 10
289.8697259373982
 20
133.4922020413348
 10
289.8670651860554
 20
133.5419060565898
 10
289.8594906277974
 20
133.5939704157779
 10
289.8481395192463
 20
133.640466509051
 10
289.8347713895161
 20
133.674315986819
 10
289.8214032597859
 20
133.6903663255641
 10
289.810073608907
 20
133.6861767150828
 10
289.8024990506489
 20
133.6623801567027
  0
ARC
  5
7F
330
1F
100
AcDbEntity
  8
0
  6
Continuous
 62
     0
370
     0
100
AcDbCircle
 10
287.4292885193607
 20
133.2297600029014
 30
0.0
 40
0.2413987595001321
100
AcDbArc
 50
169.6338080240744
 51
220.1236422582048
  0
LWPOLYLINE
  5
80
330
1F
100
AcDbEntity
  8
0
  6
Continuous
 62
     0
370
     0
100
AcDbPolyline
 90
        4
 70
   128
 43
0.0
 10
287.208845848592
 20
133.3417998530337
 10
287.2020652242024
 20
133.3367707111308
 10
287.1944906659443
 20
133.3129741527507
 10
287.1918299146016
 20
133.2731969930598
  0
ARC
  5
81
330
1F
100
AcDbEntity
  8
0
  6
Continuous
 62
     0
370
     0
100
AcDbCircle
 10
287.6805108748352
 20
133.511657329288
 30
0.0
 40
0.4886911841217762
100
AcDbArc
 50
179.6293797200543
 51
200.1246467112818
  0
LWPOLYLINE
  5
82
330
1F
100
AcDbEntity
  8
0
  6
Continuous
 62
     0
370
     0
100
AcDbPolyline
 90
        4
 70
   128
 43
0.0
 10
287.208845848592
 20
133.5834212877223
 10
287.2020652242024
 20
133.5783921458194
 10
287.1944906659443
 20
133.5545955874393
 10
287.1918299146016
 20
133.5148184277484
  0
LWPOLYLINE
  5
83
330
1F
100
AcDbEntity
  8
0
  6
Continuous
 62
     0
370
     0
100
AcDbPolyline
 90
       17
 70
   128
 43
0.0
 10
289.8024990506489
 20
133.9040015913913
 10
289.7998382993061
 20
133.8642244317004
 10
289.8024990506489
 20
133.8145204164454
 10
289.810073608907
 20
133.7624560572574
 10
289.8214032597859
 20
133.7159599639843
 10
289.8347713895161
 20
133.6821104862163
 10
289.8481395192463
 20
133.6660574652622
 10
289.8594906277974
 20
133.6702497579524
 10
289.8670651860554
 20
133.6940463163326
 10
289.8697259373982
 20
133.7338234760234
 10
289.8670651860554
 20
133.7835274912784
 10
289.8594906277974
 20
133.8355891682574
 10
289.8481395192463
 20
133.8820852615306
 10
289.8347713895161
 20
133.9159374215076
 10
289.8214032597859
 20
133.9319877602527
 10
289.810073608907
 20
133.9277981497714
 10
289.8024990506489
 20
133.9040015913913
  0
LWPOLYLINE
  5
84
330
1F
100
AcDbEntity
  8
0
  6
Continuous
 62
     0
370
     0
100
AcDbPolyline
 90
       10
 70
   128
 43
0.0
 10
287.1394302792866
 20
133.4918077566097
 10
287.1437003560383
 20
133.3935074784228
 10
287.1561028905232
 20
133.2888771869609
 10
287.1754362531025
 20
133.1881548740337
 10
287.1997907109578
 20
133.1011976577709
 10
287.2267844624836
 20
133.0365242340037
 10
287.2537782140095
 20
133.0004592515895
 10
287.2781326718647
 20
132.9965351798007
 10
287.297444576772
 20
133.0251382567355
 10
287.3097827382405
 20
133.0829103567073
  0
LWPOLYLINE
  5
85
330
1F
100
AcDbEntity
  8
0
  6
Continuous
 62
     0
370
     0
100
AcDbPolyline
 90
        7
 70
   128
 43
0.0
 10
287.2421266980488
 20
133.5878818013141
 10
287.2267844624836
 20
133.6210902311275
 10
287.1997907109578
 20
133.6571552135417
 10
287.1754362531025
 20
133.6610792853305
 10
287.1561028905232
 20
133.6324762083957
 10
287.1437003560383
 20
133.5741488911578
 10
287.1394302792866
 20
133.4918077566097
  0
LINE
  5
86
330
1F
100
AcDbEntity
  8
0
  6
Continuous
 62
     0
370
     0
100
AcDbLine
 10
266.4272811656902
 20
130.6252196361653
 30
0.0
 11
267.7312853580425
 21
130.7999226381413
 31
0.0
  0
LINE
  5
87
330
1F
100
AcDbEntity
  8
0
  6
Continuous
 62
     0
370
     0
100
AcDbLine
 10
267.7097847705791
 20
131.6729253460996
 30
0.0
 11
266.4057805782268
 21
131.4982223441235
 31
0.0
  0
LINE
  5
88
330
1F
100
AcDbEntity
  8
0
  6
Continuous
 62
     0
370
     0
100
AcDbLine
 10
199.9231102710674
 20
121.7153504421346
 30
0.0
 11
201.2271144634197
 21
121.8900534441106
 31
0.0
  0
LINE
  5
89
330
1F
100
AcDbEntity
  8
0
  6
Continuous
 62
     0
370
     0
100
AcDbLine
 10
201.2056138759563
 20
122.7630561520689
 30
0.0
 11
199.901609683604
 21
122.5883531500928
 31
0.0
  0
LINE
  5
8A
330
1F
100
AcDbEntity
  8
0
  6
Continuous
 62
     0
370
     0
100
AcDbLine
 10
190.4297855144451
 20
119.8597258259885
 30
0.0
 11
277.3631086593578
 21
131.506582789623
 31
0.0
  0
LINE
  5
8B
330
1F
100
AcDbEntity
  8
0
  6
Continuous
 62
     0
370
     0
100
AcDbLine
 10
279.2247226482341
 20
131.9162177970045
 30
0.0
 11
283.647320533366
 21
132.5087338616483
 31
0.0
  0
LINE
  5
8C
330
1F
100
AcDbEntity
  8
0
  6
Continuous
 62
     0
370
     0
100
AcDbLine
 10
283.4080782180736
 20
133.1577144493692
 30
0.0
 11
279.1350832229564
 21
132.5852411915891
 31
0.0
  0
LINE
  5
8D
330
1F
100
AcDbEntity
  8
0
  6
Continuous
 62
     0
370
     0
100
AcDbLine
 10
279.1029718166301
 20
132.255817644798
 30
0.0
 11
278.7911060100506
 21
132.2140368749731
 31
0.0
  0
LINE
  5
8E
330
1F
100
AcDbEntity
  8
0
  6
Continuous
 62
     0
370
     0
100
AcDbLine
 10
278.8269617801616
 20
131.9464275171392
 30
0.0
 11
279.164544606776
 21
131.9916549255483
 31
0.0
  0
LINE
  5
8F
330
1F
100
AcDbEntity
  8
0
  6
Continuous
 62
     0
370
     0
100
AcDbLine
 10
278.6336710697124
 20
132.1722802450292
 30
0.0
 11
278.3212151771496
 21
132.0463746716611
 31
0.0
  0
LINE
  5
90
330
1F
100
AcDbEntity
  8
0
  6
Continuous
 62
     0
370
     0
100
AcDbLine
 10
278.4221306091259
 20
131.7959421803587
 30
0.0
 11
278.7345865016887
 21
131.9218450715177
 31
0.0
  0
SPLINE
  5
91
330
1F
100
AcDbEntity
  8
0
  6
Continuous
 62
     0
370
     0
100
AcDbSpline
210
0.0
220
0.0
230
1.0
 70
     8
 71
     3
 72
     9
 73
     5
 74
     0
 42
0.000000001
 43
0.00000001
 40
0.0
 40
0.0
 40
0.0
 40
0.0
 40
0.4557884769620172
 40
1.0
 40
1.0
 40
1.0
 40
1.0
 10
278.7345865016887
 20
131.9218450715177
 30
0.0
 10
278.748253992339
 20
131.9269291404671
 30
0.0
 10
278.7782404692712
 20
131.9380835886516
 30
0.0
 10
278.8097914000625
 20
131.9434869471702
 30
0.0
 10
278.8269617801616
 20
131.9464275171392
 30
0.0
  0
SPLINE
  5
92
330
1F
100
AcDbEntity
  8
0
  6
Continuous
 62
     0
370
     0
100
AcDbSpline
210
0.0
220
0.0
230
1.0
 70
     8
 71
     3
 72
     9
 73
     5
 74
     0
 42
0.000000001
 43
0.00000001
 40
0.0
 40
0.0
 40
0.0
 40
0.0
 40
0.4488556504486779
 40
1.0
 40
1.0
 40
1.0
 40
1.0
 10
278.7911060100506
 20
132.2140368749731
 30
0.0
 10
278.7669595370788
 20
132.2100775904728
 30
0.0
 10
278.7131639060167
 20
132.2012567490813
 30
0.0
 10
278.6619160409632
 20
132.1825760221325
 30
0.0
 10
278.6336710697124
 20
132.1722802450292
 30
0.0
  0
LINE
  5
93
330
1F
100
AcDbEntity
  8
0
  6
Continuous
 62
     0
370
     0
100
AcDbLine
 10
190.5407860523174
 20
119.7359150578611
 30
0.0
 11
277.4740984683941
 21
131.3827720214955
 31
0.0
  0
SPLINE
  5
94
330
1F
100
AcDbEntity
  8
0
  6
Continuous
 62
     0
370
     0
100
AcDbSpline
210
0.0
220
0.0
230
1.0
 70
     8
 71
     3
 72
     9
 73
     5
 74
     0
 42
0.000000001
 43
0.00000001
 40
0.0
 40
0.0
 40
0.0
 40
0.0
 40
0.4488200692166397
 40
1.0
 40
1.0
 40
1.0
 40
1.0
 10
278.2647063976238
 20
131.7541855504148
 30
0.0
 10
278.2888492273945
 20
131.7581451317863
 30
0.0
 10
278.3426410059412
 20
131.7669673339181
 30
0.0
 10
278.3938856111654
 20
131.7856465637518
 30
0.0
 10
278.4221306091259
 20
131.7959421803587
 30
0.0
  0
SPLINE
  5
95
330
1F
100
AcDbEntity
  8
0
  6
Continuous
 62
     0
370
     0
100
AcDbSpline
210
0.0
220
0.0
230
1.0
 70
     8
 71
     3
 72
     9
 73
     5
 74
     0
 42
0.000000001
 43
0.00000001
 40
0.0
 40
0.0
 40
0.0
 40
0.0
 40
0.4558335810209669
 40
0.9999999999999999
 40
0.9999999999999999
 40
0.9999999999999999
 40
0.9999999999999999
 10
278.3212151771496
 20
132.0463746716611
 30
0.0
 10
278.3075476051121
 20
132.0412917829295
 30
0.0
 10
278.2775639167518
 20
132.0301410276029
 30
0.0
 10
278.2460172591893
 20
132.0247360924537
 30
0.0
 10
278.2288506275127
 20
132.0217949082487
 30
0.0
  0
LINE
  5
96
330
1F
100
AcDbEntity
  8
0
  6
Continuous
 62
     0
370
     0
100
AcDbLine
 10
279.0968885665844
 20
132.4966236879461
 30
0.0
 11
278.7911060100506
 21
132.4556583096616
 31
0.0
  0
LINE
  5
97
330
1F
100
AcDbEntity
  8
0
  6
Continuous
 62
     0
370
     0
100
AcDbLine
 10
278.2288506275127
 20
132.0217949082487
 30
0.0
 11
277.4233081584881
 21
131.9138735463254
 31
0.0
  0
LINE
  5
98
330
1F
100
AcDbEntity
  8
0
  6
Continuous
 62
     0
370
     0
100
AcDbLine
 10
277.4591639285991
 20
131.6462641884916
 30
0.0
 11
278.2647063976238
 21
131.7541855504148
 31
0.0
  0
SPLINE
  5
99
330
1F
100
AcDbEntity
  8
0
  6
Continuous
 62
     0
370
     0
100
AcDbSpline
210
0.0
220
0.0
230
1.0
 70
     8
 71
     3
 72
     9
 73
     5
 74
     0
 42
0.000000001
 43
0.00000001
 40
0.0
 40
0.0
 40
0.0
 40
0.0
 40
0.461732305006084
 40
1.0
 40
1.0
 40
1.0
 40
1.0
 10
278.7911060100506
 20
132.4556583096616
 30
0.0
 10
278.7774339642725
 20
132.4542074752375
 30
0.0
 10
278.7478236345861
 20
132.4510653203387
 30
0.0
 10
278.7181620294509
 20
132.4538453882508
 30
0.0
 10
278.7021961456249
 20
132.4553418089979
 30
0.0
  0
LINE
  5
9A
330
1F
100
AcDbEntity
  8
0
  6
Continuous
 62
     0
370
     0
100
AcDbLine
 10
278.7021961456249
 20
132.4553418089979
 30
0.0
 11
278.389740253062
 21
132.4975222279661
 31
0.0
  0
LINE
  5
9B
330
1F
100
AcDbEntity
  8
0
  6
Continuous
 62
     0
370
     0
100
AcDbLine
 10
278.3536162620495
 20
132.2299504210584
 30
0.0
 11
278.6660721546123
 21
132.1877673198812
 31
0.0
  0
SPLINE
  5
9C
330
1F
100
AcDbEntity
  8
0
  6
Continuous
 62
     0
370
     0
100
AcDbSpline
210
0.0
220
0.0
230
1.0
 70
     8
 71
     3
 72
     9
 73
     5
 74
     0
 42
0.000000001
 43
0.00000001
 40
0.0
 40
0.0
 40
0.0
 40
0.0
 40
0.4617323050059549
 40
0.9999999999999999
 40
0.9999999999999999
 40
0.9999999999999999
 40
0.9999999999999999
 10
278.2647063976238
 20
132.2296339203947
 30
0.0
 10
278.2783784434018
 20
132.2310847548188
 30
0.0
 10
278.3079887730882
 20
132.2342269097176
 30
0.0
 10
278.3376503782234
 20
132.2314468418054
 30
0.0
 10
278.3536162620495
 20
132.2299504210584
 30
0.0
  0
SPLINE
  5
9D
330
1F
100
AcDbEntity
  8
0
  6
Continuous
 62
     0
370
     0
100
AcDbSpline
210
0.0
220
0.0
230
1.0
 70
     8
 71
     3
 72
     9
 73
     5
 74
     0
 42
0.000000001
 43
0.00000001
 40
0.0
 40
0.0
 40
0.0
 40
0.0
 40
0.4482252246700886
 40
0.9999999999999999
 40
0.9999999999999999
 40
0.9999999999999999
 40
0.9999999999999999
 10
278.389740253062
 20
132.4975222279661
 30
0.0
 10
278.3657149921312
 20
132.4999794027374
 30
0.0
 10
278.312114124513
 20
132.5054614118616
 30
0.0
 10
278.2584571774327
 20
132.500165454121
 30
0.0
 10
278.2288506275127
 20
132.4972432782285
 30
0.0
  0
LINE
  5
9E
330
1F
100
AcDbEntity
  8
0
  6
Continuous
 62
     0
370
     0
100
AcDbLine
 10
278.2288506275127
 20
132.4972432782285
 30
0.0
 11
277.4233081584881
 21
132.3893219163053
 31
0.0
  0
LINE
  5
9F
330
1F
100
AcDbEntity
  8
0
  6
Continuous
 62
     0
370
     0
100
AcDbLine
 10
277.4591639285991
 20
132.1217125584714
 30
0.0
 11
278.2647063976238
 21
132.2296339203947
 31
0.0
  0
LINE
  5
A0
330
1F
100
AcDbEntity
  8
0
  6
Continuous
 62
     0
370
     0
100
AcDbLine
 10
267.785401607127
 20
131.6743388702505
 30
0.0
 11
267.785401607127
 21
131.4404234220616
 31
0.0
  0
LINE
  5
A1
330
1F
100
AcDbEntity
  8
0
  6
Continuous
 62
     0
370
     0
100
AcDbLine
 10
267.7737500911663
 20
131.438862376415
 30
0.0
 11
267.7496316677044
 21
131.4838778903119
 31
0.0
  0
LWPOLYLINE
  5
A2
330
1F
100
AcDbEntity
  8
0
  6
Continuous
 62
     0
370
     0
100
AcDbPolyline
 90
        9
 70
   128
 43
0.0
 10
267.7449753528545
 20
131.4758822252385
 10
267.7450182681987
 20
131.4790123631589
 10
267.7452328449199
 20
131.4816918899648
 10
267.7456405406902
 20
131.4838108350865
 10
267.7462198978374
 20
131.4852806856267
 10
267.7469280010174
 20
131.4860370685689
 10
267.74776485023
 20
131.486053161823
 10
267.7486875301311
 20
131.4853209187619
 10
267.7496316677044
 20
131.4838778903119
  0
LINE
  5
A3
330
1F
100
AcDbEntity
  8
0
  6
Continuous
 62
     0
370
     0
100
AcDbLine
 10
267.7449753528545
 20
131.4758822252385
 30
0.0
 11
267.7504470592449
 21
131.2015458871953
 31
0.0
  0
LINE
  5
A4
330
1F
100
AcDbEntity
  8
0
  6
Continuous
 62
     0
370
     0
100
AcDbLine
 10
267.7543308978985
 20
131.0076758195989
 30
0.0
 11
267.7548887973736
 21
130.9795260359876
 31
0.0
  0
ARC
  5
A5
330
1F
100
AcDbEntity
  8
0
  6
Continuous
 62
     0
370
     0
100
AcDbCircle
 10
267.8708199558545
 20
130.9826513996234
 30
0.0
 40
0.1159732788386631
100
AcDbArc
 50
181.5442507925868
 51
192.8311372653631
  0
LINE
  5
A6
330
1F
100
AcDbEntity
  8
0
  6
Continuous
 62
     0
370
     0
100
AcDbLine
 10
267.7577426677654
 20
130.956896238529
 30
0.0
 11
267.7737500911663
 21
130.8881002595059
 31
0.0
  0
LINE
  5
A7
330
1F
100
AcDbEntity
  8
0
  6
Continuous
 62
     0
370
     0
100
AcDbLine
 10
267.7737500911663
 20
130.8881002595059
 30
0.0
 11
267.7737500911663
 21
130.8647167613141
 31
0.0
  0
LINE
  5
A8
330
1F
100
AcDbEntity
  8
0
  6
Continuous
 62
     0
370
     0
100
AcDbLine
 10
267.7737500911663
 20
130.8647167613141
 30
0.0
 11
267.7322294956157
 21
130.8006387879483
 31
0.0
  0
LWPOLYLINE
  5
A9
330
1F
100
AcDbEntity
  8
0
  6
Continuous
 62
     0
370
     0
100
AcDbPolyline
 90
        9
 70
   128
 43
0.0
 10
267.7242472415874
 20
130.8253553440206
 10
267.724526191325
 20
130.8204737236134
 10
267.7251699214885
 20
130.8153667976491
 10
267.7261140590618
 20
130.8104583551518
 10
267.7272727733562
 20
130.8061453630559
 10
267.7285816913555
 20
130.8027845551602
 10
267.7299120670269
 20
130.8006495167844
 10
267.7311566120098
 20
130.7999145915143
 10
267.7322294956157
 20
130.8006387879483
  0
LINE
  5
AA
330
1F
100
AcDbEntity
  8
0
  6
Continuous
 62
     0
370
     0
100
AcDbLine
 10
267.7242472415874
 20
130.8253553440206
 30
0.0
 11
267.7075317150066
 21
131.6626793076627
 31
0.0
  0
LWPOLYLINE
  5
AB
330
1F
100
AcDbEntity
  8
0
  6
Continuous
 62
     0
370
     0
100
AcDbPolyline
 90
        9
 70
   128
 43
0.0
 10
267.7121665721843
 20
131.6706749727361
 10
267.7112224346111
 20
131.6721180011861
 10
267.7103212123821
 20
131.6728475620382
 10
267.7094843631695
 20
131.6728341509931
 10
267.7087762599895
 20
131.6720750858419
 10
267.7081969028423
 20
131.6706079175108
 10
267.707789207072
 20
131.668488972389
 10
267.7075531726787
 20
131.6658067633741
 10
267.7075317150066
 20
131.6626793076627
  0
LINE
  5
AC
330
1F
100
AcDbEntity
  8
0
  6
Continuous
 62
     0
370
     0
100
AcDbLine
 10
267.7121665721843
 20
131.6706749727361
 30
0.0
 11
267.7504470592449
 21
131.5992423822515
 31
0.0
  0
LINE
  5
AD
330
1F
100
AcDbEntity
  8
0
  6
Continuous
 62
     0
370
     0
100
AcDbLine
 10
267.7504470592449
 20
131.5992423822515
 30
0.0
 11
267.7504470592449
 21
131.755127005779
 31
0.0
  0
LINE
  5
AE
330
1F
100
AcDbEntity
  8
0
  6
Continuous
 62
     0
370
     0
100
AcDbLine
 10
267.7900579219768
 20
131.6812348296278
 30
0.0
 11
267.7504470592449
 21
131.755127005779
 31
0.0
  0
LWPOLYLINE
  5
AF
330
1F
100
AcDbEntity
  8
0
  6
Continuous
 62
     0
370
     0
100
AcDbPolyline
 90
        9
 70
   128
 43
0.0
 10
267.785401607127
 20
131.6743388702505
 10
267.7854874378154
 20
131.6772141983144
 10
267.7857449298809
 20
131.6796415974729
 10
267.7861740833233
 20
131.6815352370374
 10
267.7867534404705
 20
131.6828146507375
 10
267.7874615436504
 20
131.683436923229
 10
267.7882769351909
 20
131.6833752324216
 10
267.7891566997478
 20
131.6826295783155
 10
267.7900579219768
 20
131.6812348296278
  0
LINE
  5
B0
330
1F
100
AcDbEntity
  8
0
  6
Continuous
 62
     0
370
     0
100
AcDbLine
 10
266.4202430492351
 20
130.6506523420445
 30
0.0
 11
267.7242472415874
 21
130.8253553440206
 31
0.0
  0
LINE
  5
B1
330
1F
100
AcDbEntity
  8
0
  6
Continuous
 62
     0
370
     0
100
AcDbLine
 10
266.4202430492351
 20
130.6506523420445
 30
0.0
 11
266.4035275226543
 21
131.4879763056867
 31
0.0
  0
LINE
  5
B2
330
1F
100
AcDbEntity
  8
0
  6
Continuous
 62
     0
370
     0
100
AcDbLine
 10
267.7075317150066
 20
131.6626793076627
 30
0.0
 11
266.4035275226543
 21
131.4879763056867
 31
0.0
  0
ARC
  5
B3
330
1F
100
AcDbEntity
  8
0
  6
Continuous
 62
     0
370
     0
100
AcDbCircle
 10
266.4515734991716
 20
130.6456323708645
 30
0.0
 40
0.0317300678201101
100
AcDbArc
 50
170.8970648940661
 51
220.040179215647
  0
LINE
  5
B4
330
1F
100
AcDbEntity
  8
0
  6
Continuous
 62
     0
370
     0
100
AcDbLine
 10
268.7794926410625
 20
131.5736058284872
 30
0.0
 11
268.6663677936504
 21
131.784663491451
 31
0.0
  0
LINE
  5
B5
330
1F
100
AcDbEntity
  8
0
  6
Continuous
 62
     0
370
     0
100
AcDbLine
 10
268.6663677936504
 20
131.9405481149786
 30
0.0
 11
268.6663677936504
 21
131.784663491451
 31
0.0
  0
LINE
  5
B6
330
1F
100
AcDbEntity
  8
0
  6
Continuous
 62
     0
370
     0
100
AcDbLine
 10
268.6663677936504
 20
131.9405481149786
 30
0.0
 11
268.8574269061992
 21
131.5840476681821
 31
0.0
  0
LINE
  5
B7
330
1F
100
AcDbEntity
  8
0
  6
Continuous
 62
     0
370
     0
100
AcDbLine
 10
265.7509997135112
 20
131.4872494270437
 30
0.0
 11
266.4464643245647
 21
131.580424003803
 31
0.0
  0
LINE
  5
B8
330
1F
100
AcDbEntity
  8
0
  6
Continuous
 62
     0
370
     0
100
AcDbLine
 10
265.7509997135112
 20
131.6431340505712
 30
0.0
 11
265.7509997135112
 21
131.4872494270437
 31
0.0
  0
LINE
  5
B9
330
1F
100
AcDbEntity
  8
0
  6
Continuous
 62
     0
370
     0
100
AcDbLine
 10
265.7509997135112
 20
131.6431340505712
 30
0.0
 11
268.4459331279705
 21
132.0041862060659
 31
0.0
  0
LINE
  5
BA
330
1F
100
AcDbEntity
  8
0
  6
Continuous
 62
     0
370
     0
100
AcDbLine
 10
268.4459331279705
 20
131.8483015825384
 30
0.0
 11
268.4459331279705
 21
132.0041862060659
 31
0.0
  0
LINE
  5
BB
330
1F
100
AcDbEntity
  8
0
  6
Continuous
 62
     0
370
     0
100
AcDbLine
 10
268.4459331279705
 20
131.8483015825384
 30
0.0
 11
267.7504470592449
 21
131.755127005779
 31
0.0
  0
LINE
  5
BC
330
1F
100
AcDbEntity
  8
0
  6
Continuous
 62
     0
370
     0
100
AcDbLine
 10
266.4464643245647
 20
131.5036725928418
 30
0.0
 11
266.4464643245647
 21
131.580424003803
 31
0.0
  0
LWPOLYLINE
  5
BD
330
1F
100
AcDbEntity
  8
0
  6
Continuous
 62
     0
370
     0
100
AcDbPolyline
 90
        7
 70
   128
 43
0.0
 10
266.4035275226543
 20
131.4879763056867
 10
266.4035704379986
 20
131.491103761398
 10
266.4037850147197
 20
131.4937859704129
 10
266.40419271049
 20
131.4959049155347
 10
266.4047720676372
 20
131.4973720838658
 10
266.4054801708172
 20
131.498131149017
 10
266.4057805782268
 20
131.4982223441235
  0
LINE
  5
BE
330
1F
100
AcDbEntity
  8
0
  6
Continuous
 62
     0
370
     0
100
AcDbLine
 10
268.4459331279705
 20
132.0041862060659
 30
0.0
 11
268.6663677936504
 21
131.9405481149786
 31
0.0
  0
LINE
  5
BF
330
1F
100
AcDbEntity
  8
0
  6
Continuous
 62
     0
370
     0
100
AcDbLine
 10
268.6663677936504
 20
131.784663491451
 30
0.0
 11
268.4459331279705
 21
131.8483015825384
 31
0.0
  0
LINE
  5
C0
330
1F
100
AcDbEntity
  8
0
  6
Continuous
 62
     0
370
     0
100
AcDbLine
 10
265.7368161922405
 20
131.1659663846127
 30
0.0
 11
265.6237128025005
 21
131.3770240475767
 31
0.0
  0
LINE
  5
C1
330
1F
100
AcDbEntity
  8
0
  6
Continuous
 62
     0
370
     0
100
AcDbLine
 10
265.7509997135112
 20
131.4872494270437
 30
0.0
 11
265.6237128025005
 21
131.3770240475767
 31
0.0
  0
LINE
  5
C2
330
1F
100
AcDbEntity
  8
0
  6
Continuous
 62
     0
370
     0
100
AcDbLine
 10
266.367092395396
 20
131.2504050066106
 30
0.0
 11
266.288922095866
 21
131.3962635328404
 31
0.0
  0
LWPOLYLINE
  5
C3
330
1F
100
AcDbEntity
  8
0
  6
Continuous
 62
     0
370
     0
100
AcDbPolyline
 90
        9
 70
   128
 43
0.0
 10
266.288922095866
 20
131.3962635328404
 10
266.2539675479839
 20
131.4316955139272
 10
266.1945727115581
 20
131.4577424456708
 10
266.1197498088787
 20
131.4704400231473
 10
266.040914321513
 20
131.467857055866
 10
265.9700396305034
 20
131.4503851463429
 10
265.9179404025982
 20
131.420682363712
 10
265.8925559764812
 20
131.3832735945814
 10
265.8977272754619
 20
131.3438504864804
  0
LINE
  5
C4
330
1F
100
AcDbEntity
  8
0
  6
Continuous
 62
     0
370
     0
100
AcDbLine
 10
265.8977272754619
 20
131.3438504864804
 30
0.0
 11
265.9758761173198
 21
131.1979946424596
 31
0.0
  0
LINE
  5
C5
330
1F
100
AcDbEntity
  8
0
  6
Continuous
 62
     0
370
     0
100
AcDbLine
 10
268.1292822605083
 20
131.5263560344808
 30
0.0
 11
268.1639149433086
 21
131.4911332656972
 31
0.0
  0
LWPOLYLINE
  5
C6
330
1F
100
AcDbEntity
  8
0
  6
Continuous
 62
     0
370
     0
100
AcDbPolyline
 90
       10
 70
   128
 43
0.0
 10
268.5257127529094
 20
131.5396088292233
 10
268.5204770809124
 20
131.5787663986318
 10
268.4855439907024
 20
131.6141983797185
 10
268.4261276966045
 20
131.6402479936712
 10
268.3513262515972
 20
131.6529455711477
 10
268.2724693065593
 20
131.6503626038663
 10
268.2016160732219
 20
131.6328880121343
 10
268.1495168453167
 20
131.6031879117124
 10
268.1241109615276
 20
131.5657764603726
 10
268.1292822605083
 20
131.5263560344808
  0
ARC
  5
C7
330
1F
100
AcDbEntity
  8
0
  6
Continuous
 62
     0
370
     0
100
AcDbCircle
 10
268.3248796707103
 20
131.9580576516971
 30
0.0
 40
0.352132561249139
100
AcDbArc
 50
248.4661967274158
 51
291.5338032725825
  0
LINE
  5
C8
330
1F
100
AcDbEntity
  8
0
  6
Continuous
 62
     0
370
     0
100
AcDbLine
 10
265.6237128025005
 20
131.3770240475767
 30
0.0
 11
265.6237128025005
 21
131.5329086711041
 31
0.0
  0
LINE
  5
C9
330
1F
100
AcDbEntity
  8
0
  6
Continuous
 62
     0
370
     0
100
AcDbLine
 10
265.6237128025005
 20
131.5329086711041
 30
0.0
 11
265.7509997135112
 21
131.6431340505712
 31
0.0
  0
LINE
  5
CA
330
1F
100
AcDbEntity
  8
0
  6
Continuous
 62
     0
370
     0
100
AcDbLine
 10
265.9337976222942
 20
131.4324223925702
 30
0.0
 11
266.0141780620525
 21
131.2824037601582
 31
0.0
  0
ARC
  5
CB
330
1F
100
AcDbEntity
  8
0
  6
Continuous
 62
     0
370
     0
100
AcDbCircle
 10
266.1548206042759
 20
131.3937552598649
 30
0.0
 40
0.1793864018536025
100
AcDbArc
 50
218.3698611780862
 51
259.2843596181283
  0
LINE
  5
CC
330
1F
100
AcDbEntity
  8
0
  6
Continuous
 62
     0
370
     0
100
AcDbLine
 10
201.2812307125042
 20
122.7644696762196
 30
0.0
 11
201.2812307125042
 21
122.5305542280309
 31
0.0
  0
LINE
  5
CD
330
1F
100
AcDbEntity
  8
0
  6
Continuous
 62
     0
370
     0
100
AcDbLine
 10
201.2695791965435
 20
122.5289931823843
 30
0.0
 11
201.2454607730816
 21
122.5740086962811
 31
0.0
  0
LWPOLYLINE
  5
CE
330
1F
100
AcDbEntity
  8
0
  6
Continuous
 62
     0
370
     0
100
AcDbPolyline
 90
        9
 70
   128
 43
0.0
 10
201.2408044582317
 20
122.5660157134168
 10
201.2408473735759
 20
122.5691431691281
 10
201.2410619502971
 20
122.571825378143
 10
201.2414696460674
 20
122.5739443232648
 10
201.2420490032146
 20
122.5754114915959
 10
201.2427785640667
 20
122.5761678745381
 10
201.2435939556072
 20
122.5761839677922
 10
201.2445166355083
 20
122.5754544069402
 10
201.2454607730816
 20
122.5740086962811
  0
LINE
  5
CF
330
1F
100
AcDbEntity
  8
0
  6
Continuous
 62
     0
370
     0
100
AcDbLine
 10
201.2408044582317
 20
122.5660157134168
 30
0.0
 11
201.2462976222942
 21
122.2916766931645
 31
0.0
  0
LINE
  5
D0
330
1F
100
AcDbEntity
  8
0
  6
Continuous
 62
     0
370
     0
100
AcDbLine
 10
201.2501600032757
 20
122.0978066255681
 30
0.0
 11
201.2507179027508
 21
122.0696568419568
 31
0.0
  0
ARC
  5
D1
330
1F
100
AcDbEntity
  8
0
  6
Continuous
 62
     0
370
     0
100
AcDbCircle
 10
201.3640743175388
 20
122.072562270454
 30
0.0
 40
0.1133936430685297
100
AcDbArc
 50
181.4682217296334
 51
193.0141089042485
  0
LINE
  5
D2
330
1F
100
AcDbEntity
  8
0
  6
Continuous
 62
     0
370
     0
100
AcDbLine
 10
201.2535932308147
 20
122.0470270444982
 30
0.0
 11
201.2695791965435
 21
121.9782310654752
 31
0.0
  0
LINE
  5
D3
330
1F
100
AcDbEntity
  8
0
  6
Continuous
 62
     0
370
     0
100
AcDbLine
 10
201.2695791965435
 20
121.9782310654752
 30
0.0
 11
201.2695791965435
 21
121.9548502494924
 31
0.0
  0
LINE
  5
D4
330
1F
100
AcDbEntity
  8
0
  6
Continuous
 62
     0
370
     0
100
AcDbLine
 10
201.2695791965435
 20
121.9548502494924
 30
0.0
 11
201.2280586009929
 21
121.8907695939176
 31
0.0
  0
LWPOLYLINE
  5
D5
330
1F
100
AcDbEntity
  8
0
  6
Continuous
 62
     0
370
     0
100
AcDbPolyline
 90
        9
 70
   128
 43
0.0
 10
201.2200763469646
 20
121.9154888321988
 10
201.2203552967022
 20
121.9106045295827
 10
201.2209990268657
 20
121.9054976036183
 10
201.221943164439
 20
121.9005891611211
 10
201.2231233364055
 20
121.8962788512341
 10
201.2244107967327
 20
121.8929153611295
 10
201.2257411724041
 20
121.8907803227536
 10
201.226985717387
 20
121.8900453974835
 10
201.2280586009929
 20
121.8907695939176
  0
LINE
  5
D6
330
1F
100
AcDbEntity
  8
0
  6
Continuous
 62
     0
370
     0
100
AcDbLine
 10
201.2200763469646
 20
121.9154888321988
 30
0.0
 11
201.2033608203838
 21
122.752810113632
 31
0.0
  0
LWPOLYLINE
  5
D7
330
1F
100
AcDbEntity
  8
0
  6
Continuous
 62
     0
370
     0
100
AcDbPolyline
 90
        9
 70
   128
 43
0.0
 10
201.2080171352337
 20
122.7608057787053
 10
201.2070515399883
 20
122.7622488071553
 10
201.2061503177593
 20
122.7629783680074
 10
201.2053134685466
 20
122.7629649569623
 10
201.2046053653667
 20
122.7622058918111
 10
201.2040260082195
 20
122.7607387234799
 10
201.2036183124492
 20
122.7586197783582
 10
201.203403735728
 20
122.7559375693433
 10
201.2033608203838
 20
122.752810113632
  0
LINE
  5
D8
330
1F
100
AcDbEntity
  8
0
  6
Continuous
 62
     0
370
     0
100
AcDbLine
 10
201.2080171352337
 20
122.7608057787053
 30
0.0
 11
201.2462976222942
 21
122.6893731882207
 31
0.0
  0
LINE
  5
D9
330
1F
100
AcDbEntity
  8
0
  6
Continuous
 62
     0
370
     0
100
AcDbLine
 10
201.2462976222942
 20
122.6893731882207
 30
0.0
 11
201.2462976222942
 21
122.8452578117482
 31
0.0
  0
LINE
  5
DA
330
1F
100
AcDbEntity
  8
0
  6
Continuous
 62
     0
370
     0
100
AcDbLine
 10
201.285887027354
 20
122.7713656355969
 30
0.0
 11
201.2462976222942
 21
122.8452578117482
 31
0.0
  0
LWPOLYLINE
  5
DB
330
1F
100
AcDbEntity
  8
0
  6
Continuous
 62
     0
370
     0
100
AcDbPolyline
 90
        9
 70
   128
 43
0.0
 10
201.2812307125042
 20
122.7644696762196
 10
201.2813165431926
 20
122.7673450042836
 10
201.2815740352581
 20
122.7697750856512
 10
201.2820246463726
 20
122.7716660430067
 10
201.2826040035198
 20
122.7729454567067
 10
201.2832906490276
 20
122.7735677291982
 10
201.2841060405681
 20
122.7735060383908
 10
201.284985805125
 20
122.7727630664937
 10
201.285887027354
 20
122.7713656355969
  0
LINE
  5
DC
330
1F
100
AcDbEntity
  8
0
  6
Continuous
 62
     0
370
     0
100
AcDbLine
 10
199.9160721546123
 20
121.7407858302228
 30
0.0
 11
201.2200763469646
 21
121.9154888321988
 31
0.0
  0
LINE
  5
DD
330
1F
100
AcDbEntity
  8
0
  6
Continuous
 62
     0
370
     0
100
AcDbLine
 10
199.9160721546123
 20
121.7407858302228
 30
0.0
 11
199.8993566280315
 21
122.5781071116559
 31
0.0
  0
LINE
  5
DE
330
1F
100
AcDbEntity
  8
0
  6
Continuous
 62
     0
370
     0
100
AcDbLine
 10
201.2033608203838
 20
122.752810113632
 30
0.0
 11
199.8993566280315
 21
122.5781071116559
 31
0.0
  0
ARC
  5
DF
330
1F
100
AcDbEntity
  8
0
  6
Continuous
 62
     0
370
     0
100
AcDbCircle
 10
199.9474583166738
 20
121.7357791222021
 30
0.0
 40
0.0317829874957223
100
AcDbArc
 50
170.9365629267269
 51
219.9975750013596
  0
LINE
  5
E0
330
1F
100
AcDbEntity
  8
0
  6
Continuous
 62
     0
370
     0
100
AcDbLine
 10
202.2753217464397
 20
122.6637366344563
 30
0.0
 11
202.1622183566997
 21
122.8747942974202
 31
0.0
  0
LINE
  5
E1
330
1F
100
AcDbEntity
  8
0
  6
Continuous
 62
     0
370
     0
100
AcDbLine
 10
202.1622183566997
 20
123.0306789209477
 30
0.0
 11
202.1622183566997
 21
122.8747942974202
 31
0.0
  0
LINE
  5
E2
330
1F
100
AcDbEntity
  8
0
  6
Continuous
 62
     0
370
     0
100
AcDbLine
 10
202.1622183566997
 20
123.0306789209477
 30
0.0
 11
202.3532560115764
 21
122.6741784741513
 31
0.0
  0
LINE
  5
E3
330
1F
100
AcDbEntity
  8
0
  6
Continuous
 62
     0
370
     0
100
AcDbLine
 10
199.2468288188884
 20
122.5773802330129
 30
0.0
 11
199.9422934299419
 21
122.6705548097722
 31
0.0
  0
LINE
  5
E4
330
1F
100
AcDbEntity
  8
0
  6
Continuous
 62
     0
370
     0
100
AcDbLine
 10
199.2468288188884
 20
122.7332648565404
 30
0.0
 11
199.2468288188884
 21
122.5773802330129
 31
0.0
  0
LINE
  5
E5
330
1F
100
AcDbEntity
  8
0
  6
Continuous
 62
     0
370
     0
100
AcDbLine
 10
199.2468288188884
 20
122.7332648565404
 30
0.0
 11
201.9417622333477
 21
123.0943170120351
 31
0.0
  0
LINE
  5
E6
330
1F
100
AcDbEntity
  8
0
  6
Continuous
 62
     0
370
     0
100
AcDbLine
 10
201.9417622333477
 20
122.9384323885076
 30
0.0
 11
201.9417622333477
 21
123.0943170120351
 31
0.0
  0
LINE
  5
E7
330
1F
100
AcDbEntity
  8
0
  6
Continuous
 62
     0
370
     0
100
AcDbLine
 10
201.9417622333477
 20
122.9384323885076
 30
0.0
 11
201.2462976222942
 21
122.8452578117482
 31
0.0
  0
LINE
  5
E8
330
1F
100
AcDbEntity
  8
0
  6
Continuous
 62
     0
370
     0
100
AcDbLine
 10
199.9422934299419
 20
122.593803398811
 30
0.0
 11
199.9422934299419
 21
122.6705548097722
 31
0.0
  0
LWPOLYLINE
  5
E9
330
1F
100
AcDbEntity
  8
0
  6
Continuous
 62
     0
370
     0
100
AcDbPolyline
 90
        7
 70
   128
 43
0.0
 10
199.8993566280315
 20
122.5781071116559
 10
199.8993995433758
 20
122.5812372495763
 10
199.8996141200969
 20
122.5839167763822
 10
199.9000218158672
 20
122.5860357215039
 10
199.9006011730144
 20
122.5875028898351
 10
199.9013307338665
 20
122.5882619549863
 10
199.901609683604
 20
122.5883531500928
  0
LINE
  5
EA
330
1F
100
AcDbEntity
  8
0
  6
Continuous
 62
     0
370
     0
100
AcDbLine
 10
201.9417622333477
 20
123.0943170120351
 30
0.0
 11
202.1622183566997
 21
123.0306789209477
 31
0.0
  0
LINE
  5
EB
330
1F
100
AcDbEntity
  8
0
  6
Continuous
 62
     0
370
     0
100
AcDbLine
 10
202.1622183566997
 20
122.8747942974202
 30
0.0
 11
201.9417622333477
 21
122.9384323885076
 31
0.0
  0
LINE
  5
EC
330
1F
100
AcDbEntity
  8
0
  6
Continuous
 62
     0
370
     0
100
AcDbLine
 10
199.2326452976177
 20
122.256097190582
 30
0.0
 11
199.1195419078777
 21
122.4671548535459
 31
0.0
  0
LINE
  5
ED
330
1F
100
AcDbEntity
  8
0
  6
Continuous
 62
     0
370
     0
100
AcDbLine
 10
199.2468288188884
 20
122.5773802330129
 30
0.0
 11
199.1195419078777
 21
122.4671548535459
 31
0.0
  0
LINE
  5
EE
330
1F
100
AcDbEntity
  8
0
  6
Continuous
 62
     0
370
     0
100
AcDbLine
 10
199.8629215007732
 20
122.3405358125798
 30
0.0
 11
199.7847512012432
 21
122.4863943388097
 31
0.0
  0
LWPOLYLINE
  5
EF
330
1F
100
AcDbEntity
  8
0
  6
Continuous
 62
     0
370
     0
100
AcDbPolyline
 90
        9
 70
   128
 43
0.0
 10
199.7847512012432
 20
122.4863943388097
 10
199.7497966533611
 20
122.5218263198964
 10
199.6904018169353
 20
122.54787325164
 10
199.6155789142559
 20
122.5605708291165
 10
199.5367434268902
 20
122.5579878618352
 10
199.4658687358806
 20
122.5405159523122
 10
199.4137909656475
 20
122.5108131696813
 10
199.3883850818584
 20
122.4734044005506
 10
199.3935563808391
 20
122.4339839746587
  0
LINE
  5
F0
330
1F
100
AcDbEntity
  8
0
  6
Continuous
 62
     0
370
     0
100
AcDbLine
 10
199.3935563808391
 20
122.4339839746587
 30
0.0
 11
199.471705222697
 21
122.2881254484288
 31
0.0
  0
LINE
  5
F1
330
1F
100
AcDbEntity
  8
0
  6
Continuous
 62
     0
370
     0
100
AcDbLine
 10
201.6251113658855
 20
122.6164868404501
 30
0.0
 11
201.6597440486858
 21
122.5812667538754
 31
0.0
  0
LWPOLYLINE
  5
F2
330
1F
100
AcDbEntity
  8
0
  6
Continuous
 62
     0
370
     0
100
AcDbPolyline
 90
       10
 70
   128
 43
0.0
 10
202.0215633159588
 20
122.6297396351926
 10
202.0163276439617
 20
122.6688972046011
 10
201.9813730960796
 20
122.7043291856878
 10
201.9219782596538
 20
122.7303787996404
 10
201.8471553569744
 20
122.7430763771169
 10
201.7682984119365
 20
122.7404934098355
 10
201.6974451785991
 20
122.7230188181035
 10
201.6453459506939
 20
122.6933187176816
 10
201.6199400669048
 20
122.6559099485509
 10
201.6251113658855
 20
122.6164868404501
  0
ARC
  5
F3
330
1F
100
AcDbEntity
  8
0
  6
Continuous
 62
     0
370
     0
100
AcDbCircle
 10
201.8207195049236
 20
123.0486102115553
 30
0.0
 40
0.3525288449820485
100
AcDbArc
 50
248.4897348057461
 51
291.5102651942539
  0
LINE
  5
F4
330
1F
100
AcDbEntity
  8
0
  6
Continuous
 62
     0
370
     0
100
AcDbLine
 10
199.1195419078777
 20
122.4671548535459
 30
0.0
 11
199.1195419078777
 21
122.6230394770734
 31
0.0
  0
LINE
  5
F5
330
1F
100
AcDbEntity
  8
0
  6
Continuous
 62
     0
370
     0
100
AcDbLine
 10
199.1195419078777
 20
122.6230394770734
 30
0.0
 11
199.2468288188884
 21
122.7332648565404
 31
0.0
  0
LINE
  5
F6
330
1F
100
AcDbEntity
  8
0
  6
Continuous
 62
     0
370
     0
100
AcDbLine
 10
199.4296267276714
 20
122.5225531985394
 30
0.0
 11
199.5100286251018
 21
122.3725345661275
 31
0.0
  0
ARC
  5
F7
330
1F
100
AcDbEntity
  8
0
  6
Continuous
 62
     0
370
     0
100
AcDbCircle
 10
199.6507318514758
 20
122.4839753241202
 30
0.0
 40
0.1794893881376559
100
AcDbArc
 50
218.3801755023236
 51
259.2638936911749
  0
LINE
  5
F8
330
1F
100
AcDbEntity
  8
0
  6
Continuous
 62
     0
370
     0
100
AcDbLine
 10
277.534415984721
 20
131.6563439299696
 30
0.0
 11
277.534415984721
 21
131.1814159085385
 31
0.0
  0
LINE
  5
F9
330
1F
100
AcDbEntity
  8
0
  6
Continuous
 62
     0
370
     0
100
AcDbLine
 10
277.534415984721
 20
131.1814159085385
 30
0.0
 11
277.5253393894146
 21
131.1983513762586
 31
0.0
  0
ARC
  5
FA
330
1F
100
AcDbEntity
  8
0
  6
Continuous
 62
     0
370
     0
100
AcDbCircle
 10
277.6531960368405
 20
131.2531688523906
 30
0.0
 40
0.1391124652231801
100
AcDbArc
 50
183.1117768653943
 51
203.2068319119089
  0
LINE
  5
FB
330
1F
100
AcDbEntity
  8
0
  6
Continuous
 62
     0
370
     0
100
AcDbLine
 10
277.5142886882732
 20
131.245617263519
 30
0.0
 11
277.5058880096386
 21
131.3455483247869
 31
0.0
  0
ARC
  5
FC
330
1F
100
AcDbEntity
  8
0
  6
Continuous
 62
     0
370
     0
100
AcDbCircle
 10
277.6670974827176
 20
131.3593592730469
 30
0.0
 40
0.1617999891911593
100
AcDbArc
 50
180.1321136746252
 51
184.8966203858471
  0
LINE
  5
FD
330
1F
100
AcDbEntity
  8
0
  6
Continuous
 62
     0
370
     0
100
AcDbLine
 10
277.5052979236553
 20
131.3589861919515
 30
0.0
 11
277.5052979236553
 21
131.421406560146
 31
0.0
  0
ARC
  5
FE
330
1F
100
AcDbEntity
  8
0
  6
Continuous
 62
     0
370
     0
100
AcDbCircle
 10
277.5836155242445
 20
131.4226926814966
 30
0.0
 40
0.0783281601353419
100
AcDbArc
 50
169.8177032383863
 51
180.9408191992719
  0
LINE
  5
FF
330
1F
100
AcDbEntity
  8
0
  6
Continuous
 62
     0
370
     0
100
AcDbLine
 10
277.5065210109661
 20
131.4365395834081
 30
0.0
 11
277.5085165744732
 21
131.4461418916814
 31
0.0
  0
ARC
  5
100
330
1F
100
AcDbEntity
  8
0
  6
Continuous
 62
     0
370
     0
100
AcDbCircle
 10
277.3877104260887
 20
131.4635695447557
 30
0.0
 40
0.1220567432761248
100
AcDbArc
 50
351.7910694665317
 51
8.208930533415451
  0
LINE
  5
101
330
1F
100
AcDbEntity
  8
0
  6
Continuous
 62
     0
370
     0
100
AcDbLine
 10
277.5085165744732
 20
131.4809971978299
 30
0.0
 11
277.5065210109661
 21
131.4980238606564
 31
0.0
  0
ARC
  5
102
330
1F
100
AcDbEntity
  8
0
  6
Continuous
 62
     0
370
     0
100
AcDbCircle
 10
277.6794245849269
 20
131.518645629549
 30
0.0
 40
0.1741289844933789
100
AcDbArc
 50
180.2959701466518
 51
186.8013938012988
  0
LINE
  5
103
330
1F
100
AcDbEntity
  8
0
  6
Continuous
 62
     0
370
     0
100
AcDbLine
 10
277.5052979236553
 20
131.517746143543
 30
0.0
 11
277.5052979236553
 21
131.5772911836736
 31
0.0
  0
ARC
  5
104
330
1F
100
AcDbEntity
  8
0
  6
Continuous
 62
     0
370
     0
100
AcDbCircle
 10
277.5836155242446
 20
131.5785773050241
 30
0.0
 40
0.0783281601353926
100
AcDbArc
 50
169.8177032383527
 51
180.9408191992296
  0
LINE
  5
105
330
1F
100
AcDbEntity
  8
0
  6
Continuous
 62
     0
370
     0
100
AcDbLine
 10
277.5065210109661
 20
131.5924242069356
 30
0.0
 11
277.5085165744732
 21
131.602026515209
 31
0.0
  0
ARC
  5
106
330
1F
100
AcDbEntity
  8
0
  6
Continuous
 62
     0
370
     0
100
AcDbCircle
 10
277.3877104260887
 20
131.6194541682832
 30
0.0
 40
0.1220567432760742
100
AcDbArc
 50
351.7910694665581
 51
8.208930533441862
  0
LINE
  5
107
330
1F
100
AcDbEntity
  8
0
  6
Continuous
 62
     0
370
     0
100
AcDbLine
 10
277.5085165744732
 20
131.6368818213575
 30
0.0
 11
277.5066712146709
 21
131.6526290704839
 31
0.0
  0
LINE
  5
108
330
1F
100
AcDbEntity
  8
0
  6
Continuous
 62
     0
370
     0
100
AcDbLine
 10
277.5111236816356
 20
131.9256377150648
 30
0.0
 11
277.5111236816356
 21
132.1286728908651
 31
0.0
  0
LINE
  5
109
330
1F
100
AcDbEntity
  8
0
  6
Continuous
 62
     0
370
     0
100
AcDbLine
 10
277.4491324668834
 20
132.3927792837255
 30
0.0
 11
277.3713591342876
 21
132.5379028846853
 31
0.0
  0
LINE
  5
10A
330
1F
100
AcDbEntity
  8
0
  6
Continuous
 62
     0
370
     0
100
AcDbLine
 10
277.3713591342876
 20
132.5379028846853
 30
0.0
 11
277.3713591342876
 21
132.0404791762464
 31
0.0
  0
ARC
  5
10B
330
1F
100
AcDbEntity
  8
0
  6
Continuous
 62
     0
370
     0
100
AcDbCircle
 10
277.5454315133389
 20
132.0413752959128
 30
0.0
 40
0.1740746856353521
100
AcDbArc
 50
180.2949544410345
 51
186.8024095066288
  0
LINE
  5
10C
330
1F
100
AcDbEntity
  8
0
  6
Continuous
 62
     0
370
     0
100
AcDbLine
 10
277.3725822215984
 20
132.0207568933599
 30
0.0
 11
277.3759510761211
 21
131.991963379585
 31
0.0
  0
ARC
  5
10D
330
1F
100
AcDbEntity
  8
0
  6
Continuous
 62
     0
370
     0
100
AcDbCircle
 10
277.2019695497604
 20
131.9711794474659
 30
0.0
 40
0.175218558803362
100
AcDbArc
 50
0.3471572472563892
 51
6.812303091079586
  0
LINE
  5
10E
330
1F
100
AcDbEntity
  8
0
  6
Continuous
 62
     0
370
     0
100
AcDbLine
 10
277.377184892268
 20
131.9722410966985
 30
0.0
 11
277.377184892268
 21
131.9126987387769
 31
0.0
  0
ARC
  5
10F
330
1F
100
AcDbEntity
  8
0
  6
Continuous
 62
     0
370
     0
100
AcDbCircle
 10
277.2984139612516
 20
131.9115042318523
 30
0.0
 40
0.0787799874332393
100
AcDbArc
 50
349.809028043858
 51
0.8687844504738473
  0
LINE
  5
110
330
1F
100
AcDbEntity
  8
0
  6
Continuous
 62
     0
370
     0
100
AcDbLine
 10
277.3759510761211
 20
131.8975657155149
 30
0.0
 11
277.373955512614
 21
131.8879634072416
 31
0.0
  0
ARC
  5
111
330
1F
100
AcDbEntity
  8
0
  6
Continuous
 62
     0
370
     0
100
AcDbCircle
 10
277.4947825989992
 20
131.8705344130628
 30
0.0
 40
0.1220776582443514
100
AcDbArc
 50
171.7918496161861
 51
188.2081503838139
  0
LINE
  5
112
330
1F
100
AcDbEntity
  8
0
  6
Continuous
 62
     0
370
     0
100
AcDbLine
 10
277.373955512614
 20
131.853105418884
 30
0.0
 11
277.3759510761211
 21
131.8360787560575
 31
0.0
  0
ARC
  5
113
330
1F
100
AcDbEntity
  8
0
  6
Continuous
 62
     0
370
     0
100
AcDbCircle
 10
277.2019695497607
 20
131.8152948239384
 30
0.0
 40
0.175218558803105
100
AcDbArc
 50
0.3471572472476587
 51
6.812303091081382
  0
LINE
  5
114
330
1F
100
AcDbEntity
  8
0
  6
Continuous
 62
     0
370
     0
100
AcDbLine
 10
277.377184892268
 20
131.816356473171
 30
0.0
 11
277.377184892268
 21
131.7568141152494
 31
0.0
  0
ARC
  5
115
330
1F
100
AcDbEntity
  8
0
  6
Continuous
 62
     0
370
     0
100
AcDbCircle
 10
277.2984139612512
 20
131.7556196083248
 30
0.0
 40
0.0787799874335459
100
AcDbArc
 50
349.8090280438612
 51
0.8687844504287495
  0
LINE
  5
116
330
1F
100
AcDbEntity
  8
0
  6
Continuous
 62
     0
370
     0
100
AcDbLine
 10
277.3759510761211
 20
131.7416810919874
 30
0.0
 11
277.373955512614
 21
131.7320787837141
 31
0.0
  0
ARC
  5
117
330
1F
100
AcDbEntity
  8
0
  6
Continuous
 62
     0
370
     0
100
AcDbCircle
 10
277.4947825989992
 20
131.7146497895353
 30
0.0
 40
0.1220776582443261
100
AcDbArc
 50
171.7918496161861
 51
188.2081503838139
  0
LINE
  5
118
330
1F
100
AcDbEntity
  8
0
  6
Continuous
 62
     0
370
     0
100
AcDbLine
 10
277.373955512614
 20
131.6972207953565
 30
0.0
 11
277.3759510761211
 21
131.68019413253
 31
0.0
  0
ARC
  5
119
330
1F
100
AcDbEntity
  8
0
  6
Continuous
 62
     0
370
     0
100
AcDbCircle
 10
277.20196954976
 20
131.6594102004108
 30
0.0
 40
0.1752185588038477
100
AcDbArc
 50
0.3471572472554883
 51
6.812303091061948
  0
LINE
  5
11A
330
1F
100
AcDbEntity
  8
0
  6
Continuous
 62
     0
370
     0
100
AcDbLine
 10
277.377184892268
 20
131.6604718496435
 30
0.0
 11
277.377184892268
 21
131.5980541636579
 31
0.0
  0
ARC
  5
11B
330
1F
100
AcDbEntity
  8
0
  6
Continuous
 62
     0
370
     0
100
AcDbCircle
 10
277.2795879083586
 20
131.5976649148024
 30
0.0
 40
0.0975977601324654
100
AcDbArc
 50
353.6350980185421
 51
0.2285131923018001
  0
LINE
  5
11C
330
1F
100
AcDbEntity
  8
0
  6
Continuous
 62
     0
370
     0
100
AcDbLine
 10
277.3765840774486
 20
131.5868452121847
 30
0.0
 11
277.368183398814
 21
131.5182423522108
 31
0.0
  0
LWPOLYLINE
  5
11D
330
1F
100
AcDbEntity
  8
0
  6
Continuous
 62
     0
370
     0
100
AcDbPolyline
 90
        9
 70
   128
 43
0.0
 10
277.3571434265087
 20
131.5122127463452
 10
277.3589458709667
 20
131.5093079139821
 10
277.3607161289165
 20
131.5074223210446
 10
277.3624005561779
 20
131.5065988828771
 10
277.3639455085705
 20
131.5068617393605
 10
277.3653295284221
 20
131.508202843868
 10
277.3665204292247
 20
131.5105900098912
 10
277.3674752956341
 20
131.513964228832
 10
277.368183398814
 20
131.5182423522108
  0
LINE
  5
11E
330
1F
100
AcDbEntity
  8
0
  6
Continuous
 62
     0
370
     0
100
AcDbLine
 10
277.3571434265087
 20
131.5122127463452
 30
0.0
 11
277.3480668312023
 21
131.5291482140653
 31
0.0
  0
LINE
  5
11F
330
1F
100
AcDbEntity
  8
0
  6
Continuous
 62
     0
370
     0
100
AcDbLine
 10
277.3480668312023
 20
131.5291482140653
 30
0.0
 11
277.3480668312023
 21
132.2072482039564
 31
0.0
  0
ARC
  5
120
330
1F
100
AcDbEntity
  8
0
  6
Continuous
 62
     0
370
     0
100
AcDbCircle
 10
277.2563657973341
 20
132.2085185985473
 30
0.0
 40
0.0917098332509843
100
AcDbArc
 50
359.2062947467024
 51
22.53752737995788
  0
LINE
  5
121
330
1F
100
AcDbEntity
  8
0
  6
Continuous
 62
     0
370
     0
100
AcDbLine
 10
277.3410716300914
 20
132.2436699201696
 30
0.0
 11
277.3177793270061
 21
132.2871377994649
 31
0.0
  0
ARC
  5
122
330
1F
100
AcDbEntity
  8
0
  6
Continuous
 62
     0
370
     0
100
AcDbCircle
 10
277.3743103471625
 20
132.3105656331385
 30
0.0
 40
0.0611932972681979
100
AcDbArc
 50
179.2001754004458
 51
202.5103098696798
  0
LINE
  5
123
330
1F
100
AcDbEntity
  8
0
  6
Continuous
 62
     0
370
     0
100
AcDbLine
 10
277.3131230121563
 20
132.3114198376768
 30
0.0
 11
277.3131230121563
 21
132.685542397701
 31
0.0
  0
LINE
  5
124
330
1F
100
AcDbEntity
  8
0
  6
Continuous
 62
     0
370
     0
100
AcDbLine
 10
277.3364153152416
 20
132.7200168301694
 30
0.0
 11
277.3131230121563
 21
132.685542397701
 31
0.0
  0
LINE
  5
125
330
1F
100
AcDbEntity
  8
0
  6
Continuous
 62
     0
370
     0
100
AcDbLine
 10
277.3364153152416
 20
132.7200168301694
 30
0.0
 11
277.507583165736
 21
132.400611334049
 31
0.0
  0
LINE
  5
126
330
1F
100
AcDbEntity
  8
0
  6
Continuous
 62
     0
370
     0
100
AcDbLine
 10
277.5693490749309
 20
132.1364754368894
 30
0.0
 11
277.5693490749309
 21
131.9334375788801
 31
0.0
  0
LINE
  5
127
330
1F
100
AcDbEntity
  8
0
  6
Continuous
 62
     0
370
     0
100
AcDbLine
 10
190.4147436862896
 20
119.8822912504308
 30
0.0
 11
277.3480668312023
 21
131.5291482140653
 31
0.0
  0
LINE
  5
128
330
1F
100
AcDbEntity
  8
0
  6
Continuous
 62
     0
370
     0
100
AcDbLine
 10
190.423820281596
 20
119.8653557827107
 30
0.0
 11
277.3571434265087
 21
131.5122127463452
 31
0.0
  0
LINE
  5
129
330
1F
100
AcDbEntity
  8
0
  6
Continuous
 62
     0
370
     0
100
AcDbLine
 10
190.423820281596
 20
119.8653557827107
 30
0.0
 11
190.4147436862896
 21
119.8822912504308
 31
0.0
  0
LINE
  5
12A
330
1F
100
AcDbEntity
  8
0
  6
Continuous
 62
     0
370
     0
100
AcDbLine
 10
190.4147436862896
 20
119.8822912504308
 30
0.0
 11
190.4147436862896
 21
120.5603912403218
 31
0.0
  0
LWPOLYLINE
  5
12B
330
1F
100
AcDbEntity
  8
0
  6
Continuous
 62
     0
370
     0
100
AcDbPolyline
 90
        5
 70
   128
 43
0.0
 10
190.4297855144451
 20
119.8597258259885
 10
190.4290774112652
 20
119.8597419192426
 10
190.4273822551677
 20
119.8605653574101
 10
190.425622726054
 20
119.8624509503476
 10
190.423820281596
 20
119.8653557827107
  0
ARC
  5
12C
330
1F
100
AcDbEntity
  8
0
  6
Continuous
 62
     0
370
     0
100
AcDbCircle
 10
190.4407874253686
 20
120.6637221967922
 30
0.0
 40
0.0610040797851488
100
AcDbArc
 50
179.2104006287626
 51
202.5977399493239
  0
LINE
  5
12D
330
1F
100
AcDbEntity
  8
0
  6
Continuous
 62
     0
370
     0
100
AcDbLine
 10
277.3131230121563
 20
132.685542397701
 30
0.0
 11
267.7464130168865
 21
131.4038461377256
 31
0.0
  0
LINE
  5
12E
330
1F
100
AcDbEntity
  8
0
  6
Continuous
 62
     0
370
     0
100
AcDbLine
 10
266.4087846523235
 20
131.2246370246045
 30
0.0
 11
201.2422421222637
 21
122.4939769436948
 31
0.0
  0
LINE
  5
12F
330
1F
100
AcDbEntity
  8
0
  6
Continuous
 62
     0
370
     0
100
AcDbLine
 10
199.9046137577007
 20
122.3147678305737
 30
0.0
 11
190.3797891384075
 21
121.0386854340665
 31
0.0
  0
LINE
  5
130
330
1F
100
AcDbEntity
  8
0
  6
Continuous
 62
     0
370
     0
100
AcDbLine
 10
190.3797891384075
 20
120.6645628740423
 30
0.0
 11
190.3797891384075
 21
121.0386854340665
 31
0.0
  0
LINE
  5
131
330
1F
100
AcDbEntity
  8
0
  6
Continuous
 62
     0
370
     0
100
AcDbLine
 10
190.4077484851787
 20
120.596812956535
 30
0.0
 11
190.3844669109295
 21
120.6402808358304
 31
0.0
  0
ARC
  5
132
330
1F
100
AcDbEntity
  8
0
  6
Continuous
 62
     0
370
     0
100
AcDbCircle
 10
190.3228645231488
 20
120.5616274231783
 30
0.0
 40
0.0918874788396395
100
AcDbArc
 50
359.2291637775862
 51
22.51465834901706
  0
LINE
  5
133
330
1F
100
AcDbEntity
  8
0
  6
Continuous
 62
     0
370
     0
100
AcDbLine
 10
190.4030921703289
 20
121.0731598665349
 30
0.0
 11
199.9039914852092
 21
122.3460397054784
 31
0.0
  0
LINE
  5
134
330
1F
100
AcDbEntity
  8
0
  6
Continuous
 62
     0
370
     0
100
AcDbLine
 10
201.2416198497722
 20
122.5252488185994
 30
0.0
 11
266.408162379832
 21
131.2559088995092
 31
0.0
  0
LINE
  5
135
330
1F
100
AcDbEntity
  8
0
  6
Continuous
 62
     0
370
     0
100
AcDbLine
 10
267.745790744395
 20
131.4351180126302
 30
0.0
 11
277.3364153152416
 21
132.7200168301694
 31
0.0
  0
LINE
  5
136
330
1F
100
AcDbEntity
  8
0
  6
Continuous
 62
     0
370
     0
100
AcDbLine
 10
190.3797891384075
 20
121.0386854340665
 30
0.0
 11
190.4030921703289
 21
121.0731598665349
 31
0.0
  0
LINE
  5
137
330
1F
100
AcDbEntity
  8
0
  6
Continuous
 62
     0
370
     0
100
AcDbLine
 10
190.5809548145244
 20
119.5987602998846
 30
0.0
 11
277.5142886882732
 21
131.245617263519
 31
0.0
  0
LINE
  5
138
330
1F
100
AcDbEntity
  8
0
  6
Continuous
 62
     0
370
     0
100
AcDbLine
 10
190.5809548145244
 20
119.5987602998846
 30
0.0
 11
190.5725648647258
 21
119.6986913611524
 31
0.0
  0
LINE
  5
139
330
1F
100
AcDbEntity
  8
0
  6
Continuous
 62
     0
370
     0
100
AcDbLine
 10
277.5058880096386
 20
131.3455483247869
 30
0.0
 11
190.5725648647258
 21
119.6986913611524
 31
0.0
  0
LINE
  5
13A
330
1F
100
AcDbEntity
  8
0
  6
Continuous
 62
     0
370
     0
100
AcDbLine
 10
277.5253393894146
 20
131.1983513762586
 30
0.0
 11
190.5920055156658
 21
119.5514944126241
 31
0.0
  0
ARC
  5
13B
330
1F
100
AcDbEntity
  8
0
  6
Continuous
 62
     0
370
     0
100
AcDbCircle
 10
190.7209578819733
 20
119.6065680663632
 30
0.0
 40
0.1402206122953119
100
AcDbArc
 50
183.191995460997
 51
203.1266133162702
  0
LINE
  5
13C
330
1F
100
AcDbEntity
  8
0
  6
Continuous
 62
     0
370
     0
100
AcDbLine
 10
190.5719640499065
 20
119.712129228317
 30
0.0
 11
277.5052979236553
 21
131.3589861919515
 31
0.0
  0
ARC
  5
13D
330
1F
100
AcDbEntity
  8
0
  6
Continuous
 62
     0
370
     0
100
AcDbCircle
 10
190.7374051614138
 20
119.7127938312055
 30
0.0
 40
0.1654424464090077
100
AcDbArc
 50
180.2301648930198
 51
184.8898801405238
  0
LINE
  5
13E
330
1F
100
AcDbEntity
  8
0
  6
Continuous
 62
     0
370
     0
100
AcDbLine
 10
190.6010821109722
 20
119.534558944904
 30
0.0
 11
277.534415984721
 21
131.1814159085385
 31
0.0
  0
LINE
  5
13F
330
1F
100
AcDbEntity
  8
0
  6
Continuous
 62
     0
370
     0
100
AcDbLine
 10
190.6010821109722
 20
119.534558944904
 30
0.0
 11
190.5920055156658
 21
119.5514944126241
 31
0.0
  0
LINE
  5
140
330
1F
100
AcDbEntity
  8
0
  6
Continuous
 62
     0
370
     0
100
AcDbLine
 10
190.5719640499065
 20
119.712129228317
 30
0.0
 11
190.5719640499065
 21
119.7400939395062
 31
0.0
  0
LWPOLYLINE
  5
141
330
1F
100
AcDbEntity
  8
0
  6
Continuous
 62
     0
370
     0
100
AcDbPolyline
 90
        8
 70
   128
 43
0.0
 10
279.0925541168163
 20
132.4137300183408
 10
279.096824193568
 20
132.315432422363
 10
279.1092374568889
 20
132.2107994486921
 10
279.1285600906322
 20
132.1100771357648
 10
279.1529145484874
 20
132.023119919502
 10
279.1799083000133
 20
131.9584464957349
 10
279.2069020515392
 20
131.9223815133207
 10
279.2247226482341
 20
131.9162177970045
  0
LWPOLYLINE
  5
142
330
1F
100
AcDbEntity
  8
0
  6
Continuous
 62
     0
370
     0
100
AcDbPolyline
 90
        5
 70
   128
 43
0.0
 10
279.1350832229564
 20
132.5852411915891
 10
279.1285600906322
 20
132.5830015470617
 10
279.1092374568889
 20
132.5543984701269
 10
279.096824193568
 20
132.496071152889
 10
279.0925541168163
 20
132.4137300183408
  0
LWPOLYLINE
  5
143
330
1F
100
AcDbEntity
  8
0
  6
Continuous
 62
     0
370
     0
100
AcDbPolyline
 90
        5
 70
   128
 43
0.0
 10
190.5407860523174
 20
119.7359150578611
 10
190.5324175601909
 20
119.7374600102536
 10
190.5079128986309
 20
119.766883843147
 10
190.4834082370708
 20
119.8289072444074
 10
190.4732802158306
 20
119.8655515839688
  0
LWPOLYLINE
  5
144
330
1F
100
AcDbEntity
  8
0
  6
Continuous
 62
     0
370
     0
100
AcDbPolyline
 90
        9
 70
   128
 43
0.0
 10
277.5052979236553
 20
131.5085488488309
 10
277.5004163032482
 20
131.435622267925
 10
277.4865331893871
 20
131.3919961382977
 10
277.4657514339397
 20
131.3843116094701
 10
277.4412360435436
 20
131.4137408067815
 10
277.4167206531475
 20
131.475799076759
 10
277.3959388977001
 20
131.5610423614613
 10
277.382055783839
 20
131.6564914514654
 10
277.377184892268
 20
131.7476141383283
  0
LINE
  5
145
330
1F
100
AcDbEntity
  8
0
  6
Continuous
 62
     0
370
     0
100
AcDbLine
 10
277.377184892268
 20
132.527037255966
 30
0.0
 11
277.4491324668834
 21
132.3927792837255
 31
0.0
  0
LINE
  5
146
330
1F
100
AcDbEntity
  8
0
  6
Continuous
 62
     0
370
     0
100
AcDbLine
 10
277.5052979236553
 20
132.1278923680418
 30
0.0
 11
277.5052979236553
 21
131.9248571922414
 31
0.0
  0
LINE
  5
147
330
1F
100
AcDbEntity
  8
0
  6
Continuous
 62
     0
370
     0
100
AcDbLine
 10
277.5052979236553
 20
131.6524439980619
 30
0.0
 11
277.5052979236553
 21
131.5085488488309
 31
0.0
  0
LINE
  5
148
330
1F
100
AcDbEntity
  8
0
  6
Continuous
 62
     0
370
     0
100
AcDbLine
 10
277.377184892268
 20
131.7476141383283
 30
0.0
 11
277.377184892268
 21
132.527037255966
 31
0.0
  0
LWPOLYLINE
  5
149
330
1F
100
AcDbEntity
  8
0
  6
Continuous
 62
     0
370
     0
100
AcDbPolyline
 90
       10
 70
   128
 43
0.0
 10
277.4233081584881
 20
132.3893219163053
 10
277.4165275340984
 20
132.3842900921934
 10
277.4089529758404
 20
132.3604935338132
 10
277.4062922244976
 20
132.3207163741224
 10
277.4089529758404
 20
132.2710123588674
 10
277.4165275340984
 20
132.2189506818883
 10
277.4278679138134
 20
132.1724545886152
 10
277.4412360435436
 20
132.1386024286382
 10
277.4546041732738
 20
132.1225520898931
 10
277.4591639285991
 20
132.1217125584714
  0
LWPOLYLINE
  5
14A
330
1F
100
AcDbEntity
  8
0
  6
Continuous
 62
     0
370
     0
100
AcDbPolyline
 90
       10
 70
   128
 43
0.0
 10
277.4233081584881
 20
131.9138735463254
 10
277.4165275340984
 20
131.9088417222135
 10
277.4089529758404
 20
131.8850451638334
 10
277.4062922244976
 20
131.8452680041425
 10
277.4089529758404
 20
131.7955639888876
 10
277.4165275340984
 20
131.7435023119085
 10
277.4278679138134
 20
131.6970062186353
 10
277.4412360435436
 20
131.6631540586584
 10
277.4546041732738
 20
131.6471037199132
 10
277.4591639285991
 20
131.6462641884916
  0
LINE
  5
14B
330
1F
100
AcDbEntity
  8
0
  6
Continuous
 62
     0
370
     0
100
AcDbLine
 10
277.3713591342876
 20
132.5262567331426
 30
0.0
 11
277.377184892268
 21
132.527037255966
 31
0.0
  0
LINE
  5
14C
330
1F
100
AcDbEntity
  8
0
  6
Continuous
 62
     0
370
     0
100
AcDbLine
 10
267.7900579219768
 20
131.6812348296278
 30
0.0
 11
267.7859595066021
 21
131.6806849767797
 31
0.0
  0
LINE
  5
14D
330
1F
100
AcDbEntity
  8
0
  6
Continuous
 62
     0
370
     0
100
AcDbLine
 10
267.7496316677044
 20
131.4838778903119
 30
0.0
 11
267.7455332523296
 21
131.4833280374638
 31
0.0
  0
LINE
  5
14E
330
1F
100
AcDbEntity
  8
0
  6
Continuous
 62
     0
370
     0
100
AcDbLine
 10
265.8977272754619
 20
131.3962635328404
 30
0.0
 11
265.8977272754619
 21
131.3438504864804
 31
0.0
  0
LINE
  5
14F
330
1F
100
AcDbEntity
  8
0
  6
Continuous
 62
     0
370
     0
100
AcDbLine
 10
266.0141780620525
 20
131.2824037601582
 30
0.0
 11
266.0141780620525
 21
131.2031257083051
 31
0.0
  0
LINE
  5
150
330
1F
100
AcDbEntity
  8
0
  6
Continuous
 62
     0
370
     0
100
AcDbLine
 10
201.285887027354
 20
122.7713656355969
 30
0.0
 11
201.2817886119793
 21
122.7708157827489
 31
0.0
  0
LINE
  5
151
330
1F
100
AcDbEntity
  8
0
  6
Continuous
 62
     0
370
     0
100
AcDbLine
 10
201.2454607730816
 20
122.5740086962811
 30
0.0
 11
201.2413623577068
 21
122.5734588434331
 31
0.0
  0
LINE
  5
152
330
1F
100
AcDbEntity
  8
0
  6
Continuous
 62
     0
370
     0
100
AcDbLine
 10
199.3935563808391
 20
122.4863943388097
 30
0.0
 11
199.3935563808391
 21
122.4339839746587
 31
0.0
  0
LINE
  5
153
330
1F
100
AcDbEntity
  8
0
  6
Continuous
 62
     0
370
     0
100
AcDbLine
 10
199.5100286251018
 20
122.3725345661275
 30
0.0
 11
199.5100286251018
 21
122.2932565142743
 31
0.0
  0
LINE
  5
154
330
1F
100
AcDbEntity
  8
0
  6
Continuous
 62
     0
370
     0
100
AcDbLine
 10
277.3480668312023
 20
132.2072482039564
 30
0.0
 11
267.7655318027446
 21
130.9234329988591
 31
0.0
  0
LINE
  5
155
330
1F
100
AcDbEntity
  8
0
  6
Continuous
 62
     0
370
     0
100
AcDbLine
 10
266.4183976894329
 20
130.7429498364561
 30
0.0
 11
201.2613609081218
 21
122.0135638048284
 31
0.0
  0
LINE
  5
156
330
1F
100
AcDbEntity
  8
0
  6
Continuous
 62
     0
370
     0
100
AcDbLine
 10
199.9142482524822
 20
121.8330833246343
 30
0.0
 11
190.4147436862896
 21
120.5603912403218
 31
0.0
  0
LINE
  5
157
330
1F
100
AcDbEntity
  8
0
  6
Continuous
 62
     0
370
     0
100
AcDbLine
 10
190.3797891384075
 20
120.6645628740423
 30
0.0
 11
199.9120810275982
 21
121.9416430523031
 31
0.0
  0
LINE
  5
158
330
1F
100
AcDbEntity
  8
0
  6
Continuous
 62
     0
370
     0
100
AcDbLine
 10
201.2462976222942
 20
122.1203961898915
 30
0.0
 11
266.4162304645488
 21
130.8515122463338
 31
0.0
  0
LINE
  5
159
330
1F
100
AcDbEntity
  8
0
  6
Continuous
 62
     0
370
     0
100
AcDbLine
 10
267.7504470592449
 20
131.0302653839223
 30
0.0
 11
277.3131230121563
 21
132.3114198376768
 31
0.0
  0
LINE
  5
15A
330
1F
100
AcDbEntity
  8
0
  6
Continuous
 62
     0
370
     0
100
AcDbLine
 10
277.3177793270061
 20
132.2871377994649
 30
0.0
 11
267.7543523555706
 21
131.0058814217679
 31
0.0
  0
LINE
  5
15B
330
1F
100
AcDbEntity
  8
0
  6
Continuous
 62
     0
370
     0
100
AcDbLine
 10
266.4167239910076
 20
130.8266723086469
 30
0.0
 11
201.2502029186199
 21
122.0960122277371
 31
0.0
  0
LINE
  5
15C
330
1F
100
AcDbEntity
  8
0
  6
Continuous
 62
     0
370
     0
100
AcDbLine
 10
199.9125745540569
 20
121.9168057968252
 30
0.0
 11
190.3844669109295
 21
120.6402808358304
 31
0.0
  0
LINE
  5
15D
330
1F
100
AcDbEntity
  8
0
  6
Continuous
 62
     0
370
     0
100
AcDbLine
 10
190.4077484851787
 20
120.596812956535
 30
0.0
 11
199.913497233958
 21
121.8703418900601
 31
0.0
  0
LINE
  5
15E
330
1F
100
AcDbEntity
  8
0
  6
Continuous
 62
     0
370
     0
100
AcDbLine
 10
201.2529709583233
 20
122.0497977664105
 30
0.0
 11
266.4176681285808
 21
130.7802110840909
 31
0.0
  0
LINE
  5
15F
330
1F
100
AcDbEntity
  8
0
  6
Continuous
 62
     0
370
     0
100
AcDbLine
 10
267.7571418529461
 20
130.9596669604413
 30
0.0
 11
277.3410716300914
 21
132.2436699201696
 31
0.0
  0
LINE
  5
160
330
1F
100
AcDbEntity
  8
0
  6
Continuous
 62
     0
370
     0
100
AcDbLine
 10
277.5052979236553
 20
131.421406560146
 30
0.0
 11
277.4974336868236
 21
131.4203524520032
 31
0.0
  0
LINE
  5
161
330
1F
100
AcDbEntity
  8
0
  6
Continuous
 62
     0
370
     0
100
AcDbLine
 10
277.5004377609203
 20
131.4357241918676
 30
0.0
 11
277.5065210109661
 21
131.4365395834081
 31
0.0
  0
LINE
  5
162
330
1F
100
AcDbEntity
  8
0
  6
Continuous
 62
     0
370
     0
100
AcDbLine
 10
277.5085165744732
 20
131.4461418916814
 30
0.0
 11
277.5018003230999
 21
131.4452406694524
 31
0.0
  0
LINE
  5
163
330
1F
100
AcDbEntity
  8
0
  6
Continuous
 62
     0
370
     0
100
AcDbLine
 10
277.504697108836
 20
131.4804875781171
 30
0.0
 11
277.5085165744732
 21
131.4809971978299
 31
0.0
  0
LINE
  5
164
330
1F
100
AcDbEntity
  8
0
  6
Continuous
 62
     0
370
     0
100
AcDbLine
 10
277.5065210109661
 20
131.4980238606564
 30
0.0
 11
277.5052120929668
 21
131.4978495170705
 31
0.0
  0
LINE
  5
165
330
1F
100
AcDbEntity
  8
0
  6
Continuous
 62
     0
370
     0
100
AcDbLine
 10
277.5052979236553
 20
131.5922605921857
 30
0.0
 11
277.5065210109661
 21
131.5924242069356
 31
0.0
  0
LINE
  5
166
330
1F
100
AcDbEntity
  8
0
  6
Continuous
 62
     0
370
     0
100
AcDbLine
 10
277.5085165744732
 20
131.602026515209
 30
0.0
 11
277.5052979236553
 21
131.6015946795576
 31
0.0
  0
LINE
  5
167
330
1F
100
AcDbEntity
  8
0
  6
Continuous
 62
     0
370
     0
100
AcDbLine
 10
277.5052979236553
 20
131.6364499857061
 30
0.0
 11
277.5085165744732
 21
131.6368818213575
 31
0.0
  0
LINE
  5
16B
330
1F
100
AcDbEntity
  8
0
  6
Continuous
 62
     0
370
     0
100
AcDbLine
 10
277.3767879253338
 20
131.747563176357
 30
0.0
 11
277.377184892268
 21
131.7476141383283
 31
0.0
  0
ARC
  5
171
330
1F
100
AcDbEntity
  8
0
  6
ByBlock
 62
     0
370
     0
100
AcDbCircle
 10
287.3653231923548
 20
134.4322320735891
 30
0.0
 40
4.15742009170326
100
AcDbArc
 50
157.3801350519593
 51
202.6198649480407
  0
ARC
  5
172
330
1F
100
AcDbEntity
  8
0
  6
ByBlock
 62
     0
370
     0
100
AcDbCircle
 10
279.6900860999796
 20
131.2342166184328
 30
0.0
 40
4.15742009170329
100
AcDbArc
 50
337.3801350519607
 51
22.61986494804037
  0
ARC
  5
173
330
1F
100
AcDbEntity
  8
0
  6
ByBlock
 62
     0
370
     0
100
AcDbCircle
 10
287.8803869576905
 20
134.5012383359471
 30
0.0
 40
4.157420091703313
100
AcDbArc
 50
157.3801350519589
 51
202.6198649480411
  0
ARC
  5
174
330
1F
100
AcDbEntity
  8
0
  6
ByBlock
 62
     0
370
     0
100
AcDbCircle
 10
280.2051498653151
 20
131.3032228807907
 30
0.0
 40
4.157420091703266
100
AcDbArc
 50
337.3801350519601
 51
22.61986494804066
  0
LINE
  5
4A9
330
1F
100
AcDbEntity
  8
0
  6
Continuous
 62
     0
370
     0
100
AcDbLine
 10
112.9897978549907
 20
110.0684934785001
 30
0.0
 11
114.293802047343
 21
110.2431964804761
 31
0.0
  0
LINE
  5
4AA
330
1F
100
AcDbEntity
  8
0
  6
Continuous
 62
     0
370
     0
100
AcDbLine
 10
114.2723014598796
 20
111.1161991884343
 30
0.0
 11
112.9682972675273
 21
110.9414961864583
 31
0.0
  0
LINE
  5
4AB
330
1F
100
AcDbEntity
  8
0
  6
Continuous
 62
     0
370
     0
100
AcDbLine
 10
179.4939687496135
 20
118.9783626725308
 30
0.0
 11
180.7979729419658
 21
119.1530656745068
 31
0.0
  0
LINE
  5
4AC
330
1F
100
AcDbEntity
  8
0
  6
Continuous
 62
     0
370
     0
100
AcDbLine
 10
180.7764723545025
 20
120.0260683824651
 30
0.0
 11
179.4724681621502
 21
119.8513653804891
 31
0.0
  0
LINE
  5
4AD
330
1F
100
AcDbEntity
  8
0
  6
Continuous
 62
     0
370
     0
100
AcDbLine
 10
103.6072805171916
 20
108.0890339543454
 30
0.0
 11
190.5406143909404
 21
119.7358909179799
 31
0.0
  0
LINE
  5
4AE
330
1F
100
AcDbEntity
  8
0
  6
Continuous
 62
     0
370
     0
100
AcDbLine
 10
103.4963014369914
 20
108.2128447224729
 30
0.0
 11
190.4296138530681
 21
119.8597016861073
 31
0.0
  0
LINE
  5
4AF
330
1F
100
AcDbEntity
  8
0
  6
Continuous
 62
     0
370
     0
100
AcDbLine
 10
114.3479182964275
 20
111.1176127125852
 30
0.0
 11
114.3479182964275
 21
110.8836972643964
 31
0.0
  0
LINE
  5
4B0
330
1F
100
AcDbEntity
  8
0
  6
Continuous
 62
     0
370
     0
100
AcDbLine
 10
114.3362667804668
 20
110.8821362187497
 30
0.0
 11
114.3121483570049
 21
110.9271517326466
 31
0.0
  0
LWPOLYLINE
  5
4B1
330
1F
100
AcDbEntity
  8
0
  6
Continuous
 62
     0
370
     0
100
AcDbPolyline
 90
        9
 70
   128
 43
0.0
 10
114.307492042155
 20
110.9191560675733
 10
114.3075349574993
 20
110.9222862054936
 10
114.3077495342204
 20
110.9249657322995
 10
114.3081572299907
 20
110.9270846774213
 10
114.3087365871379
 20
110.9285545279614
 10
114.3094446903179
 20
110.9293109109036
 10
114.3102815395305
 20
110.9293270041577
 10
114.3111827617595
 20
110.9285947610967
 10
114.3121483570049
 20
110.9271517326466
  0
LINE
  5
4B2
330
1F
100
AcDbEntity
  8
0
  6
Continuous
 62
     0
370
     0
100
AcDbLine
 10
114.307492042155
 20
110.9191560675733
 30
0.0
 11
114.3129637485454
 21
110.64481972953
 31
0.0
  0
LINE
  5
4B3
330
1F
100
AcDbEntity
  8
0
  6
Continuous
 62
     0
370
     0
100
AcDbLine
 10
114.316847587199
 20
110.4509496619336
 30
0.0
 11
114.3174054866741
 21
110.4227998783223
 31
0.0
  0
ARC
  5
4B4
330
1F
100
AcDbEntity
  8
0
  6
Continuous
 62
     0
370
     0
100
AcDbCircle
 10
114.4333366451562
 20
110.4259252419584
 30
0.0
 40
0.1159732788398786
100
AcDbArc
 50
181.5442507926965
 51
192.8311372653827
  0
LINE
  5
4B5
330
1F
100
AcDbEntity
  8
0
  6
Continuous
 62
     0
370
     0
100
AcDbLine
 10
114.3202593570659
 20
110.4001700808637
 30
0.0
 11
114.3362667804668
 21
110.3313741018407
 31
0.0
  0
LINE
  5
4B6
330
1F
100
AcDbEntity
  8
0
  6
Continuous
 62
     0
370
     0
100
AcDbLine
 10
114.3362667804668
 20
110.3313741018407
 30
0.0
 11
114.3362667804668
 21
110.3079906036488
 31
0.0
  0
LINE
  5
4B7
330
1F
100
AcDbEntity
  8
0
  6
Continuous
 62
     0
370
     0
100
AcDbLine
 10
114.3362667804668
 20
110.3079906036488
 30
0.0
 11
114.2947461849162
 21
110.2439126302831
 31
0.0
  0
LWPOLYLINE
  5
4B8
330
1F
100
AcDbEntity
  8
0
  6
Continuous
 62
     0
370
     0
100
AcDbPolyline
 90
        9
 70
   128
 43
0.0
 10
114.2867639308879
 20
110.2686291863553
 10
114.2870428806255
 20
110.2637475659482
 10
114.2876866107891
 20
110.2586406399838
 10
114.2886307483623
 20
110.2537321974866
 10
114.2897894626567
 20
110.2494192053906
 10
114.291098380656
 20
110.246058397495
 10
114.2924287563274
 20
110.2439233591191
 10
114.2936733013103
 20
110.243188433849
 10
114.2947461849162
 20
110.2439126302831
  0
LINE
  5
4B9
330
1F
100
AcDbEntity
  8
0
  6
Continuous
 62
     0
370
     0
100
AcDbLine
 10
114.2867639308879
 20
110.2686291863553
 30
0.0
 11
114.2700484043071
 21
111.1059531499974
 31
0.0
  0
LWPOLYLINE
  5
4BA
330
1F
100
AcDbEntity
  8
0
  6
Continuous
 62
     0
370
     0
100
AcDbPolyline
 90
        9
 70
   128
 43
0.0
 10
114.2746832614849
 20
111.1139461328618
 10
114.2737391239116
 20
111.1153918435208
 10
114.2728379016826
 20
111.1161214043729
 10
114.27200105247
 20
111.1161079933278
 10
114.27129294929
 20
111.1153489281766
 10
114.2707135921428
 20
111.1138817598454
 10
114.2703058963725
 20
111.1117628147237
 10
114.2700698619792
 20
111.1090806057088
 10
114.2700484043071
 20
111.1059531499974
  0
LINE
  5
4BB
330
1F
100
AcDbEntity
  8
0
  6
Continuous
 62
     0
370
     0
100
AcDbLine
 10
114.2746832614849
 20
111.1139461328618
 30
0.0
 11
114.3129637485454
 21
111.0425162245862
 31
0.0
  0
LINE
  5
4BC
330
1F
100
AcDbEntity
  8
0
  6
Continuous
 62
     0
370
     0
100
AcDbLine
 10
114.3129637485454
 20
111.0425162245862
 30
0.0
 11
114.3129637485454
 21
111.1984008481137
 31
0.0
  0
LINE
  5
4BD
330
1F
100
AcDbEntity
  8
0
  6
Continuous
 62
     0
370
     0
100
AcDbLine
 10
114.3525746112773
 20
111.1245086719624
 30
0.0
 11
114.3129637485454
 21
111.1984008481137
 31
0.0
  0
LWPOLYLINE
  5
4BE
330
1F
100
AcDbEntity
  8
0
  6
Continuous
 62
     0
370
     0
100
AcDbPolyline
 90
        9
 70
   128
 43
0.0
 10
114.3479182964275
 20
111.1176127125852
 10
114.348004127116
 20
111.1204880406491
 10
114.3482616191814
 20
111.1229154398076
 10
114.3486907726238
 20
111.1248090793721
 10
114.349270129771
 20
111.1260884930722
 10
114.3499782329509
 20
111.1267107655637
 10
114.3507936244914
 20
111.1266490747563
 10
114.3516519313762
 20
111.1259034206502
 10
114.3525746112773
 20
111.1245086719624
  0
LINE
  5
4BF
330
1F
100
AcDbEntity
  8
0
  6
Continuous
 62
     0
370
     0
100
AcDbLine
 10
112.9827597385356
 20
110.0939261843793
 30
0.0
 11
114.2867639308879
 21
110.2686291863553
 31
0.0
  0
LINE
  5
4C0
330
1F
100
AcDbEntity
  8
0
  6
Continuous
 62
     0
370
     0
100
AcDbLine
 10
112.9827597385356
 20
110.0939261843793
 30
0.0
 11
112.9660442119548
 21
110.9312501480214
 31
0.0
  0
LINE
  5
4C1
330
1F
100
AcDbEntity
  8
0
  6
Continuous
 62
     0
370
     0
100
AcDbLine
 10
114.2700484043071
 20
111.1059531499974
 30
0.0
 11
112.9660442119548
 21
110.9312501480214
 31
0.0
  0
ARC
  5
4C2
330
1F
100
AcDbEntity
  8
0
  6
Continuous
 62
     0
370
     0
100
AcDbCircle
 10
113.0140844641126
 20
110.0889046290694
 30
0.0
 40
0.0317246662741424
100
AcDbArc
 50
170.8926043151822
 51
220.0446397945931
  0
LINE
  5
4C3
330
1F
100
AcDbEntity
  8
0
  6
Continuous
 62
     0
370
     0
100
AcDbLine
 10
115.3419878726909
 20
111.0168796708219
 30
0.0
 11
115.2288844829509
 21
111.2279373337857
 31
0.0
  0
LINE
  5
4C4
330
1F
100
AcDbEntity
  8
0
  6
Continuous
 62
     0
370
     0
100
AcDbLine
 10
115.2288844829509
 20
111.3838219573132
 30
0.0
 11
115.2288844829509
 21
111.2279373337857
 31
0.0
  0
LINE
  5
4C5
330
1F
100
AcDbEntity
  8
0
  6
Continuous
 62
     0
370
     0
100
AcDbLine
 10
115.2288844829509
 20
111.3838219573132
 30
0.0
 11
115.4199435954997
 21
111.0273215105168
 31
0.0
  0
LINE
  5
4C6
330
1F
100
AcDbEntity
  8
0
  6
Continuous
 62
     0
370
     0
100
AcDbLine
 10
112.3134949451396
 20
110.9305232693784
 30
0.0
 11
113.0089810138652
 21
111.0236978461377
 31
0.0
  0
LINE
  5
4C7
330
1F
100
AcDbEntity
  8
0
  6
Continuous
 62
     0
370
     0
100
AcDbLine
 10
112.3134949451396
 20
111.0864078929059
 30
0.0
 11
112.3134949451396
 21
110.9305232693784
 31
0.0
  0
LINE
  5
4C8
330
1F
100
AcDbEntity
  8
0
  6
Continuous
 62
     0
370
     0
100
AcDbLine
 10
112.3134949451396
 20
111.0864078929059
 30
0.0
 11
115.0084283595989
 21
111.4474600484006
 31
0.0
  0
LINE
  5
4C9
330
1F
100
AcDbEntity
  8
0
  6
Continuous
 62
     0
370
     0
100
AcDbLine
 10
115.0084283595989
 20
111.2915754248731
 30
0.0
 11
115.0084283595989
 21
111.4474600484006
 31
0.0
  0
LINE
  5
4CA
330
1F
100
AcDbEntity
  8
0
  6
Continuous
 62
     0
370
     0
100
AcDbLine
 10
115.0084283595989
 20
111.2915754248731
 30
0.0
 11
114.3129637485454
 21
111.1984008481137
 31
0.0
  0
LINE
  5
4CB
330
1F
100
AcDbEntity
  8
0
  6
Continuous
 62
     0
370
     0
100
AcDbLine
 10
113.0089810138652
 20
110.9469464351766
 30
0.0
 11
113.0089810138652
 21
111.0236978461377
 31
0.0
  0
LWPOLYLINE
  5
4CC
330
1F
100
AcDbEntity
  8
0
  6
Continuous
 62
     0
370
     0
100
AcDbPolyline
 90
        7
 70
   128
 43
0.0
 10
112.9660442119548
 20
110.9312501480214
 10
112.9660871272991
 20
110.9343776037328
 10
112.9663017040203
 20
110.9370598127477
 10
112.9667093997905
 20
110.9391787578694
 10
112.9672887569377
 20
110.9406459262006
 10
112.9679968601177
 20
110.9414049913518
 10
112.9682972675273
 20
110.9414961864583
  0
LINE
  5
4CD
330
1F
100
AcDbEntity
  8
0
  6
Continuous
 62
     0
370
     0
100
AcDbLine
 10
112.299332881541
 20
110.6092402269475
 30
0.0
 11
112.186229491801
 21
110.8202952077023
 31
0.0
  0
LINE
  5
4CE
330
1F
100
AcDbEntity
  8
0
  6
Continuous
 62
     0
370
     0
100
AcDbLine
 10
112.3134949451396
 20
110.9305232693784
 30
0.0
 11
112.186229491801
 21
110.8202952077023
 31
0.0
  0
LINE
  5
4CF
330
1F
100
AcDbEntity
  8
0
  6
Continuous
 62
     0
370
     0
100
AcDbLine
 10
115.2288844829509
 20
111.2279373337857
 30
0.0
 11
115.0084283595989
 21
111.2915754248731
 31
0.0
  0
LINE
  5
4D0
330
1F
100
AcDbEntity
  8
0
  6
Continuous
 62
     0
370
     0
100
AcDbLine
 10
112.9295876270244
 20
110.6936788489453
 30
0.0
 11
112.8514387851665
 21
110.8395373751752
 31
0.0
  0
LWPOLYLINE
  5
4D1
330
1F
100
AcDbEntity
  8
0
  6
Continuous
 62
     0
370
     0
100
AcDbPolyline
 90
        9
 70
   128
 43
0.0
 10
112.8514387851665
 20
110.8395373751752
 10
112.8164842372844
 20
110.8749666740529
 10
112.7570894008586
 20
110.9010162880055
 10
112.6822664981792
 20
110.913713865482
 10
112.6034310108134
 20
110.9111308982007
 10
112.5325563198039
 20
110.8936589886777
 10
112.4804570918987
 20
110.8639562060468
 10
112.4550726657817
 20
110.8265474369161
 10
112.4602439647624
 20
110.7871243288152
  0
LINE
  5
4D2
330
1F
100
AcDbEntity
  8
0
  6
Continuous
 62
     0
370
     0
100
AcDbLine
 10
112.4602439647624
 20
110.7871243288152
 30
0.0
 11
112.5383928066204
 21
110.6412684847943
 31
0.0
  0
LINE
  5
4D3
330
1F
100
AcDbEntity
  8
0
  6
Continuous
 62
     0
370
     0
100
AcDbLine
 10
114.6917989498088
 20
110.9696298768155
 30
0.0
 11
114.7264316326091
 21
110.9344071080319
 31
0.0
  0
LWPOLYLINE
  5
4D4
330
1F
100
AcDbEntity
  8
0
  6
Continuous
 62
     0
370
     0
100
AcDbPolyline
 90
       10
 70
   128
 43
0.0
 10
115.08822944221
 20
110.9828826715581
 10
115.0829937702129
 20
111.0220402409665
 10
115.0480606800029
 20
111.0574722220532
 10
114.988644385905
 20
111.0835218360059
 10
114.9138429408977
 20
111.0962194134824
 10
114.8349859958599
 20
111.093636446201
 10
114.7641327625225
 20
111.076161854469
 10
114.7120335346172
 20
111.0464617540471
 10
114.6866276508281
 20
111.0090503027074
 10
114.6917989498088
 20
110.9696298768155
  0
LINE
  5
4D5
330
1F
100
AcDbEntity
  8
0
  6
Continuous
 62
     0
370
     0
100
AcDbLine
 10
115.0084283595989
 20
111.4474600484006
 30
0.0
 11
115.2288844829509
 21
111.3838219573132
 31
0.0
  0
ARC
  5
4D6
330
1F
100
AcDbEntity
  8
0
  6
Continuous
 62
     0
370
     0
100
AcDbCircle
 10
114.8873963600109
 20
111.401331494033
 30
0.0
 40
0.352132561250218
100
AcDbArc
 50
248.4661967274854
 51
291.5338032725146
  0
LINE
  5
4D7
330
1F
100
AcDbEntity
  8
0
  6
Continuous
 62
     0
370
     0
100
AcDbLine
 10
112.186229491801
 20
110.8202952077023
 30
0.0
 11
112.186229491801
 21
110.9761798312299
 31
0.0
  0
LINE
  5
4D8
330
1F
100
AcDbEntity
  8
0
  6
Continuous
 62
     0
370
     0
100
AcDbLine
 10
112.186229491801
 20
110.9761798312299
 30
0.0
 11
112.3134949451396
 21
111.0864078929059
 31
0.0
  0
LINE
  5
4D9
330
1F
100
AcDbEntity
  8
0
  6
Continuous
 62
     0
370
     0
100
AcDbLine
 10
112.4963143115947
 20
110.875696234905
 30
0.0
 11
112.576694751353
 21
110.725677602493
 31
0.0
  0
ARC
  5
4DA
330
1F
100
AcDbEntity
  8
0
  6
Continuous
 62
     0
370
     0
100
AcDbCircle
 10
112.7173372935762
 20
110.8370291021992
 30
0.0
 40
0.1793864018531031
100
AcDbArc
 50
218.3698611780088
 51
259.2843596181816
  0
LINE
  5
4DB
330
1F
100
AcDbEntity
  8
0
  6
Continuous
 62
     0
370
     0
100
AcDbLine
 10
180.8520891910503
 20
120.0274819066159
 30
0.0
 11
180.8520891910503
 21
119.7935664584271
 31
0.0
  0
LINE
  5
4DC
330
1F
100
AcDbEntity
  8
0
  6
Continuous
 62
     0
370
     0
100
AcDbLine
 10
180.8404376750896
 20
119.7920054127805
 30
0.0
 11
180.8163192516277
 21
119.8370209266774
 31
0.0
  0
LWPOLYLINE
  5
4DD
330
1F
100
AcDbEntity
  8
0
  6
Continuous
 62
     0
370
     0
100
AcDbPolyline
 90
        9
 70
   128
 43
0.0
 10
180.8116629367779
 20
119.829025261604
 10
180.81168439445
 20
119.8321553995244
 10
180.8119204288433
 20
119.8348349263303
 10
180.8123281246135
 20
119.836953871452
 10
180.8129074817608
 20
119.8384237219922
 10
180.8136155849407
 20
119.8391801049344
 10
180.8144524341533
 20
119.8391935159795
 10
180.8153536563823
 20
119.8384639551274
 10
180.8163192516277
 20
119.8370209266774
  0
LINE
  5
4DE
330
1F
100
AcDbEntity
  8
0
  6
Continuous
 62
     0
370
     0
100
AcDbLine
 10
180.8116629367779
 20
119.829025261604
 30
0.0
 11
180.8171346431682
 21
119.5546889235608
 31
0.0
  0
LINE
  5
4DF
330
1F
100
AcDbEntity
  8
0
  6
Continuous
 62
     0
370
     0
100
AcDbLine
 10
180.8210184818218
 20
119.3608188559644
 30
0.0
 11
180.8215763812969
 21
119.3326690723531
 31
0.0
  0
ARC
  5
4E0
330
1F
100
AcDbEntity
  8
0
  6
Continuous
 62
     0
370
     0
100
AcDbCircle
 10
180.9356241170005
 20
119.3355569153259
 30
0.0
 40
0.1140842918905952
100
AcDbArc
 50
181.4504967051203
 51
192.9248913530284
  0
LINE
  5
4E1
330
1F
100
AcDbEntity
  8
0
  6
Continuous
 62
     0
370
     0
100
AcDbLine
 10
180.8244302516887
 20
119.3100392748944
 30
0.0
 11
180.8404376750896
 21
119.2412432958714
 31
0.0
  0
LINE
  5
4E2
330
1F
100
AcDbEntity
  8
0
  6
Continuous
 62
     0
370
     0
100
AcDbLine
 10
180.8404376750896
 20
119.2412432958714
 30
0.0
 11
180.8404376750896
 21
119.2178597976796
 31
0.0
  0
LINE
  5
4E3
330
1F
100
AcDbEntity
  8
0
  6
Continuous
 62
     0
370
     0
100
AcDbLine
 10
180.8404376750896
 20
119.2178597976796
 30
0.0
 11
180.798895621867
 21
119.1537818243138
 31
0.0
  0
LWPOLYLINE
  5
4E4
330
1F
100
AcDbEntity
  8
0
  6
Continuous
 62
     0
370
     0
100
AcDbPolyline
 90
        9
 70
   128
 43
0.0
 10
180.7909348255108
 20
119.1784983803861
 10
180.7912137752483
 20
119.173616759979
 10
180.7918575054119
 20
119.1685098340146
 10
180.7928016429851
 20
119.1636013915173
 10
180.7939603572796
 20
119.1592883994214
 10
180.7952692752788
 20
119.1559275915257
 10
180.7965996509502
 20
119.1537925531499
 10
180.7978441959331
 20
119.1530576278798
 10
180.798895621867
 20
119.1537818243138
  0
LINE
  5
4E5
330
1F
100
AcDbEntity
  8
0
  6
Continuous
 62
     0
370
     0
100
AcDbLine
 10
180.7909348255108
 20
119.1784983803861
 30
0.0
 11
180.7742192989299
 21
120.0158223440282
 31
0.0
  0
LWPOLYLINE
  5
4E6
330
1F
100
AcDbEntity
  8
0
  6
Continuous
 62
     0
370
     0
100
AcDbPolyline
 90
        9
 70
   128
 43
0.0
 10
180.7788541561077
 20
120.0238153268926
 10
180.7779100185344
 20
120.0252583553426
 10
180.7770087963054
 20
120.0259905984036
 10
180.7761719470928
 20
120.0259745051495
 10
180.7754423862407
 20
120.0252181222073
 10
180.7748844867656
 20
120.0237482716672
 10
180.7744767909954
 20
120.0216293265454
 10
180.7742407566021
 20
120.0189497997395
 10
180.7742192989299
 20
120.0158223440282
  0
LINE
  5
4E7
330
1F
100
AcDbEntity
  8
0
  6
Continuous
 62
     0
370
     0
100
AcDbLine
 10
180.7788541561077
 20
120.0238153268926
 30
0.0
 11
180.8171346431682
 21
119.952385418617
 31
0.0
  0
LINE
  5
4E8
330
1F
100
AcDbEntity
  8
0
  6
Continuous
 62
     0
370
     0
100
AcDbLine
 10
180.8171346431682
 20
119.952385418617
 30
0.0
 11
180.8171346431682
 21
120.1082700421445
 31
0.0
  0
LINE
  5
4E9
330
1F
100
AcDbEntity
  8
0
  6
Continuous
 62
     0
370
     0
100
AcDbLine
 10
180.8567455059002
 20
120.0343778659932
 30
0.0
 11
180.8171346431682
 21
120.1082700421445
 31
0.0
  0
LWPOLYLINE
  5
4EA
330
1F
100
AcDbEntity
  8
0
  6
Continuous
 62
     0
370
     0
100
AcDbPolyline
 90
        9
 70
   128
 43
0.0
 10
180.8520891910503
 20
120.0274819066159
 10
180.8521750217388
 20
120.0303545524709
 10
180.8524325138042
 20
120.0327846338384
 10
180.8528616672466
 20
120.0346782734029
 10
180.8534410243938
 20
120.035957687103
 10
180.8541491275737
 20
120.0365799595944
 10
180.8549645191143
 20
120.0365182687871
 10
180.855822825999
 20
120.035772614681
 10
180.8567455059002
 20
120.0343778659932
  0
LINE
  5
4EB
330
1F
100
AcDbEntity
  8
0
  6
Continuous
 62
     0
370
     0
100
AcDbLine
 10
179.4869306331585
 20
119.00379537841
 30
0.0
 11
180.7909348255108
 21
119.1784983803861
 31
0.0
  0
LINE
  5
4EC
330
1F
100
AcDbEntity
  8
0
  6
Continuous
 62
     0
370
     0
100
AcDbLine
 10
179.4869306331585
 20
119.00379537841
 30
0.0
 11
179.4702151065777
 21
119.8411193420522
 31
0.0
  0
LINE
  5
4ED
330
1F
100
AcDbEntity
  8
0
  6
Continuous
 62
     0
370
     0
100
AcDbLine
 10
180.7742192989299
 20
120.0158223440282
 30
0.0
 11
179.4702151065777
 21
119.8411193420522
 31
0.0
  0
ARC
  5
4EE
330
1F
100
AcDbEntity
  8
0
  6
Continuous
 62
     0
370
     0
100
AcDbCircle
 10
179.5181632305237
 20
118.9987483280118
 30
0.0
 40
0.0316377599697134
100
AcDbArc
 50
170.820605995342
 51
220.1166381143629
  0
LINE
  5
4EF
330
1F
100
AcDbEntity
  8
0
  6
Continuous
 62
     0
370
     0
100
AcDbLine
 10
181.8461587673137
 20
119.9267488648526
 30
0.0
 11
181.7330553775737
 21
120.1378065278165
 31
0.0
  0
LINE
  5
4F0
330
1F
100
AcDbEntity
  8
0
  6
Continuous
 62
     0
370
     0
100
AcDbLine
 10
181.7330553775737
 20
120.293691151344
 30
0.0
 11
181.7330553775737
 21
120.1378065278165
 31
0.0
  0
LINE
  5
4F1
330
1F
100
AcDbEntity
  8
0
  6
Continuous
 62
     0
370
     0
100
AcDbLine
 10
181.7330553775737
 20
120.293691151344
 30
0.0
 11
181.9241144901226
 21
119.9371907045476
 31
0.0
  0
LINE
  5
4F2
330
1F
100
AcDbEntity
  8
0
  6
Continuous
 62
     0
370
     0
100
AcDbLine
 10
178.8176658397625
 20
119.8403924634091
 30
0.0
 11
179.5131304508159
 21
119.9335670401685
 31
0.0
  0
LINE
  5
4F3
330
1F
100
AcDbEntity
  8
0
  6
Continuous
 62
     0
370
     0
100
AcDbLine
 10
178.8176658397625
 20
119.9962770869367
 30
0.0
 11
178.8176658397625
 21
119.8403924634091
 31
0.0
  0
LINE
  5
4F4
330
1F
100
AcDbEntity
  8
0
  6
Continuous
 62
     0
370
     0
100
AcDbLine
 10
178.8176658397625
 20
119.9962770869367
 30
0.0
 11
181.5125992542217
 21
120.3573292424313
 31
0.0
  0
LINE
  5
4F5
330
1F
100
AcDbEntity
  8
0
  6
Continuous
 62
     0
370
     0
100
AcDbLine
 10
181.5125992542217
 20
120.2014446189038
 30
0.0
 11
181.5125992542217
 21
120.3573292424313
 31
0.0
  0
LINE
  5
4F6
330
1F
100
AcDbEntity
  8
0
  6
Continuous
 62
     0
370
     0
100
AcDbLine
 10
181.5125992542217
 20
120.2014446189038
 30
0.0
 11
180.8171346431682
 21
120.1082700421445
 31
0.0
  0
LINE
  5
4F7
330
1F
100
AcDbEntity
  8
0
  6
Continuous
 62
     0
370
     0
100
AcDbLine
 10
179.5131304508159
 20
119.8568129469983
 30
0.0
 11
179.5131304508159
 21
119.9335670401685
 31
0.0
  0
LWPOLYLINE
  5
4F8
330
1F
100
AcDbEntity
  8
0
  6
Continuous
 62
     0
370
     0
100
AcDbPolyline
 90
        7
 70
   128
 43
0.0
 10
179.4702151065777
 20
119.8411193420522
 10
179.4702365642498
 20
119.8442467977635
 10
179.4704725986431
 20
119.8469290067784
 10
179.4708802944133
 20
119.8490479519002
 10
179.4714596515606
 20
119.8505151202313
 10
179.4721677547405
 20
119.8512715031735
 10
179.4724681621502
 20
119.8513653804891
  0
LINE
  5
4F9
330
1F
100
AcDbEntity
  8
0
  6
Continuous
 62
     0
370
     0
100
AcDbLine
 10
178.8035037761638
 20
119.5191067387692
 30
0.0
 11
178.6904003864238
 21
119.7301644017331
 31
0.0
  0
LINE
  5
4FA
330
1F
100
AcDbEntity
  8
0
  6
Continuous
 62
     0
370
     0
100
AcDbLine
 10
178.8176658397625
 20
119.8403924634091
 30
0.0
 11
178.6904003864238
 21
119.7301644017331
 31
0.0
  0
LINE
  5
4FB
330
1F
100
AcDbEntity
  8
0
  6
Continuous
 62
     0
370
     0
100
AcDbLine
 10
181.7330553775737
 20
120.1378065278165
 30
0.0
 11
181.5125992542217
 21
120.2014446189038
 31
0.0
  0
LINE
  5
4FC
330
1F
100
AcDbEntity
  8
0
  6
Continuous
 62
     0
370
     0
100
AcDbLine
 10
179.4337585216472
 20
119.6035480429761
 30
0.0
 11
179.3556096797893
 21
119.7494038869969
 31
0.0
  0
LWPOLYLINE
  5
4FD
330
1F
100
AcDbEntity
  8
0
  6
Continuous
 62
     0
370
     0
100
AcDbPolyline
 90
        9
 70
   128
 43
0.0
 10
179.3556096797893
 20
119.7494038869969
 10
179.3206551319072
 20
119.7848358680837
 10
179.2612602954815
 20
119.8108854820363
 10
179.186437392802
 20
119.8235830595128
 10
179.1075804477642
 20
119.8210000922315
 10
179.0367272144268
 20
119.8035255004994
 10
178.9846279865215
 20
119.7738254000775
 10
178.9592221027324
 20
119.7364166309468
 10
178.9643934017132
 20
119.6969935228459
  0
LINE
  5
4FE
330
1F
100
AcDbEntity
  8
0
  6
Continuous
 62
     0
370
     0
100
AcDbLine
 10
178.9643934017132
 20
119.6969935228459
 30
0.0
 11
179.0425637012432
 21
119.5511376788251
 31
0.0
  0
LINE
  5
4FF
330
1F
100
AcDbEntity
  8
0
  6
Continuous
 62
     0
370
     0
100
AcDbLine
 10
181.1959698444317
 20
119.8794990708463
 30
0.0
 11
181.230602527232
 21
119.8442763020627
 31
0.0
  0
LWPOLYLINE
  5
500
330
1F
100
AcDbEntity
  8
0
  6
Continuous
 62
     0
370
     0
100
AcDbPolyline
 90
       10
 70
   128
 43
0.0
 10
181.5924003368328
 20
119.8927491833798
 10
181.5871646648357
 20
119.9319094349973
 10
181.5522315746258
 20
119.967341416084
 10
181.4928152805279
 20
119.9933883478276
 10
181.4179923778484
 20
120.0060886075131
 10
181.3391568904827
 20
120.0035056402318
 10
181.2683036571453
 20
119.9860310484998
 10
181.21620442924
 20
119.9563282658688
 10
181.1907985454509
 20
119.9189194967381
 10
181.1959698444317
 20
119.8794990708463
  0
LINE
  5
501
330
1F
100
AcDbEntity
  8
0
  6
Continuous
 62
     0
370
     0
100
AcDbLine
 10
181.5125992542217
 20
120.3573292424313
 30
0.0
 11
181.7330553775737
 21
120.293691151344
 31
0.0
  0
ARC
  5
502
330
1F
100
AcDbEntity
  8
0
  6
Continuous
 62
     0
370
     0
100
AcDbCircle
 10
181.3915672546337
 20
120.3112006880634
 30
0.0
 40
0.35213256124996
100
AcDbArc
 50
248.4661967274684
 51
291.5338032725315
  0
LINE
  5
503
330
1F
100
AcDbEntity
  8
0
  6
Continuous
 62
     0
370
     0
100
AcDbLine
 10
178.6904003864238
 20
119.7301644017331
 30
0.0
 11
178.6904003864238
 21
119.8860490252606
 31
0.0
  0
LINE
  5
504
330
1F
100
AcDbEntity
  8
0
  6
Continuous
 62
     0
370
     0
100
AcDbLine
 10
178.6904003864238
 20
119.8860490252606
 30
0.0
 11
178.8176658397625
 21
119.9962770869367
 31
0.0
  0
LINE
  5
505
330
1F
100
AcDbEntity
  8
0
  6
Continuous
 62
     0
370
     0
100
AcDbLine
 10
179.0004637485454
 20
119.7855654289357
 30
0.0
 11
179.0808656459758
 21
119.6355467965238
 31
0.0
  0
ARC
  5
506
330
1F
100
AcDbEntity
  8
0
  6
Continuous
 62
     0
370
     0
100
AcDbCircle
 10
179.2215762663208
 20
119.7469997740167
 30
0.0
 40
0.179502771203959
100
AcDbArc
 50
218.3817677018038
 51
259.2623014917191
  0
LWPOLYLINE
  5
507
330
1F
100
AcDbEntity
  8
0
  6
Continuous
 62
     0
370
     0
100
AcDbPolyline
 90
        5
 70
   128
 43
0.0
 10
190.5406143909404
 20
119.7358909179799
 10
190.5322673564861
 20
119.7374305059544
 10
190.5077412372539
 20
119.7668597032659
 10
190.4832365756939
 20
119.8289179732434
 10
190.4731085544536
 20
119.8655301262967
  0
LWPOLYLINE
  5
508
330
1F
100
AcDbEntity
  8
0
  6
Continuous
 62
     0
370
     0
100
AcDbPolyline
 90
        5
 70
   128
 43
0.0
 10
103.6072805171916
 20
108.0890339543454
 10
103.5989334827373
 20
108.090578906738
 10
103.5744288211772
 20
108.1200027396314
 10
103.5499241596172
 20
108.1820288231008
 10
103.5397746807048
 20
108.2186731626622
  0
LINE
  5
509
330
1F
100
AcDbEntity
  8
0
  6
Continuous
 62
     0
370
     0
100
AcDbLine
 10
190.6009104495952
 20
119.5348834921948
 30
0.0
 11
190.6009104495952
 21
119.5345348050229
 31
0.0
  0
LINE
  5
50A
330
1F
100
AcDbEntity
  8
0
  6
Continuous
 62
     0
370
     0
100
AcDbLine
 10
190.6009104495952
 20
119.5345348050229
 30
0.0
 11
190.591855311961
 21
119.5514702727429
 31
0.0
  0
ARC
  5
50B
330
1F
100
AcDbEntity
  8
0
  6
Continuous
 62
     0
370
     0
100
AcDbCircle
 10
190.7191480174739
 20
119.6061559000109
 30
0.0
 40
0.1385422343782592
100
AcDbArc
 50
183.0699899945569
 51
203.2486187827097
  0
LINE
  5
50C
330
1F
100
AcDbEntity
  8
0
  6
Continuous
 62
     0
370
     0
100
AcDbLine
 10
190.5808046108196
 20
119.5987361600034
 30
0.0
 11
190.5723932033489
 21
119.6986672212712
 31
0.0
  0
ARC
  5
50D
330
1F
100
AcDbEntity
  8
0
  6
Continuous
 62
     0
370
     0
100
AcDbCircle
 10
190.7309289591589
 20
119.7122336930896
 30
0.0
 40
0.159115162784262
100
AcDbArc
 50
180.0453434183013
 51
184.8910891816322
  0
LINE
  5
50E
330
1F
100
AcDbEntity
  8
0
  6
Continuous
 62
     0
370
     0
100
AcDbLine
 10
190.5718138462017
 20
119.7121077706448
 30
0.0
 11
190.5718138462017
 21
119.7400697996251
 31
0.0
  0
LWPOLYLINE
  5
50F
330
1F
100
AcDbEntity
  8
0
  6
Continuous
 62
     0
370
     0
100
AcDbPolyline
 90
        5
 70
   128
 43
0.0
 10
190.423648620219
 20
119.8653343250386
 10
190.425451064677
 20
119.8624268104665
 10
190.4272320514629
 20
119.860541217529
 10
190.4289057498882
 20
119.8597204615704
 10
190.4296138530681
 20
119.8597016861073
  0
LINE
  5
510
330
1F
100
AcDbEntity
  8
0
  6
Continuous
 62
     0
370
     0
100
AcDbLine
 10
190.423648620219
 20
119.8653343250386
 30
0.0
 11
190.4145720249126
 21
119.8822697927586
 31
0.0
  0
LINE
  5
511
330
1F
100
AcDbEntity
  8
0
  6
Continuous
 62
     0
370
     0
100
AcDbLine
 10
190.4145720249126
 20
119.8822697927586
 30
0.0
 11
190.4145720249126
 21
120.5603671004407
 31
0.0
  0
ARC
  5
512
330
1F
100
AcDbEntity
  8
0
  6
Continuous
 62
     0
370
     0
100
AcDbCircle
 10
190.3230470973626
 20
120.561671318235
 30
0.0
 40
0.091534219541577
100
AcDbArc
 50
359.1835981752396
 51
22.56022395137479
  0
LINE
  5
513
330
1F
100
AcDbEntity
  8
0
  6
Continuous
 62
     0
370
     0
100
AcDbLine
 10
190.4075768238018
 20
120.5967888166539
 30
0.0
 11
190.3842952495525
 21
120.6402566959493
 31
0.0
  0
ARC
  5
514
330
1F
100
AcDbEntity
  8
0
  6
Continuous
 62
     0
370
     0
100
AcDbCircle
 10
190.4403937373655
 20
120.6636015873774
 30
0.0
 40
0.0607620300080778
100
AcDbArc
 50
179.1162789576844
 51
202.594206312524
  0
LINE
  5
515
330
1F
100
AcDbEntity
  8
0
  6
Continuous
 62
     0
370
     0
100
AcDbLine
 10
190.3796389347027
 20
120.6645387341611
 30
0.0
 11
190.3796389347027
 21
121.0386612941853
 31
0.0
  0
LINE
  5
516
330
1F
100
AcDbEntity
  8
0
  6
Continuous
 62
     0
370
     0
100
AcDbLine
 10
190.4029205089519
 20
121.0731357266538
 30
0.0
 11
190.3796389347027
 21
121.0386612941853
 31
0.0
  0
LINE
  5
517
330
1F
100
AcDbEntity
  8
0
  6
Continuous
 62
     0
370
     0
100
AcDbLine
 10
190.4029205089519
 20
121.0731357266538
 30
0.0
 11
190.4029848819683
 21
121.073006980621
 31
0.0
  0
LINE
  5
518
330
1F
100
AcDbEntity
  8
0
  6
Continuous
 62
     0
370
     0
100
AcDbLine
 10
103.4812381511638
 20
108.2354128291242
 30
0.0
 11
190.4145720249126
 21
119.8822697927586
 31
0.0
  0
LINE
  5
519
330
1F
100
AcDbEntity
  8
0
  6
Continuous
 62
     0
370
     0
100
AcDbLine
 10
103.4812381511638
 20
108.2354128291242
 30
0.0
 11
103.4812381511638
 21
108.9135101368062
 31
0.0
  0
LINE
  5
51A
330
1F
100
AcDbEntity
  8
0
  6
Continuous
 62
     0
370
     0
100
AcDbLine
 10
103.4903147464702
 20
108.2184773614041
 30
0.0
 11
190.423648620219
 21
119.8653343250386
 31
0.0
  0
LINE
  5
51B
330
1F
100
AcDbEntity
  8
0
  6
Continuous
 62
     0
370
     0
100
AcDbLine
 10
103.4903147464702
 20
108.2184773614041
 30
0.0
 11
103.4812381511638
 21
108.2354128291242
 31
0.0
  0
LWPOLYLINE
  5
51C
330
1F
100
AcDbEntity
  8
0
  6
Continuous
 62
     0
370
     0
100
AcDbPolyline
 90
        5
 70
   128
 43
0.0
 10
103.4963014369914
 20
108.2128447224729
 10
103.4955718761394
 20
108.2128608157269
 10
103.4938981777141
 20
108.2136842538945
 10
103.4921386486003
 20
108.215569846832
 10
103.4903147464702
 20
108.2184773614041
  0
ARC
  5
51D
330
1F
100
AcDbEntity
  8
0
  6
Continuous
 62
     0
370
     0
100
AcDbCircle
 10
103.5079340047888
 20
109.0169122487374
 30
0.0
 40
0.0616337479146024
100
AcDbArc
 50
179.2846208799723
 51
202.4258643903841
  0
LINE
  5
51E
330
1F
100
AcDbEntity
  8
0
  6
Continuous
 62
     0
370
     0
100
AcDbLine
 10
190.3796389347027
 20
121.0386612941853
 30
0.0
 11
180.8131006008098
 21
119.756989174091
 31
0.0
  0
LINE
  5
51F
330
1F
100
AcDbEntity
  8
0
  6
Continuous
 62
     0
370
     0
100
AcDbLine
 10
179.4754722362468
 20
119.57778006097
 30
0.0
 11
114.308929706187
 21
110.8471199800603
 31
0.0
  0
LINE
  5
520
330
1F
100
AcDbEntity
  8
0
  6
Continuous
 62
     0
370
     0
100
AcDbLine
 10
112.971301341624
 20
110.6679108669393
 30
0.0
 11
103.4463050609538
 21
109.3918043305509
 31
0.0
  0
LINE
  5
521
330
1F
100
AcDbEntity
  8
0
  6
Continuous
 62
     0
370
     0
100
AcDbLine
 10
103.4463050609538
 20
109.0176817705266
 30
0.0
 11
103.4463050609538
 21
109.3918043305509
 31
0.0
  0
LINE
  5
522
330
1F
100
AcDbEntity
  8
0
  6
Continuous
 62
     0
370
     0
100
AcDbLine
 10
103.4742644077251
 20
108.9499318530194
 30
0.0
 11
103.4509613758037
 21
108.9933997323148
 31
0.0
  0
ARC
  5
523
330
1F
100
AcDbEntity
  8
0
  6
Continuous
 62
     0
370
     0
100
AcDbCircle
 10
103.3895980809283
 20
108.9148421145725
 30
0.0
 40
0.0916497497952453
100
AcDbArc
 50
359.1672711445581
 51
22.51143456094051
  0
LINE
  5
524
330
1F
100
AcDbEntity
  8
0
  6
Continuous
 62
     0
370
     0
100
AcDbLine
 10
103.4696080928752
 20
109.4262787630193
 30
0.0
 11
112.9706790691326
 21
110.6991827418439
 31
0.0
  0
LINE
  5
525
330
1F
100
AcDbEntity
  8
0
  6
Continuous
 62
     0
370
     0
100
AcDbLine
 10
114.3083074336955
 20
110.8783918549649
 30
0.0
 11
179.4748499637554
 21
119.6090519358746
 31
0.0
  0
LINE
  5
526
330
1F
100
AcDbEntity
  8
0
  6
Continuous
 62
     0
370
     0
100
AcDbLine
 10
180.8124783283184
 20
119.7882610489957
 30
0.0
 11
190.4029205089519
 21
121.0731357266538
 31
0.0
  0
LINE
  5
527
330
1F
100
AcDbEntity
  8
0
  6
Continuous
 62
     0
370
     0
100
AcDbLine
 10
103.4463050609538
 20
109.3918043305509
 30
0.0
 11
103.4696080928752
 21
109.4262787630193
 31
0.0
  0
LINE
  5
528
330
1F
100
AcDbEntity
  8
0
  6
Continuous
 62
     0
370
     0
100
AcDbLine
 10
103.6474707370708
 20
107.9518791963689
 30
0.0
 11
190.5808046108196
 21
119.5987361600034
 31
0.0
  0
LINE
  5
529
330
1F
100
AcDbEntity
  8
0
  6
Continuous
 62
     0
370
     0
100
AcDbLine
 10
103.6474707370708
 20
107.9518791963689
 30
0.0
 11
103.6390807872722
 21
108.0518102576367
 31
0.0
  0
LINE
  5
52A
330
1F
100
AcDbEntity
  8
0
  6
Continuous
 62
     0
370
     0
100
AcDbLine
 10
190.5723932033489
 20
119.6986672212712
 30
0.0
 11
103.6390807872722
 21
108.0518102576367
 31
0.0
  0
LINE
  5
52B
330
1F
100
AcDbEntity
  8
0
  6
Continuous
 62
     0
370
     0
100
AcDbLine
 10
190.591855311961
 20
119.5514702727429
 30
0.0
 11
103.6585214382121
 21
107.9046133091084
 31
0.0
  0
ARC
  5
52C
330
1F
100
AcDbEntity
  8
0
  6
Continuous
 62
     0
370
     0
100
AcDbCircle
 10
103.786978783973
 20
107.9595712277067
 30
0.0
 40
0.1397199430881921
100
AcDbArc
 50
183.1559121262143
 51
203.1626966510915
  0
LINE
  5
52D
330
1F
100
AcDbEntity
  8
0
  6
Continuous
 62
     0
370
     0
100
AcDbLine
 10
103.6384799724529
 20
108.0652481248013
 30
0.0
 11
190.5718138462017
 21
119.7121077706448
 31
0.0
  0
ARC
  5
52E
330
1F
100
AcDbEntity
  8
0
  6
Continuous
 62
     0
370
     0
100
AcDbCircle
 10
103.8039210839154
 20
108.0659127276876
 30
0.0
 40
0.1654424463641656
100
AcDbArc
 50
180.2301648923242
 51
184.8898801410909
  0
LINE
  5
52F
330
1F
100
AcDbEntity
  8
0
  6
Continuous
 62
     0
370
     0
100
AcDbLine
 10
103.6675980335185
 20
107.8876778413884
 30
0.0
 11
190.6009104495952
 21
119.5345348050229
 31
0.0
  0
LINE
  5
530
330
1F
100
AcDbEntity
  8
0
  6
Continuous
 62
     0
370
     0
100
AcDbLine
 10
103.6675980335185
 20
107.8876778413884
 30
0.0
 11
103.6585214382121
 21
107.9046133091084
 31
0.0
  0
LINE
  5
531
330
1F
100
AcDbEntity
  8
0
  6
Continuous
 62
     0
370
     0
100
AcDbLine
 10
103.6384799724529
 20
108.0652481248013
 30
0.0
 11
103.6384799724529
 21
108.0932128359906
 31
0.0
  0
LINE
  5
532
330
1F
100
AcDbEntity
  8
0
  6
Continuous
 62
     0
370
     0
100
AcDbLine
 10
190.423820281596
 20
119.8653557827107
 30
0.0
 11
190.4147436862896
 21
119.8822912504308
 31
0.0
  0
LINE
  5
533
330
1F
100
AcDbEntity
  8
0
  6
Continuous
 62
     0
370
     0
100
AcDbLine
 10
190.4147436862896
 20
119.8822912504308
 30
0.0
 11
190.4147436862896
 21
120.5603912403218
 31
0.0
  0
LWPOLYLINE
  5
534
330
1F
100
AcDbEntity
  8
0
  6
Continuous
 62
     0
370
     0
100
AcDbPolyline
 90
        5
 70
   128
 43
0.0
 10
190.4298069721172
 20
119.8597258259885
 10
190.4290774112652
 20
119.8597419192426
 10
190.4274037128399
 20
119.8605653574101
 10
190.425622726054
 20
119.8624509503476
 10
190.423820281596
 20
119.8653557827107
  0
ARC
  5
535
330
1F
100
AcDbEntity
  8
0
  6
Continuous
 62
     0
370
     0
100
AcDbCircle
 10
190.4405982281067
 20
120.6636293403966
 30
0.0
 40
0.0607947587531992
100
AcDbArc
 50
179.1226884701464
 51
202.5877968001734
  0
LINE
  5
536
330
1F
100
AcDbEntity
  8
0
  6
Continuous
 62
     0
370
     0
100
AcDbLine
 10
190.3798105960796
 20
120.6645601918332
 30
0.0
 11
190.3798105960796
 21
121.0386854340665
 31
0.0
  0
LINE
  5
537
330
1F
100
AcDbEntity
  8
0
  6
Continuous
 62
     0
370
     0
100
AcDbLine
 10
190.4077484851787
 20
120.596812956535
 30
0.0
 11
190.3844669109295
 21
120.6402781536214
 31
0.0
  0
ARC
  5
538
330
1F
100
AcDbEntity
  8
0
  6
Continuous
 62
     0
370
     0
100
AcDbCircle
 10
190.3232187587397
 20
120.5616954581161
 30
0.0
 40
0.0915342195413975
100
AcDbArc
 50
359.1835981752376
 51
22.56022395141575
  0
LINE
  5
539
330
1F
100
AcDbEntity
  8
0
  6
Continuous
 62
     0
370
     0
100
AcDbLine
 10
190.3798105960796
 20
121.0386854340665
 30
0.0
 11
190.4030921703289
 21
121.0731598665349
 31
0.0
  0
LINE
  5
53A
330
1F
100
AcDbEntity
  8
0
  6
Continuous
 62
     0
370
     0
100
AcDbLine
 10
190.5809762721966
 20
119.5987602998845
 30
0.0
 11
190.5725648647258
 21
119.6986913611524
 31
0.0
  0
ARC
  5
53B
330
1F
100
AcDbEntity
  8
0
  6
Continuous
 62
     0
370
     0
100
AcDbCircle
 10
190.7193049766382
 20
119.6061766025344
 30
0.0
 40
0.1385273692001185
100
AcDbArc
 50
183.068895991351
 51
203.2497127859428
  0
ARC
  5
53C
330
1F
100
AcDbEntity
  8
0
  6
Continuous
 62
     0
370
     0
100
AcDbCircle
 10
190.7309646920691
 20
119.712251997984
 30
0.0
 40
0.1589792318941048
100
AcDbArc
 50
180.0442459331747
 51
184.8931707639479
  0
LINE
  5
53D
330
1F
100
AcDbEntity
  8
0
  6
Continuous
 62
     0
370
     0
100
AcDbLine
 10
190.6011035686443
 20
119.534558944904
 30
0.0
 11
190.5920269733379
 21
119.5514944126241
 31
0.0
  0
LINE
  5
53E
330
1F
100
AcDbEntity
  8
0
  6
Continuous
 62
     0
370
     0
100
AcDbLine
 10
190.5719855075786
 20
119.712129228317
 30
0.0
 11
190.5719855075786
 21
119.7400939395062
 31
0.0
  0
LWPOLYLINE
  5
53F
330
1F
100
AcDbEntity
  8
0
  6
Continuous
 62
     0
370
     0
100
AcDbPolyline
 90
        5
 70
   128
 43
0.0
 10
190.5407860523174
 20
119.735915057861
 10
190.5324175601909
 20
119.7374600102536
 10
190.5079128986309
 20
119.766881160938
 10
190.4834082370708
 20
119.8289072444074
 10
190.4732802158306
 20
119.8655515839688
  0
LINE
  5
540
330
1F
100
AcDbEntity
  8
0
  6
Continuous
 62
     0
370
     0
100
AcDbLine
 10
114.3525746112773
 20
111.1245086719624
 30
0.0
 11
114.3484761959026
 21
111.1239588191144
 31
0.0
  0
LINE
  5
541
330
1F
100
AcDbEntity
  8
0
  6
Continuous
 62
     0
370
     0
100
AcDbLine
 10
114.3121483570049
 20
110.9271517326466
 30
0.0
 11
114.308028483958
 21
110.9266018797986
 31
0.0
  0
LINE
  5
542
330
1F
100
AcDbEntity
  8
0
  6
Continuous
 62
     0
370
     0
100
AcDbLine
 10
112.4602439647624
 20
110.8395373751752
 30
0.0
 11
112.4602439647624
 21
110.7871243288152
 31
0.0
  0
LINE
  5
543
330
1F
100
AcDbEntity
  8
0
  6
Continuous
 62
     0
370
     0
100
AcDbLine
 10
112.576694751353
 20
110.725677602493
 30
0.0
 11
112.576694751353
 21
110.6463995506398
 31
0.0
  0
LINE
  5
544
330
1F
100
AcDbEntity
  8
0
  6
Continuous
 62
     0
370
     0
100
AcDbLine
 10
180.8567455059002
 20
120.0343778659932
 30
0.0
 11
180.8526256328533
 21
120.0338280131452
 31
0.0
  0
LINE
  5
545
330
1F
100
AcDbEntity
  8
0
  6
Continuous
 62
     0
370
     0
100
AcDbLine
 10
180.8163192516277
 20
119.8370209266774
 30
0.0
 11
180.8121993785808
 21
119.8364710738294
 31
0.0
  0
LINE
  5
546
330
1F
100
AcDbEntity
  8
0
  6
Continuous
 62
     0
370
     0
100
AcDbLine
 10
178.9643934017132
 20
119.7494038869969
 30
0.0
 11
178.9643934017132
 21
119.6969935228459
 31
0.0
  0
LINE
  5
547
330
1F
100
AcDbEntity
  8
0
  6
Continuous
 62
     0
370
     0
100
AcDbLine
 10
179.0808656459758
 20
119.6355467965238
 30
0.0
 11
179.0808656459758
 21
119.5562687446706
 31
0.0
  0
LINE
  5
548
330
1F
100
AcDbEntity
  8
0
  6
Continuous
 62
     0
370
     0
100
AcDbLine
 10
190.4145720249126
 20
120.5603671004407
 30
0.0
 11
180.832219386668
 21
119.2765733530156
 31
0.0
  0
LINE
  5
549
330
1F
100
AcDbEntity
  8
0
  6
Continuous
 62
     0
370
     0
100
AcDbLine
 10
179.4850852733562
 20
119.0960928728215
 30
0.0
 11
114.3280484920452
 21
110.3667068411939
 31
0.0
  0
LINE
  5
54A
330
1F
100
AcDbEntity
  8
0
  6
Continuous
 62
     0
370
     0
100
AcDbLine
 10
112.9809143787334
 20
110.1862236787908
 30
0.0
 11
103.4812381511638
 21
108.9135101368062
 31
0.0
  0
LINE
  5
54B
330
1F
100
AcDbEntity
  8
0
  6
Continuous
 62
     0
370
     0
100
AcDbLine
 10
103.4463050609538
 20
109.0176817705266
 30
0.0
 11
112.9787471538494
 21
110.2947860886685
 31
0.0
  0
LINE
  5
54C
330
1F
100
AcDbEntity
  8
0
  6
Continuous
 62
     0
370
     0
100
AcDbLine
 10
114.3129637485454
 20
110.473539226257
 30
0.0
 11
179.4829180484722
 21
119.2046552826993
 31
0.0
  0
LINE
  5
54D
330
1F
100
AcDbEntity
  8
0
  6
Continuous
 62
     0
370
     0
100
AcDbLine
 10
180.8171346431682
 20
119.3834057380788
 30
0.0
 11
190.3796389347027
 21
120.6645387341611
 31
0.0
  0
LINE
  5
54E
330
1F
100
AcDbEntity
  8
0
  6
Continuous
 62
     0
370
     0
100
AcDbLine
 10
190.3842952495525
 20
120.6402566959493
 30
0.0
 11
180.8210399394939
 21
119.3590244581334
 31
0.0
  0
LINE
  5
54F
330
1F
100
AcDbEntity
  8
0
  6
Continuous
 62
     0
370
     0
100
AcDbLine
 10
179.4834115749309
 20
119.1798153450124
 30
0.0
 11
114.3168690448711
 21
110.4491552641026
 31
0.0
  0
LINE
  5
550
330
1F
100
AcDbEntity
  8
0
  6
Continuous
 62
     0
370
     0
100
AcDbLine
 10
112.9792406803081
 20
110.2699461509816
 30
0.0
 11
103.4509613758037
 21
108.9933997323148
 31
0.0
  0
LINE
  5
551
330
1F
100
AcDbEntity
  8
0
  6
Continuous
 62
     0
370
     0
100
AcDbLine
 10
103.4742644077251
 20
108.9499318530194
 30
0.0
 11
112.9801848178813
 21
110.2234849264256
 31
0.0
  0
LINE
  5
552
330
1F
100
AcDbEntity
  8
0
  6
Continuous
 62
     0
370
     0
100
AcDbLine
 10
114.3196585422466
 20
110.402940802776
 30
0.0
 11
179.484334254832
 21
119.1333541204564
 31
0.0
  0
LINE
  5
553
330
1F
100
AcDbEntity
  8
0
  6
Continuous
 62
     0
370
     0
100
AcDbLine
 10
180.8238294368694
 20
119.3128099968068
 30
0.0
 11
190.4075768238018
 21
120.5967888166539
 31
0.0
  0
LINE
  5
554
330
1F
100
AcDbEntity
  8
0
  6
Continuous
 62
     0
370
     0
100
AcDbLine
 10
26.05631377753707
 20
98.42161237498445
 30
0.0
 11
27.36031796988934
 21
98.59631537696046
 31
0.0
  0
LINE
  5
555
330
1F
100
AcDbEntity
  8
0
  6
Continuous
 62
     0
370
     0
100
AcDbLine
 10
27.33881738242596
 20
99.46931808491868
 30
0.0
 11
26.03481319007372
 21
99.29461508294267
 31
0.0
  0
LINE
  5
556
330
1F
100
AcDbEntity
  8
0
  6
Continuous
 62
     0
370
     0
100
AcDbLine
 10
92.56048467215987
 20
107.3314815690152
 30
0.0
 11
93.8644888645122
 21
107.5061845709912
 31
0.0
  0
LINE
  5
557
330
1F
100
AcDbEntity
  8
0
  6
Continuous
 62
     0
370
     0
100
AcDbLine
 10
93.84298827704882
 20
108.3791872789494
 30
0.0
 11
92.53898408469652
 21
108.2044842769734
 31
0.0
  0
LINE
  5
558
330
1F
100
AcDbEntity
  8
0
  6
Continuous
 62
     0
370
     0
100
AcDbLine
 10
16.67379643973803
 20
96.44215285082979
 30
0.0
 11
103.6071303134868
 21
108.0890098144643
 31
0.0
  0
LINE
  5
559
330
1F
100
AcDbEntity
  8
0
  6
Continuous
 62
     0
370
     0
100
AcDbLine
 10
16.5628173595378
 20
96.56596361895723
 30
0.0
 11
103.4961297756145
 21
108.2128205825917
 31
0.0
  0
LINE
  5
55A
330
1F
100
AcDbEntity
  8
0
  6
Continuous
 62
     0
370
     0
100
AcDbLine
 10
27.41443421897387
 20
99.47073160906953
 30
0.0
 11
27.41443421897387
 21
99.23681616088075
 31
0.0
  0
LINE
  5
55B
330
1F
100
AcDbEntity
  8
0
  6
Continuous
 62
     0
370
     0
100
AcDbLine
 10
27.40278270301314
 20
99.23525511523408
 30
0.0
 11
27.3786642795512
 21
99.28027062913102
 31
0.0
  0
LWPOLYLINE
  5
55C
330
1F
100
AcDbEntity
  8
0
  6
Continuous
 62
     0
370
     0
100
AcDbPolyline
 90
        9
 70
   128
 43
0.0
 10
27.37400796470135
 20
99.27227496405763
 10
27.37405088004559
 20
99.27540510197801
 10
27.37426545676678
 20
99.27808462878389
 10
27.37467315253707
 20
99.28020357390565
 10
27.37525250968429
 20
99.28167342444581
 10
27.37596061286422
 20
99.28242980738801
 10
27.37679746207684
 20
99.2824459006421
 10
27.37769868430584
 20
99.28171365758104
 10
27.3786642795512
 20
99.28027062913102
  0
LINE
  5
55D
330
1F
100
AcDbEntity
  8
0
  6
Continuous
 62
     0
370
     0
100
AcDbLine
 10
27.37400796470135
 20
99.27227496405763
 30
0.0
 11
27.37947967109173
 21
98.99793862601442
 31
0.0
  0
LINE
  5
55E
330
1F
100
AcDbEntity
  8
0
  6
Continuous
 62
     0
370
     0
100
AcDbLine
 10
27.38336350974532
 20
98.80406855841798
 30
0.0
 11
27.38392140922039
 21
98.77591877480668
 31
0.0
  0
ARC
  5
55F
330
1F
100
AcDbEntity
  8
0
  6
Continuous
 62
     0
370
     0
100
AcDbCircle
 10
27.49985256770256
 20
98.77904413844274
 30
0.0
 40
0.1159732788398786
100
AcDbArc
 50
181.5442507926969
 51
192.8311372653796
  0
LINE
  5
560
330
1F
100
AcDbEntity
  8
0
  6
Continuous
 62
     0
370
     0
100
AcDbLine
 10
27.38677527961224
 20
98.75328897734803
 30
0.0
 11
27.40278270301314
 21
98.68449299832506
 31
0.0
  0
LINE
  5
561
330
1F
100
AcDbEntity
  8
0
  6
Continuous
 62
     0
370
     0
100
AcDbLine
 10
27.40278270301314
 20
98.68449299832506
 30
0.0
 11
27.40278270301314
 21
98.66110950013322
 31
0.0
  0
LINE
  5
562
330
1F
100
AcDbEntity
  8
0
  6
Continuous
 62
     0
370
     0
100
AcDbLine
 10
27.40278270301314
 20
98.66110950013322
 30
0.0
 11
27.36126210746261
 21
98.59703152676744
 31
0.0
  0
LWPOLYLINE
  5
563
330
1F
100
AcDbEntity
  8
0
  6
Continuous
 62
     0
370
     0
100
AcDbPolyline
 90
        9
 70
   128
 43
0.0
 10
27.35327985343432
 20
98.62174808283967
 10
27.35355880317181
 20
98.61686646243257
 10
27.35420253333538
 20
98.61175953646821
 10
27.35514667090865
 20
98.60685109397096
 10
27.35630538520306
 20
98.60253810187501
 10
27.35761430320235
 20
98.59917729397935
 10
27.35894467887374
 20
98.5970422556035
 10
27.36018922385665
 20
98.59630733033342
 10
27.36126210746261
 20
98.59703152676744
  0
LINE
  5
564
330
1F
100
AcDbEntity
  8
0
  6
Continuous
 62
     0
370
     0
100
AcDbLine
 10
27.35327985343432
 20
98.62174808283967
 30
0.0
 11
27.33656432685345
 21
99.4590720464818
 31
0.0
  0
LWPOLYLINE
  5
565
330
1F
100
AcDbEntity
  8
0
  6
Continuous
 62
     0
370
     0
100
AcDbPolyline
 90
        9
 70
   128
 43
0.0
 10
27.34119918403121
 20
99.46706502934617
 10
27.34025504645794
 20
99.4685107400052
 10
27.33935382422894
 20
99.46924030085725
 10
27.33851697501632
 20
99.46922688981218
 10
27.33780887183639
 20
99.46846782466096
 10
27.33722951468917
 20
99.46700065632982
 10
27.33682181891888
 20
99.46488171120805
 10
27.3365857845256
 20
99.46219950219316
 10
27.33656432685345
 20
99.4590720464818
  0
LINE
  5
566
330
1F
100
AcDbEntity
  8
0
  6
Continuous
 62
     0
370
     0
100
AcDbLine
 10
27.34119918403121
 20
99.46706502934617
 30
0.0
 11
27.37947967109173
 21
99.39563512107057
 31
0.0
  0
LINE
  5
567
330
1F
100
AcDbEntity
  8
0
  6
Continuous
 62
     0
370
     0
100
AcDbLine
 10
27.37947967109173
 20
99.39563512107057
 30
0.0
 11
27.37947967109173
 21
99.5515197445981
 31
0.0
  0
LINE
  5
568
330
1F
100
AcDbEntity
  8
0
  6
Continuous
 62
     0
370
     0
100
AcDbLine
 10
27.41909053382369
 20
99.47762756844682
 30
0.0
 11
27.37947967109173
 21
99.5515197445981
 31
0.0
  0
LWPOLYLINE
  5
569
330
1F
100
AcDbEntity
  8
0
  6
Continuous
 62
     0
370
     0
100
AcDbPolyline
 90
        9
 70
   128
 43
0.0
 10
27.41443421897387
 20
99.47073160906953
 10
27.41452004966231
 20
99.4736069371335
 10
27.41477754172772
 20
99.47603433629197
 10
27.4152066951701
 20
99.47792797585649
 10
27.41578605231732
 20
99.47920738955659
 10
27.41649415549725
 20
99.47982966204805
 10
27.4173095470378
 20
99.4797679712407
 10
27.41816785392257
 20
99.47902231713456
 10
27.41909053382369
 20
99.47762756844682
  0
LINE
  5
56A
330
1F
100
AcDbEntity
  8
0
  6
Continuous
 62
     0
370
     0
100
AcDbLine
 10
26.04927566108199
 20
98.44704508086366
 30
0.0
 11
27.35327985343432
 21
98.62174808283967
 31
0.0
  0
LINE
  5
56B
330
1F
100
AcDbEntity
  8
0
  6
Continuous
 62
     0
370
     0
100
AcDbLine
 10
26.04927566108199
 20
98.44704508086366
 30
0.0
 11
26.03256013450121
 21
99.28436904450578
 31
0.0
  0
LINE
  5
56C
330
1F
100
AcDbEntity
  8
0
  6
Continuous
 62
     0
370
     0
100
AcDbLine
 10
27.33656432685345
 20
99.4590720464818
 30
0.0
 11
26.03256013450121
 21
99.28436904450578
 31
0.0
  0
ARC
  5
56D
330
1F
100
AcDbEntity
  8
0
  6
Continuous
 62
     0
370
     0
100
AcDbCircle
 10
26.08060038665903
 20
98.4420235255538
 30
0.0
 40
0.0317246662741424
100
AcDbArc
 50
170.8926043151903
 51
220.0446397945931
  0
LINE
  5
56E
330
1F
100
AcDbEntity
  8
0
  6
Continuous
 62
     0
370
     0
100
AcDbLine
 10
28.40850379523727
 20
99.36999856730623
 30
0.0
 11
28.29540040549725
 21
99.5810562302701
 31
0.0
  0
LINE
  5
56F
330
1F
100
AcDbEntity
  8
0
  6
Continuous
 62
     0
370
     0
100
AcDbLine
 10
28.29540040549725
 20
99.73694085379762
 30
0.0
 11
28.29540040549725
 21
99.5810562302701
 31
0.0
  0
LINE
  5
570
330
1F
100
AcDbEntity
  8
0
  6
Continuous
 62
     0
370
     0
100
AcDbLine
 10
28.29540040549725
 20
99.73694085379762
 30
0.0
 11
28.48645951804613
 21
99.3804404070012
 31
0.0
  0
LINE
  5
571
330
1F
100
AcDbEntity
  8
0
  6
Continuous
 62
     0
370
     0
100
AcDbLine
 10
25.380010867686
 20
99.28364216586274
 30
0.0
 11
26.07549693641155
 21
99.37681674262208
 31
0.0
  0
LINE
  5
572
330
1F
100
AcDbEntity
  8
0
  6
Continuous
 62
     0
370
     0
100
AcDbLine
 10
25.380010867686
 20
99.43952678939027
 30
0.0
 11
25.380010867686
 21
99.28364216586274
 31
0.0
  0
LINE
  5
573
330
1F
100
AcDbEntity
  8
0
  6
Continuous
 62
     0
370
     0
100
AcDbLine
 10
25.380010867686
 20
99.43952678939027
 30
0.0
 11
28.07494428214522
 21
99.80057894488496
 31
0.0
  0
LINE
  5
574
330
1F
100
AcDbEntity
  8
0
  6
Continuous
 62
     0
370
     0
100
AcDbLine
 10
28.07494428214522
 20
99.64469432135743
 30
0.0
 11
28.07494428214522
 21
99.80057894488496
 31
0.0
  0
LINE
  5
575
330
1F
100
AcDbEntity
  8
0
  6
Continuous
 62
     0
370
     0
100
AcDbLine
 10
28.07494428214522
 20
99.64469432135743
 30
0.0
 11
27.37947967109173
 21
99.5515197445981
 31
0.0
  0
LINE
  5
576
330
1F
100
AcDbEntity
  8
0
  6
Continuous
 62
     0
370
     0
100
AcDbLine
 10
26.07549693641155
 20
99.30006533166093
 30
0.0
 11
26.07549693641155
 21
99.37681674262208
 31
0.0
  0
LWPOLYLINE
  5
577
330
1F
100
AcDbEntity
  8
0
  6
Continuous
 62
     0
370
     0
100
AcDbPolyline
 90
        7
 70
   128
 43
0.0
 10
26.03256013450121
 20
99.28436904450578
 10
26.03260304984542
 20
99.28749650021715
 10
26.03281762656661
 20
99.29017870923204
 10
26.03322532233685
 20
99.2922976543538
 10
26.03380467948406
 20
99.29376482268495
 10
26.034512782664
 20
99.29452388783616
 10
26.03481319007372
 20
99.29461508294267
  0
LINE
  5
578
330
1F
100
AcDbEntity
  8
0
  6
Continuous
 62
     0
370
     0
100
AcDbLine
 10
25.36584880408736
 20
98.96235912343187
 30
0.0
 11
25.25274541434734
 21
99.17341410418672
 31
0.0
  0
LINE
  5
579
330
1F
100
AcDbEntity
  8
0
  6
Continuous
 62
     0
370
     0
100
AcDbLine
 10
25.380010867686
 20
99.28364216586274
 30
0.0
 11
25.25274541434734
 21
99.17341410418672
 31
0.0
  0
LINE
  5
57A
330
1F
100
AcDbEntity
  8
0
  6
Continuous
 62
     0
370
     0
100
AcDbLine
 10
28.29540040549725
 20
99.5810562302701
 30
0.0
 11
28.07494428214522
 21
99.64469432135743
 31
0.0
  0
LINE
  5
57B
330
1F
100
AcDbEntity
  8
0
  6
Continuous
 62
     0
370
     0
100
AcDbLine
 10
25.99610354957073
 20
99.0467977454297
 30
0.0
 11
25.91795470771285
 21
99.19265627165956
 31
0.0
  0
LWPOLYLINE
  5
57C
330
1F
100
AcDbEntity
  8
0
  6
Continuous
 62
     0
370
     0
100
AcDbPolyline
 90
        9
 70
   128
 43
0.0
 10
25.91795470771285
 20
99.19265627165956
 10
25.8830001598308
 20
99.22808557053727
 10
25.82360532340499
 20
99.25413518448991
 10
25.74878242072558
 20
99.26683276196641
 10
25.6699469333598
 20
99.26424979468507
 10
25.59907224235027
 20
99.24677788516206
 10
25.54697301444506
 20
99.21707510253114
 10
25.52158858832809
 20
99.17966633340043
 10
25.52675988730877
 20
99.14024322529954
  0
LINE
  5
57D
330
1F
100
AcDbEntity
  8
0
  6
Continuous
 62
     0
370
     0
100
AcDbLine
 10
25.52675988730877
 20
99.14024322529954
 30
0.0
 11
25.60490872916674
 21
98.9943873812787
 31
0.0
  0
LINE
  5
57E
330
1F
100
AcDbEntity
  8
0
  6
Continuous
 62
     0
370
     0
100
AcDbLine
 10
27.75831487235516
 20
99.32274877329988
 30
0.0
 11
27.79294755515551
 21
99.28752600451631
 31
0.0
  0
LWPOLYLINE
  5
57F
330
1F
100
AcDbEntity
  8
0
  6
Continuous
 62
     0
370
     0
100
AcDbPolyline
 90
       10
 70
   128
 43
0.0
 10
28.15474536475628
 20
99.33600156804246
 10
28.14950969275924
 20
99.37515913745088
 10
28.11457660254928
 20
99.41059111853761
 10
28.05516030845141
 20
99.43664073249025
 10
27.98035886344405
 20
99.44933830996675
 10
27.90150191840621
 20
99.4467553426854
 10
27.83064868506881
 20
99.42928075095338
 10
27.77854945716354
 20
99.39958065053148
 10
27.7531435733745
 20
99.36216919919175
 10
27.75831487235516
 20
99.32274877329988
  0
LINE
  5
580
330
1F
100
AcDbEntity
  8
0
  6
Continuous
 62
     0
370
     0
100
AcDbLine
 10
28.07494428214522
 20
99.80057894488496
 30
0.0
 11
28.29540040549725
 21
99.73694085379762
 31
0.0
  0
ARC
  5
581
330
1F
100
AcDbEntity
  8
0
  6
Continuous
 62
     0
370
     0
100
AcDbCircle
 10
27.95391228255721
 20
99.75445039051735
 30
0.0
 40
0.352132561250218
100
AcDbArc
 50
248.4661967274854
 51
291.5338032725189
  0
LINE
  5
582
330
1F
100
AcDbEntity
  8
0
  6
Continuous
 62
     0
370
     0
100
AcDbLine
 10
25.25274541434734
 20
99.17341410418672
 30
0.0
 11
25.25274541434734
 21
99.32929872771425
 31
0.0
  0
LINE
  5
583
330
1F
100
AcDbEntity
  8
0
  6
Continuous
 62
     0
370
     0
100
AcDbLine
 10
25.25274541434734
 20
99.32929872771425
 30
0.0
 11
25.380010867686
 21
99.43952678939027
 31
0.0
  0
LINE
  5
584
330
1F
100
AcDbEntity
  8
0
  6
Continuous
 62
     0
370
     0
100
AcDbLine
 10
25.56283023414107
 20
99.22881513138933
 30
0.0
 11
25.6432106738994
 21
99.07879649897737
 31
0.0
  0
ARC
  5
585
330
1F
100
AcDbEntity
  8
0
  6
Continuous
 62
     0
370
     0
100
AcDbCircle
 10
25.78385321612257
 20
99.19014799868353
 30
0.0
 40
0.1793864018531031
100
AcDbArc
 50
218.3698611780088
 51
259.2843596181816
  0
LINE
  5
586
330
1F
100
AcDbEntity
  8
0
  6
Continuous
 62
     0
370
     0
100
AcDbLine
 10
93.91860511359667
 20
108.3806008031003
 30
0.0
 11
93.91860511359667
 21
108.1466853549115
 31
0.0
  0
LINE
  5
587
330
1F
100
AcDbEntity
  8
0
  6
Continuous
 62
     0
370
     0
100
AcDbLine
 10
93.90695359763595
 20
108.1451243092648
 30
0.0
 11
93.88283517417406
 21
108.1901398231618
 31
0.0
  0
LWPOLYLINE
  5
588
330
1F
100
AcDbEntity
  8
0
  6
Continuous
 62
     0
370
     0
100
AcDbPolyline
 90
        9
 70
   128
 43
0.0
 10
93.87817885932421
 20
108.1821441580884
 10
93.8782003169963
 20
108.1852742960088
 10
93.87843635138964
 20
108.1879538228146
 10
93.87884404715987
 20
108.1900727679364
 10
93.87942340430712
 20
108.1915426184766
 10
93.88013150748702
 20
108.1922990014188
 10
93.8809683566997
 20
108.1923124124638
 10
93.8818695789287
 20
108.1915828516118
 10
93.88283517417406
 20
108.1901398231618
  0
LINE
  5
589
330
1F
100
AcDbEntity
  8
0
  6
Continuous
 62
     0
370
     0
100
AcDbLine
 10
93.87817885932421
 20
108.1821441580884
 30
0.0
 11
93.88365056571459
 21
107.9078078200452
 31
0.0
  0
LINE
  5
58A
330
1F
100
AcDbEntity
  8
0
  6
Continuous
 62
     0
370
     0
100
AcDbLine
 10
93.88753440436813
 20
107.7139377524487
 30
0.0
 11
93.88809230384325
 21
107.6857879688374
 31
0.0
  0
ARC
  5
58B
330
1F
100
AcDbEntity
  8
0
  6
Continuous
 62
     0
370
     0
100
AcDbCircle
 10
94.00214003954696
 20
107.6886758118103
 30
0.0
 40
0.1140842918905952
100
AcDbArc
 50
181.4504967051196
 51
192.924891353022
  0
LINE
  5
58C
330
1F
100
AcDbEntity
  8
0
  6
Continuous
 62
     0
370
     0
100
AcDbLine
 10
93.8909461742351
 20
107.6631581713788
 30
0.0
 11
93.90695359763595
 21
107.5943621923558
 31
0.0
  0
LINE
  5
58D
330
1F
100
AcDbEntity
  8
0
  6
Continuous
 62
     0
370
     0
100
AcDbLine
 10
93.90695359763595
 20
107.5943621923558
 30
0.0
 11
93.90695359763595
 21
107.570978694164
 31
0.0
  0
LINE
  5
58E
330
1F
100
AcDbEntity
  8
0
  6
Continuous
 62
     0
370
     0
100
AcDbLine
 10
93.90695359763595
 20
107.570978694164
 30
0.0
 11
93.86541154441332
 21
107.5069007207982
 31
0.0
  0
LWPOLYLINE
  5
58F
330
1F
100
AcDbEntity
  8
0
  6
Continuous
 62
     0
370
     0
100
AcDbPolyline
 90
        9
 70
   128
 43
0.0
 10
93.85745074805712
 20
107.5316172768704
 10
93.85772969779467
 20
107.5267356564633
 10
93.85837342795824
 20
107.521628730499
 10
93.85931756553146
 20
107.5167202880017
 10
93.86047627982592
 20
107.5124072959058
 10
93.86178519782516
 20
107.5090464880101
 10
93.86311557349657
 20
107.5069114496343
 10
93.86436011847945
 20
107.5061765243642
 10
93.86541154441332
 20
107.5069007207982
  0
LINE
  5
590
330
1F
100
AcDbEntity
  8
0
  6
Continuous
 62
     0
370
     0
100
AcDbLine
 10
93.85745074805712
 20
107.5316172768704
 30
0.0
 11
93.84073522147631
 21
108.3689412405126
 31
0.0
  0
LWPOLYLINE
  5
591
330
1F
100
AcDbEntity
  8
0
  6
Continuous
 62
     0
370
     0
100
AcDbPolyline
 90
        9
 70
   128
 43
0.0
 10
93.84537007865401
 20
108.3769342233769
 10
93.8444259410808
 20
108.3783772518269
 10
93.8435247188518
 20
108.379109494888
 10
93.84268786963912
 20
108.3790934016339
 10
93.8419583087871
 20
108.3783370186917
 10
93.84140040931197
 20
108.3768671681516
 10
93.84099271354174
 20
108.3747482230298
 10
93.8407566791484
 20
108.3720686962239
 10
93.84073522147631
 20
108.3689412405126
  0
LINE
  5
592
330
1F
100
AcDbEntity
  8
0
  6
Continuous
 62
     0
370
     0
100
AcDbLine
 10
93.84537007865401
 20
108.3769342233769
 30
0.0
 11
93.88365056571459
 21
108.3055043151013
 31
0.0
  0
LINE
  5
593
330
1F
100
AcDbEntity
  8
0
  6
Continuous
 62
     0
370
     0
100
AcDbLine
 10
93.88365056571459
 20
108.3055043151013
 30
0.0
 11
93.88365056571459
 21
108.4613889386289
 31
0.0
  0
LINE
  5
594
330
1F
100
AcDbEntity
  8
0
  6
Continuous
 62
     0
370
     0
100
AcDbLine
 10
93.9232614284465
 20
108.3874967624776
 30
0.0
 11
93.88365056571459
 21
108.4613889386289
 31
0.0
  0
LWPOLYLINE
  5
595
330
1F
100
AcDbEntity
  8
0
  6
Continuous
 62
     0
370
     0
100
AcDbPolyline
 90
        9
 70
   128
 43
0.0
 10
93.91860511359667
 20
108.3806008031003
 10
93.91869094428515
 20
108.3834734489552
 10
93.91894843635058
 20
108.3859035303227
 10
93.91937758979296
 20
108.3877971698872
 10
93.91995694694018
 20
108.3890765835874
 10
93.9206650501201
 20
108.3896988560788
 10
93.92148044166063
 20
108.3896371652715
 10
93.9223387485454
 20
108.3888915111653
 10
93.9232614284465
 20
108.3874967624776
  0
LINE
  5
596
330
1F
100
AcDbEntity
  8
0
  6
Continuous
 62
     0
370
     0
100
AcDbLine
 10
92.55344655570482
 20
107.3569142748944
 30
0.0
 11
93.85745074805712
 21
107.5316172768704
 31
0.0
  0
LINE
  5
597
330
1F
100
AcDbEntity
  8
0
  6
Continuous
 62
     0
370
     0
100
AcDbLine
 10
92.55344655570482
 20
107.3569142748944
 30
0.0
 11
92.53673102912401
 21
108.1942382385365
 31
0.0
  0
LINE
  5
598
330
1F
100
AcDbEntity
  8
0
  6
Continuous
 62
     0
370
     0
100
AcDbLine
 10
93.84073522147631
 20
108.3689412405126
 30
0.0
 11
92.53673102912401
 21
108.1942382385365
 31
0.0
  0
ARC
  5
599
330
1F
100
AcDbEntity
  8
0
  6
Continuous
 62
     0
370
     0
100
AcDbCircle
 10
92.58467915307008
 20
107.3518672244962
 30
0.0
 40
0.0316377599697134
100
AcDbArc
 50
170.8206059953502
 51
220.1166381142966
  0
LINE
  5
59A
330
1F
100
AcDbEntity
  8
0
  6
Continuous
 62
     0
370
     0
100
AcDbLine
 10
94.91267468986007
 20
108.279867761337
 30
0.0
 11
94.7995713001201
 21
108.4909254243009
 31
0.0
  0
LINE
  5
59B
330
1F
100
AcDbEntity
  8
0
  6
Continuous
 62
     0
370
     0
100
AcDbLine
 10
94.7995713001201
 20
108.6468100478284
 30
0.0
 11
94.7995713001201
 21
108.4909254243009
 31
0.0
  0
LINE
  5
59C
330
1F
100
AcDbEntity
  8
0
  6
Continuous
 62
     0
370
     0
100
AcDbLine
 10
94.7995713001201
 20
108.6468100478284
 30
0.0
 11
94.99063041266893
 21
108.290309601032
 31
0.0
  0
LINE
  5
59D
330
1F
100
AcDbEntity
  8
0
  6
Continuous
 62
     0
370
     0
100
AcDbLine
 10
91.88418176230883
 20
108.1935113598935
 30
0.0
 11
92.5796463733623
 21
108.2866859366528
 31
0.0
  0
LINE
  5
59E
330
1F
100
AcDbEntity
  8
0
  6
Continuous
 62
     0
370
     0
100
AcDbLine
 10
91.88418176230883
 20
108.349395983421
 30
0.0
 11
91.88418176230883
 21
108.1935113598935
 31
0.0
  0
LINE
  5
59F
330
1F
100
AcDbEntity
  8
0
  6
Continuous
 62
     0
370
     0
100
AcDbLine
 10
91.88418176230883
 20
108.349395983421
 30
0.0
 11
94.57911517676803
 21
108.7104481389157
 31
0.0
  0
LINE
  5
5A0
330
1F
100
AcDbEntity
  8
0
  6
Continuous
 62
     0
370
     0
100
AcDbLine
 10
94.57911517676803
 20
108.5545635153882
 30
0.0
 11
94.57911517676803
 21
108.7104481389157
 31
0.0
  0
LINE
  5
5A1
330
1F
100
AcDbEntity
  8
0
  6
Continuous
 62
     0
370
     0
100
AcDbLine
 10
94.57911517676803
 20
108.5545635153882
 30
0.0
 11
93.88365056571459
 21
108.4613889386289
 31
0.0
  0
LINE
  5
5A2
330
1F
100
AcDbEntity
  8
0
  6
Continuous
 62
     0
370
     0
100
AcDbLine
 10
92.5796463733623
 20
108.2099318434827
 30
0.0
 11
92.5796463733623
 21
108.2866859366528
 31
0.0
  0
LWPOLYLINE
  5
5A3
330
1F
100
AcDbEntity
  8
0
  6
Continuous
 62
     0
370
     0
100
AcDbPolyline
 90
        7
 70
   128
 43
0.0
 10
92.53673102912401
 20
108.1942382385365
 10
92.53675248679613
 20
108.1973656942479
 10
92.53698852118941
 20
108.2000479032628
 10
92.5373962169597
 20
108.2021668483846
 10
92.53797557410692
 20
108.2036340167157
 10
92.53868367728685
 20
108.2043903996579
 10
92.53898408469652
 20
108.2044842769734
  0
LINE
  5
5A4
330
1F
100
AcDbEntity
  8
0
  6
Continuous
 62
     0
370
     0
100
AcDbLine
 10
91.8700196987102
 20
107.8722256352536
 30
0.0
 11
91.7569163089702
 21
108.0832832982175
 31
0.0
  0
LINE
  5
5A5
330
1F
100
AcDbEntity
  8
0
  6
Continuous
 62
     0
370
     0
100
AcDbLine
 10
91.88418176230883
 20
108.1935113598935
 30
0.0
 11
91.7569163089702
 21
108.0832832982175
 31
0.0
  0
LINE
  5
5A6
330
1F
100
AcDbEntity
  8
0
  6
Continuous
 62
     0
370
     0
100
AcDbLine
 10
94.7995713001201
 20
108.4909254243009
 30
0.0
 11
94.57911517676803
 21
108.5545635153882
 31
0.0
  0
LINE
  5
5A7
330
1F
100
AcDbEntity
  8
0
  6
Continuous
 62
     0
370
     0
100
AcDbLine
 10
92.5002744441936
 20
107.9566669394605
 30
0.0
 11
92.42212560233568
 21
108.1025227834813
 31
0.0
  0
LWPOLYLINE
  5
5A8
330
1F
100
AcDbEntity
  8
0
  6
Continuous
 62
     0
370
     0
100
AcDbPolyline
 90
        9
 70
   128
 43
0.0
 10
92.42212560233568
 20
108.1025227834813
 10
92.3871710544536
 20
108.137954764568
 10
92.3277762180278
 20
108.1640043785207
 10
92.25295331534838
 20
108.1767019559972
 10
92.17409637031054
 20
108.1741189887158
 10
92.10324313697313
 20
108.1566443969838
 10
92.05114390906786
 20
108.1269442965619
 10
92.0257380252788
 20
108.0895355274312
 10
92.03090932425948
 20
108.0501124193303
  0
LINE
  5
5A9
330
1F
100
AcDbEntity
  8
0
  6
Continuous
 62
     0
370
     0
100
AcDbLine
 10
92.03090932425948
 20
108.0501124193303
 30
0.0
 11
92.10907962378954
 21
107.9042565753095
 31
0.0
  0
LINE
  5
5AA
330
1F
100
AcDbEntity
  8
0
  6
Continuous
 62
     0
370
     0
100
AcDbLine
 10
94.26248576697802
 20
108.2326179673306
 30
0.0
 11
94.29711844977831
 21
108.1973951985471
 31
0.0
  0
LWPOLYLINE
  5
5AB
330
1F
100
AcDbEntity
  8
0
  6
Continuous
 62
     0
370
     0
100
AcDbPolyline
 90
       10
 70
   128
 43
0.0
 10
94.65891625937914
 20
108.2458680798642
 10
94.65368058738204
 20
108.2850283314816
 10
94.61874749717211
 20
108.3204603125684
 10
94.55933120307421
 20
108.346507244312
 10
94.48450830039477
 20
108.3592075039975
 10
94.40567281302904
 20
108.3566245367162
 10
94.33481957969161
 20
108.3391499449841
 10
94.28272035178637
 20
108.3094471623532
 10
94.2573144679973
 20
108.2720383932225
 10
94.26248576697802
 20
108.2326179673306
  0
LINE
  5
5AC
330
1F
100
AcDbEntity
  8
0
  6
Continuous
 62
     0
370
     0
100
AcDbLine
 10
94.57911517676803
 20
108.7104481389157
 30
0.0
 11
94.7995713001201
 21
108.6468100478284
 31
0.0
  0
ARC
  5
5AD
330
1F
100
AcDbEntity
  8
0
  6
Continuous
 62
     0
370
     0
100
AcDbCircle
 10
94.45808317718004
 20
108.6643195845478
 30
0.0
 40
0.35213256124996
100
AcDbArc
 50
248.4661967274641
 51
291.5338032725315
  0
LINE
  5
5AE
330
1F
100
AcDbEntity
  8
0
  6
Continuous
 62
     0
370
     0
100
AcDbLine
 10
91.7569163089702
 20
108.0832832982175
 30
0.0
 11
91.7569163089702
 21
108.239167921745
 31
0.0
  0
LINE
  5
5AF
330
1F
100
AcDbEntity
  8
0
  6
Continuous
 62
     0
370
     0
100
AcDbLine
 10
91.7569163089702
 20
108.239167921745
 30
0.0
 11
91.88418176230883
 21
108.349395983421
 31
0.0
  0
LINE
  5
5B0
330
1F
100
AcDbEntity
  8
0
  6
Continuous
 62
     0
370
     0
100
AcDbLine
 10
92.06697967109179
 20
108.1386843254201
 30
0.0
 11
92.1473815685222
 21
107.9886656930081
 31
0.0
  0
ARC
  5
5B1
330
1F
100
AcDbEntity
  8
0
  6
Continuous
 62
     0
370
     0
100
AcDbCircle
 10
92.28809218886715
 20
108.1001186705011
 30
0.0
 40
0.179502771203959
100
AcDbArc
 50
218.3817677018053
 51
259.2623014917102
  0
LWPOLYLINE
  5
5B2
330
1F
100
AcDbEntity
  8
0
  6
Continuous
 62
     0
370
     0
100
AcDbPolyline
 90
        5
 70
   128
 43
0.0
 10
103.6071303134868
 20
108.0890098144643
 10
103.5987832790325
 20
108.0905494024388
 10
103.5742571598003
 20
108.1199785997502
 10
103.5497524982402
 20
108.1820368697278
 10
103.539624477
 20
108.2186490227811
  0
LWPOLYLINE
  5
5B3
330
1F
100
AcDbEntity
  8
0
  6
Continuous
 62
     0
370
     0
100
AcDbPolyline
 90
        5
 70
   128
 43
0.0
 10
16.67379643973803
 20
96.44215285082979
 10
16.66544940528362
 20
96.44369780322236
 10
16.64094474372359
 20
96.47312163611574
 10
16.61644008216354
 20
96.53514771958513
 10
16.60629060325118
 20
96.57179205914659
  0
LINE
  5
5B4
330
1F
100
AcDbEntity
  8
0
  6
Continuous
 62
     0
370
     0
100
AcDbLine
 10
103.6674263721416
 20
107.8880023886792
 30
0.0
 11
103.6674263721416
 21
107.8876537015073
 31
0.0
  0
LINE
  5
5B5
330
1F
100
AcDbEntity
  8
0
  6
Continuous
 62
     0
370
     0
100
AcDbLine
 10
103.6674263721416
 20
107.8876537015073
 30
0.0
 11
103.6583712345073
 21
107.9045891692273
 31
0.0
  0
ARC
  5
5B6
330
1F
100
AcDbEntity
  8
0
  6
Continuous
 62
     0
370
     0
100
AcDbCircle
 10
103.7856639400203
 20
107.9592747964953
 30
0.0
 40
0.1385422343782592
100
AcDbArc
 50
183.0699899945569
 51
203.2486187827004
  0
LINE
  5
5B7
330
1F
100
AcDbEntity
  8
0
  6
Continuous
 62
     0
370
     0
100
AcDbLine
 10
103.647320533366
 20
107.9518550564877
 30
0.0
 11
103.6389091258953
 21
108.0517861177556
 31
0.0
  0
ARC
  5
5B8
330
1F
100
AcDbEntity
  8
0
  6
Continuous
 62
     0
370
     0
100
AcDbCircle
 10
103.7974448817053
 20
108.065352589574
 30
0.0
 40
0.159115162784262
100
AcDbArc
 50
180.0453434183013
 51
184.8910891816313
  0
LINE
  5
5B9
330
1F
100
AcDbEntity
  8
0
  6
Continuous
 62
     0
370
     0
100
AcDbLine
 10
103.638329768748
 20
108.0652266671292
 30
0.0
 11
103.638329768748
 21
108.0931886961095
 31
0.0
  0
LWPOLYLINE
  5
5BA
330
1F
100
AcDbEntity
  8
0
  6
Continuous
 62
     0
370
     0
100
AcDbPolyline
 90
        5
 70
   128
 43
0.0
 10
103.4901645427654
 20
108.218453221523
 10
103.4919669872234
 20
108.2155457069508
 10
103.4937479740093
 20
108.2136601140134
 10
103.4954216724346
 20
108.2128393580548
 10
103.4961297756145
 20
108.2128205825917
  0
LINE
  5
5BB
330
1F
100
AcDbEntity
  8
0
  6
Continuous
 62
     0
370
     0
100
AcDbLine
 10
103.4901645427654
 20
108.218453221523
 30
0.0
 11
103.481087947459
 21
108.235388689243
 31
0.0
  0
LINE
  5
5BC
330
1F
100
AcDbEntity
  8
0
  6
Continuous
 62
     0
370
     0
100
AcDbLine
 10
103.481087947459
 20
108.235388689243
 30
0.0
 11
103.481087947459
 21
108.9134859969251
 31
0.0
  0
ARC
  5
5BD
330
1F
100
AcDbEntity
  8
0
  6
Continuous
 62
     0
370
     0
100
AcDbCircle
 10
103.389563019909
 20
108.9147902147193
 30
0.0
 40
0.091534219541577
100
AcDbArc
 50
359.1835981752391
 51
22.56022395138162
  0
LINE
  5
5BE
330
1F
100
AcDbEntity
  8
0
  6
Continuous
 62
     0
370
     0
100
AcDbLine
 10
103.4740927463481
 20
108.9499077131383
 30
0.0
 11
103.4508111720989
 21
108.9933755924336
 31
0.0
  0
ARC
  5
5BF
330
1F
100
AcDbEntity
  8
0
  6
Continuous
 62
     0
370
     0
100
AcDbCircle
 10
103.5069096599119
 20
109.0167204838618
 30
0.0
 40
0.0607620300080778
100
AcDbArc
 50
179.1162789576852
 51
202.5942063125033
  0
LINE
  5
5C0
330
1F
100
AcDbEntity
  8
0
  6
Continuous
 62
     0
370
     0
100
AcDbLine
 10
103.446154857249
 20
109.0176576306455
 30
0.0
 11
103.446154857249
 21
109.3917801906697
 31
0.0
  0
LINE
  5
5C1
330
1F
100
AcDbEntity
  8
0
  6
Continuous
 62
     0
370
     0
100
AcDbLine
 10
103.4694364314983
 20
109.4262546231381
 30
0.0
 11
103.446154857249
 21
109.3917801906697
 31
0.0
  0
LINE
  5
5C2
330
1F
100
AcDbEntity
  8
0
  6
Continuous
 62
     0
370
     0
100
AcDbLine
 10
103.4694364314983
 20
109.4262546231381
 30
0.0
 11
103.4695008045146
 21
109.4261258771054
 31
0.0
  0
LINE
  5
5C3
330
1F
100
AcDbEntity
  8
0
  6
Continuous
 62
     0
370
     0
100
AcDbLine
 10
16.54775407371014
 20
96.58853172560853
 30
0.0
 11
103.481087947459
 21
108.235388689243
 31
0.0
  0
LINE
  5
5C4
330
1F
100
AcDbEntity
  8
0
  6
Continuous
 62
     0
370
     0
100
AcDbLine
 10
16.54775407371014
 20
96.58853172560853
 30
0.0
 11
16.54775407371014
 21
97.26662903329057
 31
0.0
  0
LINE
  5
5C5
330
1F
100
AcDbEntity
  8
0
  6
Continuous
 62
     0
370
     0
100
AcDbLine
 10
16.55683066901656
 20
96.5715962578885
 30
0.0
 11
103.4901645427654
 21
108.218453221523
 31
0.0
  0
LINE
  5
5C6
330
1F
100
AcDbEntity
  8
0
  6
Continuous
 62
     0
370
     0
100
AcDbLine
 10
16.55683066901656
 20
96.5715962578885
 30
0.0
 11
16.54775407371014
 21
96.58853172560853
 31
0.0
  0
LWPOLYLINE
  5
5C7
330
1F
100
AcDbEntity
  8
0
  6
Continuous
 62
     0
370
     0
100
AcDbPolyline
 90
        5
 70
   128
 43
0.0
 10
16.5628173595378
 20
96.56596361895723
 10
16.56208779868575
 20
96.56597971221132
 10
16.56041410026043
 20
96.56680315037889
 10
16.55865457114669
 20
96.56868874331636
 10
16.55683066901656
 20
96.5715962578885
  0
ARC
  5
5C8
330
1F
100
AcDbEntity
  8
0
  6
Continuous
 62
     0
370
     0
100
AcDbCircle
 10
16.57444992733519
 20
97.37003114522182
 30
0.0
 40
0.0616337479146024
100
AcDbArc
 50
179.2846208799723
 51
202.4258643903841
  0
LINE
  5
5C9
330
1F
100
AcDbEntity
  8
0
  6
Continuous
 62
     0
370
     0
100
AcDbLine
 10
103.446154857249
 20
109.3917801906697
 30
0.0
 11
93.87961652335619
 21
108.1101080705754
 31
0.0
  0
LINE
  5
5CA
330
1F
100
AcDbEntity
  8
0
  6
Continuous
 62
     0
370
     0
100
AcDbLine
 10
92.5419881587932
 20
107.9308989574544
 30
0.0
 11
27.37544562873333
 21
99.20023887654466
 31
0.0
  0
LINE
  5
5CB
330
1F
100
AcDbEntity
  8
0
  6
Continuous
 62
     0
370
     0
100
AcDbLine
 10
26.0378172641704
 20
99.02102976342363
 30
0.0
 11
16.51282098350021
 21
97.74492322703523
 31
0.0
  0
LINE
  5
5CC
330
1F
100
AcDbEntity
  8
0
  6
Continuous
 62
     0
370
     0
100
AcDbLine
 10
16.51282098350021
 20
97.37080066701097
 30
0.0
 11
16.51282098350021
 21
97.74492322703523
 31
0.0
  0
LINE
  5
5CD
330
1F
100
AcDbEntity
  8
0
  6
Continuous
 62
     0
370
     0
100
AcDbLine
 10
16.54078033027142
 20
97.3030507495038
 30
0.0
 11
16.51747729835009
 21
97.34651862879915
 31
0.0
  0
ARC
  5
5CE
330
1F
100
AcDbEntity
  8
0
  6
Continuous
 62
     0
370
     0
100
AcDbCircle
 10
16.45611400347471
 20
97.26796101105685
 30
0.0
 40
0.0916497497952453
100
AcDbArc
 50
359.1672711445581
 51
22.5114345609337
  0
LINE
  5
5CF
330
1F
100
AcDbEntity
  8
0
  6
Continuous
 62
     0
370
     0
100
AcDbLine
 10
16.53612401542159
 20
97.77939765950364
 30
0.0
 11
26.03719499167889
 21
99.05230163832826
 31
0.0
  0
LINE
  5
5D0
330
1F
100
AcDbEntity
  8
0
  6
Continuous
 62
     0
370
     0
100
AcDbLine
 10
27.3748233562419
 20
99.23151075144929
 30
0.0
 11
92.54136588630175
 21
107.962170832359
 31
0.0
  0
LINE
  5
5D1
330
1F
100
AcDbEntity
  8
0
  6
Continuous
 62
     0
370
     0
100
AcDbLine
 10
93.87899425086474
 20
108.1413799454801
 30
0.0
 11
103.4694364314983
 21
109.4262546231381
 31
0.0
  0
LINE
  5
5D2
330
1F
100
AcDbEntity
  8
0
  6
Continuous
 62
     0
370
     0
100
AcDbLine
 10
16.51282098350021
 20
97.74492322703523
 30
0.0
 11
16.53612401542159
 21
97.77939765950364
 31
0.0
  0
LINE
  5
5D3
330
1F
100
AcDbEntity
  8
0
  6
Continuous
 62
     0
370
     0
100
AcDbLine
 10
16.71398665961715
 20
96.30499809285325
 30
0.0
 11
103.647320533366
 21
107.9518550564877
 31
0.0
  0
LINE
  5
5D4
330
1F
100
AcDbEntity
  8
0
  6
Continuous
 62
     0
370
     0
100
AcDbLine
 10
16.71398665961715
 20
96.30499809285325
 30
0.0
 11
16.70559670981856
 21
96.4049291541211
 31
0.0
  0
LINE
  5
5D5
330
1F
100
AcDbEntity
  8
0
  6
Continuous
 62
     0
370
     0
100
AcDbLine
 10
103.6389091258953
 20
108.0517861177556
 30
0.0
 11
16.70559670981856
 21
96.4049291541211
 31
0.0
  0
LINE
  5
5D6
330
1F
100
AcDbEntity
  8
0
  6
Continuous
 62
     0
370
     0
100
AcDbLine
 10
103.6583712345073
 20
107.9045891692273
 30
0.0
 11
16.72503736075851
 21
96.25773220559282
 31
0.0
  0
ARC
  5
5D7
330
1F
100
AcDbEntity
  8
0
  6
Continuous
 62
     0
370
     0
100
AcDbCircle
 10
16.85349470651934
 20
96.31269012419108
 30
0.0
 40
0.1397199430881921
100
AcDbArc
 50
183.1559121262143
 51
203.1626966510915
  0
LINE
  5
5D8
330
1F
100
AcDbEntity
  8
0
  6
Continuous
 62
     0
370
     0
100
AcDbLine
 10
16.70499589499923
 20
96.41836702128572
 30
0.0
 11
103.638329768748
 21
108.0652266671292
 31
0.0
  0
ARC
  5
5D9
330
1F
100
AcDbEntity
  8
0
  6
Continuous
 62
     0
370
     0
100
AcDbCircle
 10
16.87043700646177
 20
96.41903162417202
 30
0.0
 40
0.1654424463641656
100
AcDbArc
 50
180.2301648923242
 51
184.8898801410909
  0
LINE
  5
5DA
330
1F
100
AcDbEntity
  8
0
  6
Continuous
 62
     0
370
     0
100
AcDbLine
 10
16.73411395606487
 20
96.24079673787278
 30
0.0
 11
103.6674263721416
 21
107.8876537015073
 31
0.0
  0
LINE
  5
5DB
330
1F
100
AcDbEntity
  8
0
  6
Continuous
 62
     0
370
     0
100
AcDbLine
 10
16.73411395606487
 20
96.24079673787278
 30
0.0
 11
16.72503736075851
 21
96.25773220559282
 31
0.0
  0
LINE
  5
5DC
330
1F
100
AcDbEntity
  8
0
  6
Continuous
 62
     0
370
     0
100
AcDbLine
 10
16.70499589499923
 20
96.41836702128572
 30
0.0
 11
16.70499589499923
 21
96.44633173247499
 31
0.0
  0
LINE
  5
5DD
330
1F
100
AcDbEntity
  8
0
  6
Continuous
 62
     0
370
     0
100
AcDbLine
 10
103.4903362041423
 20
108.2184746791951
 30
0.0
 11
103.4812596088359
 21
108.2354101469151
 31
0.0
  0
LINE
  5
5DE
330
1F
100
AcDbEntity
  8
0
  6
Continuous
 62
     0
370
     0
100
AcDbLine
 10
103.4812596088359
 20
108.2354101469151
 30
0.0
 11
103.4812596088359
 21
108.9135101368062
 31
0.0
  0
LWPOLYLINE
  5
5DF
330
1F
100
AcDbEntity
  8
0
  6
Continuous
 62
     0
370
     0
100
AcDbPolyline
 90
        5
 70
   128
 43
0.0
 10
103.4963228946636
 20
108.2128447224729
 10
103.4955933338115
 20
108.2128608157269
 10
103.4939196353862
 20
108.2136842538945
 10
103.4921386486003
 20
108.215569846832
 10
103.4903362041423
 20
108.2184746791951
  0
ARC
  5
5E0
330
1F
100
AcDbEntity
  8
0
  6
Continuous
 62
     0
370
     0
100
AcDbCircle
 10
103.5071141506531
 20
109.0167482368809
 30
0.0
 40
0.0607947587531992
100
AcDbArc
 50
179.1226884701468
 51
202.5877968001734
  0
LINE
  5
5E1
330
1F
100
AcDbEntity
  8
0
  6
Continuous
 62
     0
370
     0
100
AcDbLine
 10
103.446326518626
 20
109.0176790883176
 30
0.0
 11
103.446326518626
 21
109.3918043305509
 31
0.0
  0
LINE
  5
5E2
330
1F
100
AcDbEntity
  8
0
  6
Continuous
 62
     0
370
     0
100
AcDbLine
 10
103.4742644077251
 20
108.9499318530194
 30
0.0
 11
103.4509828334758
 21
108.9933970501058
 31
0.0
  0
ARC
  5
5E3
330
1F
100
AcDbEntity
  8
0
  6
Continuous
 62
     0
370
     0
100
AcDbCircle
 10
103.3897346812861
 20
108.9148143546005
 30
0.0
 40
0.0915342195413975
100
AcDbArc
 50
359.1835981752376
 51
22.5602239514294
  0
LINE
  5
5E4
330
1F
100
AcDbEntity
  8
0
  6
Continuous
 62
     0
370
     0
100
AcDbLine
 10
103.446326518626
 20
109.3918043305509
 30
0.0
 11
103.4696080928752
 21
109.4262787630193
 31
0.0
  0
LINE
  5
5E5
330
1F
100
AcDbEntity
  8
0
  6
Continuous
 62
     0
370
     0
100
AcDbLine
 10
103.6474921947429
 20
107.9518791963689
 30
0.0
 11
103.6390807872722
 21
108.0518102576367
 31
0.0
  0
ARC
  5
5E6
330
1F
100
AcDbEntity
  8
0
  6
Continuous
 62
     0
370
     0
100
AcDbCircle
 10
103.7858208991846
 20
107.9592954990188
 30
0.0
 40
0.1385273692001185
100
AcDbArc
 50
183.0688959913497
 51
203.2497127859336
  0
ARC
  5
5E7
330
1F
100
AcDbEntity
  8
0
  6
Continuous
 62
     0
370
     0
100
AcDbCircle
 10
103.7974806146154
 20
108.0653708944683
 30
0.0
 40
0.1589792318941048
100
AcDbArc
 50
180.0442459331747
 51
184.8931707639471
  0
LINE
  5
5E8
330
1F
100
AcDbEntity
  8
0
  6
Continuous
 62
     0
370
     0
100
AcDbLine
 10
103.6676194911907
 20
107.8876778413884
 30
0.0
 11
103.6585428958843
 21
107.9046133091084
 31
0.0
  0
LINE
  5
5E9
330
1F
100
AcDbEntity
  8
0
  6
Continuous
 62
     0
370
     0
100
AcDbLine
 10
103.638501430125
 20
108.0652481248013
 30
0.0
 11
103.638501430125
 21
108.0932128359906
 31
0.0
  0
LWPOLYLINE
  5
5EA
330
1F
100
AcDbEntity
  8
0
  6
Continuous
 62
     0
370
     0
100
AcDbPolyline
 90
        5
 70
   128
 43
0.0
 10
103.6073019748638
 20
108.0890339543454
 10
103.5989334827373
 20
108.090578906738
 10
103.5744288211772
 20
108.1200000574223
 10
103.5499241596172
 20
108.1820261408917
 10
103.5397961383769
 20
108.2186704804532
  0
LINE
  5
5EB
330
1F
100
AcDbEntity
  8
0
  6
Continuous
 62
     0
370
     0
100
AcDbLine
 10
27.41909053382369
 20
99.47762756844682
 30
0.0
 11
27.41499211844891
 21
99.47707771559877
 31
0.0
  0
LINE
  5
5EC
330
1F
100
AcDbEntity
  8
0
  6
Continuous
 62
     0
370
     0
100
AcDbLine
 10
27.3786642795512
 20
99.28027062913102
 30
0.0
 11
27.37454440650433
 21
99.27972077628297
 31
0.0
  0
LINE
  5
5ED
330
1F
100
AcDbEntity
  8
0
  6
Continuous
 62
     0
370
     0
100
AcDbLine
 10
25.52675988730877
 20
99.19265627165956
 30
0.0
 11
25.52675988730877
 21
99.14024322529954
 31
0.0
  0
LINE
  5
5EE
330
1F
100
AcDbEntity
  8
0
  6
Continuous
 62
     0
370
     0
100
AcDbLine
 10
25.6432106738994
 20
99.07879649897737
 30
0.0
 11
25.6432106738994
 21
98.99951844712419
 31
0.0
  0
LINE
  5
5EF
330
1F
100
AcDbEntity
  8
0
  6
Continuous
 62
     0
370
     0
100
AcDbLine
 10
93.9232614284465
 20
108.3874967624776
 30
0.0
 11
93.91914155539965
 21
108.3869469096295
 31
0.0
  0
LINE
  5
5F0
330
1F
100
AcDbEntity
  8
0
  6
Continuous
 62
     0
370
     0
100
AcDbLine
 10
93.88283517417406
 20
108.1901398231618
 30
0.0
 11
93.87871530112719
 21
108.1895899703137
 31
0.0
  0
LINE
  5
5F1
330
1F
100
AcDbEntity
  8
0
  6
Continuous
 62
     0
370
     0
100
AcDbLine
 10
92.03090932425948
 20
108.1025227834813
 30
0.0
 11
92.03090932425948
 21
108.0501124193303
 31
0.0
  0
LINE
  5
5F2
330
1F
100
AcDbEntity
  8
0
  6
Continuous
 62
     0
370
     0
100
AcDbLine
 10
92.1473815685222
 20
107.9886656930081
 30
0.0
 11
92.1473815685222
 21
107.909387641155
 31
0.0
  0
LINE
  5
5F3
330
1F
100
AcDbEntity
  8
0
  6
Continuous
 62
     0
370
     0
100
AcDbLine
 10
103.481087947459
 20
108.9134859969251
 30
0.0
 11
93.89873530921435
 21
107.6296922495
 31
0.0
  0
LINE
  5
5F4
330
1F
100
AcDbEntity
  8
0
  6
Continuous
 62
     0
370
     0
100
AcDbLine
 10
92.55160119590258
 20
107.4492117693059
 30
0.0
 11
27.39456441459151
 21
98.71982573767824
 31
0.0
  0
LINE
  5
5F5
330
1F
100
AcDbEntity
  8
0
  6
Continuous
 62
     0
370
     0
100
AcDbLine
 10
26.04743030127972
 20
98.53934257527513
 30
0.0
 11
16.54775407371014
 21
97.26662903329057
 31
0.0
  0
LINE
  5
5F6
330
1F
100
AcDbEntity
  8
0
  6
Continuous
 62
     0
370
     0
100
AcDbLine
 10
16.51282098350021
 20
97.37080066701097
 30
0.0
 11
26.04526307639571
 21
98.6479049851529
 31
0.0
  0
LINE
  5
5F7
330
1F
100
AcDbEntity
  8
0
  6
Continuous
 62
     0
370
     0
100
AcDbLine
 10
27.37947967109173
 20
98.8266581227414
 30
0.0
 11
92.54943397101852
 21
107.5577741791837
 31
0.0
  0
LINE
  5
5F8
330
1F
100
AcDbEntity
  8
0
  6
Continuous
 62
     0
370
     0
100
AcDbLine
 10
93.88365056571459
 20
107.7365246345632
 30
0.0
 11
103.446154857249
 21
109.0176576306455
 31
0.0
  0
LINE
  5
5F9
330
1F
100
AcDbEntity
  8
0
  6
Continuous
 62
     0
370
     0
100
AcDbLine
 10
103.4508111720989
 20
108.9933755924336
 30
0.0
 11
93.88755586204027
 21
107.7121433546178
 31
0.0
  0
LINE
  5
5FA
330
1F
100
AcDbEntity
  8
0
  6
Continuous
 62
     0
370
     0
100
AcDbLine
 10
92.54992749747728
 20
107.5329342414967
 30
0.0
 11
27.38338496741741
 21
98.80227416058702
 31
0.0
  0
LINE
  5
5FB
330
1F
100
AcDbEntity
  8
0
  6
Continuous
 62
     0
370
     0
100
AcDbLine
 10
26.04575660285448
 20
98.62306504746599
 30
0.0
 11
16.51747729835009
 21
97.34651862879915
 31
0.0
  0
LINE
  5
5FC
330
1F
100
AcDbEntity
  8
0
  6
Continuous
 62
     0
370
     0
100
AcDbLine
 10
16.54078033027142
 20
97.3030507495038
 30
0.0
 11
26.0467007404277
 21
98.57660382291002
 31
0.0
  0
LINE
  5
5FD
330
1F
100
AcDbEntity
  8
0
  6
Continuous
 62
     0
370
     0
100
AcDbLine
 10
27.3861744647929
 20
98.75605969926042
 30
0.0
 11
92.55085017737841
 21
107.4864730169408
 31
0.0
  0
LINE
  5
5FE
330
1F
100
AcDbEntity
  8
0
  6
Continuous
 62
     0
370
     0
100
AcDbLine
 10
93.89034535941576
 20
107.6659288932912
 30
0.0
 11
103.4740927463481
 21
108.9499077131383
 31
0.0
  0
MTEXT
  5
612
330
1F
100
AcDbEntity
  8
0
 62
     7
100
AcDbMText
 10
193.9313562835353
 20
87.19768265655354
 30
0.0
 40
3.031684027777777
 41
0.0
 46
3.083222656249999
 71
     1
 72
     1
  1
{HAC-D/W83T}
  7
Arial
 73
     1
 44
0.9673603504928806
  0
MTEXT
  5
63F
330
1F
100
AcDbEntity
  8
0
 62
     7
100
AcDbMText
 10
158.9313562835353
 20
87.19768265655357
 30
0.0
 40
3.031684027777777
 41
0.0
 46
3.083222656249999
 71
     1
 72
     1
  1
{HAC-D/W43T}
  7
Arial
 73
     1
 44
0.9673603504928806
  0
MTEXT
  5
640
330
1F
100
AcDbEntity
  8
0
 62
     7
100
AcDbMText
 10
193.9313562835353
 20
80.19768265655354
 30
0.0
 40
3.031684027777777
 41
0.0
 46
3.083222656249999
 71
     1
 72
     1
  1
{HAC-D/H/B117T}
  7
Arial
 73
     1
 44
0.9673603504928806
  0
MTEXT
  5
641
330
1F
100
AcDbEntity
  8
0
 62
     7
100
AcDbMText
 10
158.9313562835353
 20
80.19768265655357
 30
0.0
 40
3.031684027777777
 41
0.0
 46
3.083222656249999
 71
     1
 72
     1
  1
{HAC-D/H/B55T}
  7
Arial
 73
     1
 44
0.9673603504928806
  0
LINE
  5
655
330
1F
100
AcDbEntity
  8
FORMAT
100
AcDbLine
 10
297.0000000000002
 20
-0.0000000000001887
 30
0.0
 11
297.0000000000001
 21
209.9999999999998
 31
0.0
  0
LINE
  5
656
330
1F
100
AcDbEntity
  8
FORMAT
100
AcDbLine
 10
297.0000000000001
 20
209.9999999999998
 30
0.0
 11
0.0000000000000568
 21
210.0
 31
0.0
  0
LINE
  5
657
330
1F
100
AcDbEntity
  8
FORMAT
100
AcDbLine
 10
0.0000000000000568
 20
210.0
 30
0.0
 11
0.0
 21
0.0
 31
0.0
  0
LINE
  5
658
330
1F
100
AcDbEntity
  8
FORMAT
100
AcDbLine
 10
0.0
 20
0.0
 30
0.0
 11
297.0
 21
0.0000000000000671
 31
0.0
  0
ENDSEC
  0
SECTION
  2
OBJECTS
  0
DICTIONARY
  5
C
330
0
100
AcDbDictionary
281
     1
  3
ACAD_DETAILVIEWSTYLE
350
1AB
  3
ACAD_GROUP
350
D
  3
ACAD_LAYOUT
350
1A
  3
ACAD_MATERIAL
350
18F
  3
ACAD_MLEADERSTYLE
350
195
  3
ACAD_MLINESTYLE
350
17
  3
ACAD_PLOTSETTINGS
350
19
  3
ACAD_PLOTSTYLENAME
350
E
  3
ACAD_SCALELIST
350
47
  3
ACAD_SECTIONVIEWSTYLE
350
1AC
  3
ACAD_TABLESTYLE
350
193
  3
ACAD_VISUALSTYLE
350
176
  3
ACDB_RECOMPOSE_DATA
350
65E
  3
AcDbVariableDictionary
350
1A6
  3
APPDATA
350
197
  0
SUN
  5
4A8
330
29
100
AcDbSun
 90
        1
290
     0
 63
     7
421
 16777215
 40
1.0
291
     1
 91
  2455826
 92
 54000000
292
     0
 70
     2
 71
   256
280
     1
  0
DICTIONARY
  5
617
330
2
100
AcDbDictionary
280
     1
281
     1
  3
ACAD_LAYERSTATES
360
618
  0
DICTIONARY
  5
1AB
102
{ACAD_REACTORS
330
C
102
}
330
C
100
AcDbDictionary
281
     1
  0
DICTIONARY
  5
D
102
{ACAD_REACTORS
330
C
102
}
330
C
100
AcDbDictionary
281
     1
  0
DICTIONARY
  5
1A
102
{ACAD_REACTORS
330
C
102
}
330
C
100
AcDbDictionary
281
     1
  3
Layout1
350
1E
  3
Layout2
350
26
  3
Model
350
22
  0
DICTIONARY
  5
18F
102
{ACAD_REACTORS
330
C
102
}
330
C
100
AcDbDictionary
281
     1
  3
ByBlock
350
191
  3
ByLayer
350
190
  3
Global
350
192
  0
DICTIONARY
  5
195
102
{ACAD_REACTORS
330
C
102
}
330
C
100
AcDbDictionary
281
     1
  3
Standard
350
196
  0
DICTIONARY
  5
17
102
{ACAD_REACTORS
330
C
102
}
330
C
100
AcDbDictionary
281
     1
  3
Standard
350
18
  0
DICTIONARY
  5
19
102
{ACAD_REACTORS
330
C
102
}
330
C
100
AcDbDictionary
281
     1
  0
ACDBDICTIONARYWDFLT
  5
E
102
{ACAD_REACTORS
330
C
102
}
330
C
100
AcDbDictionary
281
     1
  3
Normal
350
F
100
AcDbDictionaryWithDefault
340
F
  0
DICTIONARY
  5
47
102
{ACAD_REACTORS
330
C
102
}
330
C
100
AcDbDictionary
281
     1
  3
A0
350
48
  3
A1
350
49
  3
A2
350
4A
  3
A3
350
4B
  3
A4
350
4C
  3
A5
350
4D
  3
A6
350
4E
  3
A7
350
4F
  3
A8
350
50
  3
A9
350
51
  3
B0
350
52
  3
B1
350
53
  3
B2
350
54
  3
B3
350
55
  3
B4
350
56
  3
B5
350
57
  3
B6
350
58
  3
B7
350
59
  3
B8
350
5A
  3
B9
350
5B
  3
C0
350
5C
  3
C1
350
5D
  3
C2
350
5E
  3
C3
350
5F
  3
C4
350
60
  3
C5
350
61
  3
C6
350
62
  3
C7
350
63
  3
C8
350
64
  3
C9
350
65
  3
D0
350
66
  3
D1
350
67
  3
D2
350
68
  0
DICTIONARY
  5
1AC
102
{ACAD_REACTORS
330
C
102
}
330
C
100
AcDbDictionary
281
     1
  0
DICTIONARY
  5
193
102
{ACAD_REACTORS
330
C
102
}
330
C
100
AcDbDictionary
281
     1
  3
Standard
350
194
  0
DICTIONARY
  5
176
102
{ACAD_REACTORS
330
C
102
}
330
C
100
AcDbDictionary
281
     1
  3
2dWireframe
350
17B
  3
Basic
350
17E
  3
Brighten
350
182
  3
ColorChange
350
186
  3
Conceptual
350
180
  3
Dim
350
181
  3
EdgeColorOff
350
189
  3
Facepattern
350
185
  3
Flat
350
177
  3
FlatWithEdges
350
178
  3
Gouraud
350
179
  3
GouraudWithEdges
350
17A
  3
Hidden
350
17D
  3
JitterOff
350
187
  3
Linepattern
350
184
  3
OverhangOff
350
188
  3
Realistic
350
17F
  3
Shaded
350
18E
  3
Shaded with edges
350
18D
  3
Shades of Gray
350
18A
  3
Sketchy
350
18B
  3
Thicken
350
183
  3
Wireframe
350
17C
  3
X-Ray
350
18C
  0
XRECORD
  5
65E
102
{ACAD_REACTORS
330
C
102
}
330
C
100
AcDbXrecord
280
     1
 90
        1
330
194
  0
DICTIONARY
  5
1A6
102
{ACAD_REACTORS
330
C
102
}
330
C
100
AcDbDictionary
281
     1
  3
CANNOSCALE
350
1A7
  3
CMLEADERSTYLE
350
1A9
  3
CTABLESTYLE
350
1A8
  3
MSLTSCALE
350
1AA
  0
DICTIONARY
  5
197
102
{ACAD_REACTORS
330
C
102
}
330
C
100
AcDbDictionary
281
     1
  0
DICTIONARY
  5
618
102
{ACAD_REACTORS
330
617
102
}
330
617
100
AcDbDictionary
281
     1
  0
LAYOUT
  5
1E
102
{ACAD_REACTORS
330
1A
102
}
330
1A
100
AcDbPlotSettings
  1

  2
none_device
  4

  6

 40
0.0
 41
0.0
 42
0.0
 43
0.0
 44
0.0
 45
0.0
 46
0.0
 47
0.0
 48
0.0
 49
0.0
140
0.0
141
0.0
142
1.0
143
1.0
 70
   688
 72
     1
 73
     0
 74
     5
  7

 75
    16
 76
     0
 77
     2
 78
   300
147
1.0
148
0.0
149
0.0
100
AcDbLayout
  1
Layout1
 70
     1
 71
     1
 10
0.0
 20
0.0
 11
420.0
 21
297.0
 12
0.0
 22
0.0
 32
0.0
 14
1.000000000000000E+20
 24
1.000000000000000E+20
 34
1.000000000000000E+20
 15
-1.000000000000000E+20
 25
-1.000000000000000E+20
 35
-1.000000000000000E+20
146
0.0
 13
0.0
 23
0.0
 33
0.0
 16
1.0
 26
0.0
 36
0.0
 17
0.0
 27
1.0
 37
0.0
 76
     0
330
1B
  0
LAYOUT
  5
26
102
{ACAD_REACTORS
330
1A
102
}
330
1A
100
AcDbPlotSettings
  1

  2
none_device
  4

  6

 40
0.0
 41
0.0
 42
0.0
 43
0.0
 44
0.0
 45
0.0
 46
0.0
 47
0.0
 48
0.0
 49
0.0
140
0.0
141
0.0
142
1.0
143
1.0
 70
   688
 72
     1
 73
     0
 74
     5
  7

 75
    16
 76
     0
 77
     2
 78
   300
147
1.0
148
0.0
149
0.0
100
AcDbLayout
  1
Layout2
 70
     1
 71
     2
 10
0.0
 20
0.0
 11
0.0
 21
0.0
 12
0.0
 22
0.0
 32
0.0
 14
0.0
 24
0.0
 34
0.0
 15
0.0
 25
0.0
 35
0.0
146
0.0
 13
0.0
 23
0.0
 33
0.0
 16
1.0
 26
0.0
 36
0.0
 17
0.0
 27
1.0
 37
0.0
 76
     0
330
23
  0
LAYOUT
  5
22
102
{ACAD_REACTORS
330
1A
102
}
330
1A
100
AcDbPlotSettings
  1

  2
none_device
  4
Letter_(8.50_x_11.00_Inches)
  6

 40
6.35
 41
6.35
 42
6.35000508
 43
6.35000508
 44
215.9
 45
279.4
 46
0.0
 47
0.0
 48
0.0
 49
0.0
140
0.0
141
0.0
142
1.0
143
1.0
 70
  1712
 72
     1
 73
     0
 74
     0
  7

 75
     0
 76
     0
 77
     2
 78
   300
147
1.0
148
0.0
149
0.0
100
AcDbLayout
  1
Model
 70
     1
 71
     0
 10
0.0
 20
0.0
 11
210.0
 21
297.0
 12
0.0
 22
0.0
 32
0.0
 14
0.0
 24
-0.0000000000001705
 34
0.0
 15
297.0000000000002
 25
210.0
 35
0.0
146
0.0
 13
0.0
 23
0.0
 33
0.0
 16
1.0
 26
0.0
 36
0.0
 17
0.0
 27
1.0
 37
0.0
 76
     0
330
1F
331
29
  0
MATERIAL
  5
191
102
{ACAD_REACTORS
330
18F
102
}
330
18F
100
AcDbMaterial
  1
ByBlock
 72
     1
 94
      127
  0
MATERIAL
  5
190
102
{ACAD_REACTORS
330
18F
102
}
330
18F
100
AcDbMaterial
  1
ByLayer
 72
     1
 94
      127
  0
MATERIAL
  5
192
102
{ACAD_REACTORS
330
18F
102
}
330
18F
100
AcDbMaterial
  1
Global
 72
     1
 94
      127
  0
MLEADERSTYLE
  5
196
102
{ACAD_REACTORS
330
195
102
}
330
195
100
AcDbMLeaderStyle
179
     2
170
     2
171
     1
172
     0
 90
        2
 40
0.0
 41
0.0
173
     1
 91
-1056964608
340
14
 92
       -2
290
     1
 42
2.0
291
     1
 43
8.0
  3
Standard
341
0
 44
4.0
300

342
11
174
     1
178
     1
175
     1
176
     0
 93
-1056964608
 45
4.0
292
     0
297
     0
 46
4.0
343
0
 94
-1056964608
 47
1.0
 49
1.0
140
1.0
293
     1
141
0.0
294
     1
177
     0
142
1.0
295
     0
296
     0
143
3.75
271
     0
272
     9
273
     9
298
     0
  0
MLINESTYLE
  5
18
102
{ACAD_REACTORS
330
17
102
}
330
17
100
AcDbMlineStyle
  2
Standard
 70
     0
  3

 62
   256
 51
90.0
 52
90.0
 71
     2
 49
0.5
 62
   256
  6
BYLAYER
 49
-0.5
 62
   256
  6
BYLAYER
  0
ACDBPLACEHOLDER
  5
F
102
{ACAD_REACTORS
330
E
102
}
330
E
  0
SCALE
  5
48
102
{ACAD_REACTORS
330
47
102
}
330
47
100
AcDbScale
 70
     0
300
1:1
140
1.0
141
1.0
290
     1
  0
SCALE
  5
49
102
{ACAD_REACTORS
330
47
102
}
330
47
100
AcDbScale
 70
     0
300
1:2
140
1.0
141
2.0
290
     0
  0
SCALE
  5
4A
102
{ACAD_REACTORS
330
47
102
}
330
47
100
AcDbScale
 70
     0
300
1:4
140
1.0
141
4.0
290
     0
  0
SCALE
  5
4B
102
{ACAD_REACTORS
330
47
102
}
330
47
100
AcDbScale
 70
     0
300
1:5
140
1.0
141
5.0
290
     0
  0
SCALE
  5
4C
102
{ACAD_REACTORS
330
47
102
}
330
47
100
AcDbScale
 70
     0
300
1:8
140
1.0
141
8.0
290
     0
  0
SCALE
  5
4D
102
{ACAD_REACTORS
330
47
102
}
330
47
100
AcDbScale
 70
     0
300
1:10
140
1.0
141
10.0
290
     0
  0
SCALE
  5
4E
102
{ACAD_REACTORS
330
47
102
}
330
47
100
AcDbScale
 70
     0
300
1:16
140
1.0
141
16.0
290
     0
  0
SCALE
  5
4F
102
{ACAD_REACTORS
330
47
102
}
330
47
100
AcDbScale
 70
     0
300
1:20
140
1.0
141
20.0
290
     0
  0
SCALE
  5
50
102
{ACAD_REACTORS
330
47
102
}
330
47
100
AcDbScale
 70
     0
300
1:30
140
1.0
141
30.0
290
     0
  0
SCALE
  5
51
102
{ACAD_REACTORS
330
47
102
}
330
47
100
AcDbScale
 70
     0
300
1:40
140
1.0
141
40.0
290
     0
  0
SCALE
  5
52
102
{ACAD_REACTORS
330
47
102
}
330
47
100
AcDbScale
 70
     0
300
1:50
140
1.0
141
50.0
290
     0
  0
SCALE
  5
53
102
{ACAD_REACTORS
330
47
102
}
330
47
100
AcDbScale
 70
     0
300
1:100
140
1.0
141
100.0
290
     0
  0
SCALE
  5
54
102
{ACAD_REACTORS
330
47
102
}
330
47
100
AcDbScale
 70
     0
300
2:1
140
2.0
141
1.0
290
     0
  0
SCALE
  5
55
102
{ACAD_REACTORS
330
47
102
}
330
47
100
AcDbScale
 70
     0
300
4:1
140
4.0
141
1.0
290
     0
  0
SCALE
  5
56
102
{ACAD_REACTORS
330
47
102
}
330
47
100
AcDbScale
 70
     0
300
8:1
140
8.0
141
1.0
290
     0
  0
SCALE
  5
57
102
{ACAD_REACTORS
330
47
102
}
330
47
100
AcDbScale
 70
     0
300
10:1
140
10.0
141
1.0
290
     0
  0
SCALE
  5
58
102
{ACAD_REACTORS
330
47
102
}
330
47
100
AcDbScale
 70
     0
300
100:1
140
100.0
141
1.0
290
     0
  0
SCALE
  5
59
102
{ACAD_REACTORS
330
47
102
}
330
47
100
AcDbScale
 70
     0
300
1/128" = 1'-0"
140
0.0078125
141
12.0
290
     0
  0
SCALE
  5
5A
102
{ACAD_REACTORS
330
47
102
}
330
47
100
AcDbScale
 70
     0
300
1/64" = 1'-0"
140
0.015625
141
12.0
290
     0
  0
SCALE
  5
5B
102
{ACAD_REACTORS
330
47
102
}
330
47
100
AcDbScale
 70
     0
300
1/32" = 1'-0"
140
0.03125
141
12.0
290
     0
  0
SCALE
  5
5C
102
{ACAD_REACTORS
330
47
102
}
330
47
100
AcDbScale
 70
     0
300
1/16" = 1'-0"
140
0.0625
141
12.0
290
     0
  0
SCALE
  5
5D
102
{ACAD_REACTORS
330
47
102
}
330
47
100
AcDbScale
 70
     0
300
3/32" = 1'-0"
140
0.09375
141
12.0
290
     0
  0
SCALE
  5
5E
102
{ACAD_REACTORS
330
47
102
}
330
47
100
AcDbScale
 70
     0
300
1/8" = 1'-0"
140
0.125
141
12.0
290
     0
  0
SCALE
  5
5F
102
{ACAD_REACTORS
330
47
102
}
330
47
100
AcDbScale
 70
     0
300
3/16" = 1'-0"
140
0.1875
141
12.0
290
     0
  0
SCALE
  5
60
102
{ACAD_REACTORS
330
47
102
}
330
47
100
AcDbScale
 70
     0
300
1/4" = 1'-0"
140
0.25
141
12.0
290
     0
  0
SCALE
  5
61
102
{ACAD_REACTORS
330
47
102
}
330
47
100
AcDbScale
 70
     0
300
3/8" = 1'-0"
140
0.375
141
12.0
290
     0
  0
SCALE
  5
62
102
{ACAD_REACTORS
330
47
102
}
330
47
100
AcDbScale
 70
     0
300
1/2" = 1'-0"
140
0.5
141
12.0
290
     0
  0
SCALE
  5
63
102
{ACAD_REACTORS
330
47
102
}
330
47
100
AcDbScale
 70
     0
300
3/4" = 1'-0"
140
0.75
141
12.0
290
     0
  0
SCALE
  5
64
102
{ACAD_REACTORS
330
47
102
}
330
47
100
AcDbScale
 70
     0
300
1" = 1'-0"
140
1.0
141
12.0
290
     0
  0
SCALE
  5
65
102
{ACAD_REACTORS
330
47
102
}
330
47
100
AcDbScale
 70
     0
300
1-1/2" = 1'-0"
140
1.5
141
12.0
290
     0
  0
SCALE
  5
66
102
{ACAD_REACTORS
330
47
102
}
330
47
100
AcDbScale
 70
     0
300
3" = 1'-0"
140
3.0
141
12.0
290
     0
  0
SCALE
  5
67
102
{ACAD_REACTORS
330
47
102
}
330
47
100
AcDbScale
 70
     0
300
6" = 1'-0"
140
6.0
141
12.0
290
     0
  0
SCALE
  5
68
102
{ACAD_REACTORS
330
47
102
}
330
47
100
AcDbScale
 70
     0
300
1'-0" = 1'-0"
140
12.0
141
12.0
290
     0
  0
TABLESTYLE
  5
194
102
{ACAD_REACTORS
330
193
102
}
102
{ACAD_XDICTIONARY
360
65C
102
}
330
193
100
AcDbTableStyle
  3
Standard
 70
     0
 71
     0
 40
1.5
 41
1.5
280
     0
281
     0
  7
Standard
140
4.5
170
     2
 62
     0
 63
   257
283
     0
 90
        4
 91
        0
  1

274
    -2
284
     1
 64
     0
275
    -2
285
     1
 65
     0
276
    -2
286
     1
 66
     0
277
    -2
287
     1
 67
     0
278
    -2
288
     1
 68
     0
279
    -2
289
     1
 69
     0
  7
Standard
140
6.0
170
     5
 62
     0
 63
   257
283
     0
 90
        4
 91
        0
  1

274
    -2
284
     1
 64
     0
275
    -2
285
     1
 65
     0
276
    -2
286
     1
 66
     0
277
    -2
287
     1
 67
     0
278
    -2
288
     1
 68
     0
279
    -2
289
     1
 69
     0
  7
Standard
140
4.5
170
     5
 62
     0
 63
   257
283
     0
 90
        4
 91
        0
  1

274
    -2
284
     1
 64
     0
275
    -2
285
     1
 65
     0
276
    -2
286
     1
 66
     0
277
    -2
287
     1
 67
     0
278
    -2
288
     1
 68
     0
279
    -2
289
     1
 69
     0
  0
VISUALSTYLE
  5
17B
102
{ACAD_REACTORS
330
176
102
}
330
176
100
AcDbVisualStyle
  2
2dWireframe
 70
     4
177
     3
291
     0
 70
    58
 90
        0
176
     1
 90
        2
176
     1
 90
        0
176
     1
 90
        0
176
     1
 40
0.6
176
     1
 40
30.0
176
     1
 62
     7
420
 16777215
176
     1
 90
        1
176
     1
 90
        4
176
     1
 62
     7
176
     1
 62
   257
176
     1
 90
        1
176
     1
 90
        1
176
     1
 40
1.0
176
     1
 90
        0
176
     1
 62
   257
176
     1
 40
1.0
176
     1
 90
        1
176
     1
 90
        6
176
     1
 90
        2
176
     1
 62
     7
176
     1
 90
        5
176
     1
 90
        0
176
     1
 90
        0
176
     1
290
     0
176
     1
 90
        1
176
     1
 40
0.0
176
     1
 90
        0
176
     1
290
     1
176
     1
290
     1
176
     1
290
     0
176
     1
290
     0
176
     1
290
     0
176
     1
290
     0
176
     1
290
     0
176
     1
290
     0
176
     1
290
     0
176
     1
 90
       50
176
     1
 40
0.0
176
     1
 40
1.0
176
     1
 90
        0
176
     1
 62
    18
420
        0
176
     1
 90
       50
176
     1
 90
        3
176
     1
 62
     5
420
      255
176
     1
290
     0
176
     1
 90
       50
176
     1
 90
       50
176
     1
 90
       50
176
     1
290
     0
176
     1
 90
       50
176
     1
 62
   256
176
     0
 40
1.0
176
     0
 90
        2
176
     1
  1
strokes_ogs.tif
176
     1
290
     0
176
     1
 40
1.0
176
     1
 40
1.0
176
     1
  0
VISUALSTYLE
  5
17E
102
{ACAD_REACTORS
330
176
102
}
330
176
100
AcDbVisualStyle
  2
Basic
 70
     7
177
     3
291
     1
 70
    58
 90
        1
176
     1
 90
        0
176
     1
 90
        1
176
     1
 90
        0
176
     1
 40
0.6
176
     1
 40
30.0
176
     1
 62
     7
420
 16777215
176
     1
 90
        0
176
     1
 90
        4
176
     1
 62
     7
176
     1
 62
   257
176
     1
 90
        1
176
     1
 90
        1
176
     1
 40
1.0
176
     1
 90
        8
176
     1
 62
     7
176
     1
 40
1.0
176
     1
 90
        1
176
     1
 90
        6
176
     1
 90
        2
176
     1
 62
     7
176
     1
 90
        5
176
     1
 90
        0
176
     1
 90
        0
176
     1
290
     0
176
     1
 90
        1
176
     1
 40
0.0
176
     1
 90
        0
176
     1
290
     0
176
     1
290
     1
176
     1
290
     1
176
     1
290
     0
176
     1
290
     0
176
     1
290
     0
176
     1
290
     0
176
     1
290
     0
176
     1
290
     0
176
     1
 90
       50
176
     1
 40
0.0
176
     1
 40
1.0
176
     1
 90
        0
176
     1
 62
    18
420
        0
176
     1
 90
       50
176
     1
 90
        3
176
     1
 62
     5
420
      255
176
     1
290
     0
176
     1
 90
       50
176
     1
 90
       50
176
     1
 90
       50
176
     1
290
     0
176
     1
 90
       50
176
     1
 62
   256
176
     0
 40
1.0
176
     0
 90
        2
176
     1
  1
strokes_ogs.tif
176
     1
290
     0
176
     1
 40
1.0
176
     1
 40
1.0
176
     1
  0
VISUALSTYLE
  5
182
102
{ACAD_REACTORS
330
176
102
}
330
176
100
AcDbVisualStyle
  2
Brighten
 70
    12
177
     3
291
     1
 70
    58
 90
        2
176
     1
 90
        2
176
     1
 90
        0
176
     1
 90
        0
176
     1
 40
0.6
176
     1
 40
30.0
176
     1
 62
     7
420
 16777215
176
     1
 90
        1
176
     1
 90
        4
176
     1
 62
     7
176
     1
 62
   257
176
     1
 90
        1
176
     1
 90
        1
176
     1
 40
1.0
176
     1
 90
        8
176
     1
 62
     7
176
     1
 40
1.0
176
     1
 90
        1
176
     1
 90
        6
176
     1
 90
        2
176
     1
 62
     7
176
     1
 90
        5
176
     1
 90
        0
176
     1
 90
        0
176
     1
290
     0
176
     1
 90
        1
176
     1
 40
50.0
176
     1
 90
        0
176
     1
290
     0
176
     1
290
     1
176
     1
290
     1
176
     1
290
     0
176
     1
290
     0
176
     1
290
     0
176
     1
290
     0
176
     1
290
     0
176
     1
290
     0
176
     1
 90
       50
176
     1
 40
0.0
176
     1
 40
1.0
176
     1
 90
        0
176
     1
 62
    18
420
        0
176
     1
 90
       50
176
     1
 90
        3
176
     1
 62
     5
420
      255
176
     1
290
     0
176
     1
 90
       50
176
     1
 90
       50
176
     1
 90
       50
176
     1
290
     0
176
     1
 90
       50
176
     1
 62
   256
176
     0
 40
1.0
176
     0
 90
        2
176
     1
  1
strokes_ogs.tif
176
     1
290
     0
176
     1
 40
1.0
176
     1
 40
1.0
176
     1
  0
VISUALSTYLE
  5
186
102
{ACAD_REACTORS
330
176
102
}
330
176
100
AcDbVisualStyle
  2
ColorChange
 70
    16
177
     3
291
     1
 70
    58
 90
        2
176
     1
 90
        2
176
     1
 90
        3
176
     1
 90
        0
176
     1
 40
0.6
176
     1
 40
30.0
176
     1
 62
     8
420
  8421504
176
     1
 90
        1
176
     1
 90
        4
176
     1
 62
     7
176
     1
 62
   257
176
     1
 90
        1
176
     1
 90
        1
176
     1
 40
1.0
176
     1
 90
        8
176
     1
 62
     8
420
  8421504
176
     1
 40
1.0
176
     1
 90
        1
176
     1
 90
        6
176
     1
 90
        2
176
     1
 62
     7
176
     1
 90
        5
176
     1
 90
        0
176
     1
 90
        0
176
     1
290
     0
176
     1
 90
        1
176
     1
 40
0.0
176
     1
 90
        0
176
     1
290
     0
176
     1
290
     1
176
     1
290
     1
176
     1
290
     0
176
     1
290
     0
176
     1
290
     0
176
     1
290
     0
176
     1
290
     0
176
     1
290
     0
176
     1
 90
       50
176
     1
 40
0.0
176
     1
 40
1.0
176
     1
 90
        0
176
     1
 62
    18
420
        0
176
     1
 90
       50
176
     1
 90
        3
176
     1
 62
     5
420
      255
176
     1
290
     0
176
     1
 90
       50
176
     1
 90
       50
176
     1
 90
       50
176
     1
290
     0
176
     1
 90
       50
176
     1
 62
   256
176
     0
 40
1.0
176
     0
 90
        2
176
     1
  1
strokes_ogs.tif
176
     1
290
     0
176
     1
 40
1.0
176
     1
 40
1.0
176
     1
  0
VISUALSTYLE
  5
180
102
{ACAD_REACTORS
330
176
102
}
330
176
100
AcDbVisualStyle
  2
Conceptual
 70
     9
177
     3
291
     0
 70
    58
 90
        3
176
     1
 90
        2
176
     1
 90
        0
176
     1
 90
        0
176
     1
 40
0.6
176
     1
 40
30.0
176
     1
 62
     7
420
 16777215
176
     1
 90
        2
176
     1
 90
        2
176
     1
 62
     7
176
     1
 62
   257
176
     1
 90
        1
176
     1
 90
        1
176
     1
 40
179.0
176
     1
 90
        8
176
     1
 62
     7
176
     1
 40
1.0
176
     1
 90
        1
176
     1
 90
        6
176
     1
 90
        2
176
     1
 62
     7
176
     1
 90
        3
176
     1
 90
        0
176
     1
 90
        0
176
     1
290
     0
176
     1
 90
        1
176
     1
 40
0.0
176
     1
 90
        0
176
     1
290
     0
176
     1
290
     1
176
     1
290
     1
176
     1
290
     0
176
     1
290
     0
176
     1
290
     0
176
     1
290
     0
176
     1
290
     0
176
     1
290
     0
176
     1
 90
       50
176
     1
 40
0.0
176
     1
 40
1.0
176
     1
 90
        0
176
     1
 62
    18
420
        0
176
     1
 90
       50
176
     1
 90
        3
176
     1
 62
     5
420
      255
176
     1
290
     0
176
     1
 90
       50
176
     1
 90
       50
176
     1
 90
       50
176
     1
290
     0
176
     1
 90
       50
176
     1
 62
   256
176
     0
 40
1.0
176
     0
 90
        2
176
     1
  1
strokes_ogs.tif
176
     1
290
     0
176
     1
 40
1.0
176
     1
 40
1.0
176
     1
  0
VISUALSTYLE
  5
181
102
{ACAD_REACTORS
330
176
102
}
330
176
100
AcDbVisualStyle
  2
Dim
 70
    11
177
     3
291
     1
 70
    58
 90
        2
176
     1
 90
        2
176
     1
 90
        0
176
     1
 90
        0
176
     1
 40
0.6
176
     1
 40
30.0
176
     1
 62
     7
420
 16777215
176
     1
 90
        1
176
     1
 90
        4
176
     1
 62
     7
176
     1
 62
   257
176
     1
 90
        1
176
     1
 90
        1
176
     1
 40
1.0
176
     1
 90
        8
176
     1
 62
     7
176
     1
 40
1.0
176
     1
 90
        1
176
     1
 90
        6
176
     1
 90
        2
176
     1
 62
     7
176
     1
 90
        5
176
     1
 90
        0
176
     1
 90
        0
176
     1
290
     0
176
     1
 90
        1
176
     1
 40
-50.0
176
     1
 90
        0
176
     1
290
     0
176
     1
290
     1
176
     1
290
     1
176
     1
290
     0
176
     1
290
     0
176
     1
290
     0
176
     1
290
     0
176
     1
290
     0
176
     1
290
     0
176
     1
 90
       50
176
     1
 40
0.0
176
     1
 40
1.0
176
     1
 90
        0
176
     1
 62
    18
420
        0
176
     1
 90
       50
176
     1
 90
        3
176
     1
 62
     5
420
      255
176
     1
290
     0
176
     1
 90
       50
176
     1
 90
       50
176
     1
 90
       50
176
     1
290
     0
176
     1
 90
       50
176
     1
 62
   256
176
     0
 40
1.0
176
     0
 90
        2
176
     1
  1
strokes_ogs.tif
176
     1
290
     0
176
     1
 40
1.0
176
     1
 40
1.0
176
     1
  0
VISUALSTYLE
  5
189
102
{ACAD_REACTORS
330
176
102
}
330
176
100
AcDbVisualStyle
  2
EdgeColorOff
 70
    22
177
     3
291
     1
 70
    58
 90
        2
176
     0
 90
        2
176
     0
 90
        0
176
     0
 90
        0
176
     0
 40
0.6
176
     0
 40
30.0
176
     0
 62
     7
420
 16777215
176
     0
 90
        1
176
     0
 90
        4
176
     0
 62
     7
176
     0
 62
   257
176
     0
 90
        1
176
     0
 90
        1
176
     0
 40
1.0
176
     0
 90
        8
176
     2
 62
     7
176
     0
 40
1.0
176
     0
 90
        1
176
     0
 90
        6
176
     0
 90
        2
176
     0
 62
     7
176
     0
 90
        5
176
     0
 90
        0
176
     0
 90
        0
176
     0
290
     0
176
     0
 90
        1
176
     0
 40
0.0
176
     0
 90
        0
176
     0
290
     0
176
     0
290
     1
176
     0
290
     1
176
     0
290
     0
176
     0
290
     0
176
     0
290
     0
176
     0
290
     0
176
     0
290
     0
176
     0
290
     0
176
     0
 90
       50
176
     0
 40
0.0
176
     0
 40
1.0
176
     0
 90
        0
176
     0
 62
    18
420
        0
176
     0
 90
       50
176
     0
 90
        3
176
     0
 62
     5
420
      255
176
     0
290
     0
176
     0
 90
       50
176
     0
 90
       50
176
     0
 90
       50
176
     0
290
     0
176
     0
 90
       50
176
     0
 62
   256
176
     0
 40
1.0
176
     0
 90
        2
176
     0
  1
strokes_ogs.tif
176
     0
290
     0
176
     0
 40
1.0
176
     0
 40
1.0
176
     0
  0
VISUALSTYLE
  5
185
102
{ACAD_REACTORS
330
176
102
}
330
176
100
AcDbVisualStyle
  2
Facepattern
 70
    15
177
     3
291
     1
 70
    58
 90
        2
176
     1
 90
        2
176
     1
 90
        0
176
     1
 90
        0
176
     1
 40
0.6
176
     1
 40
30.0
176
     1
 62
     7
420
 16777215
176
     1
 90
        1
176
     1
 90
        4
176
     1
 62
     7
176
     1
 62
   257
176
     1
 90
        1
176
     1
 90
        1
176
     1
 40
1.0
176
     1
 90
        8
176
     1
 62
     7
176
     1
 40
1.0
176
     1
 90
        1
176
     1
 90
        6
176
     1
 90
        2
176
     1
 62
     7
176
     1
 90
        5
176
     1
 90
        0
176
     1
 90
        0
176
     1
290
     0
176
     1
 90
        1
176
     1
 40
0.0
176
     1
 90
        0
176
     1
290
     0
176
     1
290
     1
176
     1
290
     1
176
     1
290
     0
176
     1
290
     0
176
     1
290
     0
176
     1
290
     0
176
     1
290
     0
176
     1
290
     0
176
     1
 90
       50
176
     1
 40
0.0
176
     1
 40
1.0
176
     1
 90
        0
176
     1
 62
    18
420
        0
176
     1
 90
       50
176
     1
 90
        3
176
     1
 62
     5
420
      255
176
     1
290
     0
176
     1
 90
       50
176
     1
 90
       50
176
     1
 90
       50
176
     1
290
     0
176
     1
 90
       50
176
     1
 62
   256
176
     0
 40
1.0
176
     0
 90
        2
176
     1
  1
strokes_ogs.tif
176
     1
290
     0
176
     1
 40
1.0
176
     1
 40
1.0
176
     1
  0
VISUALSTYLE
  5
177
102
{ACAD_REACTORS
330
176
102
}
330
176
100
AcDbVisualStyle
  2
Flat
 70
     0
177
     3
291
     1
 70
    58
 90
        2
176
     1
 90
        1
176
     1
 90
        1
176
     1
 90
        2
176
     1
 40
0.6
176
     1
 40
30.0
176
     1
 62
     7
420
 16777215
176
     1
 90
        0
176
     1
 90
        0
176
     1
 62
     7
176
     1
 62
   257
176
     1
 90
        1
176
     1
 90
        1
176
     1
 40
1.0
176
     1
 90
        8
176
     1
 62
     7
176
     1
 40
1.0
176
     1
 90
        1
176
     1
 90
        6
176
     1
 90
        2
176
     1
 62
     7
176
     1
 90
        5
176
     1
 90
        0
176
     1
 90
        0
176
     1
290
     0
176
     1
 90
       13
176
     1
 40
0.0
176
     1
 90
        0
176
     1
290
     0
176
     1
290
     1
176
     1
290
     1
176
     1
290
     0
176
     1
290
     0
176
     1
290
     0
176
     1
290
     0
176
     1
290
     0
176
     1
290
     0
176
     1
 90
       50
176
     1
 40
0.0
176
     1
 40
1.0
176
     1
 90
        0
176
     1
 62
    18
420
        0
176
     1
 90
       50
176
     1
 90
        3
176
     1
 62
     5
420
      255
176
     1
290
     0
176
     1
 90
       50
176
     1
 90
       50
176
     1
 90
       50
176
     1
290
     0
176
     1
 90
       50
176
     1
 62
   256
176
     0
 40
1.0
176
     0
 90
        2
176
     1
  1
strokes_ogs.tif
176
     1
290
     0
176
     1
 40
1.0
176
     1
 40
1.0
176
     1
  0
VISUALSTYLE
  5
178
102
{ACAD_REACTORS
330
176
102
}
330
176
100
AcDbVisualStyle
  2
FlatWithEdges
 70
     1
177
     3
291
     1
 70
    58
 90
        2
176
     1
 90
        1
176
     1
 90
        1
176
     1
 90
        2
176
     1
 40
0.6
176
     1
 40
30.0
176
     1
 62
     7
420
 16777215
176
     1
 90
        1
176
     1
 90
        0
176
     1
 62
     7
176
     1
 62
   257
176
     1
 90
        1
176
     1
 90
        1
176
     1
 40
1.0
176
     1
 90
        0
176
     1
 62
   257
176
     1
 40
1.0
176
     1
 90
        1
176
     1
 90
        6
176
     1
 90
        2
176
     1
 62
     7
176
     1
 90
        5
176
     1
 90
        0
176
     1
 90
        0
176
     1
290
     0
176
     1
 90
       13
176
     1
 40
0.0
176
     1
 90
        0
176
     1
290
     0
176
     1
290
     1
176
     1
290
     1
176
     1
290
     0
176
     1
290
     0
176
     1
290
     0
176
     1
290
     0
176
     1
290
     0
176
     1
290
     0
176
     1
 90
       50
176
     1
 40
0.0
176
     1
 40
1.0
176
     1
 90
        0
176
     1
 62
    18
420
        0
176
     1
 90
       50
176
     1
 90
        3
176
     1
 62
     5
420
      255
176
     1
290
     0
176
     1
 90
       50
176
     1
 90
       50
176
     1
 90
       50
176
     1
290
     0
176
     1
 90
       50
176
     1
 62
   256
176
     0
 40
1.0
176
     0
 90
        2
176
     1
  1
strokes_ogs.tif
176
     1
290
     0
176
     1
 40
1.0
176
     1
 40
1.0
176
     1
  0
VISUALSTYLE
  5
179
102
{ACAD_REACTORS
330
176
102
}
330
176
100
AcDbVisualStyle
  2
Gouraud
 70
     2
177
     3
291
     1
 70
    58
 90
        2
176
     1
 90
        2
176
     1
 90
        1
176
     1
 90
        2
176
     1
 40
0.6
176
     1
 40
30.0
176
     1
 62
     7
420
 16777215
176
     1
 90
        0
176
     1
 90
        0
176
     1
 62
     7
176
     1
 62
   257
176
     1
 90
        1
176
     1
 90
        1
176
     1
 40
1.0
176
     1
 90
        0
176
     1
 62
     7
176
     1
 40
1.0
176
     1
 90
        1
176
     1
 90
        6
176
     1
 90
        2
176
     1
 62
     7
176
     1
 90
        5
176
     1
 90
        0
176
     1
 90
        0
176
     1
290
     0
176
     1
 90
       13
176
     1
 40
0.0
176
     1
 90
        0
176
     1
290
     0
176
     1
290
     1
176
     1
290
     1
176
     1
290
     0
176
     1
290
     0
176
     1
290
     0
176
     1
290
     0
176
     1
290
     0
176
     1
290
     0
176
     1
 90
       50
176
     1
 40
0.0
176
     1
 40
1.0
176
     1
 90
        0
176
     1
 62
    18
420
        0
176
     1
 90
       50
176
     1
 90
        3
176
     1
 62
     5
420
      255
176
     1
290
     0
176
     1
 90
       50
176
     1
 90
       50
176
     1
 90
       50
176
     1
290
     0
176
     1
 90
       50
176
     1
 62
   256
176
     0
 40
1.0
176
     0
 90
        2
176
     1
  1
strokes_ogs.tif
176
     1
290
     0
176
     1
 40
1.0
176
     1
 40
1.0
176
     1
  0
VISUALSTYLE
  5
17A
102
{ACAD_REACTORS
330
176
102
}
330
176
100
AcDbVisualStyle
  2
GouraudWithEdges
 70
     3
177
     3
291
     1
 70
    58
 90
        2
176
     1
 90
        2
176
     1
 90
        1
176
     1
 90
        2
176
     1
 40
0.6
176
     1
 40
30.0
176
     1
 62
     7
420
 16777215
176
     1
 90
        1
176
     1
 90
        0
176
     1
 62
     7
176
     1
 62
   257
176
     1
 90
        1
176
     1
 90
        1
176
     1
 40
1.0
176
     1
 90
        0
176
     1
 62
   257
176
     1
 40
1.0
176
     1
 90
        1
176
     1
 90
        6
176
     1
 90
        2
176
     1
 62
     7
176
     1
 90
        5
176
     1
 90
        0
176
     1
 90
        0
176
     1
290
     0
176
     1
 90
       13
176
     1
 40
0.0
176
     1
 90
        0
176
     1
290
     0
176
     1
290
     1
176
     1
290
     1
176
     1
290
     0
176
     1
290
     0
176
     1
290
     0
176
     1
290
     0
176
     1
290
     0
176
     1
290
     0
176
     1
 90
       50
176
     1
 40
0.0
176
     1
 40
1.0
176
     1
 90
        0
176
     1
 62
    18
420
        0
176
     1
 90
       50
176
     1
 90
        3
176
     1
 62
     5
420
      255
176
     1
290
     0
176
     1
 90
       50
176
     1
 90
       50
176
     1
 90
       50
176
     1
290
     0
176
     1
 90
       50
176
     1
 62
   256
176
     0
 40
1.0
176
     0
 90
        2
176
     1
  1
strokes_ogs.tif
176
     1
290
     0
176
     1
 40
1.0
176
     1
 40
1.0
176
     1
  0
VISUALSTYLE
  5
17D
102
{ACAD_REACTORS
330
176
102
}
330
176
100
AcDbVisualStyle
  2
Hidden
 70
     6
177
     3
291
     0
 70
    58
 90
        1
176
     1
 90
        2
176
     1
 90
        2
176
     1
 90
        0
176
     1
 40
0.6
176
     1
 40
30.0
176
     1
 62
     7
420
 16777215
176
     1
 90
        2
176
     1
 90
        2
176
     1
 62
     7
176
     1
 62
   257
176
     1
 90
        2
176
     1
 90
        1
176
     1
 40
40.0
176
     1
 90
        0
176
     1
 62
   257
176
     1
 40
1.0
176
     1
 90
        1
176
     1
 90
        6
176
     1
 90
        2
176
     1
 62
     7
176
     1
 90
        3
176
     1
 90
        0
176
     1
 90
        0
176
     1
290
     0
176
     1
 90
        1
176
     1
 40
0.0
176
     1
 90
        0
176
     1
290
     0
176
     1
290
     1
176
     1
290
     1
176
     1
290
     0
176
     1
290
     0
176
     1
290
     0
176
     1
290
     0
176
     1
290
     0
176
     1
290
     0
176
     1
 90
       50
176
     1
 40
0.0
176
     1
 40
1.0
176
     1
 90
        0
176
     1
 62
    18
420
        0
176
     1
 90
       50
176
     1
 90
        3
176
     1
 62
     5
420
      255
176
     1
290
     0
176
     1
 90
       50
176
     1
 90
       50
176
     1
 90
       50
176
     1
290
     0
176
     1
 90
       50
176
     1
 62
   256
176
     0
 40
1.0
176
     0
 90
        2
176
     1
  1
strokes_ogs.tif
176
     1
290
     0
176
     1
 40
1.0
176
     1
 40
1.0
176
     1
  0
VISUALSTYLE
  5
187
102
{ACAD_REACTORS
330
176
102
}
330
176
100
AcDbVisualStyle
  2
JitterOff
 70
    20
177
     3
291
     1
 70
    58
 90
        2
176
     0
 90
        2
176
     0
 90
        0
176
     0
 90
        0
176
     0
 40
0.6
176
     0
 40
30.0
176
     0
 62
     7
420
 16777215
176
     0
 90
        1
176
     0
 90
        4
176
     0
 62
     7
176
     0
 62
   257
176
     0
 90
        1
176
     0
 90
        1
176
     0
 40
1.0
176
     0
 90
       10
176
     2
 62
     7
176
     0
 40
1.0
176
     0
 90
        1
176
     0
 90
        6
176
     0
 90
        2
176
     0
 62
     7
176
     0
 90
        5
176
     0
 90
        0
176
     0
 90
        0
176
     0
290
     0
176
     0
 90
        1
176
     0
 40
0.0
176
     0
 90
        0
176
     0
290
     0
176
     0
290
     1
176
     0
290
     1
176
     0
290
     0
176
     0
290
     0
176
     0
290
     0
176
     0
290
     0
176
     0
290
     0
176
     0
290
     0
176
     0
 90
       50
176
     0
 40
0.0
176
     0
 40
1.0
176
     0
 90
        0
176
     0
 62
    18
420
        0
176
     0
 90
       50
176
     0
 90
        3
176
     0
 62
     5
420
      255
176
     0
290
     0
176
     0
 90
       50
176
     0
 90
       50
176
     0
 90
       50
176
     0
290
     0
176
     0
 90
       50
176
     0
 62
   256
176
     0
 40
1.0
176
     0
 90
        2
176
     0
  1
strokes_ogs.tif
176
     0
290
     0
176
     0
 40
1.0
176
     0
 40
1.0
176
     0
  0
VISUALSTYLE
  5
184
102
{ACAD_REACTORS
330
176
102
}
330
176
100
AcDbVisualStyle
  2
Linepattern
 70
    14
177
     3
291
     1
 70
    58
 90
        2
176
     1
 90
        2
176
     1
 90
        0
176
     1
 90
        0
176
     1
 40
0.6
176
     1
 40
30.0
176
     1
 62
     7
420
 16777215
176
     1
 90
        1
176
     1
 90
        4
176
     1
 62
     7
176
     1
 62
   257
176
     1
 90
        7
176
     1
 90
        7
176
     1
 40
1.0
176
     1
 90
        8
176
     1
 62
     7
176
     1
 40
1.0
176
     1
 90
        1
176
     1
 90
        6
176
     1
 90
        2
176
     1
 62
     7
176
     1
 90
        5
176
     1
 90
        0
176
     1
 90
        0
176
     1
290
     0
176
     1
 90
        1
176
     1
 40
0.0
176
     1
 90
        0
176
     1
290
     0
176
     1
290
     1
176
     1
290
     1
176
     1
290
     0
176
     1
290
     0
176
     1
290
     0
176
     1
290
     0
176
     1
290
     0
176
     1
290
     0
176
     1
 90
       50
176
     1
 40
0.0
176
     1
 40
1.0
176
     1
 90
        0
176
     1
 62
    18
420
        0
176
     1
 90
       50
176
     1
 90
        3
176
     1
 62
     5
420
      255
176
     1
290
     0
176
     1
 90
       50
176
     1
 90
       50
176
     1
 90
       50
176
     1
290
     0
176
     1
 90
       50
176
     1
 62
   256
176
     0
 40
1.0
176
     0
 90
        2
176
     1
  1
strokes_ogs.tif
176
     1
290
     0
176
     1
 40
1.0
176
     1
 40
1.0
176
     1
  0
VISUALSTYLE
  5
188
102
{ACAD_REACTORS
330
176
102
}
330
176
100
AcDbVisualStyle
  2
OverhangOff
 70
    21
177
     3
291
     1
 70
    58
 90
        2
176
     0
 90
        2
176
     0
 90
        0
176
     0
 90
        0
176
     0
 40
0.6
176
     0
 40
30.0
176
     0
 62
     7
420
 16777215
176
     0
 90
        1
176
     0
 90
        4
176
     0
 62
     7
176
     0
 62
   257
176
     0
 90
        1
176
     0
 90
        1
176
     0
 40
1.0
176
     0
 90
        9
176
     2
 62
     7
176
     0
 40
1.0
176
     0
 90
        1
176
     0
 90
        6
176
     0
 90
        2
176
     0
 62
     7
176
     0
 90
        5
176
     0
 90
        0
176
     0
 90
        0
176
     0
290
     0
176
     0
 90
        1
176
     0
 40
0.0
176
     0
 90
        0
176
     0
290
     0
176
     0
290
     1
176
     0
290
     1
176
     0
290
     0
176
     0
290
     0
176
     0
290
     0
176
     0
290
     0
176
     0
290
     0
176
     0
290
     0
176
     0
 90
       50
176
     0
 40
0.0
176
     0
 40
1.0
176
     0
 90
        0
176
     0
 62
    18
420
        0
176
     0
 90
       50
176
     0
 90
        3
176
     0
 62
     5
420
      255
176
     0
290
     0
176
     0
 90
       50
176
     0
 90
       50
176
     0
 90
       50
176
     0
290
     0
176
     0
 90
       50
176
     0
 62
   256
176
     0
 40
1.0
176
     0
 90
        2
176
     0
  1
strokes_ogs.tif
176
     0
290
     0
176
     0
 40
1.0
176
     0
 40
1.0
176
     0
  0
VISUALSTYLE
  5
17F
102
{ACAD_REACTORS
330
176
102
}
330
176
100
AcDbVisualStyle
  2
Realistic
 70
     8
177
     3
291
     0
 70
    58
 90
        2
176
     1
 90
        3
176
     1
 90
        0
176
     1
 90
        2
176
     1
 40
0.6
176
     1
 40
30.0
176
     1
 62
     7
420
 16777215
176
     1
 90
        0
176
     1
 90
        0
176
     1
 62
     7
176
     1
 62
   257
176
     1
 90
        1
176
     1
 90
        1
176
     1
 40
1.0
176
     1
 90
        8
176
     1
 62
   257
176
     1
 40
1.0
176
     1
 90
        1
176
     1
 90
        6
176
     1
 90
        2
176
     1
 62
     7
176
     1
 90
        3
176
     1
 90
        0
176
     1
 90
        0
176
     1
290
     0
176
     1
 90
       13
176
     1
 40
0.0
176
     1
 90
        0
176
     1
290
     0
176
     1
290
     1
176
     1
290
     1
176
     1
290
     0
176
     1
290
     0
176
     1
290
     0
176
     1
290
     0
176
     1
290
     0
176
     1
290
     0
176
     1
 90
       50
176
     1
 40
0.0
176
     1
 40
1.0
176
     1
 90
        0
176
     1
 62
    18
420
        0
176
     1
 90
       50
176
     1
 90
        3
176
     1
 62
     5
420
      255
176
     1
290
     0
176
     1
 90
       50
176
     1
 90
       50
176
     1
 90
       50
176
     1
290
     0
176
     1
 90
       50
176
     1
 62
   256
176
     0
 40
1.0
176
     0
 90
        2
176
     1
  1
strokes_ogs.tif
176
     1
290
     0
176
     1
 40
1.0
176
     1
 40
1.0
176
     1
  0
VISUALSTYLE
  5
18E
102
{ACAD_REACTORS
330
176
102
}
330
176
100
AcDbVisualStyle
  2
Shaded
 70
    27
177
     3
291
     0
 70
    58
 90
        2
176
     1
 90
        2
176
     1
 90
        1
176
     1
 90
        2
176
     1
 40
0.6
176
     1
 40
30.0
176
     1
 62
     7
420
 16777215
176
     1
 90
        0
176
     1
 90
        4
176
     1
 62
     7
176
     1
 62
   257
176
     1
 90
        1
176
     1
 90
        1
176
     1
 40
1.0
176
     1
 90
        8
176
     1
 62
   257
176
     1
 40
1.0
176
     1
 90
        1
176
     1
 90
        6
176
     1
 90
        2
176
     1
 62
     8
420
  7895160
176
     1
 90
        3
176
     1
 90
        0
176
     1
 90
        0
176
     1
290
     0
176
     1
 90
        5
176
     1
 40
0.0
176
     1
 90
        0
176
     1
290
     0
176
     1
290
     1
176
     1
290
     1
176
     1
290
     0
176
     1
290
     0
176
     1
290
     0
176
     1
290
     0
176
     1
290
     0
176
     1
290
     0
176
     1
 90
       50
176
     1
 40
0.0
176
     1
 40
1.0
176
     1
 90
        0
176
     1
 62
    18
420
        0
176
     1
 90
       50
176
     1
 90
        3
176
     1
 62
     5
420
      255
176
     1
290
     0
176
     1
 90
       50
176
     1
 90
       50
176
     1
 90
       50
176
     1
290
     0
176
     1
 90
       50
176
     1
 62
   256
176
     0
 40
1.0
176
     0
 90
        2
176
     1
  1
strokes_ogs.tif
176
     1
290
     0
176
     1
 40
1.0
176
     1
 40
1.0
176
     1
  0
VISUALSTYLE
  5
18D
102
{ACAD_REACTORS
330
176
102
}
330
176
100
AcDbVisualStyle
  2
Shaded with edges
 70
    26
177
     3
291
     0
 70
    58
 90
        2
176
     1
 90
        2
176
     1
 90
        1
176
     1
 90
        2
176
     1
 40
0.6
176
     1
 40
30.0
176
     1
 62
     7
420
 16777215
176
     1
 90
        1
176
     1
 90
       10
176
     1
 62
     7
176
     1
 62
   257
176
     1
 90
        2
176
     1
 90
        1
176
     1
 40
1.0
176
     1
 90
        8
176
     1
 62
   257
176
     1
 40
1.0
176
     1
 90
        1
176
     1
 90
        6
176
     1
 90
        2
176
     1
 62
     7
176
     1
 90
        3
176
     1
 90
        0
176
     1
 90
        0
176
     1
290
     0
176
     1
 90
        5
176
     1
 40
0.0
176
     1
 90
        0
176
     1
290
     0
176
     1
290
     1
176
     1
290
     1
176
     1
290
     0
176
     1
290
     0
176
     1
290
     0
176
     1
290
     0
176
     1
290
     0
176
     1
290
     0
176
     1
 90
       50
176
     1
 40
0.0
176
     1
 40
1.0
176
     1
 90
        0
176
     1
 62
    18
420
        0
176
     1
 90
       50
176
     1
 90
        3
176
     1
 62
     5
420
      255
176
     1
290
     0
176
     1
 90
       50
176
     1
 90
       50
176
     1
 90
       50
176
     1
290
     0
176
     1
 90
       50
176
     1
 62
   256
176
     0
 40
1.0
176
     0
 90
        2
176
     1
  1
strokes_ogs.tif
176
     1
290
     0
176
     1
 40
1.0
176
     1
 40
1.0
176
     1
  0
VISUALSTYLE
  5
18A
102
{ACAD_REACTORS
330
176
102
}
330
176
100
AcDbVisualStyle
  2
Shades of Gray
 70
    23
177
     3
291
     0
 70
    58
 90
        2
176
     1
 90
        2
176
     1
 90
        3
176
     1
 90
        0
176
     1
 40
0.6
176
     1
 40
30.0
176
     1
 62
     7
420
 16777215
176
     1
 90
        2
176
     1
 90
        2
176
     1
 62
     7
176
     1
 62
     7
176
     1
 90
        1
176
     1
 90
        1
176
     1
 40
40.0
176
     1
 90
        8
176
     1
 62
     7
176
     1
 40
1.0
176
     1
 90
        1
176
     1
 90
        6
176
     1
 90
        2
176
     1
 62
     7
176
     1
 90
        3
176
     1
 90
        0
176
     1
 90
        0
176
     1
290
     0
176
     1
 90
        1
176
     1
 40
0.0
176
     1
 90
        0
176
     1
290
     0
176
     1
290
     1
176
     1
290
     1
176
     1
290
     0
176
     1
290
     0
176
     1
290
     0
176
     1
290
     0
176
     1
290
     0
176
     1
290
     0
176
     1
 90
       50
176
     1
 40
0.0
176
     1
 40
1.0
176
     1
 90
        0
176
     1
 62
    18
420
        0
176
     1
 90
       50
176
     1
 90
        3
176
     1
 62
     5
420
      255
176
     1
290
     0
176
     1
 90
       50
176
     1
 90
       50
176
     1
 90
       50
176
     1
290
     0
176
     1
 90
       50
176
     1
 62
   256
176
     0
 40
1.0
176
     0
 90
        2
176
     1
  1
strokes_ogs.tif
176
     1
290
     0
176
     1
 40
1.0
176
     1
 40
1.0
176
     1
  0
VISUALSTYLE
  5
18B
102
{ACAD_REACTORS
330
176
102
}
330
176
100
AcDbVisualStyle
  2
Sketchy
 70
    24
177
     3
291
     0
 70
    58
 90
        1
176
     1
 90
        2
176
     1
 90
        2
176
     1
 90
        0
176
     1
 40
0.6
176
     1
 40
30.0
176
     1
 62
     7
420
 16777215
176
     1
 90
        2
176
     1
 90
        2
176
     1
 62
     7
176
     1
 62
     7
176
     1
 90
        1
176
     1
 90
        1
176
     1
 40
40.0
176
     1
 90
       11
176
     1
 62
     7
176
     1
 40
1.0
176
     1
 90
        1
176
     1
 90
        6
176
     1
 90
        2
176
     1
 62
     7
176
     1
 90
        6
176
     1
 90
        0
176
     1
 90
        0
176
     1
290
     0
176
     1
 90
        1
176
     1
 40
0.0
176
     1
 90
        0
176
     1
290
     0
176
     1
290
     1
176
     1
290
     1
176
     1
290
     0
176
     1
290
     0
176
     1
290
     0
176
     1
290
     0
176
     1
290
     0
176
     1
290
     0
176
     1
 90
       50
176
     1
 40
0.0
176
     1
 40
1.0
176
     1
 90
        0
176
     1
 62
    18
420
        0
176
     1
 90
       50
176
     1
 90
        3
176
     1
 62
     5
420
      255
176
     1
290
     0
176
     1
 90
       50
176
     1
 90
       50
176
     1
 90
       50
176
     1
290
     0
176
     1
 90
       50
176
     1
 62
   256
176
     0
 40
1.0
176
     0
 90
        2
176
     1
  1
strokes_ogs.tif
176
     1
290
     0
176
     1
 40
1.0
176
     1
 40
1.0
176
     1
  0
VISUALSTYLE
  5
183
102
{ACAD_REACTORS
330
176
102
}
330
176
100
AcDbVisualStyle
  2
Thicken
 70
    13
177
     3
291
     1
 70
    58
 90
        2
176
     1
 90
        2
176
     1
 90
        0
176
     1
 90
        0
176
     1
 40
0.6
176
     1
 40
30.0
176
     1
 62
     7
420
 16777215
176
     1
 90
        1
176
     1
 90
        4
176
     1
 62
     7
176
     1
 62
   257
176
     1
 90
        1
176
     1
 90
        1
176
     1
 40
1.0
176
     1
 90
       12
176
     1
 62
     7
176
     1
 40
1.0
176
     1
 90
        1
176
     1
 90
        6
176
     1
 90
        2
176
     1
 62
     7
176
     1
 90
        5
176
     1
 90
        0
176
     1
 90
        0
176
     1
290
     0
176
     1
 90
        1
176
     1
 40
0.0
176
     1
 90
        0
176
     1
290
     0
176
     1
290
     1
176
     1
290
     1
176
     1
290
     0
176
     1
290
     0
176
     1
290
     0
176
     1
290
     0
176
     1
290
     0
176
     1
290
     0
176
     1
 90
       50
176
     1
 40
0.0
176
     1
 40
1.0
176
     1
 90
        0
176
     1
 62
    18
420
        0
176
     1
 90
       50
176
     1
 90
        3
176
     1
 62
     5
420
      255
176
     1
290
     0
176
     1
 90
       50
176
     1
 90
       50
176
     1
 90
       50
176
     1
290
     0
176
     1
 90
       50
176
     1
 62
   256
176
     0
 40
1.0
176
     0
 90
        2
176
     1
  1
strokes_ogs.tif
176
     1
290
     0
176
     1
 40
1.0
176
     1
 40
1.0
176
     1
  0
VISUALSTYLE
  5
17C
102
{ACAD_REACTORS
330
176
102
}
330
176
100
AcDbVisualStyle
  2
Wireframe
 70
     5
177
     3
291
     0
 70
    58
 90
        0
176
     1
 90
        2
176
     1
 90
        0
176
     1
 90
        0
176
     1
 40
0.6
176
     1
 40
30.0
176
     1
 62
     7
420
 16777215
176
     1
 90
        1
176
     1
 90
        4
176
     1
 62
     7
176
     1
 62
   257
176
     1
 90
        1
176
     1
 90
        1
176
     1
 40
1.0
176
     1
 90
        0
176
     1
 62
   257
176
     1
 40
1.0
176
     1
 90
        1
176
     1
 90
        6
176
     1
 90
        2
176
     1
 62
     7
176
     1
 90
        3
176
     1
 90
        0
176
     1
 90
        0
176
     1
290
     0
176
     1
 90
        1
176
     1
 40
0.0
176
     1
 90
        0
176
     1
290
     0
176
     1
290
     1
176
     1
290
     1
176
     1
290
     0
176
     1
290
     0
176
     1
290
     0
176
     1
290
     0
176
     1
290
     0
176
     1
290
     0
176
     1
 90
       50
176
     1
 40
0.0
176
     1
 40
1.0
176
     1
 90
        0
176
     1
 62
    18
420
        0
176
     1
 90
       50
176
     1
 90
        3
176
     1
 62
     5
420
      255
176
     1
290
     0
176
     1
 90
       50
176
     1
 90
       50
176
     1
 90
       50
176
     1
290
     0
176
     1
 90
       50
176
     1
 62
   256
176
     0
 40
1.0
176
     0
 90
        2
176
     1
  1
strokes_ogs.tif
176
     1
290
     0
176
     1
 40
1.0
176
     1
 40
1.0
176
     1
  0
VISUALSTYLE
  5
18C
102
{ACAD_REACTORS
330
176
102
}
330
176
100
AcDbVisualStyle
  2
X-Ray
 70
    25
177
     3
291
     0
 70
    58
 90
        2
176
     1
 90
        2
176
     1
 90
        1
176
     1
 90
        1
176
     1
 40
0.5
176
     1
 40
30.0
176
     1
 62
     7
420
 16777215
176
     1
 90
        1
176
     1
 90
        0
176
     1
 62
     7
176
     1
 62
   257
176
     1
 90
        1
176
     1
 90
        1
176
     1
 40
1.0
176
     1
 90
        8
176
     1
 62
     7
176
     1
 40
1.0
176
     1
 90
        1
176
     1
 90
        6
176
     1
 90
        2
176
     1
 62
     7
176
     1
 90
        3
176
     1
 90
        0
176
     1
 90
        0
176
     1
290
     0
176
     1
 90
       13
176
     1
 40
0.0
176
     1
 90
        0
176
     1
290
     0
176
     1
290
     1
176
     1
290
     1
176
     1
290
     0
176
     1
290
     0
176
     1
290
     0
176
     1
290
     0
176
     1
290
     0
176
     1
290
     0
176
     1
 90
       50
176
     1
 40
0.0
176
     1
 40
1.0
176
     1
 90
        0
176
     1
 62
    18
420
        0
176
     1
 90
       50
176
     1
 90
        3
176
     1
 62
     5
420
      255
176
     1
290
     0
176
     1
 90
       50
176
     1
 90
       50
176
     1
 90
       50
176
     1
290
     0
176
     1
 90
       50
176
     1
 62
   256
176
     0
 40
1.0
176
     0
 90
        2
176
     1
  1
strokes_ogs.tif
176
     1
290
     0
176
     1
 40
1.0
176
     1
 40
1.0
176
     1
  0
DICTIONARYVAR
  5
1A7
102
{ACAD_REACTORS
330
1A6
102
}
330
1A6
100
DictionaryVariables
280
     0
  1
1:1
  0
DICTIONARYVAR
  5
1A9
102
{ACAD_REACTORS
330
1A6
102
}
330
1A6
100
DictionaryVariables
280
     0
  1
Standard
  0
DICTIONARYVAR
  5
1A8
102
{ACAD_REACTORS
330
1A6
102
}
330
1A6
100
DictionaryVariables
280
     0
  1
Standard
  0
DICTIONARYVAR
  5
1AA
102
{ACAD_REACTORS
330
1A6
102
}
330
1A6
100
DictionaryVariables
280
     0
  1
0
  0
DICTIONARY
  5
65C
330
194
100
AcDbDictionary
280
     1
281
     1
  3
ACAD_ROUNDTRIP_2008_TABLESTYLE_CELLSTYLEMAP
360
65D
  0
CELLSTYLEMAP
  5
65D
102
{ACAD_REACTORS
330
65C
102
}
330
65C
100
AcDbCellStyleMap
 90
        3
300
CELLSTYLE
  1
TABLEFORMAT_BEGIN
 90
        5
170
     1
 91
        0
 92
    32768
 62
   257
 93
        1
300
CONTENTFORMAT
  1
CONTENTFORMAT_BEGIN
 90
        0
 91
        0
 92
        4
 93
        0
300

 40
0.0
140
1.0
 94
        5
 62
     0
340
11
144
6.0
309
CONTENTFORMAT_END
171
     1
301
MARGIN
  1
CELLMARGIN_BEGIN
 40
1.5
 40
1.5
 40
1.5
 40
1.5
 40
1.5
 40
1.5
309
CELLMARGIN_END
 94
        6
 95
        1
302
GRIDFORMAT
  1
GRIDFORMAT_BEGIN
 90
        0
 91
        1
 62
     0
 92
       -2
340
14
 93
        0
 40
0.045
309
GRIDFORMAT_END
 95
        2
302
GRIDFORMAT
  1
GRIDFORMAT_BEGIN
 90
        0
 91
        1
 62
     0
 92
       -2
340
14
 93
        0
 40
0.045
309
GRIDFORMAT_END
 95
        4
302
GRIDFORMAT
  1
GRIDFORMAT_BEGIN
 90
        0
 91
        1
 62
     0
 92
       -2
340
14
 93
        0
 40
0.045
309
GRIDFORMAT_END
 95
        8
302
GRIDFORMAT
  1
GRIDFORMAT_BEGIN
 90
        0
 91
        1
 62
     0
 92
       -2
340
14
 93
        0
 40
0.045
309
GRIDFORMAT_END
 95
       16
302
GRIDFORMAT
  1
GRIDFORMAT_BEGIN
 90
        0
 91
        1
 62
     0
 92
       -2
340
14
 93
        0
 40
0.045
309
GRIDFORMAT_END
 95
       32
302
GRIDFORMAT
  1
GRIDFORMAT_BEGIN
 90
        0
 91
        1
 62
     0
 92
       -2
340
14
 93
        0
 40
0.045
309
GRIDFORMAT_END
309
TABLEFORMAT_END
  1
CELLSTYLE_BEGIN
 90
        1
 91
        1
300
_TITLE
309
CELLSTYLE_END
300
CELLSTYLE
  1
TABLEFORMAT_BEGIN
 90
        5
170
     1
 91
        0
 92
        0
 62
   257
 93
        1
300
CONTENTFORMAT
  1
CONTENTFORMAT_BEGIN
 90
        0
 91
        0
 92
        4
 93
        0
300

 40
0.0
140
1.0
 94
        5
 62
     0
340
11
144
4.5
309
CONTENTFORMAT_END
171
     1
301
MARGIN
  1
CELLMARGIN_BEGIN
 40
1.5
 40
1.5
 40
1.5
 40
1.5
 40
1.5
 40
1.5
309
CELLMARGIN_END
 94
        6
 95
        1
302
GRIDFORMAT
  1
GRIDFORMAT_BEGIN
 90
        0
 91
        1
 62
     0
 92
       -2
340
14
 93
        0
 40
0.045
309
GRIDFORMAT_END
 95
        2
302
GRIDFORMAT
  1
GRIDFORMAT_BEGIN
 90
        0
 91
        1
 62
     0
 92
       -2
340
14
 93
        0
 40
0.045
309
GRIDFORMAT_END
 95
        4
302
GRIDFORMAT
  1
GRIDFORMAT_BEGIN
 90
        0
 91
        1
 62
     0
 92
       -2
340
14
 93
        0
 40
0.045
309
GRIDFORMAT_END
 95
        8
302
GRIDFORMAT
  1
GRIDFORMAT_BEGIN
 90
        0
 91
        1
 62
     0
 92
       -2
340
14
 93
        0
 40
0.045
309
GRIDFORMAT_END
 95
       16
302
GRIDFORMAT
  1
GRIDFORMAT_BEGIN
 90
        0
 91
        1
 62
     0
 92
       -2
340
14
 93
        0
 40
0.045
309
GRIDFORMAT_END
 95
       32
302
GRIDFORMAT
  1
GRIDFORMAT_BEGIN
 90
        0
 91
        1
 62
     0
 92
       -2
340
14
 93
        0
 40
0.045
309
GRIDFORMAT_END
309
TABLEFORMAT_END
  1
CELLSTYLE_BEGIN
 90
        2
 91
        1
300
_HEADER
309
CELLSTYLE_END
300
CELLSTYLE
  1
TABLEFORMAT_BEGIN
 90
        5
170
     1
 91
        0
 92
        0
 62
   257
 93
        1
300
CONTENTFORMAT
  1
CONTENTFORMAT_BEGIN
 90
        0
 91
        0
 92
        4
 93
        0
300

 40
0.0
140
1.0
 94
        2
 62
     0
340
11
144
4.5
309
CONTENTFORMAT_END
171
     1
301
MARGIN
  1
CELLMARGIN_BEGIN
 40
1.5
 40
1.5
 40
1.5
 40
1.5
 40
1.5
 40
1.5
309
CELLMARGIN_END
 94
        6
 95
        1
302
GRIDFORMAT
  1
GRIDFORMAT_BEGIN
 90
        0
 91
        1
 62
     0
 92
       -2
340
14
 93
        0
 40
0.045
309
GRIDFORMAT_END
 95
        2
302
GRIDFORMAT
  1
GRIDFORMAT_BEGIN
 90
        0
 91
        1
 62
     0
 92
       -2
340
14
 93
        0
 40
0.045
309
GRIDFORMAT_END
 95
        4
302
GRIDFORMAT
  1
GRIDFORMAT_BEGIN
 90
        0
 91
        1
 62
     0
 92
       -2
340
14
 93
        0
 40
0.045
309
GRIDFORMAT_END
 95
        8
302
GRIDFORMAT
  1
GRIDFORMAT_BEGIN
 90
        0
 91
        1
 62
     0
 92
       -2
340
14
 93
        0
 40
0.045
309
GRIDFORMAT_END
 95
       16
302
GRIDFORMAT
  1
GRIDFORMAT_BEGIN
 90
        0
 91
        1
 62
     0
 92
       -2
340
14
 93
        0
 40
0.045
309
GRIDFORMAT_END
 95
       32
302
GRIDFORMAT
  1
GRIDFORMAT_BEGIN
 90
        0
 91
        1
 62
     0
 92
       -2
340
14
 93
        0
 40
0.045
309
GRIDFORMAT_END
309
TABLEFORMAT_END
  1
CELLSTYLE_BEGIN
 90
        3
 91
        2
300
_DATA
309
CELLSTYLE_END
  0
ENDSEC
  0
EOF
