  0
SECTION
  2
HEADER
  9
$ACADVER
  1
AC1015
  9
$ACADMAINTVER
 70
               6
  9
$DWGCODEPAGE
  3
ANSI_932
  9
$INSBASE
 10
0.0
 20
0.0
 30
0.0
  9
$EXTMIN
 10
145.94896907090001
 20
103.64500000000001
 30
0.0
  9
$EXTMAX
 10
290.58055555555558
 20
210.9619173582
 30
0.0
  9
$LIMMIN
 10
0.0
 20
0.0
  9
$LIMMAX
 10
0.0
 20
0.0
  9
$ORTHOMODE
 70
               0
  9
$REGENMODE
 70
               1
  9
$FILLMODE
 70
               1
  9
$QTEXTMODE
 70
               0
  9
$MIRRTEXT
 70
               1
  9
$LTSCALE
 40
12.699999999999999
  9
$ATTMODE
 70
               1
  9
$TEXTSIZE
 40
0.2
  9
$TRACEWID
 40
1.0
  9
$TEXTSTYLE
  7
Standard
  9
$CLAYER
  8
0
  9
$CELTYPE
  6
Continuous
  9
$CECOLOR
 62
             256
  9
$CELTSCALE
 40
1.0
  9
$DISPSILH
 70
               0
  9
$DIMSCALE
 40
1.0
  9
$DIMASZ
 40
0.18
  9
$DIMEXO
 40
0.0625
  9
$DIMDLI
 40
0.38
  9
$DIMRND
 40
0.0
  9
$DIMDLE
 40
0.0
  9
$DIMEXE
 40
0.18
  9
$DIMTP
 40
0.0
  9
$DIMTM
 40
0.0
  9
$DIMTXT
 40
0.18
  9
$DIMCEN
 40
0.09
  9
$DIMTSZ
 40
0.0
  9
$DIMTOL
 70
               0
  9
$DIMLIM
 70
               0
  9
$DIMTIH
 70
               1
  9
$DIMTOH
 70
               1
  9
$DIMSE1
 70
               0
  9
$DIMSE2
 70
               0
  9
$DIMTAD
 70
               0
  9
$DIMZIN
 70
               0
  9
$DIMBLK
  1

  9
$DIMASO
 70
               1
  9
$DIMSHO
 70
               1
  9
$DIMPOST
  1

  9
$DIMAPOST
  1

  9
$DIMALT
 70
               0
  9
$DIMALTD
 70
               2
  9
$DIMALTF
 40
25.399999999999999
  9
$DIMLFAC
 40
1.0
  9
$DIMTOFL
 70
               0
  9
$DIMTVP
 40
0.0
  9
$DIMTIX
 70
               0
  9
$DIMSOXD
 70
               0
  9
$DIMSAH
 70
               0
  9
$DIMBLK1
  1

  9
$DIMBLK2
  1

  9
$DIMSTYLE
  2
Standard
  9
$DIMCLRD
 70
               0
  9
$DIMCLRE
 70
               0
  9
$DIMCLRT
 70
               0
  9
$DIMTFAC
 40
1.0
  9
$DIMGAP
 40
0.09
  9
$DIMJUST
 70
               0
  9
$DIMSD1
 70
               0
  9
$DIMSD2
 70
               0
  9
$DIMTOLJ
 70
               1
  9
$DIMTZIN
 70
               0
  9
$DIMALTZ
 70
               0
  9
$DIMALTTZ
 70
               0
  9
$DIMUPT
 70
               0
  9
$DIMDEC
 70
               4
  9
$DIMTDEC
 70
               4
  9
$DIMALTU
 70
               2
  9
$DIMALTTD
 70
               2
  9
$DIMTXSTY
  7
Standard
  9
$DIMAUNIT
 70
               0
  9
$DIMADEC
 70
               0
  9
$DIMALTRND
 40
0.0
  9
$DIMAZIN
 70
               0
  9
$DIMDSEP
 70
               0
  9
$DIMATFIT
 70
               3
  9
$DIMFRAC
 70
               0
  9
$DIMLDRBLK
  1

  9
$DIMLUNIT
 70
               2
  9
$DIMLWD
 70
               0
  9
$DIMLWE
 70
               0
  9
$DIMTMOVE
 70
               0
  9
$LUNITS
 70
               2
  9
$LUPREC
 70
               4
  9
$SKETCHINC
 40
0.1
  9
$FILLETRAD
 40
0.0
  9
$AUNITS
 70
               0
  9
$AUPREC
 70
               0
  9
$MENU
  1
acad
  9
$ELEVATION
 40
0.0
  9
$PELEVATION
 40
0.0
  9
$THICKNESS
 40
0.0
  9
$LIMCHECK
 70
               0
  9
$CHAMFERA
 40
0.0
  9
$CHAMFERB
 40
0.0
  9
$CHAMFERC
 40
0.0
  9
$CHAMFERD
 40
0.0
  9
$SKPOLY
 70
               0
  9
$TDCREATE
 40
2458072.714259259
  9
$TDUCREATE
 40
0.000000000
  9
$TDUPDATE
 40
2458072.714259259
  9
$TDUUPDATE
 40
0.000000000
  9
$TDINDWG
 40
0.0000000000
  9
$TDUSRTIMER
 40
0.0000000000
  9
$USRTIMER
 70
               1
  9
$ANGBASE
 50
0.0
  9
$ANGDIR
 70
               0
  9
$PDMODE
 70
               1
  9
$PDSIZE
 40
-2.0
  9
$PLINEWID
 40
0.0
  9
$SPLFRAME
 70
               0
  9
$SPLINETYPE
 70
               6
  9
$SPLINESEGS
 70
               8
  9
$HANDSEED
  5
284
  9
$SURFTAB1
 70
               6
  9
$SURFTAB2
 70
               6
  9
$SURFTYPE
 70
               6
  9
$SURFU
 70
               6
  9
$SURFV
 70
               6
  9
$UCSBASE
  2

  9
$UCSNAME
  2

  9
$UCSORG
 10
0.0
 20
0.0
 30
0.0
  9
$UCSXDIR
 10
1.0
 20
0.0
 30
0.0
  9
$UCSYDIR
 10
0.0
 20
1.0
 30
0.0
  9
$UCSORTHOREF
  2

  9
$UCSORTHOVIEW
 70
               0
  9
$UCSORGTOP
 10
0.0
 20
0.0
 30
0.0
  9
$UCSORGBOTTOM
 10
0.0
 20
0.0
 30
0.0
  9
$UCSORGLEFT
 10
0.0
 20
0.0
 30
0.0
  9
$UCSORGRIGHT
 10
0.0
 20
0.0
 30
0.0
  9
$UCSORGFRONT
 10
0.0
 20
0.0
 30
0.0
  9
$UCSORGBACK
 10
0.0
 20
0.0
 30
0.0
  9
$PUCSBASE
  2

  9
$PUCSNAME
  2

  9
$PUCSORG
 10
0.0
 20
0.0
 30
0.0
  9
$PUCSXDIR
 10
1.0
 20
0.0
 30
0.0
  9
$PUCSYDIR
 10
0.0
 20
1.0
 30
0.0
  9
$PUCSORTHOREF
  2

  9
$PUCSORTHOVIEW
 70
               0
  9
$PUCSORGTOP
 10
0.0
 20
0.0
 30
0.0
  9
$PUCSORGBOTTOM
 10
0.0
 20
0.0
 30
0.0
  9
$PUCSORGLEFT
 10
0.0
 20
0.0
 30
0.0
  9
$PUCSORGRIGHT
 10
0.0
 20
0.0
 30
0.0
  9
$PUCSORGFRONT
 10
0.0
 20
0.0
 30
0.0
  9
$PUCSORGBACK
 10
0.0
 20
0.0
 30
0.0
  9
$USERI1
 70
               0
  9
$USERI2
 70
               0
  9
$USERI3
 70
               0
  9
$USERI4
 70
               0
  9
$USERI5
 70
               0
  9
$USERR1
 40
0.0
  9
$USERR2
 40
0.0
  9
$USERR3
 40
0.0
  9
$USERR4
 40
0.0
  9
$USERR5
 40
0.0
  9
$WORLDVIEW
 70
               1
  9
$SHADEDGE
 70
               3
  9
$SHADEDIF
 70
              70
  9
$TILEMODE
 70
               1
  9
$MAXACTVP
 70
              16
  9
$PINSBASE
 10
0.0
 20
0.0
 30
0.0
  9
$PLIMCHECK
 70
               0
  9
$PEXTMIN
 10
1.0000000000000000E+20
 20
1.0000000000000000E+20
 30
1.0000000000000000E+20
  9
$PEXTMAX
 10
-1.0000000000000000E+20
 20
-1.0000000000000000E+20
 30
-1.0000000000000000E+20
  9
$PLIMMIN
 10
0.0
 20
0.0
  9
$PLIMMAX
 10
12.0
 20
9.0
  9
$UNITMODE
 70
               0
  9
$VISRETAIN
 70
               0
  9
$PLINEGEN
 70
               1
  9
$PSLTSCALE
 70
               0
  9
$TREEDEPTH
 70
            3020
  9
$CMLSTYLE
  2
Standard
  9
$CMLJUST
 70
               0
  9
$CMLSCALE
 40
1.0
  9
$PROXYGRAPHICS
 70
               0
  9
$MEASUREMENT
 70
               1
  9
$CELWEIGHT
370
               0
  9
$ENDCAPS
280
               0
  9
$JOINSTYLE
280
               0
  9
$LWDISPLAY
290
               1
  9
$INSUNITS
 70
               4
  9
$HYPERLINKBASE
  1

  9
$STYLESHEET
  1

  9
$XEDIT
290
               1
  9
$CEPSNTYPE
380
               0
  9
$PSTYLEMODE
290
               1
  9
$FINGERPRINTGUID
  2

  9
$VERSIONGUID
  2

  9
$EXTNAMES
290
               1
  9
$PSVPSCALE
 40
0.0
  0
ENDSEC
  0
SECTION
  2
CLASSES
  0
CLASS
  1
LWPOLYLINE
  2
AcDbPolyline
  3
AutoCAD 2000
 90
    32768
280
               0
281
               1
  0
CLASS
  1
IMAGE
  2
AcDbRasterImage
  3
ISM
 90
    32895
280
               0
281
               1
  0
CLASS
  1
OLE2FRAME
  2
AcDbOle2Frame
  3
AutoCAD 2000
 90
    32768
280
               0
281
               1
  0
CLASS
  1
HATCH
  2
AcDbHatch
  3
AutoCAD 2000
 90
    32768
280
               0
281
               1
  0
CLASS
  1
DICTIONARYVAR
  2
AcDbDictionaryVar
  3
AutoCAD 2000
 90
    32768
280
               0
281
               0
  0
CLASS
  1
RASTERVARIABLES
  2
AcDbRasterVariables
  3
ISM
 90
    32768
280
               0
281
               0
  0
CLASS
  1
IMAGEDEF
  2
AcDbRasterImageDef
  3
ISM
 90
    32768
280
               0
281
               0
  0
CLASS
  1
IMAGEDEF_REACTOR
  2
AcDbRasterImageDefReactor
  3
ISM
 90
    32769
280
               0
281
               0
  0
CLASS
  1
IDBUFFER
  2
AcDbIdBuffer
  3
AutoCAD 2000
 90
    32768
280
               0
281
               0
  0
CLASS
  1
SPATIAL_FILTER
  2
AcDbSpatialFilter
  3
AutoCAD 2000
 90
    32768
280
               0
281
               0
  0
CLASS
  1
XRECORD
  2
AcDbXrecord
  3
AutoCAD 2000
 90
    32768
280
               0
281
               0
  0
CLASS
  1
SORTENTSTABLE
  2
AcDbSortentsTable
  3
AutoCAD 2000
 90
    32768
280
               0
281
               0
  0
CLASS
  1
LAYER_INDEX
  2
AcDbLayerIndex
  3
AutoCAD 2000
 90
    32768
280
               0
281
               0
  0
CLASS
  1
SPATIAL_INDEX
  2
AcDbSpatialIndex
  3
AutoCAD 2000
 90
    32768
280
               0
281
               0
  0
CLASS
  1
OBJECT_PTR
  2
CAseDLPNTableRecord
  3
"ASE-LPNTableRecord"
 90
    32769
280
               0
281
               0
  0
CLASS
  1
LAYOUT
  2
AcDbLayout
  3
AutoCAD 2000
 90
        0
280
               0
281
               0
  0
CLASS
  1
PLOTSETTINGS
  2
AcDbPlotSettings
  3
AutoCAD 2000
 90
    32768
280
               0
281
               0
  0
CLASS
  1
ACDBDICTIONARYWDFLT
  2
AcDbDictionaryWithDefault
  3
AutoCAD 2000
 90
        0
280
               0
281
               0
  0
CLASS
  1
ACDBPLACEHOLDER
  2
AcDbPlaceHolder
  3
AutoCAD 2000
 90
        0
280
               0
281
               0
  0
CLASS
  1
VBA_PROJECT
  2
AcDbVbaProject
  3
acadvba
 90
    32768
280
               0
281
               0
  0
CLASS
  1
WIPEOUT
  2
AcDbWipeout
  3
WipeOut|AutoCAD Express Tool|expresstools@autodesk.com
 90
    32895
280
               0
281
               1
  0
CLASS
  1
WIPEOUTVARIABLES
  2
AcDbWipeoutVariables
  3
WipeOut|AutoCAD Express Tool|expresstools@autodesk.com
 90
        0
280
               0
281
               0
  0
CLASS
  1
RTEXT
  2
RText
  3
RText|AutoCAD Express Tool|expresstools@autodesk.com
 90
    32768
280
               0
281
               1
  0
CLASS
  1
ARCALIGNEDTEXT
  2
AcDbArcAlignedText
  3
ATEXT|AutoCAD Express Tool|expresstools@autodesk.com
 90
    32768
280
               0
281
               1
  0
ENDSEC
  0
SECTION
  2
TABLES
  0
TABLE
  2
VPORT
  5
7
100
AcDbSymbolTable
 70
               1
  0
VPORT
  5
15
100
AcDbSymbolTableRecord
100
AcDbViewportTableRecord
  2
*ACTIVE
 70
               0
 10
0.0
 20
0.0
 11
1.0
 21
1.0
 12
218.26476231322778
 22
157.3034586791
 13
0.0
 23
0.0
 14
1.0
 24
1.0
 15
0.0
 25
0.0
 16
0.0
 26
0.0
 36
1.0
 17
0.0
 27
0.0
 37
0.0
 40
107.31691735819999
 41
0.688564
 42
50.0
 43
0.0
 44
0.0
 50
0.0
 51
0.0
 71
               0
 72
             100
 73
               1
 74
               1
 75
               0
 76
               0
 77
               0
 78
               0
281
               0
 65
               0
110
0.0
120
0.0
130
0.0
111
1.0
121
0.0
131
0.0
112
0.0
122
1.0
132
0.0
345
0
346
0
 79
               0
146
0.0
  0
ENDTAB
  0
TABLE
  2
LTYPE
  5
4
100
AcDbSymbolTable
 70
              13
  0
LTYPE
  5
11
100
AcDbSymbolTableRecord
100
AcDbLinetypeTableRecord
  2
ByBlock
 70
              64
  3

 72
              65
 73
               0
 40
0.0
  0
LTYPE
  5
12
100
AcDbSymbolTableRecord
100
AcDbLinetypeTableRecord
  2
ByLayer
 70
              64
  3

 72
              65
 73
               0
 40
0.0
  0
LTYPE
  5
13
100
AcDbSymbolTableRecord
100
AcDbLinetypeTableRecord
  2
Continuous
 70
              64
  3
Solid line
 72
              65
 73
               0
 40
0.0
  0
LTYPE
  5
25
100
AcDbSymbolTableRecord
100
AcDbLinetypeTableRecord
  2
STYLE_01
 70
               0
  3

 72
              65
 73
               2
 40
0.15
 49
0.1
 74
               0
 49
-0.05
 74
               0
  0
LTYPE
  5
26
100
AcDbSymbolTableRecord
100
AcDbLinetypeTableRecord
  2
STYLE_02
 70
               0
  3

 72
              65
 73
               6
 40
0.9999999999999999
 49
0.4999999999999999
 74
               0
 49
-0.1
 74
               0
 49
0.1
 74
               0
 49
-0.1
 74
               0
 49
0.1
 74
               0
 49
-0.1
 74
               0
  0
LTYPE
  5
27
100
AcDbSymbolTableRecord
100
AcDbLinetypeTableRecord
  2
STYLE_03
 70
               0
  3

 72
              65
 73
               4
 40
0.7999999999999999
 49
0.4999999999999999
 74
               0
 49
-0.1
 74
               0
 49
0.1
 74
               0
 49
-0.1
 74
               0
  0
LTYPE
  5
28
100
AcDbSymbolTableRecord
100
AcDbLinetypeTableRecord
  2
STYLE_04
 70
               0
  3

 72
              65
 73
               4
 40
1.5999999999999999
 49
0.9999999999999999
 74
               0
 49
-0.2000000000000001
 74
               0
 49
0.2
 74
               0
 49
-0.2
 74
               0
  0
LTYPE
  5
29
100
AcDbSymbolTableRecord
100
AcDbLinetypeTableRecord
  2
STYLE_05
 70
               0
  3

 72
              65
 73
               2
 40
0.05
 49
0.0002
 74
               0
 49
-0.0498
 74
               0
  0
LTYPE
  5
2A
100
AcDbSymbolTableRecord
100
AcDbLinetypeTableRecord
  2
STYLE_06
 70
               0
  3

 72
              65
 73
               4
 40
0.416656
 49
0.25
 74
               0
 49
-0.083312
 74
               0
 49
0.027772
 74
               0
 49
-0.055572
 74
               0
  0
LTYPE
  5
2B
100
AcDbSymbolTableRecord
100
AcDbLinetypeTableRecord
  2
STYLE_07
 70
               0
  3

 72
              65
 73
               6
 40
0.75
 49
0.25
 74
               0
 49
-0.083312
 74
               0
 49
0.2500000000000001
 74
               0
 49
-0.083344
 74
               0
 49
0.027772
 74
               0
 49
-0.055572
 74
               0
  0
LTYPE
  5
2C
100
AcDbSymbolTableRecord
100
AcDbLinetypeTableRecord
  2
STYLE_08
 70
               0
  3

 72
              65
 73
               6
 40
0.5
 49
0.25
 74
               0
 49
-0.083312
 74
               0
 49
0.027772
 74
               0
 49
-0.055572
 74
               0
 49
0.027772
 74
               0
 49
-0.055572
 74
               0
  0
LTYPE
  5
2D
100
AcDbSymbolTableRecord
100
AcDbLinetypeTableRecord
  2
STYLE_09
 70
               0
  3

 72
              65
 73
               4
 40
2.0
 49
1.5
 74
               0
 49
-0.1111139999999999
 74
               0
 49
0.2777720000000001
 74
               0
 49
-0.1111139999999999
 74
               0
  0
LTYPE
  5
2E
100
AcDbSymbolTableRecord
100
AcDbLinetypeTableRecord
  2
STYLE_10
 70
               0
  3

 72
              65
 73
               6
 40
2.375
 49
1.5
 74
               0
 49
-0.1111139999999999
 74
               0
 49
0.2777720000000001
 74
               0
 49
-0.1111139999999999
 74
               0
 49
0.25
 74
               0
 49
-0.125
 74
               0
  0
ENDTAB
  0
TABLE
  2
LAYER
  5
2
100
AcDbSymbolTable
 70
               6
  0
LAYER
  5
14
100
AcDbSymbolTableRecord
100
AcDbLayerTableRecord
  2
0
 70
               0
 62
               7
  6
Continuous
290
               1
370
              15
390
1D
  0
LAYER
  5
2F
100
AcDbSymbolTableRecord
100
AcDbLayerTableRecord
  2
Defpoints
 70
               0
 62
               7
  6
Continuous
290
               0
370
              -3
390
1D
  0
LAYER
  5
30
100
AcDbSymbolTableRecord
100
AcDbLayerTableRecord
  2
一般
 70
               0
 62
               7
  6
Continuous
290
               1
370
               5
390
1D
  0
LAYER
  5
31
100
AcDbSymbolTableRecord
100
AcDbLayerTableRecord
  2
寸法
 70
               0
 62
               7
  6
Continuous
290
               1
370
               5
390
1D
  0
LAYER
  5
32
100
AcDbSymbolTableRecord
100
AcDbLayerTableRecord
  2
レイヤー_1
 70
               0
 62
              19
  6
Continuous
290
               1
370
              15
390
1D
  0
LAYER
  5
33
100
AcDbSymbolTableRecord
100
AcDbLayerTableRecord
  2
FORMAT
 70
               0
 62
               7
  6
Continuous
290
               1
370
              15
390
1D
  0
ENDTAB
  0
TABLE
  2
STYLE
  5
3
100
AcDbSymbolTable
 70
               2
  0
STYLE
  5
17
100
AcDbSymbolTableRecord
100
AcDbTextStyleTableRecord
  2
Standard
 70
               0
 40
0.0
 41
1.0
 50
0.0
 71
               0
 42
0.0
  3
txt
  4
BIGFONT.SHX
  0
STYLE
  5
24
100
AcDbSymbolTableRecord
100
AcDbTextStyleTableRecord
  2
Arial
 70
               0
 40
0.0
 41
1.0
 50
0.0
 71
               0
 42
0.0
  3
Arial
  4

1001
ACAD
1000
Arial
1071
        0
  0
ENDTAB
  0
TABLE
  2
VIEW
  5
5
100
AcDbSymbolTable
 70
               0
  0
ENDTAB
  0
TABLE
  2
UCS
  5
6
100
AcDbSymbolTable
 70
               0
  0
ENDTAB
  0
TABLE
  2
APPID
  5
8
100
AcDbSymbolTable
 70
               1
  0
APPID
  5
16
100
AcDbSymbolTableRecord
100
AcDbRegAppTableRecord
  2
ACAD
 70
               0
  0
ENDTAB
  0
TABLE
  2
DIMSTYLE
  5
9
100
AcDbSymbolTable
 70
               1
100
AcDbDimStyleTable
 71
               0
  0
DIMSTYLE
105
18
100
AcDbSymbolTableRecord
100
AcDbDimStyleTableRecord
  2
Standard
 70
               0
  3

  4

 40
1.0
 41
0.18
 42
0.0625
 43
0.38
 44
0.18
 45
0.0
 46
0.0
 47
0.0
 48
0.0
 71
               0
 72
               0
 73
               1
 74
               1
 75
               0
 76
               0
 77
               0
 78
               0
 79
               0
140
0.18
141
0.09
142
0.0
143
25.399999999999999
144
1.0
145
0.0
146
1.0
147
0.09
148
0.0
170
               0
171
               2
172
               0
173
               0
174
               0
175
               0
176
               0
177
               0
178
               0
179
               0
271
               4
272
               4
273
               2
274
               2
275
               0
276
               0
277
               2
278
              46
279
               0
280
               0
281
               0
282
               0
283
               1
284
               0
285
               0
286
               0
288
               0
340
17
341
0
342
0
343
0
344
0
371
              -2
372
              -2
  0
ENDTAB
  0
TABLE
  2
BLOCK_RECORD
  5
1
100
AcDbSymbolTable
 70
               0
  0
BLOCK_RECORD
  5
A
100
AcDbSymbolTableRecord
100
AcDbBlockTableRecord
  2
*MODEL_SPACE
340
20
  0
BLOCK_RECORD
  5
B
100
AcDbSymbolTableRecord
100
AcDbBlockTableRecord
  2
*PAPER_SPACE
340
21
  0
ENDTAB
  0
ENDSEC
  0
SECTION
  2
BLOCKS
  0
BLOCK
  5
D
100
AcDbEntity
  8
0
100
AcDbBlockBegin
  2
*MODEL_SPACE
 70
               0
 10
0.0
 20
0.0
 30
0.0
  3
*MODEL_SPACE
  1

  0
ENDBLK
  5
E
100
AcDbEntity
  8
0
100
AcDbBlockEnd
  0
BLOCK
  5
F
100
AcDbEntity
 67
               1
  8
0
100
AcDbBlockBegin
  2
*PAPER_SPACE
 70
               0
 10
0.0
 20
0.0
 30
0.0
  3
*PAPER_SPACE
  1

  0
ENDBLK
  5
10
100
AcDbEntity
 67
               1
  8
0
100
AcDbBlockEnd
  0
ENDSEC
  0
SECTION
  2
ENTITIES
  0
LINE
  5
34
100
AcDbEntity
  8
0
370
              25
  6
Continuous
 62
               7
100
AcDbLine
 10
156.95427370160002
 20
121.47542586865001
 30
0.0
 11
157.66178442065001
 21
121.86916004915
 31
0.0
  0
LINE
  5
35
100
AcDbEntity
  8
0
370
              25
  6
Continuous
 62
               7
100
AcDbLine
 10
151.34017483049999
 20
133.2286170518
 30
0.0
 11
150.63266411145
 21
132.83488287130001
 31
0.0
  0
LINE
  5
36
100
AcDbEntity
  8
0
370
              25
  6
Continuous
 62
               7
100
AcDbLine
 10
153.83646817175
 20
120.44690130379999
 30
0.0
 11
155.45788476990001
 21
119.62719088004999
 31
0.0
  0
LINE
  5
37
100
AcDbEntity
  8
0
370
              25
  6
Continuous
 62
               7
100
AcDbLine
 10
249.68824888694999
 20
208.53758456415
 30
0.0
 11
249.69060218325001
 21
208.47405171790001
 31
0.0
  0
LINE
  5
38
100
AcDbEntity
  8
0
370
              25
  6
Continuous
 62
               7
100
AcDbLine
 10
252.68854674120001
 20
208.58509743280001
 30
0.0
 11
252.6861934449
 21
208.64863027905
 31
0.0
  0
LINE
  5
39
100
AcDbEntity
  8
0
370
              25
  6
Continuous
 62
               7
100
AcDbLine
 10
251.47869055460001
 20
208.39212658445001
 30
0.0
 11
251.48779150005001
 21
208.14642485339999
 31
0.0
  0
LINE
  5
3A
100
AcDbEntity
  8
0
370
              25
  6
Continuous
 62
               7
100
AcDbLine
 10
250.90947894690001
 20
208.42348186460001
 30
0.0
 11
250.89575144854999
 21
208.79408842500001
 31
0.0
  0
LINE
  5
3B
100
AcDbEntity
  8
0
370
              25
  6
Continuous
 62
               7
100
AcDbLine
 10
148.86817700685
 20
152.43057825389999
 30
0.0
 11
148.87053030314999
 21
152.36704540764998
 31
0.0
  0
LINE
  5
3C
100
AcDbEntity
  8
0
370
              25
  6
Continuous
 62
               7
100
AcDbLine
 10
151.86847486105
 20
152.47809112254998
 30
0.0
 11
151.86612156479998
 21
152.5416239688
 31
0.0
  0
LINE
  5
3D
100
AcDbEntity
  8
0
370
              25
  6
Continuous
 62
               7
100
AcDbLine
 10
150.65861867445
 20
152.28512027419998
 30
0.0
 11
150.66771961994999
 21
152.03941854315002
 31
0.0
  0
LINE
  5
3E
100
AcDbEntity
  8
0
370
              25
  6
Continuous
 62
               7
100
AcDbLine
 10
150.08940706675
 20
152.31647555435001
 30
0.0
 11
150.07567956840001
 21
152.68708211469999
 31
0.0
  0
LINE
  5
3F
100
AcDbEntity
  8
0
370
              25
  6
Continuous
 62
               7
100
AcDbLine
 10
260.27835612709998
 20
203.1837345399
 30
0.0
 11
260.28070942340003
 21
203.12020169364999
 31
0.0
  0
LINE
  5
40
100
AcDbEntity
  8
0
370
              25
  6
Continuous
 62
               7
100
AcDbLine
 10
263.27865398130001
 20
203.23124740854999
 30
0.0
 11
263.27630068504999
 21
203.2947802548
 31
0.0
  0
LINE
  5
41
100
AcDbEntity
  8
0
370
              25
  6
Continuous
 62
               7
100
AcDbLine
 10
262.06879812344999
 20
203.03827639395001
 30
0.0
 11
262.07789906894999
 21
202.79257466294999
 31
0.0
  0
LINE
  5
42
100
AcDbEntity
  8
0
370
              25
  6
Continuous
 62
               7
100
AcDbLine
 10
261.49958651575002
 20
203.06963167410001
 30
0.0
 11
261.4858590174
 21
203.44023823449999
 31
0.0
  0
LINE
  5
43
100
AcDbEntity
  8
0
370
              25
  6
Continuous
 62
               7
100
AcDbLine
 10
159.45828424695
 20
147.07672822965
 30
0.0
 11
159.46063754325002
 21
147.01319538339999
 31
0.0
  0
LINE
  5
44
100
AcDbEntity
  8
0
370
              25
  6
Continuous
 62
               7
100
AcDbLine
 10
162.45858210119999
 20
147.12424109829999
 30
0.0
 11
162.45622880490001
 21
147.18777394455
 31
0.0
  0
LINE
  5
45
100
AcDbEntity
  8
0
370
              25
  6
Continuous
 62
               7
100
AcDbLine
 10
161.24872624335001
 20
146.93127008369999
 30
0.0
 11
161.25782718885
 21
146.68556835269999
 31
0.0
  0
LINE
  5
46
100
AcDbEntity
  8
0
370
              25
  6
Continuous
 62
               7
100
AcDbLine
 10
160.67951463565001
 20
146.96262536385001
 30
0.0
 11
160.66578713730001
 21
147.33323192425001
 31
0.0
  0
LINE
  5
47
100
AcDbEntity
  8
0
370
              25
  6
Continuous
 62
               7
100
AcDbLine
 10
147.0471690846
 20
122.25337885155
 30
0.0
 11
145.94896907090001
 21
151.90190762790002
 31
0.0
  0
LINE
  5
48
100
AcDbEntity
  8
0
370
              25
  6
Continuous
 62
               7
100
AcDbLine
 10
145.94896907090001
 20
151.90190762790002
 30
0.0
 11
160.06911161939999
 21
144.7634411505
 31
0.0
  0
LINE
  5
49
100
AcDbEntity
  8
0
370
              25
  6
Continuous
 62
               7
100
AcDbLine
 10
160.06911161939999
 20
144.7634411505
 30
0.0
 11
161.16731163309998
 21
115.1149123741
 31
0.0
  0
LINE
  5
4A
100
AcDbEntity
  8
0
370
              25
  6
Continuous
 62
               7
100
AcDbLine
 10
161.16731163309998
 20
115.1149123741
 30
0.0
 11
147.0471690846
 21
122.25337885155
 31
0.0
  0
LINE
  5
4B
100
AcDbEntity
  8
0
370
              25
  6
Continuous
 62
               7
100
AcDbLine
 10
153.76617018265
 20
132.56800461935001
 30
0.0
 11
153.75832030704998
 21
132.77993073479999
 31
0.0
  0
POLYLINE
  5
4C
100
AcDbEntity
  8
0
370
              25
  6
Continuous
 62
               7
100
AcDb2dPolyline
 66
               1
 10
0.0
 20
0.0
 30
0.0
 75
               5
  0
VERTEX
  5
4D
100
AcDbEntity
  8
0
370
              25
  6
Continuous
 62
               7
100
AcDbVertex
100
AcDb2dVertex
 10
154.17377120415
 20
121.56384284065
 30
0.0
  0
VERTEX
  5
4E
100
AcDbEntity
  8
0
370
              25
  6
Continuous
 62
               7
100
AcDbVertex
100
AcDb2dVertex
 10
154.83542550415001
 20
121.31695126795
 30
0.0
  0
VERTEX
  5
4F
100
AcDbEntity
  8
0
370
              25
  6
Continuous
 62
               7
100
AcDbVertex
100
AcDb2dVertex
 10
155.47492837620001
 20
121.19417756819999
 30
0.0
  0
VERTEX
  5
50
100
AcDbEntity
  8
0
370
              25
  6
Continuous
 62
               7
100
AcDbVertex
100
AcDb2dVertex
 10
156.07868423754999
 20
121.19813099345001
 30
0.0
  0
VERTEX
  5
51
100
AcDbEntity
  8
0
370
              25
  6
Continuous
 62
               7
100
AcDbVertex
100
AcDb2dVertex
 10
156.63385776210001
 20
121.32872792890001
 30
0.0
  0
VERTEX
  5
52
100
AcDbEntity
  8
0
370
              25
  6
Continuous
 62
               7
100
AcDbVertex
100
AcDb2dVertex
 10
157.1286461201
 20
121.58319128635
 30
0.0
  0
VERTEX
  5
53
100
AcDbEntity
  8
0
370
              25
  6
Continuous
 62
               7
100
AcDbVertex
100
AcDb2dVertex
 10
157.5525302003
 20
121.95611161695
 30
0.0
  0
VERTEX
  5
54
100
AcDbEntity
  8
0
370
              25
  6
Continuous
 62
               7
100
AcDbVertex
100
AcDb2dVertex
 10
157.89649864595
 20
122.43956067565
 30
0.0
  0
VERTEX
  5
55
100
AcDbEntity
  8
0
370
              25
  6
Continuous
 62
               7
100
AcDbVertex
100
AcDb2dVertex
 10
158.1532390033
 20
123.02326109315
 30
0.0
  0
VERTEX
  5
56
100
AcDbEntity
  8
0
370
              25
  6
Continuous
 62
               7
100
AcDbVertex
100
AcDb2dVertex
 10
158.3172927764
 20
123.69480293960001
 30
0.0
  0
VERTEX
  5
57
100
AcDbEntity
  8
0
370
              25
  6
Continuous
 62
               7
100
AcDbVertex
100
AcDb2dVertex
 10
158.38517265594999
 20
124.43991037629999
 30
0.0
  0
VERTEX
  5
58
100
AcDbEntity
  8
0
370
              25
  6
Continuous
 62
               7
100
AcDbVertex
100
AcDb2dVertex
 10
158.35543525615
 20
125.2427424135
 30
0.0
  0
VERTEX
  5
59
100
AcDbEntity
  8
0
370
              25
  6
Continuous
 62
               7
100
AcDbVertex
100
AcDb2dVertex
 10
158.22871280014999
 20
126.08623067835001
 30
0.0
  0
VERTEX
  5
5A
100
AcDbEntity
  8
0
370
              25
  6
Continuous
 62
               7
100
AcDbVertex
100
AcDb2dVertex
 10
158.00769959025001
 20
126.952444687
 30
0.0
  0
VERTEX
  5
5B
100
AcDbEntity
  8
0
370
              25
  6
Continuous
 62
               7
100
AcDbVertex
100
AcDb2dVertex
 10
157.69709389080001
 20
127.8229676581
 30
0.0
  0
VERTEX
  5
5C
100
AcDbEntity
  8
0
370
              25
  6
Continuous
 62
               7
100
AcDbVertex
100
AcDb2dVertex
 10
157.30349934430001
 20
128.67929355859999
 30
0.0
  0
VERTEX
  5
5D
100
AcDbEntity
  8
0
370
              25
  6
Continuous
 62
               7
100
AcDbVertex
100
AcDb2dVertex
 10
156.83528342969998
 20
129.50321683664998
 30
0.0
  0
VERTEX
  5
5E
100
AcDbEntity
  8
0
370
              25
  6
Continuous
 62
               7
100
AcDbVertex
100
AcDb2dVertex
 10
156.3023999795
 20
130.2772213575
 30
0.0
  0
VERTEX
  5
5F
100
AcDbEntity
  8
0
370
              25
  6
Continuous
 62
               7
100
AcDbVertex
100
AcDb2dVertex
 10
155.71617795545001
 20
130.98485272215001
 30
0.0
  0
VERTEX
  5
60
100
AcDbEntity
  8
0
370
              25
  6
Continuous
 62
               7
100
AcDbVertex
100
AcDb2dVertex
 10
155.08908029585001
 20
131.6110668151
 30
0.0
  0
VERTEX
  5
61
100
AcDbEntity
  8
0
370
              25
  6
Continuous
 62
               7
100
AcDbVertex
100
AcDb2dVertex
 10
154.43443855699999
 20
132.1425503339
 30
0.0
  0
VERTEX
  5
62
100
AcDbEntity
  8
0
370
              25
  6
Continuous
 62
               7
100
AcDbVertex
100
AcDb2dVertex
 10
153.76617018265
 20
132.56800461935001
 30
0.0
  0
SEQEND
  5
63
100
AcDbEntity
  8
0
370
              25
  6
Continuous
 62
               7
  0
LINE
  5
64
100
AcDbEntity
  8
0
370
              25
  6
Continuous
 62
               7
100
AcDbLine
 10
154.18162111629999
 20
121.35191573905
 30
0.0
 11
154.17377120415
 21
121.56384284065
 31
0.0
  0
POLYLINE
  5
65
100
AcDbEntity
  8
0
370
              25
  6
Continuous
 62
               7
100
AcDb2dPolyline
 66
               1
 10
0.0
 20
0.0
 30
0.0
 75
               5
  0
VERTEX
  5
66
100
AcDbEntity
  8
0
370
              25
  6
Continuous
 62
               7
100
AcDbVertex
100
AcDb2dVertex
 10
153.75832030704998
 20
132.77993073479999
 30
0.0
  0
VERTEX
  5
67
100
AcDbEntity
  8
0
370
              25
  6
Continuous
 62
               7
100
AcDbVertex
100
AcDb2dVertex
 10
154.4529984655
 20
132.33877596299999
 30
0.0
  0
VERTEX
  5
68
100
AcDbEntity
  8
0
370
              25
  6
Continuous
 62
               7
100
AcDbVertex
100
AcDb2dVertex
 10
155.13362932730001
 20
131.78721507135
 30
0.0
  0
VERTEX
  5
69
100
AcDbEntity
  8
0
370
              25
  6
Continuous
 62
               7
100
AcDbVertex
100
AcDb2dVertex
 10
155.78571609105001
 20
131.13699637989998
 30
0.0
  0
VERTEX
  5
6A
100
AcDbEntity
  8
0
370
              25
  6
Continuous
 62
               7
100
AcDbVertex
100
AcDb2dVertex
 10
156.39537000530001
 20
130.40196822320002
 30
0.0
  0
VERTEX
  5
6B
100
AcDbEntity
  8
0
370
              25
  6
Continuous
 62
               7
100
AcDbVertex
100
AcDb2dVertex
 10
156.94960608285001
 20
129.59778642674999
 30
0.0
  0
VERTEX
  5
6C
100
AcDbEntity
  8
0
370
              25
  6
Continuous
 62
               7
100
AcDbVertex
100
AcDb2dVertex
 10
157.43661971950002
 20
128.741579376
 30
0.0
  0
VERTEX
  5
6D
100
AcDbEntity
  8
0
370
              25
  6
Continuous
 62
               7
100
AcDbVertex
100
AcDb2dVertex
 10
157.84603799075001
 20
127.85158253425
 30
0.0
  0
VERTEX
  5
6E
100
AcDbEntity
  8
0
370
              25
  6
Continuous
 62
               7
100
AcDbVertex
100
AcDb2dVertex
 10
158.16914071715001
 20
126.94675302055001
 30
0.0
  0
VERTEX
  5
6F
100
AcDbEntity
  8
0
370
              25
  6
Continuous
 62
               7
100
AcDbVertex
100
AcDb2dVertex
 10
158.3990462134
 20
126.0463621725
 30
0.0
  0
VERTEX
  5
70
100
AcDbEntity
  8
0
370
              25
  6
Continuous
 62
               7
100
AcDbVertex
100
AcDb2dVertex
 10
158.53085773244999
 20
125.1695866913
 30
0.0
  0
VERTEX
  5
71
100
AcDbEntity
  8
0
370
              25
  6
Continuous
 62
               7
100
AcDbVertex
100
AcDb2dVertex
 10
158.56176755774999
 20
124.33510223055001
 30
0.0
  0
VERTEX
  5
72
100
AcDbEntity
  8
0
370
              25
  6
Continuous
 62
               7
100
AcDbVertex
100
AcDb2dVertex
 10
158.49111734154999
 20
123.5606824611
 30
0.0
  0
VERTEX
  5
73
100
AcDbEntity
  8
0
370
              25
  6
Continuous
 62
               7
100
AcDbVertex
100
AcDb2dVertex
 10
158.32041211659998
 20
122.8628207822
 30
0.0
  0
VERTEX
  5
74
100
AcDbEntity
  8
0
370
              25
  6
Continuous
 62
               7
100
AcDbVertex
100
AcDb2dVertex
 10
158.05328773414999
 20
122.25638138389999
 30
0.0
  0
VERTEX
  5
75
100
AcDbEntity
  8
0
370
              25
  6
Continuous
 62
               7
100
AcDbVertex
100
AcDb2dVertex
 10
157.69543359734999
 20
121.75428142609999
 30
0.0
  0
VERTEX
  5
76
100
AcDbEntity
  8
0
370
              25
  6
Continuous
 62
               7
100
AcDbVertex
100
AcDb2dVertex
 10
157.25447162624999
 20
121.367213924
 30
0.0
  0
VERTEX
  5
77
100
AcDbEntity
  8
0
370
              25
  6
Continuous
 62
               7
100
AcDbVertex
100
AcDb2dVertex
 10
156.73979391540001
 20
121.103423257
 30
0.0
  0
VERTEX
  5
78
100
AcDbEntity
  8
0
370
              25
  6
Continuous
 62
               7
100
AcDbVertex
100
AcDb2dVertex
 10
156.16236246035001
 20
120.96852927155
 30
0.0
  0
VERTEX
  5
79
100
AcDbEntity
  8
0
370
              25
  6
Continuous
 62
               7
100
AcDbVertex
100
AcDb2dVertex
 10
155.53447600769999
 20
120.96540284105001
 30
0.0
  0
VERTEX
  5
7A
100
AcDbEntity
  8
0
370
              25
  6
Continuous
 62
               7
100
AcDbVertex
100
AcDb2dVertex
 10
154.86950781409999
 20
121.09411264645
 30
0.0
  0
VERTEX
  5
7B
100
AcDbEntity
  8
0
370
              25
  6
Continuous
 62
               7
100
AcDbVertex
100
AcDb2dVertex
 10
154.18162111629999
 20
121.35191573905
 30
0.0
  0
SEQEND
  5
7C
100
AcDbEntity
  8
0
370
              25
  6
Continuous
 62
               7
  0
LINE
  5
7D
100
AcDbEntity
  8
0
370
              25
  6
Continuous
 62
               7
100
AcDbLine
 10
153.82076761580001
 20
121.74230451504999
 30
0.0
 11
153.82861752795
 21
121.53037741345
 31
0.0
  0
POLYLINE
  5
7E
100
AcDbEntity
  8
0
370
              25
  6
Continuous
 62
               7
100
AcDb2dPolyline
 66
               1
 10
0.0
 20
0.0
 30
0.0
 75
               5
  0
VERTEX
  5
7F
100
AcDbEntity
  8
0
370
              25
  6
Continuous
 62
               7
100
AcDbVertex
100
AcDb2dVertex
 10
153.41316659430001
 20
132.74646629374999
 30
0.0
  0
VERTEX
  5
80
100
AcDbEntity
  8
0
370
              25
  6
Continuous
 62
               7
100
AcDbVertex
100
AcDb2dVertex
 10
152.75151232350001
 20
132.99335707755
 30
0.0
  0
VERTEX
  5
81
100
AcDbEntity
  8
0
370
              25
  6
Continuous
 62
               7
100
AcDbVertex
100
AcDb2dVertex
 10
152.11200944415
 20
133.11613097450001
 30
0.0
  0
VERTEX
  5
82
100
AcDbEntity
  8
0
370
              25
  6
Continuous
 62
               7
100
AcDbVertex
100
AcDb2dVertex
 10
151.50825359014999
 20
133.11217735205
 30
0.0
  0
VERTEX
  5
83
100
AcDbEntity
  8
0
370
              25
  6
Continuous
 62
               7
100
AcDbVertex
100
AcDb2dVertex
 10
150.95308005095001
 20
132.9815808111
 30
0.0
  0
VERTEX
  5
84
100
AcDbEntity
  8
0
370
              25
  6
Continuous
 62
               7
100
AcDbVertex
100
AcDb2dVertex
 10
150.45829167835001
 20
132.72711784809999
 30
0.0
  0
VERTEX
  5
85
100
AcDbEntity
  8
0
370
              25
  6
Continuous
 62
               7
100
AcDbVertex
100
AcDb2dVertex
 10
150.03440759814998
 20
132.35419751744999
 30
0.0
  0
VERTEX
  5
86
100
AcDbEntity
  8
0
370
              25
  6
Continuous
 62
               7
100
AcDbVertex
100
AcDb2dVertex
 10
149.69043916710001
 20
131.87074806435001
 30
0.0
  0
VERTEX
  5
87
100
AcDbEntity
  8
0
370
              25
  6
Continuous
 62
               7
100
AcDbVertex
100
AcDb2dVertex
 10
149.43369879515001
 20
131.28704804124999
 30
0.0
  0
VERTEX
  5
88
100
AcDbEntity
  8
0
370
              25
  6
Continuous
 62
               7
100
AcDbVertex
100
AcDb2dVertex
 10
149.26964505130002
 20
130.6155054059
 30
0.0
  0
VERTEX
  5
89
100
AcDbEntity
  8
0
370
              25
  6
Continuous
 62
               7
100
AcDbVertex
100
AcDb2dVertex
 10
149.20176514249999
 20
129.87039875810001
 30
0.0
  0
VERTEX
  5
8A
100
AcDbEntity
  8
0
370
              25
  6
Continuous
 62
               7
100
AcDbVertex
100
AcDb2dVertex
 10
149.23150254230001
 20
129.06756672095
 30
0.0
  0
VERTEX
  5
8B
100
AcDbEntity
  8
0
370
              25
  6
Continuous
 62
               7
100
AcDbVertex
100
AcDb2dVertex
 10
149.35822502754999
 20
128.22407766715
 30
0.0
  0
VERTEX
  5
8C
100
AcDbEntity
  8
0
370
              25
  6
Continuous
 62
               7
100
AcDbVertex
100
AcDb2dVertex
 10
149.5792382082
 20
127.3578644474
 30
0.0
  0
VERTEX
  5
8D
100
AcDbEntity
  8
0
370
              25
  6
Continuous
 62
               7
100
AcDbVertex
100
AcDb2dVertex
 10
149.8898439223
 20
126.48734108184999
 30
0.0
  0
VERTEX
  5
8E
100
AcDbEntity
  8
0
370
              25
  6
Continuous
 62
               7
100
AcDbVertex
100
AcDb2dVertex
 10
150.28343845415
 20
125.63101557585
 30
0.0
  0
VERTEX
  5
8F
100
AcDbEntity
  8
0
370
              25
  6
Continuous
 62
               7
100
AcDbVertex
100
AcDb2dVertex
 10
150.75165436875
 20
124.80709229775
 30
0.0
  0
VERTEX
  5
90
100
AcDbEntity
  8
0
370
              25
  6
Continuous
 62
               7
100
AcDbVertex
100
AcDb2dVertex
 10
151.28453783354999
 20
124.03308738244999
 30
0.0
  0
VERTEX
  5
91
100
AcDbEntity
  8
0
370
              25
  6
Continuous
 62
               7
100
AcDbVertex
100
AcDb2dVertex
 10
151.87075987225001
 20
123.32545562335
 30
0.0
  0
VERTEX
  5
92
100
AcDbEntity
  8
0
370
              25
  6
Continuous
 62
               7
100
AcDbVertex
100
AcDb2dVertex
 10
152.49785752450001
 20
122.69924172764999
 30
0.0
  0
VERTEX
  5
93
100
AcDbEntity
  8
0
370
              25
  6
Continuous
 62
               7
100
AcDbVertex
100
AcDb2dVertex
 10
153.15249927069999
 20
122.1677580116
 30
0.0
  0
VERTEX
  5
94
100
AcDbEntity
  8
0
370
              25
  6
Continuous
 62
               7
100
AcDbVertex
100
AcDb2dVertex
 10
153.82076761580001
 20
121.74230451504999
 30
0.0
  0
SEQEND
  5
95
100
AcDbEntity
  8
0
370
              25
  6
Continuous
 62
               7
  0
LINE
  5
96
100
AcDbEntity
  8
0
370
              25
  6
Continuous
 62
               7
100
AcDbLine
 10
153.40531671865
 20
132.9583924092
 30
0.0
 11
153.41316659430001
 21
132.74646629374999
 31
0.0
  0
POLYLINE
  5
97
100
AcDbEntity
  8
0
370
              25
  6
Continuous
 62
               7
100
AcDb2dPolyline
 66
               1
 10
0.0
 20
0.0
 30
0.0
 75
               5
  0
VERTEX
  5
98
100
AcDbEntity
  8
0
370
              25
  6
Continuous
 62
               7
100
AcDbVertex
100
AcDb2dVertex
 10
153.82861752795
 20
121.53037741345
 30
0.0
  0
VERTEX
  5
99
100
AcDbEntity
  8
0
370
              25
  6
Continuous
 62
               7
100
AcDbVertex
100
AcDb2dVertex
 10
153.13393934754998
 20
121.97153277695
 30
0.0
  0
VERTEX
  5
9A
100
AcDbEntity
  8
0
370
              25
  6
Continuous
 62
               7
100
AcDbVertex
100
AcDb2dVertex
 10
152.4533085004
 20
122.52309327415
 30
0.0
  0
VERTEX
  5
9B
100
AcDbEntity
  8
0
370
              25
  6
Continuous
 62
               7
100
AcDbVertex
100
AcDb2dVertex
 10
151.8012217074
 20
123.1733127545
 30
0.0
  0
VERTEX
  5
9C
100
AcDbEntity
  8
0
370
              25
  6
Continuous
 62
               7
100
AcDbVertex
100
AcDb2dVertex
 10
151.19156782235001
 20
123.90834012229999
 30
0.0
  0
VERTEX
  5
9D
100
AcDbEntity
  8
0
370
              25
  6
Continuous
 62
               7
100
AcDbVertex
100
AcDb2dVertex
 10
150.6373317302
 20
124.7125223132
 30
0.0
  0
VERTEX
  5
9E
100
AcDbEntity
  8
0
370
              25
  6
Continuous
 62
               7
100
AcDbVertex
100
AcDb2dVertex
 10
150.15031807894999
 20
125.5687297584
 30
0.0
  0
VERTEX
  5
9F
100
AcDbEntity
  8
0
370
              25
  6
Continuous
 62
               7
100
AcDbVertex
100
AcDb2dVertex
 10
149.74089983689998
 20
126.45872581124999
 30
0.0
  0
VERTEX
  5
A0
100
AcDbEntity
  8
0
370
              25
  6
Continuous
 62
               7
100
AcDbVertex
100
AcDb2dVertex
 10
149.4177970959
 20
127.3635557194
 30
0.0
  0
VERTEX
  5
A1
100
AcDbEntity
  8
0
370
              25
  6
Continuous
 62
               7
100
AcDbVertex
100
AcDb2dVertex
 10
149.18789158505001
 20
128.26394696189999
 30
0.0
  0
VERTEX
  5
A2
100
AcDbEntity
  8
0
370
              25
  6
Continuous
 62
               7
100
AcDbVertex
100
AcDb2dVertex
 10
149.05608009525
 20
129.14072165420001
 30
0.0
  0
VERTEX
  5
A3
100
AcDbEntity
  8
0
370
              25
  6
Continuous
 62
               7
100
AcDbVertex
100
AcDb2dVertex
 10
149.0251702699
 20
129.97520611495
 30
0.0
  0
VERTEX
  5
A4
100
AcDbEntity
  8
0
370
              25
  6
Continuous
 62
               7
100
AcDbVertex
100
AcDb2dVertex
 10
149.09582045690001
 20
130.74962667329999
 30
0.0
  0
VERTEX
  5
A5
100
AcDbEntity
  8
0
370
              25
  6
Continuous
 62
               7
100
AcDbVertex
100
AcDb2dVertex
 10
149.26652569645
 20
131.44748795775001
 30
0.0
  0
VERTEX
  5
A6
100
AcDbEntity
  8
0
370
              25
  6
Continuous
 62
               7
100
AcDbVertex
100
AcDb2dVertex
 10
149.53365009354999
 20
132.05392696159998
 30
0.0
  0
VERTEX
  5
A7
100
AcDbEntity
  8
0
370
              25
  6
Continuous
 62
               7
100
AcDbVertex
100
AcDb2dVertex
 10
149.89150420109999
 20
132.55602770835
 30
0.0
  0
VERTEX
  5
A8
100
AcDbEntity
  8
0
370
              25
  6
Continuous
 62
               7
100
AcDbVertex
100
AcDb2dVertex
 10
150.33246618685001
 20
132.94309481599998
 30
0.0
  0
VERTEX
  5
A9
100
AcDbEntity
  8
0
370
              25
  6
Continuous
 62
               7
100
AcDbVertex
100
AcDb2dVertex
 10
150.8471439123
 20
133.2068850885
 30
0.0
  0
VERTEX
  5
AA
100
AcDbEntity
  8
0
370
              25
  6
Continuous
 62
               7
100
AcDbVertex
100
AcDb2dVertex
 10
151.4245753381
 20
133.34177986290001
 30
0.0
  0
VERTEX
  5
AB
100
AcDbEntity
  8
0
370
              25
  6
Continuous
 62
               7
100
AcDbVertex
100
AcDb2dVertex
 10
152.05246181995
 20
133.34490550445
 30
0.0
  0
VERTEX
  5
AC
100
AcDbEntity
  8
0
370
              25
  6
Continuous
 62
               7
100
AcDbVertex
100
AcDb2dVertex
 10
152.71742999895
 20
133.2161960935
 30
0.0
  0
VERTEX
  5
AD
100
AcDbEntity
  8
0
370
              25
  6
Continuous
 62
               7
100
AcDbVertex
100
AcDb2dVertex
 10
153.40531671865
 20
132.9583924092
 30
0.0
  0
SEQEND
  5
AE
100
AcDbEntity
  8
0
370
              25
  6
Continuous
 62
               7
  0
LINE
  5
AF
100
AcDbEntity
  8
0
370
              25
  6
Continuous
 62
               7
100
AcDbLine
 10
154.1425449896
 20
122.4068689826
 30
0.0
 11
153.78954140125001
 21
122.585330657
 31
0.0
  0
LINE
  5
B0
100
AcDbEntity
  8
0
370
              25
  6
Continuous
 62
               7
100
AcDbLine
 10
153.79739642639998
 20
131.72497768849999
 30
0.0
 11
154.1425449896
 21
122.4068689826
 31
0.0
  0
LINE
  5
B1
100
AcDbEntity
  8
0
370
              25
  6
Continuous
 62
               7
100
AcDbLine
 10
153.44439283804999
 20
131.9034393629
 30
0.0
 11
153.79739642639998
 21
131.72497768849999
 31
0.0
  0
LINE
  5
B2
100
AcDbEntity
  8
0
370
              25
  6
Continuous
 62
               7
100
AcDbLine
 10
153.78954140125001
 20
122.585330657
 30
0.0
 11
153.44439283804999
 21
131.9034393629
 31
0.0
  0
LINE
  5
B3
100
AcDbEntity
  8
0
370
              25
  6
Continuous
 62
               7
100
AcDbLine
 10
155.4878775649
 20
118.8173998501
 30
0.0
 11
152.66384885795
 21
120.2450932453
 31
0.0
  0
LINE
  5
B4
100
AcDbEntity
  8
0
370
              25
  6
Continuous
 62
               7
100
AcDbLine
 10
155.45650041745
 20
119.664500785
 30
0.0
 11
155.4878775649
 21
118.8173998501
 31
0.0
  0
LINE
  5
B5
100
AcDbEntity
  8
0
370
              25
  6
Continuous
 62
               7
100
AcDbLine
 10
152.6324717105
 20
121.09219418020001
 30
0.0
 11
155.45650041745
 21
119.664500785
 31
0.0
  0
LINE
  5
B6
100
AcDbEntity
  8
0
370
              25
  6
Continuous
 62
               7
100
AcDbLine
 10
152.66384885795
 20
120.2450932453
 30
0.0
 11
152.6324717105
 21
121.09219418020001
 31
0.0
  0
LINE
  5
B7
100
AcDbEntity
  8
0
370
              25
  6
Continuous
 62
               7
100
AcDbLine
 10
146.65647978995
 20
152.29564180835001
 30
0.0
 11
145.94896907090001
 21
151.90190762790002
 31
0.0
  0
LINE
  5
B8
100
AcDbEntity
  8
0
370
              25
  6
Continuous
 62
               7
100
AcDbLine
 10
160.77662233845001
 20
145.15717533095
 30
0.0
 11
146.65647978995
 21
152.29564180835001
 31
0.0
  0
LINE
  5
B9
100
AcDbEntity
  8
0
370
              25
  6
Continuous
 62
               7
100
AcDbLine
 10
160.06911161939999
 20
144.7634411505
 30
0.0
 11
160.77662233845001
 21
145.15717533095
 31
0.0
  0
LINE
  5
BA
100
AcDbEntity
  8
0
370
              25
  6
Continuous
 62
               7
100
AcDbLine
 10
160.77662233845001
 20
145.15717533095
 30
0.0
 11
160.80799948584999
 21
144.31007439605
 31
0.0
  0
LINE
  5
BB
100
AcDbEntity
  8
0
370
              25
  6
Continuous
 62
               7
100
AcDbLine
 10
265.51937504935
 20
202.58261576539999
 30
0.0
 11
160.80799948584999
 21
144.31007439605
 31
0.0
  0
LINE
  5
BC
100
AcDbEntity
  8
0
370
              25
  6
Continuous
 62
               7
100
AcDbLine
 10
265.48799790190003
 20
203.42971670029999
 30
0.0
 11
265.51937504935
 21
202.58261576539999
 31
0.0
  0
LINE
  5
BD
100
AcDbEntity
  8
0
370
              25
  6
Continuous
 62
               7
100
AcDbLine
 10
265.48799790190003
 20
203.42971670029999
 30
0.0
 11
266.19550862095002
 21
203.82345088080001
 31
0.0
  0
LINE
  5
BE
100
AcDbEntity
  8
0
370
              25
  6
Continuous
 62
               7
100
AcDbLine
 10
266.19550862095002
 20
203.82345088080001
 30
0.0
 11
267.29370863464999
 21
174.1749221044
 31
0.0
  0
LINE
  5
BF
100
AcDbEntity
  8
0
370
              25
  6
Continuous
 62
               7
100
AcDbLine
 10
267.29370863464999
 20
174.1749221044
 30
0.0
 11
161.16731163309998
 21
115.1149123741
 31
0.0
  0
LINE
  5
C0
100
AcDbEntity
  8
0
370
              25
  6
Continuous
 62
               7
100
AcDbLine
 10
265.33540676179996
 20
202.67562130335
 30
0.0
 11
265.51937504935
 21
202.58261576539999
 31
0.0
  0
LINE
  5
C1
100
AcDbEntity
  8
0
370
              25
  6
Continuous
 62
               7
100
AcDbLine
 10
154.18162111629999
 20
121.35191573905
 30
0.0
 11
154.39263872640001
 21
121.46934837090001
 31
0.0
  0
POLYLINE
  5
C2
100
AcDbEntity
  8
0
370
              25
  6
Continuous
 62
               7
100
AcDb2dPolyline
 66
               1
 10
0.0
 20
0.0
 30
0.0
 75
               5
  0
VERTEX
  5
C3
100
AcDbEntity
  8
0
370
              25
  6
Continuous
 62
               7
100
AcDbVertex
100
AcDb2dVertex
 10
157.41241225765
 20
121.4847254636
 30
0.0
  0
VERTEX
  5
C4
100
AcDbEntity
  8
0
370
              25
  6
Continuous
 62
               7
100
AcDbVertex
100
AcDb2dVertex
 10
156.86987317935001
 20
121.36226345200001
 30
0.0
  0
VERTEX
  5
C5
100
AcDbEntity
  8
0
370
              25
  6
Continuous
 62
               7
100
AcDbVertex
100
AcDb2dVertex
 10
156.68267298770002
 20
121.3472645624
 30
0.0
  0
SEQEND
  5
C6
100
AcDbEntity
  8
0
370
              25
  6
Continuous
 62
               7
  0
LINE
  5
C7
100
AcDbEntity
  8
0
370
              25
  6
Continuous
 62
               7
100
AcDbLine
 10
153.76617018265
 20
132.56800461935001
 30
0.0
 11
153.94986636005001
 21
132.67023270145
 31
0.0
  0
POLYLINE
  5
C8
100
AcDbEntity
  8
0
370
              25
  6
Continuous
 62
               7
100
AcDb2dPolyline
 66
               1
 10
0.0
 20
0.0
 30
0.0
 75
               5
  0
VERTEX
  5
C9
100
AcDbEntity
  8
0
370
              25
  6
Continuous
 62
               7
100
AcDbVertex
100
AcDb2dVertex
 10
157.66178442065001
 20
121.86916004915
 30
0.0
  0
VERTEX
  5
CA
100
AcDbEntity
  8
0
370
              25
  6
Continuous
 62
               7
100
AcDbVertex
100
AcDb2dVertex
 10
157.8361568391
 20
121.9769254668
 30
0.0
  0
VERTEX
  5
CB
100
AcDbEntity
  8
0
370
              25
  6
Continuous
 62
               7
100
AcDbVertex
100
AcDb2dVertex
 10
157.91385172689999
 20
122.0324236116
 30
0.0
  0
SEQEND
  5
CC
100
AcDbEntity
  8
0
370
              25
  6
Continuous
 62
               7
  0
POLYLINE
  5
CD
100
AcDbEntity
  8
0
370
              25
  6
Continuous
 62
               7
100
AcDb2dPolyline
 66
               1
 10
0.0
 20
0.0
 30
0.0
 75
               5
  0
VERTEX
  5
CE
100
AcDbEntity
  8
0
370
              25
  6
Continuous
 62
               7
100
AcDbVertex
100
AcDb2dVertex
 10
150.38059813134998
 20
132.67161965234999
 30
0.0
  0
VERTEX
  5
CF
100
AcDbEntity
  8
0
370
              25
  6
Continuous
 62
               7
100
AcDbVertex
100
AcDb2dVertex
 10
150.59901492015001
 20
132.9497618888
 30
0.0
  0
VERTEX
  5
D0
100
AcDbEntity
  8
0
370
              25
  6
Continuous
 62
               7
100
AcDbVertex
100
AcDb2dVertex
 10
150.88203760064999
 20
133.21931780034998
 30
0.0
  0
SEQEND
  5
D1
100
AcDbEntity
  8
0
370
              25
  6
Continuous
 62
               7
  0
LINE
  5
D2
100
AcDbEntity
  8
0
370
              25
  6
Continuous
 62
               7
100
AcDbLine
 10
151.61177687060001
 20
133.35677870155001
 30
0.0
 11
151.34017483049999
 21
133.2286170518
 31
0.0
  0
LINE
  5
D3
100
AcDbEntity
  8
0
370
              25
  6
Continuous
 62
               7
100
AcDbLine
 10
153.78954140125001
 20
122.585330657
 30
0.0
 11
154.12894286125001
 21
122.77420971155
 31
0.0
  0
LINE
  5
D4
100
AcDbEntity
  8
0
370
              25
  6
Continuous
 62
               7
100
AcDbLine
 10
152.66384885795
 20
120.2450932453
 30
0.0
 11
153.37135957699999
 21
120.6388274258
 31
0.0
  0
LINE
  5
D5
100
AcDbEntity
  8
0
370
              25
  6
Continuous
 62
               7
100
AcDbLine
 10
155.45951484615
 20
119.58315632775
 30
0.0
 11
153.37135957699999
 21
120.6388274258
 31
0.0
  0
LINE
  5
D6
100
AcDbEntity
  8
0
370
              25
  6
Continuous
 62
               7
100
AcDbLine
 10
153.37135957699999
 20
120.6388274258
 30
0.0
 11
153.36834647169999
 21
120.72017338915001
 31
0.0
  0
LINE
  5
D7
100
AcDbEntity
  8
0
370
              25
  6
Continuous
 62
               7
100
AcDbLine
 10
251.36785535345001
 20
210.56818317770001
 30
0.0
 11
265.48799790190003
 21
203.42971670029999
 31
0.0
  0
LINE
  5
D8
100
AcDbEntity
  8
0
370
              25
  6
Continuous
 62
               7
100
AcDbLine
 10
266.19550862095002
 20
203.82345088080001
 30
0.0
 11
252.0753660725
 21
210.9619173582
 31
0.0
  0
LINE
  5
D9
100
AcDbEntity
  8
0
370
              25
  6
Continuous
 62
               7
100
AcDbLine
 10
252.0753660725
 20
210.9619173582
 30
0.0
 11
251.36785535345001
 21
210.56818317770001
 31
0.0
  0
LINE
  5
DA
100
AcDbEntity
  8
0
370
              25
  6
Continuous
 62
               7
100
AcDbLine
 10
251.36785535345001
 20
210.56818317770001
 30
0.0
 11
251.37494636400001
 21
210.37674443485
 31
0.0
  0
LINE
  5
DB
100
AcDbEntity
  8
0
370
              25
  6
Continuous
 62
               7
100
AcDbLine
 10
155.6709646242
 20
147.93950009209999
 30
0.0
 11
155.66704012275
 21
148.09608541245001
 31
0.0
  0
LINE
  5
DC
100
AcDbEntity
  8
0
370
              25
  6
Continuous
 62
               7
100
AcDbLine
 10
155.66704012275
 20
148.09608541245001
 30
0.0
 11
259.31715487899999
 21
205.77802844465
 31
0.0
  0
LINE
  5
DD
100
AcDbEntity
  8
0
370
              25
  6
Continuous
 62
               7
100
AcDbLine
 10
259.41170451484999
 20
205.67187658349999
 30
0.0
 11
259.31715487899999
 21
205.77802844465
 31
0.0
  0
LINE
  5
DE
100
AcDbEntity
  8
0
370
              25
  6
Continuous
 62
               7
100
AcDbLine
 10
152.84301141579999
 20
149.52377880770001
 30
0.0
 11
155.66704012275
 21
148.09608541245001
 31
0.0
  0
LINE
  5
DF
100
AcDbEntity
  8
0
370
              25
  6
Continuous
 62
               7
100
AcDbLine
 10
152.84301141579999
 20
149.52377880770001
 30
0.0
 11
152.64394324770001
 21
149.26866909450001
 31
0.0
  0
LINE
  5
E0
100
AcDbEntity
  8
0
370
              25
  6
Continuous
 62
               7
100
AcDbLine
 10
259.31715487899999
 20
205.77802844465
 30
0.0
 11
256.49312617204998
 21
207.20572183985001
 31
0.0
  0
LINE
  5
E1
100
AcDbEntity
  8
0
370
              25
  6
Continuous
 62
               7
100
AcDbLine
 10
256.49312617204998
 20
207.20572183985001
 30
0.0
 11
152.84301141579999
 21
149.52377880770001
 31
0.0
  0
ARC
  5
E2
100
AcDbEntity
  8
0
370
              25
  6
Continuous
 62
               7
100
AcDbCircle
 10
153.9777453422
 20
120.42659167894999
 30
0.0
 40
0.0975723490586901
100
AcDbArc
 50
273.56068161709914
 51
287.20107119310109
  0
POLYLINE
  5
E3
100
AcDbEntity
  8
0
370
              25
  6
Continuous
 62
               7
100
AcDb2dPolyline
 66
               1
 10
0.0
 20
0.0
 30
0.0
 75
               5
  0
VERTEX
  5
E4
100
AcDbEntity
  8
0
370
              25
  6
Continuous
 62
               7
100
AcDbVertex
100
AcDb2dVertex
 10
153.83646817175
 20
120.44690130379999
 30
0.0
  0
VERTEX
  5
E5
100
AcDbEntity
  8
0
370
              25
  6
Continuous
 62
               7
100
AcDbVertex
100
AcDb2dVertex
 10
153.78227062330001
 20
120.4878412108
 30
0.0
  0
VERTEX
  5
E6
100
AcDbEntity
  8
0
370
              25
  6
Continuous
 62
               7
100
AcDbVertex
100
AcDb2dVertex
 10
153.7541616371
 20
120.52512650905
 30
0.0
  0
SEQEND
  5
E7
100
AcDbEntity
  8
0
370
              25
  6
Continuous
 62
               7
  0
LINE
  5
E8
100
AcDbEntity
  8
0
370
              25
  6
Continuous
 62
               7
100
AcDbLine
 10
154.02020163805
 20
120.34173662095
 30
0.0
 11
154.00660001385
 21
120.33338346459999
 31
0.0
  0
LINE
  5
E9
100
AcDbEntity
  8
0
370
              25
  6
Continuous
 62
               7
100
AcDbLine
 10
160.9848798013
 20
144.40850940795002
 30
0.0
 11
160.95350265389999
 21
145.25561034284999
 31
0.0
  0
LINE
  5
EA
100
AcDbEntity
  8
0
370
              25
  6
Continuous
 62
               7
100
AcDbLine
 10
160.9848798013
 20
144.40850940795002
 30
0.0
 11
160.8009115138
 21
144.5015149459
 31
0.0
  0
LINE
  5
EB
100
AcDbEntity
  8
0
370
              25
  6
Continuous
 62
               7
100
AcDbLine
 10
155.66554020875
 20
147.741096529
 30
0.0
 11
155.6584491982
 21
147.93253527190001
 31
0.0
  0
LINE
  5
EC
100
AcDbEntity
  8
0
370
              25
  6
Continuous
 62
               7
100
AcDbLine
 10
160.95350265389999
 20
145.25561034284999
 30
0.0
 11
155.6584491982
 21
147.93253527190001
 31
0.0
  0
LINE
  5
ED
100
AcDbEntity
  8
0
370
              25
  6
Continuous
 62
               7
100
AcDbLine
 10
265.34249473390003
 20
202.48418075354999
 30
0.0
 11
265.31111758650002
 21
203.3312816884
 31
0.0
  0
LINE
  5
EE
100
AcDbEntity
  8
0
370
              25
  6
Continuous
 62
               7
100
AcDbLine
 10
265.34249473390003
 20
202.48418075354999
 30
0.0
 11
160.9848798013
 21
144.40850940795002
 31
0.0
  0
LINE
  5
EF
100
AcDbEntity
  8
0
370
              25
  6
Continuous
 62
               7
100
AcDbLine
 10
265.31111758650002
 20
203.3312816884
 30
0.0
 11
160.95350265389999
 21
145.25561034284999
 31
0.0
  0
LINE
  5
F0
100
AcDbEntity
  8
0
370
              25
  6
Continuous
 62
               7
100
AcDbLine
 10
260.01606413080003
 20
206.00820661745001
 30
0.0
 11
265.31111758650002
 21
203.3312816884
 31
0.0
  0
LINE
  5
F1
100
AcDbEntity
  8
0
370
              25
  6
Continuous
 62
               7
100
AcDbLine
 10
155.6584491982
 20
147.93253527190001
 30
0.0
 11
260.01606413080003
 21
206.00820661745001
 31
0.0
  0
POLYLINE
  5
F2
100
AcDbEntity
  8
0
370
              25
  6
Continuous
 62
               7
100
AcDb2dPolyline
 66
               1
 10
0.0
 20
0.0
 30
0.0
 75
               5
  0
VERTEX
  5
F3
100
AcDbEntity
  8
0
370
              25
  6
Continuous
 62
               7
100
AcDbVertex
100
AcDb2dVertex
 10
260.66536723625001
 20
203.80141160420001
 30
0.0
  0
VERTEX
  5
F4
100
AcDbEntity
  8
0
370
              25
  6
Continuous
 62
               7
100
AcDbVertex
100
AcDb2dVertex
 10
260.38631553125003
 20
203.59365066584999
 30
0.0
  0
VERTEX
  5
F5
100
AcDbEntity
  8
0
370
              25
  6
Continuous
 62
               7
100
AcDbVertex
100
AcDb2dVertex
 10
260.23085940010003
 20
203.35439895715001
 30
0.0
  0
VERTEX
  5
F6
100
AcDbEntity
  8
0
370
              25
  6
Continuous
 62
               7
100
AcDbVertex
100
AcDb2dVertex
 10
260.21281391975003
 20
203.10491660209999
 30
0.0
  0
VERTEX
  5
F7
100
AcDbEntity
  8
0
370
              25
  6
Continuous
 62
               7
100
AcDbVertex
100
AcDb2dVertex
 10
260.33378598604997
 20
202.86737301790001
 30
0.0
  0
VERTEX
  5
F8
100
AcDbEntity
  8
0
370
              25
  6
Continuous
 62
               7
100
AcDbVertex
100
AcDb2dVertex
 10
260.58301930555001
 20
202.6628706354
 30
0.0
  0
VERTEX
  5
F9
100
AcDbEntity
  8
0
370
              25
  6
Continuous
 62
               7
100
AcDbVertex
100
AcDb2dVertex
 10
260.93837334235002
 20
202.50958395955001
 30
0.0
  0
VERTEX
  5
FA
100
AcDbEntity
  8
0
370
              25
  6
Continuous
 62
               7
100
AcDbVertex
100
AcDb2dVertex
 10
261.36827125050002
 20
202.42113096255
 30
0.0
  0
VERTEX
  5
FB
100
AcDbEntity
  8
0
370
              25
  6
Continuous
 62
               7
100
AcDbVertex
100
AcDb2dVertex
 10
261.8345168102
 20
202.40537291550001
 30
0.0
  0
VERTEX
  5
FC
100
AcDbEntity
  8
0
370
              25
  6
Continuous
 62
               7
100
AcDbVertex
100
AcDb2dVertex
 10
262.29568201469999
 20
202.46370951455
 30
0.0
  0
VERTEX
  5
FD
100
AcDbEntity
  8
0
370
              25
  6
Continuous
 62
               7
100
AcDbVertex
100
AcDb2dVertex
 10
262.71079036410003
 20
202.59095791355
 30
0.0
  0
VERTEX
  5
FE
100
AcDbEntity
  8
0
370
              25
  6
Continuous
 62
               7
100
AcDbVertex
100
AcDb2dVertex
 10
263.04295425370003
 20
202.77580921455001
 30
0.0
  0
VERTEX
  5
FF
100
AcDbEntity
  8
0
370
              25
  6
Continuous
 62
               7
100
AcDbVertex
100
AcDb2dVertex
 10
263.26265936724997
 20
203.0018385141
 30
0.0
  0
VERTEX
  5
100
100
AcDbEntity
  8
0
370
              25
  6
Continuous
 62
               7
100
AcDbVertex
100
AcDb2dVertex
 10
263.35038981119999
 20
203.24896580775001
 30
0.0
  0
VERTEX
  5
101
100
AcDbEntity
  8
0
370
              25
  6
Continuous
 62
               7
100
AcDbVertex
100
AcDb2dVertex
 10
263.29834623830004
 20
203.4952298746
 30
0.0
  0
VERTEX
  5
102
100
AcDbEntity
  8
0
370
              25
  6
Continuous
 62
               7
100
AcDbVertex
100
AcDb2dVertex
 10
263.11115205484998
 20
203.71874902619999
 30
0.0
  0
VERTEX
  5
103
100
AcDbEntity
  8
0
370
              25
  6
Continuous
 62
               7
100
AcDbVertex
100
AcDb2dVertex
 10
262.80544363900003
 20
203.89966380345001
 30
0.0
  0
VERTEX
  5
104
100
AcDbEntity
  8
0
370
              25
  6
Continuous
 62
               7
100
AcDbVertex
100
AcDb2dVertex
 10
262.40838044124996
 20
204.02189792564999
 30
0.0
  0
VERTEX
  5
105
100
AcDbEntity
  8
0
370
              25
  6
Continuous
 62
               7
100
AcDbVertex
100
AcDb2dVertex
 10
261.95524975665001
 20
204.0745931424
 30
0.0
  0
VERTEX
  5
106
100
AcDbEntity
  8
0
370
              25
  6
Continuous
 62
               7
100
AcDbVertex
100
AcDb2dVertex
 10
261.48630638104999
 20
204.0530631256
 30
0.0
  0
VERTEX
  5
107
100
AcDbEntity
  8
0
370
              25
  6
Continuous
 62
               7
100
AcDbVertex
100
AcDb2dVertex
 10
261.04322124275001
 20
203.9592228402
 30
0.0
  0
VERTEX
  5
108
100
AcDbEntity
  8
0
370
              25
  6
Continuous
 62
               7
100
AcDbVertex
100
AcDb2dVertex
 10
260.66536723625001
 20
203.80141160420001
 30
0.0
  0
SEQEND
  5
109
100
AcDbEntity
  8
0
370
              25
  6
Continuous
 62
               7
  0
POLYLINE
  5
10A
100
AcDbEntity
  8
0
370
              25
  6
Continuous
 62
               7
100
AcDb2dPolyline
 66
               1
 10
0.0
 20
0.0
 30
0.0
 75
               5
  0
VERTEX
  5
10B
100
AcDbEntity
  8
0
370
              25
  6
Continuous
 62
               7
100
AcDbVertex
100
AcDb2dVertex
 10
159.84529535614999
 20
147.69440529389999
 30
0.0
  0
VERTEX
  5
10C
100
AcDbEntity
  8
0
370
              25
  6
Continuous
 62
               7
100
AcDbVertex
100
AcDb2dVertex
 10
159.5662436511
 20
147.48664435555
 30
0.0
  0
VERTEX
  5
10D
100
AcDbEntity
  8
0
370
              25
  6
Continuous
 62
               7
100
AcDbVertex
100
AcDb2dVertex
 10
159.41078751994999
 20
147.24739264689998
 30
0.0
  0
VERTEX
  5
10E
100
AcDbEntity
  8
0
370
              25
  6
Continuous
 62
               7
100
AcDbVertex
100
AcDb2dVertex
 10
159.39274203959999
 20
146.99791029185002
 30
0.0
  0
VERTEX
  5
10F
100
AcDbEntity
  8
0
370
              25
  6
Continuous
 62
               7
100
AcDbVertex
100
AcDb2dVertex
 10
159.51371410594999
 20
146.76036670765001
 30
0.0
  0
VERTEX
  5
110
100
AcDbEntity
  8
0
370
              25
  6
Continuous
 62
               7
100
AcDbVertex
100
AcDb2dVertex
 10
159.7629474254
 20
146.55586432515
 30
0.0
  0
VERTEX
  5
111
100
AcDbEntity
  8
0
370
              25
  6
Continuous
 62
               7
100
AcDbVertex
100
AcDb2dVertex
 10
160.11830146220001
 20
146.40257764929999
 30
0.0
  0
VERTEX
  5
112
100
AcDbEntity
  8
0
370
              25
  6
Continuous
 62
               7
100
AcDbVertex
100
AcDb2dVertex
 10
160.5481993704
 20
146.31412465229999
 30
0.0
  0
VERTEX
  5
113
100
AcDbEntity
  8
0
370
              25
  6
Continuous
 62
               7
100
AcDbVertex
100
AcDb2dVertex
 10
161.01444493004999
 20
146.29836660525001
 30
0.0
  0
VERTEX
  5
114
100
AcDbEntity
  8
0
370
              25
  6
Continuous
 62
               7
100
AcDbVertex
100
AcDb2dVertex
 10
161.4756101346
 20
146.3567032043
 30
0.0
  0
VERTEX
  5
115
100
AcDbEntity
  8
0
370
              25
  6
Continuous
 62
               7
100
AcDbVertex
100
AcDb2dVertex
 10
161.89071321259999
 20
146.48394866975002
 30
0.0
  0
VERTEX
  5
116
100
AcDbEntity
  8
0
370
              25
  6
Continuous
 62
               7
100
AcDbVertex
100
AcDb2dVertex
 10
162.22287710225001
 20
146.66879997075
 30
0.0
  0
VERTEX
  5
117
100
AcDbEntity
  8
0
370
              25
  6
Continuous
 62
               7
100
AcDbVertex
100
AcDb2dVertex
 10
162.44258748710001
 20
146.89483220385
 30
0.0
  0
VERTEX
  5
118
100
AcDbEntity
  8
0
370
              25
  6
Continuous
 62
               7
100
AcDbVertex
100
AcDb2dVertex
 10
162.5303179311
 20
147.14195949750001
 30
0.0
  0
VERTEX
  5
119
100
AcDbEntity
  8
0
370
              25
  6
Continuous
 62
               7
100
AcDbVertex
100
AcDb2dVertex
 10
162.47827435815
 20
147.38822356435
 30
0.0
  0
VERTEX
  5
11A
100
AcDbEntity
  8
0
370
              25
  6
Continuous
 62
               7
100
AcDbVertex
100
AcDb2dVertex
 10
162.29108017474999
 20
147.61174271595002
 30
0.0
  0
VERTEX
  5
11B
100
AcDbEntity
  8
0
370
              25
  6
Continuous
 62
               7
100
AcDbVertex
100
AcDb2dVertex
 10
161.98537175889999
 20
147.79265749320001
 30
0.0
  0
VERTEX
  5
11C
100
AcDbEntity
  8
0
370
              25
  6
Continuous
 62
               7
100
AcDbVertex
100
AcDb2dVertex
 10
161.58830856110001
 20
147.91489161539999
 30
0.0
  0
VERTEX
  5
11D
100
AcDbEntity
  8
0
370
              25
  6
Continuous
 62
               7
100
AcDbVertex
100
AcDb2dVertex
 10
161.13517787649999
 20
147.96758683215
 30
0.0
  0
VERTEX
  5
11E
100
AcDbEntity
  8
0
370
              25
  6
Continuous
 62
               7
100
AcDbVertex
100
AcDb2dVertex
 10
160.6662345009
 20
147.94605681535
 30
0.0
  0
VERTEX
  5
11F
100
AcDbEntity
  8
0
370
              25
  6
Continuous
 62
               7
100
AcDbVertex
100
AcDb2dVertex
 10
160.2231493626
 20
147.85221652995
 30
0.0
  0
VERTEX
  5
120
100
AcDbEntity
  8
0
370
              25
  6
Continuous
 62
               7
100
AcDbVertex
100
AcDb2dVertex
 10
159.84529535614999
 20
147.69440529389999
 30
0.0
  0
SEQEND
  5
121
100
AcDbEntity
  8
0
370
              25
  6
Continuous
 62
               7
  0
LINE
  5
122
100
AcDbEntity
  8
0
370
              25
  6
Continuous
 62
               7
100
AcDbLine
 10
152.13550457159999
 20
149.52571314835001
 30
0.0
 11
152.12841356109999
 21
149.71715189125001
 31
0.0
  0
LINE
  5
123
100
AcDbEntity
  8
0
370
              25
  6
Continuous
 62
               7
100
AcDbLine
 10
146.84045111595
 20
152.2026380774
 30
0.0
 11
146.8333601054
 21
152.39407682025001
 31
0.0
  0
LINE
  5
124
100
AcDbEntity
  8
0
370
              25
  6
Continuous
 62
               7
100
AcDbLine
 10
152.12841356109999
 20
149.71715189125001
 30
0.0
 11
146.8333601054
 21
152.39407682025001
 31
0.0
  0
LINE
  5
125
100
AcDbEntity
  8
0
370
              25
  6
Continuous
 62
               7
100
AcDbLine
 10
256.50805481625002
 20
207.19817012285
 30
0.0
 11
256.48602849370002
 21
207.79282323679999
 31
0.0
  0
LINE
  5
126
100
AcDbEntity
  8
0
370
              25
  6
Continuous
 62
               7
100
AcDbLine
 10
256.48602849370002
 20
207.79282323679999
 30
0.0
 11
152.12841356109999
 21
149.71715189125001
 31
0.0
  0
LINE
  5
127
100
AcDbEntity
  8
0
370
              25
  6
Continuous
 62
               7
100
AcDbLine
 10
146.8333601054
 20
152.39407682025001
 30
0.0
 11
251.190975038
 21
210.46974816585001
 31
0.0
  0
LINE
  5
128
100
AcDbEntity
  8
0
370
              25
  6
Continuous
 62
               7
100
AcDbLine
 10
251.190975038
 20
210.46974816585001
 30
0.0
 11
256.48602849370002
 21
207.79282323679999
 31
0.0
  0
POLYLINE
  5
129
100
AcDbEntity
  8
0
370
              25
  6
Continuous
 62
               7
100
AcDb2dPolyline
 66
               1
 10
0.0
 20
0.0
 30
0.0
 75
               5
  0
VERTEX
  5
12A
100
AcDbEntity
  8
0
370
              25
  6
Continuous
 62
               7
100
AcDbVertex
100
AcDb2dVertex
 10
151.47911045559999
 20
151.92394690449999
 30
0.0
  0
VERTEX
  5
12B
100
AcDbEntity
  8
0
370
              25
  6
Continuous
 62
               7
100
AcDbVertex
100
AcDb2dVertex
 10
151.75816216064999
 20
152.13170784285001
 30
0.0
  0
VERTEX
  5
12C
100
AcDbEntity
  8
0
370
              25
  6
Continuous
 62
               7
100
AcDbVertex
100
AcDb2dVertex
 10
151.91361829179999
 20
152.37095955155002
 30
0.0
  0
VERTEX
  5
12D
100
AcDbEntity
  8
0
370
              25
  6
Continuous
 62
               7
100
AcDbVertex
100
AcDb2dVertex
 10
151.93166377214999
 20
152.62044190660001
 30
0.0
  0
VERTEX
  5
12E
100
AcDbEntity
  8
0
370
              25
  6
Continuous
 62
               7
100
AcDbVertex
100
AcDb2dVertex
 10
151.8106917058
 20
152.85798549079999
 30
0.0
  0
VERTEX
  5
12F
100
AcDbEntity
  8
0
370
              25
  6
Continuous
 62
               7
100
AcDbVertex
100
AcDb2dVertex
 10
151.56145838635001
 20
153.0624878733
 30
0.0
  0
VERTEX
  5
130
100
AcDbEntity
  8
0
370
              25
  6
Continuous
 62
               7
100
AcDbVertex
100
AcDb2dVertex
 10
151.20610434955
 20
153.21577454915001
 30
0.0
  0
VERTEX
  5
131
100
AcDbEntity
  8
0
370
              25
  6
Continuous
 62
               7
100
AcDbVertex
100
AcDb2dVertex
 10
150.77620644140001
 20
153.30422754615
 30
0.0
  0
VERTEX
  5
132
100
AcDbEntity
  8
0
370
              25
  6
Continuous
 62
               7
100
AcDbVertex
100
AcDb2dVertex
 10
150.30996088169999
 20
153.31998559319999
 30
0.0
  0
VERTEX
  5
133
100
AcDbEntity
  8
0
370
              25
  6
Continuous
 62
               7
100
AcDbVertex
100
AcDb2dVertex
 10
149.84879567715001
 20
153.26164899414999
 30
0.0
  0
VERTEX
  5
134
100
AcDbEntity
  8
0
370
              25
  6
Continuous
 62
               7
100
AcDbVertex
100
AcDb2dVertex
 10
149.43368732779999
 20
153.13440059515
 30
0.0
  0
VERTEX
  5
135
100
AcDbEntity
  8
0
370
              25
  6
Continuous
 62
               7
100
AcDbVertex
100
AcDb2dVertex
 10
149.10152343815
 20
152.94954929415002
 30
0.0
  0
VERTEX
  5
136
100
AcDbEntity
  8
0
370
              25
  6
Continuous
 62
               7
100
AcDbVertex
100
AcDb2dVertex
 10
148.88181832465
 20
152.72351999455
 30
0.0
  0
VERTEX
  5
137
100
AcDbEntity
  8
0
370
              25
  6
Continuous
 62
               7
100
AcDbVertex
100
AcDb2dVertex
 10
148.79408788065001
 20
152.47639270094999
 30
0.0
  0
VERTEX
  5
138
100
AcDbEntity
  8
0
370
              25
  6
Continuous
 62
               7
100
AcDbVertex
100
AcDb2dVertex
 10
148.84613145360001
 20
152.2301286341
 30
0.0
  0
VERTEX
  5
139
100
AcDbEntity
  8
0
370
              25
  6
Continuous
 62
               7
100
AcDbVertex
100
AcDb2dVertex
 10
149.03332563699999
 20
152.00660948249998
 30
0.0
  0
VERTEX
  5
13A
100
AcDbEntity
  8
0
370
              25
  6
Continuous
 62
               7
100
AcDbVertex
100
AcDb2dVertex
 10
149.33903405285
 20
151.82569470524999
 30
0.0
  0
VERTEX
  5
13B
100
AcDbEntity
  8
0
370
              25
  6
Continuous
 62
               7
100
AcDbVertex
100
AcDb2dVertex
 10
149.73609725065
 20
151.70346058299998
 30
0.0
  0
VERTEX
  5
13C
100
AcDbEntity
  8
0
370
              25
  6
Continuous
 62
               7
100
AcDbVertex
100
AcDb2dVertex
 10
150.18922793525002
 20
151.65076536625
 30
0.0
  0
VERTEX
  5
13D
100
AcDbEntity
  8
0
370
              25
  6
Continuous
 62
               7
100
AcDbVertex
100
AcDb2dVertex
 10
150.65817131085001
 20
151.67229538309999
 30
0.0
  0
VERTEX
  5
13E
100
AcDbEntity
  8
0
370
              25
  6
Continuous
 62
               7
100
AcDbVertex
100
AcDb2dVertex
 10
151.10125644915001
 20
151.76613566845
 30
0.0
  0
VERTEX
  5
13F
100
AcDbEntity
  8
0
370
              25
  6
Continuous
 62
               7
100
AcDbVertex
100
AcDb2dVertex
 10
151.47911045559999
 20
151.92394690449999
 30
0.0
  0
SEQEND
  5
140
100
AcDbEntity
  8
0
370
              25
  6
Continuous
 62
               7
  0
POLYLINE
  5
141
100
AcDbEntity
  8
0
370
              25
  6
Continuous
 62
               7
100
AcDb2dPolyline
 66
               1
 10
0.0
 20
0.0
 30
0.0
 75
               5
  0
VERTEX
  5
142
100
AcDbEntity
  8
0
370
              25
  6
Continuous
 62
               7
100
AcDbVertex
100
AcDb2dVertex
 10
252.29918233575
 20
208.03095321475001
 30
0.0
  0
VERTEX
  5
143
100
AcDbEntity
  8
0
370
              25
  6
Continuous
 62
               7
100
AcDbVertex
100
AcDb2dVertex
 10
252.57823404075
 20
208.23871415310001
 30
0.0
  0
VERTEX
  5
144
100
AcDbEntity
  8
0
370
              25
  6
Continuous
 62
               7
100
AcDbVertex
100
AcDb2dVertex
 10
252.73369017195
 20
208.47796586179999
 30
0.0
  0
VERTEX
  5
145
100
AcDbEntity
  8
0
370
              25
  6
Continuous
 62
               7
100
AcDbVertex
100
AcDb2dVertex
 10
252.75173565225001
 20
208.72744821685001
 30
0.0
  0
VERTEX
  5
146
100
AcDbEntity
  8
0
370
              25
  6
Continuous
 62
               7
100
AcDbVertex
100
AcDb2dVertex
 10
252.63076358595001
 20
208.96499180104999
 30
0.0
  0
VERTEX
  5
147
100
AcDbEntity
  8
0
370
              25
  6
Continuous
 62
               7
100
AcDbVertex
100
AcDb2dVertex
 10
252.38153026645
 20
209.16949418355
 30
0.0
  0
VERTEX
  5
148
100
AcDbEntity
  8
0
370
              25
  6
Continuous
 62
               7
100
AcDbVertex
100
AcDb2dVertex
 10
252.02617622964999
 20
209.32278085940001
 30
0.0
  0
VERTEX
  5
149
100
AcDbEntity
  8
0
370
              25
  6
Continuous
 62
               7
100
AcDbVertex
100
AcDb2dVertex
 10
251.59627832149999
 20
209.4112338564
 30
0.0
  0
VERTEX
  5
14A
100
AcDbEntity
  8
0
370
              25
  6
Continuous
 62
               7
100
AcDbVertex
100
AcDb2dVertex
 10
251.13003276180001
 20
209.42699190344999
 30
0.0
  0
VERTEX
  5
14B
100
AcDbEntity
  8
0
370
              25
  6
Continuous
 62
               7
100
AcDbVertex
100
AcDb2dVertex
 10
250.66886755729999
 20
209.36865530439999
 30
0.0
  0
VERTEX
  5
14C
100
AcDbEntity
  8
0
370
              25
  6
Continuous
 62
               7
100
AcDbVertex
100
AcDb2dVertex
 10
250.2537644793
 20
209.24140983895001
 30
0.0
  0
VERTEX
  5
14D
100
AcDbEntity
  8
0
370
              25
  6
Continuous
 62
               7
100
AcDbVertex
100
AcDb2dVertex
 10
249.92160058965001
 20
209.05655853795
 30
0.0
  0
VERTEX
  5
14E
100
AcDbEntity
  8
0
370
              25
  6
Continuous
 62
               7
100
AcDbVertex
100
AcDb2dVertex
 10
249.70189020474999
 20
208.8305263048
 30
0.0
  0
VERTEX
  5
14F
100
AcDbEntity
  8
0
370
              25
  6
Continuous
 62
               7
100
AcDbVertex
100
AcDb2dVertex
 10
249.61415976079999
 20
208.58339901119999
 30
0.0
  0
VERTEX
  5
150
100
AcDbEntity
  8
0
370
              25
  6
Continuous
 62
               7
100
AcDbVertex
100
AcDb2dVertex
 10
249.6662033337
 20
208.33713494435
 30
0.0
  0
VERTEX
  5
151
100
AcDbEntity
  8
0
370
              25
  6
Continuous
 62
               7
100
AcDbVertex
100
AcDb2dVertex
 10
249.85339751715
 20
208.11361579275001
 30
0.0
  0
VERTEX
  5
152
100
AcDbEntity
  8
0
370
              25
  6
Continuous
 62
               7
100
AcDbVertex
100
AcDb2dVertex
 10
250.15910593300001
 20
207.93270101549999
 30
0.0
  0
VERTEX
  5
153
100
AcDbEntity
  8
0
370
              25
  6
Continuous
 62
               7
100
AcDbVertex
100
AcDb2dVertex
 10
250.55616913074999
 20
207.81046689325001
 30
0.0
  0
VERTEX
  5
154
100
AcDbEntity
  8
0
370
              25
  6
Continuous
 62
               7
100
AcDbVertex
100
AcDb2dVertex
 10
251.0092998154
 20
207.7577716765
 30
0.0
  0
VERTEX
  5
155
100
AcDbEntity
  8
0
370
              25
  6
Continuous
 62
               7
100
AcDbVertex
100
AcDb2dVertex
 10
251.47824319099999
 20
207.77930169334999
 30
0.0
  0
VERTEX
  5
156
100
AcDbEntity
  8
0
370
              25
  6
Continuous
 62
               7
100
AcDbVertex
100
AcDb2dVertex
 10
251.92132832925
 20
207.8731419787
 30
0.0
  0
VERTEX
  5
157
100
AcDbEntity
  8
0
370
              25
  6
Continuous
 62
               7
100
AcDbVertex
100
AcDb2dVertex
 10
252.29918233575
 20
208.03095321475001
 30
0.0
  0
SEQEND
  5
158
100
AcDbEntity
  8
0
370
              25
  6
Continuous
 62
               7
  0
POLYLINE
  5
159
100
AcDbEntity
  8
0
370
              25
  6
Continuous
 62
               7
100
AcDb2dPolyline
 66
               1
 10
0.0
 20
0.0
 30
0.0
 75
               5
  0
VERTEX
  5
15A
100
AcDbEntity
  8
0
370
              25
  6
Continuous
 62
               7
100
AcDbVertex
100
AcDb2dVertex
 10
252.65490142544999
 20
208.79471560409999
 30
0.0
  0
VERTEX
  5
15B
100
AcDbEntity
  8
0
370
              25
  6
Continuous
 62
               7
100
AcDbVertex
100
AcDb2dVertex
 10
252.67992539265001
 20
208.55843314769999
 30
0.0
  0
VERTEX
  5
15C
100
AcDbEntity
  8
0
370
              25
  6
Continuous
 62
               7
100
AcDbVertex
100
AcDb2dVertex
 10
252.57231434545
 20
208.32523068565001
 30
0.0
  0
VERTEX
  5
15D
100
AcDbEntity
  8
0
370
              25
  6
Continuous
 62
               7
100
AcDbVertex
100
AcDb2dVertex
 10
252.34163732204999
 20
208.11583326025001
 30
0.0
  0
VERTEX
  5
15E
100
AcDbEntity
  8
0
370
              25
  6
Continuous
 62
               7
100
AcDbVertex
100
AcDb2dVertex
 10
252.00838433519999
 20
207.94884307449999
 30
0.0
  0
VERTEX
  5
15F
100
AcDbEntity
  8
0
370
              25
  6
Continuous
 62
               7
100
AcDbVertex
100
AcDb2dVertex
 10
251.60216459405001
 20
207.83909747480001
 30
0.0
  0
VERTEX
  5
160
100
AcDbEntity
  8
0
370
              25
  6
Continuous
 62
               7
100
AcDbVertex
100
AcDb2dVertex
 10
251.1590777042
 20
207.79634986184999
 30
0.0
  0
VERTEX
  5
161
100
AcDbEntity
  8
0
370
              25
  6
Continuous
 62
               7
100
AcDbVertex
100
AcDb2dVertex
 10
250.71848977364999
 20
207.8243970135
 30
0.0
  0
VERTEX
  5
162
100
AcDbEntity
  8
0
370
              25
  6
Continuous
 62
               7
100
AcDbVertex
100
AcDb2dVertex
 10
250.31955457199999
 20
207.92074958424999
 30
0.0
  0
VERTEX
  5
163
100
AcDbEntity
  8
0
370
              25
  6
Continuous
 62
               7
100
AcDbVertex
100
AcDb2dVertex
 10
249.9977104267
 20
208.07684112855
 30
0.0
  0
VERTEX
  5
164
100
AcDbEntity
  8
0
370
              25
  6
Continuous
 62
               7
100
AcDbVertex
100
AcDb2dVertex
 10
249.78156461750001
 20
208.27880821670001
 30
0.0
  0
VERTEX
  5
165
100
AcDbEntity
  8
0
370
              25
  6
Continuous
 62
               7
100
AcDbVertex
100
AcDb2dVertex
 10
249.69031307575
 20
208.50869973650001
 30
0.0
  0
VERTEX
  5
166
100
AcDbEntity
  8
0
370
              25
  6
Continuous
 62
               7
100
AcDbVertex
100
AcDb2dVertex
 10
249.73207215625001
 20
208.7460928605
 30
0.0
  0
VERTEX
  5
167
100
AcDbEntity
  8
0
370
              25
  6
Continuous
 62
               7
100
AcDbVertex
100
AcDb2dVertex
 10
249.90312367640001
 20
208.96989113525001
 30
0.0
  0
VERTEX
  5
168
100
AcDbEntity
  8
0
370
              25
  6
Continuous
 62
               7
100
AcDbVertex
100
AcDb2dVertex
 10
250.18827773445
 20
209.16021249765001
 30
0.0
  0
VERTEX
  5
169
100
AcDbEntity
  8
0
370
              25
  6
Continuous
 62
               7
100
AcDbVertex
100
AcDb2dVertex
 10
250.56218864015
 20
209.30014254950001
 30
0.0
  0
VERTEX
  5
16A
100
AcDbEntity
  8
0
370
              25
  6
Continuous
 62
               7
100
AcDbVertex
100
AcDb2dVertex
 10
250.99163856129999
 20
209.37725053369999
 30
0.0
  0
VERTEX
  5
16B
100
AcDbEntity
  8
0
370
              25
  6
Continuous
 62
               7
100
AcDbVertex
100
AcDb2dVertex
 10
251.43846666530001
 20
209.38468380450001
 30
0.0
  0
VERTEX
  5
16C
100
AcDbEntity
  8
0
370
              25
  6
Continuous
 62
               7
100
AcDbVertex
100
AcDb2dVertex
 10
251.86297119385
 20
209.32178247044999
 30
0.0
  0
VERTEX
  5
16D
100
AcDbEntity
  8
0
370
              25
  6
Continuous
 62
               7
100
AcDbVertex
100
AcDb2dVertex
 10
252.22743218319999
 20
209.19413477994999
 30
0.0
  0
VERTEX
  5
16E
100
AcDbEntity
  8
0
370
              25
  6
Continuous
 62
               7
100
AcDbVertex
100
AcDb2dVertex
 10
252.49946195285
 20
209.01308135075001
 30
0.0
  0
VERTEX
  5
16F
100
AcDbEntity
  8
0
370
              25
  6
Continuous
 62
               7
100
AcDbVertex
100
AcDb2dVertex
 10
252.65490142544999
 20
208.79471560409999
 30
0.0
  0
SEQEND
  5
170
100
AcDbEntity
  8
0
370
              25
  6
Continuous
 62
               7
  0
LINE
  5
171
100
AcDbEntity
  8
0
370
              25
  6
Continuous
 62
               7
100
AcDbLine
 10
252.1086446985
 20
208.61124105779999
 30
0.0
 11
252.02701374750001
 21
208.81690370410001
 31
0.0
  0
LINE
  5
172
100
AcDbEntity
  8
0
370
              25
  6
Continuous
 62
               7
100
AcDbLine
 10
252.02701374750001
 20
208.81690370410001
 30
0.0
 11
251.63563425555
 21
208.76314242239999
 31
0.0
  0
ARC
  5
173
100
AcDbEntity
  8
0
370
              25
  6
Continuous
 62
               7
100
AcDbCircle
 10
251.54586879390001
 20
209.09293218420001
 30
0.0
 40
0.34178812894559
100
AcDbArc
 50
219.16633991729927
 51
285.22646029340245
  0
LINE
  5
174
100
AcDbEntity
  8
0
370
              25
  6
Continuous
 62
               7
100
AcDbLine
 10
251.28087510545001
 20
208.87706771245001
 30
0.0
 11
251.19923921185
 21
209.08272725895
 31
0.0
  0
LINE
  5
175
100
AcDbEntity
  8
0
370
              25
  6
Continuous
 62
               7
100
AcDbLine
 10
251.19923921185
 20
209.08272725895
 30
0.0
 11
250.80785939110001
 21
209.02896614344999
 31
0.0
  0
LINE
  5
176
100
AcDbEntity
  8
0
370
              25
  6
Continuous
 62
               7
100
AcDbLine
 10
250.80785939110001
 20
209.02896614344999
 30
0.0
 11
250.88949001335001
 21
208.8233036634
 31
0.0
  0
POLYLINE
  5
177
100
AcDbEntity
  8
0
370
              25
  6
Continuous
 62
               7
100
AcDb2dPolyline
 66
               1
 10
0.0
 20
0.0
 30
0.0
 75
               5
  0
VERTEX
  5
178
100
AcDbEntity
  8
0
370
              25
  6
Continuous
 62
               7
100
AcDbVertex
100
AcDb2dVertex
 10
250.88949001335001
 20
208.8233036634
 30
0.0
  0
VERTEX
  5
179
100
AcDbEntity
  8
0
370
              25
  6
Continuous
 62
               7
100
AcDbVertex
100
AcDb2dVertex
 10
250.89579487565001
 20
208.79243731074999
 30
0.0
  0
VERTEX
  5
17A
100
AcDbEntity
  8
0
370
              25
  6
Continuous
 62
               7
100
AcDbVertex
100
AcDb2dVertex
 10
250.89057944915001
 20
208.7612087359
 30
0.0
  0
VERTEX
  5
17B
100
AcDbEntity
  8
0
370
              25
  6
Continuous
 62
               7
100
AcDbVertex
100
AcDb2dVertex
 10
250.874035685
 20
208.73081414775001
 30
0.0
  0
VERTEX
  5
17C
100
AcDbEntity
  8
0
370
              25
  6
Continuous
 62
               7
100
AcDbVertex
100
AcDb2dVertex
 10
250.84681095254999
 20
208.70242666190001
 30
0.0
  0
VERTEX
  5
17D
100
AcDbEntity
  8
0
370
              25
  6
Continuous
 62
               7
100
AcDbVertex
100
AcDb2dVertex
 10
250.80994341215001
 20
208.67713379829999
 30
0.0
  0
VERTEX
  5
17E
100
AcDbEntity
  8
0
370
              25
  6
Continuous
 62
               7
100
AcDbVertex
100
AcDb2dVertex
 10
250.7648520852
 20
208.65590891080001
 30
0.0
  0
VERTEX
  5
17F
100
AcDbEntity
  8
0
370
              25
  6
Continuous
 62
               7
100
AcDbVertex
100
AcDb2dVertex
 10
250.71326963025001
 20
208.6395667932
 30
0.0
  0
VERTEX
  5
180
100
AcDbEntity
  8
0
370
              25
  6
Continuous
 62
               7
100
AcDbVertex
100
AcDb2dVertex
 10
250.65718239669999
 20
208.62873800065
 30
0.0
  0
SEQEND
  5
181
100
AcDbEntity
  8
0
370
              25
  6
Continuous
 62
               7
  0
LINE
  5
182
100
AcDbEntity
  8
0
370
              25
  6
Continuous
 62
               7
100
AcDbLine
 10
250.65718239669999
 20
208.62873800065
 30
0.0
 11
250.26579796215
 21
208.57497361919999
 31
0.0
  0
LINE
  5
183
100
AcDbEntity
  8
0
370
              25
  6
Continuous
 62
               7
100
AcDbLine
 10
250.26579796215
 20
208.57497361919999
 30
0.0
 11
250.34743385569999
 21
208.36931407265001
 31
0.0
  0
LINE
  5
184
100
AcDbEntity
  8
0
370
              25
  6
Continuous
 62
               7
100
AcDbLine
 10
250.34743385569999
 20
208.36931407265001
 30
0.0
 11
250.73881334769999
 21
208.42307535435
 31
0.0
  0
ARC
  5
185
100
AcDbEntity
  8
0
370
              25
  6
Continuous
 62
               7
100
AcDbCircle
 10
250.828572025
 20
208.09326446644999
 30
0.0
 40
0.3418067318579189
100
AcDbArc
 50
39.168367292000163
 51
105.2244329185976
  0
LINE
  5
186
100
AcDbEntity
  8
0
370
              25
  6
Continuous
 62
               7
100
AcDbLine
 10
251.09357249780001
 20
208.30915006430001
 30
0.0
 11
251.1752034488
 21
208.10348741805001
 31
0.0
  0
LINE
  5
187
100
AcDbEntity
  8
0
370
              25
  6
Continuous
 62
               7
100
AcDbLine
 10
251.1752034488
 20
208.10348741805001
 30
0.0
 11
251.56658326954999
 21
208.15724853354999
 31
0.0
  0
LINE
  5
188
100
AcDbEntity
  8
0
370
              25
  6
Continuous
 62
               7
100
AcDbLine
 10
251.56658326954999
 20
208.15724853354999
 30
0.0
 11
251.48495231855
 21
208.36291117979999
 31
0.0
  0
POLYLINE
  5
189
100
AcDbEntity
  8
0
370
              25
  6
Continuous
 62
               7
100
AcDb2dPolyline
 66
               1
 10
0.0
 20
0.0
 30
0.0
 75
               5
  0
VERTEX
  5
18A
100
AcDbEntity
  8
0
370
              25
  6
Continuous
 62
               7
100
AcDbVertex
100
AcDb2dVertex
 10
251.48495231855
 20
208.36291117979999
 30
0.0
  0
VERTEX
  5
18B
100
AcDbEntity
  8
0
370
              25
  6
Continuous
 62
               7
100
AcDbVertex
100
AcDb2dVertex
 10
251.47864745620001
 20
208.39377753245
 30
0.0
  0
VERTEX
  5
18C
100
AcDbEntity
  8
0
370
              25
  6
Continuous
 62
               7
100
AcDbVertex
100
AcDb2dVertex
 10
251.48386848285
 20
208.42500887464999
 30
0.0
  0
VERTEX
  5
18D
100
AcDbEntity
  8
0
370
              25
  6
Continuous
 62
               7
100
AcDbVertex
100
AcDb2dVertex
 10
251.50040664689999
 20
208.45540069545001
 30
0.0
  0
VERTEX
  5
18E
100
AcDbEntity
  8
0
370
              25
  6
Continuous
 62
               7
100
AcDbVertex
100
AcDb2dVertex
 10
251.52763697944999
 20
208.48379094865001
 30
0.0
  0
VERTEX
  5
18F
100
AcDbEntity
  8
0
370
              25
  6
Continuous
 62
               7
100
AcDbVertex
100
AcDb2dVertex
 10
251.56449924845001
 20
208.50908087869999
 30
0.0
  0
VERTEX
  5
190
100
AcDbEntity
  8
0
370
              25
  6
Continuous
 62
               7
100
AcDbVertex
100
AcDb2dVertex
 10
251.60959024664999
 20
208.53030593240001
 30
0.0
  0
VERTEX
  5
191
100
AcDbEntity
  8
0
370
              25
  6
Continuous
 62
               7
100
AcDbVertex
100
AcDb2dVertex
 10
251.66117270165
 20
208.54664804999999
 30
0.0
  0
VERTEX
  5
192
100
AcDbEntity
  8
0
370
              25
  6
Continuous
 62
               7
100
AcDbVertex
100
AcDb2dVertex
 10
251.7172652065
 20
208.5574797761
 30
0.0
  0
SEQEND
  5
193
100
AcDbEntity
  8
0
370
              25
  6
Continuous
 62
               7
  0
LINE
  5
194
100
AcDbEntity
  8
0
370
              25
  6
Continuous
 62
               7
100
AcDbLine
 10
251.7172652065
 20
208.5574797761
 30
0.0
 11
252.1086446985
 21
208.61124105779999
 31
0.0
  0
POLYLINE
  5
195
100
AcDbEntity
  8
0
370
              25
  6
Continuous
 62
               7
100
AcDb2dPolyline
 66
               1
 10
0.0
 20
0.0
 30
0.0
 75
               5
  0
VERTEX
  5
196
100
AcDbEntity
  8
0
370
              25
  6
Continuous
 62
               7
100
AcDbVertex
100
AcDb2dVertex
 10
250.90953774880001
 20
208.4199754771
 30
0.0
  0
VERTEX
  5
197
100
AcDbEntity
  8
0
370
              25
  6
Continuous
 62
               7
100
AcDbVertex
100
AcDb2dVertex
 10
250.90952237400001
 20
208.42183075035001
 30
0.0
  0
VERTEX
  5
198
100
AcDbEntity
  8
0
370
              25
  6
Continuous
 62
               7
100
AcDbVertex
100
AcDb2dVertex
 10
250.90947894690001
 20
208.42348186460001
 30
0.0
  0
SEQEND
  5
199
100
AcDbEntity
  8
0
370
              25
  6
Continuous
 62
               7
  0
LINE
  5
19A
100
AcDbEntity
  8
0
370
              25
  6
Continuous
 62
               7
100
AcDbLine
 10
250.90037624835
 20
208.6691825691
 30
0.0
 11
251.21296671019999
 21
208.71212069855
 31
0.0
  0
LINE
  5
19B
100
AcDbEntity
  8
0
370
              25
  6
Continuous
 62
               7
100
AcDbLine
 10
251.21296671019999
 20
208.71212069855
 30
0.0
 11
251.2946026038
 21
208.50646115205001
 31
0.0
  0
ARC
  5
19C
100
AcDbEntity
  8
0
370
              25
  6
Continuous
 62
               7
100
AcDbCircle
 10
251.50171114220001
 20
208.64216636059999
 30
0.0
 40
0.2476082597994536
100
AcDbArc
 50
213.23430615889794
 51
264.6530919490022
  0
LINE
  5
19D
100
AcDbEntity
  8
0
370
              25
  6
Continuous
 62
               7
100
AcDbLine
 10
252.02701374750001
 20
208.81690370410001
 30
0.0
 11
252.03500629339999
 21
208.60112586400001
 31
0.0
  0
LINE
  5
19E
100
AcDbEntity
  8
0
370
              25
  6
Continuous
 62
               7
100
AcDbLine
 10
251.2946026038
 20
208.50646115205001
 30
0.0
 11
251.28087510545001
 21
208.87706771245001
 31
0.0
  0
LINE
  5
19F
100
AcDbEntity
  8
0
370
              25
  6
Continuous
 62
               7
100
AcDbLine
 10
251.21296671019999
 20
208.71212069855
 30
0.0
 11
251.19923921185
 21
209.08272725895
 31
0.0
  0
POLYLINE
  5
1A0
100
AcDbEntity
  8
0
370
              25
  6
Continuous
 62
               7
100
AcDb2dPolyline
 66
               1
 10
0.0
 20
0.0
 30
0.0
 75
               5
  0
VERTEX
  5
1A1
100
AcDbEntity
  8
0
370
              25
  6
Continuous
 62
               7
100
AcDbVertex
100
AcDb2dVertex
 10
151.83482427395001
 20
152.68770636030001
 30
0.0
  0
VERTEX
  5
1A2
100
AcDbEntity
  8
0
370
              25
  6
Continuous
 62
               7
100
AcDbVertex
100
AcDb2dVertex
 10
151.85985351254999
 20
152.45142683745001
 30
0.0
  0
VERTEX
  5
1A3
100
AcDbEntity
  8
0
370
              25
  6
Continuous
 62
               7
100
AcDbVertex
100
AcDb2dVertex
 10
151.75224246530001
 20
152.21822437539998
 30
0.0
  0
VERTEX
  5
1A4
100
AcDbEntity
  8
0
370
              25
  6
Continuous
 62
               7
100
AcDbVertex
100
AcDb2dVertex
 10
151.52156544190001
 20
152.00882695000001
 30
0.0
  0
VERTEX
  5
1A5
100
AcDbEntity
  8
0
370
              25
  6
Continuous
 62
               7
100
AcDbVertex
100
AcDb2dVertex
 10
151.1883071837
 20
151.84183383070001
 30
0.0
  0
VERTEX
  5
1A6
100
AcDbEntity
  8
0
370
              25
  6
Continuous
 62
               7
100
AcDbVertex
100
AcDb2dVertex
 10
150.78209271394999
 20
151.73209116455001
 30
0.0
  0
VERTEX
  5
1A7
100
AcDbEntity
  8
0
370
              25
  6
Continuous
 62
               7
100
AcDbVertex
100
AcDb2dVertex
 10
150.33900582404999
 20
151.68934355160002
 30
0.0
  0
VERTEX
  5
1A8
100
AcDbEntity
  8
0
370
              25
  6
Continuous
 62
               7
100
AcDbVertex
100
AcDb2dVertex
 10
149.89841789350001
 20
151.71739070325
 30
0.0
  0
VERTEX
  5
1A9
100
AcDbEntity
  8
0
370
              25
  6
Continuous
 62
               7
100
AcDbVertex
100
AcDb2dVertex
 10
149.4994774205
 20
151.81374034045001
 30
0.0
  0
VERTEX
  5
1AA
100
AcDbEntity
  8
0
370
              25
  6
Continuous
 62
               7
100
AcDbVertex
100
AcDb2dVertex
 10
149.17763854660001
 20
151.9698348183
 30
0.0
  0
VERTEX
  5
1AB
100
AcDbEntity
  8
0
370
              25
  6
Continuous
 62
               7
100
AcDbVertex
100
AcDb2dVertex
 10
148.96148746599999
 20
152.17179897295
 30
0.0
  0
VERTEX
  5
1AC
100
AcDbEntity
  8
0
370
              25
  6
Continuous
 62
               7
100
AcDbVertex
100
AcDb2dVertex
 10
148.87024119559999
 20
152.40169342625001
 30
0.0
  0
VERTEX
  5
1AD
100
AcDbEntity
  8
0
370
              25
  6
Continuous
 62
               7
100
AcDbVertex
100
AcDb2dVertex
 10
148.91199500479999
 20
152.63908361670002
 30
0.0
  0
VERTEX
  5
1AE
100
AcDbEntity
  8
0
370
              25
  6
Continuous
 62
               7
100
AcDbVertex
100
AcDb2dVertex
 10
149.0830517963
 20
152.86288482499998
 30
0.0
  0
VERTEX
  5
1AF
100
AcDbEntity
  8
0
370
              25
  6
Continuous
 62
               7
100
AcDbVertex
100
AcDb2dVertex
 10
149.36820585435001
 20
153.05320618740001
 30
0.0
  0
VERTEX
  5
1B0
100
AcDbEntity
  8
0
370
              25
  6
Continuous
 62
               7
100
AcDbVertex
100
AcDb2dVertex
 10
149.74211675999999
 20
153.19313623925001
 30
0.0
  0
VERTEX
  5
1B1
100
AcDbEntity
  8
0
370
              25
  6
Continuous
 62
               7
100
AcDbVertex
100
AcDb2dVertex
 10
150.17156668115001
 20
153.27024422344999
 30
0.0
  0
VERTEX
  5
1B2
100
AcDbEntity
  8
0
370
              25
  6
Continuous
 62
               7
100
AcDbVertex
100
AcDb2dVertex
 10
150.61839478515
 20
153.27767749420002
 30
0.0
  0
VERTEX
  5
1B3
100
AcDbEntity
  8
0
370
              25
  6
Continuous
 62
               7
100
AcDbVertex
100
AcDb2dVertex
 10
151.04289931375001
 20
153.21477616020002
 30
0.0
  0
VERTEX
  5
1B4
100
AcDbEntity
  8
0
370
              25
  6
Continuous
 62
               7
100
AcDbVertex
100
AcDb2dVertex
 10
151.40735503175
 20
153.08712553614998
 30
0.0
  0
VERTEX
  5
1B5
100
AcDbEntity
  8
0
370
              25
  6
Continuous
 62
               7
100
AcDbVertex
100
AcDb2dVertex
 10
151.67939007270002
 20
152.90607504050001
 30
0.0
  0
VERTEX
  5
1B6
100
AcDbEntity
  8
0
370
              25
  6
Continuous
 62
               7
100
AcDbVertex
100
AcDb2dVertex
 10
151.83482427395001
 20
152.68770636030001
 30
0.0
  0
SEQEND
  5
1B7
100
AcDbEntity
  8
0
370
              25
  6
Continuous
 62
               7
  0
LINE
  5
1B8
100
AcDbEntity
  8
0
370
              25
  6
Continuous
 62
               7
100
AcDbLine
 10
151.28857281839998
 20
152.50423474755002
 30
0.0
 11
151.20693659605001
 21
152.70989446030001
 31
0.0
  0
LINE
  5
1B9
100
AcDbEntity
  8
0
370
              25
  6
Continuous
 62
               7
100
AcDbLine
 10
151.20693659605001
 20
152.70989446030001
 30
0.0
 11
150.81555710405001
 21
152.65613317859999
 31
0.0
  0
ARC
  5
1BA
100
AcDbEntity
  8
0
370
              25
  6
Continuous
 62
               7
100
AcDbCircle
 10
150.72579842675
 20
152.9859440665
 30
0.0
 40
0.3418067318578934
100
AcDbArc
 50
219.16836729200057
 51
285.22443291860009
  0
LINE
  5
1BB
100
AcDbEntity
  8
0
370
              25
  6
Continuous
 62
               7
100
AcDbLine
 10
150.46079795394999
 20
152.77005846865001
 30
0.0
 11
150.37916733175001
 21
152.9757209487
 31
0.0
  0
LINE
  5
1BC
100
AcDbEntity
  8
0
370
              25
  6
Continuous
 62
               7
100
AcDbLine
 10
150.37916733175001
 20
152.9757209487
 30
0.0
 11
149.98778751099999
 21
152.92195983319999
 31
0.0
  0
LINE
  5
1BD
100
AcDbEntity
  8
0
370
              25
  6
Continuous
 62
               7
100
AcDbLine
 10
149.98778751099999
 20
152.92195983319999
 30
0.0
 11
150.0694181332
 21
152.71629735315
 31
0.0
  0
POLYLINE
  5
1BE
100
AcDbEntity
  8
0
370
              25
  6
Continuous
 62
               7
100
AcDb2dPolyline
 66
               1
 10
0.0
 20
0.0
 30
0.0
 75
               5
  0
VERTEX
  5
1BF
100
AcDbEntity
  8
0
370
              25
  6
Continuous
 62
               7
100
AcDbVertex
100
AcDb2dVertex
 10
150.0694181332
 20
152.71629735315
 30
0.0
  0
VERTEX
  5
1C0
100
AcDbEntity
  8
0
370
              25
  6
Continuous
 62
               7
100
AcDbVertex
100
AcDb2dVertex
 10
150.07572299555
 20
152.68543100049999
 30
0.0
  0
VERTEX
  5
1C1
100
AcDbEntity
  8
0
370
              25
  6
Continuous
 62
               7
100
AcDbVertex
100
AcDb2dVertex
 10
150.07050229764999
 20
152.65419949210002
 30
0.0
  0
VERTEX
  5
1C2
100
AcDbEntity
  8
0
370
              25
  6
Continuous
 62
               7
100
AcDbVertex
100
AcDb2dVertex
 10
150.05396380485001
 20
152.62380783750001
 30
0.0
  0
VERTEX
  5
1C3
100
AcDbEntity
  8
0
370
              25
  6
Continuous
 62
               7
100
AcDbVertex
100
AcDb2dVertex
 10
150.02673380105
 20
152.5954174181
 30
0.0
  0
VERTEX
  5
1C4
100
AcDbEntity
  8
0
370
              25
  6
Continuous
 62
               7
100
AcDbVertex
100
AcDb2dVertex
 10
149.98987153205002
 20
152.57012748804999
 30
0.0
  0
VERTEX
  5
1C5
100
AcDbEntity
  8
0
370
              25
  6
Continuous
 62
               7
100
AcDbVertex
100
AcDb2dVertex
 10
149.94478020510002
 20
152.54890260054998
 30
0.0
  0
VERTEX
  5
1C6
100
AcDbEntity
  8
0
370
              25
  6
Continuous
 62
               7
100
AcDbVertex
100
AcDb2dVertex
 10
149.8931977501
 20
152.53256048295
 30
0.0
  0
VERTEX
  5
1C7
100
AcDbEntity
  8
0
370
              25
  6
Continuous
 62
               7
100
AcDbVertex
100
AcDb2dVertex
 10
149.83710524525
 20
152.52172875685
 30
0.0
  0
SEQEND
  5
1C8
100
AcDbEntity
  8
0
370
              25
  6
Continuous
 62
               7
  0
LINE
  5
1C9
100
AcDbEntity
  8
0
370
              25
  6
Continuous
 62
               7
100
AcDbLine
 10
149.83710524525
 20
152.52172875685
 30
0.0
 11
149.44572608199999
 21
152.46796730894999
 31
0.0
  0
LINE
  5
1CA
100
AcDbEntity
  8
0
370
              25
  6
Continuous
 62
               7
100
AcDbLine
 10
149.44572608199999
 20
152.46796730894999
 30
0.0
 11
149.52735670425
 21
152.26230482885001
 31
0.0
  0
LINE
  5
1CB
100
AcDbEntity
  8
0
370
              25
  6
Continuous
 62
               7
100
AcDbLine
 10
149.52735670425
 20
152.26230482885001
 30
0.0
 11
149.91873619624999
 21
152.31606611055
 31
0.0
  0
ARC
  5
1CC
100
AcDbEntity
  8
0
370
              25
  6
Continuous
 62
               7
100
AcDbCircle
 10
150.00850165784999
 20
151.98627634874998
 30
0.0
 40
0.34178812894561
100
AcDbArc
 50
39.166339917299567
 51
105.22646029339995
  0
LINE
  5
1CD
100
AcDbEntity
  8
0
370
              25
  6
Continuous
 62
               7
100
AcDbLine
 10
150.2734953463
 20
152.20214082050001
 30
0.0
 11
150.35513156864999
 21
151.99648110779998
 31
0.0
  0
LINE
  5
1CE
100
AcDbEntity
  8
0
370
              25
  6
Continuous
 62
               7
100
AcDbLine
 10
150.35513156864999
 20
151.99648110779998
 30
0.0
 11
150.74651138939998
 21
152.05024222330002
 31
0.0
  0
LINE
  5
1CF
100
AcDbEntity
  8
0
370
              25
  6
Continuous
 62
               7
100
AcDbLine
 10
150.74651138939998
 20
152.05024222330002
 30
0.0
 11
150.66488043839999
 21
152.25590486954999
 31
0.0
  0
POLYLINE
  5
1D0
100
AcDbEntity
  8
0
370
              25
  6
Continuous
 62
               7
100
AcDb2dPolyline
 66
               1
 10
0.0
 20
0.0
 30
0.0
 75
               5
  0
VERTEX
  5
1D1
100
AcDbEntity
  8
0
370
              25
  6
Continuous
 62
               7
100
AcDbVertex
100
AcDb2dVertex
 10
150.66488043839999
 20
152.25590486954999
 30
0.0
  0
VERTEX
  5
1D2
100
AcDbEntity
  8
0
370
              25
  6
Continuous
 62
               7
100
AcDbVertex
100
AcDb2dVertex
 10
150.65857557609999
 20
152.2867712222
 30
0.0
  0
VERTEX
  5
1D3
100
AcDbEntity
  8
0
370
              25
  6
Continuous
 62
               7
100
AcDbVertex
100
AcDb2dVertex
 10
150.66379133135001
 20
152.31799963085001
 30
0.0
  0
VERTEX
  5
1D4
100
AcDbEntity
  8
0
370
              25
  6
Continuous
 62
               7
100
AcDbVertex
100
AcDb2dVertex
 10
150.6803347668
 20
152.34839438519998
 30
0.0
  0
VERTEX
  5
1D5
100
AcDbEntity
  8
0
370
              25
  6
Continuous
 62
               7
100
AcDbVertex
100
AcDb2dVertex
 10
150.707559828
 20
152.37678170485
 30
0.0
  0
VERTEX
  5
1D6
100
AcDbEntity
  8
0
370
              25
  6
Continuous
 62
               7
100
AcDbVertex
100
AcDb2dVertex
 10
150.74442736834999
 20
152.40207456845002
 30
0.0
  0
VERTEX
  5
1D7
100
AcDbEntity
  8
0
370
              25
  6
Continuous
 62
               7
100
AcDbVertex
100
AcDb2dVertex
 10
150.78951836655
 20
152.42329962215001
 30
0.0
  0
VERTEX
  5
1D8
100
AcDbEntity
  8
0
370
              25
  6
Continuous
 62
               7
100
AcDbVertex
100
AcDb2dVertex
 10
150.84110082155001
 20
152.43964173975002
 30
0.0
  0
VERTEX
  5
1D9
100
AcDbEntity
  8
0
370
              25
  6
Continuous
 62
               7
100
AcDbVertex
100
AcDb2dVertex
 10
150.89718805505001
 20
152.45047053230002
 30
0.0
  0
SEQEND
  5
1DA
100
AcDbEntity
  8
0
370
              25
  6
Continuous
 62
               7
  0
LINE
  5
1DB
100
AcDbEntity
  8
0
370
              25
  6
Continuous
 62
               7
100
AcDbLine
 10
150.89718805505001
 20
152.45047053230002
 30
0.0
 11
151.28857281839998
 21
152.50423474755002
 31
0.0
  0
POLYLINE
  5
1DC
100
AcDbEntity
  8
0
370
              25
  6
Continuous
 62
               7
100
AcDb2dPolyline
 66
               1
 10
0.0
 20
0.0
 30
0.0
 75
               5
  0
VERTEX
  5
1DD
100
AcDbEntity
  8
0
370
              25
  6
Continuous
 62
               7
100
AcDbVertex
100
AcDb2dVertex
 10
150.08946059729999
 20
152.31296623330002
 30
0.0
  0
VERTEX
  5
1DE
100
AcDbEntity
  8
0
370
              25
  6
Continuous
 62
               7
100
AcDbVertex
100
AcDb2dVertex
 10
150.08945049390002
 20
152.31482444009998
 30
0.0
  0
VERTEX
  5
1DF
100
AcDbEntity
  8
0
370
              25
  6
Continuous
 62
               7
100
AcDbVertex
100
AcDb2dVertex
 10
150.08940706675
 20
152.31647555435001
 30
0.0
  0
SEQEND
  5
1E0
100
AcDbEntity
  8
0
370
              25
  6
Continuous
 62
               7
  0
LINE
  5
1E1
100
AcDbEntity
  8
0
370
              25
  6
Continuous
 62
               7
100
AcDbLine
 10
150.08030436819999
 20
152.56217625885
 30
0.0
 11
150.3928948301
 21
152.6051143883
 31
0.0
  0
LINE
  5
1E2
100
AcDbEntity
  8
0
370
              25
  6
Continuous
 62
               7
100
AcDbLine
 10
150.3928948301
 20
152.6051143883
 30
0.0
 11
150.47452545229999
 21
152.39945190825
 31
0.0
  0
ARC
  5
1E3
100
AcDbEntity
  8
0
370
              25
  6
Continuous
 62
               7
100
AcDbCircle
 10
150.68186470054999
 20
152.53554022915
 30
0.0
 40
0.2480112798718586
100
AcDbArc
 50
213.27912543679852
 51
264.60827267099933
  0
LINE
  5
1E4
100
AcDbEntity
  8
0
370
              25
  6
Continuous
 62
               7
100
AcDbLine
 10
151.20693659605001
 20
152.70989446030001
 30
0.0
 11
151.21492914194999
 21
152.4941166202
 31
0.0
  0
LINE
  5
1E5
100
AcDbEntity
  8
0
370
              25
  6
Continuous
 62
               7
100
AcDbLine
 10
150.47452545229999
 20
152.39945190825
 30
0.0
 11
150.46079795394999
 21
152.77005846865001
 31
0.0
  0
LINE
  5
1E6
100
AcDbEntity
  8
0
370
              25
  6
Continuous
 62
               7
100
AcDbLine
 10
150.3928948301
 20
152.6051143883
 30
0.0
 11
150.37916733175001
 21
152.9757209487
 31
0.0
  0
POLYLINE
  5
1E7
100
AcDbEntity
  8
0
370
              25
  6
Continuous
 62
               7
100
AcDb2dPolyline
 66
               1
 10
0.0
 20
0.0
 30
0.0
 75
               5
  0
VERTEX
  5
1E8
100
AcDbEntity
  8
0
370
              25
  6
Continuous
 62
               7
100
AcDbVertex
100
AcDb2dVertex
 10
263.24500866555002
 20
203.4408655798
 30
0.0
  0
VERTEX
  5
1E9
100
AcDbEntity
  8
0
370
              25
  6
Continuous
 62
               7
100
AcDbVertex
100
AcDb2dVertex
 10
263.2700326328
 20
203.20458312344999
 30
0.0
  0
VERTEX
  5
1EA
100
AcDbEntity
  8
0
370
              25
  6
Continuous
 62
               7
100
AcDbVertex
100
AcDb2dVertex
 10
263.16242191430001
 20
202.97138049520001
 30
0.0
  0
VERTEX
  5
1EB
100
AcDbEntity
  8
0
370
              25
  6
Continuous
 62
               7
100
AcDbVertex
100
AcDb2dVertex
 10
262.93174456215002
 20
202.76198323599999
 30
0.0
  0
VERTEX
  5
1EC
100
AcDbEntity
  8
0
370
              25
  6
Continuous
 62
               7
100
AcDbVertex
100
AcDb2dVertex
 10
262.59849157529999
 20
202.59499305025
 30
0.0
  0
VERTEX
  5
1ED
100
AcDbEntity
  8
0
370
              25
  6
Continuous
 62
               7
100
AcDbVertex
100
AcDb2dVertex
 10
262.19227216294996
 20
202.48524728435001
 30
0.0
  0
VERTEX
  5
1EE
100
AcDbEntity
  8
0
370
              25
  6
Continuous
 62
               7
100
AcDbVertex
100
AcDb2dVertex
 10
261.7491849443
 20
202.4424998376
 30
0.0
  0
VERTEX
  5
1EF
100
AcDbEntity
  8
0
370
              25
  6
Continuous
 62
               7
100
AcDbVertex
100
AcDb2dVertex
 10
261.30859701374999
 20
202.47054698925001
 30
0.0
  0
VERTEX
  5
1F0
100
AcDbEntity
  8
0
370
              25
  6
Continuous
 62
               7
100
AcDbVertex
100
AcDb2dVertex
 10
260.90966181210001
 20
202.56689956
 30
0.0
  0
VERTEX
  5
1F1
100
AcDbEntity
  8
0
370
              25
  6
Continuous
 62
               7
100
AcDbVertex
100
AcDb2dVertex
 10
260.58781766685001
 20
202.72299110430001
 30
0.0
  0
VERTEX
  5
1F2
100
AcDbEntity
  8
0
370
              25
  6
Continuous
 62
               7
100
AcDbVertex
100
AcDb2dVertex
 10
260.37167185760001
 20
202.92495819244999
 30
0.0
  0
VERTEX
  5
1F3
100
AcDbEntity
  8
0
370
              25
  6
Continuous
 62
               7
100
AcDbVertex
100
AcDb2dVertex
 10
260.28042031584999
 20
203.15484971219999
 30
0.0
  0
VERTEX
  5
1F4
100
AcDbEntity
  8
0
370
              25
  6
Continuous
 62
               7
100
AcDbVertex
100
AcDb2dVertex
 10
260.32217906765004
 20
203.39224300244999
 30
0.0
  0
VERTEX
  5
1F5
100
AcDbEntity
  8
0
370
              25
  6
Continuous
 62
               7
100
AcDbVertex
100
AcDb2dVertex
 10
260.49323091655003
 20
203.61604111099999
 30
0.0
  0
VERTEX
  5
1F6
100
AcDbEntity
  8
0
370
              25
  6
Continuous
 62
               7
100
AcDbVertex
100
AcDb2dVertex
 10
260.77838464585
 20
203.80636263955
 30
0.0
  0
VERTEX
  5
1F7
100
AcDbEntity
  8
0
370
              25
  6
Continuous
 62
               7
100
AcDbVertex
100
AcDb2dVertex
 10
261.15229588024999
 20
203.94629252519999
 30
0.0
  0
VERTEX
  5
1F8
100
AcDbEntity
  8
0
370
              25
  6
Continuous
 62
               7
100
AcDbVertex
100
AcDb2dVertex
 10
261.58174580139996
 20
204.02340050945
 30
0.0
  0
VERTEX
  5
1F9
100
AcDbEntity
  8
0
370
              25
  6
Continuous
 62
               7
100
AcDbVertex
100
AcDb2dVertex
 10
262.02857390539998
 20
204.0308337802
 30
0.0
  0
VERTEX
  5
1FA
100
AcDbEntity
  8
0
370
              25
  6
Continuous
 62
               7
100
AcDbVertex
100
AcDb2dVertex
 10
262.45307876275001
 20
203.96793227994999
 30
0.0
  0
VERTEX
  5
1FB
100
AcDbEntity
  8
0
370
              25
  6
Continuous
 62
               7
100
AcDbVertex
100
AcDb2dVertex
 10
262.81753942335001
 20
203.8402847557
 30
0.0
  0
VERTEX
  5
1FC
100
AcDbEntity
  8
0
370
              25
  6
Continuous
 62
               7
100
AcDbVertex
100
AcDb2dVertex
 10
263.08956952170001
 20
203.65923116030001
 30
0.0
  0
VERTEX
  5
1FD
100
AcDbEntity
  8
0
370
              25
  6
Continuous
 62
               7
100
AcDbVertex
100
AcDb2dVertex
 10
263.24500866555002
 20
203.4408655798
 30
0.0
  0
SEQEND
  5
1FE
100
AcDbEntity
  8
0
370
              25
  6
Continuous
 62
               7
  0
LINE
  5
1FF
100
AcDbEntity
  8
0
370
              25
  6
Continuous
 62
               7
100
AcDbLine
 10
262.69875160984998
 20
203.25739119975
 30
0.0
 11
262.61712098764997
 21
203.46305367984999
 31
0.0
  0
LINE
  5
200
100
AcDbEntity
  8
0
370
              25
  6
Continuous
 62
               7
100
AcDbLine
 10
262.61712098764997
 20
203.46305367984999
 30
0.0
 11
262.22574149565003
 21
203.40929239810001
 31
0.0
  0
ARC
  5
201
100
AcDbEntity
  8
0
370
              25
  6
Continuous
 62
               7
100
AcDbCircle
 10
262.13597603405003
 20
203.73908215989999
 30
0.0
 40
0.3417881289454692
100
AcDbArc
 50
219.16633991719894
 51
285.22646029339813
  0
LINE
  5
202
100
AcDbEntity
  8
0
370
              25
  6
Continuous
 62
               7
100
AcDbLine
 10
261.87098234555003
 20
203.52321768815
 30
0.0
 11
261.78934612324997
 21
203.72887740089999
 31
0.0
  0
LINE
  5
203
100
AcDbEntity
  8
0
370
              25
  6
Continuous
 62
               7
100
AcDbLine
 10
261.78934612324997
 20
203.72887740089999
 30
0.0
 11
261.39796630244996
 21
203.67511628540001
 31
0.0
  0
LINE
  5
204
100
AcDbEntity
  8
0
370
              25
  6
Continuous
 62
               7
100
AcDbLine
 10
261.39796630244996
 20
203.67511628540001
 30
0.0
 11
261.47959725345004
 21
203.46945363910001
 31
0.0
  0
POLYLINE
  5
205
100
AcDbEntity
  8
0
370
              25
  6
Continuous
 62
               7
100
AcDb2dPolyline
 66
               1
 10
0.0
 20
0.0
 30
0.0
 75
               5
  0
VERTEX
  5
206
100
AcDbEntity
  8
0
370
              25
  6
Continuous
 62
               7
100
AcDbVertex
100
AcDb2dVertex
 10
261.47959725345004
 20
203.46945363910001
 30
0.0
  0
VERTEX
  5
207
100
AcDbEntity
  8
0
370
              25
  6
Continuous
 62
               7
100
AcDbVertex
100
AcDb2dVertex
 10
261.4859021158
 20
203.4385872865
 30
0.0
  0
VERTEX
  5
208
100
AcDbEntity
  8
0
370
              25
  6
Continuous
 62
               7
100
AcDbVertex
100
AcDb2dVertex
 10
261.48068636049999
 20
203.40735887779999
 30
0.0
  0
VERTEX
  5
209
100
AcDbEntity
  8
0
370
              25
  6
Continuous
 62
               7
100
AcDbVertex
100
AcDb2dVertex
 10
261.46414292509996
 20
203.37696412349999
 30
0.0
  0
VERTEX
  5
20A
100
AcDbEntity
  8
0
370
              25
  6
Continuous
 62
               7
100
AcDbVertex
100
AcDb2dVertex
 10
261.43691786390002
 20
203.34857680384999
 30
0.0
  0
VERTEX
  5
20B
100
AcDbEntity
  8
0
370
              25
  6
Continuous
 62
               7
100
AcDbVertex
100
AcDb2dVertex
 10
261.40005032354998
 20
203.32328394025001
 30
0.0
  0
VERTEX
  5
20C
100
AcDbEntity
  8
0
370
              25
  6
Continuous
 62
               7
100
AcDbVertex
100
AcDb2dVertex
 10
261.35495932535002
 20
203.30205888654999
 30
0.0
  0
VERTEX
  5
20D
100
AcDbEntity
  8
0
370
              25
  6
Continuous
 62
               7
100
AcDbVertex
100
AcDb2dVertex
 10
261.30337687035001
 20
203.28571676895001
 30
0.0
  0
VERTEX
  5
20E
100
AcDbEntity
  8
0
370
              25
  6
Continuous
 62
               7
100
AcDbVertex
100
AcDb2dVertex
 10
261.24728963685004
 20
203.27488797640001
 30
0.0
  0
SEQEND
  5
20F
100
AcDbEntity
  8
0
370
              25
  6
Continuous
 62
               7
  0
LINE
  5
210
100
AcDbEntity
  8
0
370
              25
  6
Continuous
 62
               7
100
AcDbLine
 10
261.24728963685004
 20
203.27488797640001
 30
0.0
 11
260.85590487349998
 21
203.22112376109999
 31
0.0
  0
LINE
  5
211
100
AcDbEntity
  8
0
370
              25
  6
Continuous
 62
               7
100
AcDbLine
 10
260.85590487349998
 20
203.22112376109999
 30
0.0
 11
260.93754109585001
 21
203.01546404839999
 31
0.0
  0
LINE
  5
212
100
AcDbEntity
  8
0
370
              25
  6
Continuous
 62
               7
100
AcDbLine
 10
260.93754109585001
 20
203.01546404839999
 30
0.0
 11
261.32892058785001
 21
203.06922533010001
 31
0.0
  0
ARC
  5
213
100
AcDbEntity
  8
0
370
              25
  6
Continuous
 62
               7
100
AcDbCircle
 10
261.41867926514999
 20
202.73941444215001
 30
0.0
 40
0.3418067318579589
100
AcDbArc
 50
39.168367292000845
 51
105.22443291860094
  0
LINE
  5
214
100
AcDbEntity
  8
0
370
              25
  6
Continuous
 62
               7
100
AcDbLine
 10
261.68367973789998
 20
202.95530004004999
 30
0.0
 11
261.76531036015001
 21
202.74963755995
 31
0.0
  0
LINE
  5
215
100
AcDbEntity
  8
0
370
              25
  6
Continuous
 62
               7
100
AcDbLine
 10
261.76531036015001
 20
202.74963755995
 30
0.0
 11
262.1566901809
 21
202.80339867550001
 31
0.0
  0
LINE
  5
216
100
AcDbEntity
  8
0
370
              25
  6
Continuous
 62
               7
100
AcDbLine
 10
262.1566901809
 20
202.80339867550001
 30
0.0
 11
262.07505955864997
 21
203.00906115555
 31
0.0
  0
POLYLINE
  5
217
100
AcDbEntity
  8
0
370
              25
  6
Continuous
 62
               7
100
AcDb2dPolyline
 66
               1
 10
0.0
 20
0.0
 30
0.0
 75
               5
  0
VERTEX
  5
218
100
AcDbEntity
  8
0
370
              25
  6
Continuous
 62
               7
100
AcDbVertex
100
AcDb2dVertex
 10
262.07505955864997
 20
203.00906115555
 30
0.0
  0
VERTEX
  5
219
100
AcDbEntity
  8
0
370
              25
  6
Continuous
 62
               7
100
AcDbVertex
100
AcDb2dVertex
 10
262.06875469634997
 20
203.03992750814999
 30
0.0
  0
VERTEX
  5
21A
100
AcDbEntity
  8
0
370
              25
  6
Continuous
 62
               7
100
AcDbVertex
100
AcDb2dVertex
 10
262.07397539420003
 20
203.07115901660001
 30
0.0
  0
VERTEX
  5
21B
100
AcDbEntity
  8
0
370
              25
  6
Continuous
 62
               7
100
AcDbVertex
100
AcDb2dVertex
 10
262.09051388705001
 20
203.10155067114999
 30
0.0
  0
VERTEX
  5
21C
100
AcDbEntity
  8
0
370
              25
  6
Continuous
 62
               7
100
AcDbVertex
100
AcDb2dVertex
 10
262.11774389084997
 20
203.12994109055001
 30
0.0
  0
VERTEX
  5
21D
100
AcDbEntity
  8
0
370
              25
  6
Continuous
 62
               7
100
AcDbVertex
100
AcDb2dVertex
 10
262.15460615985
 20
203.15523102060001
 30
0.0
  0
VERTEX
  5
21E
100
AcDbEntity
  8
0
370
              25
  6
Continuous
 62
               7
100
AcDbVertex
100
AcDb2dVertex
 10
262.19969748680001
 20
203.17645590814999
 30
0.0
  0
VERTEX
  5
21F
100
AcDbEntity
  8
0
370
              25
  6
Continuous
 62
               7
100
AcDbVertex
100
AcDb2dVertex
 10
262.25127994180002
 20
203.1927980257
 30
0.0
  0
VERTEX
  5
220
100
AcDbEntity
  8
0
370
              25
  6
Continuous
 62
               7
100
AcDbVertex
100
AcDb2dVertex
 10
262.30737244664999
 20
203.20362975185
 30
0.0
  0
SEQEND
  5
221
100
AcDbEntity
  8
0
370
              25
  6
Continuous
 62
               7
  0
LINE
  5
222
100
AcDbEntity
  8
0
370
              25
  6
Continuous
 62
               7
100
AcDbLine
 10
262.30737244664999
 20
203.20362975185
 30
0.0
 11
262.69875160984998
 21
203.25739119975
 31
0.0
  0
POLYLINE
  5
223
100
AcDbEntity
  8
0
370
              25
  6
Continuous
 62
               7
100
AcDb2dPolyline
 66
               1
 10
0.0
 20
0.0
 30
0.0
 75
               5
  0
VERTEX
  5
224
100
AcDbEntity
  8
0
370
              25
  6
Continuous
 62
               7
100
AcDbVertex
100
AcDb2dVertex
 10
261.49964466015001
 20
203.06612561905001
 30
0.0
  0
VERTEX
  5
225
100
AcDbEntity
  8
0
370
              25
  6
Continuous
 62
               7
100
AcDbVertex
100
AcDb2dVertex
 10
261.49962961414997
 20
203.06798072609999
 30
0.0
  0
VERTEX
  5
226
100
AcDbEntity
  8
0
370
              25
  6
Continuous
 62
               7
100
AcDbVertex
100
AcDb2dVertex
 10
261.49958651575002
 20
203.06963167410001
 30
0.0
  0
SEQEND
  5
227
100
AcDbEntity
  8
0
370
              25
  6
Continuous
 62
               7
  0
LINE
  5
228
100
AcDbEntity
  8
0
370
              25
  6
Continuous
 62
               7
100
AcDbLine
 10
261.49048348844997
 20
203.31533254485001
 30
0.0
 11
261.80307362154997
 21
203.35827084050001
 31
0.0
  0
LINE
  5
229
100
AcDbEntity
  8
0
370
              25
  6
Continuous
 62
               7
100
AcDbLine
 10
261.80307362154997
 20
203.35827084050001
 30
0.0
 11
261.8847098439
 21
203.15261112774999
 31
0.0
  0
ARC
  5
22A
100
AcDbEntity
  8
0
370
              25
  6
Continuous
 62
               7
100
AcDbCircle
 10
262.09181834754997
 20
203.28831627860001
 30
0.0
 40
0.2476081990757307
100
AcDbArc
 50
213.23429939369694
 51
264.65309871420112
  0
LINE
  5
22B
100
AcDbEntity
  8
0
370
              25
  6
Continuous
 62
               7
100
AcDbLine
 10
262.61712098764997
 20
203.46305367984999
 30
0.0
 11
262.62511353355001
 21
203.2472758397
 31
0.0
  0
LINE
  5
22C
100
AcDbEntity
  8
0
370
              25
  6
Continuous
 62
               7
100
AcDbLine
 10
261.8847098439
 20
203.15261112774999
 30
0.0
 11
261.87098234555003
 21
203.52321768815
 31
0.0
  0
LINE
  5
22D
100
AcDbEntity
  8
0
370
              25
  6
Continuous
 62
               7
100
AcDbLine
 10
261.80307362154997
 20
203.35827084050001
 30
0.0
 11
261.78934612324997
 21
203.72887740089999
 31
0.0
  0
POLYLINE
  5
22E
100
AcDbEntity
  8
0
370
              25
  6
Continuous
 62
               7
100
AcDb2dPolyline
 66
               1
 10
0.0
 20
0.0
 30
0.0
 75
               5
  0
VERTEX
  5
22F
100
AcDbEntity
  8
0
370
              25
  6
Continuous
 62
               7
100
AcDbVertex
100
AcDb2dVertex
 10
162.4249315141
 20
147.33385633605002
 30
0.0
  0
VERTEX
  5
230
100
AcDbEntity
  8
0
370
              25
  6
Continuous
 62
               7
100
AcDbVertex
100
AcDb2dVertex
 10
162.44996075264999
 20
147.09757681320002
 30
0.0
  0
VERTEX
  5
231
100
AcDbEntity
  8
0
370
              25
  6
Continuous
 62
               7
100
AcDbVertex
100
AcDb2dVertex
 10
162.3423500342
 20
146.86437418495001
 30
0.0
  0
VERTEX
  5
232
100
AcDbEntity
  8
0
370
              25
  6
Continuous
 62
               7
100
AcDbVertex
100
AcDb2dVertex
 10
162.11167268205
 20
146.65497692575002
 30
0.0
  0
VERTEX
  5
233
100
AcDbEntity
  8
0
370
              25
  6
Continuous
 62
               7
100
AcDbVertex
100
AcDb2dVertex
 10
161.77841442384999
 20
146.48798380645002
 30
0.0
  0
VERTEX
  5
234
100
AcDbEntity
  8
0
370
              25
  6
Continuous
 62
               7
100
AcDbVertex
100
AcDb2dVertex
 10
161.37220028285
 20
146.37824097405002
 30
0.0
  0
VERTEX
  5
235
100
AcDbEntity
  8
0
370
              25
  6
Continuous
 62
               7
100
AcDbVertex
100
AcDb2dVertex
 10
160.92911306420001
 20
146.33549352735
 30
0.0
  0
VERTEX
  5
236
100
AcDbEntity
  8
0
370
              25
  6
Continuous
 62
               7
100
AcDbVertex
100
AcDb2dVertex
 10
160.48852513365
 20
146.36354067899998
 30
0.0
  0
VERTEX
  5
237
100
AcDbEntity
  8
0
370
              25
  6
Continuous
 62
               7
100
AcDbVertex
100
AcDb2dVertex
 10
160.08958466064999
 20
146.45989031620002
 30
0.0
  0
VERTEX
  5
238
100
AcDbEntity
  8
0
370
              25
  6
Continuous
 62
               7
100
AcDbVertex
100
AcDb2dVertex
 10
159.7677457867
 20
146.61598479405001
 30
0.0
  0
VERTEX
  5
239
100
AcDbEntity
  8
0
370
              25
  6
Continuous
 62
               7
100
AcDbVertex
100
AcDb2dVertex
 10
159.55159470615001
 20
146.81794894864998
 30
0.0
  0
VERTEX
  5
23A
100
AcDbEntity
  8
0
370
              25
  6
Continuous
 62
               7
100
AcDbVertex
100
AcDb2dVertex
 10
159.46034843575001
 20
147.04784340194999
 30
0.0
  0
VERTEX
  5
23B
100
AcDbEntity
  8
0
370
              25
  6
Continuous
 62
               7
100
AcDbVertex
100
AcDb2dVertex
 10
159.50210191615
 20
147.28523375865001
 30
0.0
  0
VERTEX
  5
23C
100
AcDbEntity
  8
0
370
              25
  6
Continuous
 62
               7
100
AcDbVertex
100
AcDb2dVertex
 10
159.67315903639999
 20
147.50903480074999
 30
0.0
  0
VERTEX
  5
23D
100
AcDbEntity
  8
0
370
              25
  6
Continuous
 62
               7
100
AcDbVertex
100
AcDb2dVertex
 10
159.95831276569999
 20
147.6993563293
 30
0.0
  0
VERTEX
  5
23E
100
AcDbEntity
  8
0
370
              25
  6
Continuous
 62
               7
100
AcDbVertex
100
AcDb2dVertex
 10
160.33222400015001
 20
147.83928621494999
 30
0.0
  0
VERTEX
  5
23F
100
AcDbEntity
  8
0
370
              25
  6
Continuous
 62
               7
100
AcDbVertex
100
AcDb2dVertex
 10
160.7616739213
 20
147.9163941992
 30
0.0
  0
VERTEX
  5
240
100
AcDbEntity
  8
0
370
              25
  6
Continuous
 62
               7
100
AcDbVertex
100
AcDb2dVertex
 10
161.20850202529999
 20
147.92382746995
 30
0.0
  0
VERTEX
  5
241
100
AcDbEntity
  8
0
370
              25
  6
Continuous
 62
               7
100
AcDbVertex
100
AcDb2dVertex
 10
161.63300688264999
 20
147.86092596970002
 30
0.0
  0
VERTEX
  5
242
100
AcDbEntity
  8
0
370
              25
  6
Continuous
 62
               7
100
AcDbVertex
100
AcDb2dVertex
 10
161.99746227185
 20
147.73327551189999
 30
0.0
  0
VERTEX
  5
243
100
AcDbEntity
  8
0
370
              25
  6
Continuous
 62
               7
100
AcDbVertex
100
AcDb2dVertex
 10
162.2694976416
 20
147.55222485004998
 30
0.0
  0
VERTEX
  5
244
100
AcDbEntity
  8
0
370
              25
  6
Continuous
 62
               7
100
AcDbVertex
100
AcDb2dVertex
 10
162.4249315141
 20
147.33385633605002
 30
0.0
  0
SEQEND
  5
245
100
AcDbEntity
  8
0
370
              25
  6
Continuous
 62
               7
  0
LINE
  5
246
100
AcDbEntity
  8
0
370
              25
  6
Continuous
 62
               7
100
AcDbLine
 10
161.87867972974999
 20
147.1503848895
 30
0.0
 11
161.79704383615001
 21
147.35604443605001
 31
0.0
  0
LINE
  5
247
100
AcDbEntity
  8
0
370
              25
  6
Continuous
 62
               7
100
AcDbLine
 10
161.79704383615001
 20
147.35604443605001
 30
0.0
 11
161.40566434415001
 21
147.3022831543
 31
0.0
  0
ARC
  5
248
100
AcDbEntity
  8
0
370
              25
  6
Continuous
 62
               7
100
AcDbCircle
 10
161.31590566685
 20
147.63209404225
 30
0.0
 40
0.3418067318578989
100
AcDbArc
 50
219.16836729199986
 51
285.2244329185994
  0
LINE
  5
249
100
AcDbEntity
  8
0
370
              25
  6
Continuous
 62
               7
100
AcDbLine
 10
161.05090519409998
 20
147.41620844434999
 30
0.0
 11
160.96927424310002
 21
147.62187109065002
 31
0.0
  0
LINE
  5
24A
100
AcDbEntity
  8
0
370
              25
  6
Continuous
 62
               7
100
AcDbLine
 10
160.96927424310002
 20
147.62187109065002
 30
0.0
 11
160.57789442235
 21
147.56810997514998
 31
0.0
  0
LINE
  5
24B
100
AcDbEntity
  8
0
370
              25
  6
Continuous
 62
               7
100
AcDbLine
 10
160.57789442235
 20
147.56810997514998
 30
0.0
 11
160.65952537334999
 21
147.36244732885001
 31
0.0
  0
POLYLINE
  5
24C
100
AcDbEntity
  8
0
370
              25
  6
Continuous
 62
               7
100
AcDb2dPolyline
 66
               1
 10
0.0
 20
0.0
 30
0.0
 75
               5
  0
VERTEX
  5
24D
100
AcDbEntity
  8
0
370
              25
  6
Continuous
 62
               7
100
AcDbVertex
100
AcDb2dVertex
 10
160.65952537334999
 20
147.36244732885001
 30
0.0
  0
VERTEX
  5
24E
100
AcDbEntity
  8
0
370
              25
  6
Continuous
 62
               7
100
AcDbVertex
100
AcDb2dVertex
 10
160.66583023564999
 20
147.33158097625
 30
0.0
  0
VERTEX
  5
24F
100
AcDbEntity
  8
0
370
              25
  6
Continuous
 62
               7
100
AcDbVertex
100
AcDb2dVertex
 10
160.66060920904999
 20
147.30034963399999
 30
0.0
  0
VERTEX
  5
250
100
AcDbEntity
  8
0
370
              25
  6
Continuous
 62
               7
100
AcDbVertex
100
AcDb2dVertex
 10
160.644071045
 20
147.26995781325002
 30
0.0
  0
VERTEX
  5
251
100
AcDbEntity
  8
0
370
              25
  6
Continuous
 62
               7
100
AcDbVertex
100
AcDb2dVertex
 10
160.61684071240001
 20
147.24156756004999
 30
0.0
  0
VERTEX
  5
252
100
AcDbEntity
  8
0
370
              25
  6
Continuous
 62
               7
100
AcDbVertex
100
AcDb2dVertex
 10
160.57997844339999
 20
147.21627762999998
 30
0.0
  0
VERTEX
  5
253
100
AcDbEntity
  8
0
370
              25
  6
Continuous
 62
               7
100
AcDbVertex
100
AcDb2dVertex
 10
160.53488744520001
 20
147.19505257629999
 30
0.0
  0
VERTEX
  5
254
100
AcDbEntity
  8
0
370
              25
  6
Continuous
 62
               7
100
AcDbVertex
100
AcDb2dVertex
 10
160.48330499024999
 20
147.17871045869998
 30
0.0
  0
VERTEX
  5
255
100
AcDbEntity
  8
0
370
              25
  6
Continuous
 62
               7
100
AcDbVertex
100
AcDb2dVertex
 10
160.42721248535
 20
147.1678787326
 30
0.0
  0
SEQEND
  5
256
100
AcDbEntity
  8
0
370
              25
  6
Continuous
 62
               7
  0
LINE
  5
257
100
AcDbEntity
  8
0
370
              25
  6
Continuous
 62
               7
100
AcDbLine
 10
160.42721248535
 20
147.1678787326
 30
0.0
 11
160.03583299335
 21
147.11411745085002
 31
0.0
  0
LINE
  5
258
100
AcDbEntity
  8
0
370
              25
  6
Continuous
 62
               7
100
AcDbLine
 10
160.03583299335
 20
147.11411745085002
 30
0.0
 11
160.11746394434999
 21
146.90845480460001
 31
0.0
  0
LINE
  5
259
100
AcDbEntity
  8
0
370
              25
  6
Continuous
 62
               7
100
AcDbLine
 10
160.11746394434999
 20
146.90845480460001
 30
0.0
 11
160.50884343634999
 21
146.9622160863
 31
0.0
  0
ARC
  5
25A
100
AcDbEntity
  8
0
370
              25
  6
Continuous
 62
               7
100
AcDbCircle
 10
160.59860889800001
 20
146.63242632449999
 30
0.0
 40
0.3417881289455692
100
AcDbArc
 50
39.166339917200666
 51
105.22646029340069
  0
LINE
  5
25B
100
AcDbEntity
  8
0
370
              25
  6
Continuous
 62
               7
100
AcDbLine
 10
160.86360258644999
 20
146.84829079625001
 30
0.0
 11
160.94523848
 21
146.6426312497
 31
0.0
  0
LINE
  5
25C
100
AcDbEntity
  8
0
370
              25
  6
Continuous
 62
               7
100
AcDbLine
 10
160.94523848
 20
146.6426312497
 30
0.0
 11
161.33661830074999
 21
146.69639236525001
 31
0.0
  0
LINE
  5
25D
100
AcDbEntity
  8
0
370
              25
  6
Continuous
 62
               7
100
AcDbLine
 10
161.33661830074999
 20
146.69639236525001
 30
0.0
 11
161.25498767855001
 21
146.9020548453
 31
0.0
  0
POLYLINE
  5
25E
100
AcDbEntity
  8
0
370
              25
  6
Continuous
 62
               7
100
AcDb2dPolyline
 66
               1
 10
0.0
 20
0.0
 30
0.0
 75
               5
  0
VERTEX
  5
25F
100
AcDbEntity
  8
0
370
              25
  6
Continuous
 62
               7
100
AcDbVertex
100
AcDb2dVertex
 10
161.25498767855001
 20
146.9020548453
 30
0.0
  0
VERTEX
  5
260
100
AcDbEntity
  8
0
370
              25
  6
Continuous
 62
               7
100
AcDbVertex
100
AcDb2dVertex
 10
161.24868281620002
 20
146.93292119789999
 30
0.0
  0
VERTEX
  5
261
100
AcDbEntity
  8
0
370
              25
  6
Continuous
 62
               7
100
AcDbVertex
100
AcDb2dVertex
 10
161.25389824274998
 20
146.9641497728
 30
0.0
  0
VERTEX
  5
262
100
AcDbEntity
  8
0
370
              25
  6
Continuous
 62
               7
100
AcDbVertex
100
AcDb2dVertex
 10
161.2704420069
 20
146.99454436089999
 30
0.0
  0
VERTEX
  5
263
100
AcDbEntity
  8
0
370
              25
  6
Continuous
 62
               7
100
AcDbVertex
100
AcDb2dVertex
 10
161.29766673935001
 20
147.02293184680002
 30
0.0
  0
VERTEX
  5
264
100
AcDbEntity
  8
0
370
              25
  6
Continuous
 62
               7
100
AcDbVertex
100
AcDb2dVertex
 10
161.33453427969999
 20
147.04822471034998
 30
0.0
  0
VERTEX
  5
265
100
AcDbEntity
  8
0
370
              25
  6
Continuous
 62
               7
100
AcDbVertex
100
AcDb2dVertex
 10
161.37962560665
 20
147.06944959790002
 30
0.0
  0
VERTEX
  5
266
100
AcDbEntity
  8
0
370
              25
  6
Continuous
 62
               7
100
AcDbVertex
100
AcDb2dVertex
 10
161.43120806165001
 20
147.08579171545
 30
0.0
  0
VERTEX
  5
267
100
AcDbEntity
  8
0
370
              25
  6
Continuous
 62
               7
100
AcDbVertex
100
AcDb2dVertex
 10
161.48729529515001
 20
147.09662050804999
 30
0.0
  0
SEQEND
  5
268
100
AcDbEntity
  8
0
370
              25
  6
Continuous
 62
               7
  0
LINE
  5
269
100
AcDbEntity
  8
0
370
              25
  6
Continuous
 62
               7
100
AcDbLine
 10
161.48729529515001
 20
147.09662050804999
 30
0.0
 11
161.87867972974999
 21
147.1503848895
 31
0.0
  0
POLYLINE
  5
26A
100
AcDbEntity
  8
0
370
              25
  6
Continuous
 62
               7
100
AcDb2dPolyline
 66
               1
 10
0.0
 20
0.0
 30
0.0
 75
               5
  0
VERTEX
  5
26B
100
AcDbEntity
  8
0
370
              25
  6
Continuous
 62
               7
100
AcDbVertex
100
AcDb2dVertex
 10
160.67956750870002
 20
146.95911637525001
 30
0.0
  0
VERTEX
  5
26C
100
AcDbEntity
  8
0
370
              25
  6
Continuous
 62
               7
100
AcDbVertex
100
AcDb2dVertex
 10
160.67955773400001
 20
146.96097441584999
 30
0.0
  0
VERTEX
  5
26D
100
AcDbEntity
  8
0
370
              25
  6
Continuous
 62
               7
100
AcDbVertex
100
AcDb2dVertex
 10
160.67951463565001
 20
146.96262536385001
 30
0.0
  0
SEQEND
  5
26E
100
AcDbEntity
  8
0
370
              25
  6
Continuous
 62
               7
  0
LINE
  5
26F
100
AcDbEntity
  8
0
370
              25
  6
Continuous
 62
               7
100
AcDbLine
 10
160.67041160835001
 20
147.20832623460001
 30
0.0
 11
160.98300174145001
 21
147.25126453025001
 31
0.0
  0
LINE
  5
270
100
AcDbEntity
  8
0
370
              25
  6
Continuous
 62
               7
100
AcDbLine
 10
160.98300174145001
 20
147.25126453025001
 30
0.0
 11
161.06463269245
 21
147.04560188394998
 31
0.0
  0
ARC
  5
271
100
AcDbEntity
  8
0
370
              25
  6
Continuous
 62
               7
100
AcDbCircle
 10
161.27197190589999
 20
147.18169014714999
 30
0.0
 40
0.2480112191146491
100
AcDbArc
 50
213.27911869239912
 51
264.60827941549934
  0
LINE
  5
272
100
AcDbEntity
  8
0
370
              25
  6
Continuous
 62
               7
100
AcDbLine
 10
161.79704383615001
 20
147.35604443605001
 30
0.0
 11
161.80503638204999
 21
147.14026659590002
 31
0.0
  0
LINE
  5
273
100
AcDbEntity
  8
0
370
              25
  6
Continuous
 62
               7
100
AcDbLine
 10
161.06463269245
 20
147.04560188394998
 30
0.0
 11
161.05090519409998
 21
147.41620844434999
 31
0.0
  0
LINE
  5
274
100
AcDbEntity
  8
0
370
              25
  6
Continuous
 62
               7
100
AcDbLine
 10
160.98300174145001
 20
147.25126453025001
 30
0.0
 11
160.96927424310002
 21
147.62187109065002
 31
0.0
  0
LINE
  5
275
100
AcDbEntity
  8
0
370
              25
  6
Continuous
 62
               8
100
AcDbLine
 10
155.45892521650001
 20
119.59915753609999
 30
0.0
 11
154.00660001385
 21
120.33338346459999
 31
0.0
  0
LINE
  5
276
100
AcDbEntity
  8
0
370
              25
  6
Continuous
 62
               8
100
AcDbLine
 10
153.92787487395
 20
120.35748183695
 30
0.0
 11
153.96855919149999
 21
120.3801229164
 31
0.0
  0
LINE
  5
277
100
AcDbEntity
  8
0
370
              25
  6
Continuous
 62
               8
100
AcDbLine
 10
251.49294486445001
 20
208.14713333969999
 30
0.0
 11
251.48495231855
 21
208.36291117979999
 31
0.0
  0
LINE
  5
278
100
AcDbEntity
  8
0
370
              25
  6
Continuous
 62
               8
100
AcDbLine
 10
250.6651749426
 20
208.41296016055
 30
0.0
 11
250.65718239669999
 21
208.62873800065
 31
0.0
  0
LINE
  5
279
100
AcDbEntity
  8
0
370
              25
  6
Continuous
 62
               8
100
AcDbLine
 10
251.64382846410001
 20
208.5419202171
 30
0.0
 11
251.63563425555
 21
208.76314242239999
 31
0.0
  0
LINE
  5
27A
100
AcDbEntity
  8
0
370
              25
  6
Continuous
 62
               8
100
AcDbLine
 10
150.6728729843
 20
152.04012702944999
 30
0.0
 11
150.66488043839999
 21
152.25590486954999
 31
0.0
  0
LINE
  5
27B
100
AcDbEntity
  8
0
370
              25
  6
Continuous
 62
               8
100
AcDbLine
 10
149.84509779115001
 20
152.30595091675002
 30
0.0
 11
149.83710524525
 21
152.52172875685
 31
0.0
  0
LINE
  5
27C
100
AcDbEntity
  8
0
370
              25
  6
Continuous
 62
               8
100
AcDbLine
 10
150.82375131265002
 20
152.43491097330002
 30
0.0
 11
150.81555710405001
 21
152.65613317859999
 31
0.0
  0
LINE
  5
27D
100
AcDbEntity
  8
0
370
              25
  6
Continuous
 62
               8
100
AcDbLine
 10
262.08305210455001
 20
202.79328331545
 30
0.0
 11
262.07505955864997
 21
203.00906115555
 31
0.0
  0
LINE
  5
27E
100
AcDbEntity
  8
0
370
              25
  6
Continuous
 62
               8
100
AcDbLine
 10
261.25528218274997
 20
203.05911013625001
 30
0.0
 11
261.24728963685004
 21
203.27488797640001
 31
0.0
  0
LINE
  5
27F
100
AcDbEntity
  8
0
370
              25
  6
Continuous
 62
               8
100
AcDbLine
 10
262.23393570425003
 20
203.18807019285001
 30
0.0
 11
262.22574149565003
 21
203.40929239810001
 31
0.0
  0
LINE
  5
280
100
AcDbEntity
  8
0
370
              25
  6
Continuous
 62
               8
100
AcDbLine
 10
161.26298022444999
 20
146.6862770052
 30
0.0
 11
161.25498767855001
 21
146.9020548453
 31
0.0
  0
LINE
  5
281
100
AcDbEntity
  8
0
370
              25
  6
Continuous
 62
               8
100
AcDbLine
 10
160.43520503125001
 20
146.95210089245001
 30
0.0
 11
160.42721248535
 21
147.1678787326
 31
0.0
  0
LINE
  5
282
100
AcDbEntity
  8
0
370
              25
  6
Continuous
 62
               8
100
AcDbLine
 10
161.41385855275001
 20
147.08106094905
 30
0.0
 11
161.40566434415001
 21
147.3022831543
 31
0.0
  0
MTEXT
  5
283
100
AcDbEntity
  8
0
 62
               7
100
AcDbMText
 10
257.41944444444448
 20
117.47168402777777
 30
0.0
 40
3.0316840277777768
 41
0.0
 71
               1
 72
               1
  1
HAC-D26S^I\PHAC-W26S^I\PHAC-B26S^I
  7
Arial
 73
               1
 44
0.9673603504928806
  0
ENDSEC
  0
SECTION
  2
OBJECTS
  0
DICTIONARY
  5
19
100
AcDbDictionary
280
               0
281
               1
  3
ACAD_GROUP
350
1A
  3
ACAD_MLINESTYLE
350
1B
  3
ACAD_LAYOUT
350
1E
  3
ACAD_PLOTSETTINGS
350
22
  3
ACAD_PLOTSTYLENAME
350
1F
  3
ACAD_WIPEOUT_VARS
350
23
  0
DICTIONARY
  5
1A
102
{ACAD_REACTORS
330
19
102
}
100
AcDbDictionary
280
               0
281
               1
  0
DICTIONARY
  5
1B
102
{ACAD_REACTORS
330
19
102
}
100
AcDbDictionary
280
               0
281
               1
  3
Standard
350
1C
  0
MLINESTYLE
  5
1C
102
{ACAD_REACTORS
330
1B
102
}
100
AcDbMlineStyle
  2
Standard
 70
               0
  3

 62
               0
 51
90.0
 52
90.0
 71
               2
 49
0.5
 62
             256
  6
ByLayer
 49
-0.5
 62
             256
  6
ByLayer
  0
ACDBDICTIONARYWDFLT
  5
1F
102
{ACAD_REACTORS
330
19
102
}
100
AcDbDictionary
281
               1
  3
Normal
350
1D
100
AcDbDictionaryWithDefault
340
1D
  0
ACDBPLACEHOLDER
  5
1D
102
{ACAD_REACTORS
330
1F
102
}
  0
LAYOUT
  5
20
102
{ACAD_REACTORS
330
1E
102
}
100
AcDbPlotSettings
  1

  2

  4

  6

 40
0.0
 41
0.0
 42
0.0
 43
0.0
 44
0.0
 45
0.0
 46
0.0
 47
0.0
 48
0.0
 49
0.0
140
0.0
141
0.0
142
1.0
143
1.0
 70
            1024
 72
               0
 73
               0
 74
               0
  7

 75
               0
147
1.0
148
0.0
149
0.0
100
AcDbLayout
  1
Model
 70
               0
 71
               0
 10
0.0
 20
0.0
 11
0.0
 21
0.0
 12
0.0
 22
0.0
 32
0.0
 14
0.0
 24
0.0
 34
0.0
 15
0.0
 25
0.0
 35
0.0
146
0.0
 13
0.0
 23
0.0
 33
0.0
 16
0.0
 26
0.0
 36
0.0
 17
0.0
 27
0.0
 37
0.0
 76
               0
330
A
331
0
345
0
346
0
  0
LAYOUT
  5
21
102
{ACAD_REACTORS
330
1E
102
}
100
AcDbPlotSettings
  1

  2

  4

  6

 40
0.0
 41
0.0
 42
0.0
 43
0.0
 44
0.0
 45
0.0
 46
0.0
 47
0.0
 48
0.0
 49
0.0
140
0.0
141
0.0
142
1.0
143
1.0
 70
               0
 72
               0
 73
               0
 74
               0
  7

 75
               0
147
1.0
148
0.0
149
0.0
100
AcDbLayout
  1
Layout1
 70
               0
 71
               0
 10
0.0
 20
0.0
 11
0.0
 21
0.0
 12
0.0
 22
0.0
 32
0.0
 14
0.0
 24
0.0
 34
0.0
 15
0.0
 25
0.0
 35
0.0
146
0.0
 13
0.0
 23
0.0
 33
0.0
 16
0.0
 26
0.0
 36
0.0
 17
0.0
 27
0.0
 37
0.0
 76
               0
330
B
331
0
345
0
346
0
  0
DICTIONARY
  5
1E
102
{ACAD_REACTORS
330
19
102
}
100
AcDbDictionary
280
               0
281
               1
  3
Layout1
350
21
  3
Model
350
20
  0
DICTIONARY
  5
22
102
{ACAD_REACTORS
330
19
102
}
100
AcDbDictionary
280
               0
281
               1
  0
WIPEOUTVARIABLES
  5
23
100
AcDbWipeoutVariables
 70
               1
  0
ENDSEC
  0
EOF
