  0
SECTION
  2
HEADER
  9
$ACADVER
  1
AC1015
  9
$ACADMAINTVER
 70
     6
  9
$DWGCODEPAGE
  3
DOS932
  9
$INSBASE
 10
0.0
 20
0.0
 30
0.0
  9
$EXTMIN
 10
0.0
 20
0.0
 30
0.0
  9
$EXTMAX
 10
210.0
 20
297.0
 30
0.0
  9
$LIMMIN
 10
0.0
 20
0.0
  9
$LIMMAX
 10
210.0
 20
297.0
  9
$ORTHOMODE
 70
     0
  9
$REGENMODE
 70
     1
  9
$FILLMODE
 70
     1
  9
$QTEXTMODE
 70
     0
  9
$MIRRTEXT
 70
     1
  9
$LTSCALE
 40
1.0
  9
$ATTMODE
 70
     1
  9
$TEXTSIZE
 40
3.5
  9
$TRACEWID
 40
1.0
  9
$TEXTSTYLE
  7
Standard
  9
$CLAYER
  8
0
  9
$CELTYPE
  6
ByLayer
  9
$CECOLOR
 62
   256
  9
$CELTSCALE
 40
1.0
  9
$DISPSILH
 70
     0
  9
$DIMSCALE
 40
1.0
  9
$DIMASZ
 40
3.5
  9
$DIMEXO
 40
1.0
  9
$DIMDLI
 40
3.75
  9
$DIMRND
 40
0.0
  9
$DIMDLE
 40
0.0
  9
$DIMEXE
 40
1.0
  9
$DIMTP
 40
0.0
  9
$DIMTM
 40
0.0
  9
$DIMTXT
 40
3.5
  9
$DIMCEN
 40
2.5
  9
$DIMTSZ
 40
0.0
  9
$DIMTOL
 70
     0
  9
$DIMLIM
 70
     0
  9
$DIMTIH
 70
     1
  9
$DIMTOH
 70
     1
  9
$DIMSE1
 70
     0
  9
$DIMSE2
 70
     0
  9
$DIMTAD
 70
     1
  9
$DIMZIN
 70
     1
  9
$DIMBLK
  1

  9
$DIMASO
 70
     1
  9
$DIMSHO
 70
     1
  9
$DIMPOST
  1

  9
$DIMAPOST
  1

  9
$DIMALT
 70
     0
  9
$DIMALTD
 70
     3
  9
$DIMALTF
 40
0.0393700787
  9
$DIMLFAC
 40
100.0
  9
$DIMTOFL
 70
     1
  9
$DIMTVP
 40
0.0
  9
$DIMTIX
 70
     0
  9
$DIMSOXD
 70
     0
  9
$DIMSAH
 70
     0
  9
$DIMBLK1
  1

  9
$DIMBLK2
  1

  9
$DIMSTYLE
  2
ISO-25
  9
$DIMCLRD
 70
     0
  9
$DIMCLRE
 70
     0
  9
$DIMCLRT
 70
     0
  9
$DIMTFAC
 40
1.0
  9
$DIMGAP
 40
1.524
  9
$DIMJUST
 70
     0
  9
$DIMSD1
 70
     0
  9
$DIMSD2
 70
     0
  9
$DIMTOLJ
 70
     0
  9
$DIMTZIN
 70
     1
  9
$DIMALTZ
 70
     0
  9
$DIMALTTZ
 70
     0
  9
$DIMUPT
 70
     0
  9
$DIMDEC
 70
     2
  9
$DIMTDEC
 70
     2
  9
$DIMALTU
 70
     2
  9
$DIMALTTD
 70
     3
  9
$DIMTXSTY
  7
Standard
  9
$DIMAUNIT
 70
     0
  9
$DIMADEC
 70
     2
  9
$DIMALTRND
 40
0.0
  9
$DIMAZIN
 70
     0
  9
$DIMDSEP
 70
    44
  9
$DIMATFIT
 70
     3
  9
$DIMFRAC
 70
     0
  9
$DIMLDRBLK
  1

  9
$DIMLUNIT
 70
     2
  9
$DIMLWD
 70
    -2
  9
$DIMLWE
 70
    -2
  9
$DIMTMOVE
 70
     0
  9
$LUNITS
 70
     2
  9
$LUPREC
 70
     2
  9
$SKETCHINC
 40
1.0
  9
$FILLETRAD
 40
10.0
  9
$AUNITS
 70
     0
  9
$AUPREC
 70
     2
  9
$MENU
  1
.
  9
$ELEVATION
 40
0.0
  9
$PELEVATION
 40
0.0
  9
$THICKNESS
 40
0.0
  9
$LIMCHECK
 70
     0
  9
$CHAMFERA
 40
0.0
  9
$CHAMFERB
 40
0.0
  9
$CHAMFERC
 40
0.0
  9
$CHAMFERD
 40
0.0
  9
$SKPOLY
 70
     0
  9
$TDCREATE
 40
2459242.793615752
  9
$TDUCREATE
 40
2459242.418615752
  9
$TDUPDATE
 40
2459242.793616412
  9
$TDUUPDATE
 40
2459242.418616412
  9
$TDINDWG
 40
0.0000000116
  9
$TDUSRTIMER
 40
0.0000000116
  9
$USRTIMER
 70
     1
  9
$ANGBASE
 50
0.0
  9
$ANGDIR
 70
     0
  9
$PDMODE
 70
     0
  9
$PDSIZE
 40
-1.0
  9
$PLINEWID
 40
0.0
  9
$SPLFRAME
 70
     0
  9
$SPLINETYPE
 70
     6
  9
$SPLINESEGS
 70
     8
  9
$HANDSEED
  5
53E
  9
$SURFTAB1
 70
     6
  9
$SURFTAB2
 70
     6
  9
$SURFTYPE
 70
     6
  9
$SURFU
 70
     6
  9
$SURFV
 70
     6
  9
$UCSBASE
  2

  9
$UCSNAME
  2

  9
$UCSORG
 10
0.0
 20
0.0
 30
0.0
  9
$UCSXDIR
 10
1.0
 20
0.0
 30
0.0
  9
$UCSYDIR
 10
0.0
 20
1.0
 30
0.0
  9
$UCSORTHOREF
  2

  9
$UCSORTHOVIEW
 70
     0
  9
$UCSORGTOP
 10
0.0
 20
0.0
 30
0.0
  9
$UCSORGBOTTOM
 10
0.0
 20
0.0
 30
0.0
  9
$UCSORGLEFT
 10
0.0
 20
0.0
 30
0.0
  9
$UCSORGRIGHT
 10
0.0
 20
0.0
 30
0.0
  9
$UCSORGFRONT
 10
0.0
 20
0.0
 30
0.0
  9
$UCSORGBACK
 10
0.0
 20
0.0
 30
0.0
  9
$PUCSBASE
  2

  9
$PUCSNAME
  2

  9
$PUCSORG
 10
0.0
 20
0.0
 30
0.0
  9
$PUCSXDIR
 10
1.0
 20
0.0
 30
0.0
  9
$PUCSYDIR
 10
0.0
 20
1.0
 30
0.0
  9
$PUCSORTHOREF
  2

  9
$PUCSORTHOVIEW
 70
     0
  9
$PUCSORGTOP
 10
0.0
 20
0.0
 30
0.0
  9
$PUCSORGBOTTOM
 10
0.0
 20
0.0
 30
0.0
  9
$PUCSORGLEFT
 10
0.0
 20
0.0
 30
0.0
  9
$PUCSORGRIGHT
 10
0.0
 20
0.0
 30
0.0
  9
$PUCSORGFRONT
 10
0.0
 20
0.0
 30
0.0
  9
$PUCSORGBACK
 10
0.0
 20
0.0
 30
0.0
  9
$USERI1
 70
     0
  9
$USERI2
 70
     0
  9
$USERI3
 70
     0
  9
$USERI4
 70
     0
  9
$USERI5
 70
     0
  9
$USERR1
 40
0.0
  9
$USERR2
 40
0.0
  9
$USERR3
 40
0.0
  9
$USERR4
 40
0.0
  9
$USERR5
 40
0.0
  9
$WORLDVIEW
 70
     1
  9
$SHADEDGE
 70
     3
  9
$SHADEDIF
 70
    70
  9
$TILEMODE
 70
     1
  9
$MAXACTVP
 70
    64
  9
$PINSBASE
 10
0.0
 20
0.0
 30
0.0
  9
$PLIMCHECK
 70
     0
  9
$PEXTMIN
 10
1.0000000000E+20
 20
1.0000000000E+20
 30
1.0000000000E+20
  9
$PEXTMAX
 10
-1.0000000000E+20
 20
-1.0000000000E+20
 30
-1.0000000000E+20
  9
$PLIMMIN
 10
0.0
 20
0.0
  9
$PLIMMAX
 10
420.0
 20
297.0
  9
$UNITMODE
 70
     0
  9
$VISRETAIN
 70
     1
  9
$PLINEGEN
 70
     0
  9
$PSLTSCALE
 70
     1
  9
$TREEDEPTH
 70
  3020
  9
$CMLSTYLE
  2
Standard
  9
$CMLJUST
 70
     0
  9
$CMLSCALE
 40
20.0
  9
$PROXYGRAPHICS
 70
     1
  9
$MEASUREMENT
 70
     1
  9
$CELWEIGHT
370
    -1
  9
$ENDCAPS
280
     0
  9
$JOINSTYLE
280
     0
  9
$LWDISPLAY
290
     1
  9
$INSUNITS
 70
     4
  9
$HYPERLINKBASE
  1

  9
$STYLESHEET
  1

  9
$XEDIT
290
     1
  9
$CEPSNTYPE
380
     0
  9
$PSTYLEMODE
290
     1
  9
$FINGERPRINTGUID
  2
{b62708c1-849e-4002-9ea5-4ff2de545729}
  9
$VERSIONGUID
  2
{FAEB1C32-E019-11D5-929B-00C0DF256EC4}
  9
$EXTNAMES
290
     1
  9
$PSVPSCALE
 40
0.0
  9
$OLESTARTUP
290
     0
  0
ENDSEC
  0
SECTION
  2
CLASSES
  0
CLASS
  1
ACDBDICTIONARYWDFLT
  2
AcDbDictionaryWithDefault
  3
ObjectDBX Classes
 90
        0
280
     0
281
     0
  0
CLASS
  1
VISUALSTYLE
  2
AcDbVisualStyle
  3
ObjectDBX Classes
 90
     4095
280
     0
281
     0
  0
CLASS
  1
MATERIAL
  2
AcDbMaterial
  3
ObjectDBX Classes
 90
     1153
280
     0
281
     0
  0
CLASS
  1
SCALE
  2
AcDbScale
  3
ObjectDBX Classes
 90
     1153
280
     0
281
     0
  0
CLASS
  1
TABLESTYLE
  2
AcDbTableStyle
  3
ObjectDBX Classes
 90
     4095
280
     0
281
     0
  0
CLASS
  1
MLEADERSTYLE
  2
AcDbMLeaderStyle
  3
ACDB_MLEADERSTYLE_CLASS
 90
     4095
280
     0
281
     0
  0
CLASS
  1
SUN
  2
AcDbSun
  3
SCENEOE
 90
     1153
280
     0
281
     0
  0
CLASS
  1
ACDBPLACEHOLDER
  2
AcDbPlaceHolder
  3
ObjectDBX Classes
 90
        0
280
     0
281
     0
  0
CLASS
  1
LAYOUT
  2
AcDbLayout
  3
ObjectDBX Classes
 90
        0
280
     0
281
     0
  0
ENDSEC
  0
SECTION
  2
TABLES
  0
TABLE
  2
VPORT
  5
8
330
0
100
AcDbSymbolTable
 70
     1
  0
VPORT
  5
29
330
8
100
AcDbSymbolTableRecord
100
AcDbViewportTableRecord
  2
*Active
 70
     0
 10
0.0
 20
0.0
 11
1.0
 21
1.0
 12
105.0
 22
148.5
 13
0.0
 23
0.0
 14
10.0
 24
10.0
 15
10.0
 25
10.0
 16
0.0
 26
0.0
 36
1.0
 17
0.0
 27
0.0
 37
0.0
 40
297.0
 41
0.7070707071
 42
50.0
 43
0.0
 44
0.0
 50
0.0
 51
0.0
 71
     0
 72
  2000
 73
     1
 74
     3
 75
     0
 76
     0
 77
     0
 78
     0
281
     0
 65
     1
110
0.0
120
0.0
130
0.0
111
1.0
121
0.0
131
0.0
112
0.0
122
1.0
132
0.0
 79
     0
146
0.0
  0
ENDTAB
  0
TABLE
  2
LTYPE
  5
5
330
0
100
AcDbSymbolTable
 70
     6
  0
LTYPE
  5
14
330
5
100
AcDbSymbolTableRecord
100
AcDbLinetypeTableRecord
  2
ByBlock
 70
     0
  3

 72
    65
 73
     0
 40
0.0
  0
LTYPE
  5
15
330
5
100
AcDbSymbolTableRecord
100
AcDbLinetypeTableRecord
  2
ByLayer
 70
     0
  3

 72
    65
 73
     0
 40
0.0
  0
LTYPE
  5
16
330
5
100
AcDbSymbolTableRecord
100
AcDbLinetypeTableRecord
  2
Continuous
 70
     0
  3
Solid line
 72
    65
 73
     0
 40
0.0
  0
LTYPE
  5
6E
330
5
100
AcDbSymbolTableRecord
100
AcDbLinetypeTableRecord
  2
HIDDEN
 70
     0
  3
Hidden __ __ __ __ __ __ __ __ __ __ __ __ __ __
 72
    65
 73
     2
 40
1.905
 49
1.27
 74
     0
 49
-0.635
 74
     0
  0
LTYPE
  5
6F
330
5
100
AcDbSymbolTableRecord
100
AcDbLinetypeTableRecord
  2
PHANTOM
 70
     0
  3
Phantom ______  __  __  ______  __  __  ______
 72
    65
 73
     6
 40
12.7
 49
6.35
 74
     0
 49
-1.27
 74
     0
 49
1.27
 74
     0
 49
-1.27
 74
     0
 49
1.27
 74
     0
 49
-1.27
 74
     0
  0
LTYPE
  5
70
330
5
100
AcDbSymbolTableRecord
100
AcDbLinetypeTableRecord
  2
CENTER
 70
     0
  3
Center ____ _ ____ _ ____ _ ____ _ ____ _ ____
 72
    65
 73
     4
 40
10.16
 49
6.35
 74
     0
 49
-1.27
 74
     0
 49
1.27
 74
     0
 49
-1.27
 74
     0
  0
LTYPE
  5
71
330
5
100
AcDbSymbolTableRecord
100
AcDbLinetypeTableRecord
  2
CENTERX2
 70
     0
  3
Center (2x) ________  __  ________  __  _____
 72
    65
 73
     4
 40
20.32
 49
12.7
 74
     0
 49
-2.54
 74
     0
 49
2.54
 74
     0
 49
-2.54
 74
     0
  0
LTYPE
  5
72
330
5
100
AcDbSymbolTableRecord
100
AcDbLinetypeTableRecord
  2
DOT2
 70
     0
  3
Dot (.5x) ........................................
 72
    65
 73
     2
 40
0.635
 49
0.0
 74
     0
 49
-0.635
 74
     0
  0
ENDTAB
  0
TABLE
  2
LAYER
  5
2
330
0
100
AcDbSymbolTable
 70
     2
  0
LAYER
  5
10
330
2
100
AcDbSymbolTableRecord
100
AcDbLayerTableRecord
  2
0
 70
     0
 62
     7
  6
Continuous
370
    -3
390
F
  0
LAYER
  5
73
330
2
100
AcDbSymbolTableRecord
100
AcDbLayerTableRecord
  2
SLD-0
 70
     0
 62
   179
  6
Continuous
370
    -3
390
F
  0
ENDTAB
  0
TABLE
  2
STYLE
  5
3
330
0
100
AcDbSymbolTable
 70
     2
  0
STYLE
  5
11
330
3
100
AcDbSymbolTableRecord
100
AcDbTextStyleTableRecord
  2
Standard
 70
     0
 40
0.0
 41
1.0
 50
0.0
 71
     0
 42
3.5
  3
txt
  4
bigfont
  0
STYLE
  5
7A
330
3
100
AcDbSymbolTableRecord
100
AcDbTextStyleTableRecord
  2
SLDTEXTSTYLE0
 70
     0
 40
0.0
 41
0.7
 50
0.0
 71
     0
 42
3.5
  3
TXT
  4
bigfont
  0
ENDTAB
  0
TABLE
  2
VIEW
  5
6
330
0
100
AcDbSymbolTable
 70
     0
  0
ENDTAB
  0
TABLE
  2
UCS
  5
7
330
0
100
AcDbSymbolTable
 70
     0
  0
ENDTAB
  0
TABLE
  2
APPID
  5
9
330
0
100
AcDbSymbolTable
 70
     1
  0
APPID
  5
12
330
9
100
AcDbSymbolTableRecord
100
AcDbRegAppTableRecord
  2
ACAD
 70
     0
  0
ENDTAB
  0
TABLE
  2
DIMSTYLE
  5
A
330
0
100
AcDbSymbolTable
 70
     1
100
AcDbDimStyleTable
  0
DIMSTYLE
105
27
330
A
100
AcDbSymbolTableRecord
100
AcDbDimStyleTableRecord
  2
ISO-25
 70
     0
 41
2.5
 42
0.625
 43
3.75
 44
1.25
 73
     0
 74
     0
 77
     1
 78
     8
140
2.5
141
2.5
143
0.0393700787
147
0.625
171
     3
172
     1
178
     0
271
     2
272
     2
274
     3
278
    44
283
     0
284
     8
340
11
  0
ENDTAB
  0
TABLE
  2
BLOCK_RECORD
  5
1
330
0
100
AcDbSymbolTable
 70
     6
  0
BLOCK_RECORD
  5
1F
330
1
100
AcDbSymbolTableRecord
100
AcDbBlockTableRecord
  2
*Model_Space
340
22
  0
BLOCK_RECORD
  5
1B
330
1
100
AcDbSymbolTableRecord
100
AcDbBlockTableRecord
  2
*Paper_Space
340
1E
  0
BLOCK_RECORD
  5
23
330
1
100
AcDbSymbolTableRecord
100
AcDbBlockTableRecord
  2
*Paper_Space0
340
26
  0
BLOCK_RECORD
  5
74
330
1
100
AcDbSymbolTableRecord
100
AcDbBlockTableRecord
  2
SW_NOTE_0
340
0
102
{BLKREFS
331
53A
102
}
  0
BLOCK_RECORD
  5
77
330
1
100
AcDbSymbolTableRecord
100
AcDbBlockTableRecord
  2
SW_NOTE_0_1
340
0
102
{BLKREFS
331
7C
102
}
  0
BLOCK_RECORD
  5
7D
330
1
100
AcDbSymbolTableRecord
100
AcDbBlockTableRecord
  2
SW_NOTE_0_2
340
0
102
{BLKREFS
331
81
102
}
  0
BLOCK_RECORD
  5
82
330
1
100
AcDbSymbolTableRecord
100
AcDbBlockTableRecord
  2
SW_NOTE_0_3
340
0
102
{BLKREFS
331
86
102
}
  0
BLOCK_RECORD
  5
87
330
1
100
AcDbSymbolTableRecord
100
AcDbBlockTableRecord
  2
SW_NOTE_0_4
340
0
102
{BLKREFS
331
8B
102
}
  0
ENDTAB
  0
ENDSEC
  0
SECTION
  2
BLOCKS
  0
BLOCK
  5
20
330
1F
100
AcDbEntity
  8
0
100
AcDbBlockBegin
  2
*Model_Space
 70
     0
 10
0.0
 20
0.0
 30
0.0
  3
*Model_Space
  1

  0
ENDBLK
  5
21
330
1F
100
AcDbEntity
  8
0
100
AcDbBlockEnd
  0
BLOCK
  5
1C
330
1B
100
AcDbEntity
 67
     1
  8
0
100
AcDbBlockBegin
  2
*Paper_Space
 70
     0
 10
0.0
 20
0.0
 30
0.0
  3
*Paper_Space
  1

  0
ENDBLK
  5
1D
330
1B
100
AcDbEntity
 67
     1
  8
0
100
AcDbBlockEnd
  0
BLOCK
  5
24
330
23
100
AcDbEntity
  8
0
100
AcDbBlockBegin
  2
*Paper_Space0
 70
     0
 10
0.0
 20
0.0
 30
0.0
  3
*Paper_Space0
  1

  0
ENDBLK
  5
25
330
23
100
AcDbEntity
  8
0
100
AcDbBlockEnd
  0
BLOCK
  5
75
330
74
100
AcDbEntity
  8
0
100
AcDbBlockBegin
  2
SW_NOTE_0
 70
     0
 10
0.0
 20
0.0
 30
0.0
  3
SW_NOTE_0
  1

  0
INSERT
  5
7C
330
74
100
AcDbEntity
  8
SLD-0
 62
   179
100
AcDbBlockReference
  2
SW_NOTE_0_1
 10
0.0
 20
-42.7272757075
 30
0.0
  0
INSERT
  5
81
330
74
100
AcDbEntity
  8
SLD-0
 62
   179
100
AcDbBlockReference
  2
SW_NOTE_0_2
 10
0.0
 20
-492.727256336
 30
0.0
  0
INSERT
  5
86
330
74
100
AcDbEntity
  8
SLD-0
 62
   179
100
AcDbBlockReference
  2
SW_NOTE_0_3
 10
0.0
 20
-942.7272369645
 30
0.0
  0
INSERT
  5
8B
330
74
100
AcDbEntity
  8
SLD-0
 62
   179
100
AcDbBlockReference
  2
SW_NOTE_0_4
 10
0.0
 20
-1343.741808564
 30
0.0
  0
ENDBLK
  5
76
330
74
100
AcDbEntity
  8
0
100
AcDbBlockEnd
  0
BLOCK
  5
78
330
77
100
AcDbEntity
  8
0
100
AcDbBlockBegin
  2
SW_NOTE_0_1
 70
     0
 10
0.0
 20
0.0
 30
0.0
  3
SW_NOTE_0_1
  1

  0
MTEXT
  5
7B
330
77
100
AcDbEntity
  8
SLD-0
 62
     0
100
AcDbMText
 10
0.0
 20
451.1737089202
 30
0.0
 40
350.0
 41
0.0
 71
     1
 72
     1
  1
HAC-D36T
  7
SLDTEXTSTYLE0
 73
     1
 44
1.0
  0
ENDBLK
  5
79
330
77
100
AcDbEntity
  8
0
100
AcDbBlockEnd
  0
BLOCK
  5
7E
330
7D
100
AcDbEntity
  8
0
100
AcDbBlockBegin
  2
SW_NOTE_0_2
 70
     0
 10
0.0
 20
0.0
 30
0.0
  3
SW_NOTE_0_2
  1

  0
MTEXT
  5
80
330
7D
100
AcDbEntity
  8
SLD-0
 62
     0
100
AcDbMText
 10
0.0
 20
451.1737089202
 30
0.0
 40
350.0
 41
0.0
 71
     1
 72
     1
  1
HAC-W36T
  7
SLDTEXTSTYLE0
 73
     1
 44
1.0
  0
ENDBLK
  5
7F
330
7D
100
AcDbEntity
  8
0
100
AcDbBlockEnd
  0
BLOCK
  5
83
330
82
100
AcDbEntity
  8
0
100
AcDbBlockBegin
  2
SW_NOTE_0_3
 70
     0
 10
0.0
 20
0.0
 30
0.0
  3
SW_NOTE_0_3
  1

  0
MTEXT
  5
85
330
82
100
AcDbEntity
  8
SLD-0
 62
     0
100
AcDbMText
 10
0.0
 20
451.1737089202
 30
0.0
 40
350.0
 41
0.0
 71
     1
 72
     1
  1
HAC-B36T
  7
SLDTEXTSTYLE0
 73
     1
 44
1.0
  0
ENDBLK
  5
84
330
82
100
AcDbEntity
  8
0
100
AcDbBlockEnd
  0
BLOCK
  5
88
330
87
100
AcDbEntity
  8
0
100
AcDbBlockBegin
  2
SW_NOTE_0_4
 70
     0
 10
0.0
 20
0.0
 30
0.0
  3
SW_NOTE_0_4
  1

  0
MTEXT
  5
8A
330
87
100
AcDbEntity
  8
SLD-0
 62
     0
100
AcDbMText
 10
0.0
 20
451.1737089202
 30
0.0
 40
350.0
 41
0.0
 71
     1
 72
     1
  1
HAC-H36T
  7
SLDTEXTSTYLE0
 73
     1
 44
1.0
  0
ENDBLK
  5
89
330
87
100
AcDbEntity
  8
0
100
AcDbBlockEnd
  0
ENDSEC
  0
SECTION
  2
ENTITIES
  0
LINE
  5
8C
330
1F
100
AcDbEntity
  8
SLD-0
  6
Continuous
 62
   179
370
    25
100
AcDbLine
 10
18.1498256553
 20
189.3060696647
 30
0.0
 11
14.3964794506
 21
190.2775067985
 31
0.0
  0
LINE
  5
8D
330
1F
100
AcDbEntity
  8
SLD-0
  6
Continuous
 62
   179
370
    25
100
AcDbLine
 10
14.6124814678
 20
189.7180377468
 30
0.0
 11
18.0276766647
 21
188.8341206089
 31
0.0
  0
LINE
  5
8E
330
1F
100
AcDbEntity
  8
SLD-0
  6
Continuous
 62
   179
370
    25
100
AcDbLine
 10
18.1402503182
 20
188.8587364703
 30
0.0
 11
18.2604021062
 21
188.8276389018
 31
0.0
  0
LINE
  5
8F
330
1F
100
AcDbEntity
  8
SLD-0
  6
Continuous
 62
   179
370
    25
100
AcDbLine
 10
18.3092609276
 20
189.0164186209
 30
0.0
 11
18.24996738
 21
189.0318111638
 31
0.0
  0
LINE
  5
90
330
1F
100
AcDbEntity
  8
SLD-0
  6
Continuous
 62
   179
370
    25
100
AcDbLine
 10
18.3092609276
 20
189.2110524103
 30
0.0
 11
18.2341138008
 21
189.2302299465
 31
0.0
  0
LINE
  5
91
330
1F
100
AcDbEntity
  8
SLD-0
  6
Continuous
 62
   179
370
    25
100
AcDbLine
 10
18.2966733207
 20
188.8106462136
 30
0.0
 11
18.4618696798
 21
188.700191319
 31
0.0
  0
LINE
  5
92
330
1F
100
AcDbEntity
  8
SLD-0
  6
Continuous
 62
   179
370
    25
100
AcDbLine
 10
18.5702571501
 20
188.8622945324
 30
0.0
 11
18.4050607909
 21
188.972749427
 31
0.0
  0
LINE
  5
93
330
1F
100
AcDbEntity
  8
SLD-0
  6
Continuous
 62
   179
370
    25
100
AcDbLine
 10
18.3148763768
 20
189.0146377067
 30
0.0
 11
18.3654228081
 21
189.016403608
 31
0.0
  0
LINE
  5
94
330
1F
100
AcDbEntity
  8
SLD-0
  6
Continuous
 62
   179
370
    25
100
AcDbLine
 10
18.3654228081
 20
189.016403608
 30
0.0
 11
18.5306191672
 21
189.0413463637
 31
0.0
  0
LINE
  5
95
330
1F
100
AcDbEntity
  8
SLD-0
  6
Continuous
 62
   179
370
    25
100
AcDbLine
 10
18.5015076627
 20
189.2341611683
 30
0.0
 11
18.3363113035
 21
189.2092179283
 31
0.0
  0
LINE
  5
96
330
1F
100
AcDbEntity
  8
SLD-0
  6
Continuous
 62
   179
370
    25
100
AcDbLine
 10
18.5576695431
 20
188.6565226093
 30
0.0
 11
18.9835599293
 21
188.5462938771
 31
0.0
  0
LINE
  5
97
330
1F
100
AcDbEntity
  8
SLD-0
  6
Continuous
 62
   179
370
    25
100
AcDbLine
 10
19.0324187506
 20
188.7350735962
 30
0.0
 11
18.6065283645
 21
188.8453023285
 31
0.0
  0
LINE
  5
98
330
1F
100
AcDbEntity
  8
SLD-0
  6
Continuous
 62
   179
370
    25
100
AcDbLine
 10
18.5576695431
 20
189.0395123661
 30
0.0
 11
18.9835599293
 21
188.9292836338
 31
0.0
  0
LINE
  5
99
330
1F
100
AcDbEntity
  8
SLD-0
  6
Continuous
 62
   179
370
    25
100
AcDbLine
 10
19.0324187506
 20
189.118063353
 30
0.0
 11
18.6065283645
 21
189.2282916009
 31
0.0
  0
LINE
  5
9A
330
1F
100
AcDbEntity
  8
SLD-0
  6
Continuous
 62
   179
370
    25
100
AcDbLine
 10
18.9632004727
 20
188.3452050164
 30
0.0
 11
202.8109643091
 21
140.7619011551
 31
0.0
  0
LINE
  5
9B
330
1F
100
AcDbEntity
  8
SLD-0
  6
Continuous
 62
   179
370
    25
100
AcDbLine
 10
103.2725313534
 20
167.0027223378
 30
0.0
 11
103.9619556297
 21
166.8242836148
 31
0.0
  0
LINE
  5
9C
330
1F
100
AcDbEntity
  8
SLD-0
  6
Continuous
 62
   179
370
    25
100
AcDbLine
 10
104.0014657606
 20
167.507354036
 30
0.0
 11
103.3120337356
 21
167.6857908219
 31
0.0
  0
LINE
  5
9D
330
1F
100
AcDbEntity
  8
SLD-0
  6
Continuous
 62
   179
370
    25
100
AcDbLine
 10
118.7617036928
 20
162.9938291162
 30
0.0
 11
119.4511357178
 21
162.8153903931
 31
0.0
  0
LINE
  5
9E
330
1F
100
AcDbEntity
  8
SLD-0
  6
Continuous
 62
   179
370
    25
100
AcDbLine
 10
119.4906381
 20
163.4984608144
 30
0.0
 11
118.8012060751
 21
163.6768995374
 31
0.0
  0
LINE
  5
9F
330
1F
100
AcDbEntity
  8
SLD-0
  6
Continuous
 62
   179
370
    25
100
AcDbLine
 10
57.2186658014
 20
178.9223395437
 30
0.0
 11
57.9080939521
 21
178.7439008206
 31
0.0
  0
LINE
  5
A0
330
1F
100
AcDbEntity
  8
SLD-0
  6
Continuous
 62
   179
370
    25
100
AcDbLine
 10
57.9476002086
 20
179.4269702733
 30
0.0
 11
57.2581681837
 21
179.6054080278
 31
0.0
  0
LINE
  5
A1
330
1F
100
AcDbEntity
  8
SLD-0
  6
Continuous
 62
   179
370
    25
100
AcDbLine
 10
195.3802547086
 20
143.1634879261
 30
0.0
 11
196.0696944822
 21
142.985049203
 31
0.0
  0
LINE
  5
A2
330
1F
100
AcDbEntity
  8
SLD-0
  6
Continuous
 62
   179
370
    25
100
AcDbLine
 10
196.1091968645
 20
143.6681196243
 30
0.0
 11
195.4197570909
 21
143.8465583473
 31
0.0
  0
LINE
  5
A3
330
1F
100
AcDbEntity
  8
SLD-0
  6
Continuous
 62
   179
370
    25
100
AcDbLine
 10
72.7078381408
 20
174.9134443849
 30
0.0
 11
73.3972701658
 21
174.735007599
 31
0.0
  0
LINE
  5
A4
330
1F
100
AcDbEntity
  8
SLD-0
  6
Continuous
 62
   179
370
    25
100
AcDbLine
 10
73.4367725481
 20
175.4180780202
 30
0.0
 11
72.7473482717
 21
175.5965148061
 31
0.0
  0
LINE
  5
A5
330
1F
100
AcDbEntity
  8
SLD-0
  6
Continuous
 62
   179
370
    25
100
AcDbLine
 10
26.653974526
 20
186.8330630437
 30
0.0
 11
27.3434046139
 21
186.6546257734
 31
0.0
  0
LINE
  5
A6
330
1F
100
AcDbEntity
  8
SLD-0
  6
Continuous
 62
   179
370
    25
100
AcDbLine
 10
27.3829069961
 20
187.3376947418
 30
0.0
 11
26.6934788455
 21
187.516132012
 31
0.0
  0
LINE
  5
A7
330
1F
100
AcDbEntity
  8
SLD-0
  6
Continuous
 62
   179
370
    25
100
AcDbLine
 10
149.3263969053
 20
155.0831031948
 30
0.0
 11
150.0158211817
 21
154.904668346
 31
0.0
  0
LINE
  5
A8
330
1F
100
AcDbEntity
  8
SLD-0
  6
Continuous
 62
   179
370
    25
100
AcDbLine
 10
150.0553235639
 20
155.587734893
 30
0.0
 11
149.3658992876
 21
155.766173616
 31
0.0
  0
LINE
  5
A9
330
1F
100
AcDbEntity
  8
SLD-0
  6
Continuous
 62
   179
370
    25
100
AcDbLine
 10
164.8155614961
 20
151.0742119104
 30
0.0
 11
165.5050012697
 21
150.8957731873
 31
0.0
  0
LINE
  5
AA
330
1F
100
AcDbEntity
  8
SLD-0
  6
Continuous
 62
   179
370
    25
100
AcDbLine
 10
165.544503652
 20
151.5788436085
 30
0.0
 11
164.8550793756
 21
151.7572784573
 31
0.0
  0
LINE
  5
AB
330
1F
100
AcDbEntity
  8
SLD-0
  6
Continuous
 62
   179
370
    25
100
AcDbLine
 10
19.1657857825
 20
188.4983455166
 30
0.0
 11
65.1277277101
 21
176.6025199145
 31
0.0
  0
LINE
  5
AC
330
1F
100
AcDbEntity
  8
SLD-0
  6
Continuous
 62
   179
370
    25
100
AcDbLine
 10
157.3273727525
 20
152.7394953519
 30
0.0
 11
203.2893166174
 21
140.8436682969
 31
0.0
  0
LINE
  5
AD
330
1F
100
AcDbEntity
  8
SLD-0
  6
Continuous
 62
   179
370
    25
100
AcDbLine
 10
65.2196493973
 20
176.5787278265
 30
0.0
 11
111.1815932621
 21
164.6829027086
 31
0.0
  0
LINE
  5
AE
330
1F
100
AcDbEntity
  8
SLD-0
  6
Continuous
 62
   179
370
    25
100
AcDbLine
 10
111.2735149492
 20
164.6591106206
 30
0.0
 11
157.235458814
 21
152.7632835656
 31
0.0
  0
LINE
  5
AF
330
1F
100
AcDbEntity
  8
SLD-0
  6
Continuous
 62
   179
370
    25
100
AcDbLine
 10
18.0276766647
 20
188.8341206089
 30
0.0
 11
18.0354891945
 21
188.8323892802
 31
0.0
  0
LINE
  5
B0
330
1F
100
AcDbEntity
  8
SLD-0
  6
Continuous
 62
   179
370
    25
100
AcDbLine
 10
18.0354891945
 20
188.8323892802
 30
0.0
 11
18.08875116
 21
188.8346509039
 31
0.0
  0
LINE
  5
B1
330
1F
100
AcDbEntity
  8
SLD-0
  6
Continuous
 62
   179
370
    25
100
AcDbLine
 10
18.08875116
 20
188.8346509039
 30
0.0
 11
18.1420111884
 21
188.8599592969
 31
0.0
  0
LINE
  5
B2
330
1F
100
AcDbEntity
  8
SLD-0
  6
Continuous
 62
   179
370
    25
100
AcDbLine
 10
18.1420111884
 20
188.8599592969
 30
0.0
 11
18.1900602807
 21
188.9058373272
 31
0.0
  0
LINE
  5
B3
330
1F
100
AcDbEntity
  8
SLD-0
  6
Continuous
 62
   179
370
    25
100
AcDbLine
 10
18.1900602807
 20
188.9058373272
 30
0.0
 11
18.2281911601
 21
188.9677941948
 31
0.0
  0
LINE
  5
B4
330
1F
100
AcDbEntity
  8
SLD-0
  6
Continuous
 62
   179
370
    25
100
AcDbLine
 10
18.2281911601
 20
188.9677941948
 30
0.0
 11
18.2526728739
 21
189.03976468
 31
0.0
  0
LINE
  5
B5
330
1F
100
AcDbEntity
  8
SLD-0
  6
Continuous
 62
   179
370
    25
100
AcDbLine
 10
18.2526728739
 20
189.03976468
 30
0.0
 11
18.2611072291
 21
189.1147043332
 31
0.0
  0
LINE
  5
B6
330
1F
100
AcDbEntity
  8
SLD-0
  6
Continuous
 62
   179
370
    25
100
AcDbLine
 10
18.2611072291
 20
189.1147043332
 30
0.0
 11
18.2526728739
 21
189.1852776483
 31
0.0
  0
LINE
  5
B7
330
1F
100
AcDbEntity
  8
SLD-0
  6
Continuous
 62
   179
370
    25
100
AcDbLine
 10
18.2526728739
 20
189.1852776483
 30
0.0
 11
18.2281911601
 21
189.2445752919
 31
0.0
  0
LINE
  5
B8
330
1F
100
AcDbEntity
  8
SLD-0
  6
Continuous
 62
   179
370
    25
100
AcDbLine
 10
18.2281911601
 20
189.2445752919
 30
0.0
 11
18.1900602807
 21
189.2867945284
 31
0.0
  0
LINE
  5
B9
330
1F
100
AcDbEntity
  8
SLD-0
  6
Continuous
 62
   179
370
    25
100
AcDbLine
 10
18.1900602807
 20
189.2867945284
 30
0.0
 11
18.1498256553
 21
189.3060696647
 31
0.0
  0
LINE
  5
BA
330
1F
100
AcDbEntity
  8
SLD-0
  6
Continuous
 62
   179
370
    25
100
AcDbLine
 10
18.9835599293
 20
188.5462938771
 30
0.0
 11
19.0079893399
 21
188.5465059951
 31
0.0
  0
LINE
  5
BB
330
1F
100
AcDbEntity
  8
SLD-0
  6
Continuous
 62
   179
370
    25
100
AcDbLine
 10
19.0079893399
 20
188.5465059951
 30
0.0
 11
19.034373336
 21
188.5605033636
 31
0.0
  0
LINE
  5
BC
330
1F
100
AcDbEntity
  8
SLD-0
  6
Continuous
 62
   179
370
    25
100
AcDbLine
 10
19.034373336
 20
188.5605033636
 30
0.0
 11
19.0567396809
 21
188.5867076889
 31
0.0
  0
LINE
  5
BD
330
1F
100
AcDbEntity
  8
SLD-0
  6
Continuous
 62
   179
370
    25
100
AcDbLine
 10
19.0567396809
 20
188.5867076889
 30
0.0
 11
19.0716848005
 21
188.6211289242
 31
0.0
  0
LINE
  5
BE
330
1F
100
AcDbEntity
  8
SLD-0
  6
Continuous
 62
   179
370
    25
100
AcDbLine
 10
19.0716848005
 20
188.6211289242
 30
0.0
 11
19.0769325424
 21
188.6585275605
 31
0.0
  0
LINE
  5
BF
330
1F
100
AcDbEntity
  8
SLD-0
  6
Continuous
 62
   179
370
    25
100
AcDbLine
 10
18.9835599293
 20
188.9292836338
 30
0.0
 11
19.0079893399
 21
188.9294957519
 31
0.0
  0
LINE
  5
C0
330
1F
100
AcDbEntity
  8
SLD-0
  6
Continuous
 62
   179
370
    25
100
AcDbLine
 10
19.0079893399
 20
188.9294957519
 30
0.0
 11
19.034373336
 21
188.9434931204
 31
0.0
  0
LINE
  5
C1
330
1F
100
AcDbEntity
  8
SLD-0
  6
Continuous
 62
   179
370
    25
100
AcDbLine
 10
19.034373336
 20
188.9434931204
 30
0.0
 11
19.0567396809
 21
188.9696969613
 31
0.0
  0
LINE
  5
C2
330
1F
100
AcDbEntity
  8
SLD-0
  6
Continuous
 62
   179
370
    25
100
AcDbLine
 10
19.0567396809
 20
188.9696969613
 30
0.0
 11
19.0716848005
 21
189.0041186809
 31
0.0
  0
LINE
  5
C3
330
1F
100
AcDbEntity
  8
SLD-0
  6
Continuous
 62
   179
370
    25
100
AcDbLine
 10
19.0716848005
 20
189.0041186809
 30
0.0
 11
19.0769325424
 21
189.0415173173
 31
0.0
  0
LINE
  5
C4
330
1F
100
AcDbEntity
  8
SLD-0
  6
Continuous
 62
   179
370
    25
100
AcDbLine
 10
18.9660325874
 20
189.1352453977
 30
0.0
 11
19.1343845655
 21
189.1788182184
 31
0.0
  0
LINE
  5
C5
330
1F
100
AcDbEntity
  8
SLD-0
  6
Continuous
 62
   179
370
    25
100
AcDbLine
 10
19.1343845655
 20
189.1788182184
 30
0.0
 11
19.1343845655
 21
188.5509662852
 31
0.0
  0
LINE
  5
C6
330
1F
100
AcDbEntity
  8
SLD-0
  6
Continuous
 62
   179
370
    25
100
AcDbLine
 10
19.1343845655
 20
188.5509662852
 30
0.0
 11
19.1247627367
 21
188.48240228
 31
0.0
  0
LINE
  5
C7
330
1F
100
AcDbEntity
  8
SLD-0
  6
Continuous
 62
   179
370
    25
100
AcDbLine
 10
19.1247627367
 20
188.48240228
 30
0.0
 11
19.0973636735
 21
188.4192961976
 31
0.0
  0
LINE
  5
C8
330
1F
100
AcDbEntity
  8
SLD-0
  6
Continuous
 62
   179
370
    25
100
AcDbLine
 10
19.0973636735
 20
188.4192961976
 30
0.0
 11
19.0563580621
 21
188.3712553382
 31
0.0
  0
LINE
  5
C9
330
1F
100
AcDbEntity
  8
SLD-0
  6
Continuous
 62
   179
370
    25
100
AcDbLine
 10
19.0563580621
 20
188.3712553382
 30
0.0
 11
19.0079893399
 21
188.3455934152
 31
0.0
  0
LINE
  5
CA
330
1F
100
AcDbEntity
  8
SLD-0
  6
Continuous
 62
   179
370
    25
100
AcDbLine
 10
19.0079893399
 20
188.3455934152
 30
0.0
 11
18.9596206177
 21
188.3462176621
 31
0.0
  0
LINE
  5
CB
330
1F
100
AcDbEntity
  8
SLD-0
  6
Continuous
 62
   179
370
    25
100
AcDbLine
 10
18.9596206177
 20
188.3462176621
 30
0.0
 11
18.9186130692
 21
188.3730321899
 31
0.0
  0
LINE
  5
CC
330
1F
100
AcDbEntity
  8
SLD-0
  6
Continuous
 62
   179
370
    25
100
AcDbLine
 10
18.9186130692
 20
188.3730321899
 30
0.0
 11
18.8912159432
 21
188.4219554216
 31
0.0
  0
LINE
  5
CD
330
1F
100
AcDbEntity
  8
SLD-0
  6
Continuous
 62
   179
370
    25
100
AcDbLine
 10
18.8912159432
 20
188.4219554216
 30
0.0
 11
18.8815941144
 21
188.4855390117
 31
0.0
  0
LINE
  5
CE
330
1F
100
AcDbEntity
  8
SLD-0
  6
Continuous
 62
   179
370
    25
100
AcDbLine
 10
18.8815941144
 20
188.4855390117
 30
0.0
 11
18.8815941144
 21
188.5726846531
 31
0.0
  0
LINE
  5
CF
330
1F
100
AcDbEntity
  8
SLD-0
  6
Continuous
 62
   179
370
    25
100
AcDbLine
 10
18.8815941144
 20
188.7741100937
 30
0.0
 11
18.8815941144
 21
188.9556744099
 31
0.0
  0
LINE
  5
D0
330
1F
100
AcDbEntity
  8
SLD-0
  6
Continuous
 62
   179
370
    25
100
AcDbLine
 10
202.9783341516
 20
140.9245637208
 30
0.0
 11
202.9725072016
 21
140.8990088254
 31
0.0
  0
LINE
  5
D1
330
1F
100
AcDbEntity
  8
SLD-0
  6
Continuous
 62
   179
370
    25
100
AcDbLine
 10
202.9725072016
 20
140.8990088254
 30
0.0
 11
202.9451081384
 21
140.8359429389
 31
0.0
  0
LINE
  5
D2
330
1F
100
AcDbEntity
  8
SLD-0
  6
Continuous
 62
   179
370
    25
100
AcDbLine
 10
202.9451081384
 20
140.8359429389
 30
0.0
 11
202.904102527
 21
140.7879364639
 31
0.0
  0
LINE
  5
D3
330
1F
100
AcDbEntity
  8
SLD-0
  6
Continuous
 62
   179
370
    25
100
AcDbLine
 10
202.904102527
 20
140.7879364639
 30
0.0
 11
202.8557512392
 21
140.7622885853
 31
0.0
  0
LINE
  5
D4
330
1F
100
AcDbEntity
  8
SLD-0
  6
Continuous
 62
   179
370
    25
100
AcDbLine
 10
202.8557512392
 20
140.7622885853
 30
0.0
 11
202.8109643091
 21
140.7619011551
 31
0.0
  0
LINE
  5
D5
330
1F
100
AcDbEntity
  8
SLD-0
  6
Continuous
 62
   179
370
    25
100
AcDbLine
 10
19.1458757449
 20
189.1758442074
 30
0.0
 11
19.1343845655
 21
189.1788182184
 31
0.0
  0
LINE
  5
D6
330
1F
100
AcDbEntity
  8
SLD-0
  6
Continuous
 62
   179
370
    25
100
AcDbLine
 10
102.681700312
 20
168.0125203878
 30
0.0
 11
102.0605644811
 21
167.8517581671
 31
0.0
  0
LINE
  5
D7
330
1F
100
AcDbEntity
  8
SLD-0
  6
Continuous
 62
   179
370
    25
100
AcDbLine
 10
102.681700312
 20
167.8869503885
 30
0.0
 11
102.681700312
 21
168.0125203878
 31
0.0
  0
LINE
  5
D8
330
1F
100
AcDbEntity
  8
SLD-0
  6
Continuous
 62
   179
370
    25
100
AcDbLine
 10
102.3031422724
 20
167.7889712304
 30
0.0
 11
102.681700312
 21
167.8869503885
 31
0.0
  0
LINE
  5
D9
330
1F
100
AcDbEntity
  8
SLD-0
  6
Continuous
 62
   179
370
    25
100
AcDbLine
 10
102.7627662052
 20
167.6700146645
 30
0.0
 11
102.8058019508
 21
167.6811532825
 31
0.0
  0
LINE
  5
DA
330
1F
100
AcDbEntity
  8
SLD-0
  6
Continuous
 62
   179
370
    25
100
AcDbLine
 10
102.8655514349
 20
167.8869503885
 30
0.0
 11
102.681700312
 21
167.8869503885
 31
0.0
  0
LINE
  5
DB
330
1F
100
AcDbEntity
  8
SLD-0
  6
Continuous
 62
   179
370
    25
100
AcDbLine
 10
102.8655514349
 20
167.8869503885
 30
0.0
 11
103.233245932
 21
167.7917839736
 31
0.0
  0
LINE
  5
DC
330
1F
100
AcDbEntity
  8
SLD-0
  6
Continuous
 62
   179
370
    25
100
AcDbLine
 10
103.1551090111
 20
167.7715601176
 30
0.0
 11
103.233245932
 21
167.7917839736
 31
0.0
  0
LINE
  5
DD
330
1F
100
AcDbEntity
  8
SLD-0
  6
Continuous
 62
   179
370
    25
100
AcDbLine
 10
104.290372454
 20
167.5181807727
 30
0.0
 11
103.9226779569
 21
167.6133471876
 31
0.0
  0
LINE
  5
DE
330
1F
100
AcDbEntity
  8
SLD-0
  6
Continuous
 62
   179
370
    25
100
AcDbLine
 10
104.290372454
 20
167.4705965966
 30
0.0
 11
104.290372454
 21
167.5181807727
 31
0.0
  0
LINE
  5
DF
330
1F
100
AcDbEntity
  8
SLD-0
  6
Continuous
 62
   179
370
    25
100
AcDbLine
 10
104.0023491014
 20
167.3960511535
 30
0.0
 11
104.290372454
 21
167.4705965966
 31
0.0
  0
LINE
  5
E0
330
1F
100
AcDbEntity
  8
SLD-0
  6
Continuous
 62
   179
370
    25
100
AcDbLine
 10
102.5093481172
 20
167.7769144028
 30
0.0
 11
102.4776408304
 21
167.7646348029
 31
0.0
  0
LINE
  5
E1
330
1F
100
AcDbEntity
  8
SLD-0
  6
Continuous
 62
   179
370
    25
100
AcDbLine
 10
102.4776408304
 20
167.7646348029
 30
0.0
 11
102.4665138353
 21
167.7501487881
 31
0.0
  0
LINE
  5
E2
330
1F
100
AcDbEntity
  8
SLD-0
  6
Continuous
 62
   179
370
    25
100
AcDbLine
 10
102.4665138353
 20
167.7501487881
 30
0.0
 11
102.4671802152
 21
167.74651663
 31
0.0
  0
LINE
  5
E3
330
1F
100
AcDbEntity
  8
SLD-0
  6
Continuous
 62
   179
370
    25
100
AcDbLine
 10
102.7161738504
 20
167.7233831733
 30
0.0
 11
102.9459819425
 21
167.7828633934
 31
0.0
  0
LINE
  5
E4
330
1F
100
AcDbEntity
  8
SLD-0
  6
Continuous
 62
   179
370
    25
100
AcDbLine
 10
102.9459819425
 20
167.7828633934
 30
0.0
 11
102.9776892294
 21
167.7951410562
 31
0.0
  0
LINE
  5
E5
330
1F
100
AcDbEntity
  8
SLD-0
  6
Continuous
 62
   179
370
    25
100
AcDbLine
 10
102.9776892294
 20
167.7951410562
 30
0.0
 11
102.9888162245
 21
167.809627071
 31
0.0
  0
LINE
  5
E6
330
1F
100
AcDbEntity
  8
SLD-0
  6
Continuous
 62
   179
370
    25
100
AcDbLine
 10
102.9888162245
 20
167.809627071
 30
0.0
 11
102.9776892294
 21
167.8241130859
 31
0.0
  0
LINE
  5
E7
330
1F
100
AcDbEntity
  8
SLD-0
  6
Continuous
 62
   179
370
    25
100
AcDbLine
 10
102.9776892294
 20
167.8241130859
 30
0.0
 11
102.9459819425
 21
167.8363926858
 31
0.0
  0
LINE
  5
E8
330
1F
100
AcDbEntity
  8
SLD-0
  6
Continuous
 62
   179
370
    25
100
AcDbLine
 10
102.9459819425
 20
167.8363926858
 30
0.0
 11
102.8985372413
 21
167.8445984572
 31
0.0
  0
LINE
  5
E9
330
1F
100
AcDbEntity
  8
SLD-0
  6
Continuous
 62
   179
370
    25
100
AcDbLine
 10
102.8985372413
 20
167.8445984572
 30
0.0
 11
102.8425690759
 21
167.8474790007
 31
0.0
  0
LINE
  5
EA
330
1F
100
AcDbEntity
  8
SLD-0
  6
Continuous
 62
   179
370
    25
100
AcDbLine
 10
102.8425690759
 20
167.8474790007
 30
0.0
 11
102.7866009105
 21
167.8445984572
 31
0.0
  0
LINE
  5
EB
330
1F
100
AcDbEntity
  8
SLD-0
  6
Continuous
 62
   179
370
    25
100
AcDbLine
 10
102.7866009105
 20
167.8445984572
 30
0.0
 11
102.7391562094
 21
167.8363926858
 31
0.0
  0
LINE
  5
EC
330
1F
100
AcDbEntity
  8
SLD-0
  6
Continuous
 62
   179
370
    25
100
AcDbLine
 10
102.7391562094
 20
167.8363926858
 30
0.0
 11
102.5093481172
 21
167.7769144028
 31
0.0
  0
LINE
  5
ED
330
1F
100
AcDbEntity
  8
SLD-0
  6
Continuous
 62
   179
370
    25
100
AcDbLine
 10
104.0057972301
 20
167.4646979719
 30
0.0
 11
104.0118333925
 21
167.4680066258
 31
0.0
  0
LINE
  5
EE
330
1F
100
AcDbEntity
  8
SLD-0
  6
Continuous
 62
   179
370
    25
100
AcDbLine
 10
104.0118333925
 20
167.4680066258
 30
0.0
 11
104.0229603876
 21
167.4824926406
 31
0.0
  0
LINE
  5
EF
330
1F
100
AcDbEntity
  8
SLD-0
  6
Continuous
 62
   179
370
    25
100
AcDbLine
 10
104.0229603876
 20
167.4824926406
 30
0.0
 11
104.0118333925
 21
167.4969786555
 31
0.0
  0
LINE
  5
F0
330
1F
100
AcDbEntity
  8
SLD-0
  6
Continuous
 62
   179
370
    25
100
AcDbLine
 10
104.0118333925
 20
167.4969786555
 30
0.0
 11
104.0072229732
 21
167.4995763749
 31
0.0
  0
LINE
  5
F1
330
1F
100
AcDbEntity
  8
SLD-0
  6
Continuous
 62
   179
370
    25
100
AcDbLine
 10
102.681700312
 20
168.0125203878
 30
0.0
 11
102.8655514349
 21
168.0125203878
 31
0.0
  0
LINE
  5
F2
330
1F
100
AcDbEntity
  8
SLD-0
  6
Continuous
 62
   179
370
    25
100
AcDbLine
 10
102.8655514349
 20
168.0125203878
 30
0.0
 11
102.8655514349
 21
167.8869503885
 31
0.0
  0
LINE
  5
F3
330
1F
100
AcDbEntity
  8
SLD-0
  6
Continuous
 62
   179
370
    25
100
AcDbLine
 10
103.9226779569
 20
167.5277464241
 30
0.0
 11
103.9226779569
 21
167.6133471876
 31
0.0
  0
LINE
  5
F4
330
1F
100
AcDbEntity
  8
SLD-0
  6
Continuous
 62
   179
370
    25
100
AcDbLine
 10
103.233245932
 20
167.6662139744
 30
0.0
 11
103.233245932
 21
167.7917839736
 31
0.0
  0
LINE
  5
F5
330
1F
100
AcDbEntity
  8
SLD-0
  6
Continuous
 62
   179
370
    25
100
AcDbLine
 10
104.290372454
 20
167.5181807727
 30
0.0
 11
104.290372454
 21
167.6437507719
 31
0.0
  0
LINE
  5
F6
330
1F
100
AcDbEntity
  8
SLD-0
  6
Continuous
 62
   179
370
    25
100
AcDbLine
 10
102.8655514349
 20
168.0125203878
 30
0.0
 11
104.290372454
 21
167.6437507719
 31
0.0
  0
LINE
  5
F7
330
1F
100
AcDbEntity
  8
SLD-0
  6
Continuous
 62
   179
370
    25
100
AcDbLine
 10
103.308779322
 20
167.6857617646
 30
0.0
 11
103.233245932
 21
167.6662139744
 31
0.0
  0
LINE
  5
F8
330
1F
100
AcDbEntity
  8
SLD-0
  6
Continuous
 62
   179
370
    25
100
AcDbLine
 10
103.3179459203
 20
167.6747103184
 30
0.0
 11
103.3178839315
 21
167.6772615462
 31
0.0
  0
LINE
  5
F9
330
1F
100
AcDbEntity
  8
SLD-0
  6
Continuous
 62
   179
370
    25
100
AcDbLine
 10
103.3178839315
 20
167.6772615462
 30
0.0
 11
103.3174422611
 21
167.6796442419
 31
0.0
  0
LINE
  5
FA
330
1F
100
AcDbEntity
  8
SLD-0
  6
Continuous
 62
   179
370
    25
100
AcDbLine
 10
103.3174422611
 20
167.6796442419
 30
0.0
 11
103.3166364063
 21
167.6817576736
 31
0.0
  0
LINE
  5
FB
330
1F
100
AcDbEntity
  8
SLD-0
  6
Continuous
 62
   179
370
    25
100
AcDbLine
 10
103.3166364063
 20
167.6817576736
 30
0.0
 11
103.3154973615
 21
167.6835107952
 31
0.0
  0
LINE
  5
FC
330
1F
100
AcDbEntity
  8
SLD-0
  6
Continuous
 62
   179
370
    25
100
AcDbLine
 10
103.3154973615
 20
167.6835107952
 30
0.0
 11
103.314079367
 21
167.6848338693
 31
0.0
  0
LINE
  5
FD
330
1F
100
AcDbEntity
  8
SLD-0
  6
Continuous
 62
   179
370
    25
100
AcDbLine
 10
103.314079367
 20
167.6848338693
 30
0.0
 11
103.3124444116
 21
167.6856707185
 31
0.0
  0
LINE
  5
FE
330
1F
100
AcDbEntity
  8
SLD-0
  6
Continuous
 62
   179
370
    25
100
AcDbLine
 10
103.3124444116
 20
167.6856707185
 30
0.0
 11
103.3106467355
 21
167.685984537
 31
0.0
  0
LINE
  5
FF
330
1F
100
AcDbEntity
  8
SLD-0
  6
Continuous
 62
   179
370
    25
100
AcDbLine
 10
103.3106467355
 20
167.685984537
 30
0.0
 11
103.308779322
 21
167.6857617646
 31
0.0
  0
LINE
  5
100
330
1F
100
AcDbEntity
  8
SLD-0
  6
Continuous
 62
   179
370
    25
100
AcDbLine
 10
103.2849601139
 20
167.0168112367
 30
0.0
 11
103.3179459203
 21
167.6747103184
 31
0.0
  0
LINE
  5
101
330
1F
100
AcDbEntity
  8
SLD-0
  6
Continuous
 62
   179
370
    25
100
AcDbLine
 10
103.2692304481
 20
167.0048125237
 30
0.0
 11
103.2713225712
 21
167.0031775683
 31
0.0
  0
LINE
  5
102
330
1F
100
AcDbEntity
  8
SLD-0
  6
Continuous
 62
   179
370
    25
100
AcDbLine
 10
103.2713225712
 20
167.0031775683
 30
0.0
 11
103.2737788786
 21
167.002532497
 31
0.0
  0
LINE
  5
103
330
1F
100
AcDbEntity
  8
SLD-0
  6
Continuous
 62
   179
370
    25
100
AcDbLine
 10
103.2737788786
 20
167.002532497
 30
0.0
 11
103.2763979067
 21
167.0029354244
 31
0.0
  0
LINE
  5
104
330
1F
100
AcDbEntity
  8
SLD-0
  6
Continuous
 62
   179
370
    25
100
AcDbLine
 10
103.2763979067
 20
167.0029354244
 30
0.0
 11
103.2789704431
 21
167.0043495446
 31
0.0
  0
LINE
  5
105
330
1F
100
AcDbEntity
  8
SLD-0
  6
Continuous
 62
   179
370
    25
100
AcDbLine
 10
103.2789704431
 20
167.0043495446
 30
0.0
 11
103.2812795271
 21
167.0066605657
 31
0.0
  0
LINE
  5
106
330
1F
100
AcDbEntity
  8
SLD-0
  6
Continuous
 62
   179
370
    25
100
AcDbLine
 10
103.2812795271
 20
167.0066605657
 30
0.0
 11
103.2831469406
 21
167.0096786469
 31
0.0
  0
LINE
  5
107
330
1F
100
AcDbEntity
  8
SLD-0
  6
Continuous
 62
   179
370
    25
100
AcDbLine
 10
103.2831469406
 20
167.0096786469
 30
0.0
 11
103.2844022144
 21
167.0131558329
 31
0.0
  0
LINE
  5
108
330
1F
100
AcDbEntity
  8
SLD-0
  6
Continuous
 62
   179
370
    25
100
AcDbLine
 10
103.2844022144
 20
167.0131558329
 30
0.0
 11
103.2849601139
 21
167.0168112367
 31
0.0
  0
LINE
  5
109
330
1F
100
AcDbEntity
  8
SLD-0
  6
Continuous
 62
   179
370
    25
100
AcDbLine
 10
103.1872812141
 20
167.0976466089
 30
0.0
 11
103.2692304481
 21
167.0048125237
 31
0.0
  0
LINE
  5
10A
330
1F
100
AcDbEntity
  8
SLD-0
  6
Continuous
 62
   179
370
    25
100
AcDbLine
 10
103.1872812141
 20
167.1164815277
 30
0.0
 11
103.1872812141
 21
167.0976466089
 31
0.0
  0
LINE
  5
10B
330
1F
100
AcDbEntity
  8
SLD-0
  6
Continuous
 62
   179
370
    25
100
AcDbLine
 10
103.2188567747
 20
167.1560207158
 30
0.0
 11
103.1872812141
 21
167.1164815277
 31
0.0
  0
LINE
  5
10C
330
1F
100
AcDbEntity
  8
SLD-0
  6
Continuous
 62
   179
370
    25
100
AcDbLine
 10
103.2440552343
 20
167.5614063591
 30
0.0
 11
103.233245932
 21
167.345855698
 31
0.0
  0
LINE
  5
10D
330
1F
100
AcDbEntity
  8
SLD-0
  6
Continuous
 62
   179
370
    25
100
AcDbLine
 10
103.2256058086
 20
167.1935278326
 30
0.0
 11
103.2244977583
 21
167.171409443
 31
0.0
  0
LINE
  5
10E
330
1F
100
AcDbEntity
  8
SLD-0
  6
Continuous
 62
   179
370
    25
100
AcDbLine
 10
103.2348808874
 20
167.5724597424
 30
0.0
 11
103.2367560495
 21
167.5726805776
 31
0.0
  0
LINE
  5
10F
330
1F
100
AcDbEntity
  8
SLD-0
  6
Continuous
 62
   179
370
    25
100
AcDbLine
 10
103.2367560495
 20
167.5726805776
 30
0.0
 11
103.238545977
 21
167.5723667592
 31
0.0
  0
LINE
  5
110
330
1F
100
AcDbEntity
  8
SLD-0
  6
Continuous
 62
   179
370
    25
100
AcDbLine
 10
103.238545977
 20
167.5723667592
 30
0.0
 11
103.240188681
 21
167.5715318471
 31
0.0
  0
LINE
  5
111
330
1F
100
AcDbEntity
  8
SLD-0
  6
Continuous
 62
   179
370
    25
100
AcDbLine
 10
103.240188681
 20
167.5715318471
 30
0.0
 11
103.2416066755
 21
167.570208773
 31
0.0
  0
LINE
  5
112
330
1F
100
AcDbEntity
  8
SLD-0
  6
Continuous
 62
   179
370
    25
100
AcDbLine
 10
103.2416066755
 20
167.570208773
 30
0.0
 11
103.2427379717
 21
167.5684537142
 31
0.0
  0
LINE
  5
113
330
1F
100
AcDbEntity
  8
SLD-0
  6
Continuous
 62
   179
370
    25
100
AcDbLine
 10
103.2427379717
 20
167.5684537142
 30
0.0
 11
103.2435515751
 21
167.5663422197
 31
0.0
  0
LINE
  5
114
330
1F
100
AcDbEntity
  8
SLD-0
  6
Continuous
 62
   179
370
    25
100
AcDbLine
 10
103.2435515751
 20
167.5663422197
 30
0.0
 11
103.2439932455
 21
167.563959524
 31
0.0
  0
LINE
  5
115
330
1F
100
AcDbEntity
  8
SLD-0
  6
Continuous
 62
   179
370
    25
100
AcDbLine
 10
103.2439932455
 20
167.563959524
 30
0.0
 11
103.2440552343
 21
167.5614063591
 31
0.0
  0
LINE
  5
116
330
1F
100
AcDbEntity
  8
SLD-0
  6
Continuous
 62
   179
370
    25
100
AcDbLine
 10
103.1872812141
 20
167.5601394623
 30
0.0
 11
103.2348808874
 21
167.5724597424
 31
0.0
  0
LINE
  5
117
330
1F
100
AcDbEntity
  8
SLD-0
  6
Continuous
 62
   179
370
    25
100
AcDbLine
 10
103.1643066038
 20
167.5667490214
 30
0.0
 11
103.1643143524
 21
167.5660845786
 31
0.0
  0
LINE
  5
118
330
1F
100
AcDbEntity
  8
SLD-0
  6
Continuous
 62
   179
370
    25
100
AcDbLine
 10
103.1643066038
 20
167.7613823265
 30
0.0
 11
103.1643066038
 21
167.5667490214
 31
0.0
  0
LINE
  5
119
330
1F
100
AcDbEntity
  8
SLD-0
  6
Continuous
 62
   179
370
    25
100
AcDbLine
 10
103.1551090111
 20
167.7715601176
 30
0.0
 11
103.1569066871
 21
167.7717848271
 31
0.0
  0
LINE
  5
11A
330
1F
100
AcDbEntity
  8
SLD-0
  6
Continuous
 62
   179
370
    25
100
AcDbLine
 10
103.1569066871
 20
167.7717848271
 30
0.0
 11
103.1586268772
 21
167.7715155631
 31
0.0
  0
LINE
  5
11B
330
1F
100
AcDbEntity
  8
SLD-0
  6
Continuous
 62
   179
370
    25
100
AcDbLine
 10
103.1586268772
 20
167.7715155631
 30
0.0
 11
103.160215341
 21
167.7707658857
 31
0.0
  0
LINE
  5
11C
330
1F
100
AcDbEntity
  8
SLD-0
  6
Continuous
 62
   179
370
    25
100
AcDbLine
 10
103.160215341
 20
167.7707658857
 30
0.0
 11
103.1616100897
 21
167.7695648521
 31
0.0
  0
LINE
  5
11D
330
1F
100
AcDbEntity
  8
SLD-0
  6
Continuous
 62
   179
370
    25
100
AcDbLine
 10
103.1616100897
 20
167.7695648521
 30
0.0
 11
103.162756883
 21
167.767958954
 31
0.0
  0
LINE
  5
11E
330
1F
100
AcDbEntity
  8
SLD-0
  6
Continuous
 62
   179
370
    25
100
AcDbLine
 10
103.162756883
 20
167.767958954
 30
0.0
 11
103.1636014808
 21
167.766008243
 31
0.0
  0
LINE
  5
11F
330
1F
100
AcDbEntity
  8
SLD-0
  6
Continuous
 62
   179
370
    25
100
AcDbLine
 10
103.1636014808
 20
167.766008243
 30
0.0
 11
103.1641283859
 21
167.7637863308
 31
0.0
  0
LINE
  5
120
330
1F
100
AcDbEntity
  8
SLD-0
  6
Continuous
 62
   179
370
    25
100
AcDbLine
 10
103.1641283859
 20
167.7637863308
 30
0.0
 11
103.1643066038
 21
167.7613823265
 31
0.0
  0
LINE
  5
121
330
1F
100
AcDbEntity
  8
SLD-0
  6
Continuous
 62
   179
370
    25
100
AcDbLine
 10
103.2849601139
 20
167.0168112367
 30
0.0
 11
103.9743843902
 21
166.8383744508
 31
0.0
  0
LINE
  5
122
330
1F
100
AcDbEntity
  8
SLD-0
  6
Continuous
 62
   179
370
    25
100
AcDbLine
 10
104.0073779453
 20
167.4962715954
 30
0.0
 11
103.3179459203
 21
167.6747103184
 31
0.0
  0
LINE
  5
123
330
1F
100
AcDbEntity
  8
SLD-0
  6
Continuous
 62
   179
370
    25
100
AcDbLine
 10
103.9743843902
 20
166.8383744508
 30
0.0
 11
104.0073779453
 21
167.4962715954
 31
0.0
  0
LINE
  5
124
330
1F
100
AcDbEntity
  8
SLD-0
  6
Continuous
 62
   179
370
    25
100
AcDbLine
 10
103.9743843902
 20
166.8383744508
 30
0.0
 11
103.9738342394
 21
166.8347190469
 31
0.0
  0
LINE
  5
125
330
1F
100
AcDbEntity
  8
SLD-0
  6
Continuous
 62
   179
370
    25
100
AcDbLine
 10
103.9738342394
 20
166.8347190469
 30
0.0
 11
103.9725712169
 21
166.8312399238
 31
0.0
  0
LINE
  5
126
330
1F
100
AcDbEntity
  8
SLD-0
  6
Continuous
 62
   179
370
    25
100
AcDbLine
 10
103.9725712169
 20
166.8312399238
 30
0.0
 11
103.970711552
 21
166.8282218426
 31
0.0
  0
LINE
  5
127
330
1F
100
AcDbEntity
  8
SLD-0
  6
Continuous
 62
   179
370
    25
100
AcDbLine
 10
103.970711552
 20
166.8282218426
 30
0.0
 11
103.9683947195
 21
166.8259127587
 31
0.0
  0
LINE
  5
128
330
1F
100
AcDbEntity
  8
SLD-0
  6
Continuous
 62
   179
370
    25
100
AcDbLine
 10
103.9683947195
 20
166.8259127587
 30
0.0
 11
103.9658299316
 21
166.8244986385
 31
0.0
  0
LINE
  5
129
330
1F
100
AcDbEntity
  8
SLD-0
  6
Continuous
 62
   179
370
    25
100
AcDbLine
 10
103.9658299316
 20
166.8244986385
 30
0.0
 11
103.9632031549
 21
166.8240957111
 31
0.0
  0
LINE
  5
12A
330
1F
100
AcDbEntity
  8
SLD-0
  6
Continuous
 62
   179
370
    25
100
AcDbLine
 10
103.9632031549
 20
166.8240957111
 30
0.0
 11
103.9619556297
 21
166.8242836148
 31
0.0
  0
LINE
  5
12B
330
1F
100
AcDbEntity
  8
SLD-0
  6
Continuous
 62
   179
370
    25
100
AcDbLine
 10
102.7966043581
 20
167.6612548679
 30
0.0
 11
102.7966043581
 21
167.6662159115
 31
0.0
  0
LINE
  5
12C
330
1F
100
AcDbEntity
  8
SLD-0
  6
Continuous
 62
   179
370
    25
100
AcDbLine
 10
118.1708726515
 20
164.0036291033
 30
0.0
 11
117.549729072
 21
163.8428649455
 31
0.0
  0
LINE
  5
12D
330
1F
100
AcDbEntity
  8
SLD-0
  6
Continuous
 62
   179
370
    25
100
AcDbLine
 10
118.1708726515
 20
163.8780591041
 30
0.0
 11
118.1708726515
 21
164.0036291033
 31
0.0
  0
LINE
  5
12E
330
1F
100
AcDbEntity
  8
SLD-0
  6
Continuous
 62
   179
370
    25
100
AcDbLine
 10
117.7923146118
 20
163.7800799459
 30
0.0
 11
118.1708726515
 21
163.8780591041
 31
0.0
  0
LINE
  5
12F
330
1F
100
AcDbEntity
  8
SLD-0
  6
Continuous
 62
   179
370
    25
100
AcDbLine
 10
118.251930796
 20
163.6611214429
 30
0.0
 11
118.2949665416
 21
163.6722600609
 31
0.0
  0
LINE
  5
130
330
1F
100
AcDbEntity
  8
SLD-0
  6
Continuous
 62
   179
370
    25
100
AcDbLine
 10
118.3547237743
 20
163.8780571669
 30
0.0
 11
118.1708726515
 21
163.8780591041
 31
0.0
  0
LINE
  5
131
330
1F
100
AcDbEntity
  8
SLD-0
  6
Continuous
 62
   179
370
    25
100
AcDbLine
 10
118.3547237743
 20
163.8780571669
 30
0.0
 11
118.7224182714
 21
163.7828926891
 31
0.0
  0
LINE
  5
132
330
1F
100
AcDbEntity
  8
SLD-0
  6
Continuous
 62
   179
370
    25
100
AcDbLine
 10
118.6442813505
 20
163.7626688331
 30
0.0
 11
118.7224182714
 21
163.7828926891
 31
0.0
  0
LINE
  5
133
330
1F
100
AcDbEntity
  8
SLD-0
  6
Continuous
 62
   179
370
    25
100
AcDbLine
 10
119.7795370449
 20
163.509287551
 30
0.0
 11
119.4118502964
 21
163.604453966
 31
0.0
  0
LINE
  5
134
330
1F
100
AcDbEntity
  8
SLD-0
  6
Continuous
 62
   179
370
    25
100
AcDbLine
 10
119.7795447935
 20
163.461703375
 30
0.0
 11
119.7795370449
 21
163.509287551
 31
0.0
  0
LINE
  5
135
330
1F
100
AcDbEntity
  8
SLD-0
  6
Continuous
 62
   179
370
    25
100
AcDbLine
 10
119.4915214409
 20
163.3871579319
 30
0.0
 11
119.7795447935
 21
163.461703375
 31
0.0
  0
LINE
  5
136
330
1F
100
AcDbEntity
  8
SLD-0
  6
Continuous
 62
   179
370
    25
100
AcDbLine
 10
117.9985204567
 20
163.7680192441
 30
0.0
 11
117.9668131698
 21
163.7557415813
 31
0.0
  0
LINE
  5
137
330
1F
100
AcDbEntity
  8
SLD-0
  6
Continuous
 62
   179
370
    25
100
AcDbLine
 10
117.9668131698
 20
163.7557415813
 30
0.0
 11
117.9556861748
 21
163.7412555665
 31
0.0
  0
LINE
  5
138
330
1F
100
AcDbEntity
  8
SLD-0
  6
Continuous
 62
   179
370
    25
100
AcDbLine
 10
117.9556861748
 20
163.7412555665
 30
0.0
 11
117.9563603033
 21
163.7376234084
 31
0.0
  0
LINE
  5
139
330
1F
100
AcDbEntity
  8
SLD-0
  6
Continuous
 62
   179
370
    25
100
AcDbLine
 10
118.2053461899
 20
163.7144899517
 30
0.0
 11
118.435154282
 21
163.7739682347
 31
0.0
  0
LINE
  5
13A
330
1F
100
AcDbEntity
  8
SLD-0
  6
Continuous
 62
   179
370
    25
100
AcDbLine
 10
118.435154282
 20
163.7739682347
 30
0.0
 11
118.4668615688
 21
163.7862478346
 31
0.0
  0
LINE
  5
13B
330
1F
100
AcDbEntity
  8
SLD-0
  6
Continuous
 62
   179
370
    25
100
AcDbLine
 10
118.4668615688
 20
163.7862478346
 30
0.0
 11
118.4779963125
 21
163.8007338494
 31
0.0
  0
LINE
  5
13C
330
1F
100
AcDbEntity
  8
SLD-0
  6
Continuous
 62
   179
370
    25
100
AcDbLine
 10
118.4779963125
 20
163.8007338494
 30
0.0
 11
118.4668538202
 21
163.8152218014
 31
0.0
  0
LINE
  5
13D
330
1F
100
AcDbEntity
  8
SLD-0
  6
Continuous
 62
   179
370
    25
100
AcDbLine
 10
118.4668538202
 20
163.8152218014
 30
0.0
 11
118.4351620306
 21
163.8274994642
 31
0.0
  0
LINE
  5
13E
330
1F
100
AcDbEntity
  8
SLD-0
  6
Continuous
 62
   179
370
    25
100
AcDbLine
 10
118.4351620306
 20
163.8274994642
 30
0.0
 11
118.3877018322
 21
163.8357071727
 31
0.0
  0
LINE
  5
13F
330
1F
100
AcDbEntity
  8
SLD-0
  6
Continuous
 62
   179
370
    25
100
AcDbLine
 10
118.3877018322
 20
163.8357071727
 30
0.0
 11
118.331749164
 21
163.8385857791
 31
0.0
  0
LINE
  5
140
330
1F
100
AcDbEntity
  8
SLD-0
  6
Continuous
 62
   179
370
    25
100
AcDbLine
 10
118.331749164
 20
163.8385857791
 30
0.0
 11
118.27577325
 21
163.8357052356
 31
0.0
  0
LINE
  5
141
330
1F
100
AcDbEntity
  8
SLD-0
  6
Continuous
 62
   179
370
    25
100
AcDbLine
 10
118.27577325
 20
163.8357052356
 30
0.0
 11
118.2283285488
 21
163.8274994642
 31
0.0
  0
LINE
  5
142
330
1F
100
AcDbEntity
  8
SLD-0
  6
Continuous
 62
   179
370
    25
100
AcDbLine
 10
118.2283285488
 20
163.8274994642
 30
0.0
 11
117.9985204567
 21
163.7680192441
 31
0.0
  0
LINE
  5
143
330
1F
100
AcDbEntity
  8
SLD-0
  6
Continuous
 62
   179
370
    25
100
AcDbLine
 10
119.494961821
 20
163.4558047503
 30
0.0
 11
119.5009979833
 21
163.4591153413
 31
0.0
  0
LINE
  5
144
330
1F
100
AcDbEntity
  8
SLD-0
  6
Continuous
 62
   179
370
    25
100
AcDbLine
 10
119.5009979833
 20
163.4591153413
 30
0.0
 11
119.5121404756
 21
163.4735974818
 31
0.0
  0
LINE
  5
145
330
1F
100
AcDbEntity
  8
SLD-0
  6
Continuous
 62
   179
370
    25
100
AcDbLine
 10
119.5121404756
 20
163.4735974818
 30
0.0
 11
119.5010057319
 21
163.4880854338
 31
0.0
  0
LINE
  5
146
330
1F
100
AcDbEntity
  8
SLD-0
  6
Continuous
 62
   179
370
    25
100
AcDbLine
 10
119.5010057319
 20
163.4880854338
 30
0.0
 11
119.4963875641
 21
163.4906850904
 31
0.0
  0
LINE
  5
147
330
1F
100
AcDbEntity
  8
SLD-0
  6
Continuous
 62
   179
370
    25
100
AcDbLine
 10
118.1708726515
 20
164.0036291033
 30
0.0
 11
118.3547237743
 21
164.0036271661
 31
0.0
  0
LINE
  5
148
330
1F
100
AcDbEntity
  8
SLD-0
  6
Continuous
 62
   179
370
    25
100
AcDbLine
 10
118.3547237743
 20
164.0036271661
 30
0.0
 11
118.3547237743
 21
163.8780571669
 31
0.0
  0
LINE
  5
149
330
1F
100
AcDbEntity
  8
SLD-0
  6
Continuous
 62
   179
370
    25
100
AcDbLine
 10
119.4118502964
 20
163.5188512653
 30
0.0
 11
119.4118502964
 21
163.604453966
 31
0.0
  0
LINE
  5
14A
330
1F
100
AcDbEntity
  8
SLD-0
  6
Continuous
 62
   179
370
    25
100
AcDbLine
 10
118.7224182714
 20
163.6573207527
 30
0.0
 11
118.7224182714
 21
163.7828926891
 31
0.0
  0
LINE
  5
14B
330
1F
100
AcDbEntity
  8
SLD-0
  6
Continuous
 62
   179
370
    25
100
AcDbLine
 10
119.7795370449
 20
163.509287551
 30
0.0
 11
119.7795370449
 21
163.6348575503
 31
0.0
  0
LINE
  5
14C
330
1F
100
AcDbEntity
  8
SLD-0
  6
Continuous
 62
   179
370
    25
100
AcDbLine
 10
118.3547237743
 20
164.0036271661
 30
0.0
 11
119.7795370449
 21
163.6348575503
 31
0.0
  0
LINE
  5
14D
330
1F
100
AcDbEntity
  8
SLD-0
  6
Continuous
 62
   179
370
    25
100
AcDbLine
 10
118.7979439129
 20
163.6768704802
 30
0.0
 11
118.7224182714
 21
163.6573207527
 31
0.0
  0
LINE
  5
14E
330
1F
100
AcDbEntity
  8
SLD-0
  6
Continuous
 62
   179
370
    25
100
AcDbLine
 10
118.8071182598
 20
163.6658170968
 30
0.0
 11
118.807056271
 21
163.6683702618
 31
0.0
  0
LINE
  5
14F
330
1F
100
AcDbEntity
  8
SLD-0
  6
Continuous
 62
   179
370
    25
100
AcDbLine
 10
118.807056271
 20
163.6683702618
 30
0.0
 11
118.8066068519
 21
163.6707529575
 31
0.0
  0
LINE
  5
150
330
1F
100
AcDbEntity
  8
SLD-0
  6
Continuous
 62
   179
370
    25
100
AcDbLine
 10
118.8066068519
 20
163.6707529575
 30
0.0
 11
118.8058009971
 21
163.672864452
 31
0.0
  0
LINE
  5
151
330
1F
100
AcDbEntity
  8
SLD-0
  6
Continuous
 62
   179
370
    25
100
AcDbLine
 10
118.8058009971
 20
163.672864452
 30
0.0
 11
118.804669701
 21
163.6746195108
 31
0.0
  0
LINE
  5
152
330
1F
100
AcDbEntity
  8
SLD-0
  6
Continuous
 62
   179
370
    25
100
AcDbLine
 10
118.804669701
 20
163.6746195108
 30
0.0
 11
118.8032517065
 21
163.6759425849
 31
0.0
  0
LINE
  5
153
330
1F
100
AcDbEntity
  8
SLD-0
  6
Continuous
 62
   179
370
    25
100
AcDbLine
 10
118.8032517065
 20
163.6759425849
 30
0.0
 11
118.8016090025
 21
163.6767774969
 31
0.0
  0
LINE
  5
154
330
1F
100
AcDbEntity
  8
SLD-0
  6
Continuous
 62
   179
370
    25
100
AcDbLine
 10
118.8016090025
 20
163.6767774969
 30
0.0
 11
118.799819075
 21
163.6770913154
 31
0.0
  0
LINE
  5
155
330
1F
100
AcDbEntity
  8
SLD-0
  6
Continuous
 62
   179
370
    25
100
AcDbLine
 10
118.799819075
 20
163.6770913154
 30
0.0
 11
118.7979439129
 21
163.6768704802
 31
0.0
  0
LINE
  5
156
330
1F
100
AcDbEntity
  8
SLD-0
  6
Continuous
 62
   179
370
    25
100
AcDbLine
 10
118.7741247047
 20
163.0079199523
 30
0.0
 11
118.8071182598
 21
163.6658170968
 31
0.0
  0
LINE
  5
157
330
1F
100
AcDbEntity
  8
SLD-0
  6
Continuous
 62
   179
370
    25
100
AcDbLine
 10
118.758395039
 20
162.9959212393
 30
0.0
 11
118.760487162
 21
162.9942843467
 31
0.0
  0
LINE
  5
158
330
1F
100
AcDbEntity
  8
SLD-0
  6
Continuous
 62
   179
370
    25
100
AcDbLine
 10
118.760487162
 20
162.9942843467
 30
0.0
 11
118.7629434694
 21
162.9936412126
 31
0.0
  0
LINE
  5
159
330
1F
100
AcDbEntity
  8
SLD-0
  6
Continuous
 62
   179
370
    25
100
AcDbLine
 10
118.7629434694
 20
162.9936412126
 30
0.0
 11
118.7655702461
 21
162.99404414
 31
0.0
  0
LINE
  5
15A
330
1F
100
AcDbEntity
  8
SLD-0
  6
Continuous
 62
   179
370
    25
100
AcDbLine
 10
118.7655702461
 20
162.99404414
 30
0.0
 11
118.768135034
 21
162.995456323
 31
0.0
  0
LINE
  5
15B
330
1F
100
AcDbEntity
  8
SLD-0
  6
Continuous
 62
   179
370
    25
100
AcDbLine
 10
118.768135034
 20
162.995456323
 30
0.0
 11
118.7704518665
 21
162.9977673441
 31
0.0
  0
LINE
  5
15C
330
1F
100
AcDbEntity
  8
SLD-0
  6
Continuous
 62
   179
370
    25
100
AcDbLine
 10
118.7704518665
 20
162.9977673441
 30
0.0
 11
118.7723115314
 21
163.0007854253
 31
0.0
  0
LINE
  5
15D
330
1F
100
AcDbEntity
  8
SLD-0
  6
Continuous
 62
   179
370
    25
100
AcDbLine
 10
118.7723115314
 20
163.0007854253
 30
0.0
 11
118.7735745538
 21
163.0042645484
 31
0.0
  0
LINE
  5
15E
330
1F
100
AcDbEntity
  8
SLD-0
  6
Continuous
 62
   179
370
    25
100
AcDbLine
 10
118.7735745538
 20
163.0042645484
 30
0.0
 11
118.7741247047
 21
163.0079199523
 31
0.0
  0
LINE
  5
15F
330
1F
100
AcDbEntity
  8
SLD-0
  6
Continuous
 62
   179
370
    25
100
AcDbLine
 10
118.6764535536
 20
163.0887553245
 30
0.0
 11
118.758395039
 21
162.9959212393
 31
0.0
  0
LINE
  5
160
330
1F
100
AcDbEntity
  8
SLD-0
  6
Continuous
 62
   179
370
    25
100
AcDbLine
 10
118.6764535536
 20
163.1075902432
 30
0.0
 11
118.6764535536
 21
163.0887553245
 31
0.0
  0
LINE
  5
161
330
1F
100
AcDbEntity
  8
SLD-0
  6
Continuous
 62
   179
370
    25
100
AcDbLine
 10
118.7080213655
 20
163.1471274942
 30
0.0
 11
118.6764535536
 21
163.1075902432
 31
0.0
  0
LINE
  5
162
330
1F
100
AcDbEntity
  8
SLD-0
  6
Continuous
 62
   179
370
    25
100
AcDbLine
 10
118.7332275738
 20
163.5525150746
 30
0.0
 11
118.7224182714
 21
163.3369644135
 31
0.0
  0
LINE
  5
163
330
1F
100
AcDbEntity
  8
SLD-0
  6
Continuous
 62
   179
370
    25
100
AcDbLine
 10
118.7147781481
 20
163.1846365482
 30
0.0
 11
118.7136700977
 21
163.1625181586
 31
0.0
  0
LINE
  5
164
330
1F
100
AcDbEntity
  8
SLD-0
  6
Continuous
 62
   179
370
    25
100
AcDbLine
 10
118.7240532268
 20
163.563568458
 30
0.0
 11
118.7259206404
 21
163.5637892932
 31
0.0
  0
LINE
  5
165
330
1F
100
AcDbEntity
  8
SLD-0
  6
Continuous
 62
   179
370
    25
100
AcDbLine
 10
118.7259206404
 20
163.5637892932
 30
0.0
 11
118.7277183164
 21
163.5634754747
 31
0.0
  0
LINE
  5
166
330
1F
100
AcDbEntity
  8
SLD-0
  6
Continuous
 62
   179
370
    25
100
AcDbLine
 10
118.7277183164
 20
163.5634754747
 30
0.0
 11
118.7293532718
 21
163.5626386255
 31
0.0
  0
LINE
  5
167
330
1F
100
AcDbEntity
  8
SLD-0
  6
Continuous
 62
   179
370
    25
100
AcDbLine
 10
118.7293532718
 20
163.5626386255
 30
0.0
 11
118.7307712663
 21
163.5613174885
 31
0.0
  0
LINE
  5
168
330
1F
100
AcDbEntity
  8
SLD-0
  6
Continuous
 62
   179
370
    25
100
AcDbLine
 10
118.7307712663
 20
163.5613174885
 30
0.0
 11
118.7319103111
 21
163.5595624298
 31
0.0
  0
LINE
  5
169
330
1F
100
AcDbEntity
  8
SLD-0
  6
Continuous
 62
   179
370
    25
100
AcDbLine
 10
118.7319103111
 20
163.5595624298
 30
0.0
 11
118.7327161659
 21
163.5574489981
 31
0.0
  0
LINE
  5
16A
330
1F
100
AcDbEntity
  8
SLD-0
  6
Continuous
 62
   179
370
    25
100
AcDbLine
 10
118.7327161659
 20
163.5574489981
 30
0.0
 11
118.7331578363
 21
163.5550663024
 31
0.0
  0
LINE
  5
16B
330
1F
100
AcDbEntity
  8
SLD-0
  6
Continuous
 62
   179
370
    25
100
AcDbLine
 10
118.7331578363
 20
163.5550663024
 30
0.0
 11
118.7332275738
 21
163.5525150746
 31
0.0
  0
LINE
  5
16C
330
1F
100
AcDbEntity
  8
SLD-0
  6
Continuous
 62
   179
370
    25
100
AcDbLine
 10
118.6764535536
 20
163.5512481779
 30
0.0
 11
118.7240532268
 21
163.563568458
 31
0.0
  0
LINE
  5
16D
330
1F
100
AcDbEntity
  8
SLD-0
  6
Continuous
 62
   179
370
    25
100
AcDbLine
 10
118.6534711946
 20
163.5578577369
 30
0.0
 11
118.6534866918
 21
163.5571932942
 31
0.0
  0
LINE
  5
16E
330
1F
100
AcDbEntity
  8
SLD-0
  6
Continuous
 62
   179
370
    25
100
AcDbLine
 10
118.6534711946
 20
163.752491042
 30
0.0
 11
118.6534711946
 21
163.5578577369
 31
0.0
  0
LINE
  5
16F
330
1F
100
AcDbEntity
  8
SLD-0
  6
Continuous
 62
   179
370
    25
100
AcDbLine
 10
118.6442813505
 20
163.7626688331
 30
0.0
 11
118.646071278
 21
163.7628916055
 31
0.0
  0
LINE
  5
170
330
1F
100
AcDbEntity
  8
SLD-0
  6
Continuous
 62
   179
370
    25
100
AcDbLine
 10
118.646071278
 20
163.7628916055
 30
0.0
 11
118.6477992166
 21
163.7626242787
 31
0.0
  0
LINE
  5
171
330
1F
100
AcDbEntity
  8
SLD-0
  6
Continuous
 62
   179
370
    25
100
AcDbLine
 10
118.6477992166
 20
163.7626242787
 30
0.0
 11
118.6493876804
 21
163.7618746012
 31
0.0
  0
LINE
  5
172
330
1F
100
AcDbEntity
  8
SLD-0
  6
Continuous
 62
   179
370
    25
100
AcDbLine
 10
118.6493876804
 20
163.7618746012
 30
0.0
 11
118.6507824291
 21
163.7606735676
 31
0.0
  0
LINE
  5
173
330
1F
100
AcDbEntity
  8
SLD-0
  6
Continuous
 62
   179
370
    25
100
AcDbLine
 10
118.6507824291
 20
163.7606735676
 30
0.0
 11
118.6519214739
 21
163.7590657324
 31
0.0
  0
LINE
  5
174
330
1F
100
AcDbEntity
  8
SLD-0
  6
Continuous
 62
   179
370
    25
100
AcDbLine
 10
118.6519214739
 20
163.7590657324
 30
0.0
 11
118.6527738203
 21
163.7571150213
 31
0.0
  0
LINE
  5
175
330
1F
100
AcDbEntity
  8
SLD-0
  6
Continuous
 62
   179
370
    25
100
AcDbLine
 10
118.6527738203
 20
163.7571150213
 30
0.0
 11
118.6532929767
 21
163.7548950463
 31
0.0
  0
LINE
  5
176
330
1F
100
AcDbEntity
  8
SLD-0
  6
Continuous
 62
   179
370
    25
100
AcDbLine
 10
118.6532929767
 20
163.7548950463
 30
0.0
 11
118.6534711946
 21
163.752491042
 31
0.0
  0
LINE
  5
177
330
1F
100
AcDbEntity
  8
SLD-0
  6
Continuous
 62
   179
370
    25
100
AcDbLine
 10
118.7741247047
 20
163.0079199523
 30
0.0
 11
119.4635644783
 21
162.8294812292
 31
0.0
  0
LINE
  5
178
330
1F
100
AcDbEntity
  8
SLD-0
  6
Continuous
 62
   179
370
    25
100
AcDbLine
 10
119.4965502847
 20
163.4873783737
 30
0.0
 11
118.8071182598
 21
163.6658170968
 31
0.0
  0
LINE
  5
179
330
1F
100
AcDbEntity
  8
SLD-0
  6
Continuous
 62
   179
370
    25
100
AcDbLine
 10
119.4635644783
 20
162.8294812292
 30
0.0
 11
119.4965502847
 21
163.4873783737
 31
0.0
  0
LINE
  5
17A
330
1F
100
AcDbEntity
  8
SLD-0
  6
Continuous
 62
   179
370
    25
100
AcDbLine
 10
119.4635644783
 20
162.8294812292
 30
0.0
 11
119.4630065788
 21
162.8258258253
 31
0.0
  0
LINE
  5
17B
330
1F
100
AcDbEntity
  8
SLD-0
  6
Continuous
 62
   179
370
    25
100
AcDbLine
 10
119.4630065788
 20
162.8258258253
 30
0.0
 11
119.4617435564
 21
162.8223467022
 31
0.0
  0
LINE
  5
17C
330
1F
100
AcDbEntity
  8
SLD-0
  6
Continuous
 62
   179
370
    25
100
AcDbLine
 10
119.4617435564
 20
162.8223467022
 30
0.0
 11
119.4598838915
 21
162.819328621
 31
0.0
  0
LINE
  5
17D
330
1F
100
AcDbEntity
  8
SLD-0
  6
Continuous
 62
   179
370
    25
100
AcDbLine
 10
119.4598838915
 20
162.819328621
 30
0.0
 11
119.4575748075
 21
162.8170195371
 31
0.0
  0
LINE
  5
17E
330
1F
100
AcDbEntity
  8
SLD-0
  6
Continuous
 62
   179
370
    25
100
AcDbLine
 10
119.4575748075
 20
162.8170195371
 30
0.0
 11
119.4550022711
 21
162.8156054169
 31
0.0
  0
LINE
  5
17F
330
1F
100
AcDbEntity
  8
SLD-0
  6
Continuous
 62
   179
370
    25
100
AcDbLine
 10
119.4550022711
 20
162.8156054169
 30
0.0
 11
119.4523754944
 21
162.8152024895
 31
0.0
  0
LINE
  5
180
330
1F
100
AcDbEntity
  8
SLD-0
  6
Continuous
 62
   179
370
    25
100
AcDbLine
 10
119.4523754944
 20
162.8152024895
 30
0.0
 11
119.4511357178
 21
162.8153903931
 31
0.0
  0
LINE
  5
181
330
1F
100
AcDbEntity
  8
SLD-0
  6
Continuous
 62
   179
370
    25
100
AcDbLine
 10
118.2857766975
 20
163.6523616463
 30
0.0
 11
118.2857766975
 21
163.657324627
 31
0.0
  0
LINE
  5
182
330
1F
100
AcDbEntity
  8
SLD-0
  6
Continuous
 62
   179
370
    25
100
AcDbLine
 10
56.6278386344
 20
179.9321385622
 30
0.0
 11
56.0066950549
 21
179.771375373
 31
0.0
  0
LINE
  5
183
330
1F
100
AcDbEntity
  8
SLD-0
  6
Continuous
 62
   179
370
    25
100
AcDbLine
 10
56.6278386344
 20
179.806568563
 30
0.0
 11
56.6278386344
 21
179.9321385622
 31
0.0
  0
LINE
  5
184
330
1F
100
AcDbEntity
  8
SLD-0
  6
Continuous
 62
   179
370
    25
100
AcDbLine
 10
56.2492767204
 20
179.7085894048
 30
0.0
 11
56.6278386344
 21
179.806568563
 31
0.0
  0
LINE
  5
185
330
1F
100
AcDbEntity
  8
SLD-0
  6
Continuous
 62
   179
370
    25
100
AcDbLine
 10
56.7088967789
 20
179.5896318704
 30
0.0
 11
56.7519325246
 21
179.6007704884
 31
0.0
  0
LINE
  5
186
330
1F
100
AcDbEntity
  8
SLD-0
  6
Continuous
 62
   179
370
    25
100
AcDbLine
 10
56.8116858829
 20
179.8065675944
 30
0.0
 11
56.6278386344
 21
179.806568563
 31
0.0
  0
LINE
  5
187
330
1F
100
AcDbEntity
  8
SLD-0
  6
Continuous
 62
   179
370
    25
100
AcDbLine
 10
56.8116858829
 20
179.8065675944
 30
0.0
 11
57.17938038
 21
179.7114011794
 31
0.0
  0
LINE
  5
188
330
1F
100
AcDbEntity
  8
SLD-0
  6
Continuous
 62
   179
370
    25
100
AcDbLine
 10
57.1012434591
 20
179.691178292
 30
0.0
 11
57.17938038
 21
179.7114011794
 31
0.0
  0
LINE
  5
189
330
1F
100
AcDbEntity
  8
SLD-0
  6
Continuous
 62
   179
370
    25
100
AcDbLine
 10
58.2365030278
 20
179.4377979785
 30
0.0
 11
57.868812405
 21
179.5329634249
 31
0.0
  0
LINE
  5
18A
330
1F
100
AcDbEntity
  8
SLD-0
  6
Continuous
 62
   179
370
    25
100
AcDbLine
 10
58.2365069021
 20
179.3902138025
 30
0.0
 11
58.2365030278
 21
179.4377979785
 31
0.0
  0
LINE
  5
18B
330
1F
100
AcDbEntity
  8
SLD-0
  6
Continuous
 62
   179
370
    25
100
AcDbLine
 10
57.9484874238
 20
179.315669328
 30
0.0
 11
58.2365069021
 21
179.3902138025
 31
0.0
  0
LINE
  5
18C
330
1F
100
AcDbEntity
  8
SLD-0
  6
Continuous
 62
   179
370
    25
100
AcDbLine
 10
56.4554825653
 20
179.6965316087
 30
0.0
 11
56.4237791528
 21
179.6842510402
 31
0.0
  0
LINE
  5
18D
330
1F
100
AcDbEntity
  8
SLD-0
  6
Continuous
 62
   179
370
    25
100
AcDbLine
 10
56.4237791528
 20
179.6842510402
 30
0.0
 11
56.4126444091
 21
179.6697659939
 31
0.0
  0
LINE
  5
18E
330
1F
100
AcDbEntity
  8
SLD-0
  6
Continuous
 62
   179
370
    25
100
AcDbLine
 10
56.4126444091
 20
179.6697659939
 30
0.0
 11
56.4133185376
 21
179.6661328673
 31
0.0
  0
LINE
  5
18F
330
1F
100
AcDbEntity
  8
SLD-0
  6
Continuous
 62
   179
370
    25
100
AcDbLine
 10
56.6623082985
 20
179.6430003792
 30
0.0
 11
56.8921202649
 21
179.7024796307
 31
0.0
  0
LINE
  5
190
330
1F
100
AcDbEntity
  8
SLD-0
  6
Continuous
 62
   179
370
    25
100
AcDbLine
 10
56.8921202649
 20
179.7024796307
 30
0.0
 11
56.9238236774
 21
179.7147592306
 31
0.0
  0
LINE
  5
191
330
1F
100
AcDbEntity
  8
SLD-0
  6
Continuous
 62
   179
370
    25
100
AcDbLine
 10
56.9238236774
 20
179.7147592306
 30
0.0
 11
56.9349545468
 21
179.7292452455
 31
0.0
  0
LINE
  5
192
330
1F
100
AcDbEntity
  8
SLD-0
  6
Continuous
 62
   179
370
    25
100
AcDbLine
 10
56.9349545468
 20
179.7292452455
 30
0.0
 11
56.9238198031
 21
179.7437302917
 31
0.0
  0
LINE
  5
193
330
1F
100
AcDbEntity
  8
SLD-0
  6
Continuous
 62
   179
370
    25
100
AcDbLine
 10
56.9238198031
 20
179.7437302917
 30
0.0
 11
56.8921163906
 21
179.7560108602
 31
0.0
  0
LINE
  5
194
330
1F
100
AcDbEntity
  8
SLD-0
  6
Continuous
 62
   179
370
    25
100
AcDbLine
 10
56.8921163906
 20
179.7560108602
 30
0.0
 11
56.8446716894
 21
179.7642156631
 31
0.0
  0
LINE
  5
195
330
1F
100
AcDbEntity
  8
SLD-0
  6
Continuous
 62
   179
370
    25
100
AcDbLine
 10
56.8446716894
 20
179.7642156631
 30
0.0
 11
56.788703524
 21
179.7670971751
 31
0.0
  0
LINE
  5
196
330
1F
100
AcDbEntity
  8
SLD-0
  6
Continuous
 62
   179
370
    25
100
AcDbLine
 10
56.788703524
 20
179.7670971751
 30
0.0
 11
56.7327353586
 21
179.7642156631
 31
0.0
  0
LINE
  5
197
330
1F
100
AcDbEntity
  8
SLD-0
  6
Continuous
 62
   179
370
    25
100
AcDbLine
 10
56.7327353586
 20
179.7642156631
 30
0.0
 11
56.6852906574
 21
179.7560098916
 31
0.0
  0
LINE
  5
198
330
1F
100
AcDbEntity
  8
SLD-0
  6
Continuous
 62
   179
370
    25
100
AcDbLine
 10
56.6852906574
 20
179.7560098916
 30
0.0
 11
56.4554825653
 21
179.6965316087
 31
0.0
  0
LINE
  5
199
330
1F
100
AcDbEntity
  8
SLD-0
  6
Continuous
 62
   179
370
    25
100
AcDbLine
 10
57.9519278039
 20
179.3843142092
 30
0.0
 11
57.9579639663
 21
179.3876248002
 31
0.0
  0
LINE
  5
19A
330
1F
100
AcDbEntity
  8
SLD-0
  6
Continuous
 62
   179
370
    25
100
AcDbLine
 10
57.9579639663
 20
179.3876248002
 30
0.0
 11
57.9690987099
 21
179.4021098465
 31
0.0
  0
LINE
  5
19B
330
1F
100
AcDbEntity
  8
SLD-0
  6
Continuous
 62
   179
370
    25
100
AcDbLine
 10
57.9690987099
 20
179.4021098465
 30
0.0
 11
57.9579678406
 21
179.4165948927
 31
0.0
  0
LINE
  5
19C
330
1F
100
AcDbEntity
  8
SLD-0
  6
Continuous
 62
   179
370
    25
100
AcDbLine
 10
57.9579678406
 20
179.4165948927
 30
0.0
 11
57.953353547
 21
179.4191945493
 31
0.0
  0
LINE
  5
19D
330
1F
100
AcDbEntity
  8
SLD-0
  6
Continuous
 62
   179
370
    25
100
AcDbLine
 10
56.6278386344
 20
179.9321385622
 30
0.0
 11
56.8116858829
 21
179.9321375936
 31
0.0
  0
LINE
  5
19E
330
1F
100
AcDbEntity
  8
SLD-0
  6
Continuous
 62
   179
370
    25
100
AcDbLine
 10
56.8116858829
 20
179.9321375936
 30
0.0
 11
56.8116858829
 21
179.8065675944
 31
0.0
  0
LINE
  5
19F
330
1F
100
AcDbEntity
  8
SLD-0
  6
Continuous
 62
   179
370
    25
100
AcDbLine
 10
57.868812405
 20
179.4473626614
 30
0.0
 11
57.868812405
 21
179.5329634249
 31
0.0
  0
LINE
  5
1A0
330
1F
100
AcDbEntity
  8
SLD-0
  6
Continuous
 62
   179
370
    25
100
AcDbLine
 10
57.17938038
 20
179.5858311802
 30
0.0
 11
57.17938038
 21
179.7114011794
 31
0.0
  0
LINE
  5
1A1
330
1F
100
AcDbEntity
  8
SLD-0
  6
Continuous
 62
   179
370
    25
100
AcDbLine
 10
58.2365030278
 20
179.4377979785
 30
0.0
 11
58.2365030278
 21
179.5633679777
 31
0.0
  0
LINE
  5
1A2
330
1F
100
AcDbEntity
  8
SLD-0
  6
Continuous
 62
   179
370
    25
100
AcDbLine
 10
56.8116858829
 20
179.9321375936
 30
0.0
 11
58.2365030278
 21
179.5633679777
 31
0.0
  0
LINE
  5
1A3
330
1F
100
AcDbEntity
  8
SLD-0
  6
Continuous
 62
   179
370
    25
100
AcDbLine
 10
57.2549098958
 20
179.6053799391
 30
0.0
 11
57.17938038
 21
179.5858311802
 31
0.0
  0
LINE
  5
1A4
330
1F
100
AcDbEntity
  8
SLD-0
  6
Continuous
 62
   179
370
    25
100
AcDbLine
 10
57.2640803684
 20
179.5943275243
 30
0.0
 11
57.2640183796
 21
179.5968797207
 31
0.0
  0
LINE
  5
1A5
330
1F
100
AcDbEntity
  8
SLD-0
  6
Continuous
 62
   179
370
    25
100
AcDbLine
 10
57.2640183796
 20
179.5968797207
 30
0.0
 11
57.2635728349
 21
179.5992614478
 31
0.0
  0
LINE
  5
1A6
330
1F
100
AcDbEntity
  8
SLD-0
  6
Continuous
 62
   179
370
    25
100
AcDbLine
 10
57.2635728349
 20
179.5992614478
 30
0.0
 11
57.2627669801
 21
179.6013748795
 31
0.0
  0
LINE
  5
1A7
330
1F
100
AcDbEntity
  8
SLD-0
  6
Continuous
 62
   179
370
    25
100
AcDbLine
 10
57.2627669801
 20
179.6013748795
 30
0.0
 11
57.2616318096
 21
179.6031289697
 31
0.0
  0
LINE
  5
1A8
330
1F
100
AcDbEntity
  8
SLD-0
  6
Continuous
 62
   179
370
    25
100
AcDbLine
 10
57.2616318096
 20
179.6031289697
 30
0.0
 11
57.2602138151
 21
179.6044520438
 31
0.0
  0
LINE
  5
1A9
330
1F
100
AcDbEntity
  8
SLD-0
  6
Continuous
 62
   179
370
    25
100
AcDbLine
 10
57.2602138151
 20
179.6044520438
 30
0.0
 11
57.2585749854
 21
179.6052879244
 31
0.0
  0
LINE
  5
1AA
330
1F
100
AcDbEntity
  8
SLD-0
  6
Continuous
 62
   179
370
    25
100
AcDbLine
 10
57.2585749854
 20
179.6052879244
 30
0.0
 11
57.2567811836
 21
179.6056017429
 31
0.0
  0
LINE
  5
1AB
330
1F
100
AcDbEntity
  8
SLD-0
  6
Continuous
 62
   179
370
    25
100
AcDbLine
 10
57.2567811836
 20
179.6056017429
 30
0.0
 11
57.2549098958
 21
179.6053799391
 31
0.0
  0
LINE
  5
1AC
330
1F
100
AcDbEntity
  8
SLD-0
  6
Continuous
 62
   179
370
    25
100
AcDbLine
 10
57.2310906876
 20
178.9364284426
 30
0.0
 11
57.2640803684
 21
179.5943275243
 31
0.0
  0
LINE
  5
1AD
330
1F
100
AcDbEntity
  8
SLD-0
  6
Continuous
 62
   179
370
    25
100
AcDbLine
 10
57.2153610219
 20
178.9244306982
 30
0.0
 11
57.2174531449
 21
178.9227947742
 31
0.0
  0
LINE
  5
1AE
330
1F
100
AcDbEntity
  8
SLD-0
  6
Continuous
 62
   179
370
    25
100
AcDbLine
 10
57.2174531449
 20
178.9227947742
 30
0.0
 11
57.2199094523
 21
178.9221506715
 31
0.0
  0
LINE
  5
1AF
330
1F
100
AcDbEntity
  8
SLD-0
  6
Continuous
 62
   179
370
    25
100
AcDbLine
 10
57.2199094523
 20
178.9221506715
 30
0.0
 11
57.2225323547
 21
178.9225526303
 31
0.0
  0
LINE
  5
1B0
330
1F
100
AcDbEntity
  8
SLD-0
  6
Continuous
 62
   179
370
    25
100
AcDbLine
 10
57.2225323547
 20
178.9225526303
 30
0.0
 11
57.2251048912
 21
178.9239667505
 31
0.0
  0
LINE
  5
1B1
330
1F
100
AcDbEntity
  8
SLD-0
  6
Continuous
 62
   179
370
    25
100
AcDbLine
 10
57.2251048912
 20
178.9239667505
 30
0.0
 11
57.2274139751
 21
178.9262777716
 31
0.0
  0
LINE
  5
1B2
330
1F
100
AcDbEntity
  8
SLD-0
  6
Continuous
 62
   179
370
    25
100
AcDbLine
 10
57.2274139751
 20
178.9262777716
 30
0.0
 11
57.2292775143
 21
178.9292958528
 31
0.0
  0
LINE
  5
1B3
330
1F
100
AcDbEntity
  8
SLD-0
  6
Continuous
 62
   179
370
    25
100
AcDbLine
 10
57.2292775143
 20
178.9292958528
 30
0.0
 11
57.2305366625
 21
178.9327740073
 31
0.0
  0
LINE
  5
1B4
330
1F
100
AcDbEntity
  8
SLD-0
  6
Continuous
 62
   179
370
    25
100
AcDbLine
 10
57.2305366625
 20
178.9327740073
 30
0.0
 11
57.2310906876
 21
178.9364284426
 31
0.0
  0
LINE
  5
1B5
330
1F
100
AcDbEntity
  8
SLD-0
  6
Continuous
 62
   179
370
    25
100
AcDbLine
 10
57.1334156622
 20
179.0172638148
 30
0.0
 11
57.2153610219
 21
178.9244306982
 31
0.0
  0
LINE
  5
1B6
330
1F
100
AcDbEntity
  8
SLD-0
  6
Continuous
 62
   179
370
    25
100
AcDbLine
 10
57.1334156622
 20
179.0360997021
 30
0.0
 11
57.1334156622
 21
179.0172638148
 31
0.0
  0
LINE
  5
1B7
330
1F
100
AcDbEntity
  8
SLD-0
  6
Continuous
 62
   179
370
    25
100
AcDbLine
 10
57.1649873484
 20
179.0756379217
 30
0.0
 11
57.1334156622
 21
179.0360997021
 31
0.0
  0
LINE
  5
1B8
330
1F
100
AcDbEntity
  8
SLD-0
  6
Continuous
 62
   179
370
    25
100
AcDbLine
 10
57.1901896824
 20
179.4810245335
 30
0.0
 11
57.17938038
 21
179.2654729038
 31
0.0
  0
LINE
  5
1B9
330
1F
100
AcDbEntity
  8
SLD-0
  6
Continuous
 62
   179
370
    25
100
AcDbLine
 10
57.1717402567
 20
179.1131460071
 30
0.0
 11
57.1706322063
 21
179.0910276175
 31
0.0
  0
LINE
  5
1BA
330
1F
100
AcDbEntity
  8
SLD-0
  6
Continuous
 62
   179
370
    25
100
AcDbLine
 10
57.1810192097
 20
179.4920779169
 30
0.0
 11
57.1828904976
 21
179.4922987521
 31
0.0
  0
LINE
  5
1BB
330
1F
100
AcDbEntity
  8
SLD-0
  6
Continuous
 62
   179
370
    25
100
AcDbLine
 10
57.1828904976
 20
179.4922987521
 30
0.0
 11
57.184680425
 21
179.4919849336
 31
0.0
  0
LINE
  5
1BC
330
1F
100
AcDbEntity
  8
SLD-0
  6
Continuous
 62
   179
370
    25
100
AcDbLine
 10
57.184680425
 20
179.4919849336
 30
0.0
 11
57.1863231291
 21
179.491149053
 31
0.0
  0
LINE
  5
1BD
330
1F
100
AcDbEntity
  8
SLD-0
  6
Continuous
 62
   179
370
    25
100
AcDbLine
 10
57.1863231291
 20
179.491149053
 30
0.0
 11
57.1877411236
 21
179.4898259789
 31
0.0
  0
LINE
  5
1BE
330
1F
100
AcDbEntity
  8
SLD-0
  6
Continuous
 62
   179
370
    25
100
AcDbLine
 10
57.1877411236
 20
179.4898259789
 30
0.0
 11
57.188876294
 21
179.4880718887
 31
0.0
  0
LINE
  5
1BF
330
1F
100
AcDbEntity
  8
SLD-0
  6
Continuous
 62
   179
370
    25
100
AcDbLine
 10
57.188876294
 20
179.4880718887
 30
0.0
 11
57.1896821488
 21
179.4859594256
 31
0.0
  0
LINE
  5
1C0
330
1F
100
AcDbEntity
  8
SLD-0
  6
Continuous
 62
   179
370
    25
100
AcDbLine
 10
57.1896821488
 20
179.4859594256
 30
0.0
 11
57.1901238192
 21
179.4835767299
 31
0.0
  0
LINE
  5
1C1
330
1F
100
AcDbEntity
  8
SLD-0
  6
Continuous
 62
   179
370
    25
100
AcDbLine
 10
57.1901238192
 20
179.4835767299
 30
0.0
 11
57.1901896824
 21
179.4810245335
 31
0.0
  0
LINE
  5
1C2
330
1F
100
AcDbEntity
  8
SLD-0
  6
Continuous
 62
   179
370
    25
100
AcDbLine
 10
57.1334156622
 20
179.4797576368
 30
0.0
 11
57.1810192097
 21
179.4920779169
 31
0.0
  0
LINE
  5
1C3
330
1F
100
AcDbEntity
  8
SLD-0
  6
Continuous
 62
   179
370
    25
100
AcDbLine
 10
57.1104371775
 20
179.4863671958
 30
0.0
 11
57.1104488004
 21
179.4857017845
 31
0.0
  0
LINE
  5
1C4
330
1F
100
AcDbEntity
  8
SLD-0
  6
Continuous
 62
   179
370
    25
100
AcDbLine
 10
57.1104371775
 20
179.6810005009
 30
0.0
 11
57.1104371775
 21
179.4863671958
 31
0.0
  0
LINE
  5
1C5
330
1F
100
AcDbEntity
  8
SLD-0
  6
Continuous
 62
   179
370
    25
100
AcDbLine
 10
57.1012434591
 20
179.691178292
 30
0.0
 11
57.1030372609
 21
179.691402033
 31
0.0
  0
LINE
  5
1C6
330
1F
100
AcDbEntity
  8
SLD-0
  6
Continuous
 62
   179
370
    25
100
AcDbLine
 10
57.1030372609
 20
179.691402033
 30
0.0
 11
57.1047613252
 21
179.6911337376
 31
0.0
  0
LINE
  5
1C7
330
1F
100
AcDbEntity
  8
SLD-0
  6
Continuous
 62
   179
370
    25
100
AcDbLine
 10
57.1047613252
 20
179.6911337376
 30
0.0
 11
57.106349789
 21
179.6903840601
 31
0.0
  0
LINE
  5
1C8
330
1F
100
AcDbEntity
  8
SLD-0
  6
Continuous
 62
   179
370
    25
100
AcDbLine
 10
57.106349789
 20
179.6903840601
 30
0.0
 11
57.1077445377
 21
179.6891830265
 31
0.0
  0
LINE
  5
1C9
330
1F
100
AcDbEntity
  8
SLD-0
  6
Continuous
 62
   179
370
    25
100
AcDbLine
 10
57.1077445377
 20
179.6891830265
 30
0.0
 11
57.1088874568
 21
179.6875761598
 31
0.0
  0
LINE
  5
1CA
330
1F
100
AcDbEntity
  8
SLD-0
  6
Continuous
 62
   179
370
    25
100
AcDbLine
 10
57.1088874568
 20
179.6875761598
 30
0.0
 11
57.1097359289
 21
179.6856254488
 31
0.0
  0
LINE
  5
1CB
330
1F
100
AcDbEntity
  8
SLD-0
  6
Continuous
 62
   179
370
    25
100
AcDbLine
 10
57.1097359289
 20
179.6856254488
 30
0.0
 11
57.1102589597
 21
179.6834045052
 31
0.0
  0
LINE
  5
1CC
330
1F
100
AcDbEntity
  8
SLD-0
  6
Continuous
 62
   179
370
    25
100
AcDbLine
 10
57.1102589597
 20
179.6834045052
 30
0.0
 11
57.1104371775
 21
179.6810005009
 31
0.0
  0
LINE
  5
1CD
330
1F
100
AcDbEntity
  8
SLD-0
  6
Continuous
 62
   179
370
    25
100
AcDbLine
 10
57.2310906876
 20
178.9364284426
 30
0.0
 11
57.9205227126
 21
178.7579906881
 31
0.0
  0
LINE
  5
1CE
330
1F
100
AcDbEntity
  8
SLD-0
  6
Continuous
 62
   179
370
    25
100
AcDbLine
 10
57.9535123934
 20
179.4158897698
 30
0.0
 11
57.2640803684
 21
179.5943275243
 31
0.0
  0
LINE
  5
1CF
330
1F
100
AcDbEntity
  8
SLD-0
  6
Continuous
 62
   179
370
    25
100
AcDbLine
 10
57.9205227126
 20
178.7579906881
 30
0.0
 11
57.9535123934
 21
179.4158897698
 31
0.0
  0
LINE
  5
1D0
330
1F
100
AcDbEntity
  8
SLD-0
  6
Continuous
 62
   179
370
    25
100
AcDbLine
 10
57.9205227126
 20
178.7579906881
 30
0.0
 11
57.9199686874
 21
178.7543362528
 31
0.0
  0
LINE
  5
1D1
330
1F
100
AcDbEntity
  8
SLD-0
  6
Continuous
 62
   179
370
    25
100
AcDbLine
 10
57.9199686874
 20
178.7543362528
 30
0.0
 11
57.9187095393
 21
178.7508571297
 31
0.0
  0
LINE
  5
1D2
330
1F
100
AcDbEntity
  8
SLD-0
  6
Continuous
 62
   179
370
    25
100
AcDbLine
 10
57.9187095393
 20
178.7508571297
 30
0.0
 11
57.9168460001
 21
178.7478390485
 31
0.0
  0
LINE
  5
1D3
330
1F
100
AcDbEntity
  8
SLD-0
  6
Continuous
 62
   179
370
    25
100
AcDbLine
 10
57.9168460001
 20
178.7478390485
 30
0.0
 11
57.9145330418
 21
178.745528996
 31
0.0
  0
LINE
  5
1D4
330
1F
100
AcDbEntity
  8
SLD-0
  6
Continuous
 62
   179
370
    25
100
AcDbLine
 10
57.9145330418
 20
178.745528996
 30
0.0
 11
57.9119643797
 21
178.7441148758
 31
0.0
  0
LINE
  5
1D5
330
1F
100
AcDbEntity
  8
SLD-0
  6
Continuous
 62
   179
370
    25
100
AcDbLine
 10
57.9119643797
 20
178.7441148758
 30
0.0
 11
57.9093414773
 21
178.743712917
 31
0.0
  0
LINE
  5
1D6
330
1F
100
AcDbEntity
  8
SLD-0
  6
Continuous
 62
   179
370
    25
100
AcDbLine
 10
57.9093414773
 20
178.743712917
 30
0.0
 11
57.9080939521
 21
178.7439008206
 31
0.0
  0
LINE
  5
1D7
330
1F
100
AcDbEntity
  8
SLD-0
  6
Continuous
 62
   179
370
    25
100
AcDbLine
 10
56.7427426804
 20
179.5808720738
 30
0.0
 11
56.7427426804
 21
179.5858340859
 31
0.0
  0
LINE
  5
1D8
330
1F
100
AcDbEntity
  8
SLD-0
  6
Continuous
 62
   179
370
    25
100
AcDbLine
 10
194.7894236673
 20
144.173285976
 30
0.0
 11
194.1682800878
 21
144.0125218183
 31
0.0
  0
LINE
  5
1D9
330
1F
100
AcDbEntity
  8
SLD-0
  6
Continuous
 62
   179
370
    25
100
AcDbLine
 10
194.7894236673
 20
144.0477159768
 30
0.0
 11
194.7894236673
 21
144.173285976
 31
0.0
  0
LINE
  5
1DA
330
1F
100
AcDbEntity
  8
SLD-0
  6
Continuous
 62
   179
370
    25
100
AcDbLine
 10
194.4108733763
 20
143.9497387558
 30
0.0
 11
194.7894236673
 21
144.0477159768
 31
0.0
  0
LINE
  5
1DB
330
1F
100
AcDbEntity
  8
SLD-0
  6
Continuous
 62
   179
370
    25
100
AcDbLine
 10
194.8704895605
 20
143.8307783157
 30
0.0
 11
194.9135253061
 21
143.8419169337
 31
0.0
  0
LINE
  5
1DC
330
1F
100
AcDbEntity
  8
SLD-0
  6
Continuous
 62
   179
370
    25
100
AcDbLine
 10
194.9732825388
 20
144.0477159768
 30
0.0
 11
194.7894236673
 21
144.0477159768
 31
0.0
  0
LINE
  5
1DD
330
1F
100
AcDbEntity
  8
SLD-0
  6
Continuous
 62
   179
370
    25
100
AcDbLine
 10
194.9732825388
 20
144.0477159768
 30
0.0
 11
195.3409692873
 21
143.952551499
 31
0.0
  0
LINE
  5
1DE
330
1F
100
AcDbEntity
  8
SLD-0
  6
Continuous
 62
   179
370
    25
100
AcDbLine
 10
195.2628323663
 20
143.932327643
 30
0.0
 11
195.3409692873
 21
143.952551499
 31
0.0
  0
LINE
  5
1DF
330
1F
100
AcDbEntity
  8
SLD-0
  6
Continuous
 62
   179
370
    25
100
AcDbLine
 10
196.3980958093
 20
143.6789444238
 30
0.0
 11
196.0304090608
 21
143.7741127759
 31
0.0
  0
LINE
  5
1E0
330
1F
100
AcDbEntity
  8
SLD-0
  6
Continuous
 62
   179
370
    25
100
AcDbLine
 10
196.3980958093
 20
143.6313602477
 30
0.0
 11
196.3980958093
 21
143.6789444238
 31
0.0
  0
LINE
  5
1E1
330
1F
100
AcDbEntity
  8
SLD-0
  6
Continuous
 62
   179
370
    25
100
AcDbLine
 10
196.1100802053
 20
143.556818679
 30
0.0
 11
196.3980958093
 21
143.6313602477
 31
0.0
  0
LINE
  5
1E2
330
1F
100
AcDbEntity
  8
SLD-0
  6
Continuous
 62
   179
370
    25
100
AcDbLine
 10
194.6170637239
 20
143.9376819283
 30
0.0
 11
194.5853719343
 21
143.9254003912
 31
0.0
  0
LINE
  5
1E3
330
1F
100
AcDbEntity
  8
SLD-0
  6
Continuous
 62
   179
370
    25
100
AcDbLine
 10
194.5853719343
 20
143.9254003912
 30
0.0
 11
194.5742449392
 21
143.9109143764
 31
0.0
  0
LINE
  5
1E4
330
1F
100
AcDbEntity
  8
SLD-0
  6
Continuous
 62
   179
370
    25
100
AcDbLine
 10
194.5742449392
 20
143.9109143764
 30
0.0
 11
194.5749113191
 21
143.9072802812
 31
0.0
  0
LINE
  5
1E5
330
1F
100
AcDbEntity
  8
SLD-0
  6
Continuous
 62
   179
370
    25
100
AcDbLine
 10
194.8239049543
 20
143.8841468245
 30
0.0
 11
195.0537130464
 21
143.9436289817
 31
0.0
  0
LINE
  5
1E6
330
1F
100
AcDbEntity
  8
SLD-0
  6
Continuous
 62
   179
370
    25
100
AcDbLine
 10
195.0537130464
 20
143.9436289817
 30
0.0
 11
195.0854048361
 21
143.9559105188
 31
0.0
  0
LINE
  5
1E7
330
1F
100
AcDbEntity
  8
SLD-0
  6
Continuous
 62
   179
370
    25
100
AcDbLine
 10
195.0854048361
 20
143.9559105188
 30
0.0
 11
195.0965473284
 21
143.9703926593
 31
0.0
  0
LINE
  5
1E8
330
1F
100
AcDbEntity
  8
SLD-0
  6
Continuous
 62
   179
370
    25
100
AcDbLine
 10
195.0965473284
 20
143.9703926593
 30
0.0
 11
195.0854203333
 21
143.9848786741
 31
0.0
  0
LINE
  5
1E9
330
1F
100
AcDbEntity
  8
SLD-0
  6
Continuous
 62
   179
370
    25
100
AcDbLine
 10
195.0854203333
 20
143.9848786741
 30
0.0
 11
195.0537130464
 21
143.9971563369
 31
0.0
  0
LINE
  5
1EA
330
1F
100
AcDbEntity
  8
SLD-0
  6
Continuous
 62
   179
370
    25
100
AcDbLine
 10
195.0537130464
 20
143.9971563369
 30
0.0
 11
195.0062605966
 21
144.0053659826
 31
0.0
  0
LINE
  5
1EB
330
1F
100
AcDbEntity
  8
SLD-0
  6
Continuous
 62
   179
370
    25
100
AcDbLine
 10
195.0062605966
 20
144.0053659826
 30
0.0
 11
194.9503001798
 21
144.008244589
 31
0.0
  0
LINE
  5
1EC
330
1F
100
AcDbEntity
  8
SLD-0
  6
Continuous
 62
   179
370
    25
100
AcDbLine
 10
194.9503001798
 20
144.008244589
 30
0.0
 11
194.894339763
 21
144.0053621083
 31
0.0
  0
LINE
  5
1ED
330
1F
100
AcDbEntity
  8
SLD-0
  6
Continuous
 62
   179
370
    25
100
AcDbLine
 10
194.894339763
 20
144.0053621083
 30
0.0
 11
194.846871816
 21
143.9971602112
 31
0.0
  0
LINE
  5
1EE
330
1F
100
AcDbEntity
  8
SLD-0
  6
Continuous
 62
   179
370
    25
100
AcDbLine
 10
194.846871816
 20
143.9971602112
 30
0.0
 11
194.6170637239
 21
143.9376819283
 31
0.0
  0
LINE
  5
1EF
330
1F
100
AcDbEntity
  8
SLD-0
  6
Continuous
 62
   179
370
    25
100
AcDbLine
 10
196.1135205854
 20
143.6254635602
 30
0.0
 11
196.1195644964
 21
143.6287722141
 31
0.0
  0
LINE
  5
1F0
330
1F
100
AcDbEntity
  8
SLD-0
  6
Continuous
 62
   179
370
    25
100
AcDbLine
 10
196.1195644964
 20
143.6287722141
 30
0.0
 11
196.1306914915
 21
143.6432582289
 31
0.0
  0
LINE
  5
1F1
330
1F
100
AcDbEntity
  8
SLD-0
  6
Continuous
 62
   179
370
    25
100
AcDbLine
 10
196.1306914915
 20
143.6432582289
 30
0.0
 11
196.1195644964
 21
143.6577442437
 31
0.0
  0
LINE
  5
1F2
330
1F
100
AcDbEntity
  8
SLD-0
  6
Continuous
 62
   179
370
    25
100
AcDbLine
 10
196.1195644964
 20
143.6577442437
 30
0.0
 11
196.1149463285
 21
143.6603439003
 31
0.0
  0
LINE
  5
1F3
330
1F
100
AcDbEntity
  8
SLD-0
  6
Continuous
 62
   179
370
    25
100
AcDbLine
 10
194.7894236673
 20
144.173285976
 30
0.0
 11
194.9732825388
 21
144.173285976
 31
0.0
  0
LINE
  5
1F4
330
1F
100
AcDbEntity
  8
SLD-0
  6
Continuous
 62
   179
370
    25
100
AcDbLine
 10
194.9732825388
 20
144.173285976
 30
0.0
 11
194.9732825388
 21
144.0477159768
 31
0.0
  0
LINE
  5
1F5
330
1F
100
AcDbEntity
  8
SLD-0
  6
Continuous
 62
   179
370
    25
100
AcDbLine
 10
196.0304090608
 20
143.6885100752
 30
0.0
 11
196.0304090608
 21
143.7741127759
 31
0.0
  0
LINE
  5
1F6
330
1F
100
AcDbEntity
  8
SLD-0
  6
Continuous
 62
   179
370
    25
100
AcDbLine
 10
195.3409692873
 20
143.8269814998
 30
0.0
 11
195.3409692873
 21
143.952551499
 31
0.0
  0
LINE
  5
1F7
330
1F
100
AcDbEntity
  8
SLD-0
  6
Continuous
 62
   179
370
    25
100
AcDbLine
 10
196.3980958093
 20
143.6789444238
 30
0.0
 11
196.3980958093
 21
143.804514423
 31
0.0
  0
LINE
  5
1F8
330
1F
100
AcDbEntity
  8
SLD-0
  6
Continuous
 62
   179
370
    25
100
AcDbLine
 10
194.9732825388
 20
144.173285976
 30
0.0
 11
196.3980958093
 21
143.804514423
 31
0.0
  0
LINE
  5
1F9
330
1F
100
AcDbEntity
  8
SLD-0
  6
Continuous
 62
   179
370
    25
100
AcDbLine
 10
195.4165026773
 20
143.8465273529
 30
0.0
 11
195.3409692873
 21
143.8269814998
 31
0.0
  0
LINE
  5
1FA
330
1F
100
AcDbEntity
  8
SLD-0
  6
Continuous
 62
   179
370
    25
100
AcDbLine
 10
195.4256770242
 20
143.8354739696
 30
0.0
 11
195.4256150354
 21
143.8380271345
 31
0.0
  0
LINE
  5
1FB
330
1F
100
AcDbEntity
  8
SLD-0
  6
Continuous
 62
   179
370
    25
100
AcDbLine
 10
195.4256150354
 20
143.8380271345
 30
0.0
 11
195.4251656164
 21
143.8404098302
 31
0.0
  0
LINE
  5
1FC
330
1F
100
AcDbEntity
  8
SLD-0
  6
Continuous
 62
   179
370
    25
100
AcDbLine
 10
195.4251656164
 20
143.8404098302
 30
0.0
 11
195.4243597616
 21
143.8425213247
 31
0.0
  0
LINE
  5
1FD
330
1F
100
AcDbEntity
  8
SLD-0
  6
Continuous
 62
   179
370
    25
100
AcDbLine
 10
195.4243597616
 20
143.8425213247
 30
0.0
 11
195.4232284654
 21
143.8442763835
 31
0.0
  0
LINE
  5
1FE
330
1F
100
AcDbEntity
  8
SLD-0
  6
Continuous
 62
   179
370
    25
100
AcDbLine
 10
195.4232284654
 20
143.8442763835
 30
0.0
 11
195.4218027223
 21
143.8456013948
 31
0.0
  0
LINE
  5
1FF
330
1F
100
AcDbEntity
  8
SLD-0
  6
Continuous
 62
   179
370
    25
100
AcDbLine
 10
195.4218027223
 20
143.8456013948
 30
0.0
 11
195.4201755155
 21
143.8464343697
 31
0.0
  0
LINE
  5
200
330
1F
100
AcDbEntity
  8
SLD-0
  6
Continuous
 62
   179
370
    25
100
AcDbLine
 10
195.4201755155
 20
143.8464343697
 30
0.0
 11
195.4183778394
 21
143.8467481881
 31
0.0
  0
LINE
  5
201
330
1F
100
AcDbEntity
  8
SLD-0
  6
Continuous
 62
   179
370
    25
100
AcDbLine
 10
195.4183778394
 20
143.8467481881
 30
0.0
 11
195.4165026773
 21
143.8465273529
 31
0.0
  0
LINE
  5
202
330
1F
100
AcDbEntity
  8
SLD-0
  6
Continuous
 62
   179
370
    25
100
AcDbLine
 10
195.3926834692
 20
143.1775787622
 30
0.0
 11
195.4256770242
 21
143.8354739696
 31
0.0
  0
LINE
  5
203
330
1F
100
AcDbEntity
  8
SLD-0
  6
Continuous
 62
   179
370
    25
100
AcDbLine
 10
195.3769538034
 20
143.1655800492
 30
0.0
 11
195.3790459265
 21
143.1639412194
 31
0.0
  0
LINE
  5
204
330
1F
100
AcDbEntity
  8
SLD-0
  6
Continuous
 62
   179
370
    25
100
AcDbLine
 10
195.3790459265
 20
143.1639412194
 30
0.0
 11
195.3815099825
 21
143.1632980853
 31
0.0
  0
LINE
  5
205
330
1F
100
AcDbEntity
  8
SLD-0
  6
Continuous
 62
   179
370
    25
100
AcDbLine
 10
195.3815099825
 20
143.1632980853
 30
0.0
 11
195.3841290106
 21
143.1637010127
 31
0.0
  0
LINE
  5
206
330
1F
100
AcDbEntity
  8
SLD-0
  6
Continuous
 62
   179
370
    25
100
AcDbLine
 10
195.3841290106
 20
143.1637010127
 30
0.0
 11
195.386701547
 21
143.1651151329
 31
0.0
  0
LINE
  5
207
330
1F
100
AcDbEntity
  8
SLD-0
  6
Continuous
 62
   179
370
    25
100
AcDbLine
 10
195.386701547
 20
143.1651151329
 30
0.0
 11
195.389010631
 21
143.1674242169
 31
0.0
  0
LINE
  5
208
330
1F
100
AcDbEntity
  8
SLD-0
  6
Continuous
 62
   179
370
    25
100
AcDbLine
 10
195.389010631
 20
143.1674242169
 30
0.0
 11
195.3908702959
 21
143.1704422981
 31
0.0
  0
LINE
  5
209
330
1F
100
AcDbEntity
  8
SLD-0
  6
Continuous
 62
   179
370
    25
100
AcDbLine
 10
195.3908702959
 20
143.1704422981
 30
0.0
 11
195.3921255697
 21
143.1739214212
 31
0.0
  0
LINE
  5
20A
330
1F
100
AcDbEntity
  8
SLD-0
  6
Continuous
 62
   179
370
    25
100
AcDbLine
 10
195.3921255697
 20
143.1739214212
 30
0.0
 11
195.3926834692
 21
143.1775787622
 31
0.0
  0
LINE
  5
20B
330
1F
100
AcDbEntity
  8
SLD-0
  6
Continuous
 62
   179
370
    25
100
AcDbLine
 10
195.2950045694
 20
143.2584121972
 30
0.0
 11
195.3769538034
 21
143.1655800492
 31
0.0
  0
LINE
  5
20C
330
1F
100
AcDbEntity
  8
SLD-0
  6
Continuous
 62
   179
370
    25
100
AcDbLine
 10
195.2950045694
 20
143.2772490531
 30
0.0
 11
195.2950045694
 21
143.2584121972
 31
0.0
  0
LINE
  5
20D
330
1F
100
AcDbEntity
  8
SLD-0
  6
Continuous
 62
   179
370
    25
100
AcDbLine
 10
195.3265878786
 20
143.3167863041
 30
0.0
 11
195.2950045694
 21
143.2772490531
 31
0.0
  0
LINE
  5
20E
330
1F
100
AcDbEntity
  8
SLD-0
  6
Continuous
 62
   179
370
    25
100
AcDbLine
 10
195.3517863382
 20
143.7221738845
 30
0.0
 11
195.3409692873
 21
143.5066232234
 31
0.0
  0
LINE
  5
20F
330
1F
100
AcDbEntity
  8
SLD-0
  6
Continuous
 62
   179
370
    25
100
AcDbLine
 10
195.3333291639
 20
143.3542934209
 30
0.0
 11
195.3322288622
 21
143.3321750313
 31
0.0
  0
LINE
  5
210
330
1F
100
AcDbEntity
  8
SLD-0
  6
Continuous
 62
   179
370
    25
100
AcDbLine
 10
195.3426119913
 20
143.7332272679
 30
0.0
 11
195.3444871534
 21
143.7334481031
 31
0.0
  0
LINE
  5
211
330
1F
100
AcDbEntity
  8
SLD-0
  6
Continuous
 62
   179
370
    25
100
AcDbLine
 10
195.3444871534
 20
143.7334481031
 30
0.0
 11
195.3462693323
 21
143.7331342846
 31
0.0
  0
LINE
  5
212
330
1F
100
AcDbEntity
  8
SLD-0
  6
Continuous
 62
   179
370
    25
100
AcDbLine
 10
195.3462693323
 20
143.7331342846
 30
0.0
 11
195.3479120363
 21
143.7322974354
 31
0.0
  0
LINE
  5
213
330
1F
100
AcDbEntity
  8
SLD-0
  6
Continuous
 62
   179
370
    25
100
AcDbLine
 10
195.3479120363
 20
143.7322974354
 30
0.0
 11
195.3493377794
 21
143.7309762984
 31
0.0
  0
LINE
  5
214
330
1F
100
AcDbEntity
  8
SLD-0
  6
Continuous
 62
   179
370
    25
100
AcDbLine
 10
195.3493377794
 20
143.7309762984
 30
0.0
 11
195.3504690756
 21
143.7292212397
 31
0.0
  0
LINE
  5
215
330
1F
100
AcDbEntity
  8
SLD-0
  6
Continuous
 62
   179
370
    25
100
AcDbLine
 10
195.3504690756
 20
143.7292212397
 30
0.0
 11
195.3512749304
 21
143.7271058708
 31
0.0
  0
LINE
  5
216
330
1F
100
AcDbEntity
  8
SLD-0
  6
Continuous
 62
   179
370
    25
100
AcDbLine
 10
195.3512749304
 20
143.7271058708
 30
0.0
 11
195.3517243494
 21
143.7247231752
 31
0.0
  0
LINE
  5
217
330
1F
100
AcDbEntity
  8
SLD-0
  6
Continuous
 62
   179
370
    25
100
AcDbLine
 10
195.3517243494
 20
143.7247231752
 30
0.0
 11
195.3517863382
 21
143.7221738845
 31
0.0
  0
LINE
  5
218
330
1F
100
AcDbEntity
  8
SLD-0
  6
Continuous
 62
   179
370
    25
100
AcDbLine
 10
195.2950045694
 20
143.7209069878
 30
0.0
 11
195.3426119913
 21
143.7332272679
 31
0.0
  0
LINE
  5
219
330
1F
100
AcDbEntity
  8
SLD-0
  6
Continuous
 62
   179
370
    25
100
AcDbLine
 10
195.2720377077
 20
143.7275165468
 30
0.0
 11
195.2720377077
 21
143.7268501669
 31
0.0
  0
LINE
  5
21A
330
1F
100
AcDbEntity
  8
SLD-0
  6
Continuous
 62
   179
370
    25
100
AcDbLine
 10
195.2720377077
 20
143.9221498519
 30
0.0
 11
195.2720377077
 21
143.7275165468
 31
0.0
  0
LINE
  5
21B
330
1F
100
AcDbEntity
  8
SLD-0
  6
Continuous
 62
   179
370
    25
100
AcDbLine
 10
195.2628323663
 20
143.932327643
 30
0.0
 11
195.2646300424
 21
143.9325484782
 31
0.0
  0
LINE
  5
21C
330
1F
100
AcDbEntity
  8
SLD-0
  6
Continuous
 62
   179
370
    25
100
AcDbLine
 10
195.2646300424
 20
143.9325484782
 30
0.0
 11
195.2663502325
 21
143.9322811514
 31
0.0
  0
LINE
  5
21D
330
1F
100
AcDbEntity
  8
SLD-0
  6
Continuous
 62
   179
370
    25
100
AcDbLine
 10
195.2663502325
 20
143.9322811514
 30
0.0
 11
195.2679464449
 21
143.9315334111
 31
0.0
  0
LINE
  5
21E
330
1F
100
AcDbEntity
  8
SLD-0
  6
Continuous
 62
   179
370
    25
100
AcDbLine
 10
195.2679464449
 20
143.9315334111
 30
0.0
 11
195.2693411936
 21
143.9303323775
 31
0.0
  0
LINE
  5
21F
330
1F
100
AcDbEntity
  8
SLD-0
  6
Continuous
 62
   179
370
    25
100
AcDbLine
 10
195.2693411936
 20
143.9303323775
 30
0.0
 11
195.2704879869
 21
143.9287245423
 31
0.0
  0
LINE
  5
220
330
1F
100
AcDbEntity
  8
SLD-0
  6
Continuous
 62
   179
370
    25
100
AcDbLine
 10
195.2704879869
 20
143.9287245423
 30
0.0
 11
195.2713248361
 21
143.9267718941
 31
0.0
  0
LINE
  5
221
330
1F
100
AcDbEntity
  8
SLD-0
  6
Continuous
 62
   179
370
    25
100
AcDbLine
 10
195.2713248361
 20
143.9267718941
 30
0.0
 11
195.2718517412
 21
143.9245519191
 31
0.0
  0
LINE
  5
222
330
1F
100
AcDbEntity
  8
SLD-0
  6
Continuous
 62
   179
370
    25
100
AcDbLine
 10
195.2718517412
 20
143.9245519191
 30
0.0
 11
195.2720377077
 21
143.9221498519
 31
0.0
  0
LINE
  5
223
330
1F
100
AcDbEntity
  8
SLD-0
  6
Continuous
 62
   179
370
    25
100
AcDbLine
 10
195.3926834692
 20
143.1775787622
 30
0.0
 11
196.0821232427
 21
142.9991400391
 31
0.0
  0
LINE
  5
224
330
1F
100
AcDbEntity
  8
SLD-0
  6
Continuous
 62
   179
370
    25
100
AcDbLine
 10
196.1151013006
 20
143.6570352465
 30
0.0
 11
195.4256770242
 21
143.8354739696
 31
0.0
  0
LINE
  5
225
330
1F
100
AcDbEntity
  8
SLD-0
  6
Continuous
 62
   179
370
    25
100
AcDbLine
 10
196.0821232427
 20
142.9991400391
 30
0.0
 11
196.1151013006
 21
143.6570352465
 31
0.0
  0
LINE
  5
226
330
1F
100
AcDbEntity
  8
SLD-0
  6
Continuous
 62
   179
370
    25
100
AcDbLine
 10
196.0821232427
 20
142.9991400391
 30
0.0
 11
196.0815653433
 21
142.9954826981
 31
0.0
  0
LINE
  5
227
330
1F
100
AcDbEntity
  8
SLD-0
  6
Continuous
 62
   179
370
    25
100
AcDbLine
 10
196.0815653433
 20
142.9954826981
 30
0.0
 11
196.0803100694
 21
142.992003575
 31
0.0
  0
LINE
  5
228
330
1F
100
AcDbEntity
  8
SLD-0
  6
Continuous
 62
   179
370
    25
100
AcDbLine
 10
196.0803100694
 20
142.992003575
 30
0.0
 11
196.0784349073
 21
142.9889854938
 31
0.0
  0
LINE
  5
229
330
1F
100
AcDbEntity
  8
SLD-0
  6
Continuous
 62
   179
370
    25
100
AcDbLine
 10
196.0784349073
 20
142.9889854938
 30
0.0
 11
196.0761258234
 21
142.9866764098
 31
0.0
  0
LINE
  5
22A
330
1F
100
AcDbEntity
  8
SLD-0
  6
Continuous
 62
   179
370
    25
100
AcDbLine
 10
196.0761258234
 20
142.9866764098
 30
0.0
 11
196.0735532869
 21
142.9852622896
 31
0.0
  0
LINE
  5
22B
330
1F
100
AcDbEntity
  8
SLD-0
  6
Continuous
 62
   179
370
    25
100
AcDbLine
 10
196.0735532869
 20
142.9852622896
 30
0.0
 11
196.0709342588
 21
142.9848593622
 31
0.0
  0
LINE
  5
22C
330
1F
100
AcDbEntity
  8
SLD-0
  6
Continuous
 62
   179
370
    25
100
AcDbLine
 10
196.0709342588
 20
142.9848593622
 30
0.0
 11
196.0696944822
 21
142.985049203
 31
0.0
  0
LINE
  5
22D
330
1F
100
AcDbEntity
  8
SLD-0
  6
Continuous
 62
   179
370
    25
100
AcDbLine
 10
194.904335462
 20
143.8220223933
 30
0.0
 11
194.904335462
 21
143.8269814998
 31
0.0
  0
LINE
  5
22E
330
1F
100
AcDbEntity
  8
SLD-0
  6
Continuous
 62
   179
370
    25
100
AcDbLine
 10
72.1170148481
 20
175.923244372
 30
0.0
 11
71.4958712686
 21
175.7624802142
 31
0.0
  0
LINE
  5
22F
330
1F
100
AcDbEntity
  8
SLD-0
  6
Continuous
 62
   179
370
    25
100
AcDbLine
 10
72.1170148481
 20
175.7976743728
 30
0.0
 11
72.1170148481
 21
175.923244372
 31
0.0
  0
LINE
  5
230
330
1F
100
AcDbEntity
  8
SLD-0
  6
Continuous
 62
   179
370
    25
100
AcDbLine
 10
71.7384568084
 20
175.6996952146
 30
0.0
 11
72.1170148481
 21
175.7976743728
 31
0.0
  0
LINE
  5
231
330
1F
100
AcDbEntity
  8
SLD-0
  6
Continuous
 62
   179
370
    25
100
AcDbLine
 10
72.1170148481
 20
175.923244372
 30
0.0
 11
72.3008582224
 21
175.923244372
 31
0.0
  0
LINE
  5
232
330
1F
100
AcDbEntity
  8
SLD-0
  6
Continuous
 62
   179
370
    25
100
AcDbLine
 10
72.3008582224
 20
175.923244372
 30
0.0
 11
72.3008582224
 21
175.7976743728
 31
0.0
  0
LINE
  5
233
330
1F
100
AcDbEntity
  8
SLD-0
  6
Continuous
 62
   179
370
    25
100
AcDbLine
 10
72.3008582224
 20
175.7976743728
 30
0.0
 11
72.1170148481
 21
175.7976743728
 31
0.0
  0
LINE
  5
234
330
1F
100
AcDbEntity
  8
SLD-0
  6
Continuous
 62
   179
370
    25
100
AcDbLine
 10
72.1980729927
 20
175.5807367116
 30
0.0
 11
72.2411087383
 21
175.5918772668
 31
0.0
  0
LINE
  5
235
330
1F
100
AcDbEntity
  8
SLD-0
  6
Continuous
 62
   179
370
    25
100
AcDbLine
 10
72.3008582224
 20
175.7976743728
 30
0.0
 11
72.6685604681
 21
175.7025079578
 31
0.0
  0
LINE
  5
236
330
1F
100
AcDbEntity
  8
SLD-0
  6
Continuous
 62
   179
370
    25
100
AcDbLine
 10
72.5904235471
 20
175.6822841018
 30
0.0
 11
72.6685604681
 21
175.7025079578
 31
0.0
  0
LINE
  5
237
330
1F
100
AcDbEntity
  8
SLD-0
  6
Continuous
 62
   179
370
    25
100
AcDbLine
 10
73.7256792415
 20
175.4289028197
 30
0.0
 11
73.3579847444
 21
175.5240711719
 31
0.0
  0
LINE
  5
238
330
1F
100
AcDbEntity
  8
SLD-0
  6
Continuous
 62
   179
370
    25
100
AcDbLine
 10
73.7256792415
 20
175.3813205808
 30
0.0
 11
73.7256792415
 21
175.4289028197
 31
0.0
  0
LINE
  5
239
330
1F
100
AcDbEntity
  8
SLD-0
  6
Continuous
 62
   179
370
    25
100
AcDbLine
 10
73.4376636375
 20
175.3067751378
 30
0.0
 11
73.7256792415
 21
175.3813205808
 31
0.0
  0
LINE
  5
23A
330
1F
100
AcDbEntity
  8
SLD-0
  6
Continuous
 62
   179
370
    25
100
AcDbLine
 10
71.9446549047
 20
175.6876383871
 30
0.0
 11
71.9129553665
 21
175.6753587872
 31
0.0
  0
LINE
  5
23B
330
1F
100
AcDbEntity
  8
SLD-0
  6
Continuous
 62
   179
370
    25
100
AcDbLine
 10
71.9129553665
 20
175.6753587872
 30
0.0
 11
71.9018128742
 21
175.6608727723
 31
0.0
  0
LINE
  5
23C
330
1F
100
AcDbEntity
  8
SLD-0
  6
Continuous
 62
   179
370
    25
100
AcDbLine
 10
71.9018128742
 20
175.6608727723
 30
0.0
 11
71.9024947513
 21
175.6572386771
 31
0.0
  0
LINE
  5
23D
330
1F
100
AcDbEntity
  8
SLD-0
  6
Continuous
 62
   179
370
    25
100
AcDbLine
 10
72.1514806379
 20
175.6341071576
 30
0.0
 11
72.3812964786
 21
175.6935854405
 31
0.0
  0
LINE
  5
23E
330
1F
100
AcDbEntity
  8
SLD-0
  6
Continuous
 62
   179
370
    25
100
AcDbLine
 10
72.3812964786
 20
175.6935854405
 30
0.0
 11
72.4129960169
 21
175.7058669776
 31
0.0
  0
LINE
  5
23F
330
1F
100
AcDbEntity
  8
SLD-0
  6
Continuous
 62
   179
370
    25
100
AcDbLine
 10
72.4129960169
 20
175.7058669776
 30
0.0
 11
72.4241307606
 21
175.7203510553
 31
0.0
  0
LINE
  5
240
330
1F
100
AcDbEntity
  8
SLD-0
  6
Continuous
 62
   179
370
    25
100
AcDbLine
 10
72.4241307606
 20
175.7203510553
 30
0.0
 11
72.4129960169
 21
175.7348370701
 31
0.0
  0
LINE
  5
241
330
1F
100
AcDbEntity
  8
SLD-0
  6
Continuous
 62
   179
370
    25
100
AcDbLine
 10
72.4129960169
 20
175.7348370701
 30
0.0
 11
72.3812964786
 21
175.74711667
 31
0.0
  0
LINE
  5
242
330
1F
100
AcDbEntity
  8
SLD-0
  6
Continuous
 62
   179
370
    25
100
AcDbLine
 10
72.3812964786
 20
175.74711667
 30
0.0
 11
72.3338440288
 21
175.7553224415
 31
0.0
  0
LINE
  5
243
330
1F
100
AcDbEntity
  8
SLD-0
  6
Continuous
 62
   179
370
    25
100
AcDbLine
 10
72.3338440288
 20
175.7553224415
 30
0.0
 11
72.2778758634
 21
175.7582049221
 31
0.0
  0
LINE
  5
244
330
1F
100
AcDbEntity
  8
SLD-0
  6
Continuous
 62
   179
370
    25
100
AcDbLine
 10
72.2778758634
 20
175.7582049221
 30
0.0
 11
72.2219154466
 21
175.7553224415
 31
0.0
  0
LINE
  5
245
330
1F
100
AcDbEntity
  8
SLD-0
  6
Continuous
 62
   179
370
    25
100
AcDbLine
 10
72.2219154466
 20
175.7553224415
 30
0.0
 11
72.1744629968
 21
175.7471186072
 31
0.0
  0
LINE
  5
246
330
1F
100
AcDbEntity
  8
SLD-0
  6
Continuous
 62
   179
370
    25
100
AcDbLine
 10
72.1744629968
 20
175.7471186072
 30
0.0
 11
71.9446549047
 21
175.6876383871
 31
0.0
  0
LINE
  5
247
330
1F
100
AcDbEntity
  8
SLD-0
  6
Continuous
 62
   179
370
    25
100
AcDbLine
 10
73.4411040176
 20
175.375420019
 30
0.0
 11
73.44714018
 21
175.3787325472
 31
0.0
  0
LINE
  5
248
330
1F
100
AcDbEntity
  8
SLD-0
  6
Continuous
 62
   179
370
    25
100
AcDbLine
 10
73.44714018
 20
175.3787325472
 30
0.0
 11
73.4582749237
 21
175.3932166249
 31
0.0
  0
LINE
  5
249
330
1F
100
AcDbEntity
  8
SLD-0
  6
Continuous
 62
   179
370
    25
100
AcDbLine
 10
73.4582749237
 20
175.3932166249
 30
0.0
 11
73.44714018
 21
175.4077007025
 31
0.0
  0
LINE
  5
24A
330
1F
100
AcDbEntity
  8
SLD-0
  6
Continuous
 62
   179
370
    25
100
AcDbLine
 10
73.44714018
 20
175.4077007025
 30
0.0
 11
73.4425297607
 21
175.4103022963
 31
0.0
  0
LINE
  5
24B
330
1F
100
AcDbEntity
  8
SLD-0
  6
Continuous
 62
   179
370
    25
100
AcDbLine
 10
73.3579847444
 20
175.4384684712
 30
0.0
 11
73.3579847444
 21
175.5240711719
 31
0.0
  0
LINE
  5
24C
330
1F
100
AcDbEntity
  8
SLD-0
  6
Continuous
 62
   179
370
    25
100
AcDbLine
 10
72.6685604681
 20
175.5769379586
 30
0.0
 11
72.6685604681
 21
175.7025079578
 31
0.0
  0
LINE
  5
24D
330
1F
100
AcDbEntity
  8
SLD-0
  6
Continuous
 62
   179
370
    25
100
AcDbLine
 10
73.7256792415
 20
175.4289028197
 30
0.0
 11
73.7256792415
 21
175.5544747561
 31
0.0
  0
LINE
  5
24E
330
1F
100
AcDbEntity
  8
SLD-0
  6
Continuous
 62
   179
370
    25
100
AcDbLine
 10
72.3008582224
 20
175.923244372
 30
0.0
 11
73.7256792415
 21
175.5544747561
 31
0.0
  0
LINE
  5
24F
330
1F
100
AcDbEntity
  8
SLD-0
  6
Continuous
 62
   179
370
    25
100
AcDbLine
 10
72.7440861095
 20
175.5964857489
 30
0.0
 11
72.6685604681
 21
175.5769379586
 31
0.0
  0
LINE
  5
250
330
1F
100
AcDbEntity
  8
SLD-0
  6
Continuous
 62
   179
370
    25
100
AcDbLine
 10
72.7532604564
 20
175.5854323655
 30
0.0
 11
72.7531984676
 21
175.5879855305
 31
0.0
  0
LINE
  5
251
330
1F
100
AcDbEntity
  8
SLD-0
  6
Continuous
 62
   179
370
    25
100
AcDbLine
 10
72.7531984676
 20
175.5879855305
 30
0.0
 11
72.7527490486
 21
175.5903682262
 31
0.0
  0
LINE
  5
252
330
1F
100
AcDbEntity
  8
SLD-0
  6
Continuous
 62
   179
370
    25
100
AcDbLine
 10
72.7527490486
 20
175.5903682262
 30
0.0
 11
72.7519431938
 21
175.5924797207
 31
0.0
  0
LINE
  5
253
330
1F
100
AcDbEntity
  8
SLD-0
  6
Continuous
 62
   179
370
    25
100
AcDbLine
 10
72.7519431938
 20
175.5924797207
 30
0.0
 11
72.7508118976
 21
175.5942347795
 31
0.0
  0
LINE
  5
254
330
1F
100
AcDbEntity
  8
SLD-0
  6
Continuous
 62
   179
370
    25
100
AcDbLine
 10
72.7508118976
 20
175.5942347795
 30
0.0
 11
72.7493939031
 21
175.5955578536
 31
0.0
  0
LINE
  5
255
330
1F
100
AcDbEntity
  8
SLD-0
  6
Continuous
 62
   179
370
    25
100
AcDbLine
 10
72.7493939031
 20
175.5955578536
 30
0.0
 11
72.7477511991
 21
175.5963947028
 31
0.0
  0
LINE
  5
256
330
1F
100
AcDbEntity
  8
SLD-0
  6
Continuous
 62
   179
370
    25
100
AcDbLine
 10
72.7477511991
 20
175.5963947028
 30
0.0
 11
72.7459612716
 21
175.5967065841
 31
0.0
  0
LINE
  5
257
330
1F
100
AcDbEntity
  8
SLD-0
  6
Continuous
 62
   179
370
    25
100
AcDbLine
 10
72.7459612716
 20
175.5967065841
 30
0.0
 11
72.7440861095
 21
175.5964857489
 31
0.0
  0
LINE
  5
258
330
1F
100
AcDbEntity
  8
SLD-0
  6
Continuous
 62
   179
370
    25
100
AcDbLine
 10
72.7202669014
 20
174.927535221
 30
0.0
 11
72.7532604564
 21
175.5854323655
 31
0.0
  0
LINE
  5
259
330
1F
100
AcDbEntity
  8
SLD-0
  6
Continuous
 62
   179
370
    25
100
AcDbLine
 10
72.7045372356
 20
174.915536508
 30
0.0
 11
72.7066293587
 21
174.9138996154
 31
0.0
  0
LINE
  5
25A
330
1F
100
AcDbEntity
  8
SLD-0
  6
Continuous
 62
   179
370
    25
100
AcDbLine
 10
72.7066293587
 20
174.9138996154
 30
0.0
 11
72.7090856661
 21
174.9132564813
 31
0.0
  0
LINE
  5
25B
330
1F
100
AcDbEntity
  8
SLD-0
  6
Continuous
 62
   179
370
    25
100
AcDbLine
 10
72.7090856661
 20
174.9132564813
 30
0.0
 11
72.7117124428
 21
174.9136594087
 31
0.0
  0
LINE
  5
25C
330
1F
100
AcDbEntity
  8
SLD-0
  6
Continuous
 62
   179
370
    25
100
AcDbLine
 10
72.7117124428
 20
174.9136594087
 30
0.0
 11
72.7142772306
 21
174.9150735289
 31
0.0
  0
LINE
  5
25D
330
1F
100
AcDbEntity
  8
SLD-0
  6
Continuous
 62
   179
370
    25
100
AcDbLine
 10
72.7142772306
 20
174.9150735289
 30
0.0
 11
72.7165940632
 21
174.9173826128
 31
0.0
  0
LINE
  5
25E
330
1F
100
AcDbEntity
  8
SLD-0
  6
Continuous
 62
   179
370
    25
100
AcDbLine
 10
72.7165940632
 20
174.9173826128
 30
0.0
 11
72.7184537281
 21
174.920400694
 31
0.0
  0
LINE
  5
25F
330
1F
100
AcDbEntity
  8
SLD-0
  6
Continuous
 62
   179
370
    25
100
AcDbLine
 10
72.7184537281
 20
174.920400694
 30
0.0
 11
72.7197167505
 21
174.9238798171
 31
0.0
  0
LINE
  5
260
330
1F
100
AcDbEntity
  8
SLD-0
  6
Continuous
 62
   179
370
    25
100
AcDbLine
 10
72.7197167505
 20
174.9238798171
 30
0.0
 11
72.7202669014
 21
174.927535221
 31
0.0
  0
LINE
  5
261
330
1F
100
AcDbEntity
  8
SLD-0
  6
Continuous
 62
   179
370
    25
100
AcDbLine
 10
72.6225957502
 20
175.0083705932
 30
0.0
 11
72.7045372356
 21
174.915536508
 31
0.0
  0
LINE
  5
262
330
1F
100
AcDbEntity
  8
SLD-0
  6
Continuous
 62
   179
370
    25
100
AcDbLine
 10
72.6225957502
 20
175.0272055119
 30
0.0
 11
72.6225957502
 21
175.0083705932
 31
0.0
  0
LINE
  5
263
330
1F
100
AcDbEntity
  8
SLD-0
  6
Continuous
 62
   179
370
    25
100
AcDbLine
 10
72.6541635622
 20
175.0667427629
 30
0.0
 11
72.6225957502
 21
175.0272055119
 31
0.0
  0
LINE
  5
264
330
1F
100
AcDbEntity
  8
SLD-0
  6
Continuous
 62
   179
370
    25
100
AcDbLine
 10
72.6793620218
 20
175.4721303433
 30
0.0
 11
72.6685604681
 21
175.2565796822
 31
0.0
  0
LINE
  5
265
330
1F
100
AcDbEntity
  8
SLD-0
  6
Continuous
 62
   179
370
    25
100
AcDbLine
 10
72.6609203447
 20
175.1042518169
 30
0.0
 11
72.6598122944
 21
175.0821334273
 31
0.0
  0
LINE
  5
266
330
1F
100
AcDbEntity
  8
SLD-0
  6
Continuous
 62
   179
370
    25
100
AcDbLine
 10
72.6701954235
 20
175.4831837267
 30
0.0
 11
72.672062837
 21
175.4834045619
 31
0.0
  0
LINE
  5
267
330
1F
100
AcDbEntity
  8
SLD-0
  6
Continuous
 62
   179
370
    25
100
AcDbLine
 10
72.672062837
 20
175.4834045619
 30
0.0
 11
72.6738605131
 21
175.4830907434
 31
0.0
  0
LINE
  5
268
330
1F
100
AcDbEntity
  8
SLD-0
  6
Continuous
 62
   179
370
    25
100
AcDbLine
 10
72.6738605131
 20
175.4830907434
 30
0.0
 11
72.6754954685
 21
175.4822558314
 31
0.0
  0
LINE
  5
269
330
1F
100
AcDbEntity
  8
SLD-0
  6
Continuous
 62
   179
370
    25
100
AcDbLine
 10
72.6754954685
 20
175.4822558314
 30
0.0
 11
72.676913463
 21
175.4809327573
 31
0.0
  0
LINE
  5
26A
330
1F
100
AcDbEntity
  8
SLD-0
  6
Continuous
 62
   179
370
    25
100
AcDbLine
 10
72.676913463
 20
175.4809327573
 30
0.0
 11
72.6780525078
 21
175.4791776985
 31
0.0
  0
LINE
  5
26B
330
1F
100
AcDbEntity
  8
SLD-0
  6
Continuous
 62
   179
370
    25
100
AcDbLine
 10
72.6780525078
 20
175.4791776985
 30
0.0
 11
72.6788583626
 21
175.4770642668
 31
0.0
  0
LINE
  5
26C
330
1F
100
AcDbEntity
  8
SLD-0
  6
Continuous
 62
   179
370
    25
100
AcDbLine
 10
72.6788583626
 20
175.4770642668
 30
0.0
 11
72.679300033
 21
175.4746835083
 31
0.0
  0
LINE
  5
26D
330
1F
100
AcDbEntity
  8
SLD-0
  6
Continuous
 62
   179
370
    25
100
AcDbLine
 10
72.679300033
 20
175.4746835083
 30
0.0
 11
72.6793620218
 21
175.4721303433
 31
0.0
  0
LINE
  5
26E
330
1F
100
AcDbEntity
  8
SLD-0
  6
Continuous
 62
   179
370
    25
100
AcDbLine
 10
72.6225957502
 20
175.4708634466
 30
0.0
 11
72.6701954235
 21
175.4831837267
 31
0.0
  0
LINE
  5
26F
330
1F
100
AcDbEntity
  8
SLD-0
  6
Continuous
 62
   179
370
    25
100
AcDbLine
 10
72.5996133913
 20
175.4774730056
 30
0.0
 11
72.5996288885
 21
175.4768085629
 31
0.0
  0
LINE
  5
270
330
1F
100
AcDbEntity
  8
SLD-0
  6
Continuous
 62
   179
370
    25
100
AcDbLine
 10
72.5996133913
 20
175.6721063107
 30
0.0
 11
72.5996133913
 21
175.4774730056
 31
0.0
  0
LINE
  5
271
330
1F
100
AcDbEntity
  8
SLD-0
  6
Continuous
 62
   179
370
    25
100
AcDbLine
 10
72.5904235471
 20
175.6822841018
 30
0.0
 11
72.5922134746
 21
175.6825068742
 31
0.0
  0
LINE
  5
272
330
1F
100
AcDbEntity
  8
SLD-0
  6
Continuous
 62
   179
370
    25
100
AcDbLine
 10
72.5922134746
 20
175.6825068742
 30
0.0
 11
72.5939414133
 21
175.6822395474
 31
0.0
  0
LINE
  5
273
330
1F
100
AcDbEntity
  8
SLD-0
  6
Continuous
 62
   179
370
    25
100
AcDbLine
 10
72.5939414133
 20
175.6822395474
 30
0.0
 11
72.5955298771
 21
175.6814898699
 31
0.0
  0
LINE
  5
274
330
1F
100
AcDbEntity
  8
SLD-0
  6
Continuous
 62
   179
370
    25
100
AcDbLine
 10
72.5955298771
 20
175.6814898699
 30
0.0
 11
72.5969246258
 21
175.6802888364
 31
0.0
  0
LINE
  5
275
330
1F
100
AcDbEntity
  8
SLD-0
  6
Continuous
 62
   179
370
    25
100
AcDbLine
 10
72.5969246258
 20
175.6802888364
 30
0.0
 11
72.5980636705
 21
175.6786829382
 31
0.0
  0
LINE
  5
276
330
1F
100
AcDbEntity
  8
SLD-0
  6
Continuous
 62
   179
370
    25
100
AcDbLine
 10
72.5980636705
 20
175.6786829382
 30
0.0
 11
72.5989160169
 21
175.6767302901
 31
0.0
  0
LINE
  5
277
330
1F
100
AcDbEntity
  8
SLD-0
  6
Continuous
 62
   179
370
    25
100
AcDbLine
 10
72.5989160169
 20
175.6767302901
 30
0.0
 11
72.5994351734
 21
175.6745103151
 31
0.0
  0
LINE
  5
278
330
1F
100
AcDbEntity
  8
SLD-0
  6
Continuous
 62
   179
370
    25
100
AcDbLine
 10
72.5994351734
 20
175.6745103151
 30
0.0
 11
72.5996133913
 21
175.6721063107
 31
0.0
  0
LINE
  5
279
330
1F
100
AcDbEntity
  8
SLD-0
  6
Continuous
 62
   179
370
    25
100
AcDbLine
 10
72.7202669014
 20
174.927535221
 30
0.0
 11
73.4096989263
 21
174.7490964979
 31
0.0
  0
LINE
  5
27A
330
1F
100
AcDbEntity
  8
SLD-0
  6
Continuous
 62
   179
370
    25
100
AcDbLine
 10
73.4426847328
 20
175.4069955796
 30
0.0
 11
72.7532604564
 21
175.5854323655
 31
0.0
  0
LINE
  5
27B
330
1F
100
AcDbEntity
  8
SLD-0
  6
Continuous
 62
   179
370
    25
100
AcDbLine
 10
73.4096989263
 20
174.7490964979
 30
0.0
 11
73.4426847328
 21
175.4069955796
 31
0.0
  0
LINE
  5
27C
330
1F
100
AcDbEntity
  8
SLD-0
  6
Continuous
 62
   179
370
    25
100
AcDbLine
 10
73.4096989263
 20
174.7490964979
 30
0.0
 11
73.4091410269
 21
174.7454430312
 31
0.0
  0
LINE
  5
27D
330
1F
100
AcDbEntity
  8
SLD-0
  6
Continuous
 62
   179
370
    25
100
AcDbLine
 10
73.4091410269
 20
174.7454430312
 30
0.0
 11
73.407885753
 21
174.7419639081
 31
0.0
  0
LINE
  5
27E
330
1F
100
AcDbEntity
  8
SLD-0
  6
Continuous
 62
   179
370
    25
100
AcDbLine
 10
73.407885753
 20
174.7419639081
 30
0.0
 11
73.4060183395
 21
174.7389458269
 31
0.0
  0
LINE
  5
27F
330
1F
100
AcDbEntity
  8
SLD-0
  6
Continuous
 62
   179
370
    25
100
AcDbLine
 10
73.4060183395
 20
174.7389458269
 30
0.0
 11
73.4037092556
 21
174.7366348058
 31
0.0
  0
LINE
  5
280
330
1F
100
AcDbEntity
  8
SLD-0
  6
Continuous
 62
   179
370
    25
100
AcDbLine
 10
73.4037092556
 20
174.7366348058
 30
0.0
 11
73.4011367191
 21
174.7352206856
 31
0.0
  0
LINE
  5
281
330
1F
100
AcDbEntity
  8
SLD-0
  6
Continuous
 62
   179
370
    25
100
AcDbLine
 10
73.4011367191
 20
174.7352206856
 30
0.0
 11
73.398517691
 21
174.7348196953
 31
0.0
  0
LINE
  5
282
330
1F
100
AcDbEntity
  8
SLD-0
  6
Continuous
 62
   179
370
    25
100
AcDbLine
 10
73.398517691
 20
174.7348196953
 30
0.0
 11
73.3972701658
 21
174.735007599
 31
0.0
  0
LINE
  5
283
330
1F
100
AcDbEntity
  8
SLD-0
  6
Continuous
 62
   179
370
    25
100
AcDbLine
 10
72.2319188942
 20
175.5719788521
 30
0.0
 11
72.2319188942
 21
175.5769398957
 31
0.0
  0
LINE
  5
284
330
1F
100
AcDbEntity
  8
SLD-0
  6
Continuous
 62
   179
370
    25
100
AcDbLine
 10
26.063147359
 20
187.8428625464
 30
0.0
 11
25.4420057167
 21
187.682098873
 31
0.0
  0
LINE
  5
285
330
1F
100
AcDbEntity
  8
SLD-0
  6
Continuous
 62
   179
370
    25
100
AcDbLine
 10
26.063147359
 20
187.7172920629
 30
0.0
 11
26.063147359
 21
187.8428625464
 31
0.0
  0
LINE
  5
286
330
1F
100
AcDbEntity
  8
SLD-0
  6
Continuous
 62
   179
370
    25
100
AcDbLine
 10
25.6845873822
 20
187.6193133891
 30
0.0
 11
26.063147359
 21
187.7172920629
 31
0.0
  0
LINE
  5
287
330
1F
100
AcDbEntity
  8
SLD-0
  6
Continuous
 62
   179
370
    25
100
AcDbLine
 10
26.1442074407
 20
187.5003553703
 30
0.0
 11
26.1872451235
 21
187.5114939883
 31
0.0
  0
LINE
  5
288
330
1F
100
AcDbEntity
  8
SLD-0
  6
Continuous
 62
   179
370
    25
100
AcDbLine
 10
26.2469946076
 20
187.7172920629
 30
0.0
 11
26.063147359
 21
187.7172920629
 31
0.0
  0
LINE
  5
289
330
1F
100
AcDbEntity
  8
SLD-0
  6
Continuous
 62
   179
370
    25
100
AcDbLine
 10
26.2469946076
 20
187.7172920629
 30
0.0
 11
26.6146910418
 21
187.6221251637
 31
0.0
  0
LINE
  5
28A
330
1F
100
AcDbEntity
  8
SLD-0
  6
Continuous
 62
   179
370
    25
100
AcDbLine
 10
26.5365541209
 20
187.6019022763
 30
0.0
 11
26.6146910418
 21
187.6221251637
 31
0.0
  0
LINE
  5
28B
330
1F
100
AcDbEntity
  8
SLD-0
  6
Continuous
 62
   179
370
    25
100
AcDbLine
 10
27.6718156267
 20
187.3485214785
 30
0.0
 11
27.3041191925
 21
187.4436878934
 31
0.0
  0
LINE
  5
28C
330
1F
100
AcDbEntity
  8
SLD-0
  6
Continuous
 62
   179
370
    25
100
AcDbLine
 10
27.6718156267
 20
187.300938271
 30
0.0
 11
27.6718156267
 21
187.3485214785
 31
0.0
  0
LINE
  5
28D
330
1F
100
AcDbEntity
  8
SLD-0
  6
Continuous
 62
   179
370
    25
100
AcDbLine
 10
27.3837961484
 20
187.2263933122
 30
0.0
 11
27.6718156267
 21
187.300938271
 31
0.0
  0
LINE
  5
28E
330
1F
100
AcDbEntity
  8
SLD-0
  6
Continuous
 62
   179
370
    25
100
AcDbLine
 10
25.8907893528
 20
187.6072555929
 30
0.0
 11
25.8590878774
 21
187.5949755087
 31
0.0
  0
LINE
  5
28F
330
1F
100
AcDbEntity
  8
SLD-0
  6
Continuous
 62
   179
370
    25
100
AcDbLine
 10
25.8590878774
 20
187.5949755087
 30
0.0
 11
25.8479531337
 21
187.5804899782
 31
0.0
  0
LINE
  5
290
330
1F
100
AcDbEntity
  8
SLD-0
  6
Continuous
 62
   179
370
    25
100
AcDbLine
 10
25.8479531337
 20
187.5804899782
 30
0.0
 11
25.8486291994
 21
187.5768568516
 31
0.0
  0
LINE
  5
291
330
1F
100
AcDbEntity
  8
SLD-0
  6
Continuous
 62
   179
370
    25
100
AcDbLine
 10
26.0976189603
 20
187.5537243634
 30
0.0
 11
26.3274289895
 21
187.6132036149
 31
0.0
  0
LINE
  5
292
330
1F
100
AcDbEntity
  8
SLD-0
  6
Continuous
 62
   179
370
    25
100
AcDbLine
 10
26.3274289895
 20
187.6132036149
 30
0.0
 11
26.3591324021
 21
187.6254836991
 31
0.0
  0
LINE
  5
293
330
1F
100
AcDbEntity
  8
SLD-0
  6
Continuous
 62
   179
370
    25
100
AcDbLine
 10
26.3591324021
 20
187.6254836991
 30
0.0
 11
26.3702632715
 21
187.6399692297
 31
0.0
  0
LINE
  5
294
330
1F
100
AcDbEntity
  8
SLD-0
  6
Continuous
 62
   179
370
    25
100
AcDbLine
 10
26.3702632715
 20
187.6399692297
 30
0.0
 11
26.3591304649
 21
187.654454276
 31
0.0
  0
LINE
  5
295
330
1F
100
AcDbEntity
  8
SLD-0
  6
Continuous
 62
   179
370
    25
100
AcDbLine
 10
26.3591304649
 20
187.654454276
 30
0.0
 11
26.3274289895
 21
187.6667343602
 31
0.0
  0
LINE
  5
296
330
1F
100
AcDbEntity
  8
SLD-0
  6
Continuous
 62
   179
370
    25
100
AcDbLine
 10
26.3274289895
 20
187.6667343602
 30
0.0
 11
26.279980414
 21
187.6749401316
 31
0.0
  0
LINE
  5
297
330
1F
100
AcDbEntity
  8
SLD-0
  6
Continuous
 62
   179
370
    25
100
AcDbLine
 10
26.279980414
 20
187.6749401316
 30
0.0
 11
26.2240141858
 21
187.6778211594
 31
0.0
  0
LINE
  5
298
330
1F
100
AcDbEntity
  8
SLD-0
  6
Continuous
 62
   179
370
    25
100
AcDbLine
 10
26.2240141858
 20
187.6778211594
 30
0.0
 11
26.1680460204
 21
187.6749401316
 31
0.0
  0
LINE
  5
299
330
1F
100
AcDbEntity
  8
SLD-0
  6
Continuous
 62
   179
370
    25
100
AcDbLine
 10
26.1680460204
 20
187.6749401316
 30
0.0
 11
26.120599382
 21
187.6667343602
 31
0.0
  0
LINE
  5
29A
330
1F
100
AcDbEntity
  8
SLD-0
  6
Continuous
 62
   179
370
    25
100
AcDbLine
 10
26.120599382
 20
187.6667343602
 30
0.0
 11
25.8907893528
 21
187.6072555929
 31
0.0
  0
LINE
  5
29B
330
1F
100
AcDbEntity
  8
SLD-0
  6
Continuous
 62
   179
370
    25
100
AcDbLine
 10
27.3872384657
 20
187.2950386777
 30
0.0
 11
27.393274628
 21
187.2983483002
 31
0.0
  0
LINE
  5
29C
330
1F
100
AcDbEntity
  8
SLD-0
  6
Continuous
 62
   179
370
    25
100
AcDbLine
 10
27.393274628
 20
187.2983483002
 30
0.0
 11
27.4044074346
 21
187.3128338307
 31
0.0
  0
LINE
  5
29D
330
1F
100
AcDbEntity
  8
SLD-0
  6
Continuous
 62
   179
370
    25
100
AcDbLine
 10
27.4044074346
 20
187.3128338307
 30
0.0
 11
27.393274628
 21
187.3273193613
 31
0.0
  0
LINE
  5
29E
330
1F
100
AcDbEntity
  8
SLD-0
  6
Continuous
 62
   179
370
    25
100
AcDbLine
 10
27.393274628
 20
187.3273193613
 30
0.0
 11
27.3886622716
 21
187.3299190178
 31
0.0
  0
LINE
  5
29F
330
1F
100
AcDbEntity
  8
SLD-0
  6
Continuous
 62
   179
370
    25
100
AcDbLine
 10
26.063147359
 20
187.8428625464
 30
0.0
 11
26.2469946076
 21
187.8428620622
 31
0.0
  0
LINE
  5
2A0
330
1F
100
AcDbEntity
  8
SLD-0
  6
Continuous
 62
   179
370
    25
100
AcDbLine
 10
26.2469946076
 20
187.8428620622
 30
0.0
 11
26.2469946076
 21
187.7172920629
 31
0.0
  0
LINE
  5
2A1
330
1F
100
AcDbEntity
  8
SLD-0
  6
Continuous
 62
   179
370
    25
100
AcDbLine
 10
27.3041191925
 20
187.3580866456
 30
0.0
 11
27.3041191925
 21
187.4436878934
 31
0.0
  0
LINE
  5
2A2
330
1F
100
AcDbEntity
  8
SLD-0
  6
Continuous
 62
   179
370
    25
100
AcDbLine
 10
26.6146910418
 20
187.4965546802
 30
0.0
 11
26.6146910418
 21
187.6221251637
 31
0.0
  0
LINE
  5
2A3
330
1F
100
AcDbEntity
  8
SLD-0
  6
Continuous
 62
   179
370
    25
100
AcDbLine
 10
27.6718156267
 20
187.3485214785
 30
0.0
 11
27.6718156267
 21
187.4740914777
 31
0.0
  0
LINE
  5
2A4
330
1F
100
AcDbEntity
  8
SLD-0
  6
Continuous
 62
   179
370
    25
100
AcDbLine
 10
26.2469946076
 20
187.8428620622
 30
0.0
 11
27.6718156267
 21
187.4740914777
 31
0.0
  0
LINE
  5
2A5
330
1F
100
AcDbEntity
  8
SLD-0
  6
Continuous
 62
   179
370
    25
100
AcDbLine
 10
26.6902224947
 20
187.5161039233
 30
0.0
 11
26.6146910418
 21
187.4965546802
 31
0.0
  0
LINE
  5
2A6
330
1F
100
AcDbEntity
  8
SLD-0
  6
Continuous
 62
   179
370
    25
100
AcDbLine
 10
26.6993929673
 20
187.5050510243
 30
0.0
 11
26.6993290414
 21
187.5076032206
 31
0.0
  0
LINE
  5
2A7
330
1F
100
AcDbEntity
  8
SLD-0
  6
Continuous
 62
   179
370
    25
100
AcDbLine
 10
26.6993290414
 20
187.5076032206
 30
0.0
 11
26.6988854338
 21
187.509985432
 31
0.0
  0
LINE
  5
2A8
330
1F
100
AcDbEntity
  8
SLD-0
  6
Continuous
 62
   179
370
    25
100
AcDbLine
 10
26.6988854338
 20
187.509985432
 30
0.0
 11
26.6980776418
 21
187.5120978951
 31
0.0
  0
LINE
  5
2A9
330
1F
100
AcDbEntity
  8
SLD-0
  6
Continuous
 62
   179
370
    25
100
AcDbLine
 10
26.6980776418
 20
187.5120978951
 30
0.0
 11
26.6969424714
 21
187.5138529539
 31
0.0
  0
LINE
  5
2AA
330
1F
100
AcDbEntity
  8
SLD-0
  6
Continuous
 62
   179
370
    25
100
AcDbLine
 10
26.6969424714
 20
187.5138529539
 30
0.0
 11
26.6955244769
 21
187.5151755437
 31
0.0
  0
LINE
  5
2AB
330
1F
100
AcDbEntity
  8
SLD-0
  6
Continuous
 62
   179
370
    25
100
AcDbLine
 10
26.6955244769
 20
187.5151755437
 30
0.0
 11
26.6938856472
 21
187.5160114244
 31
0.0
  0
LINE
  5
2AC
330
1F
100
AcDbEntity
  8
SLD-0
  6
Continuous
 62
   179
370
    25
100
AcDbLine
 10
26.6938856472
 20
187.5160114244
 30
0.0
 11
26.6920937825
 21
187.5163252428
 31
0.0
  0
LINE
  5
2AD
330
1F
100
AcDbEntity
  8
SLD-0
  6
Continuous
 62
   179
370
    25
100
AcDbLine
 10
26.6920937825
 20
187.5163252428
 30
0.0
 11
26.6902224947
 21
187.5161039233
 31
0.0
  0
LINE
  5
2AE
330
1F
100
AcDbEntity
  8
SLD-0
  6
Continuous
 62
   179
370
    25
100
AcDbLine
 10
26.6664032866
 20
186.8471524268
 30
0.0
 11
26.6993929673
 21
187.5050510243
 31
0.0
  0
LINE
  5
2AF
330
1F
100
AcDbEntity
  8
SLD-0
  6
Continuous
 62
   179
370
    25
100
AcDbLine
 10
26.6506716837
 20
186.8351541981
 30
0.0
 11
26.6527638067
 21
186.8335182741
 31
0.0
  0
LINE
  5
2B0
330
1F
100
AcDbEntity
  8
SLD-0
  6
Continuous
 62
   179
370
    25
100
AcDbLine
 10
26.6527638067
 20
186.8335182741
 30
0.0
 11
26.6552201141
 21
186.8328746557
 31
0.0
  0
LINE
  5
2B1
330
1F
100
AcDbEntity
  8
SLD-0
  6
Continuous
 62
   179
370
    25
100
AcDbLine
 10
26.6552201141
 20
186.8328746557
 30
0.0
 11
26.6578430165
 21
186.8332766145
 31
0.0
  0
LINE
  5
2B2
330
1F
100
AcDbEntity
  8
SLD-0
  6
Continuous
 62
   179
370
    25
100
AcDbLine
 10
26.6578430165
 20
186.8332766145
 30
0.0
 11
26.6604136158
 21
186.8346907347
 31
0.0
  0
LINE
  5
2B3
330
1F
100
AcDbEntity
  8
SLD-0
  6
Continuous
 62
   179
370
    25
100
AcDbLine
 10
26.6604136158
 20
186.8346907347
 30
0.0
 11
26.6627246369
 21
186.8370012715
 31
0.0
  0
LINE
  5
2B4
330
1F
100
AcDbEntity
  8
SLD-0
  6
Continuous
 62
   179
370
    25
100
AcDbLine
 10
26.6627246369
 20
186.8370012715
 30
0.0
 11
26.6645881761
 21
186.8400193527
 31
0.0
  0
LINE
  5
2B5
330
1F
100
AcDbEntity
  8
SLD-0
  6
Continuous
 62
   179
370
    25
100
AcDbLine
 10
26.6645881761
 20
186.8400193527
 30
0.0
 11
26.6658473243
 21
186.8434979916
 31
0.0
  0
LINE
  5
2B6
330
1F
100
AcDbEntity
  8
SLD-0
  6
Continuous
 62
   179
370
    25
100
AcDbLine
 10
26.6658473243
 20
186.8434979916
 30
0.0
 11
26.6664032866
 21
186.8471524268
 31
0.0
  0
LINE
  5
2B7
330
1F
100
AcDbEntity
  8
SLD-0
  6
Continuous
 62
   179
370
    25
100
AcDbLine
 10
26.5687282611
 20
186.927987799
 30
0.0
 11
26.6506716837
 21
186.8351541981
 31
0.0
  0
LINE
  5
2B8
330
1F
100
AcDbEntity
  8
SLD-0
  6
Continuous
 62
   179
370
    25
100
AcDbLine
 10
26.5687282611
 20
186.9468236864
 30
0.0
 11
26.5687282611
 21
186.927987799
 31
0.0
  0
LINE
  5
2B9
330
1F
100
AcDbEntity
  8
SLD-0
  6
Continuous
 62
   179
370
    25
100
AcDbLine
 10
26.6002980102
 20
186.9863614216
 30
0.0
 11
26.5687282611
 21
186.9468236864
 31
0.0
  0
LINE
  5
2BA
330
1F
100
AcDbEntity
  8
SLD-0
  6
Continuous
 62
   179
370
    25
100
AcDbLine
 10
26.625498407
 20
187.3917485177
 30
0.0
 11
26.6146910418
 21
187.1761968881
 31
0.0
  0
LINE
  5
2BB
330
1F
100
AcDbEntity
  8
SLD-0
  6
Continuous
 62
   179
370
    25
100
AcDbLine
 10
26.6070528556
 20
187.0238699913
 30
0.0
 11
26.6059428681
 21
187.0017511174
 31
0.0
  0
LINE
  5
2BC
330
1F
100
AcDbEntity
  8
SLD-0
  6
Continuous
 62
   179
370
    25
100
AcDbLine
 10
26.6163279344
 20
187.4028009325
 30
0.0
 11
26.6181992222
 21
187.403022252
 31
0.0
  0
LINE
  5
2BD
330
1F
100
AcDbEntity
  8
SLD-0
  6
Continuous
 62
   179
370
    25
100
AcDbLine
 10
26.6181992222
 20
187.403022252
 30
0.0
 11
26.619993024
 21
187.4027084336
 31
0.0
  0
LINE
  5
2BE
330
1F
100
AcDbEntity
  8
SLD-0
  6
Continuous
 62
   179
370
    25
100
AcDbLine
 10
26.619993024
 20
187.4027084336
 30
0.0
 11
26.6216318537
 21
187.4018730372
 31
0.0
  0
LINE
  5
2BF
330
1F
100
AcDbEntity
  8
SLD-0
  6
Continuous
 62
   179
370
    25
100
AcDbLine
 10
26.6216318537
 20
187.4018730372
 30
0.0
 11
26.6230498482
 21
187.4005499631
 31
0.0
  0
LINE
  5
2C0
330
1F
100
AcDbEntity
  8
SLD-0
  6
Continuous
 62
   179
370
    25
100
AcDbLine
 10
26.6230498482
 20
187.4005499631
 30
0.0
 11
26.6241850187
 21
187.3987953886
 31
0.0
  0
LINE
  5
2C1
330
1F
100
AcDbEntity
  8
SLD-0
  6
Continuous
 62
   179
370
    25
100
AcDbLine
 10
26.6241850187
 20
187.3987953886
 30
0.0
 11
26.6249928106
 21
187.3966829255
 31
0.0
  0
LINE
  5
2C2
330
1F
100
AcDbEntity
  8
SLD-0
  6
Continuous
 62
   179
370
    25
100
AcDbLine
 10
26.6249928106
 20
187.3966829255
 30
0.0
 11
26.6254364182
 21
187.3943002298
 31
0.0
  0
LINE
  5
2C3
330
1F
100
AcDbEntity
  8
SLD-0
  6
Continuous
 62
   179
370
    25
100
AcDbLine
 10
26.6254364182
 20
187.3943002298
 30
0.0
 11
26.625498407
 21
187.3917485177
 31
0.0
  0
LINE
  5
2C4
330
1F
100
AcDbEntity
  8
SLD-0
  6
Continuous
 62
   179
370
    25
100
AcDbLine
 10
26.5687282611
 20
187.3904811367
 30
0.0
 11
26.6163279344
 21
187.4028009325
 31
0.0
  0
LINE
  5
2C5
330
1F
100
AcDbEntity
  8
SLD-0
  6
Continuous
 62
   179
370
    25
100
AcDbLine
 10
26.5457478393
 20
187.3970906958
 30
0.0
 11
26.5457613994
 21
187.3964257687
 31
0.0
  0
LINE
  5
2C6
330
1F
100
AcDbEntity
  8
SLD-0
  6
Continuous
 62
   179
370
    25
100
AcDbLine
 10
26.5457478393
 20
187.5917244852
 30
0.0
 11
26.5457478393
 21
187.3970906958
 31
0.0
  0
LINE
  5
2C7
330
1F
100
AcDbEntity
  8
SLD-0
  6
Continuous
 62
   179
370
    25
100
AcDbLine
 10
26.5365541209
 20
187.6019022763
 30
0.0
 11
26.5383479227
 21
187.6021255329
 31
0.0
  0
LINE
  5
2C8
330
1F
100
AcDbEntity
  8
SLD-0
  6
Continuous
 62
   179
370
    25
100
AcDbLine
 10
26.5383479227
 20
187.6021255329
 30
0.0
 11
26.5400739242
 21
187.6018572375
 31
0.0
  0
LINE
  5
2C9
330
1F
100
AcDbEntity
  8
SLD-0
  6
Continuous
 62
   179
370
    25
100
AcDbLine
 10
26.5400739242
 20
187.6018572375
 30
0.0
 11
26.541662388
 21
187.6011080444
 31
0.0
  0
LINE
  5
2CA
330
1F
100
AcDbEntity
  8
SLD-0
  6
Continuous
 62
   179
370
    25
100
AcDbLine
 10
26.541662388
 20
187.6011080444
 30
0.0
 11
26.5430551995
 21
187.5999070108
 31
0.0
  0
LINE
  5
2CB
330
1F
100
AcDbEntity
  8
SLD-0
  6
Continuous
 62
   179
370
    25
100
AcDbLine
 10
26.5430551995
 20
187.5999070108
 30
0.0
 11
26.5441981186
 21
187.5982996598
 31
0.0
  0
LINE
  5
2CC
330
1F
100
AcDbEntity
  8
SLD-0
  6
Continuous
 62
   179
370
    25
100
AcDbLine
 10
26.5441981186
 20
187.5982996598
 30
0.0
 11
26.5450485278
 21
187.5963489488
 31
0.0
  0
LINE
  5
2CD
330
1F
100
AcDbEntity
  8
SLD-0
  6
Continuous
 62
   179
370
    25
100
AcDbLine
 10
26.5450485278
 20
187.5963489488
 30
0.0
 11
26.5455715586
 21
187.5941284895
 31
0.0
  0
LINE
  5
2CE
330
1F
100
AcDbEntity
  8
SLD-0
  6
Continuous
 62
   179
370
    25
100
AcDbLine
 10
26.5455715586
 20
187.5941284895
 30
0.0
 11
26.5457478393
 21
187.5917244852
 31
0.0
  0
LINE
  5
2CF
330
1F
100
AcDbEntity
  8
SLD-0
  6
Continuous
 62
   179
370
    25
100
AcDbLine
 10
26.6664032866
 20
186.8471524268
 30
0.0
 11
27.3558314372
 21
186.6687146723
 31
0.0
  0
LINE
  5
2D0
330
1F
100
AcDbEntity
  8
SLD-0
  6
Continuous
 62
   179
370
    25
100
AcDbLine
 10
27.388821118
 20
187.326613754
 30
0.0
 11
26.6993929673
 21
187.5050510243
 31
0.0
  0
LINE
  5
2D1
330
1F
100
AcDbEntity
  8
SLD-0
  6
Continuous
 62
   179
370
    25
100
AcDbLine
 10
27.3558314372
 20
186.6687146723
 30
0.0
 11
27.388821118
 21
187.326613754
 31
0.0
  0
LINE
  5
2D2
330
1F
100
AcDbEntity
  8
SLD-0
  6
Continuous
 62
   179
370
    25
100
AcDbLine
 10
27.3558314372
 20
186.6687146723
 30
0.0
 11
27.3552774121
 21
186.665060237
 31
0.0
  0
LINE
  5
2D3
330
1F
100
AcDbEntity
  8
SLD-0
  6
Continuous
 62
   179
370
    25
100
AcDbLine
 10
27.3552774121
 20
186.665060237
 30
0.0
 11
27.3540163268
 21
186.6615820825
 31
0.0
  0
LINE
  5
2D4
330
1F
100
AcDbEntity
  8
SLD-0
  6
Continuous
 62
   179
370
    25
100
AcDbLine
 10
27.3540163268
 20
186.6615820825
 30
0.0
 11
27.3521547247
 21
186.6585640013
 31
0.0
  0
LINE
  5
2D5
330
1F
100
AcDbEntity
  8
SLD-0
  6
Continuous
 62
   179
370
    25
100
AcDbLine
 10
27.3521547247
 20
186.6585640013
 30
0.0
 11
27.3498437036
 21
186.6562529802
 31
0.0
  0
LINE
  5
2D6
330
1F
100
AcDbEntity
  8
SLD-0
  6
Continuous
 62
   179
370
    25
100
AcDbLine
 10
27.3498437036
 20
186.6562529802
 30
0.0
 11
27.3472711672
 21
186.65483886
 31
0.0
  0
LINE
  5
2D7
330
1F
100
AcDbEntity
  8
SLD-0
  6
Continuous
 62
   179
370
    25
100
AcDbLine
 10
27.3472711672
 20
186.65483886
 30
0.0
 11
27.3446502019
 21
186.6544378698
 31
0.0
  0
LINE
  5
2D8
330
1F
100
AcDbEntity
  8
SLD-0
  6
Continuous
 62
   179
370
    25
100
AcDbLine
 10
27.3446502019
 20
186.6544378698
 30
0.0
 11
27.3434046139
 21
186.6546257734
 31
0.0
  0
LINE
  5
2D9
330
1F
100
AcDbEntity
  8
SLD-0
  6
Continuous
 62
   179
370
    25
100
AcDbLine
 10
26.1780514051
 20
187.491596058
 30
0.0
 11
26.1780514051
 21
187.4965580702
 31
0.0
  0
LINE
  5
2DA
330
1F
100
AcDbEntity
  8
SLD-0
  6
Continuous
 62
   179
370
    25
100
AcDbLine
 10
148.735565864
 20
156.0929012448
 30
0.0
 11
148.1144222845
 21
155.932137087
 31
0.0
  0
LINE
  5
2DB
330
1F
100
AcDbEntity
  8
SLD-0
  6
Continuous
 62
   179
370
    25
100
AcDbLine
 10
148.735565864
 20
155.9673312455
 30
0.0
 11
148.735565864
 21
156.0929012448
 31
0.0
  0
LINE
  5
2DC
330
1F
100
AcDbEntity
  8
SLD-0
  6
Continuous
 62
   179
370
    25
100
AcDbLine
 10
148.3570155729
 20
155.8693540245
 30
0.0
 11
148.735565864
 21
155.9673312455
 31
0.0
  0
LINE
  5
2DD
330
1F
100
AcDbEntity
  8
SLD-0
  6
Continuous
 62
   179
370
    25
100
AcDbLine
 10
148.8166317571
 20
155.7503974587
 30
0.0
 11
148.8596675028
 21
155.7615360767
 31
0.0
  0
LINE
  5
2DE
330
1F
100
AcDbEntity
  8
SLD-0
  6
Continuous
 62
   179
370
    25
100
AcDbLine
 10
148.9194092382
 20
155.9673351198
 30
0.0
 11
148.735565864
 21
155.9673312455
 31
0.0
  0
LINE
  5
2DF
330
1F
100
AcDbEntity
  8
SLD-0
  6
Continuous
 62
   179
370
    25
100
AcDbLine
 10
148.9194092382
 20
155.9673351198
 30
0.0
 11
149.2871114839
 21
155.8721667677
 31
0.0
  0
LINE
  5
2E0
330
1F
100
AcDbEntity
  8
SLD-0
  6
Continuous
 62
   179
370
    25
100
AcDbLine
 10
149.208974563
 20
155.8519429117
 30
0.0
 11
149.2871114839
 21
155.8721667677
 31
0.0
  0
LINE
  5
2E1
330
1F
100
AcDbEntity
  8
SLD-0
  6
Continuous
 62
   179
370
    25
100
AcDbLine
 10
150.344238006
 20
155.5985596925
 30
0.0
 11
149.9765357603
 21
155.6937280446
 31
0.0
  0
LINE
  5
2E2
330
1F
100
AcDbEntity
  8
SLD-0
  6
Continuous
 62
   179
370
    25
100
AcDbLine
 10
150.344238006
 20
155.5509793907
 30
0.0
 11
150.344238006
 21
155.5985596925
 31
0.0
  0
LINE
  5
2E3
330
1F
100
AcDbEntity
  8
SLD-0
  6
Continuous
 62
   179
370
    25
100
AcDbLine
 10
150.0562069048
 20
155.4764339477
 30
0.0
 11
150.344238006
 21
155.5509793907
 31
0.0
  0
LINE
  5
2E4
330
1F
100
AcDbEntity
  8
SLD-0
  6
Continuous
 62
   179
370
    25
100
AcDbLine
 10
148.5632059206
 20
155.857297197
 30
0.0
 11
148.5314986337
 21
155.8450156599
 31
0.0
  0
LINE
  5
2E5
330
1F
100
AcDbEntity
  8
SLD-0
  6
Continuous
 62
   179
370
    25
100
AcDbLine
 10
148.5314986337
 20
155.8450156599
 30
0.0
 11
148.5203716387
 21
155.8305296451
 31
0.0
  0
LINE
  5
2E6
330
1F
100
AcDbEntity
  8
SLD-0
  6
Continuous
 62
   179
370
    25
100
AcDbLine
 10
148.5203716387
 20
155.8305296451
 30
0.0
 11
148.5210535158
 21
155.8268994242
 31
0.0
  0
LINE
  5
2E7
330
1F
100
AcDbEntity
  8
SLD-0
  6
Continuous
 62
   179
370
    25
100
AcDbLine
 10
148.7700316538
 20
155.8037659675
 30
0.0
 11
148.9998397459
 21
155.8632442504
 31
0.0
  0
LINE
  5
2E8
330
1F
100
AcDbEntity
  8
SLD-0
  6
Continuous
 62
   179
370
    25
100
AcDbLine
 10
148.9998397459
 20
155.8632442504
 30
0.0
 11
149.0315470327
 21
155.8755257875
 31
0.0
  0
LINE
  5
2E9
330
1F
100
AcDbEntity
  8
SLD-0
  6
Continuous
 62
   179
370
    25
100
AcDbLine
 10
149.0315470327
 20
155.8755257875
 30
0.0
 11
149.042689525
 21
155.8900118023
 31
0.0
  0
LINE
  5
2EA
330
1F
100
AcDbEntity
  8
SLD-0
  6
Continuous
 62
   179
370
    25
100
AcDbLine
 10
149.042689525
 20
155.8900118023
 30
0.0
 11
149.0315625299
 21
155.9044939429
 31
0.0
  0
LINE
  5
2EB
330
1F
100
AcDbEntity
  8
SLD-0
  6
Continuous
 62
   179
370
    25
100
AcDbLine
 10
149.0315625299
 20
155.9044939429
 30
0.0
 11
148.9998397459
 21
155.9167754799
 31
0.0
  0
LINE
  5
2EC
330
1F
100
AcDbEntity
  8
SLD-0
  6
Continuous
 62
   179
370
    25
100
AcDbLine
 10
148.9998397459
 20
155.9167754799
 30
0.0
 11
148.9524027933
 21
155.9249812514
 31
0.0
  0
LINE
  5
2ED
330
1F
100
AcDbEntity
  8
SLD-0
  6
Continuous
 62
   179
370
    25
100
AcDbLine
 10
148.9524027933
 20
155.9249812514
 30
0.0
 11
148.8964268793
 21
155.927863732
 31
0.0
  0
LINE
  5
2EE
330
1F
100
AcDbEntity
  8
SLD-0
  6
Continuous
 62
   179
370
    25
100
AcDbLine
 10
148.8964268793
 20
155.927863732
 30
0.0
 11
148.8404664625
 21
155.9249812514
 31
0.0
  0
LINE
  5
2EF
330
1F
100
AcDbEntity
  8
SLD-0
  6
Continuous
 62
   179
370
    25
100
AcDbLine
 10
148.8404664625
 20
155.9249812514
 30
0.0
 11
148.7930140127
 21
155.9167754799
 31
0.0
  0
LINE
  5
2F0
330
1F
100
AcDbEntity
  8
SLD-0
  6
Continuous
 62
   179
370
    25
100
AcDbLine
 10
148.7930140127
 20
155.9167754799
 30
0.0
 11
148.5632059206
 21
155.857297197
 31
0.0
  0
LINE
  5
2F1
330
1F
100
AcDbEntity
  8
SLD-0
  6
Continuous
 62
   179
370
    25
100
AcDbLine
 10
150.0596627821
 20
155.5450788289
 30
0.0
 11
150.0656911958
 21
155.5483913571
 31
0.0
  0
LINE
  5
2F2
330
1F
100
AcDbEntity
  8
SLD-0
  6
Continuous
 62
   179
370
    25
100
AcDbLine
 10
150.0656911958
 20
155.5483913571
 30
0.0
 11
150.0768336881
 21
155.5628734976
 31
0.0
  0
LINE
  5
2F3
330
1F
100
AcDbEntity
  8
SLD-0
  6
Continuous
 62
   179
370
    25
100
AcDbLine
 10
150.0768336881
 20
155.5628734976
 30
0.0
 11
150.0656911958
 21
155.5773595124
 31
0.0
  0
LINE
  5
2F4
330
1F
100
AcDbEntity
  8
SLD-0
  6
Continuous
 62
   179
370
    25
100
AcDbLine
 10
150.0656911958
 20
155.5773595124
 30
0.0
 11
150.061073028
 21
155.5799630433
 31
0.0
  0
LINE
  5
2F5
330
1F
100
AcDbEntity
  8
SLD-0
  6
Continuous
 62
   179
370
    25
100
AcDbLine
 10
148.735565864
 20
156.0929012448
 30
0.0
 11
148.9194092382
 21
156.0929051191
 31
0.0
  0
LINE
  5
2F6
330
1F
100
AcDbEntity
  8
SLD-0
  6
Continuous
 62
   179
370
    25
100
AcDbLine
 10
148.9194092382
 20
156.0929051191
 30
0.0
 11
148.9194092382
 21
155.9673351198
 31
0.0
  0
LINE
  5
2F7
330
1F
100
AcDbEntity
  8
SLD-0
  6
Continuous
 62
   179
370
    25
100
AcDbLine
 10
149.9765357603
 20
155.6081292182
 30
0.0
 11
149.9765357603
 21
155.6937280446
 31
0.0
  0
LINE
  5
2F8
330
1F
100
AcDbEntity
  8
SLD-0
  6
Continuous
 62
   179
370
    25
100
AcDbLine
 10
149.2871114839
 20
155.7465967685
 30
0.0
 11
149.2871114839
 21
155.8721667677
 31
0.0
  0
LINE
  5
2F9
330
1F
100
AcDbEntity
  8
SLD-0
  6
Continuous
 62
   179
370
    25
100
AcDbLine
 10
150.344238006
 20
155.5985596925
 30
0.0
 11
150.344238006
 21
155.724133566
 31
0.0
  0
LINE
  5
2FA
330
1F
100
AcDbEntity
  8
SLD-0
  6
Continuous
 62
   179
370
    25
100
AcDbLine
 10
148.9194092382
 20
156.0929051191
 30
0.0
 11
150.344238006
 21
155.724133566
 31
0.0
  0
LINE
  5
2FB
330
1F
100
AcDbEntity
  8
SLD-0
  6
Continuous
 62
   179
370
    25
100
AcDbLine
 10
149.362644874
 20
155.7661426216
 30
0.0
 11
149.2871114839
 21
155.7465967685
 31
0.0
  0
LINE
  5
2FC
330
1F
100
AcDbEntity
  8
SLD-0
  6
Continuous
 62
   179
370
    25
100
AcDbLine
 10
149.3718192209
 20
155.7550931126
 30
0.0
 11
149.3717572321
 21
155.7576424032
 31
0.0
  0
LINE
  5
2FD
330
1F
100
AcDbEntity
  8
SLD-0
  6
Continuous
 62
   179
370
    25
100
AcDbLine
 10
149.3717572321
 20
155.7576424032
 30
0.0
 11
149.371307813
 21
155.7600250989
 31
0.0
  0
LINE
  5
2FE
330
1F
100
AcDbEntity
  8
SLD-0
  6
Continuous
 62
   179
370
    25
100
AcDbLine
 10
149.371307813
 20
155.7600250989
 30
0.0
 11
149.3705019583
 21
155.7621365935
 31
0.0
  0
LINE
  5
2FF
330
1F
100
AcDbEntity
  8
SLD-0
  6
Continuous
 62
   179
370
    25
100
AcDbLine
 10
149.3705019583
 20
155.7621365935
 30
0.0
 11
149.3693706621
 21
155.7638916522
 31
0.0
  0
LINE
  5
300
330
1F
100
AcDbEntity
  8
SLD-0
  6
Continuous
 62
   179
370
    25
100
AcDbLine
 10
149.3693706621
 20
155.7638916522
 30
0.0
 11
149.367944919
 21
155.7652166635
 31
0.0
  0
LINE
  5
301
330
1F
100
AcDbEntity
  8
SLD-0
  6
Continuous
 62
   179
370
    25
100
AcDbLine
 10
149.367944919
 20
155.7652166635
 30
0.0
 11
149.3663177122
 21
155.7660535127
 31
0.0
  0
LINE
  5
302
330
1F
100
AcDbEntity
  8
SLD-0
  6
Continuous
 62
   179
370
    25
100
AcDbLine
 10
149.3663177122
 20
155.7660535127
 30
0.0
 11
149.3645200361
 21
155.7663673311
 31
0.0
  0
LINE
  5
303
330
1F
100
AcDbEntity
  8
SLD-0
  6
Continuous
 62
   179
370
    25
100
AcDbLine
 10
149.3645200361
 20
155.7663673311
 30
0.0
 11
149.362644874
 21
155.7661426216
 31
0.0
  0
LINE
  5
304
330
1F
100
AcDbEntity
  8
SLD-0
  6
Continuous
 62
   179
370
    25
100
AcDbLine
 10
149.3388256658
 20
155.0971940309
 30
0.0
 11
149.3718192209
 21
155.7550931126
 31
0.0
  0
LINE
  5
305
330
1F
100
AcDbEntity
  8
SLD-0
  6
Continuous
 62
   179
370
    25
100
AcDbLine
 10
149.3230960001
 20
155.0851953179
 30
0.0
 11
149.3251881231
 21
155.0835603625
 31
0.0
  0
LINE
  5
306
330
1F
100
AcDbEntity
  8
SLD-0
  6
Continuous
 62
   179
370
    25
100
AcDbLine
 10
149.3251881231
 20
155.0835603625
 30
0.0
 11
149.3276521791
 21
155.082913354
 31
0.0
  0
LINE
  5
307
330
1F
100
AcDbEntity
  8
SLD-0
  6
Continuous
 62
   179
370
    25
100
AcDbLine
 10
149.3276521791
 20
155.082913354
 30
0.0
 11
149.3302712072
 21
155.0833162814
 31
0.0
  0
LINE
  5
308
330
1F
100
AcDbEntity
  8
SLD-0
  6
Continuous
 62
   179
370
    25
100
AcDbLine
 10
149.3302712072
 20
155.0833162814
 30
0.0
 11
149.3328437437
 21
155.0847304016
 31
0.0
  0
LINE
  5
309
330
1F
100
AcDbEntity
  8
SLD-0
  6
Continuous
 62
   179
370
    25
100
AcDbLine
 10
149.3328437437
 20
155.0847304016
 30
0.0
 11
149.3351528276
 21
155.0870394856
 31
0.0
  0
LINE
  5
30A
330
1F
100
AcDbEntity
  8
SLD-0
  6
Continuous
 62
   179
370
    25
100
AcDbLine
 10
149.3351528276
 20
155.0870394856
 30
0.0
 11
149.3370124925
 21
155.0900575668
 31
0.0
  0
LINE
  5
30B
330
1F
100
AcDbEntity
  8
SLD-0
  6
Continuous
 62
   179
370
    25
100
AcDbLine
 10
149.3370124925
 20
155.0900575668
 30
0.0
 11
149.3382677664
 21
155.0935366899
 31
0.0
  0
LINE
  5
30C
330
1F
100
AcDbEntity
  8
SLD-0
  6
Continuous
 62
   179
370
    25
100
AcDbLine
 10
149.3382677664
 20
155.0935366899
 30
0.0
 11
149.3388256658
 21
155.0971940309
 31
0.0
  0
LINE
  5
30D
330
1F
100
AcDbEntity
  8
SLD-0
  6
Continuous
 62
   179
370
    25
100
AcDbLine
 10
149.2411467661
 20
155.1780274659
 30
0.0
 11
149.3230960001
 21
155.0851953179
 31
0.0
  0
LINE
  5
30E
330
1F
100
AcDbEntity
  8
SLD-0
  6
Continuous
 62
   179
370
    25
100
AcDbLine
 10
149.2411467661
 20
155.1968643218
 30
0.0
 11
149.2411467661
 21
155.1780274659
 31
0.0
  0
LINE
  5
30F
330
1F
100
AcDbEntity
  8
SLD-0
  6
Continuous
 62
   179
370
    25
100
AcDbLine
 10
149.2727300752
 20
155.2364015728
 30
0.0
 11
149.2411467661
 21
155.1968643218
 31
0.0
  0
LINE
  5
310
330
1F
100
AcDbEntity
  8
SLD-0
  6
Continuous
 62
   179
370
    25
100
AcDbLine
 10
149.2979285349
 20
155.6417891532
 30
0.0
 11
149.2871114839
 21
155.4262384921
 31
0.0
  0
LINE
  5
311
330
1F
100
AcDbEntity
  8
SLD-0
  6
Continuous
 62
   179
370
    25
100
AcDbLine
 10
149.2794713606
 20
155.2739086896
 30
0.0
 11
149.2783710588
 21
155.2517903
 31
0.0
  0
LINE
  5
312
330
1F
100
AcDbEntity
  8
SLD-0
  6
Continuous
 62
   179
370
    25
100
AcDbLine
 10
149.2887541879
 20
155.6528425366
 30
0.0
 11
149.2906293501
 21
155.6530633718
 31
0.0
  0
LINE
  5
313
330
1F
100
AcDbEntity
  8
SLD-0
  6
Continuous
 62
   179
370
    25
100
AcDbLine
 10
149.2906293501
 20
155.6530633718
 30
0.0
 11
149.2924115289
 21
155.6527495533
 31
0.0
  0
LINE
  5
314
330
1F
100
AcDbEntity
  8
SLD-0
  6
Continuous
 62
   179
370
    25
100
AcDbLine
 10
149.2924115289
 20
155.6527495533
 30
0.0
 11
149.294054233
 21
155.6519127041
 31
0.0
  0
LINE
  5
315
330
1F
100
AcDbEntity
  8
SLD-0
  6
Continuous
 62
   179
370
    25
100
AcDbLine
 10
149.294054233
 20
155.6519127041
 30
0.0
 11
149.2954799761
 21
155.6505915672
 31
0.0
  0
LINE
  5
316
330
1F
100
AcDbEntity
  8
SLD-0
  6
Continuous
 62
   179
370
    25
100
AcDbLine
 10
149.2954799761
 20
155.6505915672
 30
0.0
 11
149.2966112722
 21
155.6488365084
 31
0.0
  0
LINE
  5
317
330
1F
100
AcDbEntity
  8
SLD-0
  6
Continuous
 62
   179
370
    25
100
AcDbLine
 10
149.2966112722
 20
155.6488365084
 30
0.0
 11
149.297417127
 21
155.6467211395
 31
0.0
  0
LINE
  5
318
330
1F
100
AcDbEntity
  8
SLD-0
  6
Continuous
 62
   179
370
    25
100
AcDbLine
 10
149.297417127
 20
155.6467211395
 30
0.0
 11
149.297866546
 21
155.6443423182
 31
0.0
  0
LINE
  5
319
330
1F
100
AcDbEntity
  8
SLD-0
  6
Continuous
 62
   179
370
    25
100
AcDbLine
 10
149.297866546
 20
155.6443423182
 30
0.0
 11
149.2979285349
 21
155.6417891532
 31
0.0
  0
LINE
  5
31A
330
1F
100
AcDbEntity
  8
SLD-0
  6
Continuous
 62
   179
370
    25
100
AcDbLine
 10
149.2411467661
 20
155.6405222565
 30
0.0
 11
149.2887541879
 21
155.6528425366
 31
0.0
  0
LINE
  5
31B
330
1F
100
AcDbEntity
  8
SLD-0
  6
Continuous
 62
   179
370
    25
100
AcDbLine
 10
149.2181644071
 20
155.6471318155
 30
0.0
 11
149.2181799043
 21
155.6464654356
 31
0.0
  0
LINE
  5
31C
330
1F
100
AcDbEntity
  8
SLD-0
  6
Continuous
 62
   179
370
    25
100
AcDbLine
 10
149.2181644071
 20
155.8417651206
 30
0.0
 11
149.2181644071
 21
155.6471318155
 31
0.0
  0
LINE
  5
31D
330
1F
100
AcDbEntity
  8
SLD-0
  6
Continuous
 62
   179
370
    25
100
AcDbLine
 10
149.208974563
 20
155.8519429117
 30
0.0
 11
149.2107722391
 21
155.8521637469
 31
0.0
  0
LINE
  5
31E
330
1F
100
AcDbEntity
  8
SLD-0
  6
Continuous
 62
   179
370
    25
100
AcDbLine
 10
149.2107722391
 20
155.8521637469
 30
0.0
 11
149.2124924291
 21
155.8518964201
 31
0.0
  0
LINE
  5
31F
330
1F
100
AcDbEntity
  8
SLD-0
  6
Continuous
 62
   179
370
    25
100
AcDbLine
 10
149.2124924291
 20
155.8518964201
 30
0.0
 11
149.2140886415
 21
155.8511486798
 31
0.0
  0
LINE
  5
320
330
1F
100
AcDbEntity
  8
SLD-0
  6
Continuous
 62
   179
370
    25
100
AcDbLine
 10
149.2140886415
 20
155.8511486798
 30
0.0
 11
149.2154833902
 21
155.8499476463
 31
0.0
  0
LINE
  5
321
330
1F
100
AcDbEntity
  8
SLD-0
  6
Continuous
 62
   179
370
    25
100
AcDbLine
 10
149.2154833902
 20
155.8499476463
 30
0.0
 11
149.2166301836
 21
155.848339811
 31
0.0
  0
LINE
  5
322
330
1F
100
AcDbEntity
  8
SLD-0
  6
Continuous
 62
   179
370
    25
100
AcDbLine
 10
149.2166301836
 20
155.848339811
 30
0.0
 11
149.2174670328
 21
155.8463871628
 31
0.0
  0
LINE
  5
323
330
1F
100
AcDbEntity
  8
SLD-0
  6
Continuous
 62
   179
370
    25
100
AcDbLine
 10
149.2174670328
 20
155.8463871628
 30
0.0
 11
149.2179939379
 21
155.8441671878
 31
0.0
  0
LINE
  5
324
330
1F
100
AcDbEntity
  8
SLD-0
  6
Continuous
 62
   179
370
    25
100
AcDbLine
 10
149.2179939379
 20
155.8441671878
 30
0.0
 11
149.2181644071
 21
155.8417651206
 31
0.0
  0
LINE
  5
325
330
1F
100
AcDbEntity
  8
SLD-0
  6
Continuous
 62
   179
370
    25
100
AcDbLine
 10
149.3388256658
 20
155.0971940309
 30
0.0
 11
150.0282499422
 21
154.9187553078
 31
0.0
  0
LINE
  5
326
330
1F
100
AcDbEntity
  8
SLD-0
  6
Continuous
 62
   179
370
    25
100
AcDbLine
 10
150.0612434973
 20
155.5766543895
 30
0.0
 11
149.3718192209
 21
155.7550931126
 31
0.0
  0
LINE
  5
327
330
1F
100
AcDbEntity
  8
SLD-0
  6
Continuous
 62
   179
370
    25
100
AcDbLine
 10
150.0282499422
 20
154.9187553078
 30
0.0
 11
150.0612434973
 21
155.5766543895
 31
0.0
  0
LINE
  5
328
330
1F
100
AcDbEntity
  8
SLD-0
  6
Continuous
 62
   179
370
    25
100
AcDbLine
 10
150.0282499422
 20
154.9187553078
 30
0.0
 11
150.0276920427
 21
154.9151018411
 31
0.0
  0
LINE
  5
329
330
1F
100
AcDbEntity
  8
SLD-0
  6
Continuous
 62
   179
370
    25
100
AcDbLine
 10
150.0276920427
 20
154.9151018411
 30
0.0
 11
150.0264367689
 21
154.911622718
 31
0.0
  0
LINE
  5
32A
330
1F
100
AcDbEntity
  8
SLD-0
  6
Continuous
 62
   179
370
    25
100
AcDbLine
 10
150.0264367689
 20
154.911622718
 30
0.0
 11
150.024577104
 21
154.9086046368
 31
0.0
  0
LINE
  5
32B
330
1F
100
AcDbEntity
  8
SLD-0
  6
Continuous
 62
   179
370
    25
100
AcDbLine
 10
150.024577104
 20
154.9086046368
 30
0.0
 11
150.02226802
 21
154.9062955528
 31
0.0
  0
LINE
  5
32C
330
1F
100
AcDbEntity
  8
SLD-0
  6
Continuous
 62
   179
370
    25
100
AcDbLine
 10
150.02226802
 20
154.9062955528
 30
0.0
 11
150.0196954836
 21
154.9048814326
 31
0.0
  0
LINE
  5
32D
330
1F
100
AcDbEntity
  8
SLD-0
  6
Continuous
 62
   179
370
    25
100
AcDbLine
 10
150.0196954836
 20
154.9048814326
 30
0.0
 11
150.0170609583
 21
154.9044785053
 31
0.0
  0
LINE
  5
32E
330
1F
100
AcDbEntity
  8
SLD-0
  6
Continuous
 62
   179
370
    25
100
AcDbLine
 10
150.0170609583
 20
154.9044785053
 30
0.0
 11
150.0158211817
 21
154.904668346
 31
0.0
  0
LINE
  5
32F
330
1F
100
AcDbEntity
  8
SLD-0
  6
Continuous
 62
   179
370
    25
100
AcDbLine
 10
148.8504776586
 20
155.741637662
 30
0.0
 11
148.8504776586
 21
155.7465967685
 31
0.0
  0
LINE
  5
330
330
1F
100
AcDbEntity
  8
SLD-0
  6
Continuous
 62
   179
370
    25
100
AcDbLine
 10
164.224745952
 20
152.0840099603
 30
0.0
 11
163.6036023725
 21
151.9232458025
 31
0.0
  0
LINE
  5
331
330
1F
100
AcDbEntity
  8
SLD-0
  6
Continuous
 62
   179
370
    25
100
AcDbLine
 10
164.224745952
 20
151.9584399611
 30
0.0
 11
164.224745952
 21
152.0840099603
 31
0.0
  0
LINE
  5
332
330
1F
100
AcDbEntity
  8
SLD-0
  6
Continuous
 62
   179
370
    25
100
AcDbLine
 10
163.8461801637
 20
151.8604627401
 30
0.0
 11
164.224745952
 21
151.9584399611
 31
0.0
  0
LINE
  5
333
330
1F
100
AcDbEntity
  8
SLD-0
  6
Continuous
 62
   179
370
    25
100
AcDbLine
 10
164.224745952
 20
152.0840099603
 30
0.0
 11
164.4085893263
 21
152.0840099603
 31
0.0
  0
LINE
  5
334
330
1F
100
AcDbEntity
  8
SLD-0
  6
Continuous
 62
   179
370
    25
100
AcDbLine
 10
164.4085893263
 20
152.0840099603
 30
0.0
 11
164.4085893263
 21
151.9584399611
 31
0.0
  0
LINE
  5
335
330
1F
100
AcDbEntity
  8
SLD-0
  6
Continuous
 62
   179
370
    25
100
AcDbLine
 10
164.4085893263
 20
151.9584399611
 30
0.0
 11
164.224745952
 21
151.9584399611
 31
0.0
  0
LINE
  5
336
330
1F
100
AcDbEntity
  8
SLD-0
  6
Continuous
 62
   179
370
    25
100
AcDbLine
 10
164.305796348
 20
151.7415022999
 30
0.0
 11
164.3488320936
 21
151.7526409179
 31
0.0
  0
LINE
  5
337
330
1F
100
AcDbEntity
  8
SLD-0
  6
Continuous
 62
   179
370
    25
100
AcDbLine
 10
164.4085893263
 20
151.9584399611
 30
0.0
 11
164.776291572
 21
151.8632716089
 31
0.0
  0
LINE
  5
338
330
1F
100
AcDbEntity
  8
SLD-0
  6
Continuous
 62
   179
370
    25
100
AcDbLine
 10
164.698154651
 20
151.8430516273
 30
0.0
 11
164.776291572
 21
151.8632716089
 31
0.0
  0
LINE
  5
339
330
1F
100
AcDbEntity
  8
SLD-0
  6
Continuous
 62
   179
370
    25
100
AcDbLine
 10
165.8334025968
 20
151.589668408
 30
0.0
 11
165.4657158483
 21
151.6848367602
 31
0.0
  0
LINE
  5
33A
330
1F
100
AcDbEntity
  8
SLD-0
  6
Continuous
 62
   179
370
    25
100
AcDbLine
 10
165.833418094
 20
151.542084232
 30
0.0
 11
165.8334025968
 21
151.589668408
 31
0.0
  0
LINE
  5
33B
330
1F
100
AcDbEntity
  8
SLD-0
  6
Continuous
 62
   179
370
    25
100
AcDbLine
 10
165.5453869928
 20
151.4675387889
 30
0.0
 11
165.833418094
 21
151.542084232
 31
0.0
  0
LINE
  5
33C
330
1F
100
AcDbEntity
  8
SLD-0
  6
Continuous
 62
   179
370
    25
100
AcDbLine
 10
164.0523860086
 20
151.8484059125
 30
0.0
 11
164.0206787218
 21
151.8361243755
 31
0.0
  0
LINE
  5
33D
330
1F
100
AcDbEntity
  8
SLD-0
  6
Continuous
 62
   179
370
    25
100
AcDbLine
 10
164.0206787218
 20
151.8361243755
 30
0.0
 11
164.0095362295
 21
151.8216383606
 31
0.0
  0
LINE
  5
33E
330
1F
100
AcDbEntity
  8
SLD-0
  6
Continuous
 62
   179
370
    25
100
AcDbLine
 10
164.0095362295
 20
151.8216383606
 30
0.0
 11
164.0102336038
 21
151.8180042654
 31
0.0
  0
LINE
  5
33F
330
1F
100
AcDbEntity
  8
SLD-0
  6
Continuous
 62
   179
370
    25
100
AcDbLine
 10
164.2592117418
 20
151.7948708087
 30
0.0
 11
164.4890198339
 21
151.8543490916
 31
0.0
  0
LINE
  5
340
330
1F
100
AcDbEntity
  8
SLD-0
  6
Continuous
 62
   179
370
    25
100
AcDbLine
 10
164.4890198339
 20
151.8543490916
 30
0.0
 11
164.5207271208
 21
151.866634503
 31
0.0
  0
LINE
  5
341
330
1F
100
AcDbEntity
  8
SLD-0
  6
Continuous
 62
   179
370
    25
100
AcDbLine
 10
164.5207271208
 20
151.866634503
 30
0.0
 11
164.5318696131
 21
151.8811166435
 31
0.0
  0
LINE
  5
342
330
1F
100
AcDbEntity
  8
SLD-0
  6
Continuous
 62
   179
370
    25
100
AcDbLine
 10
164.5318696131
 20
151.8811166435
 30
0.0
 11
164.5207271208
 21
151.8956026584
 31
0.0
  0
LINE
  5
343
330
1F
100
AcDbEntity
  8
SLD-0
  6
Continuous
 62
   179
370
    25
100
AcDbLine
 10
164.5207271208
 20
151.8956026584
 30
0.0
 11
164.4890198339
 21
151.9078803211
 31
0.0
  0
LINE
  5
344
330
1F
100
AcDbEntity
  8
SLD-0
  6
Continuous
 62
   179
370
    25
100
AcDbLine
 10
164.4890198339
 20
151.9078803211
 30
0.0
 11
164.4415673841
 21
151.9160899669
 31
0.0
  0
LINE
  5
345
330
1F
100
AcDbEntity
  8
SLD-0
  6
Continuous
 62
   179
370
    25
100
AcDbLine
 10
164.4415673841
 20
151.9160899669
 30
0.0
 11
164.3856069673
 21
151.9189724475
 31
0.0
  0
LINE
  5
346
330
1F
100
AcDbEntity
  8
SLD-0
  6
Continuous
 62
   179
370
    25
100
AcDbLine
 10
164.3856069673
 20
151.9189724475
 30
0.0
 11
164.3296465505
 21
151.9160860926
 31
0.0
  0
LINE
  5
347
330
1F
100
AcDbEntity
  8
SLD-0
  6
Continuous
 62
   179
370
    25
100
AcDbLine
 10
164.3296465505
 20
151.9160860926
 30
0.0
 11
164.2821941007
 21
151.9078841954
 31
0.0
  0
LINE
  5
348
330
1F
100
AcDbEntity
  8
SLD-0
  6
Continuous
 62
   179
370
    25
100
AcDbLine
 10
164.2821941007
 20
151.9078841954
 30
0.0
 11
164.0523860086
 21
151.8484059125
 31
0.0
  0
LINE
  5
349
330
1F
100
AcDbEntity
  8
SLD-0
  6
Continuous
 62
   179
370
    25
100
AcDbLine
 10
165.5488273729
 20
151.5361875445
 30
0.0
 11
165.5548712839
 21
151.5394961983
 31
0.0
  0
LINE
  5
34A
330
1F
100
AcDbEntity
  8
SLD-0
  6
Continuous
 62
   179
370
    25
100
AcDbLine
 10
165.5548712839
 20
151.5394961983
 30
0.0
 11
165.565998279
 21
151.5539822131
 31
0.0
  0
LINE
  5
34B
330
1F
100
AcDbEntity
  8
SLD-0
  6
Continuous
 62
   179
370
    25
100
AcDbLine
 10
165.565998279
 20
151.5539822131
 30
0.0
 11
165.5548712839
 21
151.5684643537
 31
0.0
  0
LINE
  5
34C
330
1F
100
AcDbEntity
  8
SLD-0
  6
Continuous
 62
   179
370
    25
100
AcDbLine
 10
165.5548712839
 20
151.5684643537
 30
0.0
 11
165.550253116
 21
151.5710678846
 31
0.0
  0
LINE
  5
34D
330
1F
100
AcDbEntity
  8
SLD-0
  6
Continuous
 62
   179
370
    25
100
AcDbLine
 10
165.4657158483
 20
151.5992340594
 30
0.0
 11
165.4657158483
 21
151.6848367602
 31
0.0
  0
LINE
  5
34E
330
1F
100
AcDbEntity
  8
SLD-0
  6
Continuous
 62
   179
370
    25
100
AcDbLine
 10
164.776291572
 20
151.7377016097
 30
0.0
 11
164.776291572
 21
151.8632716089
 31
0.0
  0
LINE
  5
34F
330
1F
100
AcDbEntity
  8
SLD-0
  6
Continuous
 62
   179
370
    25
100
AcDbLine
 10
165.8334025968
 20
151.589668408
 30
0.0
 11
165.8334025968
 21
151.7152384073
 31
0.0
  0
LINE
  5
350
330
1F
100
AcDbEntity
  8
SLD-0
  6
Continuous
 62
   179
370
    25
100
AcDbLine
 10
164.4085893263
 20
152.0840099603
 30
0.0
 11
165.8334025968
 21
151.7152384073
 31
0.0
  0
LINE
  5
351
330
1F
100
AcDbEntity
  8
SLD-0
  6
Continuous
 62
   179
370
    25
100
AcDbLine
 10
164.8518094648
 20
151.7572513372
 30
0.0
 11
164.776291572
 21
151.7377016097
 31
0.0
  0
LINE
  5
352
330
1F
100
AcDbEntity
  8
SLD-0
  6
Continuous
 62
   179
370
    25
100
AcDbLine
 10
164.8609838117
 20
151.7461979538
 30
0.0
 11
164.8609218229
 21
151.7487511188
 31
0.0
  0
LINE
  5
353
330
1F
100
AcDbEntity
  8
SLD-0
  6
Continuous
 62
   179
370
    25
100
AcDbLine
 10
164.8609218229
 20
151.7487511188
 30
0.0
 11
164.8604724039
 21
151.7511338144
 31
0.0
  0
LINE
  5
354
330
1F
100
AcDbEntity
  8
SLD-0
  6
Continuous
 62
   179
370
    25
100
AcDbLine
 10
164.8604724039
 20
151.7511338144
 30
0.0
 11
164.8596665491
 21
151.753245309
 31
0.0
  0
LINE
  5
355
330
1F
100
AcDbEntity
  8
SLD-0
  6
Continuous
 62
   179
370
    25
100
AcDbLine
 10
164.8596665491
 20
151.753245309
 30
0.0
 11
164.8585352529
 21
151.7550003678
 31
0.0
  0
LINE
  5
356
330
1F
100
AcDbEntity
  8
SLD-0
  6
Continuous
 62
   179
370
    25
100
AcDbLine
 10
164.8585352529
 20
151.7550003678
 30
0.0
 11
164.857125007
 21
151.756325379
 31
0.0
  0
LINE
  5
357
330
1F
100
AcDbEntity
  8
SLD-0
  6
Continuous
 62
   179
370
    25
100
AcDbLine
 10
164.857125007
 20
151.756325379
 30
0.0
 11
164.855482303
 21
151.7571583539
 31
0.0
  0
LINE
  5
358
330
1F
100
AcDbEntity
  8
SLD-0
  6
Continuous
 62
   179
370
    25
100
AcDbLine
 10
164.855482303
 20
151.7571583539
 30
0.0
 11
164.8536846269
 21
151.7574721724
 31
0.0
  0
LINE
  5
359
330
1F
100
AcDbEntity
  8
SLD-0
  6
Continuous
 62
   179
370
    25
100
AcDbLine
 10
164.8536846269
 20
151.7574721724
 30
0.0
 11
164.8518094648
 21
151.7572513372
 31
0.0
  0
LINE
  5
35A
330
1F
100
AcDbEntity
  8
SLD-0
  6
Continuous
 62
   179
370
    25
100
AcDbLine
 10
164.8279902567
 20
151.0882988721
 30
0.0
 11
164.8609838117
 21
151.7461979538
 31
0.0
  0
LINE
  5
35B
330
1F
100
AcDbEntity
  8
SLD-0
  6
Continuous
 62
   179
370
    25
100
AcDbLine
 10
164.8122605909
 20
151.0763040334
 30
0.0
 11
164.8143527139
 21
151.0746652037
 31
0.0
  0
LINE
  5
35C
330
1F
100
AcDbEntity
  8
SLD-0
  6
Continuous
 62
   179
370
    25
100
AcDbLine
 10
164.8143527139
 20
151.0746652037
 30
0.0
 11
164.81681677
 21
151.0740220696
 31
0.0
  0
LINE
  5
35D
330
1F
100
AcDbEntity
  8
SLD-0
  6
Continuous
 62
   179
370
    25
100
AcDbLine
 10
164.81681677
 20
151.0740220696
 30
0.0
 11
164.819435798
 21
151.074424997
 31
0.0
  0
LINE
  5
35E
330
1F
100
AcDbEntity
  8
SLD-0
  6
Continuous
 62
   179
370
    25
100
AcDbLine
 10
164.819435798
 20
151.074424997
 30
0.0
 11
164.8220083345
 21
151.0758391172
 31
0.0
  0
LINE
  5
35F
330
1F
100
AcDbEntity
  8
SLD-0
  6
Continuous
 62
   179
370
    25
100
AcDbLine
 10
164.8220083345
 20
151.0758391172
 30
0.0
 11
164.8243174185
 21
151.0781482011
 31
0.0
  0
LINE
  5
360
330
1F
100
AcDbEntity
  8
SLD-0
  6
Continuous
 62
   179
370
    25
100
AcDbLine
 10
164.8243174185
 20
151.0781482011
 30
0.0
 11
164.8261770834
 21
151.0811662823
 31
0.0
  0
LINE
  5
361
330
1F
100
AcDbEntity
  8
SLD-0
  6
Continuous
 62
   179
370
    25
100
AcDbLine
 10
164.8261770834
 20
151.0811662823
 30
0.0
 11
164.8274478544
 21
151.0846454054
 31
0.0
  0
LINE
  5
362
330
1F
100
AcDbEntity
  8
SLD-0
  6
Continuous
 62
   179
370
    25
100
AcDbLine
 10
164.8274478544
 20
151.0846454054
 30
0.0
 11
164.8279902567
 21
151.0882988721
 31
0.0
  0
LINE
  5
363
330
1F
100
AcDbEntity
  8
SLD-0
  6
Continuous
 62
   179
370
    25
100
AcDbLine
 10
164.7303268541
 20
151.1691361815
 30
0.0
 11
164.8122605909
 21
151.0763040334
 31
0.0
  0
LINE
  5
364
330
1F
100
AcDbEntity
  8
SLD-0
  6
Continuous
 62
   179
370
    25
100
AcDbLine
 10
164.7303268541
 20
151.1879730374
 30
0.0
 11
164.7303268541
 21
151.1691361815
 31
0.0
  0
LINE
  5
365
330
1F
100
AcDbEntity
  8
SLD-0
  6
Continuous
 62
   179
370
    25
100
AcDbLine
 10
164.7618946661
 20
151.2275102884
 30
0.0
 11
164.7303268541
 21
151.1879730374
 31
0.0
  0
LINE
  5
366
330
1F
100
AcDbEntity
  8
SLD-0
  6
Continuous
 62
   179
370
    25
100
AcDbLine
 10
164.7870931257
 20
151.6328978687
 30
0.0
 11
164.776291572
 21
151.4173433334
 31
0.0
  0
LINE
  5
367
330
1F
100
AcDbEntity
  8
SLD-0
  6
Continuous
 62
   179
370
    25
100
AcDbLine
 10
164.7686514486
 20
151.2650174051
 30
0.0
 11
164.7675356497
 21
151.2428990155
 31
0.0
  0
LINE
  5
368
330
1F
100
AcDbEntity
  8
SLD-0
  6
Continuous
 62
   179
370
    25
100
AcDbLine
 10
164.7779187788
 20
151.6439512521
 30
0.0
 11
164.7797939409
 21
151.6441720873
 31
0.0
  0
LINE
  5
369
330
1F
100
AcDbEntity
  8
SLD-0
  6
Continuous
 62
   179
370
    25
100
AcDbLine
 10
164.7797939409
 20
151.6441720873
 30
0.0
 11
164.781591617
 21
151.6438582689
 31
0.0
  0
LINE
  5
36A
330
1F
100
AcDbEntity
  8
SLD-0
  6
Continuous
 62
   179
370
    25
100
AcDbLine
 10
164.781591617
 20
151.6438582689
 30
0.0
 11
164.7832188238
 21
151.6430214196
 31
0.0
  0
LINE
  5
36B
330
1F
100
AcDbEntity
  8
SLD-0
  6
Continuous
 62
   179
370
    25
100
AcDbLine
 10
164.7832188238
 20
151.6430214196
 30
0.0
 11
164.7846445669
 21
151.6416964084
 31
0.0
  0
LINE
  5
36C
330
1F
100
AcDbEntity
  8
SLD-0
  6
Continuous
 62
   179
370
    25
100
AcDbLine
 10
164.7846445669
 20
151.6416964084
 30
0.0
 11
164.7857758631
 21
151.6399452239
 31
0.0
  0
LINE
  5
36D
330
1F
100
AcDbEntity
  8
SLD-0
  6
Continuous
 62
   179
370
    25
100
AcDbLine
 10
164.7857758631
 20
151.6399452239
 30
0.0
 11
164.7865817179
 21
151.6378298551
 31
0.0
  0
LINE
  5
36E
330
1F
100
AcDbEntity
  8
SLD-0
  6
Continuous
 62
   179
370
    25
100
AcDbLine
 10
164.7865817179
 20
151.6378298551
 30
0.0
 11
164.7870311369
 21
151.6354471594
 31
0.0
  0
LINE
  5
36F
330
1F
100
AcDbEntity
  8
SLD-0
  6
Continuous
 62
   179
370
    25
100
AcDbLine
 10
164.7870311369
 20
151.6354471594
 30
0.0
 11
164.7870931257
 21
151.6328978687
 31
0.0
  0
LINE
  5
370
330
1F
100
AcDbEntity
  8
SLD-0
  6
Continuous
 62
   179
370
    25
100
AcDbLine
 10
164.7303268541
 20
151.631630972
 30
0.0
 11
164.7779187788
 21
151.6439512521
 31
0.0
  0
LINE
  5
371
330
1F
100
AcDbEntity
  8
SLD-0
  6
Continuous
 62
   179
370
    25
100
AcDbLine
 10
164.7073444952
 20
151.6382405311
 30
0.0
 11
164.7073599924
 21
151.6375741512
 31
0.0
  0
LINE
  5
372
330
1F
100
AcDbEntity
  8
SLD-0
  6
Continuous
 62
   179
370
    25
100
AcDbLine
 10
164.7073444952
 20
151.8328738362
 30
0.0
 11
164.7073444952
 21
151.6382405311
 31
0.0
  0
LINE
  5
373
330
1F
100
AcDbEntity
  8
SLD-0
  6
Continuous
 62
   179
370
    25
100
AcDbLine
 10
164.698154651
 20
151.8430516273
 30
0.0
 11
164.6999368299
 21
151.8432724625
 31
0.0
  0
LINE
  5
374
330
1F
100
AcDbEntity
  8
SLD-0
  6
Continuous
 62
   179
370
    25
100
AcDbLine
 10
164.6999368299
 20
151.8432724625
 30
0.0
 11
164.7016725172
 21
151.8430051357
 31
0.0
  0
LINE
  5
375
330
1F
100
AcDbEntity
  8
SLD-0
  6
Continuous
 62
   179
370
    25
100
AcDbLine
 10
164.7016725172
 20
151.8430051357
 30
0.0
 11
164.7032532324
 21
151.8422573954
 31
0.0
  0
LINE
  5
376
330
1F
100
AcDbEntity
  8
SLD-0
  6
Continuous
 62
   179
370
    25
100
AcDbLine
 10
164.7032532324
 20
151.8422573954
 30
0.0
 11
164.704647981
 21
151.8410563618
 31
0.0
  0
LINE
  5
377
330
1F
100
AcDbEntity
  8
SLD-0
  6
Continuous
 62
   179
370
    25
100
AcDbLine
 10
164.704647981
 20
151.8410563618
 30
0.0
 11
164.7057947744
 21
151.8394485265
 31
0.0
  0
LINE
  5
378
330
1F
100
AcDbEntity
  8
SLD-0
  6
Continuous
 62
   179
370
    25
100
AcDbLine
 10
164.7057947744
 20
151.8394485265
 30
0.0
 11
164.7066471208
 21
151.8374958783
 31
0.0
  0
LINE
  5
379
330
1F
100
AcDbEntity
  8
SLD-0
  6
Continuous
 62
   179
370
    25
100
AcDbLine
 10
164.7066471208
 20
151.8374958783
 30
0.0
 11
164.7071585287
 21
151.8352759033
 31
0.0
  0
LINE
  5
37A
330
1F
100
AcDbEntity
  8
SLD-0
  6
Continuous
 62
   179
370
    25
100
AcDbLine
 10
164.7071585287
 20
151.8352759033
 30
0.0
 11
164.7073444952
 21
151.8328738362
 31
0.0
  0
LINE
  5
37B
330
1F
100
AcDbEntity
  8
SLD-0
  6
Continuous
 62
   179
370
    25
100
AcDbLine
 10
164.8279902567
 20
151.0882988721
 30
0.0
 11
165.5174300302
 21
150.909860149
 31
0.0
  0
LINE
  5
37C
330
1F
100
AcDbEntity
  8
SLD-0
  6
Continuous
 62
   179
370
    25
100
AcDbLine
 10
165.5504235853
 20
151.5677592307
 30
0.0
 11
164.8609838117
 21
151.7461979538
 31
0.0
  0
LINE
  5
37D
330
1F
100
AcDbEntity
  8
SLD-0
  6
Continuous
 62
   179
370
    25
100
AcDbLine
 10
165.5174300302
 20
150.909860149
 30
0.0
 11
165.5504235853
 21
151.5677592307
 31
0.0
  0
LINE
  5
37E
330
1F
100
AcDbEntity
  8
SLD-0
  6
Continuous
 62
   179
370
    25
100
AcDbLine
 10
165.5174300302
 20
150.909860149
 30
0.0
 11
165.5168721308
 21
150.9062066823
 31
0.0
  0
LINE
  5
37F
330
1F
100
AcDbEntity
  8
SLD-0
  6
Continuous
 62
   179
370
    25
100
AcDbLine
 10
165.5168721308
 20
150.9062066823
 30
0.0
 11
165.5156168569
 21
150.9027275592
 31
0.0
  0
LINE
  5
380
330
1F
100
AcDbEntity
  8
SLD-0
  6
Continuous
 62
   179
370
    25
100
AcDbLine
 10
165.5156168569
 20
150.9027275592
 30
0.0
 11
165.513757192
 21
150.899709478
 31
0.0
  0
LINE
  5
381
330
1F
100
AcDbEntity
  8
SLD-0
  6
Continuous
 62
   179
370
    25
100
AcDbLine
 10
165.513757192
 20
150.899709478
 30
0.0
 11
165.5114481081
 21
150.8974003941
 31
0.0
  0
LINE
  5
382
330
1F
100
AcDbEntity
  8
SLD-0
  6
Continuous
 62
   179
370
    25
100
AcDbLine
 10
165.5114481081
 20
150.8974003941
 30
0.0
 11
165.5088755716
 21
150.8959862739
 31
0.0
  0
LINE
  5
383
330
1F
100
AcDbEntity
  8
SLD-0
  6
Continuous
 62
   179
370
    25
100
AcDbLine
 10
165.5088755716
 20
150.8959862739
 30
0.0
 11
165.5062410463
 21
150.8955833465
 31
0.0
  0
LINE
  5
384
330
1F
100
AcDbEntity
  8
SLD-0
  6
Continuous
 62
   179
370
    25
100
AcDbLine
 10
165.5062410463
 20
150.8955833465
 30
0.0
 11
165.5050012697
 21
150.8957731873
 31
0.0
  0
LINE
  5
385
330
1F
100
AcDbEntity
  8
SLD-0
  6
Continuous
 62
   179
370
    25
100
AcDbLine
 10
164.3396422495
 20
151.7327425033
 30
0.0
 11
164.3396422495
 21
151.737705484
 31
0.0
  0
LINE
  5
386
330
1F
100
AcDbEntity
  8
SLD-0
  6
Continuous
 62
   179
370
    25
100
AcDbLine
 10
18.8011597325
 20
189.1867513359
 30
0.0
 11
18.79646989
 21
189.1791310683
 31
0.0
  0
LINE
  5
387
330
1F
100
AcDbEntity
  8
SLD-0
  6
Continuous
 62
   179
370
    25
100
AcDbLine
 10
19.2148170103
 20
189.2938133106
 30
0.0
 11
18.8011597325
 21
189.1867513359
 31
0.0
  0
LINE
  5
388
330
1F
100
AcDbEntity
  8
SLD-0
  6
Continuous
 62
   179
370
    25
100
AcDbLine
 10
19.260779791
 20
189.2429238707
 30
0.0
 11
19.2148170103
 21
189.2938133106
 31
0.0
  0
LINE
  5
389
330
1F
100
AcDbEntity
  8
SLD-0
  6
Continuous
 62
   179
370
    25
100
AcDbLine
 10
19.260779791
 20
188.9415550008
 30
0.0
 11
19.260779791
 21
189.2429238707
 31
0.0
  0
LINE
  5
38A
330
1F
100
AcDbEntity
  8
SLD-0
  6
Continuous
 62
   179
370
    25
100
AcDbLine
 10
19.205625229
 20
188.914723523
 30
0.0
 11
19.2515880097
 21
188.9266190827
 31
0.0
  0
LINE
  5
38B
330
1F
100
AcDbEntity
  8
SLD-0
  6
Continuous
 62
   179
370
    25
100
AcDbLine
 10
19.1918365885
 20
188.5030508563
 30
0.0
 11
19.1918365885
 21
188.8923189193
 31
0.0
  0
LINE
  5
38C
330
1F
100
AcDbEntity
  8
SLD-0
  6
Continuous
 62
   179
370
    25
100
AcDbLine
 10
19.1739295651
 20
188.4984157383
 30
0.0
 11
19.1918365885
 21
188.5030508563
 31
0.0
  0
LINE
  5
38D
330
1F
100
AcDbEntity
  8
SLD-0
  6
Continuous
 62
   179
370
    25
100
AcDbLine
 10
19.1355642904
 20
188.5778311789
 30
0.0
 11
19.1521288682
 21
188.5142388716
 31
0.0
  0
LINE
  5
38E
330
1F
100
AcDbEntity
  8
SLD-0
  6
Continuous
 62
   179
370
    25
100
AcDbLine
 10
19.1343845655
 20
188.6377332136
 30
0.0
 11
19.1343845655
 21
188.5874530077
 31
0.0
  0
LINE
  5
38F
330
1F
100
AcDbEntity
  8
SLD-0
  6
Continuous
 62
   179
370
    25
100
AcDbLine
 10
19.1407364835
 20
188.664141424
 30
0.0
 11
19.1368098785
 21
188.6524003521
 31
0.0
  0
LINE
  5
390
330
1F
100
AcDbEntity
  8
SLD-0
  6
Continuous
 62
   179
370
    25
100
AcDbLine
 10
19.1368098785
 20
188.7019284591
 30
0.0
 11
19.1407364835
 21
188.6922199428
 31
0.0
  0
LINE
  5
391
330
1F
100
AcDbEntity
  8
SLD-0
  6
Continuous
 62
   179
370
    25
100
AcDbLine
 10
19.1343845655
 20
188.7633036971
 30
0.0
 11
19.1343845655
 21
188.7153398395
 31
0.0
  0
LINE
  5
392
330
1F
100
AcDbEntity
  8
SLD-0
  6
Continuous
 62
   179
370
    25
100
AcDbLine
 10
19.1407364835
 20
188.7897119075
 30
0.0
 11
19.1368098785
 21
188.7779708356
 31
0.0
  0
LINE
  5
393
330
1F
100
AcDbEntity
  8
SLD-0
  6
Continuous
 62
   179
370
    25
100
AcDbLine
 10
19.1368098785
 20
188.8274989426
 30
0.0
 11
19.1407364835
 21
188.817789942
 31
0.0
  0
LINE
  5
394
330
1F
100
AcDbEntity
  8
SLD-0
  6
Continuous
 62
   179
370
    25
100
AcDbLine
 10
19.1343845655
 20
188.8888741806
 30
0.0
 11
19.1343845655
 21
188.840910323
 31
0.0
  0
LINE
  5
395
330
1F
100
AcDbEntity
  8
SLD-0
  6
Continuous
 62
   179
370
    25
100
AcDbLine
 10
19.1434484948
 20
188.9233951792
 30
0.0
 11
19.1368098785
 21
188.9035408348
 31
0.0
  0
LINE
  5
396
330
1F
100
AcDbEntity
  8
SLD-0
  6
Continuous
 62
   179
370
    25
100
AcDbLine
 10
19.1458757449
 20
189.1817917451
 30
0.0
 11
19.1458757449
 21
188.9380618334
 31
0.0
  0
LINE
  5
397
330
1F
100
AcDbEntity
  8
SLD-0
  6
Continuous
 62
   179
370
    25
100
AcDbLine
 10
18.9660325874
 20
189.1352453977
 30
0.0
 11
19.1458757449
 21
189.1817917451
 31
0.0
  0
LINE
  5
398
330
1F
100
AcDbEntity
  8
SLD-0
  6
Continuous
 62
   179
370
    25
100
AcDbLine
 10
18.870102935
 20
188.8666870221
 30
0.0
 11
18.870102935
 21
188.9586484209
 31
0.0
  0
LINE
  5
399
330
1F
100
AcDbEntity
  8
SLD-0
  6
Continuous
 62
   179
370
    25
100
AcDbLine
 10
18.8791688014
 20
188.8368582874
 30
0.0
 11
18.8725301851
 21
188.8532756418
 31
0.0
  0
LINE
  5
39A
330
1F
100
AcDbEntity
  8
SLD-0
  6
Continuous
 62
   179
370
    25
100
AcDbLine
 10
18.8815941144
 20
188.7754830494
 30
0.0
 11
18.8815941144
 21
188.8234469071
 31
0.0
  0
LINE
  5
39B
330
1F
100
AcDbEntity
  8
SLD-0
  6
Continuous
 62
   179
370
    25
100
AcDbLine
 10
18.8815728058
 20
188.7741159052
 30
0.0
 11
18.8815941144
 21
188.7754830494
 31
0.0
  0
LINE
  5
39C
330
1F
100
AcDbEntity
  8
SLD-0
  6
Continuous
 62
   179
370
    25
100
AcDbLine
 10
18.8815941144
 20
188.5220262185
 30
0.0
 11
18.8815941144
 21
188.5723059401
 31
0.0
  0
LINE
  5
39D
330
1F
100
AcDbEntity
  8
SLD-0
  6
Continuous
 62
   179
370
    25
100
AcDbLine
 10
18.8638517488
 20
188.4396270812
 30
0.0
 11
18.8804143895
 21
188.5117937028
 31
0.0
  0
LINE
  5
39E
330
1F
100
AcDbEntity
  8
SLD-0
  6
Continuous
 62
   179
370
    25
100
AcDbLine
 10
18.8241420914
 20
188.407883957
 30
0.0
 11
18.8420491148
 21
188.412519075
 31
0.0
  0
LINE
  5
39F
330
1F
100
AcDbEntity
  8
SLD-0
  6
Continuous
 62
   179
370
    25
100
AcDbLine
 10
18.8241420914
 20
188.7971525043
 30
0.0
 11
18.8241420914
 21
188.7889796644
 31
0.0
  0
LINE
  5
3A0
330
1F
100
AcDbEntity
  8
SLD-0
  6
Continuous
 62
   179
370
    25
100
AcDbLine
 10
18.8241420914
 20
188.5875542238
 30
0.0
 11
18.8241420914
 21
188.407883957
 31
0.0
  0
LINE
  5
3A1
330
1F
100
AcDbEntity
  8
SLD-0
  6
Continuous
 62
   179
370
    25
100
AcDbLine
 10
18.8103534509
 20
188.812419191
 30
0.0
 11
18.8130422164
 21
188.8127533495
 31
0.0
  0
LINE
  5
3A2
330
1F
100
AcDbEntity
  8
SLD-0
  6
Continuous
 62
   179
370
    25
100
AcDbLine
 10
18.8130422164
 20
188.8127533495
 30
0.0
 11
18.8156302501
 21
188.8123509064
 31
0.0
  0
LINE
  5
3A3
330
1F
100
AcDbEntity
  8
SLD-0
  6
Continuous
 62
   179
370
    25
100
AcDbLine
 10
18.8156302501
 20
188.8123509064
 30
0.0
 11
18.8180129458
 21
188.8112273589
 31
0.0
  0
LINE
  5
3A4
330
1F
100
AcDbEntity
  8
SLD-0
  6
Continuous
 62
   179
370
    25
100
AcDbLine
 10
18.8180129458
 20
188.8112273589
 30
0.0
 11
18.8201031317
 21
188.8094258085
 31
0.0
  0
LINE
  5
3A5
330
1F
100
AcDbEntity
  8
SLD-0
  6
Continuous
 62
   179
370
    25
100
AcDbLine
 10
18.8201031317
 20
188.8094258085
 30
0.0
 11
18.8218175102
 21
188.8070155084
 31
0.0
  0
LINE
  5
3A6
330
1F
100
AcDbEntity
  8
SLD-0
  6
Continuous
 62
   179
370
    25
100
AcDbLine
 10
18.8218175102
 20
188.8070155084
 30
0.0
 11
18.8230921556
 21
188.8040889576
 31
0.0
  0
LINE
  5
3A7
330
1F
100
AcDbEntity
  8
SLD-0
  6
Continuous
 62
   179
370
    25
100
AcDbLine
 10
18.8230921556
 20
188.8040889576
 30
0.0
 11
18.8238767017
 21
188.8007585108
 31
0.0
  0
LINE
  5
3A8
330
1F
100
AcDbEntity
  8
SLD-0
  6
Continuous
 62
   179
370
    25
100
AcDbLine
 10
18.8238767017
 20
188.8007585108
 30
0.0
 11
18.8241420914
 21
188.7971525043
 31
0.0
  0
LINE
  5
3A9
330
1F
100
AcDbEntity
  8
SLD-0
  6
Continuous
 62
   179
370
    25
100
AcDbLine
 10
18.7719668676
 20
188.802484028
 30
0.0
 11
18.8103534509
 21
188.812419191
 31
0.0
  0
LINE
  5
3AA
330
1F
100
AcDbEntity
  8
SLD-0
  6
Continuous
 62
   179
370
    25
100
AcDbLine
 10
18.7551988889
 20
188.8107014224
 30
0.0
 11
18.7553751696
 21
188.8082974181
 31
0.0
  0
LINE
  5
3AB
330
1F
100
AcDbEntity
  8
SLD-0
  6
Continuous
 62
   179
370
    25
100
AcDbLine
 10
18.7553751696
 20
188.8082974181
 30
0.0
 11
18.7557141711
 21
188.806690067
 31
0.0
  0
LINE
  5
3AC
330
1F
100
AcDbEntity
  8
SLD-0
  6
Continuous
 62
   179
370
    25
100
AcDbLine
 10
18.7551988889
 20
188.9883875623
 30
0.0
 11
18.7551988889
 21
188.8107014224
 31
0.0
  0
LINE
  5
3AD
330
1F
100
AcDbEntity
  8
SLD-0
  6
Continuous
 62
   179
370
    25
100
AcDbLine
 10
19.1918365885
 20
188.5030508563
 30
0.0
 11
65.1537785162
 21
176.6072252542
 31
0.0
  0
LINE
  5
3AE
330
1F
100
AcDbEntity
  8
SLD-0
  6
Continuous
 62
   179
370
    25
100
AcDbLine
 10
65.1537785162
 20
176.6072252542
 30
0.0
 11
65.1537785162
 21
176.9964938015
 31
0.0
  0
LINE
  5
3AF
330
1F
100
AcDbEntity
  8
SLD-0
  6
Continuous
 62
   179
370
    25
100
AcDbLine
 10
65.1358714927
 20
176.6025896519
 30
0.0
 11
65.1537785162
 21
176.6072252542
 31
0.0
  0
LINE
  5
3B0
330
1F
100
AcDbEntity
  8
SLD-0
  6
Continuous
 62
   179
370
    25
100
AcDbLine
 10
19.1739295651
 20
188.4984157383
 30
0.0
 11
65.1358714927
 21
176.6025896519
 31
0.0
  0
LINE
  5
3B1
330
1F
100
AcDbEntity
  8
SLD-0
  6
Continuous
 62
   179
370
    25
100
AcDbLine
 10
65.2227178444
 20
177.3470987529
 30
0.0
 11
57.9442373146
 21
179.2309092879
 31
0.0
  0
LINE
  5
3B2
330
1F
100
AcDbEntity
  8
SLD-0
  6
Continuous
 62
   179
370
    25
100
AcDbLine
 10
57.1874699224
 20
179.426774621
 30
0.0
 11
27.3795460392
 21
187.1416327879
 31
0.0
  0
LINE
  5
3B3
330
1F
100
AcDbEntity
  8
SLD-0
  6
Continuous
 62
   179
370
    25
100
AcDbLine
 10
26.6227786471
 20
187.3374986052
 30
0.0
 11
19.260779791
 21
189.2429238707
 31
0.0
  0
LINE
  5
3B4
330
1F
100
AcDbEntity
  8
SLD-0
  6
Continuous
 62
   179
370
    25
100
AcDbLine
 10
65.2227178444
 20
177.0457303673
 30
0.0
 11
65.2227178444
 21
177.3470987529
 31
0.0
  0
LINE
  5
3B5
330
1F
100
AcDbEntity
  8
SLD-0
  6
Continuous
 62
   179
370
    25
100
AcDbLine
 10
65.1675632824
 20
177.0188969523
 30
0.0
 11
65.2135280002
 21
177.0307929963
 31
0.0
  0
LINE
  5
3B6
330
1F
100
AcDbEntity
  8
SLD-0
  6
Continuous
 62
   179
370
    25
100
AcDbLine
 10
19.2148170103
 20
189.2938133106
 30
0.0
 11
26.6247080494
 21
187.3759927005
 31
0.0
  0
LINE
  5
3B7
330
1F
100
AcDbEntity
  8
SLD-0
  6
Continuous
 62
   179
370
    25
100
AcDbLine
 10
27.3814754416
 20
187.1801268831
 30
0.0
 11
57.1893993248
 21
179.4652677476
 31
0.0
  0
LINE
  5
3B8
330
1F
100
AcDbEntity
  8
SLD-0
  6
Continuous
 62
   179
370
    25
100
AcDbLine
 10
57.9461667169
 20
179.2694024146
 30
0.0
 11
65.1767608751
 21
177.3979877084
 31
0.0
  0
LINE
  5
3B9
330
1F
100
AcDbEntity
  8
SLD-0
  6
Continuous
 62
   179
370
    25
100
AcDbLine
 10
65.1767608751
 20
177.3979877084
 30
0.0
 11
65.2227178444
 21
177.3470987529
 31
0.0
  0
LINE
  5
3BA
330
1F
100
AcDbEntity
  8
SLD-0
  6
Continuous
 62
   179
370
    25
100
AcDbLine
 10
18.8241420914
 20
188.407883957
 30
0.0
 11
18.9084662725
 21
188.3860595301
 31
0.0
  0
LINE
  5
3BB
330
1F
100
AcDbEntity
  8
SLD-0
  6
Continuous
 62
   179
370
    25
100
AcDbLine
 10
157.3764059175
 20
153.5349631458
 30
0.0
 11
157.3193142046
 21
153.5201865584
 31
0.0
  0
LINE
  5
3BC
330
1F
100
AcDbEntity
  8
SLD-0
  6
Continuous
 62
   179
370
    25
100
AcDbLine
 10
157.4223706354
 20
153.4840741903
 30
0.0
 11
157.3764059175
 21
153.5349631458
 31
0.0
  0
LINE
  5
3BD
330
1F
100
AcDbEntity
  8
SLD-0
  6
Continuous
 62
   179
370
    25
100
AcDbLine
 10
157.4223706354
 20
153.1827038676
 30
0.0
 11
157.4223706354
 21
153.4840741903
 31
0.0
  0
LINE
  5
3BE
330
1F
100
AcDbEntity
  8
SLD-0
  6
Continuous
 62
   179
370
    25
100
AcDbLine
 10
157.3672160734
 20
153.1558743268
 30
0.0
 11
157.4131807913
 21
153.1677684337
 31
0.0
  0
LINE
  5
3BF
330
1F
100
AcDbEntity
  8
SLD-0
  6
Continuous
 62
   179
370
    25
100
AcDbLine
 10
157.3534235586
 20
152.7441987544
 30
0.0
 11
157.3534235586
 21
153.1334692389
 31
0.0
  0
LINE
  5
3C0
330
1F
100
AcDbEntity
  8
SLD-0
  6
Continuous
 62
   179
370
    25
100
AcDbLine
 10
157.3355242838
 20
152.7395650893
 30
0.0
 11
157.3534235586
 21
152.7441987544
 31
0.0
  0
LINE
  5
3C1
330
1F
100
AcDbEntity
  8
SLD-0
  6
Continuous
 62
   179
370
    25
100
AcDbLine
 10
157.2971531976
 20
152.8189805299
 30
0.0
 11
157.3137197126
 21
152.7553877383
 31
0.0
  0
LINE
  5
3C2
330
1F
100
AcDbEntity
  8
SLD-0
  6
Continuous
 62
   179
370
    25
100
AcDbLine
 10
157.2959754099
 20
152.8788811117
 30
0.0
 11
157.2959754099
 21
152.8286042958
 31
0.0
  0
LINE
  5
3C3
330
1F
100
AcDbEntity
  8
SLD-0
  6
Continuous
 62
   179
370
    25
100
AcDbLine
 10
157.302329265
 20
152.9052922279
 30
0.0
 11
157.2983929743
 21
152.8935492188
 31
0.0
  0
LINE
  5
3C4
330
1F
100
AcDbEntity
  8
SLD-0
  6
Continuous
 62
   179
370
    25
100
AcDbLine
 10
157.2983929743
 20
152.9430782944
 30
0.0
 11
157.302329265
 21
152.9333692938
 31
0.0
  0
LINE
  5
3C5
330
1F
100
AcDbEntity
  8
SLD-0
  6
Continuous
 62
   179
370
    25
100
AcDbLine
 10
157.2959754099
 20
153.004451111
 30
0.0
 11
157.2959754099
 21
152.9564911276
 31
0.0
  0
LINE
  5
3C6
330
1F
100
AcDbEntity
  8
SLD-0
  6
Continuous
 62
   179
370
    25
100
AcDbLine
 10
157.302329265
 20
153.0308622271
 30
0.0
 11
157.2983929743
 21
153.019119218
 31
0.0
  0
LINE
  5
3C7
330
1F
100
AcDbEntity
  8
SLD-0
  6
Continuous
 62
   179
370
    25
100
AcDbLine
 10
157.2983929743
 20
153.0686482936
 30
0.0
 11
157.302329265
 21
153.058939293
 31
0.0
  0
LINE
  5
3C8
330
1F
100
AcDbEntity
  8
SLD-0
  6
Continuous
 62
   179
370
    25
100
AcDbLine
 10
157.2959754099
 20
153.1300249845
 30
0.0
 11
157.2959754099
 21
153.0820611268
 31
0.0
  0
LINE
  5
3C9
330
1F
100
AcDbEntity
  8
SLD-0
  6
Continuous
 62
   179
370
    25
100
AcDbLine
 10
157.3050412763
 20
153.1645450145
 30
0.0
 11
157.2983929743
 21
153.1446892172
 31
0.0
  0
LINE
  5
3CA
330
1F
100
AcDbEntity
  8
SLD-0
  6
Continuous
 62
   179
370
    25
100
AcDbLine
 10
157.3074588407
 20
153.1879922897
 30
0.0
 11
157.3074588407
 21
153.1792131215
 31
0.0
  0
LINE
  5
3CB
330
1F
100
AcDbEntity
  8
SLD-0
  6
Continuous
 62
   179
370
    25
100
AcDbLine
 10
157.3534235586
 20
152.7441987544
 30
0.0
 11
203.3153674234
 21
140.8483755737
 31
0.0
  0
LINE
  5
3CC
330
1F
100
AcDbEntity
  8
SLD-0
  6
Continuous
 62
   179
370
    25
100
AcDbLine
 10
203.2974526514
 20
140.8437380344
 30
0.0
 11
203.3153674234
 21
140.8483755737
 31
0.0
  0
LINE
  5
3CD
330
1F
100
AcDbEntity
  8
SLD-0
  6
Continuous
 62
   179
370
    25
100
AcDbLine
 10
157.3355242838
 20
152.7395650893
 30
0.0
 11
203.2974526514
 21
140.8437380344
 31
0.0
  0
LINE
  5
3CE
330
1F
100
AcDbEntity
  8
SLD-0
  6
Continuous
 62
   179
370
    25
100
AcDbLine
 10
203.3153674234
 20
140.8483755737
 30
0.0
 11
203.3153674234
 21
141.2376421839
 31
0.0
  0
LINE
  5
3CF
330
1F
100
AcDbEntity
  8
SLD-0
  6
Continuous
 62
   179
370
    25
100
AcDbLine
 10
203.3843145002
 20
141.5882471353
 30
0.0
 11
196.1058339704
 21
143.4720567018
 31
0.0
  0
LINE
  5
3D0
330
1F
100
AcDbEntity
  8
SLD-0
  6
Continuous
 62
   179
370
    25
100
AcDbLine
 10
195.3490588297
 20
143.6679220349
 30
0.0
 11
165.5411407579
 21
151.382780686
 31
0.0
  0
LINE
  5
3D1
330
1F
100
AcDbEntity
  8
SLD-0
  6
Continuous
 62
   179
370
    25
100
AcDbLine
 10
164.7843656172
 20
151.5786460191
 30
0.0
 11
157.4223706354
 21
153.4840741903
 31
0.0
  0
LINE
  5
3D2
330
1F
100
AcDbEntity
  8
SLD-0
  6
Continuous
 62
   179
370
    25
100
AcDbLine
 10
203.3843145002
 20
141.2868806869
 30
0.0
 11
203.3843145002
 21
141.5882471353
 31
0.0
  0
LINE
  5
3D3
330
1F
100
AcDbEntity
  8
SLD-0
  6
Continuous
 62
   179
370
    25
100
AcDbLine
 10
203.3291599382
 20
141.2600472718
 30
0.0
 11
203.3751246561
 21
141.2719413787
 31
0.0
  0
LINE
  5
3D4
330
1F
100
AcDbEntity
  8
SLD-0
  6
Continuous
 62
   179
370
    25
100
AcDbLine
 10
157.3764059175
 20
153.5349631458
 30
0.0
 11
164.7863027681
 21
151.6171410829
 31
0.0
  0
LINE
  5
3D5
330
1F
100
AcDbEntity
  8
SLD-0
  6
Continuous
 62
   179
370
    25
100
AcDbLine
 10
165.5430624117
 20
151.4212757498
 30
0.0
 11
195.3509959806
 21
143.7064170986
 31
0.0
  0
LINE
  5
3D6
330
1F
100
AcDbEntity
  8
SLD-0
  6
Continuous
 62
   179
370
    25
100
AcDbLine
 10
196.1077556242
 20
143.5105517656
 30
0.0
 11
203.3383497823
 21
141.6391360909
 31
0.0
  0
LINE
  5
3D7
330
1F
100
AcDbEntity
  8
SLD-0
  6
Continuous
 62
   179
370
    25
100
AcDbLine
 10
203.3383497823
 20
141.6391360909
 30
0.0
 11
203.3843145002
 21
141.5882471353
 31
0.0
  0
LINE
  5
3D8
330
1F
100
AcDbEntity
  8
SLD-0
  6
Continuous
 62
   179
370
    25
100
AcDbLine
 10
202.9873845209
 20
140.7849493772
 30
0.0
 11
203.0039510359
 21
140.8571159989
 31
0.0
  0
LINE
  5
3D9
330
1F
100
AcDbEntity
  8
SLD-0
  6
Continuous
 62
   179
370
    25
100
AcDbLine
 10
203.0051288236
 20
140.8673480302
 30
0.0
 11
203.0051288236
 21
140.9172219187
 31
0.0
  0
LINE
  5
3DA
330
1F
100
AcDbEntity
  8
SLD-0
  6
Continuous
 62
   179
370
    25
100
AcDbLine
 10
202.8786406149
 20
140.7710716277
 30
0.0
 11
202.9476651777
 21
140.7532072216
 31
0.0
  0
LINE
  5
3DB
330
1F
100
AcDbEntity
  8
SLD-0
  6
Continuous
 62
   179
370
    25
100
AcDbLine
 10
202.9476651777
 20
140.7532072216
 30
0.0
 11
202.9655799497
 21
140.7578408867
 31
0.0
  0
LINE
  5
3DC
330
1F
100
AcDbEntity
  8
SLD-0
  6
Continuous
 62
   179
370
    25
100
AcDbLine
 10
65.2686825622
 20
177.3741956204
 30
0.0
 11
65.2115908493
 21
177.3594190329
 31
0.0
  0
LINE
  5
3DD
330
1F
100
AcDbEntity
  8
SLD-0
  6
Continuous
 62
   179
370
    25
100
AcDbLine
 10
65.3146472801
 20
177.3233066648
 30
0.0
 11
65.2686825622
 21
177.3741956204
 31
0.0
  0
LINE
  5
3DE
330
1F
100
AcDbEntity
  8
SLD-0
  6
Continuous
 62
   179
370
    25
100
AcDbLine
 10
65.3146472801
 20
177.0219382793
 30
0.0
 11
65.3146472801
 21
177.3233066648
 31
0.0
  0
LINE
  5
3DF
330
1F
100
AcDbEntity
  8
SLD-0
  6
Continuous
 62
   179
370
    25
100
AcDbLine
 10
65.2594927181
 20
176.9951048642
 30
0.0
 11
65.3054496874
 21
177.0070009083
 31
0.0
  0
LINE
  5
3E0
330
1F
100
AcDbEntity
  8
SLD-0
  6
Continuous
 62
   179
370
    25
100
AcDbLine
 10
65.2457002033
 20
176.5834331661
 30
0.0
 11
65.2457002033
 21
176.9727017134
 31
0.0
  0
LINE
  5
3E1
330
1F
100
AcDbEntity
  8
SLD-0
  6
Continuous
 62
   179
370
    25
100
AcDbLine
 10
65.2277931799
 20
176.5787975639
 30
0.0
 11
65.2457002033
 21
176.5834331661
 31
0.0
  0
LINE
  5
3E2
330
1F
100
AcDbEntity
  8
SLD-0
  6
Continuous
 62
   179
370
    25
100
AcDbLine
 10
65.1894298424
 20
176.6582130045
 30
0.0
 11
65.2059963573
 21
176.5946221501
 31
0.0
  0
LINE
  5
3E3
330
1F
100
AcDbEntity
  8
SLD-0
  6
Continuous
 62
   179
370
    25
100
AcDbLine
 10
65.1882520546
 20
176.7181155235
 30
0.0
 11
65.1882520546
 21
176.6678348333
 31
0.0
  0
LINE
  5
3E4
330
1F
100
AcDbEntity
  8
SLD-0
  6
Continuous
 62
   179
370
    25
100
AcDbLine
 10
65.1945981611
 20
176.7445247024
 30
0.0
 11
65.1906773676
 21
176.7327836305
 31
0.0
  0
LINE
  5
3E5
330
1F
100
AcDbEntity
  8
SLD-0
  6
Continuous
 62
   179
370
    25
100
AcDbLine
 10
65.1906773676
 20
176.782310769
 30
0.0
 11
65.1945981611
 21
176.7726017684
 31
0.0
  0
LINE
  5
3E6
330
1F
100
AcDbEntity
  8
SLD-0
  6
Continuous
 62
   179
370
    25
100
AcDbLine
 10
65.1882520546
 20
176.8436855227
 30
0.0
 11
65.1882520546
 21
176.795721665
 31
0.0
  0
LINE
  5
3E7
330
1F
100
AcDbEntity
  8
SLD-0
  6
Continuous
 62
   179
370
    25
100
AcDbLine
 10
65.1945981611
 20
176.8700947016
 30
0.0
 11
65.1906773676
 21
176.8583536297
 31
0.0
  0
LINE
  5
3E8
330
1F
100
AcDbEntity
  8
SLD-0
  6
Continuous
 62
   179
370
    25
100
AcDbLine
 10
65.1906773676
 20
176.9078807682
 30
0.0
 11
65.1945981611
 21
176.8981717676
 31
0.0
  0
LINE
  5
3E9
330
1F
100
AcDbEntity
  8
SLD-0
  6
Continuous
 62
   179
370
    25
100
AcDbLine
 10
65.1882520546
 20
176.9692555219
 30
0.0
 11
65.1882520546
 21
176.9212936014
 31
0.0
  0
LINE
  5
3EA
330
1F
100
AcDbEntity
  8
SLD-0
  6
Continuous
 62
   179
370
    25
100
AcDbLine
 10
65.197317921
 20
177.0037774891
 30
0.0
 11
65.1906773676
 21
176.9839236289
 31
0.0
  0
LINE
  5
3EB
330
1F
100
AcDbEntity
  8
SLD-0
  6
Continuous
 62
   179
370
    25
100
AcDbLine
 10
65.199743234
 20
177.0272247642
 30
0.0
 11
65.199743234
 21
177.0184436589
 31
0.0
  0
LINE
  5
3EC
330
1F
100
AcDbEntity
  8
SLD-0
  6
Continuous
 62
   179
370
    25
100
AcDbLine
 10
65.2457002033
 20
176.5834331661
 30
0.0
 11
111.2076440681
 21
164.6876080483
 31
0.0
  0
LINE
  5
3ED
330
1F
100
AcDbEntity
  8
SLD-0
  6
Continuous
 62
   179
370
    25
100
AcDbLine
 10
111.2076440681
 20
164.6876080483
 30
0.0
 11
111.2076440681
 21
165.0768765956
 31
0.0
  0
LINE
  5
3EE
330
1F
100
AcDbEntity
  8
SLD-0
  6
Continuous
 62
   179
370
    25
100
AcDbLine
 10
111.1897292961
 20
164.6829743832
 30
0.0
 11
111.2076440681
 21
164.6876080483
 31
0.0
  0
LINE
  5
3EF
330
1F
100
AcDbEntity
  8
SLD-0
  6
Continuous
 62
   179
370
    25
100
AcDbLine
 10
65.2277931799
 20
176.5787975639
 30
0.0
 11
111.1897292961
 21
164.6829743832
 31
0.0
  0
LINE
  5
3F0
330
1F
100
AcDbEntity
  8
SLD-0
  6
Continuous
 62
   179
370
    25
100
AcDbLine
 10
111.2765833963
 20
165.427481547
 30
0.0
 11
103.9981028665
 21
167.3112911135
 31
0.0
  0
LINE
  5
3F1
330
1F
100
AcDbEntity
  8
SLD-0
  6
Continuous
 62
   179
370
    25
100
AcDbLine
 10
103.2413354744
 20
167.5071583837
 30
0.0
 11
73.433409654
 21
175.2220150977
 31
0.0
  0
LINE
  5
3F2
330
1F
100
AcDbEntity
  8
SLD-0
  6
Continuous
 62
   179
370
    25
100
AcDbLine
 10
72.6766422619
 20
175.4178804308
 30
0.0
 11
65.3146472801
 21
177.3233066648
 31
0.0
  0
LINE
  5
3F3
330
1F
100
AcDbEntity
  8
SLD-0
  6
Continuous
 62
   179
370
    25
100
AcDbLine
 10
111.2765833963
 20
165.1261131614
 30
0.0
 11
111.2765833963
 21
165.427481547
 31
0.0
  0
LINE
  5
3F4
330
1F
100
AcDbEntity
  8
SLD-0
  6
Continuous
 62
   179
370
    25
100
AcDbLine
 10
111.2214288343
 20
165.0992816836
 30
0.0
 11
111.2673935522
 21
165.1111757904
 31
0.0
  0
LINE
  5
3F5
330
1F
100
AcDbEntity
  8
SLD-0
  6
Continuous
 62
   179
370
    25
100
AcDbLine
 10
65.2686825622
 20
177.3741956204
 30
0.0
 11
72.6785716642
 21
175.4563754946
 31
0.0
  0
LINE
  5
3F6
330
1F
100
AcDbEntity
  8
SLD-0
  6
Continuous
 62
   179
370
    25
100
AcDbLine
 10
73.4353390564
 20
175.2605101615
 30
0.0
 11
103.2432648767
 21
167.5456515104
 31
0.0
  0
LINE
  5
3F7
330
1F
100
AcDbEntity
  8
SLD-0
  6
Continuous
 62
   179
370
    25
100
AcDbLine
 10
104.0000322689
 20
167.3497861773
 30
0.0
 11
111.2306186785
 21
165.4783705026
 31
0.0
  0
LINE
  5
3F8
330
1F
100
AcDbEntity
  8
SLD-0
  6
Continuous
 62
   179
370
    25
100
AcDbLine
 10
111.2306186785
 20
165.4783705026
 30
0.0
 11
111.2765833963
 21
165.427481547
 31
0.0
  0
LINE
  5
3F9
330
1F
100
AcDbEntity
  8
SLD-0
  6
Continuous
 62
   179
370
    25
100
AcDbLine
 10
111.3225481142
 20
165.4545784146
 30
0.0
 11
111.2654564012
 21
165.4398018271
 31
0.0
  0
LINE
  5
3FA
330
1F
100
AcDbEntity
  8
SLD-0
  6
Continuous
 62
   179
370
    25
100
AcDbLine
 10
111.368512832
 20
165.403689459
 30
0.0
 11
111.3225481142
 21
165.4545784146
 31
0.0
  0
LINE
  5
3FB
330
1F
100
AcDbEntity
  8
SLD-0
  6
Continuous
 62
   179
370
    25
100
AcDbLine
 10
111.368512832
 20
165.1023191363
 30
0.0
 11
111.368512832
 21
165.403689459
 31
0.0
  0
LINE
  5
3FC
330
1F
100
AcDbEntity
  8
SLD-0
  6
Continuous
 62
   179
370
    25
100
AcDbLine
 10
111.3133582701
 20
165.0754876584
 30
0.0
 11
111.3593229879
 21
165.0873837024
 31
0.0
  0
LINE
  5
3FD
330
1F
100
AcDbEntity
  8
SLD-0
  6
Continuous
 62
   179
370
    25
100
AcDbLine
 10
111.2995657552
 20
164.6638159603
 30
0.0
 11
111.2995657552
 21
165.0530845076
 31
0.0
  0
LINE
  5
3FE
330
1F
100
AcDbEntity
  8
SLD-0
  6
Continuous
 62
   179
370
    25
100
AcDbLine
 10
111.2816587318
 20
164.659180358
 30
0.0
 11
111.2995657552
 21
164.6638159603
 31
0.0
  0
LINE
  5
3FF
330
1F
100
AcDbEntity
  8
SLD-0
  6
Continuous
 62
   179
370
    25
100
AcDbLine
 10
111.2432953943
 20
164.7385957986
 30
0.0
 11
111.2598619093
 21
164.6750030071
 31
0.0
  0
LINE
  5
400
330
1F
100
AcDbEntity
  8
SLD-0
  6
Continuous
 62
   179
370
    25
100
AcDbLine
 10
111.2421176065
 20
164.7984983176
 30
0.0
 11
111.2421176065
 21
164.7482176274
 31
0.0
  0
LINE
  5
401
330
1F
100
AcDbEntity
  8
SLD-0
  6
Continuous
 62
   179
370
    25
100
AcDbLine
 10
111.2484714617
 20
164.8249055594
 30
0.0
 11
111.2445429195
 21
164.8131644875
 31
0.0
  0
LINE
  5
402
330
1F
100
AcDbEntity
  8
SLD-0
  6
Continuous
 62
   179
370
    25
100
AcDbLine
 10
111.2445429195
 20
164.8626935631
 30
0.0
 11
111.2484714617
 21
164.8529845625
 31
0.0
  0
LINE
  5
403
330
1F
100
AcDbEntity
  8
SLD-0
  6
Continuous
 62
   179
370
    25
100
AcDbLine
 10
111.2421176065
 20
164.9240683168
 30
0.0
 11
111.2421176065
 21
164.8761044592
 31
0.0
  0
LINE
  5
404
330
1F
100
AcDbEntity
  8
SLD-0
  6
Continuous
 62
   179
370
    25
100
AcDbLine
 10
111.2484714617
 20
164.9504755586
 30
0.0
 11
111.2445429195
 21
164.9387344867
 31
0.0
  0
LINE
  5
405
330
1F
100
AcDbEntity
  8
SLD-0
  6
Continuous
 62
   179
370
    25
100
AcDbLine
 10
111.2445429195
 20
164.9882635623
 30
0.0
 11
111.2484714617
 21
164.9785545617
 31
0.0
  0
LINE
  5
406
330
1F
100
AcDbEntity
  8
SLD-0
  6
Continuous
 62
   179
370
    25
100
AcDbLine
 10
111.2421176065
 20
165.049638316
 30
0.0
 11
111.2421176065
 21
165.0016744584
 31
0.0
  0
LINE
  5
407
330
1F
100
AcDbEntity
  8
SLD-0
  6
Continuous
 62
   179
370
    25
100
AcDbLine
 10
111.251183473
 20
165.0841602832
 30
0.0
 11
111.2445429195
 21
165.0643064231
 31
0.0
  0
LINE
  5
408
330
1F
100
AcDbEntity
  8
SLD-0
  6
Continuous
 62
   179
370
    25
100
AcDbLine
 10
111.253608786
 20
165.1076075584
 30
0.0
 11
111.253608786
 21
165.0988264531
 31
0.0
  0
LINE
  5
409
330
1F
100
AcDbEntity
  8
SLD-0
  6
Continuous
 62
   179
370
    25
100
AcDbLine
 10
111.2995657552
 20
164.6638159603
 30
0.0
 11
157.2615096201
 21
152.7679908425
 31
0.0
  0
LINE
  5
40A
330
1F
100
AcDbEntity
  8
SLD-0
  6
Continuous
 62
   179
370
    25
100
AcDbLine
 10
157.2615096201
 20
152.7679908425
 30
0.0
 11
157.2615096201
 21
153.1572574526
 31
0.0
  0
LINE
  5
40B
330
1F
100
AcDbEntity
  8
SLD-0
  6
Continuous
 62
   179
370
    25
100
AcDbLine
 10
157.243594848
 20
152.7633533031
 30
0.0
 11
157.2615096201
 21
152.7679908425
 31
0.0
  0
LINE
  5
40C
330
1F
100
AcDbEntity
  8
SLD-0
  6
Continuous
 62
   179
370
    25
100
AcDbLine
 10
111.2816587318
 20
164.659180358
 30
0.0
 11
157.243594848
 21
152.7633533031
 31
0.0
  0
LINE
  5
40D
330
1F
100
AcDbEntity
  8
SLD-0
  6
Continuous
 62
   179
370
    25
100
AcDbLine
 10
157.3304566969
 20
153.507862404
 30
0.0
 11
150.0519606699
 21
155.3916758448
 31
0.0
  0
LINE
  5
40E
330
1F
100
AcDbEntity
  8
SLD-0
  6
Continuous
 62
   179
370
    25
100
AcDbLine
 10
149.2952010263
 20
155.5875373036
 30
0.0
 11
119.487275206
 21
163.3023978919
 31
0.0
  0
LINE
  5
40F
330
1F
100
AcDbEntity
  8
SLD-0
  6
Continuous
 62
   179
370
    25
100
AcDbLine
 10
118.7305155624
 20
163.498263225
 30
0.0
 11
111.368512832
 21
165.403689459
 31
0.0
  0
LINE
  5
410
330
1F
100
AcDbEntity
  8
SLD-0
  6
Continuous
 62
   179
370
    25
100
AcDbLine
 10
157.3304566969
 20
153.2064959556
 30
0.0
 11
157.3304566969
 21
153.507862404
 31
0.0
  0
LINE
  5
411
330
1F
100
AcDbEntity
  8
SLD-0
  6
Continuous
 62
   179
370
    25
100
AcDbLine
 10
157.2753021349
 20
153.1796625406
 30
0.0
 11
157.3212668527
 21
153.1915566474
 31
0.0
  0
LINE
  5
412
330
1F
100
AcDbEntity
  8
SLD-0
  6
Continuous
 62
   179
370
    25
100
AcDbLine
 10
111.3225481142
 20
165.4545784146
 30
0.0
 11
118.7324372162
 21
163.5367582887
 31
0.0
  0
LINE
  5
413
330
1F
100
AcDbEntity
  8
SLD-0
  6
Continuous
 62
   179
370
    25
100
AcDbLine
 10
119.4892123569
 20
163.3408910185
 30
0.0
 11
149.2971226801
 21
155.6260323673
 31
0.0
  0
LINE
  5
414
330
1F
100
AcDbEntity
  8
SLD-0
  6
Continuous
 62
   179
370
    25
100
AcDbLine
 10
150.0538978208
 20
155.4301670343
 30
0.0
 11
157.284491979
 21
153.5587513596
 31
0.0
  0
LINE
  5
415
330
1F
100
AcDbEntity
  8
SLD-0
  6
Continuous
 62
   179
370
    25
100
AcDbLine
 10
157.284491979
 20
153.5587513596
 30
0.0
 11
157.3304566969
 21
153.507862404
 31
0.0
  0
LINE
  5
416
330
1F
100
AcDbEntity
  8
SLD-0
  6
Continuous
 62
     8
370
    25
100
AcDbLine
 10
157.3047468294
 20
152.7898419052
 30
0.0
 11
157.2615096201
 21
152.8010347635
 31
0.0
  0
LINE
  5
417
330
1F
100
AcDbEntity
  8
SLD-0
  6
Continuous
 62
     8
370
    25
100
AcDbLine
 10
111.2508812774
 20
164.7094629854
 30
0.0
 11
111.2076440681
 21
164.7206539065
 31
0.0
  0
LINE
  5
418
330
1F
100
AcDbEntity
  8
SLD-0
  6
Continuous
 62
     8
370
    25
100
AcDbLine
 10
65.1970157255
 20
176.6290801913
 30
0.0
 11
65.1537785162
 21
176.6402711123
 31
0.0
  0
LINE
  5
419
330
1F
100
AcDbEntity
  8
SLD-0
  6
Continuous
 62
     8
370
    25
100
AcDbLine
 10
19.1431521107
 20
188.5486969128
 30
0.0
 11
19.1343845655
 21
188.5509662852
 31
0.0
  0
LINE
  5
41A
330
1F
100
AcDbEntity
  8
SLD-0
  6
Continuous
 62
     8
370
    25
100
AcDbLine
 10
102.8058019508
 20
167.6811532825
 30
0.0
 11
103.1642988552
 21
167.5883656889
 31
0.0
  0
LINE
  5
41B
330
1F
100
AcDbEntity
  8
SLD-0
  6
Continuous
 62
     8
370
    25
100
AcDbLine
 10
103.1611994137
 20
167.7699832767
 30
0.0
 11
103.1551090111
 21
167.7715601176
 31
0.0
  0
LINE
  5
41C
330
1F
100
AcDbEntity
  8
SLD-0
  6
Continuous
 62
     8
370
    25
100
AcDbLine
 10
102.9459819425
 20
167.8363946229
 30
0.0
 11
102.9459819425
 21
167.7828633934
 31
0.0
  0
LINE
  5
41D
330
1F
100
AcDbEntity
  8
SLD-0
  6
Continuous
 62
     8
370
    25
100
AcDbLine
 10
103.2409790386
 20
167.5708829015
 30
0.0
 11
103.2348808874
 21
167.5724597424
 31
0.0
  0
LINE
  5
41E
330
1F
100
AcDbEntity
  8
SLD-0
  6
Continuous
 62
     8
370
    25
100
AcDbLine
 10
102.7161738504
 20
167.8304456323
 30
0.0
 11
102.7161738504
 21
167.7233831733
 31
0.0
  0
LINE
  5
41F
330
1F
100
AcDbEntity
  8
SLD-0
  6
Continuous
 62
     8
370
    25
100
AcDbLine
 10
103.1643066038
 20
167.5710494965
 30
0.0
 11
102.7966043581
 21
167.6662159115
 31
0.0
  0
LINE
  5
420
330
1F
100
AcDbEntity
  8
SLD-0
  6
Continuous
 62
     8
370
    25
100
AcDbLine
 10
118.2949665416
 20
163.6722600609
 30
0.0
 11
118.6534789432
 21
163.5794724673
 31
0.0
  0
LINE
  5
421
330
1F
100
AcDbEntity
  8
SLD-0
  6
Continuous
 62
     8
370
    25
100
AcDbLine
 10
118.6503717531
 20
163.7610919923
 30
0.0
 11
118.6442813505
 21
163.7626688331
 31
0.0
  0
LINE
  5
422
330
1F
100
AcDbEntity
  8
SLD-0
  6
Continuous
 62
     8
370
    25
100
AcDbLine
 10
118.435154282
 20
163.8274994642
 30
0.0
 11
118.435154282
 21
163.7739682347
 31
0.0
  0
LINE
  5
423
330
1F
100
AcDbEntity
  8
SLD-0
  6
Continuous
 62
     8
370
    25
100
AcDbLine
 10
118.7301436294
 20
163.5619916171
 30
0.0
 11
118.7240532268
 21
163.563568458
 31
0.0
  0
LINE
  5
424
330
1F
100
AcDbEntity
  8
SLD-0
  6
Continuous
 62
     8
370
    25
100
AcDbLine
 10
118.2053461899
 20
163.8215524107
 30
0.0
 11
118.2053461899
 21
163.7144899517
 31
0.0
  0
LINE
  5
425
330
1F
100
AcDbEntity
  8
SLD-0
  6
Continuous
 62
     8
370
    25
100
AcDbLine
 10
118.6534789432
 20
163.5621562749
 30
0.0
 11
118.2857766975
 21
163.657324627
 31
0.0
  0
LINE
  5
426
330
1F
100
AcDbEntity
  8
SLD-0
  6
Continuous
 62
     8
370
    25
100
AcDbLine
 10
56.7519325246
 20
179.6007704884
 30
0.0
 11
57.1104371775
 21
179.5079828948
 31
0.0
  0
LINE
  5
427
330
1F
100
AcDbEntity
  8
SLD-0
  6
Continuous
 62
     8
370
    25
100
AcDbLine
 10
57.107337736
 20
179.6896014512
 30
0.0
 11
57.1012434591
 21
179.691178292
 31
0.0
  0
LINE
  5
428
330
1F
100
AcDbEntity
  8
SLD-0
  6
Continuous
 62
     8
370
    25
100
AcDbLine
 10
56.8921202649
 20
179.7560108602
 30
0.0
 11
56.8921202649
 21
179.7024796307
 31
0.0
  0
LINE
  5
429
330
1F
100
AcDbEntity
  8
SLD-0
  6
Continuous
 62
     8
370
    25
100
AcDbLine
 10
57.1871096123
 20
179.4905001074
 30
0.0
 11
57.1810192097
 21
179.4920779169
 31
0.0
  0
LINE
  5
42A
330
1F
100
AcDbEntity
  8
SLD-0
  6
Continuous
 62
     8
370
    25
100
AcDbLine
 10
56.6623082985
 20
179.7500628382
 30
0.0
 11
56.6623082985
 21
179.6430003792
 31
0.0
  0
LINE
  5
42B
330
1F
100
AcDbEntity
  8
SLD-0
  6
Continuous
 62
     8
370
    25
100
AcDbLine
 10
57.1104371775
 20
179.490667671
 30
0.0
 11
56.7427426804
 21
179.5858340859
 31
0.0
  0
LINE
  5
42C
330
1F
100
AcDbEntity
  8
SLD-0
  6
Continuous
 62
     8
370
    25
100
AcDbLine
 10
194.9135253061
 20
143.8419169337
 30
0.0
 11
195.2720377077
 21
143.7491312772
 31
0.0
  0
LINE
  5
42D
330
1F
100
AcDbEntity
  8
SLD-0
  6
Continuous
 62
     8
370
    25
100
AcDbLine
 10
195.268922769
 20
143.9307508022
 30
0.0
 11
195.2628323663
 21
143.932327643
 31
0.0
  0
LINE
  5
42E
330
1F
100
AcDbEntity
  8
SLD-0
  6
Continuous
 62
     8
370
    25
100
AcDbLine
 10
195.0537130464
 20
143.9971602112
 30
0.0
 11
195.0537130464
 21
143.9436289817
 31
0.0
  0
LINE
  5
42F
330
1F
100
AcDbEntity
  8
SLD-0
  6
Continuous
 62
     8
370
    25
100
AcDbLine
 10
195.3487023939
 20
143.731650427
 30
0.0
 11
195.3426119913
 21
143.7332272679
 31
0.0
  0
LINE
  5
430
330
1F
100
AcDbEntity
  8
SLD-0
  6
Continuous
 62
     8
370
    25
100
AcDbLine
 10
194.8239049543
 20
143.9912092835
 30
0.0
 11
194.8239049543
 21
143.8841468245
 31
0.0
  0
LINE
  5
431
330
1F
100
AcDbEntity
  8
SLD-0
  6
Continuous
 62
     8
370
    25
100
AcDbLine
 10
195.2720377077
 20
143.7318131477
 30
0.0
 11
194.904335462
 21
143.8269814998
 31
0.0
  0
LINE
  5
432
330
1F
100
AcDbEntity
  8
SLD-0
  6
Continuous
 62
     8
370
    25
100
AcDbLine
 10
72.2411087383
 20
175.5918772668
 30
0.0
 11
72.5996133913
 21
175.4990896732
 31
0.0
  0
LINE
  5
433
330
1F
100
AcDbEntity
  8
SLD-0
  6
Continuous
 62
     8
370
    25
100
AcDbLine
 10
72.5965062011
 20
175.6807091981
 30
0.0
 11
72.5904235471
 21
175.6822841018
 31
0.0
  0
LINE
  5
434
330
1F
100
AcDbEntity
  8
SLD-0
  6
Continuous
 62
     8
370
    25
100
AcDbLine
 10
72.3812964786
 20
175.74711667
 30
0.0
 11
72.3812964786
 21
175.6935854405
 31
0.0
  0
LINE
  5
435
330
1F
100
AcDbEntity
  8
SLD-0
  6
Continuous
 62
     8
370
    25
100
AcDbLine
 10
72.6762858261
 20
175.4816068858
 30
0.0
 11
72.6701954235
 21
175.4831837267
 31
0.0
  0
LINE
  5
436
330
1F
100
AcDbEntity
  8
SLD-0
  6
Continuous
 62
     8
370
    25
100
AcDbLine
 10
72.1514806379
 20
175.7411696166
 30
0.0
 11
72.1514806379
 21
175.6341071576
 31
0.0
  0
LINE
  5
437
330
1F
100
AcDbEntity
  8
SLD-0
  6
Continuous
 62
     8
370
    25
100
AcDbLine
 10
72.5996133913
 20
175.4817734808
 30
0.0
 11
72.2319188942
 21
175.5769398957
 31
0.0
  0
LINE
  5
438
330
1F
100
AcDbEntity
  8
SLD-0
  6
Continuous
 62
     8
370
    25
100
AcDbLine
 10
26.1872451235
 20
187.5114939883
 30
0.0
 11
26.5457478393
 21
187.418706879
 31
0.0
  0
LINE
  5
439
330
1F
100
AcDbEntity
  8
SLD-0
  6
Continuous
 62
     8
370
    25
100
AcDbLine
 10
26.5426464607
 20
187.6003254354
 30
0.0
 11
26.5365541209
 21
187.6019022763
 31
0.0
  0
LINE
  5
43A
330
1F
100
AcDbEntity
  8
SLD-0
  6
Continuous
 62
     8
370
    25
100
AcDbLine
 10
26.3274289895
 20
187.6667343602
 30
0.0
 11
26.3274289895
 21
187.6132036149
 31
0.0
  0
LINE
  5
43B
330
1F
100
AcDbEntity
  8
SLD-0
  6
Continuous
 62
     8
370
    25
100
AcDbLine
 10
26.6224202741
 20
187.4012245759
 30
0.0
 11
26.6163279344
 21
187.4028009325
 31
0.0
  0
LINE
  5
43C
330
1F
100
AcDbEntity
  8
SLD-0
  6
Continuous
 62
     8
370
    25
100
AcDbLine
 10
26.0976189603
 20
187.6607868224
 30
0.0
 11
26.0976189603
 21
187.5537243634
 31
0.0
  0
LINE
  5
43D
330
1F
100
AcDbEntity
  8
SLD-0
  6
Continuous
 62
     8
370
    25
100
AcDbLine
 10
26.5457478393
 20
187.4013911709
 30
0.0
 11
26.1780514051
 21
187.4965580702
 31
0.0
  0
LINE
  5
43E
330
1F
100
AcDbEntity
  8
SLD-0
  6
Continuous
 62
     8
370
    25
100
AcDbLine
 10
148.8596675028
 20
155.7615360767
 30
0.0
 11
149.2181644071
 21
155.6687504202
 31
0.0
  0
LINE
  5
43F
330
1F
100
AcDbEntity
  8
SLD-0
  6
Continuous
 62
     8
370
    25
100
AcDbLine
 10
149.2150649656
 20
155.8503660709
 30
0.0
 11
149.208974563
 21
155.8519429117
 31
0.0
  0
LINE
  5
440
330
1F
100
AcDbEntity
  8
SLD-0
  6
Continuous
 62
     8
370
    25
100
AcDbLine
 10
148.9998397459
 20
155.9167754799
 30
0.0
 11
148.9998397459
 21
155.8632442504
 31
0.0
  0
LINE
  5
441
330
1F
100
AcDbEntity
  8
SLD-0
  6
Continuous
 62
     8
370
    25
100
AcDbLine
 10
149.2948445905
 20
155.6512656957
 30
0.0
 11
149.2887541879
 21
155.6528425366
 31
0.0
  0
LINE
  5
442
330
1F
100
AcDbEntity
  8
SLD-0
  6
Continuous
 62
     8
370
    25
100
AcDbLine
 10
148.7700316538
 20
155.9108284265
 30
0.0
 11
148.7700316538
 21
155.8037659675
 31
0.0
  0
LINE
  5
443
330
1F
100
AcDbEntity
  8
SLD-0
  6
Continuous
 62
     8
370
    25
100
AcDbLine
 10
149.2181644071
 20
155.6514322907
 30
0.0
 11
148.8504776586
 21
155.7465967685
 31
0.0
  0
LINE
  5
444
330
1F
100
AcDbEntity
  8
SLD-0
  6
Continuous
 62
     8
370
    25
100
AcDbLine
 10
164.3488320936
 20
151.7526409179
 30
0.0
 11
164.7073444952
 21
151.6598552614
 31
0.0
  0
LINE
  5
445
330
1F
100
AcDbEntity
  8
SLD-0
  6
Continuous
 62
     8
370
    25
100
AcDbLine
 10
164.7042450536
 20
151.8414747864
 30
0.0
 11
164.698154651
 21
151.8430516273
 31
0.0
  0
LINE
  5
446
330
1F
100
AcDbEntity
  8
SLD-0
  6
Continuous
 62
     8
370
    25
100
AcDbLine
 10
164.4890198339
 20
151.9078803211
 30
0.0
 11
164.4890198339
 21
151.8543490916
 31
0.0
  0
LINE
  5
447
330
1F
100
AcDbEntity
  8
SLD-0
  6
Continuous
 62
     8
370
    25
100
AcDbLine
 10
164.7840091814
 20
151.6423744112
 30
0.0
 11
164.7779187788
 21
151.6439512521
 31
0.0
  0
LINE
  5
448
330
1F
100
AcDbEntity
  8
SLD-0
  6
Continuous
 62
     8
370
    25
100
AcDbLine
 10
164.2592117418
 20
151.9019332677
 30
0.0
 11
164.2592117418
 21
151.7948708087
 31
0.0
  0
LINE
  5
449
330
1F
100
AcDbEntity
  8
SLD-0
  6
Continuous
 62
     8
370
    25
100
AcDbLine
 10
164.707328998
 20
151.6425410062
 30
0.0
 11
164.3396422495
 21
151.737705484
 31
0.0
  0
LINE
  5
44A
330
1F
100
AcDbEntity
  8
SLD-0
  6
Continuous
 62
     7
370
    25
100
AcDbLine
 10
65.1537785162
 20
176.9964938015
 30
0.0
 11
57.9259971012
 21
178.8671811074
 31
0.0
  0
LINE
  5
44B
330
1F
100
AcDbEntity
  8
SLD-0
  6
Continuous
 62
     7
370
    25
100
AcDbLine
 10
57.1573859681
 20
179.0661119819
 30
0.0
 11
27.361307763
 21
186.7779046074
 31
0.0
  0
LINE
  5
44C
330
1F
100
AcDbEntity
  8
SLD-0
  6
Continuous
 62
     7
370
    25
100
AcDbLine
 10
26.5926927556
 20
186.9768364504
 30
0.0
 11
19.1918365885
 21
188.8923189193
 31
0.0
  0
LINE
  5
44D
330
1F
100
AcDbEntity
  8
SLD-0
  6
Continuous
 62
     7
370
    25
100
AcDbLine
 10
19.260779791
 20
188.9415550008
 30
0.0
 11
26.6146910418
 21
187.0382233113
 31
0.0
  0
LINE
  5
44E
330
1F
100
AcDbEntity
  8
SLD-0
  6
Continuous
 62
     7
370
    25
100
AcDbLine
 10
27.3646280397
 20
186.8441251442
 30
0.0
 11
57.17938038
 21
179.1274993271
 31
0.0
  0
LINE
  5
44F
330
1F
100
AcDbEntity
  8
SLD-0
  6
Continuous
 62
     7
370
    25
100
AcDbLine
 10
57.9293173779
 20
178.9334006757
 30
0.0
 11
65.2227178444
 21
177.0457303673
 31
0.0
  0
LINE
  5
450
330
1F
100
AcDbEntity
  8
SLD-0
  6
Continuous
 62
     7
370
    25
100
AcDbLine
 10
65.2135280002
 20
177.0307929963
 30
0.0
 11
57.9284611572
 21
178.9163082242
 31
0.0
  0
LINE
  5
451
330
1F
100
AcDbEntity
  8
SLD-0
  6
Continuous
 62
     7
370
    25
100
AcDbLine
 10
57.171693765
 20
179.1121735573
 30
0.0
 11
27.3637698818
 21
186.8270317242
 31
0.0
  0
LINE
  5
452
330
1F
100
AcDbEntity
  8
SLD-0
  6
Continuous
 62
     7
370
    25
100
AcDbLine
 10
26.6070044268
 20
187.0228975415
 30
0.0
 11
19.2515880097
 21
188.9266190827
 31
0.0
  0
LINE
  5
453
330
1F
100
AcDbEntity
  8
SLD-0
  6
Continuous
 62
     7
370
    25
100
AcDbLine
 10
19.205625229
 20
188.914723523
 30
0.0
 11
26.6057278444
 21
186.999436222
 31
0.0
  0
LINE
  5
454
330
1F
100
AcDbEntity
  8
SLD-0
  6
Continuous
 62
     7
370
    25
100
AcDbLine
 10
27.3625940312
 20
186.8035447374
 30
0.0
 11
57.1704152454
 21
179.0887127221
 31
0.0
  0
LINE
  5
455
330
1F
100
AcDbEntity
  8
SLD-0
  6
Continuous
 62
     7
370
    25
100
AcDbLine
 10
57.9272833694
 20
178.8928202689
 30
0.0
 11
65.1675632824
 21
177.0188969523
 31
0.0
  0
LINE
  5
456
330
1F
100
AcDbEntity
  8
SLD-0
  6
Continuous
 62
     8
370
    25
100
AcDbLine
 10
18.8638517488
 20
188.4396270812
 30
0.0
 11
18.887876295
 21
188.4334088266
 31
0.0
  0
LINE
  5
457
330
1F
100
AcDbEntity
  8
SLD-0
  6
Continuous
 62
     8
370
    25
100
AcDbLine
 10
18.8815941144
 20
188.5114886016
 30
0.0
 11
18.8804143895
 21
188.5117937028
 31
0.0
  0
LINE
  5
458
330
1F
100
AcDbEntity
  8
SLD-0
  6
Continuous
 62
     8
370
    25
100
AcDbLine
 10
18.9018431534
 20
188.397043176
 30
0.0
 11
18.8420491148
 21
188.412519075
 31
0.0
  0
LINE
  5
459
330
1F
100
AcDbEntity
  8
SLD-0
  6
Continuous
 62
     8
370
    25
100
AcDbLine
 10
18.8791688014
 20
188.8368582874
 30
0.0
 11
18.8815941144
 21
188.8362301663
 31
0.0
  0
LINE
  5
45A
330
1F
100
AcDbEntity
  8
SLD-0
  6
Continuous
 62
     8
370
    25
100
AcDbLine
 10
18.8815941144
 20
188.850929752
 30
0.0
 11
18.8725301851
 21
188.8532756418
 31
0.0
  0
LINE
  5
45B
330
1F
100
AcDbEntity
  8
SLD-0
  6
Continuous
 62
     8
370
    25
100
AcDbLine
 10
18.870102935
 20
188.8666870221
 30
0.0
 11
18.8815941144
 21
188.8637130111
 31
0.0
  0
LINE
  5
45C
330
1F
100
AcDbEntity
  8
SLD-0
  6
Continuous
 62
     8
370
    25
100
AcDbLine
 10
18.819490992
 20
188.8100539297
 30
0.0
 11
18.8103534509
 21
188.812419191
 31
0.0
  0
LINE
  5
45D
330
1F
100
AcDbEntity
  8
SLD-0
  6
Continuous
 62
     7
370
    25
100
AcDbLine
 10
203.3153674234
 20
141.2376421839
 30
0.0
 11
196.087593757
 21
143.1083294898
 31
0.0
  0
LINE
  5
45E
330
1F
100
AcDbEntity
  8
SLD-0
  6
Continuous
 62
     7
370
    25
100
AcDbLine
 10
195.3189787496
 20
143.3072593957
 30
0.0
 11
165.5229005445
 21
151.0190534741
 31
0.0
  0
LINE
  5
45F
330
1F
100
AcDbEntity
  8
SLD-0
  6
Continuous
 62
     7
370
    25
100
AcDbLine
 10
164.7542855371
 20
151.21798338
 30
0.0
 11
157.3534235586
 21
153.1334692389
 31
0.0
  0
LINE
  5
460
330
1F
100
AcDbEntity
  8
SLD-0
  6
Continuous
 62
     7
370
    25
100
AcDbLine
 10
157.4223706354
 20
153.1827038676
 30
0.0
 11
164.776291572
 21
151.2793716937
 31
0.0
  0
LINE
  5
461
330
1F
100
AcDbEntity
  8
SLD-0
  6
Continuous
 62
     7
370
    25
100
AcDbLine
 10
165.526216947
 20
151.0852730423
 30
0.0
 11
195.3409692873
 21
143.3686477095
 31
0.0
  0
LINE
  5
462
330
1F
100
AcDbEntity
  8
SLD-0
  6
Continuous
 62
     7
370
    25
100
AcDbLine
 10
196.0909101595
 20
143.1745490581
 30
0.0
 11
203.3843145002
 21
141.2868806869
 31
0.0
  0
LINE
  5
463
330
1F
100
AcDbEntity
  8
SLD-0
  6
Continuous
 62
     7
370
    25
100
AcDbLine
 10
203.3751246561
 20
141.2719413787
 30
0.0
 11
196.090057813
 21
143.157455638
 31
0.0
  0
LINE
  5
464
330
1F
100
AcDbEntity
  8
SLD-0
  6
Continuous
 62
     7
370
    25
100
AcDbLine
 10
195.3332981695
 20
143.3533209711
 30
0.0
 11
165.5253646005
 21
151.0681796223
 31
0.0
  0
LINE
  5
465
330
1F
100
AcDbEntity
  8
SLD-0
  6
Continuous
 62
     7
370
    25
100
AcDbLine
 10
164.7685894598
 20
151.2640449554
 30
0.0
 11
157.4131807913
 21
153.1677684337
 31
0.0
  0
LINE
  5
466
330
1F
100
AcDbEntity
  8
SLD-0
  6
Continuous
 62
     7
370
    25
100
AcDbLine
 10
157.3672160734
 20
153.1558743268
 30
0.0
 11
164.7673186888
 21
151.2405860573
 31
0.0
  0
LINE
  5
467
330
1F
100
AcDbEntity
  8
SLD-0
  6
Continuous
 62
     7
370
    25
100
AcDbLine
 10
165.5241868128
 20
151.0446936041
 30
0.0
 11
195.3320119013
 21
143.3298620731
 31
0.0
  0
LINE
  5
468
330
1F
100
AcDbEntity
  8
SLD-0
  6
Continuous
 62
     7
370
    25
100
AcDbLine
 10
196.0888800253
 20
143.1339696199
 30
0.0
 11
203.3291599382
 21
141.2600472718
 31
0.0
  0
LINE
  5
469
330
1F
100
AcDbEntity
  8
SLD-0
  6
Continuous
 62
     8
370
    25
100
AcDbLine
 10
202.9196307291
 20
140.8024883419
 30
0.0
 11
202.9873845209
 21
140.7849493772
 31
0.0
  0
LINE
  5
46A
330
1F
100
AcDbEntity
  8
SLD-0
  6
Continuous
 62
     8
370
    25
100
AcDbLine
 10
203.0039510359
 20
140.8571159989
 30
0.0
 11
202.9616281618
 21
140.8680686504
 31
0.0
  0
LINE
  5
46B
330
1F
100
AcDbEntity
  8
SLD-0
  6
Continuous
 62
     8
370
    25
100
AcDbLine
 10
202.9655799497
 20
140.7578408867
 30
0.0
 11
202.88976761
 21
140.7774642259
 31
0.0
  0
LINE
  5
46C
330
1F
100
AcDbEntity
  8
SLD-0
  6
Continuous
 62
     8
370
    25
100
AcDbLine
 10
202.9654714693
 20
140.8776149303
 30
0.0
 11
203.0051288236
 21
140.8673480302
 31
0.0
  0
LINE
  5
46D
330
1F
100
AcDbEntity
  8
SLD-0
  6
Continuous
 62
     7
370
    25
100
AcDbLine
 10
111.2076440681
 20
165.0768765956
 30
0.0
 11
103.9798626531
 21
166.9475639015
 31
0.0
  0
LINE
  5
46E
330
1F
100
AcDbEntity
  8
SLD-0
  6
Continuous
 62
     7
370
    25
100
AcDbLine
 10
103.2112476457
 20
167.1464957446
 30
0.0
 11
73.4151694406
 21
174.8582878858
 31
0.0
  0
LINE
  5
46F
330
1F
100
AcDbEntity
  8
SLD-0
  6
Continuous
 62
     7
370
    25
100
AcDbLine
 10
72.6465621818
 20
175.0572197288
 30
0.0
 11
65.2457002033
 21
176.9727017134
 31
0.0
  0
LINE
  5
470
330
1F
100
AcDbEntity
  8
SLD-0
  6
Continuous
 62
     7
370
    25
100
AcDbLine
 10
65.3146472801
 20
177.0219382793
 30
0.0
 11
72.6685604681
 21
175.1186061054
 31
0.0
  0
LINE
  5
471
330
1F
100
AcDbEntity
  8
SLD-0
  6
Continuous
 62
     7
370
    25
100
AcDbLine
 10
73.4184935917
 20
174.924507454
 30
0.0
 11
103.233245932
 21
167.2078821212
 31
0.0
  0
LINE
  5
472
330
1F
100
AcDbEntity
  8
SLD-0
  6
Continuous
 62
     7
370
    25
100
AcDbLine
 10
103.9831868042
 20
167.0137834698
 30
0.0
 11
111.2765833963
 21
165.1261131614
 31
0.0
  0
LINE
  5
473
330
1F
100
AcDbEntity
  8
SLD-0
  6
Continuous
 62
     7
370
    25
100
AcDbLine
 10
111.2673935522
 20
165.1111757904
 30
0.0
 11
103.9823267092
 21
166.9966900498
 31
0.0
  0
LINE
  5
474
330
1F
100
AcDbEntity
  8
SLD-0
  6
Continuous
 62
     7
370
    25
100
AcDbLine
 10
103.225559317
 20
167.1925553828
 30
0.0
 11
73.4176412452
 21
174.907414034
 31
0.0
  0
LINE
  5
475
330
1F
100
AcDbEntity
  8
SLD-0
  6
Continuous
 62
     7
370
    25
100
AcDbLine
 10
72.6608661045
 20
175.1032813042
 30
0.0
 11
65.3054496874
 21
177.0070009083
 31
0.0
  0
LINE
  5
476
330
1F
100
AcDbEntity
  8
SLD-0
  6
Continuous
 62
     7
370
    25
100
AcDbLine
 10
65.2594927181
 20
176.9951048642
 30
0.0
 11
72.6595953335
 21
175.0798185319
 31
0.0
  0
LINE
  5
477
330
1F
100
AcDbEntity
  8
SLD-0
  6
Continuous
 62
     7
370
    25
100
AcDbLine
 10
73.4164557089
 20
174.8839280158
 30
0.0
 11
103.2242807974
 21
167.1690945476
 31
0.0
  0
LINE
  5
478
330
1F
100
AcDbEntity
  8
SLD-0
  6
Continuous
 62
     7
370
    25
100
AcDbLine
 10
103.9811489214
 20
166.9732040316
 30
0.0
 11
111.2214288343
 21
165.0992816836
 31
0.0
  0
LINE
  5
479
330
1F
100
AcDbEntity
  8
SLD-0
  6
Continuous
 62
     7
370
    25
100
AcDbLine
 10
157.2615096201
 20
153.1572574526
 30
0.0
 11
150.0337204565
 21
155.0279486328
 31
0.0
  0
LINE
  5
47A
330
1F
100
AcDbEntity
  8
SLD-0
  6
Continuous
 62
     7
370
    25
100
AcDbLine
 10
149.2651209463
 20
155.2268785387
 30
0.0
 11
119.4690349926
 21
162.9386706799
 31
0.0
  0
LINE
  5
47B
330
1F
100
AcDbEntity
  8
SLD-0
  6
Continuous
 62
     7
370
    25
100
AcDbLine
 10
118.7004199852
 20
163.137602523
 30
0.0
 11
111.2995657552
 21
165.0530845076
 31
0.0
  0
LINE
  5
47C
330
1F
100
AcDbEntity
  8
SLD-0
  6
Continuous
 62
     7
370
    25
100
AcDbLine
 10
111.368512832
 20
165.1023191363
 30
0.0
 11
118.7224182714
 21
163.1989888996
 31
0.0
  0
LINE
  5
47D
330
1F
100
AcDbEntity
  8
SLD-0
  6
Continuous
 62
     7
370
    25
100
AcDbLine
 10
119.4723591436
 20
163.0048902482
 30
0.0
 11
149.2871114839
 21
155.2882629782
 31
0.0
  0
LINE
  5
47E
330
1F
100
AcDbEntity
  8
SLD-0
  6
Continuous
 62
     7
370
    25
100
AcDbLine
 10
150.0370523561
 20
155.0941643268
 30
0.0
 11
157.3304566969
 21
153.2064959556
 31
0.0
  0
LINE
  5
47F
330
1F
100
AcDbEntity
  8
SLD-0
  6
Continuous
 62
     7
370
    25
100
AcDbLine
 10
157.3212668527
 20
153.1915566474
 30
0.0
 11
150.0362000097
 21
155.0770709068
 31
0.0
  0
LINE
  5
480
330
1F
100
AcDbEntity
  8
SLD-0
  6
Continuous
 62
     7
370
    25
100
AcDbLine
 10
149.2794248689
 20
155.2729401141
 30
0.0
 11
119.4714990486
 21
162.9877987653
 31
0.0
  0
LINE
  5
481
330
1F
100
AcDbEntity
  8
SLD-0
  6
Continuous
 62
     7
370
    25
100
AcDbLine
 10
118.7147316564
 20
163.1836621612
 30
0.0
 11
111.3593229879
 21
165.0873837024
 31
0.0
  0
LINE
  5
482
330
1F
100
AcDbEntity
  8
SLD-0
  6
Continuous
 62
     7
370
    25
100
AcDbLine
 10
111.3133582701
 20
165.0754876584
 30
0.0
 11
118.7134608854
 21
163.160201326
 31
0.0
  0
LINE
  5
483
330
1F
100
AcDbEntity
  8
SLD-0
  6
Continuous
 62
     7
370
    25
100
AcDbLine
 10
119.4703212608
 20
162.96431081
 30
0.0
 11
149.2781540979
 21
155.2494773418
 31
0.0
  0
LINE
  5
484
330
1F
100
AcDbEntity
  8
SLD-0
  6
Continuous
 62
     7
370
    25
100
AcDbLine
 10
150.0350067247
 20
155.0535887629
 30
0.0
 11
157.2753021349
 21
153.1796625406
 31
0.0
  0
LINE
  5
485
330
1F
100
AcDbEntity
  8
SLD-0
  6
Continuous
 62
   179
370
    25
100
AcDbLine
 10
9.7462588316
 20
191.3027877834
 30
0.0
 11
8.3693629271
 21
191.6591034558
 31
0.0
  0
LINE
  5
486
330
1F
100
AcDbEntity
  8
SLD-0
  6
Continuous
 62
   179
370
    25
100
AcDbLine
 10
8.3185475832
 20
191.4708782461
 30
0.0
 11
9.6973961359
 21
191.1140046742
 31
0.0
  0
LINE
  5
487
330
1F
100
AcDbEntity
  8
SLD-0
  6
Continuous
 62
   179
370
    25
100
AcDbLine
 10
9.7462588316
 20
191.4974210885
 30
0.0
 11
8.3693629271
 21
191.8537406352
 31
0.0
  0
LINE
  5
488
330
1F
100
AcDbEntity
  8
SLD-0
  6
Continuous
 62
   179
370
    25
100
AcDbLine
 10
8.3152488385
 20
191.6669459496
 30
0.0
 11
8.3429711824
 21
191.6594443944
 31
0.0
  0
LINE
  5
489
330
1F
100
AcDbEntity
  8
SLD-0
  6
Continuous
 62
   179
370
    25
100
AcDbLine
 10
13.0715132517
 20
190.6903472693
 30
0.0
 11
9.7750836378
 21
191.5434206751
 31
0.0
  0
LINE
  5
48A
330
1F
100
AcDbEntity
  8
SLD-0
  6
Continuous
 62
   179
370
    25
100
AcDbLine
 10
9.6685558325
 20
191.0680089619
 30
0.0
 11
13.287361968
 21
190.131280848
 31
0.0
  0
LINE
  5
48B
330
1F
100
AcDbEntity
  8
SLD-0
  6
Continuous
 62
   179
370
    25
100
AcDbLine
 10
9.6973961359
 20
191.1140046742
 30
0.0
 11
9.7218197352
 21
191.1142177608
 31
0.0
  0
LINE
  5
48C
330
1F
100
AcDbEntity
  8
SLD-0
  6
Continuous
 62
   179
370
    25
100
AcDbLine
 10
9.7218197352
 20
191.1142177608
 30
0.0
 11
9.7482114798
 21
191.1282156136
 31
0.0
  0
LINE
  5
48D
330
1F
100
AcDbEntity
  8
SLD-0
  6
Continuous
 62
   179
370
    25
100
AcDbLine
 10
9.7482114798
 20
191.1282156136
 30
0.0
 11
9.7705739504
 21
191.1544213917
 31
0.0
  0
LINE
  5
48E
330
1F
100
AcDbEntity
  8
SLD-0
  6
Continuous
 62
   179
370
    25
100
AcDbLine
 10
9.7705739504
 20
191.1544213917
 30
0.0
 11
9.7855132586
 21
191.1888406899
 31
0.0
  0
LINE
  5
48F
330
1F
100
AcDbEntity
  8
SLD-0
  6
Continuous
 62
   179
370
    25
100
AcDbLine
 10
9.7855132586
 20
191.1888406899
 30
0.0
 11
9.7907668119
 21
191.2262393263
 31
0.0
  0
LINE
  5
490
330
1F
100
AcDbEntity
  8
SLD-0
  6
Continuous
 62
   179
370
    25
100
AcDbLine
 10
9.7907668119
 20
191.2262393263
 30
0.0
 11
9.7855132586
 21
191.260922077
 31
0.0
  0
LINE
  5
491
330
1F
100
AcDbEntity
  8
SLD-0
  6
Continuous
 62
   179
370
    25
100
AcDbLine
 10
9.7855132586
 20
191.260922077
 30
0.0
 11
9.7705739504
 21
191.2876082685
 31
0.0
  0
LINE
  5
492
330
1F
100
AcDbEntity
  8
SLD-0
  6
Continuous
 62
   179
370
    25
100
AcDbLine
 10
9.7705739504
 20
191.2876082685
 30
0.0
 11
9.7482114798
 21
191.3022337582
 31
0.0
  0
LINE
  5
493
330
1F
100
AcDbEntity
  8
SLD-0
  6
Continuous
 62
   179
370
    25
100
AcDbLine
 10
9.7482114798
 20
191.3022337582
 30
0.0
 11
9.7462588316
 21
191.3027877834
 31
0.0
  0
LINE
  5
494
330
1F
100
AcDbEntity
  8
SLD-0
  6
Continuous
 62
   179
370
    25
100
AcDbLine
 10
8.279277659
 20
191.5848214653
 30
0.0
 11
8.2740396029
 21
191.5474228289
 31
0.0
  0
LINE
  5
495
330
1F
100
AcDbEntity
  8
SLD-0
  6
Continuous
 62
   179
370
    25
100
AcDbLine
 10
8.2740396029
 20
191.5474228289
 30
0.0
 11
8.279277659
 21
191.5127400782
 31
0.0
  0
LINE
  5
496
330
1F
100
AcDbEntity
  8
SLD-0
  6
Continuous
 62
   179
370
    25
100
AcDbLine
 10
8.279277659
 20
191.5127400782
 30
0.0
 11
8.2942324644
 21
191.486057761
 31
0.0
  0
LINE
  5
497
330
1F
100
AcDbEntity
  8
SLD-0
  6
Continuous
 62
   179
370
    25
100
AcDbLine
 10
8.2942324644
 20
191.486057761
 30
0.0
 11
8.316594935
 21
191.471428397
 31
0.0
  0
LINE
  5
498
330
1F
100
AcDbEntity
  8
SLD-0
  6
Continuous
 62
   179
370
    25
100
AcDbLine
 10
8.316594935
 20
191.471428397
 30
0.0
 11
8.3429711824
 21
191.4710913327
 31
0.0
  0
LINE
  5
499
330
1F
100
AcDbEntity
  8
SLD-0
  6
Continuous
 62
   179
370
    25
100
AcDbLine
 10
8.3429711824
 20
191.4710913327
 30
0.0
 11
8.3693629271
 21
191.4850891855
 31
0.0
  0
LINE
  5
49A
330
1F
100
AcDbEntity
  8
SLD-0
  6
Continuous
 62
   179
370
    25
100
AcDbLine
 10
8.3693629271
 20
191.4850891855
 30
0.0
 11
8.3917253977
 21
191.5112910893
 31
0.0
  0
LINE
  5
49B
330
1F
100
AcDbEntity
  8
SLD-0
  6
Continuous
 62
   179
370
    25
100
AcDbLine
 10
8.3917253977
 20
191.5112910893
 30
0.0
 11
8.4066647059
 21
191.5457142618
 31
0.0
  0
LINE
  5
49C
330
1F
100
AcDbEntity
  8
SLD-0
  6
Continuous
 62
   179
370
    25
100
AcDbLine
 10
8.4066647059
 20
191.5457142618
 30
0.0
 11
8.4119182592
 21
191.5831128981
 31
0.0
  0
LINE
  5
49D
330
1F
100
AcDbEntity
  8
SLD-0
  6
Continuous
 62
   179
370
    25
100
AcDbLine
 10
8.4119182592
 20
191.5831128981
 30
0.0
 11
8.4066647059
 21
191.6177917745
 31
0.0
  0
LINE
  5
49E
330
1F
100
AcDbEntity
  8
SLD-0
  6
Continuous
 62
   179
370
    25
100
AcDbLine
 10
8.4066647059
 20
191.6177917745
 30
0.0
 11
8.3917253977
 21
191.6444779661
 31
0.0
  0
LINE
  5
49F
330
1F
100
AcDbEntity
  8
SLD-0
  6
Continuous
 62
   179
370
    25
100
AcDbLine
 10
8.3917253977
 20
191.6444779661
 30
0.0
 11
8.3693629271
 21
191.6591034558
 31
0.0
  0
LINE
  5
4A0
330
1F
100
AcDbEntity
  8
SLD-0
  6
Continuous
 62
   179
370
    25
100
AcDbLine
 10
8.3693629271
 20
191.6591034558
 30
0.0
 11
8.3429711824
 21
191.6594443944
 31
0.0
  0
LINE
  5
4A1
330
1F
100
AcDbEntity
  8
SLD-0
  6
Continuous
 62
   179
370
    25
100
AcDbLine
 10
8.3429711824
 20
191.6594443944
 30
0.0
 11
8.316594935
 21
191.6454465416
 31
0.0
  0
LINE
  5
4A2
330
1F
100
AcDbEntity
  8
SLD-0
  6
Continuous
 62
   179
370
    25
100
AcDbLine
 10
8.316594935
 20
191.6454465416
 30
0.0
 11
8.2942324644
 21
191.6192446377
 31
0.0
  0
LINE
  5
4A3
330
1F
100
AcDbEntity
  8
SLD-0
  6
Continuous
 62
   179
370
    25
100
AcDbLine
 10
8.2942324644
 20
191.6192446377
 30
0.0
 11
8.279277659
 21
191.5848214653
 31
0.0
  0
LINE
  5
4A4
330
1F
100
AcDbEntity
  8
SLD-0
  6
Continuous
 62
   179
370
    25
100
AcDbLine
 10
8.279277659
 20
191.7794547703
 30
0.0
 11
8.2740396029
 21
191.742056134
 31
0.0
  0
LINE
  5
4A5
330
1F
100
AcDbEntity
  8
SLD-0
  6
Continuous
 62
   179
370
    25
100
AcDbLine
 10
8.2740396029
 20
191.742056134
 30
0.0
 11
8.279277659
 21
191.7073772576
 31
0.0
  0
LINE
  5
4A6
330
1F
100
AcDbEntity
  8
SLD-0
  6
Continuous
 62
   179
370
    25
100
AcDbLine
 10
8.279277659
 20
191.7073772576
 30
0.0
 11
8.2942324644
 21
191.680691066
 31
0.0
  0
LINE
  5
4A7
330
1F
100
AcDbEntity
  8
SLD-0
  6
Continuous
 62
   179
370
    25
100
AcDbLine
 10
8.2942324644
 20
191.680691066
 30
0.0
 11
8.3152488385
 21
191.6669459496
 31
0.0
  0
LINE
  5
4A8
330
1F
100
AcDbEntity
  8
SLD-0
  6
Continuous
 62
   179
370
    25
100
AcDbLine
 10
8.3152488385
 20
191.6669459496
 30
0.0
 11
8.3429711824
 21
191.6657246378
 31
0.0
  0
LINE
  5
4A9
330
1F
100
AcDbEntity
  8
SLD-0
  6
Continuous
 62
   179
370
    25
100
AcDbLine
 10
8.3429711824
 20
191.6657246378
 30
0.0
 11
8.3693629271
 21
191.6797224906
 31
0.0
  0
LINE
  5
4AA
330
1F
100
AcDbEntity
  8
SLD-0
  6
Continuous
 62
   179
370
    25
100
AcDbLine
 10
8.3693629271
 20
191.6797224906
 30
0.0
 11
8.3917253977
 21
191.7059243944
 31
0.0
  0
LINE
  5
4AB
330
1F
100
AcDbEntity
  8
SLD-0
  6
Continuous
 62
   179
370
    25
100
AcDbLine
 10
8.3917253977
 20
191.7059243944
 30
0.0
 11
8.4066647059
 21
191.7403475669
 31
0.0
  0
LINE
  5
4AC
330
1F
100
AcDbEntity
  8
SLD-0
  6
Continuous
 62
   179
370
    25
100
AcDbLine
 10
8.4066647059
 20
191.7403475669
 30
0.0
 11
8.4119182592
 21
191.7777462032
 31
0.0
  0
LINE
  5
4AD
330
1F
100
AcDbEntity
  8
SLD-0
  6
Continuous
 62
   179
370
    25
100
AcDbLine
 10
8.4119182592
 20
191.7777462032
 30
0.0
 11
8.4066647059
 21
191.8124289539
 31
0.0
  0
LINE
  5
4AE
330
1F
100
AcDbEntity
  8
SLD-0
  6
Continuous
 62
   179
370
    25
100
AcDbLine
 10
8.4066647059
 20
191.8124289539
 30
0.0
 11
8.3917253977
 21
191.8391112712
 31
0.0
  0
LINE
  5
4AF
330
1F
100
AcDbEntity
  8
SLD-0
  6
Continuous
 62
   179
370
    25
100
AcDbLine
 10
8.3917253977
 20
191.8391112712
 30
0.0
 11
8.3693629271
 21
191.8537406352
 31
0.0
  0
LINE
  5
4B0
330
1F
100
AcDbEntity
  8
SLD-0
  6
Continuous
 62
   179
370
    25
100
AcDbLine
 10
8.3693629271
 20
191.8537406352
 30
0.0
 11
8.3429711824
 21
191.8540776994
 31
0.0
  0
LINE
  5
4B1
330
1F
100
AcDbEntity
  8
SLD-0
  6
Continuous
 62
   179
370
    25
100
AcDbLine
 10
8.3429711824
 20
191.8540776994
 30
0.0
 11
8.316594935
 21
191.8400837209
 31
0.0
  0
LINE
  5
4B2
330
1F
100
AcDbEntity
  8
SLD-0
  6
Continuous
 62
   179
370
    25
100
AcDbLine
 10
8.316594935
 20
191.8400837209
 30
0.0
 11
8.2942324644
 21
191.8138779428
 31
0.0
  0
LINE
  5
4B3
330
1F
100
AcDbEntity
  8
SLD-0
  6
Continuous
 62
   179
370
    25
100
AcDbLine
 10
8.2942324644
 20
191.8138779428
 30
0.0
 11
8.279277659
 21
191.7794547703
 31
0.0
  0
LINE
  5
4B4
330
1F
100
AcDbEntity
  8
SLD-0
  6
Continuous
 62
   179
370
    25
100
AcDbLine
 10
9.7223156458
 20
191.3089827922
 30
0.0
 11
9.7482114798
 21
191.3228489187
 31
0.0
  0
LINE
  5
4B5
330
1F
100
AcDbEntity
  8
SLD-0
  6
Continuous
 62
   179
370
    25
100
AcDbLine
 10
9.7482114798
 20
191.3228489187
 30
0.0
 11
9.7705739504
 21
191.3490546968
 31
0.0
  0
LINE
  5
4B6
330
1F
100
AcDbEntity
  8
SLD-0
  6
Continuous
 62
   179
370
    25
100
AcDbLine
 10
9.7705739504
 20
191.3490546968
 30
0.0
 11
9.7855132586
 21
191.383473995
 31
0.0
  0
LINE
  5
4B7
330
1F
100
AcDbEntity
  8
SLD-0
  6
Continuous
 62
   179
370
    25
100
AcDbLine
 10
9.7855132586
 20
191.383473995
 30
0.0
 11
9.7907668119
 21
191.4208726313
 31
0.0
  0
LINE
  5
4B8
330
1F
100
AcDbEntity
  8
SLD-0
  6
Continuous
 62
   179
370
    25
100
AcDbLine
 10
9.7907668119
 20
191.4208726313
 30
0.0
 11
9.7855132586
 21
191.455555382
 31
0.0
  0
LINE
  5
4B9
330
1F
100
AcDbEntity
  8
SLD-0
  6
Continuous
 62
   179
370
    25
100
AcDbLine
 10
9.7855132586
 20
191.455555382
 30
0.0
 11
9.7705739504
 21
191.4822415736
 31
0.0
  0
LINE
  5
4BA
330
1F
100
AcDbEntity
  8
SLD-0
  6
Continuous
 62
   179
370
    25
100
AcDbLine
 10
9.7705739504
 20
191.4822415736
 30
0.0
 11
9.7482114798
 21
191.4968670633
 31
0.0
  0
LINE
  5
4BB
330
1F
100
AcDbEntity
  8
SLD-0
  6
Continuous
 62
   179
370
    25
100
AcDbLine
 10
9.7482114798
 20
191.4968670633
 30
0.0
 11
9.7462588316
 21
191.4974210885
 31
0.0
  0
LINE
  5
4BC
330
1F
100
AcDbEntity
  8
SLD-0
  6
Continuous
 62
   179
370
    25
100
AcDbLine
 10
9.574255324
 20
191.145878556
 30
0.0
 11
9.5823758608
 21
191.1312336948
 31
0.0
  0
LINE
  5
4BD
330
1F
100
AcDbEntity
  8
SLD-0
  6
Continuous
 62
   179
370
    25
100
AcDbLine
 10
9.5823758608
 20
191.1312336948
 30
0.0
 11
9.6205144888
 21
191.0890154269
 31
0.0
  0
LINE
  5
4BE
330
1F
100
AcDbEntity
  8
SLD-0
  6
Continuous
 62
   179
370
    25
100
AcDbLine
 10
9.6205144888
 20
191.0890154269
 30
0.0
 11
9.6685558325
 21
191.0680089619
 31
0.0
  0
LINE
  5
4BF
330
1F
100
AcDbEntity
  8
SLD-0
  6
Continuous
 62
   179
370
    25
100
AcDbLine
 10
9.6685558325
 20
191.0680089619
 30
0.0
 11
9.7218197352
 21
191.07026768
 31
0.0
  0
LINE
  5
4C0
330
1F
100
AcDbEntity
  8
SLD-0
  6
Continuous
 62
   179
370
    25
100
AcDbLine
 10
9.7218197352
 20
191.07026768
 30
0.0
 11
9.7750836378
 21
191.0955784943
 31
0.0
  0
LINE
  5
4C1
330
1F
100
AcDbEntity
  8
SLD-0
  6
Continuous
 62
   179
370
    25
100
AcDbLine
 10
9.7750836378
 20
191.0955784943
 30
0.0
 11
9.8231249815
 21
191.1414541033
 31
0.0
  0
LINE
  5
4C2
330
1F
100
AcDbEntity
  8
SLD-0
  6
Continuous
 62
   179
370
    25
100
AcDbLine
 10
9.8231249815
 20
191.1414541033
 30
0.0
 11
9.8612636095
 21
191.2034119394
 31
0.0
  0
LINE
  5
4C3
330
1F
100
AcDbEntity
  8
SLD-0
  6
Continuous
 62
   179
370
    25
100
AcDbLine
 10
9.8612636095
 20
191.2034119394
 30
0.0
 11
9.8857491976
 21
191.2753809717
 31
0.0
  0
LINE
  5
4C4
330
1F
100
AcDbEntity
  8
SLD-0
  6
Continuous
 62
   179
370
    25
100
AcDbLine
 10
9.8857491976
 20
191.2753809717
 30
0.0
 11
9.8941796785
 21
191.3503215935
 31
0.0
  0
LINE
  5
4C5
330
1F
100
AcDbEntity
  8
SLD-0
  6
Continuous
 62
   179
370
    25
100
AcDbLine
 10
9.8941796785
 20
191.3503215935
 30
0.0
 11
9.8857491976
 21
191.4208958771
 31
0.0
  0
LINE
  5
4C6
330
1F
100
AcDbEntity
  8
SLD-0
  6
Continuous
 62
   179
370
    25
100
AcDbLine
 10
9.8857491976
 20
191.4208958771
 30
0.0
 11
9.8612636095
 21
191.4801920679
 31
0.0
  0
LINE
  5
4C7
330
1F
100
AcDbEntity
  8
SLD-0
  6
Continuous
 62
   179
370
    25
100
AcDbLine
 10
9.8612636095
 20
191.4801920679
 30
0.0
 11
9.8231249815
 21
191.5224142101
 31
0.0
  0
LINE
  5
4C8
330
1F
100
AcDbEntity
  8
SLD-0
  6
Continuous
 62
   179
370
    25
100
AcDbLine
 10
9.8231249815
 20
191.5224142101
 30
0.0
 11
9.7750836378
 21
191.5434206751
 31
0.0
  0
LINE
  5
4C9
330
1F
100
AcDbEntity
  8
SLD-0
  6
Continuous
 62
   179
370
    25
100
AcDbLine
 10
9.7750836378
 20
191.5434206751
 30
0.0
 11
9.7218197352
 21
191.5411580827
 31
0.0
  0
LINE
  5
4CA
330
1F
100
AcDbEntity
  8
SLD-0
  6
Continuous
 62
   179
370
    25
100
AcDbLine
 10
9.7218197352
 20
191.5411580827
 30
0.0
 11
9.6703225142
 21
191.5170715478
 31
0.0
  0
ARC
  5
4CB
330
1F
100
AcDbEntity
  8
SLD-0
  6
Continuous
 62
   179
370
    25
100
AcDbCircle
 10
19.0080854741
 20
188.6697070102
 30
0.0
 40
0.0697488273130903
100
AcDbArc
 50
350.7767616095
 51
69.5817824156
  0
ARC
  5
4CC
330
1F
100
AcDbEntity
  8
SLD-0
  6
Continuous
 62
   179
370
    25
100
AcDbCircle
 10
19.0080790254
 20
189.0526930169
 30
0.0
 40
0.0697545917109352
100
AcDbArc
 50
350.7806510765
 51
69.5778929482
  0
ARC
  5
4CD
330
1F
100
AcDbEntity
  8
SLD-0
  6
Continuous
 62
   179
370
    25
100
AcDbCircle
 10
102.6142237558
 20
168.1831717787
 30
0.0
 40
0.470955819004595
100
AcDbArc
 50
268.1135579807
 51
282.5020684454
  0
ARC
  5
4CE
330
1F
100
AcDbEntity
  8
SLD-0
  6
Continuous
 62
   179
370
    25
100
AcDbCircle
 10
103.1972008529
 20
167.1726872995
 30
0.0
 40
0.0273267993101854
100
AcDbArc
 50
322.417809928
 51
357.3197558685
  0
ARC
  5
4CF
330
1F
100
AcDbEntity
  8
SLD-0
  6
Continuous
 62
   179
370
    25
100
AcDbCircle
 10
103.99731928
 20
167.4980237835
 30
0.0
 40
0.0102101376933771
100
AcDbArc
 50
350.1184081866
 51
66.0390403838
  0
ARC
  5
4D0
330
1F
100
AcDbEntity
  8
SLD-0
  6
Continuous
 62
   179
370
    25
100
AcDbCircle
 10
102.8118318302
 20
167.6671400564
 30
0.0
 40
0.0152554892349782
100
AcDbArc
 50
113.2821690588
 51
183.4729820811
  0
ARC
  5
4D1
330
1F
100
AcDbEntity
  8
SLD-0
  6
Continuous
 62
   179
370
    25
100
AcDbCircle
 10
118.1033619868
 20
164.1745730588
 30
0.0
 40
0.4712507221060003
100
AcDbArc
 50
268.1198307472
 51
282.4983659534
  0
ARC
  5
4D2
330
1F
100
AcDbEntity
  8
SLD-0
  6
Continuous
 62
   179
370
    25
100
AcDbCircle
 10
118.686401964
 20
163.1637942583
 30
0.0
 40
0.0272979769358837
100
AcDbArc
 50
322.3707596137
 51
357.3206152392
  0
ARC
  5
4D3
330
1F
100
AcDbEntity
  8
SLD-0
  6
Continuous
 62
   179
370
    25
100
AcDbCircle
 10
119.4865007947
 20
163.4891354567
 30
0.0
 40
0.0102019405315795
100
AcDbArc
 50
350.0824829762
 51
66.0749655977
  0
ARC
  5
4D4
330
1F
100
AcDbEntity
  8
SLD-0
  6
Continuous
 62
   179
370
    25
100
AcDbCircle
 10
118.3009736552
 20
163.6582688606
 30
0.0
 40
0.0152262634546326
100
AcDbArc
 50
113.2362378615
 51
183.5553918868
  0
ARC
  5
4D5
330
1F
100
AcDbEntity
  8
SLD-0
  6
Continuous
 62
   179
370
    25
100
AcDbCircle
 10
56.5603755501
 20
180.1026077844
 30
0.0
 40
0.4707751608615748
100
AcDbArc
 50
268.1111933068
 51
282.5047812965
  0
ARC
  5
4D6
330
1F
100
AcDbEntity
  8
SLD-0
  6
Continuous
 62
   179
370
    25
100
AcDbCircle
 10
57.143384826
 20
179.0922917108
 30
0.0
 40
0.02727668723775
100
AcDbArc
 50
322.3706974353
 51
357.3437697275
  0
ARC
  5
4D7
330
1F
100
AcDbEntity
  8
SLD-0
  6
Continuous
 62
   179
370
    25
100
AcDbCircle
 10
57.9434616528
 20
179.4176445554
 30
0.0
 40
0.0102027770014051
100
AcDbArc
 50
350.0964011085
 51
66.0693667572
  0
ARC
  5
4D8
330
1F
100
AcDbEntity
  8
SLD-0
  6
Continuous
 62
   179
370
    25
100
AcDbCircle
 10
56.7579470173
 20
179.5867746867
 30
0.0
 40
0.0152334036903761
100
AcDbArc
 50
113.2549131647
 51
183.5400332334
  0
ARC
  5
4D9
330
1F
100
AcDbEntity
  8
SLD-0
  6
Continuous
 62
   179
370
    25
100
AcDbCircle
 10
194.7219373196
 20
144.3442078362
 30
0.0
 40
0.4712255649748383
100
AcDbArc
 50
268.116772074
 51
282.4969805706
  0
ARC
  5
4DA
330
1F
100
AcDbEntity
  8
SLD-0
  6
Continuous
 62
   179
370
    25
100
AcDbCircle
 10
195.3048657693
 20
143.3334771499
 30
0.0
 40
0.0273940571282551
100
AcDbArc
 50
322.46202612
 51
357.2755396756
  0
ARC
  5
4DB
330
1F
100
AcDbEntity
  8
SLD-0
  6
Continuous
 62
   179
370
    25
100
AcDbCircle
 10
196.1050567165
 20
143.6587994676
 30
0.0
 40
0.0101983403589718
100
AcDbArc
 50
350.0382322041
 51
66.0485174205
  0
ARC
  5
4DC
330
1F
100
AcDbEntity
  8
SLD-0
  6
Continuous
 62
   179
370
    25
100
AcDbCircle
 10
194.9195377817
 20
143.827922434
 30
0.0
 40
0.0152314110539434
100
AcDbArc
 50
113.2498758269
 51
183.5417539239
  0
ARC
  5
4DD
330
1F
100
AcDbEntity
  8
SLD-0
  6
Continuous
 62
   179
370
    25
100
AcDbCircle
 10
72.0495305433
 20
176.093895763
 30
0.0
 40
0.4709558190041593
100
AcDbArc
 50
268.1135579807
 51
282.5020684454
  0
ARC
  5
4DE
330
1F
100
AcDbEntity
  8
SLD-0
  6
Continuous
 62
   179
370
    25
100
AcDbCircle
 10
72.632535677
 20
175.0834126407
 30
0.0
 40
0.0273065970117109
100
AcDbArc
 50
322.3764536289
 51
357.3149212248
  0
ARC
  5
4DF
330
1F
100
AcDbEntity
  8
SLD-0
  6
Continuous
 62
   179
370
    25
100
AcDbCircle
 10
73.4326352428
 20
175.4087526626
 30
0.0
 40
0.0102019405315997
100
AcDbArc
 50
350.0824829763
 51
66.0749655978
  0
ARC
  5
4E0
330
1F
100
AcDbEntity
  8
SLD-0
  6
Continuous
 62
   179
370
    25
100
AcDbCircle
 10
72.2471221598
 20
175.577882063
 30
0.0
 40
0.0152324313889131
100
AcDbArc
 50
113.2520994625
 51
183.5461632761
  0
ARC
  5
4E1
330
1F
100
AcDbEntity
  8
SLD-0
  6
Continuous
 62
   179
370
    25
100
AcDbCircle
 10
25.9956724952
 20
188.0134739015
 30
0.0
 40
0.4709168923534189
100
AcDbArc
 50
268.1129601479
 51
282.5026662782
  0
ARC
  5
4E2
330
1F
100
AcDbEntity
  8
SLD-0
  6
Continuous
 62
   179
370
    25
100
AcDbCircle
 10
26.5787045948
 20
187.0030118703
 30
0.0
 40
0.0272674353400384
100
AcDbArc
 50
322.3645727655
 51
357.3498943996
  0
ARC
  5
4E3
330
1F
100
AcDbEntity
  8
SLD-0
  6
Continuous
 62
   179
370
    25
100
AcDbCircle
 10
27.3787716059
 20
187.3283688795
 30
0.0
 40
0.0102016253535371
100
AcDbArc
 50
350.0933339763
 51
66.0859463408
  0
ARC
  5
4E4
330
1F
100
AcDbEntity
  8
SLD-0
  6
Continuous
 62
   179
370
    25
100
AcDbCircle
 10
26.1932624702
 20
187.4974925159
 30
0.0
 40
0.0152397404973954
100
AcDbArc
 50
113.2563538342
 51
183.5153750415
  0
ARC
  5
4E5
330
1F
100
AcDbEntity
  8
SLD-0
  6
Continuous
 62
   179
370
    25
100
AcDbCircle
 10
148.6680871534
 20
156.2634328327
 30
0.0
 40
0.4708357549861846
100
AcDbArc
 50
268.1142824989
 51
282.5046107916
  0
ARC
  5
4E6
330
1F
100
AcDbEntity
  8
SLD-0
  6
Continuous
 62
   179
370
    25
100
AcDbCircle
 10
149.2509908553
 20
155.2530986908
 30
0.0
 40
0.0274114470561432
100
AcDbArc
 50
322.4734214571
 51
357.2641443403
  0
ARC
  5
4E7
330
1F
100
AcDbEntity
  8
SLD-0
  6
Continuous
 62
   179
370
    25
100
AcDbCircle
 10
150.0511955117
 20
155.5784077556
 30
0.0
 40
0.0101998189835676
100
AcDbArc
 50
350.1015944215
 51
66.1265312818
  0
ARC
  5
4E8
330
1F
100
AcDbEntity
  8
SLD-0
  6
Continuous
 62
   179
370
    25
100
AcDbCircle
 10
148.865692605
 20
155.7475335653
 30
0.0
 40
0.0152437588007365
100
AcDbArc
 50
113.2815938754
 51
183.5233006039
  0
ARC
  5
4E9
330
1F
100
AcDbEntity
  8
SLD-0
  6
Continuous
 62
   179
370
    25
100
AcDbCircle
 10
164.1572441071
 20
152.2549318205
 30
0.0
 40
0.471225564975323
100
AcDbArc
 50
268.116772074
 51
282.4969805705
  0
ARC
  5
4EA
330
1F
100
AcDbEntity
  8
SLD-0
  6
Continuous
 62
   179
370
    25
100
AcDbCircle
 10
164.7403136832
 20
151.244149402
 30
0.0
 40
0.0272506683353366
100
AcDbArc
 50
322.3674840026
 51
357.3700817975
  0
ARC
  5
4EB
330
1F
100
AcDbEntity
  8
SLD-0
  6
Continuous
 62
   179
370
    25
100
AcDbCircle
 10
165.5403635608
 20
151.5695094279
 30
0.0
 40
0.0102111351987529
100
AcDbArc
 50
350.1307230715
 51
66.0807541719
  0
ARC
  5
4EC
330
1F
100
AcDbEntity
  8
SLD-0
  6
Continuous
 62
   179
370
    25
100
AcDbCircle
 10
164.3548445692
 20
151.7386464183
 30
0.0
 40
0.0152314110539718
100
AcDbArc
 50
113.2498758208
 51
183.5417539239
  0
ARC
  5
4ED
330
1F
100
AcDbEntity
  8
SLD-0
  6
Continuous
 62
   179
370
    25
100
AcDbCircle
 10
19.245571887
 20
188.9406178292
 30
0.0
 40
0.015236752804714
100
AcDbArc
 50
293.2561727883
 51
3.5263350829
  0
ARC
  5
4EE
330
1F
100
AcDbEntity
  8
SLD-0
  6
Continuous
 62
   179
370
    25
100
AcDbCircle
 10
19.2146510749
 20
188.8937233488
 30
0.0
 40
0.0228576728992394
100
AcDbArc
 50
113.2579663224
 51
183.5226069074
  0
ARC
  5
4EF
330
1F
100
AcDbEntity
  8
SLD-0
  6
Continuous
 62
   179
370
    25
100
AcDbCircle
 10
19.1703854779
 20
188.5164625682
 30
0.0
 40
0.0183915367284391
100
AcDbArc
 50
186.9445485271
 51
281.1105160266
  0
ARC
  5
4F0
330
1F
100
AcDbEntity
  8
SLD-0
  6
Continuous
 62
   179
370
    25
100
AcDbCircle
 10
19.1726037977
 20
188.587255801
 30
0.0
 40
0.0382197409783042
100
AcDbArc
 50
179.7043632154
 51
194.275842292
  0
ARC
  5
4F1
330
1F
100
AcDbEntity
  8
SLD-0
  6
Continuous
 62
   179
370
    25
100
AcDbCircle
 10
19.180983923
 20
188.6375617772
 30
0.0
 40
0.0465996729236272
100
AcDbArc
 50
161.4322018012
 51
179.7892130803
  0
ARC
  5
4F2
330
1F
100
AcDbEntity
  8
SLD-0
  6
Continuous
 62
   179
370
    25
100
AcDbCircle
 10
19.1015671195
 20
188.6781806834
 30
0.0
 40
0.0416093724697682
100
AcDbArc
 50
340.2810769118
 51
19.7189230876
  0
ARC
  5
4F3
330
1F
100
AcDbEntity
  8
SLD-0
  6
Continuous
 62
   179
370
    25
100
AcDbCircle
 10
19.1703657634
 20
188.7149216896
 30
0.0
 40
0.0359836275752909
100
AcDbArc
 50
179.334176127
 51
201.166985211
  0
ARC
  5
4F4
330
1F
100
AcDbEntity
  8
SLD-0
  6
Continuous
 62
   179
370
    25
100
AcDbCircle
 10
19.180983923
 20
188.7631322608
 30
0.0
 40
0.0465996729236815
100
AcDbArc
 50
161.432201801
 51
179.7892130803
  0
ARC
  5
4F5
330
1F
100
AcDbEntity
  8
SLD-0
  6
Continuous
 62
   179
370
    25
100
AcDbCircle
 10
19.1015689007
 20
188.8037509248
 30
0.0
 40
0.0416076140640611
100
AcDbArc
 50
340.2805632341
 51
19.7194367683
  0
ARC
  5
4F6
330
1F
100
AcDbEntity
  8
SLD-0
  6
Continuous
 62
   179
370
    25
100
AcDbCircle
 10
19.1703657634
 20
188.8404921732
 30
0.0
 40
0.0359836275750183
100
AcDbArc
 50
179.3341761283
 51
201.1669852093
  0
ARC
  5
4F7
330
1F
100
AcDbEntity
  8
SLD-0
  6
Continuous
 62
   179
370
    25
100
AcDbCircle
 10
19.1809786184
 20
188.8887031315
 30
0.0
 40
0.0465943668639915
100
AcDbArc
 50
161.4311406078
 51
179.7896652546
  0
ARC
  5
4F8
330
1F
100
AcDbEntity
  8
SLD-0
  6
Continuous
 62
   179
370
    25
100
AcDbCircle
 10
19.0993196526
 20
188.9382324338
 30
0.0
 40
0.0465564049211154
100
AcDbArc
 50
341.4160280468
 51
359.7900458857
  0
ARC
  5
4F9
330
1F
100
AcDbEntity
  8
SLD-0
  6
Continuous
 62
   179
370
    25
100
AcDbCircle
 10
18.9060568482
 20
188.8662687809
 30
0.0
 40
0.0359563458263318
100
AcDbArc
 50
179.3335252647
 51
201.1836632159
  0
ARC
  5
4FA
330
1F
100
AcDbEntity
  8
SLD-0
  6
Continuous
 62
   179
370
    25
100
AcDbCircle
 10
18.8456145345
 20
188.8238653495
 30
0.0
 40
0.035982013038437
100
AcDbArc
 50
359.3336802857
 51
21.1674810517
  0
ARC
  5
4FB
330
1F
100
AcDbEntity
  8
SLD-0
  6
Continuous
 62
   179
370
    25
100
AcDbCircle
 10
18.8357751337
 20
188.5221245062
 30
0.0
 40
0.045819086093723
100
AcDbArc
 50
346.9695160146
 51
359.8770932719
  0
ARC
  5
4FC
330
1F
100
AcDbEntity
  8
SLD-0
  6
Continuous
 62
   179
370
    25
100
AcDbCircle
 10
18.8293259368
 20
188.4450739671
 30
0.0
 40
0.0349528290593249
100
AcDbArc
 50
291.3466667712
 51
351.034753652
  0
ARC
  5
4FD
330
1F
100
AcDbEntity
  8
SLD-0
  6
Continuous
 62
   179
370
    25
100
AcDbCircle
 10
65.1316667802
 20
176.6180653503
 30
0.0
 40
0.0160367343256462
100
AcDbArc
 50
255.7810536888
 51
285.2002011386
  0
ARC
  5
4FE
330
1F
100
AcDbEntity
  8
SLD-0
  6
Continuous
 62
   179
370
    25
100
AcDbCircle
 10
65.2075163362
 20
177.0447871188
 30
0.0
 40
0.0152307441908876
100
AcDbArc
 50
293.2476308129
 51
3.5506319253
  0
ARC
  5
4FF
330
1F
100
AcDbEntity
  8
SLD-0
  6
Continuous
 62
   179
370
    25
100
AcDbCircle
 10
65.1765797229
 20
176.9979066013
 30
0.0
 40
0.0228449344982397
100
AcDbArc
 50
113.2460228727
 51
183.5456068709
  0
ARC
  5
500
330
1F
100
AcDbEntity
  8
SLD-0
  6
Continuous
 62
   179
370
    25
100
AcDbCircle
 10
157.407162127
 20
153.1817667412
 30
0.0
 40
0.0152373532104963
100
AcDbArc
 50
293.265604575
 51
3.5260251697
  0
ARC
  5
501
330
1F
100
AcDbEntity
  8
SLD-0
  6
Continuous
 62
   179
370
    25
100
AcDbCircle
 10
157.3762510696
 20
153.1348645439
 30
0.0
 40
0.0228701144384749
100
AcDbArc
 50
113.2695219488
 51
183.4977860931
  0
ARC
  5
502
330
1F
100
AcDbEntity
  8
SLD-0
  6
Continuous
 62
   179
370
    25
100
AcDbCircle
 10
157.3319788809
 20
152.757614645
 30
0.0
 40
0.0183944649671243
100
AcDbArc
 50
186.9535104058
 51
281.1129011204
  0
ARC
  5
503
330
1F
100
AcDbEntity
  8
SLD-0
  6
Continuous
 62
   179
370
    25
100
AcDbCircle
 10
157.3344826577
 20
152.8284329844
 30
0.0
 40
0.0385076288844991
100
AcDbArc
 50
179.7451035729
 51
194.2095907095
  0
ARC
  5
504
330
1F
100
AcDbEntity
  8
SLD-0
  6
Continuous
 62
   179
370
    25
100
AcDbCircle
 10
157.3432165239
 20
152.8786282199
 30
0.0
 40
0.047241790871904
100
AcDbArc
 50
161.5882749216
 51
179.6932863296
  0
ARC
  5
505
330
1F
100
AcDbEntity
  8
SLD-0
  6
Continuous
 62
   179
370
    25
100
AcDbCircle
 10
157.2631481373
 20
152.9193307608
 30
0.0
 40
0.0416202015641457
100
AcDbArc
 50
340.2874823944
 51
19.7125176055
  0
ARC
  5
506
330
1F
100
AcDbEntity
  8
SLD-0
  6
Continuous
 62
   179
370
    25
100
AcDbCircle
 10
157.3323922244
 20
152.9561306995
 30
0.0
 40
0.0364185981714727
100
AcDbArc
 50
179.4329450571
 51
201.001932519
  0
ARC
  5
507
330
1F
100
AcDbEntity
  8
SLD-0
  6
Continuous
 62
   179
370
    25
100
AcDbCircle
 10
157.3431832219
 20
153.0042037079
 30
0.0
 40
0.0472084602692212
100
AcDbArc
 50
161.5818298024
 51
179.6997314487
  0
ARC
  5
508
330
1F
100
AcDbEntity
  8
SLD-0
  6
Continuous
 62
   179
370
    25
100
AcDbCircle
 10
157.2631481373
 20
153.0449007601
 30
0.0
 40
0.0416202015642547
100
AcDbArc
 50
340.2874823927
 51
19.7125176056
  0
ARC
  5
509
330
1F
100
AcDbEntity
  8
SLD-0
  6
Continuous
 62
   179
370
    25
100
AcDbCircle
 10
157.3323922244
 20
153.0817006987
 30
0.0
 40
0.0364185981715304
100
AcDbArc
 50
179.432945057
 51
201.0019325188
  0
ARC
  5
50A
330
1F
100
AcDbEntity
  8
SLD-0
  6
Continuous
 62
   179
370
    25
100
AcDbCircle
 10
157.34318403
 20
153.129773508
 30
0.0
 40
0.0472092899533373
100
AcDbArc
 50
161.5819104245
 51
179.6947929391
  0
ARC
  5
50B
330
1F
100
AcDbEntity
  8
SLD-0
  6
Continuous
 62
   179
370
    25
100
AcDbCircle
 10
157.2611697593
 20
153.1793091015
 30
0.0
 40
0.0462891809514698
100
AcDbArc
 50
341.4003633195
 51
359.8811979323
  0
ARC
  5
50C
330
1F
100
AcDbEntity
  8
SLD-0
  6
Continuous
 62
   179
370
    25
100
AcDbCircle
 10
203.2932513886
 20
140.8592485032
 30
0.0
 40
0.0160693886773773
100
AcDbArc
 50
255.8263633949
 51
285.155825914
  0
ARC
  5
50D
330
1F
100
AcDbEntity
  8
SLD-0
  6
Continuous
 62
   179
370
    25
100
AcDbCircle
 10
203.3691021277
 20
141.2859423067
 30
0.0
 40
0.0152412871347471
100
AcDbArc
 50
293.2750583092
 51
3.5298361723
  0
ARC
  5
50E
330
1F
100
AcDbEntity
  8
SLD-0
  6
Continuous
 62
   179
370
    25
100
AcDbCircle
 10
203.3381888186
 20
141.2390412538
 30
0.0
 40
0.0228642400679571
100
AcDbArc
 50
113.2591700166
 51
183.5081380268
  0
ARC
  5
50F
330
1F
100
AcDbEntity
  8
SLD-0
  6
Continuous
 62
   179
370
    25
100
AcDbCircle
 10
202.9528590554
 20
140.790396312
 30
0.0
 40
0.0349524944657505
100
AcDbArc
 50
291.342862076
 51
351.0345860197
  0
ARC
  5
510
330
1F
100
AcDbEntity
  8
SLD-0
  6
Continuous
 62
   179
370
    25
100
AcDbCircle
 10
202.9589081898
 20
140.8674845889
 30
0.0
 40
0.0462208355725991
100
AcDbArc
 50
347.0366824581
 51
359.8307203008
  0
ARC
  5
511
330
1F
100
AcDbEntity
  8
SLD-0
  6
Continuous
 62
   179
370
    25
100
AcDbCircle
 10
65.299419808
 20
177.0210141344
 30
0.0
 40
0.0152554892346363
100
AcDbArc
 50
293.2821690595
 51
3.4729820948
  0
ARC
  5
512
330
1F
100
AcDbEntity
  8
SLD-0
  6
Continuous
 62
   179
370
    25
100
AcDbCircle
 10
65.2685273603
 20
176.9740954198
 30
0.0
 40
0.0228696636006949
100
AcDbArc
 50
113.2690422108
 51
183.4938425783
  0
ARC
  5
513
330
1F
100
AcDbEntity
  8
SLD-0
  6
Continuous
 62
   179
370
    25
100
AcDbCircle
 10
65.2242515908
 20
176.5968431613
 30
0.0
 40
0.0183898460734091
100
AcDbArc
 50
186.9367617519
 51
281.1036188571
  0
ARC
  5
514
330
1F
100
AcDbEntity
  8
SLD-0
  6
Continuous
 62
   179
370
    25
100
AcDbCircle
 10
65.2263431107
 20
176.6676144795
 30
0.0
 40
0.0380916934647397
100
AcDbArc
 50
179.668552107
 51
194.2889239553
  0
ARC
  5
515
330
1F
100
AcDbEntity
  8
SLD-0
  6
Continuous
 62
   179
370
    25
100
AcDbCircle
 10
65.2346826314
 20
176.7179729742
 30
0.0
 40
0.0464307956145686
100
AcDbArc
 50
161.3985394106
 51
179.8240933943
  0
ARC
  5
516
330
1F
100
AcDbEntity
  8
SLD-0
  6
Continuous
 62
   179
370
    25
100
AcDbCircle
 10
65.1555061502
 20
176.7585632354
 30
0.0
 40
0.0415363181700615
100
AcDbArc
 50
340.2460183399
 51
19.7539816609
  0
ARC
  5
517
330
1F
100
AcDbEntity
  8
SLD-0
  6
Continuous
 62
   179
370
    25
100
AcDbCircle
 10
65.2241148782
 20
176.7952825768
 30
0.0
 40
0.0358655115414009
100
AcDbArc
 50
179.2985314627
 51
201.2033545029
  0
ARC
  5
518
330
1F
100
AcDbEntity
  8
SLD-0
  6
Continuous
 62
   179
370
    25
100
AcDbCircle
 10
65.2346826314
 20
176.8435429734
 30
0.0
 40
0.0464307956145961
100
AcDbArc
 50
161.3985394104
 51
179.8240933942
  0
ARC
  5
519
330
1F
100
AcDbEntity
  8
SLD-0
  6
Continuous
 62
   179
370
    25
100
AcDbCircle
 10
65.1555061502
 20
176.8841332346
 30
0.0
 40
0.0415363181706895
100
AcDbArc
 50
340.2460183399
 51
19.7539816579
  0
ARC
  5
51A
330
1F
100
AcDbEntity
  8
SLD-0
  6
Continuous
 62
   179
370
    25
100
AcDbCircle
 10
65.2241219048
 20
176.9208539102
 30
0.0
 40
0.0358725449641281
100
AcDbArc
 50
179.2977057376
 51
201.201282011
  0
ARC
  5
51B
330
1F
100
AcDbEntity
  8
SLD-0
  6
Continuous
 62
   179
370
    25
100
AcDbCircle
 10
65.2346667533
 20
176.969115598
 30
0.0
 40
0.0464149096222256
100
AcDbArc
 50
161.3953587676
 51
179.827274036
  0
ARC
  5
51C
330
1F
100
AcDbEntity
  8
SLD-0
  6
Continuous
 62
   179
370
    25
100
AcDbCircle
 10
65.1528706298
 20
177.0186612614
 30
0.0
 40
0.0468731093522131
100
AcDbArc
 50
341.4861861849
 51
359.7340106167
  0
ARC
  5
51D
330
1F
100
AcDbEntity
  8
SLD-0
  6
Continuous
 62
   179
370
    25
100
AcDbCircle
 10
111.1855254483
 20
164.6983571793
 30
0.0
 40
0.0159468727648723
100
AcDbArc
 50
255.7247505738
 51
285.2847203769
  0
ARC
  5
51E
330
1F
100
AcDbEntity
  8
SLD-0
  6
Continuous
 62
   179
370
    25
100
AcDbCircle
 10
111.2613818881
 20
165.1251699129
 30
0.0
 40
0.0152307441908167
100
AcDbArc
 50
293.2476308127
 51
3.5506319254
  0
ARC
  5
51F
330
1F
100
AcDbEntity
  8
SLD-0
  6
Continuous
 62
   179
370
    25
100
AcDbCircle
 10
111.2304515852
 20
165.078287328
 30
0.0
 40
0.0228511050130585
100
AcDbArc
 50
113.2565975826
 51
183.5394542986
  0
ARC
  5
520
330
1F
100
AcDbEntity
  8
SLD-0
  6
Continuous
 62
   179
370
    25
100
AcDbCircle
 10
111.3533025588
 20
165.1013830958
 30
0.0
 40
0.0152390479599269
100
AcDbArc
 50
293.2700877326
 51
3.5215420152
  0
ARC
  5
521
330
1F
100
AcDbEntity
  8
SLD-0
  6
Continuous
 62
   179
370
    25
100
AcDbCircle
 10
111.3223929122
 20
165.054478214
 30
0.0
 40
0.0228696636006949
100
AcDbArc
 50
113.2690422107
 51
183.4938425783
  0
ARC
  5
522
330
1F
100
AcDbEntity
  8
SLD-0
  6
Continuous
 62
   179
370
    25
100
AcDbCircle
 10
111.2781173109
 20
164.6772264592
 30
0.0
 40
0.0183903080323311
100
AcDbArc
 50
186.9442476267
 51
281.1028022622
  0
ARC
  5
523
330
1F
100
AcDbEntity
  8
SLD-0
  6
Continuous
 62
   179
370
    25
100
AcDbCircle
 10
111.2801888942
 20
164.7479948538
 30
0.0
 40
0.0380719394161183
100
AcDbArc
 50
179.6647384034
 51
194.2927376582
  0
ARC
  5
524
330
1F
100
AcDbEntity
  8
SLD-0
  6
Continuous
 62
   179
370
    25
100
AcDbCircle
 10
111.2885271542
 20
164.7983572898
 30
0.0
 40
0.0464097619242854
100
AcDbArc
 50
161.394304814
 51
179.8258919871
  0
ARC
  5
525
330
1F
100
AcDbEntity
  8
SLD-0
  6
Continuous
 62
   179
370
    25
100
AcDbCircle
 10
111.2092140179
 20
164.838945061
 30
0.0
 40
0.0416923793118816
100
AcDbArc
 50
340.3216045561
 51
19.6783954444
  0
ARC
  5
526
330
1F
100
AcDbEntity
  8
SLD-0
  6
Continuous
 62
   179
370
    25
100
AcDbCircle
 10
111.2779804302
 20
164.875665371
 30
0.0
 40
0.0358655115418267
100
AcDbArc
 50
179.2985314626
 51
201.2033545048
  0
ARC
  5
527
330
1F
100
AcDbEntity
  8
SLD-0
  6
Continuous
 62
   179
370
    25
100
AcDbCircle
 10
111.2885271542
 20
164.923927289
 30
0.0
 40
0.0464097619242815
100
AcDbArc
 50
161.3943048139
 51
179.8258919887
  0
ARC
  5
528
330
1F
100
AcDbEntity
  8
SLD-0
  6
Continuous
 62
   179
370
    25
100
AcDbCircle
 10
111.2092116062
 20
164.9645150602
 30
0.0
 40
0.0416946502076136
100
AcDbArc
 50
340.322720565
 51
19.6772794355
  0
ARC
  5
529
330
1F
100
AcDbEntity
  8
SLD-0
  6
Continuous
 62
   179
370
    25
100
AcDbCircle
 10
111.2779804302
 20
165.0012353702
 30
0.0
 40
0.0358655115413744
100
AcDbArc
 50
179.2985314627
 51
201.2033545029
  0
ARC
  5
52A
330
1F
100
AcDbEntity
  8
SLD-0
  6
Continuous
 62
   179
370
    25
100
AcDbCircle
 10
111.2885481833
 20
165.0494957668
 30
0.0
 40
0.0464307956152428
100
AcDbArc
 50
161.3985394107
 51
179.8240933943
  0
ARC
  5
52B
330
1F
100
AcDbEntity
  8
SLD-0
  6
Continuous
 62
   179
370
    25
100
AcDbCircle
 10
111.2067415896
 20
165.0990431613
 30
0.0
 40
0.0468676974425028
100
AcDbArc
 50
341.4851236314
 51
359.7350731719
  0
ARC
  5
52C
330
1F
100
AcDbEntity
  8
SLD-0
  6
Continuous
 62
   179
370
    25
100
AcDbCircle
 10
157.2393935853
 20
152.7788637719
 30
0.0
 40
0.0160693886749742
100
AcDbArc
 50
255.8263633926
 51
285.1558259154
  0
ARC
  5
52D
330
1F
100
AcDbEntity
  8
SLD-0
  6
Continuous
 62
   179
370
    25
100
AcDbCircle
 10
157.3152417505
 20
153.2055591588
 30
0.0
 40
0.0152437588007587
100
AcDbArc
 50
293.2815938748
 51
3.5233006067
  0
ARC
  5
52E
330
1F
100
AcDbEntity
  8
SLD-0
  6
Continuous
 62
   179
370
    25
100
AcDbCircle
 10
157.2843310152
 20
153.1586565225
 30
0.0
 40
0.0228642400674557
100
AcDbArc
 50
113.2591700135
 51
183.5081380267
  0
ARC
  5
52F
330
1F
100
AcDbEntity
  8
SLD-0
  6
Continuous
 62
   179
370
    18
100
AcDbCircle
 10
18.4370273383
 20
192.5935714978
 30
0.0
 40
5.693066298365671
100
AcDbArc
 50
157.380135052
 51
202.619864948
  0
ARC
  5
530
330
1F
100
AcDbEntity
  8
SLD-0
  6
Continuous
 62
   179
370
    18
100
AcDbCircle
 10
7.9267510952
 20
188.2142897298
 30
0.0
 40
5.693066298365978
100
AcDbArc
 50
337.380135052
 51
22.6198649481
  0
ARC
  5
531
330
1F
100
AcDbEntity
  8
SLD-0
  6
Continuous
 62
   179
370
    18
100
AcDbCircle
 10
19.7596191277
 20
192.1874133383
 30
0.0
 40
5.693066298365684
100
AcDbArc
 50
157.380135052
 51
202.619864948
  0
ARC
  5
532
330
1F
100
AcDbEntity
  8
SLD-0
  6
Continuous
 62
   179
370
    18
100
AcDbCircle
 10
9.2493428846
 20
187.8081315704
 30
0.0
 40
5.693066298366023
100
AcDbArc
 50
337.380135052
 51
22.6198649481
  0
SPLINE
  5
533
330
1F
100
AcDbEntity
  8
SLD-0
  6
Continuous
 62
   179
370
    25
100
AcDbSpline
210
0.0
220
0.0
230
1.0
 70
     8
 71
     3
 72
     9
 73
     5
 74
     0
 42
0.00000001
 43
0.00000001
 40
0.0
 40
0.0
 40
0.0
 40
0.0
 40
0.4510988742784911
 40
1.0
 40
1.0
 40
1.0
 40
1.0
 10
18.40506079089794
 20
188.9727494269571
 30
0.0
 10
18.39152453699954
 20
188.9811810636827
 30
0.0
 10
18.36151724886333
 20
188.9998723910307
 30
0.0
 10
18.3277795748206
 20
189.0105549514824
 30
0.0
 10
18.30926092755933
 20
189.0164186209399
 30
0.0
  0
SPLINE
  5
534
330
1F
100
AcDbEntity
  8
SLD-0
  6
Continuous
 62
   179
370
    25
100
AcDbSpline
210
0.0
220
0.0
230
1.0
 70
     8
 71
     3
 72
     9
 73
     5
 74
     0
 42
0.00000001
 43
0.00000001
 40
0.0
 40
0.0
 40
0.0
 40
0.0
 40
0.4030185462410024
 40
1.0
 40
1.0
 40
1.0
 40
1.0
 10
18.26040210616716
 20
188.8276389017664
 30
0.0
 10
18.26557262903462
 20
188.8260200885788
 30
0.0
 10
18.27840212017273
 20
188.8220033672573
 30
0.0
 10
18.28984320512484
 20
188.8148917294585
 30
0.0
 10
18.29667332065229
 20
188.8106462135869
 30
0.0
  0
SPLINE
  5
535
330
1F
100
AcDbEntity
  8
SLD-0
  6
Continuous
 62
   179
370
    25
100
AcDbSpline
210
0.0
220
0.0
230
1.0
 70
     8
 71
     3
 72
     9
 73
     5
 74
     0
 42
0.00000001
 43
0.00000001
 40
0.0
 40
0.0
 40
0.0
 40
0.0
 40
0.407845203335022
 40
1.0
 40
1.0
 40
1.0
 40
1.0
 10
18.33631130349763
 20
189.2092179283457
 30
0.0
 10
18.33260446382612
 20
189.2088655411831
 30
0.0
 10
18.32351562413587
 20
189.2080015193439
 30
0.0
 10
18.31456253954476
 20
189.2099177218154
 30
0.0
 10
18.30926092755922
 20
189.2110524103003
 30
0.0
  0
SPLINE
  5
536
330
1F
100
AcDbEntity
  8
SLD-0
  6
Continuous
 62
   179
370
    25
100
AcDbSpline
210
0.0
220
0.0
230
1.0
 70
     8
 71
     3
 72
     9
 73
     5
 74
     0
 42
0.00000001
 43
0.00000001
 40
0.0
 40
0.0
 40
0.0
 40
0.0
 40
0.4030161664944946
 40
1.0
 40
1.0
 40
1.0
 40
1.0
 10
18.60652836454048
 20
188.8453023284627
 30
0.0
 10
18.60135783270466
 20
188.846920953899
 30
0.0
 10
18.58852824355748
 20
188.8509372330732
 30
0.0
 10
18.57708724264143
 20
188.858048951453
 30
0.0
 10
18.57025715005542
 20
188.8622945323542
 30
0.0
  0
SPLINE
  5
537
330
1F
100
AcDbEntity
  8
SLD-0
  6
Continuous
 62
   179
370
    25
100
AcDbSpline
210
0.0
220
0.0
230
1.0
 70
     8
 71
     3
 72
     9
 73
     5
 74
     0
 42
0.00000001
 43
0.00000001
 40
0.0
 40
0.0
 40
0.0
 40
0.0
 40
0.451114124458573
 40
1.0
 40
1.0
 40
1.0
 40
1.0
 10
18.46186967980956
 20
188.7001913189845
 30
0.0
 10
18.4754066290676
 20
188.6917599378638
 30
0.0
 10
18.50541444421699
 20
188.673069808995
 30
0.0
 10
18.53915166124269
 20
188.6623865172385
 30
0.0
 10
18.5576695431483
 20
188.656522609289
 30
0.0
  0
SPLINE
  5
538
330
1F
100
AcDbEntity
  8
SLD-0
  6
Continuous
 62
   179
370
    25
100
AcDbSpline
210
0.0
220
0.0
230
1.0
 70
     8
 71
     3
 72
     9
 73
     5
 74
     0
 42
0.00000001
 43
0.00000001
 40
0.0
 40
0.0
 40
0.0
 40
0.0
 40
0.4492307464044188
 40
1.0
 40
1.0
 40
1.0
 40
1.0
 10
18.60652836454032
 20
189.2282916009382
 30
0.0
 10
18.59096545062799
 20
189.2316366408602
 30
0.0
 10
18.55632197611764
 20
189.23908279175
 30
0.0
 10
18.52097544513922
 20
189.2359091259025
 30
0.0
 10
18.50150766265509
 20
189.2341611683324
 30
0.0
  0
SPLINE
  5
539
330
1F
100
AcDbEntity
  8
SLD-0
  6
Continuous
 62
   179
370
    25
100
AcDbSpline
210
0.0
220
0.0
230
1.0
 70
     8
 71
     3
 72
     9
 73
     5
 74
     0
 42
0.00000001
 43
0.00000001
 40
0.0
 40
0.0
 40
0.0
 40
0.0
 40
0.4078462943840231
 40
1.0
 40
1.0
 40
1.0
 40
1.0
 10
18.53061916720992
 20
189.041346363719
 30
0.0
 10
18.53432600352757
 20
189.0416987291347
 30
0.0
 10
18.5434148106805
 20
189.0425626953411
 30
0.0
 10
18.55236792394937
 20
189.0406468443285
 30
0.0
 10
18.55766954314834
 20
189.0395123660522
 30
0.0
  0
INSERT
  5
53A
330
1F
100
AcDbEntity
  8
0
  6
Continuous
 62
     7
100
AcDbBlockReference
  2
SW_NOTE_0
 10
151.3966028378
 20
113.3109496588
 30
0.0
 41
0.01
 42
0.01
 43
0.01
  0
HATCH
  5
53B
330
1F
100
AcDbEntity
  8
0
  6
Continuous
 62
     7
100
AcDbHatch
 10
0.0
 20
0.0
 30
0.0
210
0.0
220
0.0
230
1.0
  2
SOLID
 70
     1
 71
     0
 91
        1
 92
        0
 93
       21
 72
     1
 10
18.36542280805199
 20
189.0164036080199
 11
18.5306191672097
 21
189.0413463637188
 72
     4
 94
        3
 73
     1
 74
     0
 95
        9
 96
        5
 40
0.0
 40
0.0
 40
0.0
 40
0.0
 40
0.4078462943840231
 40
1.0
 40
1.0
 40
1.0
 40
1.0
 10
18.53061916720992
 20
189.041346363719
 42
1.0
 10
18.53432600352757
 20
189.0416987291347
 42
1.0
 10
18.5434148106805
 20
189.0425626953411
 42
1.0
 10
18.55236792394937
 20
189.0406468443285
 42
1.0
 10
18.55766954314834
 20
189.0395123660522
 42
1.0
 72
     1
 10
18.55766954314836
 20
189.0395123660522
 11
18.98355992925358
 21
188.9292836338241
 72
     1
 10
18.98355992925358
 20
188.9292836338241
 11
19.00798933994887
 21
188.9294957518536
 72
     1
 10
19.00798933994887
 20
188.9294957518536
 11
19.0343733359587
 21
188.9434931203686
 72
     1
 10
19.0343733359587
 20
188.9434931203686
 11
19.05673968088818
 21
188.9696969613384
 72
     1
 10
19.05673968088818
 20
188.9696969613384
 11
19.07168480050748
 21
189.00411868095
 72
     1
 10
19.07168480050748
 20
189.00411868095
 11
19.07693254244444
 21
189.0415173172905
 72
     2
 10
19.00807902544608
 20
189.0526930168964
 40
0.0697545917108116
 50
350.7806510765138
 51
429.5778929482417
 73
     1
 72
     1
 10
19.03241875064547
 20
189.1180633529976
 11
18.60652836454038
 21
189.2282916009383
 72
     4
 94
        3
 73
     1
 74
     0
 95
        9
 96
        5
 40
0.0
 40
0.0
 40
0.0
 40
0.0
 40
0.4492307464044188
 40
1.0
 40
1.0
 40
1.0
 40
1.0
 10
18.60652836454032
 20
189.2282916009382
 42
1.0
 10
18.59096545062799
 20
189.2316366408602
 42
1.0
 10
18.55632197611764
 20
189.23908279175
 42
1.0
 10
18.52097544513922
 20
189.2359091259025
 42
1.0
 10
18.50150766265509
 20
189.2341611683324
 42
1.0
 72
     1
 10
18.5015076626551
 20
189.2341611683324
 11
18.33631130349764
 21
189.2092179283457
 72
     4
 94
        3
 73
     1
 74
     0
 95
        9
 96
        5
 40
0.0
 40
0.0
 40
0.0
 40
0.0
 40
0.407845203335022
 40
1.0
 40
1.0
 40
1.0
 40
1.0
 10
18.33631130349763
 20
189.2092179283457
 42
1.0
 10
18.33260446382612
 20
189.2088655411831
 42
1.0
 10
18.32351562413587
 20
189.2080015193439
 42
1.0
 10
18.31456253954476
 20
189.2099177218154
 42
1.0
 10
18.30926092755922
 20
189.2110524103003
 42
1.0
 72
     1
 10
18.30926092755908
 20
189.2110524103003
 11
18.23411380080989
 21
189.2302299465136
 72
     1
 10
18.23411380080989
 20
189.2302299465136
 11
18.25267287385637
 21
189.1852776482666
 72
     1
 10
18.25267287385637
 20
189.1852776482666
 11
18.26110722911428
 21
189.1147043332413
 72
     1
 10
18.26110722911428
 20
189.1147043332413
 11
18.25267287385637
 21
189.0397646799645
 72
     1
 10
18.25267287385637
 20
189.0397646799645
 11
18.24996737999067
 21
189.0318111638055
 72
     1
 10
18.24996737999067
 20
189.0318111638055
 11
18.30926092755908
 21
189.01641862094
 72
     4
 94
        3
 73
     1
 74
     0
 95
        8
 96
        4
 40
0.0
 40
0.0
 40
0.0
 40
0.0
 40
0.055492964392342
 40
0.055492964392342
 40
0.055492964392342
 40
0.055492964392342
 10
18.30926092755933
 20
189.0164186209399
 42
1.0
 10
18.31113313110366
 20
189.0158258139932
 42
1.0
 10
18.31300533464799
 20
189.0152330070464
 42
1.0
 10
18.31487637681481
 20
189.0146377067378
 42
1.0
 72
     1
 10
18.31487637681478
 20
189.0146377067376
 11
18.36542280805199
 21
189.0164036080199
 97
        0
 75
     0
 76
     1
 98
        1
 10
0.0
 20
0.0
  0
HATCH
  5
53C
330
1F
100
AcDbEntity
  8
0
  6
Continuous
 62
     7
100
AcDbHatch
 10
0.0
 20
0.0
 30
0.0
210
0.0
220
0.0
230
1.0
  2
SOLID
 70
     1
 71
     0
 91
        1
 92
        0
 93
       20
 72
     1
 10
9.770573950391492
 20
191.4822415735939
 11
9.748211479764873
 21
191.4968670633052
 72
     1
 10
9.748211479764873
 20
191.4968670633052
 11
9.746258831602454
 21
191.4974210884781
 72
     1
 10
9.746258831602454
 20
191.4974210884781
 11
8.369362927061156
 21
191.8537406351782
 72
     1
 10
8.369362927061156
 20
191.8537406351782
 11
8.391725397687773
 21
191.839111271164
 72
     1
 10
8.391725397687773
 20
191.839111271164
 11
8.406664705854675
 21
191.8124289539076
 72
     1
 10
8.406664705854675
 20
191.8124289539076
 11
8.411918259244173
 21
191.777746203205
 72
     1
 10
8.411918259244173
 20
191.777746203205
 11
8.406664705854661
 21
191.7403475668636
 72
     1
 10
8.406664705854661
 20
191.7403475668636
 11
8.391725397687816
 21
191.7059243943905
 72
     1
 10
8.391725397687816
 20
191.7059243943905
 11
8.369362927061156
 21
191.6797224905701
 72
     1
 10
8.369362927061156
 20
191.6797224905701
 11
8.342971182446867
 21
191.6657246377673
 72
     1
 10
8.342971182446867
 20
191.6657246377673
 11
8.315248838510799
 21
191.6669459495864
 72
     1
 10
8.315248838510799
 20
191.6669459495864
 11
8.342971182446867
 21
191.6594443943707
 72
     1
 10
8.342971182446867
 20
191.6594443943707
 11
8.369362927061156
 21
191.6591034558026
 72
     1
 10
8.369362927061156
 20
191.6591034558026
 11
9.722316971862059
 21
191.3089835022131
 72
     1
 10
9.722316971862059
 20
191.3089835022131
 11
9.748211479764887
 21
191.3228489186971
 72
     1
 10
9.748211479764887
 20
191.3228489186971
 11
9.770573950391464
 21
191.349054696819
 72
     1
 10
9.770573950391464
 20
191.349054696819
 11
9.785513258558359
 21
191.3834739949921
 72
     1
 10
9.785513258558359
 20
191.3834739949921
 11
9.790766811949174
 21
191.420872631332
 72
     1
 10
9.790766811949174
 20
191.420872631332
 11
9.785513258558352
 21
191.4555553820346
 72
     1
 10
9.785513258558352
 20
191.4555553820346
 11
9.770573950391492
 21
191.4822415735939
 97
        0
 75
     0
 76
     1
 98
        1
 10
0.0
 20
0.0
  0
ENDSEC
  0
SECTION
  2
OBJECTS
  0
DICTIONARY
  5
C
330
0
100
AcDbDictionary
281
     1
  3
ACAD_GROUP
350
D
  3
ACAD_LAYOUT
350
1A
  3
ACAD_MLINESTYLE
350
17
  3
ACAD_PLOTSETTINGS
350
19
  3
ACAD_PLOTSTYLENAME
350
E
  3
ACAD_SCALELIST
350
47
  3
DWGPROPS
350
53D
  0
DICTIONARY
  5
D
102
{ACAD_REACTORS
330
C
102
}
330
C
100
AcDbDictionary
281
     1
  0
DICTIONARY
  5
1A
102
{ACAD_REACTORS
330
C
102
}
330
C
100
AcDbDictionary
281
     1
  3
Layout1
350
1E
  3
Layout2
350
26
  3
Model
350
22
  0
DICTIONARY
  5
17
102
{ACAD_REACTORS
330
C
102
}
330
C
100
AcDbDictionary
281
     1
  3
Standard
350
18
  0
DICTIONARY
  5
19
102
{ACAD_REACTORS
330
C
102
}
330
C
100
AcDbDictionary
281
     1
  0
ACDBDICTIONARYWDFLT
  5
E
102
{ACAD_REACTORS
330
C
102
}
330
C
100
AcDbDictionary
281
     1
  3
Normal
350
F
100
AcDbDictionaryWithDefault
340
F
  0
DICTIONARY
  5
47
102
{ACAD_REACTORS
330
C
102
}
330
C
100
AcDbDictionary
281
     1
  3
A0
350
48
  3
A1
350
49
  3
A2
350
4A
  3
A3
350
4B
  3
A4
350
4C
  3
A5
350
4D
  3
A6
350
4E
  3
A7
350
4F
  3
A8
350
50
  3
A9
350
51
  3
B0
350
52
  3
B1
350
53
  3
B2
350
54
  3
B3
350
55
  3
B4
350
56
  3
B5
350
57
  3
B6
350
58
  3
B7
350
59
  3
B8
350
5A
  3
B9
350
5B
  3
C0
350
5C
  3
C1
350
5D
  3
C2
350
5E
  3
C3
350
5F
  3
C4
350
60
  3
C5
350
61
  3
C6
350
62
  3
C7
350
63
  3
C8
350
64
  3
C9
350
65
  3
D0
350
66
  3
D1
350
67
  3
D2
350
68
  0
XRECORD
  5
53D
102
{ACAD_REACTORS
330
C
102
}
330
C
100
AcDbXrecord
280
     1
  1
DWGPROPS COOKIE
  2

  3

  4

  6

  7

  8
9128
  9

300
=
301
=
302
=
303
=
304
=
305
=
306
=
307
=
308
=
309
=
 40
0.0
 41
2459242.418615752
 42
2459242.418616412
  1

 90
        0
  0
LAYOUT
  5
1E
102
{ACAD_REACTORS
330
1A
102
}
330
1A
100
AcDbPlotSettings
  1

  2
none_device
  4

  6

 40
0.0
 41
0.0
 42
0.0
 43
0.0
 44
0.0
 45
0.0
 46
0.0
 47
0.0
 48
0.0
 49
0.0
140
0.0
141
0.0
142
1.0
143
1.0
 70
   688
 72
     1
 73
     0
 74
     5
  7

 75
    16
147
1.0
148
0.0
149
0.0
100
AcDbLayout
  1
Layout1
 70
     1
 71
     1
 10
0.0
 20
0.0
 11
420.0
 21
297.0
 12
0.0
 22
0.0
 32
0.0
 14
1.0000000000E+20
 24
1.0000000000E+20
 34
1.0000000000E+20
 15
-1.0000000000E+20
 25
-1.0000000000E+20
 35
-1.0000000000E+20
146
0.0
 13
0.0
 23
0.0
 33
0.0
 16
1.0
 26
0.0
 36
0.0
 17
0.0
 27
1.0
 37
0.0
 76
     0
330
1B
  0
LAYOUT
  5
26
102
{ACAD_REACTORS
330
1A
102
}
330
1A
100
AcDbPlotSettings
  1

  2
none_device
  4

  6

 40
0.0
 41
0.0
 42
0.0
 43
0.0
 44
0.0
 45
0.0
 46
0.0
 47
0.0
 48
0.0
 49
0.0
140
0.0
141
0.0
142
1.0
143
1.0
 70
   688
 72
     1
 73
     0
 74
     5
  7

 75
    16
147
1.0
148
0.0
149
0.0
100
AcDbLayout
  1
Layout2
 70
     1
 71
     2
 10
0.0
 20
0.0
 11
0.0
 21
0.0
 12
0.0
 22
0.0
 32
0.0
 14
0.0
 24
0.0
 34
0.0
 15
0.0
 25
0.0
 35
0.0
146
0.0
 13
0.0
 23
0.0
 33
0.0
 16
1.0
 26
0.0
 36
0.0
 17
0.0
 27
1.0
 37
0.0
 76
     0
330
23
  0
LAYOUT
  5
22
102
{ACAD_REACTORS
330
1A
102
}
330
1A
100
AcDbPlotSettings
  1

  2
none_device
  4
Letter_(8.50_x_11.00_Inches)
  6

 40
6.35
 41
6.35
 42
6.35000508
 43
6.35000508
 44
215.9
 45
279.4
 46
0.0
 47
0.0
 48
0.0
 49
0.0
140
0.0
141
0.0
142
1.0
143
1.0
 70
  1712
 72
     1
 73
     0
 74
     0
  7

 75
     0
147
1.0
148
0.0
149
0.0
100
AcDbLayout
  1
Model
 70
     1
 71
     0
 10
0.0
 20
0.0
 11
210.0
 21
297.0
 12
0.0
 22
0.0
 32
0.0
 14
0.0
 24
0.0
 34
0.0
 15
210.0
 25
297.0
 35
0.0
146
0.0
 13
0.0
 23
0.0
 33
0.0
 16
1.0
 26
0.0
 36
0.0
 17
0.0
 27
1.0
 37
0.0
 76
     0
330
1F
331
29
  0
MLINESTYLE
  5
18
102
{ACAD_REACTORS
330
17
102
}
330
17
100
AcDbMlineStyle
  2
Standard
 70
     0
  3

 62
   256
 51
90.0
 52
90.0
 71
     2
 49
0.5
 62
   256
  6
BYLAYER
 49
-0.5
 62
   256
  6
BYLAYER
  0
ACDBPLACEHOLDER
  5
F
102
{ACAD_REACTORS
330
E
102
}
330
E
  0
SCALE
  5
48
102
{ACAD_REACTORS
330
47
102
}
330
47
100
AcDbScale
 70
     0
300
1:1
140
1.0
141
1.0
290
     1
  0
SCALE
  5
49
102
{ACAD_REACTORS
330
47
102
}
330
47
100
AcDbScale
 70
     0
300
1:2
140
1.0
141
2.0
290
     0
  0
SCALE
  5
4A
102
{ACAD_REACTORS
330
47
102
}
330
47
100
AcDbScale
 70
     0
300
1:4
140
1.0
141
4.0
290
     0
  0
SCALE
  5
4B
102
{ACAD_REACTORS
330
47
102
}
330
47
100
AcDbScale
 70
     0
300
1:5
140
1.0
141
5.0
290
     0
  0
SCALE
  5
4C
102
{ACAD_REACTORS
330
47
102
}
330
47
100
AcDbScale
 70
     0
300
1:8
140
1.0
141
8.0
290
     0
  0
SCALE
  5
4D
102
{ACAD_REACTORS
330
47
102
}
330
47
100
AcDbScale
 70
     0
300
1:10
140
1.0
141
10.0
290
     0
  0
SCALE
  5
4E
102
{ACAD_REACTORS
330
47
102
}
330
47
100
AcDbScale
 70
     0
300
1:16
140
1.0
141
16.0
290
     0
  0
SCALE
  5
4F
102
{ACAD_REACTORS
330
47
102
}
330
47
100
AcDbScale
 70
     0
300
1:20
140
1.0
141
20.0
290
     0
  0
SCALE
  5
50
102
{ACAD_REACTORS
330
47
102
}
330
47
100
AcDbScale
 70
     0
300
1:30
140
1.0
141
30.0
290
     0
  0
SCALE
  5
51
102
{ACAD_REACTORS
330
47
102
}
330
47
100
AcDbScale
 70
     0
300
1:40
140
1.0
141
40.0
290
     0
  0
SCALE
  5
52
102
{ACAD_REACTORS
330
47
102
}
330
47
100
AcDbScale
 70
     0
300
1:50
140
1.0
141
50.0
290
     0
  0
SCALE
  5
53
102
{ACAD_REACTORS
330
47
102
}
330
47
100
AcDbScale
 70
     0
300
1:100
140
1.0
141
100.0
290
     0
  0
SCALE
  5
54
102
{ACAD_REACTORS
330
47
102
}
330
47
100
AcDbScale
 70
     0
300
2:1
140
2.0
141
1.0
290
     0
  0
SCALE
  5
55
102
{ACAD_REACTORS
330
47
102
}
330
47
100
AcDbScale
 70
     0
300
4:1
140
4.0
141
1.0
290
     0
  0
SCALE
  5
56
102
{ACAD_REACTORS
330
47
102
}
330
47
100
AcDbScale
 70
     0
300
8:1
140
8.0
141
1.0
290
     0
  0
SCALE
  5
57
102
{ACAD_REACTORS
330
47
102
}
330
47
100
AcDbScale
 70
     0
300
10:1
140
10.0
141
1.0
290
     0
  0
SCALE
  5
58
102
{ACAD_REACTORS
330
47
102
}
330
47
100
AcDbScale
 70
     0
300
100:1
140
100.0
141
1.0
290
     0
  0
SCALE
  5
59
102
{ACAD_REACTORS
330
47
102
}
330
47
100
AcDbScale
 70
     0
300
1/128" = 1'-0"
140
0.0078125
141
12.0
290
     0
  0
SCALE
  5
5A
102
{ACAD_REACTORS
330
47
102
}
330
47
100
AcDbScale
 70
     0
300
1/64" = 1'-0"
140
0.015625
141
12.0
290
     0
  0
SCALE
  5
5B
102
{ACAD_REACTORS
330
47
102
}
330
47
100
AcDbScale
 70
     0
300
1/32" = 1'-0"
140
0.03125
141
12.0
290
     0
  0
SCALE
  5
5C
102
{ACAD_REACTORS
330
47
102
}
330
47
100
AcDbScale
 70
     0
300
1/16" = 1'-0"
140
0.0625
141
12.0
290
     0
  0
SCALE
  5
5D
102
{ACAD_REACTORS
330
47
102
}
330
47
100
AcDbScale
 70
     0
300
3/32" = 1'-0"
140
0.09375
141
12.0
290
     0
  0
SCALE
  5
5E
102
{ACAD_REACTORS
330
47
102
}
330
47
100
AcDbScale
 70
     0
300
1/8" = 1'-0"
140
0.125
141
12.0
290
     0
  0
SCALE
  5
5F
102
{ACAD_REACTORS
330
47
102
}
330
47
100
AcDbScale
 70
     0
300
3/16" = 1'-0"
140
0.1875
141
12.0
290
     0
  0
SCALE
  5
60
102
{ACAD_REACTORS
330
47
102
}
330
47
100
AcDbScale
 70
     0
300
1/4" = 1'-0"
140
0.25
141
12.0
290
     0
  0
SCALE
  5
61
102
{ACAD_REACTORS
330
47
102
}
330
47
100
AcDbScale
 70
     0
300
3/8" = 1'-0"
140
0.375
141
12.0
290
     0
  0
SCALE
  5
62
102
{ACAD_REACTORS
330
47
102
}
330
47
100
AcDbScale
 70
     0
300
1/2" = 1'-0"
140
0.5
141
12.0
290
     0
  0
SCALE
  5
63
102
{ACAD_REACTORS
330
47
102
}
330
47
100
AcDbScale
 70
     0
300
3/4" = 1'-0"
140
0.75
141
12.0
290
     0
  0
SCALE
  5
64
102
{ACAD_REACTORS
330
47
102
}
330
47
100
AcDbScale
 70
     0
300
1" = 1'-0"
140
1.0
141
12.0
290
     0
  0
SCALE
  5
65
102
{ACAD_REACTORS
330
47
102
}
330
47
100
AcDbScale
 70
     0
300
1-1/2" = 1'-0"
140
1.5
141
12.0
290
     0
  0
SCALE
  5
66
102
{ACAD_REACTORS
330
47
102
}
330
47
100
AcDbScale
 70
     0
300
3" = 1'-0"
140
3.0
141
12.0
290
     0
  0
SCALE
  5
67
102
{ACAD_REACTORS
330
47
102
}
330
47
100
AcDbScale
 70
     0
300
6" = 1'-0"
140
6.0
141
12.0
290
     0
  0
SCALE
  5
68
102
{ACAD_REACTORS
330
47
102
}
330
47
100
AcDbScale
 70
     0
300
1'-0" = 1'-0"
140
12.0
141
12.0
290
     0
  0
ENDSEC
  0
EOF
