  0
SECTION
  2
HEADER
  9
$ACADVER
  1
AC1032
  9
$ACADMAINTVER
 90
        4
  9
$DWGCODEPAGE
  3
ANSI_932
  9
$LASTSAVEDBY
  1
9128
  9
$REQUIREDVERSIONS
160
                 0
  9
$INSBASE
 10
0.0
 20
0.0
 30
0.0
  9
$EXTMIN
 10
0.0
 20
-0.000000000000199
 30
0.0
  9
$EXTMAX
 10
297.0000000000002
 20
210.0
 30
0.0
  9
$LIMMIN
 10
0.0
 20
0.0
  9
$LIMMAX
 10
210.0
 20
297.0
  9
$ORTHOMODE
 70
     0
  9
$REGENMODE
 70
     1
  9
$FILLMODE
 70
     1
  9
$QTEXTMODE
 70
     0
  9
$MIRRTEXT
 70
     1
  9
$LTSCALE
 40
1.0
  9
$ATTMODE
 70
     1
  9
$TEXTSIZE
 40
3.5
  9
$TRACEWID
 40
1.0
  9
$TEXTSTYLE
  7
Standard
  9
$CLAYER
  8
0
  9
$CELTYPE
  6
ByLayer
  9
$CECOLOR
 62
   256
  9
$CELTSCALE
 40
1.0
  9
$DISPSILH
 70
     0
  9
$DIMSCALE
 40
1.0
  9
$DIMASZ
 40
1.5
  9
$DIMEXO
 40
1.0
  9
$DIMDLI
 40
3.75
  9
$DIMRND
 40
0.0
  9
$DIMDLE
 40
0.0
  9
$DIMEXE
 40
1.0
  9
$DIMTP
 40
0.0
  9
$DIMTM
 40
0.0
  9
$DIMTXT
 40
3.5
  9
$DIMCEN
 40
2.5
  9
$DIMTSZ
 40
0.0
  9
$DIMTOL
 70
     0
  9
$DIMLIM
 70
     0
  9
$DIMTIH
 70
     1
  9
$DIMTOH
 70
     1
  9
$DIMSE1
 70
     0
  9
$DIMSE2
 70
     0
  9
$DIMTAD
 70
     1
  9
$DIMZIN
 70
     0
  9
$DIMBLK
  1

  9
$DIMASO
 70
     1
  9
$DIMSHO
 70
     1
  9
$DIMPOST
  1

  9
$DIMAPOST
  1

  9
$DIMALT
 70
     0
  9
$DIMALTD
 70
     3
  9
$DIMALTF
 40
0.0393700787401575
  9
$DIMLFAC
 40
100.0
  9
$DIMTOFL
 70
     1
  9
$DIMTVP
 40
0.0
  9
$DIMTIX
 70
     0
  9
$DIMSOXD
 70
     0
  9
$DIMSAH
 70
     0
  9
$DIMBLK1
  1

  9
$DIMBLK2
  1

  9
$DIMSTYLE
  2
ISO-25
  9
$DIMCLRD
 70
     0
  9
$DIMCLRE
 70
     0
  9
$DIMCLRT
 70
     0
  9
$DIMTFAC
 40
1.0
  9
$DIMGAP
 40
1.5
  9
$DIMJUST
 70
     0
  9
$DIMSD1
 70
     0
  9
$DIMSD2
 70
     0
  9
$DIMTOLJ
 70
     0
  9
$DIMTZIN
 70
     0
  9
$DIMALTZ
 70
     0
  9
$DIMALTTZ
 70
     0
  9
$DIMUPT
 70
     0
  9
$DIMDEC
 70
     1
  9
$DIMTDEC
 70
     1
  9
$DIMALTU
 70
     2
  9
$DIMALTTD
 70
     3
  9
$DIMTXSTY
  7
Standard
  9
$DIMAUNIT
 70
     0
  9
$DIMADEC
 70
     2
  9
$DIMALTRND
 40
0.0
  9
$DIMAZIN
 70
     0
  9
$DIMDSEP
 70
    44
  9
$DIMATFIT
 70
     3
  9
$DIMFRAC
 70
     0
  9
$DIMLDRBLK
  1

  9
$DIMLUNIT
 70
     2
  9
$DIMLWD
 70
    -2
  9
$DIMLWE
 70
    -2
  9
$DIMTMOVE
 70
     0
  9
$DIMFXL
 40
1.0
  9
$DIMFXLON
 70
     0
  9
$DIMJOGANG
 40
0.7853981633974483
  9
$DIMTFILL
 70
     0
  9
$DIMTFILLCLR
 70
     0
  9
$DIMARCSYM
 70
     0
  9
$DIMLTYPE
  6

  9
$DIMLTEX1
  6

  9
$DIMLTEX2
  6

  9
$DIMTXTDIRECTION
 70
     0
  9
$LUNITS
 70
     2
  9
$LUPREC
 70
     2
  9
$SKETCHINC
 40
1.0
  9
$FILLETRAD
 40
10.0
  9
$AUNITS
 70
     0
  9
$AUPREC
 70
     2
  9
$MENU
  1
.
  9
$ELEVATION
 40
0.0
  9
$PELEVATION
 40
0.0
  9
$THICKNESS
 40
0.0
  9
$LIMCHECK
 70
     0
  9
$CHAMFERA
 40
0.0
  9
$CHAMFERB
 40
0.0
  9
$CHAMFERC
 40
0.0
  9
$CHAMFERD
 40
0.0
  9
$SKPOLY
 70
     0
  9
$TDCREATE
 40
2459628.482298993
  9
$TDUCREATE
 40
2459628.107298993
  9
$TDUPDATE
 40
2459635.725258148
  9
$TDUUPDATE
 40
2459635.350258148
  9
$TDINDWG
 40
0.0086601505
  9
$TDUSRTIMER
 40
0.0000729514
  9
$USRTIMER
 70
     1
  9
$ANGBASE
 50
0.0
  9
$ANGDIR
 70
     0
  9
$PDMODE
 70
     0
  9
$PDSIZE
 40
-1.0
  9
$PLINEWID
 40
0.0
  9
$SPLFRAME
 70
     0
  9
$SPLINETYPE
 70
     6
  9
$SPLINESEGS
 70
     8
  9
$HANDSEED
  5
535
  9
$SURFTAB1
 70
     6
  9
$SURFTAB2
 70
     6
  9
$SURFTYPE
 70
     6
  9
$SURFU
 70
     6
  9
$SURFV
 70
     6
  9
$UCSBASE
  2

  9
$UCSNAME
  2

  9
$UCSORG
 10
0.0
 20
0.0
 30
0.0
  9
$UCSXDIR
 10
1.0
 20
0.0
 30
0.0
  9
$UCSYDIR
 10
0.0
 20
1.0
 30
0.0
  9
$UCSORTHOREF
  2

  9
$UCSORTHOVIEW
 70
     0
  9
$UCSORGTOP
 10
0.0
 20
0.0
 30
0.0
  9
$UCSORGBOTTOM
 10
0.0
 20
0.0
 30
0.0
  9
$UCSORGLEFT
 10
0.0
 20
0.0
 30
0.0
  9
$UCSORGRIGHT
 10
0.0
 20
0.0
 30
0.0
  9
$UCSORGFRONT
 10
0.0
 20
0.0
 30
0.0
  9
$UCSORGBACK
 10
0.0
 20
0.0
 30
0.0
  9
$PUCSBASE
  2

  9
$PUCSNAME
  2

  9
$PUCSORG
 10
0.0
 20
0.0
 30
0.0
  9
$PUCSXDIR
 10
1.0
 20
0.0
 30
0.0
  9
$PUCSYDIR
 10
0.0
 20
1.0
 30
0.0
  9
$PUCSORTHOREF
  2

  9
$PUCSORTHOVIEW
 70
     0
  9
$PUCSORGTOP
 10
0.0
 20
0.0
 30
0.0
  9
$PUCSORGBOTTOM
 10
0.0
 20
0.0
 30
0.0
  9
$PUCSORGLEFT
 10
0.0
 20
0.0
 30
0.0
  9
$PUCSORGRIGHT
 10
0.0
 20
0.0
 30
0.0
  9
$PUCSORGFRONT
 10
0.0
 20
0.0
 30
0.0
  9
$PUCSORGBACK
 10
0.0
 20
0.0
 30
0.0
  9
$USERI1
 70
     0
  9
$USERI2
 70
     0
  9
$USERI3
 70
     0
  9
$USERI4
 70
     0
  9
$USERI5
 70
     0
  9
$USERR1
 40
0.0
  9
$USERR2
 40
0.0
  9
$USERR3
 40
0.0
  9
$USERR4
 40
0.0
  9
$USERR5
 40
0.0
  9
$WORLDVIEW
 70
     1
  9
$SHADEDGE
 70
     3
  9
$SHADEDIF
 70
    70
  9
$TILEMODE
 70
     1
  9
$MAXACTVP
 70
    64
  9
$PINSBASE
 10
0.0
 20
0.0
 30
0.0
  9
$PLIMCHECK
 70
     0
  9
$PEXTMIN
 10
1.000000000000000E+20
 20
1.000000000000000E+20
 30
1.000000000000000E+20
  9
$PEXTMAX
 10
-1.000000000000000E+20
 20
-1.000000000000000E+20
 30
-1.000000000000000E+20
  9
$PLIMMIN
 10
0.0
 20
0.0
  9
$PLIMMAX
 10
0.0
 20
0.0
  9
$UNITMODE
 70
     0
  9
$VISRETAIN
 70
     1
  9
$PLINEGEN
 70
     0
  9
$PSLTSCALE
 70
     1
  9
$TREEDEPTH
 70
  3020
  9
$CMLSTYLE
  2
Standard
  9
$CMLJUST
 70
     0
  9
$CMLSCALE
 40
20.0
  9
$PROXYGRAPHICS
 70
     1
  9
$MEASUREMENT
 70
     1
  9
$CELWEIGHT
370
    -1
  9
$ENDCAPS
280
     0
  9
$JOINSTYLE
280
     0
  9
$LWDISPLAY
290
     1
  9
$INSUNITS
 70
     4
  9
$HYPERLINKBASE
  1

  9
$STYLESHEET
  1

  9
$XEDIT
290
     1
  9
$CEPSNTYPE
380
     0
  9
$PSTYLEMODE
290
     1
  9
$FINGERPRINTGUID
  2
{e31a748c-1e15-4797-9d48-411dca69ee53}
  9
$VERSIONGUID
  2
{FAEB1C32-E019-11D5-929B-00C0DF256EC4}
  9
$EXTNAMES
290
     1
  9
$PSVPSCALE
 40
0.0
  9
$OLESTARTUP
290
     0
  9
$SORTENTS
280
   127
  9
$INDEXCTL
280
     0
  9
$HIDETEXT
280
     1
  9
$XCLIPFRAME
280
     2
  9
$HALOGAP
280
     0
  9
$OBSCOLOR
 70
   257
  9
$OBSLTYPE
280
     0
  9
$INTERSECTIONDISPLAY
280
     0
  9
$INTERSECTIONCOLOR
 70
   257
  9
$DIMASSOC
280
     2
  9
$PROJECTNAME
  1

  9
$CAMERADISPLAY
290
     0
  9
$LENSLENGTH
 40
50.0
  9
$CAMERAHEIGHT
 40
0.0
  9
$STEPSPERSEC
 40
2.0
  9
$STEPSIZE
 40
6.0
  9
$3DDWFPREC
 40
2.0
  9
$PSOLWIDTH
 40
0.25
  9
$PSOLHEIGHT
 40
4.0
  9
$LOFTANG1
 40
1.570796326794897
  9
$LOFTANG2
 40
1.570796326794897
  9
$LOFTMAG1
 40
0.0
  9
$LOFTMAG2
 40
0.0
  9
$LOFTPARAM
 70
     7
  9
$LOFTNORMALS
280
     1
  9
$LATITUDE
 40
37.795
  9
$LONGITUDE
 40
-122.394
  9
$NORTHDIRECTION
 40
0.0
  9
$TIMEZONE
 70
 -8000
  9
$LIGHTGLYPHDISPLAY
280
     1
  9
$TILEMODELIGHTSYNCH
280
     1
  9
$SOLIDHIST
280
     0
  9
$SHOWHIST
280
     1
  9
$DWFFRAME
280
     2
  9
$DGNFRAME
280
     2
  9
$REALWORLDSCALE
290
     1
  9
$INTERFERECOLOR
 62
   256
  9
$CSHADOW
280
     0
  9
$SHADOWPLANELOCATION
 40
0.0
  0
ENDSEC
  0
SECTION
  2
CLASSES
  0
CLASS
  1
ACDBDICTIONARYWDFLT
  2
AcDbDictionaryWithDefault
  3
ObjectDBX Classes
 90
        0
 91
        3
280
     0
281
     0
  0
CLASS
  1
VISUALSTYLE
  2
AcDbVisualStyle
  3
ObjectDBX Classes
 90
     4095
 91
        3
280
     0
281
     0
  0
CLASS
  1
MATERIAL
  2
AcDbMaterial
  3
ObjectDBX Classes
 90
     1153
 91
        3
280
     0
281
     0
  0
CLASS
  1
SCALE
  2
AcDbScale
  3
ObjectDBX Classes
 90
     1153
 91
        3
280
     0
281
     0
  0
CLASS
  1
TABLESTYLE
  2
AcDbTableStyle
  3
ObjectDBX Classes
 90
     4095
 91
        3
280
     0
281
     0
  0
CLASS
  1
MLEADERSTYLE
  2
AcDbMLeaderStyle
  3
ACDB_MLEADERSTYLE_CLASS
 90
     4095
 91
        3
280
     0
281
     0
  0
CLASS
  1
SUN
  2
AcDbSun
  3
SCENEOE
 90
     1153
 91
        3
280
     0
281
     0
  0
CLASS
  1
ACDBPLACEHOLDER
  2
AcDbPlaceHolder
  3
ObjectDBX Classes
 90
        0
 91
        1
280
     0
281
     0
  0
CLASS
  1
LAYOUT
  2
AcDbLayout
  3
ObjectDBX Classes
 90
        0
 91
        1
280
     0
281
     0
  0
CLASS
  1
DICTIONARYVAR
  2
AcDbDictionaryVar
  3
ObjectDBX Classes
 90
        0
 91
        3
280
     0
281
     0
  0
CLASS
  1
CELLSTYLEMAP
  2
AcDbCellStyleMap
  3
ObjectDBX Classes
 90
     1152
 91
        3
280
     0
281
     0
  0
ENDSEC
  0
SECTION
  2
TABLES
  0
TABLE
  2
VPORT
  5
8
330
0
100
AcDbSymbolTable
 70
     1
  0
VPORT
  5
29
330
8
100
AcDbSymbolTableRecord
100
AcDbViewportTableRecord
  2
*Active
 70
     0
 10
0.0
 20
0.0
 11
1.0
 21
1.0
 12
177.9563981713466
 22
57.69400549190104
 13
0.0
 23
0.0
 14
10.0
 24
10.0
 15
10.0
 25
10.0
 16
0.0
 26
0.0
 36
1.0
 17
0.0
 27
0.0
 37
0.0
 40
380.6725888324864
 41
2.232294617563739
 42
50.0
 43
0.0
 44
0.0
 50
0.0
 51
0.0
 71
    16
 72
  2000
 73
     1
 74
     3
 75
     0
 76
     0
 77
     0
 78
     0
281
     0
 65
     1
110
0.0
120
0.0
130
0.0
111
1.0
121
0.0
131
0.0
112
0.0
122
1.0
132
0.0
 79
     0
146
0.0
348
184
 60
     3
 61
     5
292
     1
282
     1
141
0.0
142
0.0
 63
   256
361
1B6
  0
ENDTAB
  0
TABLE
  2
LTYPE
  5
5
330
0
100
AcDbSymbolTable
 70
     6
  0
LTYPE
  5
14
330
5
100
AcDbSymbolTableRecord
100
AcDbLinetypeTableRecord
  2
ByBlock
 70
     0
  3

 72
    65
 73
     0
 40
0.0
  0
LTYPE
  5
15
330
5
100
AcDbSymbolTableRecord
100
AcDbLinetypeTableRecord
  2
ByLayer
 70
     0
  3

 72
    65
 73
     0
 40
0.0
  0
LTYPE
  5
16
330
5
100
AcDbSymbolTableRecord
100
AcDbLinetypeTableRecord
  2
Continuous
 70
     0
  3
Solid line
 72
    65
 73
     0
 40
0.0
  0
LTYPE
  5
6E
330
5
100
AcDbSymbolTableRecord
100
AcDbLinetypeTableRecord
  2
HIDDEN
 70
     0
  3
Hidden __ __ __ __ __ __ __ __ __ __ __ __ __ __
 72
    65
 73
     2
 40
1.905
 49
1.27
 74
     0
 49
-0.635
 74
     0
  0
LTYPE
  5
6F
330
5
100
AcDbSymbolTableRecord
100
AcDbLinetypeTableRecord
  2
PHANTOM
 70
     0
  3
Phantom ______  __  __  ______  __  __  ______
 72
    65
 73
     6
 40
12.7
 49
6.35
 74
     0
 49
-1.27
 74
     0
 49
1.27
 74
     0
 49
-1.27
 74
     0
 49
1.27
 74
     0
 49
-1.27
 74
     0
  0
LTYPE
  5
70
330
5
100
AcDbSymbolTableRecord
100
AcDbLinetypeTableRecord
  2
CENTER
 70
     0
  3
Center ____ _ ____ _ ____ _ ____ _ ____ _ ____
 72
    65
 73
     4
 40
10.16
 49
6.35
 74
     0
 49
-1.27
 74
     0
 49
1.27
 74
     0
 49
-1.27
 74
     0
  0
LTYPE
  5
71
330
5
100
AcDbSymbolTableRecord
100
AcDbLinetypeTableRecord
  2
CENTERX2
 70
     0
  3
Center (2x) ________  __  ________  __  _____
 72
    65
 73
     4
 40
20.32
 49
12.7
 74
     0
 49
-2.54
 74
     0
 49
2.54
 74
     0
 49
-2.54
 74
     0
  0
LTYPE
  5
72
330
5
100
AcDbSymbolTableRecord
100
AcDbLinetypeTableRecord
  2
DOT2
 70
     0
  3
Dot (.5x) ........................................
 72
    65
 73
     2
 40
0.635
 49
0.0
 74
     0
 49
-0.635
 74
     0
  0
ENDTAB
  0
TABLE
  2
LAYER
  5
2
102
{ACAD_XDICTIONARY
360
501
102
}
330
0
100
AcDbSymbolTable
 70
     2
  0
LAYER
  5
10
330
2
100
AcDbSymbolTableRecord
100
AcDbLayerTableRecord
  2
0
 70
     0
 62
     7
  6
Continuous
370
    -3
390
F
347
19B
348
0
  0
LAYER
  5
73
330
2
100
AcDbSymbolTableRecord
100
AcDbLayerTableRecord
  2
FORMAT
 70
     0
 62
    -7
  6
Continuous
370
    -3
390
F
347
19B
348
0
  0
ENDTAB
  0
TABLE
  2
STYLE
  5
3
330
0
100
AcDbSymbolTable
 70
     2
  0
STYLE
  5
11
330
3
100
AcDbSymbolTableRecord
100
AcDbTextStyleTableRecord
  2
Standard
 70
     0
 40
0.0
 41
1.0
 50
0.0
 71
     0
 42
3.5
  3
txt
  4
bigfont
  0
STYLE
  5
4DD
330
3
100
AcDbSymbolTableRecord
100
AcDbTextStyleTableRecord
  2
Arial
 70
     0
 40
0.0
 41
1.0
 50
0.0
 71
     0
 42
3.5
  3
Arial
  4

1001
ACAD
1000
Arial
1071
        0
  0
ENDTAB
  0
TABLE
  2
VIEW
  5
6
330
0
100
AcDbSymbolTable
 70
     0
  0
ENDTAB
  0
TABLE
  2
UCS
  5
7
330
0
100
AcDbSymbolTable
 70
     0
  0
ENDTAB
  0
TABLE
  2
APPID
  5
9
330
0
100
AcDbSymbolTable
 70
     2
  0
APPID
  5
12
330
9
100
AcDbSymbolTableRecord
100
AcDbRegAppTableRecord
  2
ACAD
 70
     0
  0
APPID
  5
4FE
330
9
100
AcDbSymbolTableRecord
100
AcDbRegAppTableRecord
  2
PLOTTRANSPARENCY
 70
     0
  0
ENDTAB
  0
TABLE
  2
DIMSTYLE
  5
A
330
0
100
AcDbSymbolTable
 70
     2
100
AcDbDimStyleTable
  0
DIMSTYLE
105
27
330
A
100
AcDbSymbolTableRecord
100
AcDbDimStyleTableRecord
  2
ISO-25
 70
     0
 41
2.5
 42
0.625
 43
3.75
 44
1.25
 73
     0
 74
     0
 77
     1
 78
     8
140
2.5
141
2.5
143
0.03937007874016
147
0.625
171
     3
172
     1
178
     0
271
     2
272
     2
274
     3
278
    44
283
     0
284
     8
340
11
  0
DIMSTYLE
105
4DC
330
A
100
AcDbSymbolTableRecord
100
AcDbDimStyleTableRecord
  2
Standard
 70
     0
178
     0
340
11
  0
ENDTAB
  0
TABLE
  2
BLOCK_RECORD
  5
1
330
0
100
AcDbSymbolTable
 70
     2
  0
BLOCK_RECORD
  5
1F
330
1
100
AcDbSymbolTableRecord
100
AcDbBlockTableRecord
  2
*Model_Space
340
22
 70
     0
280
     1
281
     0
  0
BLOCK_RECORD
  5
1B
330
1
100
AcDbSymbolTableRecord
100
AcDbBlockTableRecord
  2
*Paper_Space
340
1E
 70
     0
280
     1
281
     0
  0
BLOCK_RECORD
  5
23
330
1
100
AcDbSymbolTableRecord
100
AcDbBlockTableRecord
  2
*Paper_Space0
340
26
 70
     0
280
     1
281
     0
  0
BLOCK_RECORD
  5
74
330
1
100
AcDbSymbolTableRecord
100
AcDbBlockTableRecord
  2
SW_BROKEN_VIEW_0
340
0
102
{BLKREFS
331
77
102
}
 70
     0
280
     1
281
     0
  0
ENDTAB
  0
ENDSEC
  0
SECTION
  2
BLOCKS
  0
BLOCK
  5
20
330
1F
100
AcDbEntity
  8
0
100
AcDbBlockBegin
  2
*Model_Space
 70
     0
 10
0.0
 20
0.0
 30
0.0
  3
*Model_Space
  1

  0
ENDBLK
  5
21
330
1F
100
AcDbEntity
  8
0
100
AcDbBlockEnd
  0
BLOCK
  5
1C
330
1B
100
AcDbEntity
 67
     1
  8
0
100
AcDbBlockBegin
  2
*Paper_Space
 70
     0
 10
0.0
 20
0.0
 30
0.0
  3
*Paper_Space
  1

  0
ENDBLK
  5
1D
330
1B
100
AcDbEntity
 67
     1
  8
0
100
AcDbBlockEnd
  0
BLOCK
  5
24
330
23
100
AcDbEntity
  8
0
100
AcDbBlockBegin
  2
*Paper_Space0
 70
     0
 10
0.0
 20
0.0
 30
0.0
  3
*Paper_Space0
  1

  0
ENDBLK
  5
25
330
23
100
AcDbEntity
  8
0
100
AcDbBlockEnd
  0
BLOCK
  5
75
330
74
100
AcDbEntity
  8
0
100
AcDbBlockBegin
  2
SW_BROKEN_VIEW_0
 70
     0
 10
0.0
 20
0.0
 30
0.0
  3
SW_BROKEN_VIEW_0
  1

  0
ENDBLK
  5
76
330
74
100
AcDbEntity
  8
0
100
AcDbBlockEnd
  0
ENDSEC
  0
SECTION
  2
ENTITIES
  0
INSERT
  5
77
330
1F
100
AcDbEntity
  8
0
  6
Continuous
 62
     7
100
AcDbBlockReference
  2
SW_BROKEN_VIEW_0
 10
0.0
 20
0.0
 30
0.0
  0
LINE
  5
78
330
1F
100
AcDbEntity
  8
0
  6
Continuous
 62
     0
370
     0
100
AcDbLine
 10
264.5803763753812
 20
120.0196075992244
 30
0.0
 11
266.2691225892942
 21
120.2719563798564
 31
0.0
  0
LINE
  5
79
330
1F
100
AcDbEntity
  8
0
  6
Continuous
 62
     0
370
     0
100
AcDbLine
 10
266.2402977830808
 20
120.4648152546543
 30
0.0
 11
264.5515515691678
 21
120.2124664740222
 31
0.0
  0
LINE
  5
7A
330
1F
100
AcDbEntity
  8
0
  6
Continuous
 62
     0
370
     0
100
AcDbLine
 10
266.2511613256376
 20
120.4639067308563
 30
0.0
 11
266.2691225892942
 21
120.4665916220802
 31
0.0
  0
LINE
  5
7B
330
1F
100
AcDbEntity
  8
0
  6
Continuous
 62
     0
370
     0
100
AcDbLine
 10
266.2402977830808
 20
120.659450496878
 30
0.0
 11
264.5515515691678
 21
120.407101716246
 31
0.0
  0
LINE
  5
7C
330
1F
100
AcDbEntity
  8
0
  6
Continuous
 62
     0
370
     0
100
AcDbLine
 10
262.5863506681363
 20
119.6710889594215
 30
0.0
 11
264.6019794828336
 21
119.9722810642379
 31
0.0
  0
LINE
  5
7D
330
1F
100
AcDbEntity
  8
0
  6
Continuous
 62
     0
370
     0
100
AcDbLine
 10
264.5299329645078
 20
120.4544282512325
 30
0.0
 11
262.4140682107846
 21
120.1382561580795
 31
0.0
  0
LWPOLYLINE
  5
7E
330
1F
100
AcDbEntity
  8
0
  6
Continuous
 62
     0
370
     0
100
AcDbPolyline
 90
       17
 70
   128
 43
0.0
 10
266.209675300781
 20
120.4246174351829
 10
266.205955970947
 20
120.3902407543319
 10
266.209675300781
 20
120.3525360481399
 10
266.2202443963926
 20
120.3172450320381
 10
266.236051548187
 20
120.2897413627761
 10
266.2547101861875
 20
120.2742092864173
 10
266.273368824188
 20
120.273014064278
 10
266.2891759759824
 20
120.2863397256988
 10
266.299745071594
 20
120.3121561364787
 10
266.303464401428
 20
120.3465328173297
 10
266.299745071594
 20
120.3842355863708
 10
266.2891759759824
 20
120.4195266024726
 10
266.273368824188
 20
120.4470322088855
 10
266.2547101861875
 20
120.4625642852443
 10
266.236051548187
 20
120.4637575702327
 10
266.2202443963926
 20
120.4504338459628
 10
266.209675300781
 20
120.4246174351829
  0
LWPOLYLINE
  5
7F
330
1F
100
AcDbEntity
  8
0
  6
Continuous
 62
     0
370
     0
100
AcDbPolyline
 90
        6
 70
   128
 43
0.0
 10
264.517209757034
 20
120.1378919736999
 10
264.520929086868
 20
120.1001872675079
 10
264.5314981824796
 20
120.064896251406
 10
264.547305334274
 20
120.0373925821441
 10
264.5659639722745
 20
120.0218605057853
 10
264.5803763753812
 20
120.0196075992244
  0
LWPOLYLINE
  5
80
330
1F
100
AcDbEntity
  8
0
  6
Continuous
 62
     0
370
     0
100
AcDbPolyline
 90
        5
 70
   128
 43
0.0
 10
264.5515515691678
 20
120.2124664740222
 10
264.547305334274
 20
120.2114107267517
 10
264.5314981824796
 20
120.1980850653308
 10
264.520929086868
 20
120.1722686545509
 10
264.517209757034
 20
120.1378919736999
  0
LWPOLYLINE
  5
81
330
1F
100
AcDbEntity
  8
0
  6
Continuous
 62
     0
370
     0
100
AcDbPolyline
 90
        6
 70
   128
 43
0.0
 10
264.517209757034
 20
120.3325252787727
 10
264.520929086868
 20
120.2948225097316
 10
264.5314981824796
 20
120.2595314936298
 10
264.547305334274
 20
120.2320258872169
 10
264.5659639722745
 20
120.2164938108581
 10
264.5695128328244
 20
120.2151513652461
  0
LWPOLYLINE
  5
82
330
1F
100
AcDbEntity
  8
0
  6
Continuous
 62
     0
370
     0
100
AcDbPolyline
 90
        5
 70
   128
 43
0.0
 10
264.5515515691678
 20
120.407101716246
 10
264.547305334274
 20
120.4060440318244
 10
264.5314981824796
 20
120.3927183704036
 10
264.520929086868
 20
120.3669019596237
 10
264.517209757034
 20
120.3325252787727
  0
LWPOLYLINE
  5
83
330
1F
100
AcDbEntity
  8
0
  6
Continuous
 62
     0
370
     0
100
AcDbPolyline
 90
       17
 70
   128
 43
0.0
 10
266.209675300781
 20
120.6192507402557
 10
266.205955970947
 20
120.5848740594047
 10
266.209675300781
 20
120.5471712903636
 10
266.2202443963926
 20
120.5118802742618
 10
266.236051548187
 20
120.4843746678489
 10
266.2547101861875
 20
120.4688425914901
 10
266.273368824188
 20
120.4676493065017
 10
266.2891759759824
 20
120.4809730307716
 10
266.299745071594
 20
120.5067894415515
 10
266.303464401428
 20
120.5411661224025
 10
266.299745071594
 20
120.5788708285945
 10
266.2891759759824
 20
120.6141618446964
 10
266.273368824188
 20
120.6416655139583
 10
266.2547101861875
 20
120.6571975903171
 10
266.236051548187
 20
120.6583928124565
 10
266.2202443963926
 20
120.6450671510356
 10
266.209675300781
 20
120.6192507402557
  0
LWPOLYLINE
  5
84
330
1F
100
AcDbEntity
  8
0
  6
Continuous
 62
     0
370
     0
100
AcDbPolyline
 90
       10
 70
   128
 43
0.0
 10
264.444093931381
 20
120.2679890947002
 10
264.4500448591153
 20
120.1925603108066
 10
264.4673707372586
 20
120.119165535416
 10
264.4943203813474
 20
120.0549896614211
 10
264.5283057577054
 20
120.0063168065208
 10
264.5659639722745
 20
119.9779104249137
 10
264.6036221868436
 20
119.9725503282207
 10
264.637592065994
 20
119.9907634215015
 10
264.6645572072904
 20
120.0307636515754
 10
264.6652390844266
 20
120.0322901265281
  0
LWPOLYLINE
  5
85
330
1F
100
AcDbEntity
  8
0
  6
Continuous
 62
     0
370
     0
100
AcDbPolyline
 90
        8
 70
   128
 43
0.0
 10
264.6079769021909
 20
120.415532197203
 10
264.6036221868436
 20
120.4203925089496
 10
264.5659639722745
 20
120.4487988905567
 10
264.5283057577054
 20
120.4541589872497
 10
264.4943203813474
 20
120.4359478311199
 10
264.4673707372586
 20
120.395945663895
 10
264.4500448591153
 20
120.3380713419574
 10
264.444093931381
 20
120.2679890947002
  0
LINE
  5
86
330
1F
100
AcDbEntity
  8
0
  6
Continuous
 62
     0
370
     0
100
AcDbLine
 10
249.8831672563693
 20
117.9713579271027
 30
0.0
 11
250.7275481119296
 21
118.0975323174187
 31
0.0
  0
LINE
  5
87
330
1F
100
AcDbEntity
  8
0
  6
Continuous
 62
     0
370
     0
100
AcDbLine
 10
250.70037375833
 20
118.7830648575017
 30
0.0
 11
249.8560006513735
 21
118.6568904671856
 31
0.0
  0
LINE
  5
88
330
1F
100
AcDbEntity
  8
0
  6
Continuous
 62
     0
370
     0
100
AcDbLine
 10
206.8200535669466
 20
111.5364698324391
 30
0.0
 11
207.6644344225069
 21
111.6626442227551
 31
0.0
  0
LINE
  5
89
330
1F
100
AcDbEntity
  8
0
  6
Continuous
 62
     0
370
     0
100
AcDbLine
 10
207.6372678175112
 20
112.348176762838
 30
0.0
 11
206.7928869619509
 21
112.222002372522
 31
0.0
  0
LINE
  5
8A
330
1F
100
AcDbEntity
  8
0
  6
Continuous
 62
     0
370
     0
100
AcDbLine
 10
200.722351778998
 20
110.3652083132454
 30
0.0
 11
257.0140058889529
 21
118.7768272314259
 31
0.0
  0
LINE
  5
8B
330
1F
100
AcDbEntity
  8
0
  6
Continuous
 62
     0
370
     0
100
AcDbLine
 10
257.2565371885439
 20
119.0489620719143
 30
0.0
 11
257.3007119789263
 21
119.0555619452187
 31
0.0
  0
LINE
  5
8C
330
1F
100
AcDbEntity
  8
0
  6
Continuous
 62
     0
370
     0
100
AcDbLine
 10
258.2884497537752
 20
119.0288544449994
 30
0.0
 11
262.0582384958407
 21
119.5921701941678
 31
0.0
  0
LINE
  5
8D
330
1F
100
AcDbEntity
  8
0
  6
Continuous
 62
     0
370
     0
100
AcDbLine
 10
261.8859405412813
 20
120.0593383614012
 30
0.0
 11
258.2164032354494
 21
119.5110016319939
 31
0.0
  0
LINE
  5
8E
330
1F
100
AcDbEntity
  8
0
  6
Continuous
 62
     0
370
     0
100
AcDbLine
 10
258.1358100071093
 20
119.2537692938038
 30
0.0
 11
257.9978693618914
 21
119.2331560704896
 31
0.0
  0
LINE
  5
8F
330
1F
100
AcDbEntity
  8
0
  6
Continuous
 62
     0
370
     0
100
AcDbLine
 10
258.0266864195009
 20
119.0402971956917
 30
0.0
 11
258.210413564696
 21
119.0677504990288
 31
0.0
  0
LINE
  5
90
330
1F
100
AcDbEntity
  8
0
  6
Continuous
 62
     0
370
     0
100
AcDbLine
 10
258.1531436338564
 20
119.4509925697037
 30
0.0
 11
257.9978693618914
 21
119.4277893755623
 31
0.0
  0
SPLINE
  5
91
330
1F
100
AcDbEntity
  8
0
  6
Continuous
 62
     0
370
     0
100
AcDbSpline
210
0.0
220
0.0
230
1.0
 70
     8
 71
     3
 72
     9
 73
     5
 74
     0
 42
0.000000001
 43
0.00000001
 40
0.0
 40
0.0
 40
0.0
 40
0.0
 40
0.4666076649083276
 40
1.0
 40
1.0
 40
1.0
 40
1.0
 10
257.9738796844622
 20
119.0236415717789
 30
0.0
 10
257.9817888486023
 20
119.0271798610062
 30
0.0
 10
257.9987392005467
 20
119.0347628680877
 30
0.0
 10
258.0169649463749
 20
119.0383720732972
 30
0.0
 10
258.0266864195009
 20
119.0402971956917
 30
0.0
  0
SPLINE
  5
92
330
1F
100
AcDbEntity
  8
0
  6
Continuous
 62
     0
370
     0
100
AcDbSpline
210
0.0
220
0.0
230
1.0
 70
     8
 71
     3
 72
     9
 73
     5
 74
     0
 42
0.000000001
 43
0.00000001
 40
0.0
 40
0.0
 40
0.0
 40
0.0
 40
0.4485320013347194
 40
1.0
 40
1.0
 40
1.0
 40
1.0
 10
257.9978693618914
 20
119.2331560704896
 30
0.0
 10
257.9809972222491
 20
119.2299966027906
 30
0.0
 10
257.9433808657973
 20
119.2229525843269
 30
0.0
 10
257.9082806422199
 20
119.2076177040905
 30
0.0
 10
257.8889239921709
 20
119.1991610083767
 30
0.0
  0
LINE
  5
93
330
1F
100
AcDbEntity
  8
0
  6
Continuous
 62
     0
370
     0
100
AcDbLine
 10
257.8889239921709
 20
119.1991610083767
 30
0.0
 11
257.686600197806
 21
119.1012283418366
 31
0.0
  0
LINE
  5
94
330
1F
100
AcDbEntity
  8
0
  6
Continuous
 62
     0
370
     0
100
AcDbLine
 10
257.7715558900973
 20
118.9257089052388
 30
0.0
 11
257.9738796844622
 21
119.0236415717789
 31
0.0
  0
SPLINE
  5
95
330
1F
100
AcDbEntity
  8
0
  6
Continuous
 62
     0
370
     0
100
AcDbSpline
210
0.0
220
0.0
230
1.0
 70
     8
 71
     3
 72
     9
 73
     5
 74
     0
 42
0.000000001
 43
0.00000001
 40
0.0
 40
0.0
 40
0.0
 40
0.0
 40
0.6703337560550774
 40
1.0
 40
1.0
 40
1.0
 40
1.0
 10
257.9136497869631
 20
119.2366448793599
 30
0.0
 10
257.9305194476401
 20
119.2338916130239
 30
0.0
 10
257.9556855093587
 20
119.2297843063113
 30
0.0
 10
257.981000424649
 20
119.2319835667054
 30
0.0
 10
257.9893458976885
 20
119.2327085886189
 30
0.0
  0
SPLINE
  5
96
330
1F
100
AcDbEntity
  8
0
  6
Continuous
 62
     0
370
     0
100
AcDbSpline
210
0.0
220
0.0
230
1.0
 70
     8
 71
     3
 72
     9
 73
     5
 74
     0
 42
0.000000001
 43
0.00000001
 40
0.0
 40
0.0
 40
0.0
 40
0.0
 40
0.4640339019875435
 40
0.9999999999999999
 40
0.9999999999999999
 40
0.9999999999999999
 40
0.9999999999999999
 10
257.9978693618914
 20
119.4277893755623
 30
0.0
 10
257.9903281603119
 20
119.4269214606618
 30
0.0
 10
257.9740767581037
 20
119.4250510910685
 30
0.0
 10
257.9578505741625
 20
119.4272210542216
 30
0.0
 10
257.94915388967
 20
119.4283840809056
 30
0.0
  0
LINE
  5
97
330
1F
100
AcDbEntity
  8
0
  6
Continuous
 62
     0
370
     0
100
AcDbLine
 10
257.94915388967
 20
119.4283840809056
 30
0.0
 11
257.7468300953051
 21
119.4658505175301
 31
0.0
  0
LINE
  5
98
330
1F
100
AcDbEntity
  8
0
  6
Continuous
 62
     0
370
     0
100
AcDbLine
 10
257.7113259925982
 20
119.2741093788334
 30
0.0
 11
257.9136497869631
 21
119.2366448793599
 31
0.0
  0
SPLINE
  5
99
330
1F
100
AcDbEntity
  8
0
  6
Continuous
 62
     0
370
     0
100
AcDbSpline
210
0.0
220
0.0
230
1.0
 70
     8
 71
     3
 72
     9
 73
     5
 74
     0
 42
0.000000001
 43
0.00000001
 40
0.0
 40
0.0
 40
0.0
 40
0.0
 40
0.4485347495165415
 40
1.0
 40
1.0
 40
1.0
 40
1.0
 10
257.6626105203768
 20
118.8917157802769
 30
0.0
 10
257.6794826213073
 20
118.8948753469181
 30
0.0
 10
257.7170986609759
 20
118.9019195428127
 30
0.0
 10
257.752199175863
 20
118.9172530234811
 30
0.0
 10
257.7715558900973
 20
118.9257089052388
 30
0.0
  0
SPLINE
  5
9A
330
1F
100
AcDbEntity
  8
0
  6
Continuous
 62
     0
370
     0
100
AcDbSpline
210
0.0
220
0.0
230
1.0
 70
     8
 71
     3
 72
     9
 73
     5
 74
     0
 42
0.000000001
 43
0.00000001
 40
0.0
 40
0.0
 40
0.0
 40
0.0
 40
0.4666114599936927
 40
1.0
 40
1.0
 40
1.0
 40
1.0
 10
257.686600197806
 20
119.1012283418366
 30
0.0
 10
257.6786910642967
 20
119.0976899256387
 30
0.0
 10
257.6617409158596
 20
119.0901067081199
 30
0.0
 10
257.64351497223
 20
119.0864989773323
 30
0.0
 10
257.6337934627672
 20
119.0845746550747
 30
0.0
  0
LINE
  5
9B
330
1F
100
AcDbEntity
  8
0
  6
Continuous
 62
     0
370
     0
100
AcDbLine
 10
257.6337934627672
 20
119.0845746550747
 30
0.0
 11
257.1121806993624
 21
119.0066295120904
 31
0.0
  0
LINE
  5
9C
330
1F
100
AcDbEntity
  8
0
  6
Continuous
 62
     0
370
     0
100
AcDbLine
 10
257.1410055055758
 20
118.8137725744435
 30
0.0
 11
257.6626105203768
 21
118.8917157802769
 31
0.0
  0
SPLINE
  5
9D
330
1F
100
AcDbEntity
  8
0
  6
Continuous
 62
     0
370
     0
100
AcDbSpline
210
0.0
220
0.0
230
1.0
 70
     8
 71
     3
 72
     9
 73
     5
 74
     0
 42
0.000000001
 43
0.00000001
 40
0.0
 40
0.0
 40
0.0
 40
0.0
 40
0.4640339019875417
 40
0.9999999999999999
 40
0.9999999999999999
 40
0.9999999999999999
 40
0.9999999999999999
 10
257.6626105203768
 20
119.2747040841767
 30
0.0
 10
257.6701517219562
 20
119.2755719990772
 30
0.0
 10
257.6864031241645
 20
119.2774423686705
 30
0.0
 10
257.7026293081057
 20
119.2752724055174
 30
0.0
 10
257.7113259925982
 20
119.2741093788334
 30
0.0
  0
SPLINE
  5
9E
330
1F
100
AcDbEntity
  8
0
  6
Continuous
 62
     0
370
     0
100
AcDbSpline
210
0.0
220
0.0
230
1.0
 70
     8
 71
     3
 72
     9
 73
     5
 74
     0
 42
0.000000001
 43
0.00000001
 40
0.0
 40
0.0
 40
0.0
 40
0.0
 40
0.4493538403829264
 40
1.0
 40
1.0
 40
1.0
 40
1.0
 10
257.7468300953051
 20
119.4658505175301
 30
0.0
 10
257.7299504935098
 20
119.468292487864
 30
0.0
 10
257.6923863285282
 20
119.4737268919226
 30
0.0
 10
257.6546002318113
 20
119.4697518181059
 30
0.0
 10
257.6337934627672
 20
119.4675629589745
 30
0.0
  0
LINE
  5
9F
330
1F
100
AcDbEntity
  8
0
  6
Continuous
 62
     0
370
     0
100
AcDbLine
 10
257.6337934627672
 20
119.4675629589745
 30
0.0
 11
257.1121806993624
 21
119.3896197531411
 31
0.0
  0
LINE
  5
A0
330
1F
100
AcDbEntity
  8
0
  6
Continuous
 62
     0
370
     0
100
AcDbLine
 10
257.1410055055758
 20
119.1967608783433
 30
0.0
 11
257.6626105203768
 21
119.2747040841767
 31
0.0
  0
LINE
  5
A1
330
1F
100
AcDbEntity
  8
0
  6
Continuous
 62
     0
370
     0
100
AcDbLine
 10
200.8613617315432
 20
110.1993630085179
 30
0.0
 11
257.1530080928942
 21
118.6109819266984
 31
0.0
  0
LINE
  5
A2
330
1F
100
AcDbEntity
  8
0
  6
Continuous
 62
     0
370
     0
100
AcDbLine
 10
251.718765009894
 20
118.7891281399914
 30
0.0
 11
251.3836223974368
 21
118.9393696937749
 31
0.0
  0
LINE
  5
A3
330
1F
100
AcDbEntity
  8
0
  6
Continuous
 62
     0
370
     0
100
AcDbLine
 10
251.3836223974368
 20
119.0649396929928
 30
0.0
 11
251.3836223974368
 21
118.9393696937749
 31
0.0
  0
LINE
  5
A4
330
1F
100
AcDbEntity
  8
0
  6
Continuous
 62
     0
370
     0
100
AcDbLine
 10
251.3836223974368
 20
119.0649396929928
 30
0.0
 11
251.8386204137942
 21
118.860969320316
 31
0.0
  0
LINE
  5
A5
330
1F
100
AcDbEntity
  8
0
  6
Continuous
 62
     0
370
     0
100
AcDbLine
 10
251.8386204137942
 20
118.860969320316
 30
0.0
 11
251.8386204137942
 21
118.8070390377232
 31
0.0
  0
LINE
  5
A6
330
1F
100
AcDbEntity
  8
0
  6
Continuous
 62
     0
370
     0
100
AcDbLine
 10
250.804453004851
 20
118.8499818000981
 30
0.0
 11
250.804453004851
 21
118.6553465578744
 31
0.0
  0
LWPOLYLINE
  5
A7
330
1F
100
AcDbEntity
  8
0
  6
Continuous
 62
     0
370
     0
100
AcDbPolyline
 90
        3
 70
   128
 43
0.0
 10
250.8042747869631
 20
118.6524757001587
 10
250.8043290271899
 20
118.6529541764447
 10
250.804453004851
 20
118.6553465578744
  0
LINE
  5
A8
330
1F
100
AcDbEntity
  8
0
  6
Continuous
 62
     0
370
     0
100
AcDbLine
 10
250.7882041826388
 20
118.6500755701253
 30
0.0
 11
250.7545442476412
 21
118.6651640389153
 31
0.0
  0
LWPOLYLINE
  5
A9
330
1F
100
AcDbEntity
  8
0
  6
Continuous
 62
     0
370
     0
100
AcDbPolyline
 90
        9
 70
   128
 43
0.0
 10
250.748066414847
 20
118.6546433720776
 10
250.7481051578661
 20
118.6571926627347
 10
250.7484228506228
 20
118.6595501754471
 10
250.7489884987017
 20
118.6616151783654
 10
250.7497943534991
 20
118.6633043739983
 10
250.750793923392
 20
118.6645441506096
 10
250.7519562139651
 20
118.6652841422745
 10
250.7532269849917
 20
118.6654933545777
 10
250.7545442476412
 20
118.6651640389153
  0
LINE
  5
AA
330
1F
100
AcDbEntity
  8
0
  6
Continuous
 62
     0
370
     0
100
AcDbLine
 10
250.748066414847
 20
118.6546433720776
 30
0.0
 11
250.7557065382144
 21
118.4384650740811
 31
0.0
  0
LINE
  5
AB
330
1F
100
AcDbEntity
  8
0
  6
Continuous
 62
     0
370
     0
100
AcDbLine
 10
250.7611073150775
 20
118.2856936011502
 30
0.0
 11
250.7618899240634
 21
118.2635093484112
 31
0.0
  0
ARC
  5
AC
330
1F
100
AcDbEntity
  8
0
  6
Continuous
 62
     0
370
     0
100
AcDbCircle
 10
250.798931949439
 20
118.2645480747524
 30
0.0
 40
0.0370565864097056
100
AcDbArc
 50
181.606257824827
 51
206.884541554527
  0
LINE
  5
AD
330
1F
100
AcDbEntity
  8
0
  6
Continuous
 62
     0
370
     0
100
AcDbLine
 10
250.7658804550311
 20
118.2477913055607
 30
0.0
 11
250.7882041826388
 21
118.2064176354596
 31
0.0
  0
LINE
  5
AE
330
1F
100
AcDbEntity
  8
0
  6
Continuous
 62
     0
370
     0
100
AcDbLine
 10
250.7882041826388
 20
118.2064176354596
 30
0.0
 11
250.7882041826388
 21
118.1875827167222
 31
0.0
  0
LINE
  5
AF
330
1F
100
AcDbEntity
  8
0
  6
Continuous
 62
     0
370
     0
100
AcDbLine
 10
250.7882041826388
 20
118.1875827167222
 30
0.0
 11
250.7302601232668
 21
118.0995140228459
 31
0.0
  0
LWPOLYLINE
  5
B0
330
1F
100
AcDbEntity
  8
0
  6
Continuous
 62
     0
370
     0
100
AcDbPolyline
 90
        9
 70
   128
 43
0.0
 10
250.719140876784
 20
118.1124270711133
 10
250.719528306975
 20
118.1087406728455
 10
250.7204193964144
 20
118.1051879379937
 10
250.721736659064
 20
118.1020633135029
 10
250.7233716144702
 20
118.0996166918465
 10
250.725192536368
 20
118.0980534110257
 10
250.7270444526812
 20
118.0974993858525
 10
250.7287801399371
 20
118.0980011079499
 10
250.7302601232668
 20
118.0995140228459
  0
LINE
  5
B1
330
1F
100
AcDbEntity
  8
0
  6
Continuous
 62
     0
370
     0
100
AcDbLine
 10
250.719140876784
 20
118.1124270711133
 30
0.0
 11
250.6958098306796
 21
118.7722458694169
 31
0.0
  0
LWPOLYLINE
  5
B2
330
1F
100
AcDbEntity
  8
0
  6
Continuous
 62
     0
370
     0
100
AcDbPolyline
 90
        9
 70
   128
 43
0.0
 10
250.7022954120776
 20
118.7827645991036
 10
250.7009704008242
 20
118.7830958519169
 10
250.6997073784014
 20
118.7828847024628
 10
250.6985450878283
 20
118.7821447107979
 10
250.6975455179354
 20
118.7809049341866
 10
250.6967396631381
 20
118.7792157385537
 10
250.6961740150591
 20
118.7771507356354
 10
250.6958563223025
 20
118.774793222923
 10
250.6958098306796
 20
118.7722458694169
  0
LINE
  5
B3
330
1F
100
AcDbEntity
  8
0
  6
Continuous
 62
     0
370
     0
100
AcDbLine
 10
250.7022954120776
 20
118.7827645991036
 30
0.0
 11
250.7557065382144
 21
118.7588214132973
 31
0.0
  0
LINE
  5
B4
330
1F
100
AcDbEntity
  8
0
  6
Continuous
 62
     0
370
     0
100
AcDbLine
 10
250.7557065382144
 20
118.7588214132973
 30
0.0
 11
250.7557065382144
 21
118.8843933496663
 31
0.0
  0
LINE
  5
B5
330
1F
100
AcDbEntity
  8
0
  6
Continuous
 62
     0
370
     0
100
AcDbLine
 10
250.8109540834567
 20
118.8596249375531
 30
0.0
 11
250.7557065382144
 21
118.8843933496663
 31
0.0
  0
LWPOLYLINE
  5
B6
330
1F
100
AcDbEntity
  8
0
  6
Continuous
 62
     0
370
     0
100
AcDbPolyline
 90
        9
 70
   128
 43
0.0
 10
250.804453004851
 20
118.8499818000981
 10
250.8045769825121
 20
118.8523761186787
 10
250.8049489154955
 20
118.8545650992581
 10
250.8055533065936
 20
118.8564673814961
 10
250.8063591613909
 20
118.8580074165055
 10
250.8073432340762
 20
118.8591270897576
 10
250.8084667816302
 20
118.8597837839314
 10
250.8096910610339
 20
118.8599523160645
 10
250.8109540834567
 20
118.8596249375531
  0
LINE
  5
B7
330
1F
100
AcDbEntity
  8
0
  6
Continuous
 62
     0
370
     0
100
AcDbLine
 10
251.2060398950717
 20
118.951686099548
 30
0.0
 11
251.2060398950717
 21
119.077256098766
 31
0.0
  0
LINE
  5
B8
330
1F
100
AcDbEntity
  8
0
  6
Continuous
 62
     0
370
     0
100
AcDbLine
 10
251.2060398950717
 20
119.077256098766
 30
0.0
 11
251.3836223974368
 21
119.0649396929928
 31
0.0
  0
LINE
  5
B9
330
1F
100
AcDbEntity
  8
0
  6
Continuous
 62
     0
370
     0
100
AcDbLine
 10
251.3836223974368
 20
118.9393696937749
 30
0.0
 11
251.2060398950717
 21
118.951686099548
 31
0.0
  0
LINE
  5
BA
330
1F
100
AcDbEntity
  8
0
  6
Continuous
 62
     0
370
     0
100
AcDbLine
 10
251.1558521881243
 20
118.7050112340638
 30
0.0
 11
251.1132038726946
 21
118.7241289768406
 31
0.0
  0
LINE
  5
BB
330
1F
100
AcDbEntity
  8
0
  6
Continuous
 62
     0
370
     0
100
AcDbLine
 10
251.1132038726946
 20
118.7241289768406
 30
0.0
 11
251.0579563274523
 21
118.7488973889538
 31
0.0
  0
LINE
  5
BC
330
1F
100
AcDbEntity
  8
0
  6
Continuous
 62
     0
370
     0
100
AcDbLine
 10
249.7485585107943
 20
118.4947218749711
 30
0.0
 11
249.413415898337
 21
118.6449634287545
 31
0.0
  0
LINE
  5
BD
330
1F
100
AcDbEntity
  8
0
  6
Continuous
 62
     0
370
     0
100
AcDbLine
 10
249.4610000744006
 20
118.6909262094685
 30
0.0
 11
249.413415898337
 21
118.6449634287545
 31
0.0
  0
LINE
  5
BE
330
1F
100
AcDbEntity
  8
0
  6
Continuous
 62
     0
370
     0
100
AcDbLine
 10
249.4610000744006
 20
118.6909262094685
 30
0.0
 11
249.9113334312579
 21
118.7582189593503
 31
0.0
  0
LINE
  5
BF
330
1F
100
AcDbEntity
  8
0
  6
Continuous
 62
     0
370
     0
100
AcDbLine
 10
251.2060398950717
 20
118.951686099548
 30
0.0
 11
250.7557065382144
 21
118.8843933496663
 31
0.0
  0
LWPOLYLINE
  5
C0
330
1F
100
AcDbEntity
  8
0
  6
Continuous
 62
     0
370
     0
100
AcDbPolyline
 90
        3
 70
   128
 43
0.0
 10
249.7794676914355
 20
118.5733953867146
 10
249.8170871629855
 20
118.5622897002884
 10
249.8545904054781
 20
118.5568966720292
  0
LINE
  5
C1
330
1F
100
AcDbEntity
  8
0
  6
Continuous
 62
     0
370
     0
100
AcDbLine
 10
249.9113334312579
 20
118.6656909439751
 30
0.0
 11
249.8702813282153
 21
118.6840938780495
 31
0.0
  0
LWPOLYLINE
  5
C2
330
1F
100
AcDbEntity
  8
0
  6
Continuous
 62
     0
370
     0
100
AcDbPolyline
 90
        9
 70
   128
 43
0.0
 10
249.8702813282153
 20
118.6840938780495
 10
249.8326541080615
 20
118.6951976273247
 10
249.7814745798251
 20
118.7017297003457
 10
249.724530090346
 20
118.7026963386723
 10
249.6704990759036
 20
118.6979483816811
 10
249.6275950565478
 20
118.6882103238293
 10
249.6023578539034
 20
118.6749640855977
 10
249.5986230268618
 20
118.6602262411305
 10
249.6169639721057
 20
118.6462419483849
  0
LINE
  5
C3
330
1F
100
AcDbEntity
  8
0
  6
Continuous
 62
     0
370
     0
100
AcDbLine
 10
249.6169639721057
 20
118.6462419483849
 30
0.0
 11
249.7794676914355
 21
118.5733953867146
 31
0.0
  0
LWPOLYLINE
  5
C4
330
1F
100
AcDbEntity
  8
0
  6
Continuous
 62
     0
370
     0
100
AcDbPolyline
 90
       17
 70
   128
 43
0.0
 10
251.0871685638567
 20
118.8340932879635
 10
251.1055095091006
 20
118.820108995218
 10
251.1431289806506
 20
118.8090052459427
 10
251.194308508887
 20
118.8024712357709
 10
251.251252998366
 20
118.8015065345952
 10
251.3052917614123
 20
118.8062544915864
 10
251.3481880321642
 20
118.8159925494381
 10
251.3734329834124
 20
118.8292368505189
 10
251.3771600618502
 20
118.843974694986
 10
251.3588191166064
 20
118.8579609248826
 10
251.3211918964526
 20
118.8690646741578
 10
251.2700123682162
 20
118.8755967471787
 10
251.2130756273409
 20
118.8765633855053
 10
251.1590368642947
 20
118.8718154285142
 10
251.1161328449389
 20
118.8620773706624
 10
251.0908956422946
 20
118.8488311324307
 10
251.0871685638567
 20
118.8340932879635
  0
LINE
  5
C5
330
1F
100
AcDbEntity
  8
0
  6
Continuous
 62
     0
370
     0
100
AcDbLine
 10
249.8747677698275
 20
117.9862526807973
 30
0.0
 11
250.719140876784
 21
118.1124270711133
 31
0.0
  0
LINE
  5
C6
330
1F
100
AcDbEntity
  8
0
  6
Continuous
 62
     0
370
     0
100
AcDbLine
 10
249.8747677698275
 20
117.9862526807973
 30
0.0
 11
249.8514367237231
 21
118.6460714791009
 31
0.0
  0
LINE
  5
C7
330
1F
100
AcDbEntity
  8
0
  6
Continuous
 62
     0
370
     0
100
AcDbLine
 10
250.6958098306796
 20
118.7722458694169
 30
0.0
 11
249.8514367237231
 21
118.6460714791009
 31
0.0
  0
LINE
  5
C8
330
1F
100
AcDbEntity
  8
0
  6
Continuous
 62
     0
370
     0
100
AcDbLine
 10
249.9113334312579
 20
118.6651582274624
 30
0.0
 11
249.9113334312579
 21
118.7582189593503
 31
0.0
  0
LINE
  5
C9
330
1F
100
AcDbEntity
  8
0
  6
Continuous
 62
     0
370
     0
100
AcDbLine
 10
249.4610000744006
 20
118.8164962086865
 30
0.0
 11
249.4610000744006
 21
118.6909262094685
 31
0.0
  0
LINE
  5
CA
330
1F
100
AcDbEntity
  8
0
  6
Continuous
 62
     0
370
     0
100
AcDbLine
 10
249.4610000744006
 20
118.8164962086865
 30
0.0
 11
251.2060398950717
 21
119.077256098766
 31
0.0
  0
LWPOLYLINE
  5
CB
330
1F
100
AcDbEntity
  8
0
  6
Continuous
 62
     0
370
     0
100
AcDbPolyline
 90
        8
 70
   128
 43
0.0
 10
249.8831672563693
 20
117.9713579271027
 10
249.8826713457247
 20
117.9713249955365
 10
249.8808194294116
 20
117.9718790207097
 10
249.8789985075137
 20
117.9734423015305
 10
249.8773635521075
 20
117.9758889231869
 10
249.8760462894579
 20
117.9790154848286
 10
249.8751552000186
 20
117.9825662825295
 10
249.8747677698275
 20
117.9862526807973
  0
LWPOLYLINE
  5
CC
330
1F
100
AcDbEntity
  8
0
  6
Continuous
 62
     0
370
     0
100
AcDbPolyline
 90
        8
 70
   128
 43
0.0
 10
249.8514367237231
 20
118.6460714791009
 10
249.851483215346
 20
118.6486188326069
 10
249.8517931594988
 20
118.6509763453194
 10
249.8523665561816
 20
118.6530413482377
 10
249.8531724109789
 20
118.6547305438706
 10
249.8541719808718
 20
118.6559703204819
 10
249.8553342714449
 20
118.6567103121468
 10
249.8560006513735
 20
118.6568904671856
  0
LINE
  5
CD
330
1F
100
AcDbEntity
  8
0
  6
Continuous
 62
     0
370
     0
100
AcDbLine
 10
251.064457406058
 20
118.6913543198296
 30
0.0
 11
251.064457406058
 21
118.7334273014256
 31
0.0
  0
ARC
  5
CE
330
1F
100
AcDbEntity
  8
0
  6
Continuous
 62
     0
370
     0
100
AcDbCircle
 10
251.0466680927623
 20
118.7350526375113
 30
0.0
 40
0.0178634091069759
100
AcDbArc
 50
354.7796151705538
 51
50.80812552988947
  0
LINE
  5
CF
330
1F
100
AcDbEntity
  8
0
  6
Continuous
 62
     0
370
     0
100
AcDbLine
 10
251.1132038726946
 20
118.7241289768406
 30
0.0
 11
251.1132038726946
 21
118.6986399445721
 31
0.0
  0
LINE
  5
D0
330
1F
100
AcDbEntity
  8
0
  6
Continuous
 62
     0
370
     0
100
AcDbLine
 10
249.413415898337
 20
118.6449634287545
 30
0.0
 11
249.413415898337
 21
118.7705334279725
 31
0.0
  0
LINE
  5
D1
330
1F
100
AcDbEntity
  8
0
  6
Continuous
 62
     0
370
     0
100
AcDbLine
 10
249.413415898337
 20
118.7705334279725
 30
0.0
 11
249.4610000744006
 21
118.8164962086865
 31
0.0
  0
LINE
  5
D2
330
1F
100
AcDbEntity
  8
0
  6
Continuous
 62
     0
370
     0
100
AcDbLine
 10
249.7794676914355
 20
118.6989653859326
 30
0.0
 11
249.7794676914355
 21
118.5733953867146
 31
0.0
  0
LINE
  5
D3
330
1F
100
AcDbEntity
  8
0
  6
Continuous
 62
     0
370
     0
100
AcDbLine
 10
249.7720290317675
 20
118.7022992227265
 30
0.0
 11
249.7794676914355
 21
118.6989653859326
 31
0.0
  0
ARC
  5
D4
330
1F
100
AcDbEntity
  8
0
  6
Continuous
 62
     0
370
     0
100
AcDbCircle
 10
249.8883415325291
 20
119.0123100939598
 30
0.0
 40
0.3317203932879921
100
AcDbArc
 50
250.8398542273299
 51
268.1637610460098
  0
LINE
  5
D5
330
1F
100
AcDbEntity
  8
0
  6
Continuous
 62
     0
370
     0
100
AcDbLine
 10
208.6556513204714
 20
112.3542400453278
 30
0.0
 11
208.3205087080141
 21
112.5044815991112
 31
0.0
  0
LINE
  5
D6
330
1F
100
AcDbEntity
  8
0
  6
Continuous
 62
     0
370
     0
100
AcDbLine
 10
208.3205087080141
 20
112.6300515983292
 30
0.0
 11
208.3205087080141
 21
112.5044815991112
 31
0.0
  0
LINE
  5
D7
330
1F
100
AcDbEntity
  8
0
  6
Continuous
 62
     0
370
     0
100
AcDbLine
 10
208.3205087080141
 20
112.6300515983292
 30
0.0
 11
208.7755067243716
 21
112.4260812256524
 31
0.0
  0
LINE
  5
D8
330
1F
100
AcDbEntity
  8
0
  6
Continuous
 62
     0
370
     0
100
AcDbLine
 10
208.7755067243716
 20
112.4260812256524
 30
0.0
 11
208.7755067243716
 21
112.3721490059086
 31
0.0
  0
LINE
  5
D9
330
1F
100
AcDbEntity
  8
0
  6
Continuous
 62
     0
370
     0
100
AcDbLine
 10
207.7413470640322
 20
112.4150937054345
 30
0.0
 11
207.7413470640322
 21
112.2204584632107
 31
0.0
  0
LWPOLYLINE
  5
DA
330
1F
100
AcDbEntity
  8
0
  6
Continuous
 62
     0
370
     0
100
AcDbPolyline
 90
        3
 70
   128
 43
0.0
 10
207.7411610975405
 20
112.2175876054951
 10
207.7412230863711
 20
112.2180660817811
 10
207.7413470640322
 20
112.2204584632107
  0
LINE
  5
DB
330
1F
100
AcDbEntity
  8
0
  6
Continuous
 62
     0
370
     0
100
AcDbLine
 10
207.7250904932162
 20
112.2151874754616
 30
0.0
 11
207.6914305582186
 21
112.2302759442517
 31
0.0
  0
LWPOLYLINE
  5
DC
330
1F
100
AcDbEntity
  8
0
  6
Continuous
 62
     0
370
     0
100
AcDbPolyline
 90
        9
 70
   128
 43
0.0
 10
207.6849527254244
 20
112.219755277414
 10
207.6849992170473
 20
112.222304568071
 10
207.6853091612002
 20
112.2246601436326
 10
207.6858825578829
 20
112.2267270837018
 10
207.6866884126803
 20
112.2284143421837
 10
207.6876802339693
 20
112.229656055946
 10
207.6888425245425
 20
112.2303960476109
 10
207.6901132955691
 20
112.2306052599141
 10
207.6914305582186
 20
112.2302759442517
  0
LINE
  5
DD
330
1F
100
AcDbEntity
  8
0
  6
Continuous
 62
     0
370
     0
100
AcDbLine
 10
207.6849527254244
 20
112.219755277414
 30
0.0
 11
207.6925928487917
 21
112.0035750422665
 31
0.0
  0
LINE
  5
DE
330
1F
100
AcDbEntity
  8
0
  6
Continuous
 62
     0
370
     0
100
AcDbLine
 10
207.697985877051
 20
111.8508035693356
 30
0.0
 11
207.6987762346407
 21
111.8286212537476
 31
0.0
  0
ARC
  5
DF
330
1F
100
AcDbEntity
  8
0
  6
Continuous
 62
     0
370
     0
100
AcDbCircle
 10
207.7352814862297
 20
111.8295397298281
 30
0.0
 40
0.0365168042397445
100
AcDbArc
 50
181.4412639426929
 51
207.1025992851298
  0
LINE
  5
E0
330
1F
100
AcDbEntity
  8
0
  6
Continuous
 62
     0
370
     0
100
AcDbLine
 10
207.7027745142123
 20
111.8129032108971
 30
0.0
 11
207.7250904932162
 21
111.771529540796
 31
0.0
  0
LINE
  5
E1
330
1F
100
AcDbEntity
  8
0
  6
Continuous
 62
     0
370
     0
100
AcDbLine
 10
207.7250904932162
 20
111.771529540796
 30
0.0
 11
207.7250904932162
 21
111.7526926849076
 31
0.0
  0
LINE
  5
E2
330
1F
100
AcDbEntity
  8
0
  6
Continuous
 62
     0
370
     0
100
AcDbLine
 10
207.7250904932162
 20
111.7526926849076
 30
0.0
 11
207.6671464338442
 21
111.6646259281823
 31
0.0
  0
LWPOLYLINE
  5
E3
330
1F
100
AcDbEntity
  8
0
  6
Continuous
 62
     0
370
     0
100
AcDbPolyline
 90
        9
 70
   128
 43
0.0
 10
207.6560194387575
 20
111.6775389764496
 10
207.6564223661562
 20
111.6738525781819
 10
207.6573057069918
 20
111.6702998433301
 10
207.6586229696413
 20
111.6671732816884
 10
207.6602656736513
 20
111.6647285971829
 10
207.6620788469454
 20
111.6631653163621
 10
207.6639385118624
 20
111.6626112911889
 10
207.6656741991183
 20
111.6631110761353
 10
207.6671464338442
 20
111.6646259281823
  0
LINE
  5
E4
330
1F
100
AcDbEntity
  8
0
  6
Continuous
 62
     0
370
     0
100
AcDbLine
 10
207.6560194387575
 20
111.6775389764496
 30
0.0
 11
207.6326961412569
 21
112.3373558376023
 31
0.0
  0
LWPOLYLINE
  5
E5
330
1F
100
AcDbEntity
  8
0
  6
Continuous
 62
     0
370
     0
100
AcDbPolyline
 90
        9
 70
   128
 43
0.0
 10
207.6391894712588
 20
112.34787650444
 10
207.6378567114016
 20
112.3482058201024
 10
207.636585940375
 20
112.3479966077992
 10
207.6354391470095
 20
112.3472566161343
 10
207.6344318285128
 20
112.346016839523
 10
207.6336259737154
 20
112.3443276438901
 10
207.6330525770327
 20
112.3422626409718
 10
207.6327426328799
 20
112.3399051282593
 10
207.6326961412569
 20
112.3373558376023
  0
LINE
  5
E6
330
1F
100
AcDbEntity
  8
0
  6
Continuous
 62
     0
370
     0
100
AcDbLine
 10
207.6391894712588
 20
112.34787650444
 30
0.0
 11
207.6925928487917
 21
112.3239333186337
 31
0.0
  0
LINE
  5
E7
330
1F
100
AcDbEntity
  8
0
  6
Continuous
 62
     0
370
     0
100
AcDbLine
 10
207.6925928487917
 20
112.3239333186337
 30
0.0
 11
207.6925928487917
 21
112.4495033178517
 31
0.0
  0
LINE
  5
E8
330
1F
100
AcDbEntity
  8
0
  6
Continuous
 62
     0
370
     0
100
AcDbLine
 10
207.747840394034
 20
112.4247368428895
 30
0.0
 11
207.6925928487917
 21
112.4495033178517
 31
0.0
  0
LWPOLYLINE
  5
E9
330
1F
100
AcDbEntity
  8
0
  6
Continuous
 62
     0
370
     0
100
AcDbPolyline
 90
        9
 70
   128
 43
0.0
 10
207.7413470640322
 20
112.4150937054345
 10
207.7414710416933
 20
112.4174860868641
 10
207.7418429746767
 20
112.4196770045945
 10
207.7424318685671
 20
112.4215773496815
 10
207.7432532205721
 20
112.4231193218419
 10
207.7442295446535
 20
112.424238995094
 10
207.7453608408114
 20
112.4248956892678
 10
207.7465696230074
 20
112.4250642214009
 10
207.747840394034
 20
112.4247368428895
  0
LINE
  5
EA
330
1F
100
AcDbEntity
  8
0
  6
Continuous
 62
     0
370
     0
100
AcDbLine
 10
208.142926205649
 20
112.5167980048844
 30
0.0
 11
208.142926205649
 21
112.6423680041024
 31
0.0
  0
LINE
  5
EB
330
1F
100
AcDbEntity
  8
0
  6
Continuous
 62
     0
370
     0
100
AcDbLine
 10
208.142926205649
 20
112.6423680041024
 30
0.0
 11
208.3205087080141
 21
112.6300515983292
 31
0.0
  0
LINE
  5
EC
330
1F
100
AcDbEntity
  8
0
  6
Continuous
 62
     0
370
     0
100
AcDbLine
 10
208.3205087080141
 20
112.5044815991112
 30
0.0
 11
208.142926205649
 21
112.5167980048844
 31
0.0
  0
LINE
  5
ED
330
1F
100
AcDbEntity
  8
0
  6
Continuous
 62
     0
370
     0
100
AcDbLine
 10
208.0927307500979
 20
112.2701231394002
 30
0.0
 11
208.0500979318758
 21
112.289240882177
 31
0.0
  0
LINE
  5
EE
330
1F
100
AcDbEntity
  8
0
  6
Continuous
 62
     0
370
     0
100
AcDbLine
 10
208.0500979318758
 20
112.289240882177
 30
0.0
 11
207.9948348894259
 21
112.3140092942902
 31
0.0
  0
LINE
  5
EF
330
1F
100
AcDbEntity
  8
0
  6
Continuous
 62
     0
370
     0
100
AcDbLine
 10
206.6854448213717
 20
112.0598337803074
 30
0.0
 11
206.3503022089144
 21
112.2100753340909
 31
0.0
  0
LINE
  5
F0
330
1F
100
AcDbEntity
  8
0
  6
Continuous
 62
     0
370
     0
100
AcDbLine
 10
206.3978786363741
 20
112.2560361776539
 30
0.0
 11
206.3503022089144
 21
112.2100753340909
 31
0.0
  0
LINE
  5
F1
330
1F
100
AcDbEntity
  8
0
  6
Continuous
 62
     0
370
     0
100
AcDbLine
 10
206.3978786363741
 20
112.2560361776539
 30
0.0
 11
206.8482119932314
 21
112.3233289275357
 31
0.0
  0
LINE
  5
F2
330
1F
100
AcDbEntity
  8
0
  6
Continuous
 62
     0
370
     0
100
AcDbLine
 10
208.142926205649
 20
112.5167980048844
 30
0.0
 11
207.6925928487917
 21
112.4495033178517
 31
0.0
  0
LWPOLYLINE
  5
F3
330
1F
100
AcDbEntity
  8
0
  6
Continuous
 62
     0
370
     0
100
AcDbPolyline
 90
        3
 70
   128
 43
0.0
 10
206.716346253409
 20
112.1385053549
 10
206.7539734735628
 20
112.1274016056248
 10
206.7914767160555
 20
112.1220066402146
  0
LINE
  5
F4
330
1F
100
AcDbEntity
  8
0
  6
Continuous
 62
     0
370
     0
100
AcDbLine
 10
206.8482119932314
 20
112.2308028493115
 30
0.0
 11
206.8071598901888
 21
112.2492057833859
 31
0.0
  0
LWPOLYLINE
  5
F5
330
1F
100
AcDbEntity
  8
0
  6
Continuous
 62
     0
370
     0
100
AcDbPolyline
 90
        9
 70
   128
 43
0.0
 10
206.8071598901888
 20
112.2492057833859
 10
206.769532670035
 20
112.2603095326611
 10
206.7183608904024
 20
112.266841605682
 10
206.6614241495272
 20
112.2678082440087
 10
206.6073853864809
 20
112.2630602870175
 10
206.5644736185213
 20
112.2533222291657
 10
206.5392441644808
 20
112.240075990934
 10
206.5355093374392
 20
112.2253381464669
 10
206.5538580312868
 20
112.2113519165703
  0
LINE
  5
F6
330
1F
100
AcDbEntity
  8
0
  6
Continuous
 62
     0
370
     0
100
AcDbLine
 10
206.5538580312868
 20
112.2113519165703
 30
0.0
 11
206.716346253409
 21
112.1385053549
 31
0.0
  0
LWPOLYLINE
  5
F7
330
1F
100
AcDbEntity
  8
0
  6
Continuous
 62
     0
370
     0
100
AcDbPolyline
 90
       17
 70
   128
 43
0.0
 10
208.0240471258303
 20
112.3992051932999
 10
208.0423958196779
 20
112.3852209005543
 10
208.0800230398318
 20
112.3741152141282
 10
208.1311948194643
 20
112.3675831411072
 10
208.1881470575472
 20
112.3666184399315
 10
208.2421703233858
 20
112.3713644597718
 10
208.2850820913454
 20
112.3811025176236
 10
208.310311545386
 20
112.3943487558552
 10
208.3140463724276
 20
112.4090866003224
 10
208.2957131757876
 20
112.4230728302189
 10
208.2580859556338
 20
112.4341765794941
 10
208.2068986787936
 20
112.4407086525151
 10
208.1499619379183
 20
112.4416752908417
 10
208.095923174872
 20
112.4369273338505
 10
208.0530269041201
 20
112.4271892759987
 10
208.0277819528719
 20
112.4139430377671
 10
208.0240471258303
 20
112.3992051932999
  0
LINE
  5
F8
330
1F
100
AcDbEntity
  8
0
  6
Continuous
 62
     0
370
     0
100
AcDbLine
 10
206.8116540804049
 20
111.5513645861336
 30
0.0
 11
207.6560194387575
 21
111.6775389764496
 31
0.0
  0
LINE
  5
F9
330
1F
100
AcDbEntity
  8
0
  6
Continuous
 62
     0
370
     0
100
AcDbLine
 10
206.8116540804049
 20
111.5513645861336
 30
0.0
 11
206.7883307829043
 21
112.2111833844372
 31
0.0
  0
LINE
  5
FA
330
1F
100
AcDbEntity
  8
0
  6
Continuous
 62
     0
370
     0
100
AcDbLine
 10
207.6326961412569
 20
112.3373558376023
 30
0.0
 11
206.7883307829043
 21
112.2111833844372
 31
0.0
  0
LINE
  5
FB
330
1F
100
AcDbEntity
  8
0
  6
Continuous
 62
     0
370
     0
100
AcDbLine
 10
206.8482119932314
 20
112.2302701327988
 30
0.0
 11
206.8482119932314
 21
112.3233289275357
 31
0.0
  0
LINE
  5
FC
330
1F
100
AcDbEntity
  8
0
  6
Continuous
 62
     0
370
     0
100
AcDbLine
 10
206.3978786363741
 20
112.3816081140229
 30
0.0
 11
206.3978786363741
 21
112.2560361776539
 31
0.0
  0
LINE
  5
FD
330
1F
100
AcDbEntity
  8
0
  6
Continuous
 62
     0
370
     0
100
AcDbLine
 10
206.3978786363741
 20
112.3816081140229
 30
0.0
 11
208.142926205649
 21
112.6423680041024
 31
0.0
  0
LWPOLYLINE
  5
FE
330
1F
100
AcDbEntity
  8
0
  6
Continuous
 62
     0
370
     0
100
AcDbPolyline
 90
        8
 70
   128
 43
0.0
 10
206.8200535669466
 20
111.5364698324391
 10
206.8195576563021
 20
111.5364369008729
 10
206.8176979913851
 20
111.536990926046
 10
206.815884818091
 20
111.5385542068669
 10
206.8142576112887
 20
111.5409988913724
 10
206.8129403486391
 20
111.544125453014
 10
206.8120415105959
 20
111.5476781878659
 10
206.8116540804049
 20
111.5513645861336
  0
LWPOLYLINE
  5
FF
330
1F
100
AcDbEntity
  8
0
  6
Continuous
 62
     0
370
     0
100
AcDbPolyline
 90
        8
 70
   128
 43
0.0
 10
206.7883307829043
 20
112.2111833844372
 10
206.7883617773196
 20
112.2137307379433
 10
206.78868721868
 20
112.2160882506558
 10
206.7892451181551
 20
112.218153253574
 10
206.7900509729525
 20
112.219842449207
 10
206.7910582914492
 20
112.2210822258183
 10
206.7922205820223
 20
112.2218222174832
 10
206.7928869619509
 20
112.222002372522
  0
LINE
  5
100
330
1F
100
AcDbEntity
  8
0
  6
Continuous
 62
     0
370
     0
100
AcDbLine
 10
208.0013437166353
 20
112.256466225166
 30
0.0
 11
208.0013437166353
 21
112.298537269611
 31
0.0
  0
ARC
  5
101
330
1F
100
AcDbEntity
  8
0
  6
Continuous
 62
     0
370
     0
100
AcDbCircle
 10
207.9835813057041
 20
112.3001700052489
 30
0.0
 40
0.0178372942946143
100
AcDbArc
 50
354.7480828635074
 51
50.88330196702012
  0
LINE
  5
102
330
1F
100
AcDbEntity
  8
0
  6
Continuous
 62
     0
370
     0
100
AcDbLine
 10
208.0500979318758
 20
112.289240882177
 30
0.0
 11
208.0500979318758
 21
112.2637518499085
 31
0.0
  0
LINE
  5
103
330
1F
100
AcDbEntity
  8
0
  6
Continuous
 62
     0
370
     0
100
AcDbLine
 10
206.3503022089144
 20
112.2100753340909
 30
0.0
 11
206.3503022089144
 21
112.3356453333088
 31
0.0
  0
LINE
  5
104
330
1F
100
AcDbEntity
  8
0
  6
Continuous
 62
     0
370
     0
100
AcDbLine
 10
206.3503022089144
 20
112.3356453333088
 30
0.0
 11
206.3978786363741
 21
112.3816081140229
 31
0.0
  0
LINE
  5
105
330
1F
100
AcDbEntity
  8
0
  6
Continuous
 62
     0
370
     0
100
AcDbLine
 10
206.716346253409
 20
112.264077291269
 30
0.0
 11
206.716346253409
 21
112.1385053549
 31
0.0
  0
LINE
  5
106
330
1F
100
AcDbEntity
  8
0
  6
Continuous
 62
     0
370
     0
100
AcDbLine
 10
206.7089230909487
 20
112.2674111280629
 30
0.0
 11
206.716346253409
 21
112.264077291269
 31
0.0
  0
ARC
  5
107
330
1F
100
AcDbEntity
  8
0
  6
Continuous
 62
     0
370
     0
100
AcDbCircle
 10
206.8251849191417
 20
112.5772366840557
 30
0.0
 40
0.3315337998591559
100
AcDbArc
 50
250.8350851750933
 51
268.1701491557975
  0
LWPOLYLINE
  5
108
330
1F
100
AcDbEntity
  8
0
  6
Continuous
 62
     0
370
     0
100
AcDbPolyline
 90
        9
 70
   128
 43
0.0
 10
257.2565371885439
 20
119.0559668097683
 10
257.2567231550356
 20
119.0595582876393
 10
257.2572810545107
 20
119.0628417585084
 10
257.2581798925539
 20
119.0656951818654
 10
257.2593964233538
 20
119.0680062029549
 10
257.2608686580797
 20
119.0696857128331
 10
257.2625578537127
 20
119.0706697855183
 10
257.2643865242144
 20
119.0709235522935
 10
257.2662849321505
 20
119.0704315159508
  0
LINE
  5
109
330
1F
100
AcDbEntity
  8
0
  6
Continuous
 62
     0
370
     0
100
AcDbLine
 10
257.2565371885439
 20
119.0559668097683
 30
0.0
 11
257.2565371885439
 21
119.0282016251275
 31
0.0
  0
LINE
  5
10A
330
1F
100
AcDbEntity
  8
0
  6
Continuous
 62
     0
370
     0
100
AcDbLine
 10
257.2565371885439
 20
118.8310364637562
 30
0.0
 11
257.2565371885439
 21
118.6666982624718
 31
0.0
  0
LINE
  5
10B
330
1F
100
AcDbEntity
  8
0
  6
Continuous
 62
     0
370
     0
100
AcDbLine
 10
257.2565371885439
 20
118.6666982624718
 30
0.0
 11
257.2438759699007
 21
118.6723760519215
 31
0.0
  0
ARC
  5
10C
330
1F
100
AcDbEntity
  8
0
  6
Continuous
 62
     0
370
     0
100
AcDbCircle
 10
257.2664325913297
 20
118.7030111239005
 30
0.0
 40
0.0380435120019938
100
AcDbArc
 50
183.4052232635055
 51
233.6357623216814
  0
LINE
  5
10D
330
1F
100
AcDbEntity
  8
0
  6
Continuous
 62
     0
370
     0
100
AcDbLine
 10
257.2284562482973
 20
118.7007514391133
 30
0.0
 11
257.2167481079241
 21
118.7738808248231
 31
0.0
  0
ARC
  5
10E
330
1F
100
AcDbEntity
  8
0
  6
Continuous
 62
     0
370
     0
100
AcDbCircle
 10
257.2820747807554
 20
118.784423122375
 30
0.0
 40
0.0661718536908409
100
AcDbArc
 50
182.491866592773
 51
189.167251481487
  0
LINE
  5
10F
330
1F
100
AcDbEntity
  8
0
  6
Continuous
 62
     0
370
     0
100
AcDbLine
 10
257.2177244320055
 20
119.0224017951676
 30
0.0
 11
257.2176237001559
 21
119.0228318426797
 31
0.0
  0
ARC
  5
110
330
1F
100
AcDbEntity
  8
0
  6
Continuous
 62
     0
370
     0
100
AcDbCircle
 10
257.2838514705636
 20
119.0380527888025
 30
0.0
 40
0.0679543580210178
100
AcDbArc
 50
182.5706932581002
 51
192.9433634185343
  0
ARC
  5
111
330
1F
100
AcDbEntity
  8
0
  6
Continuous
 62
     0
370
     0
100
AcDbCircle
 10
257.2629264582506
 20
119.0863708057797
 30
0.0
 40
0.0469961584303714
100
AcDbArc
 50
164.5723761694239
 51
177.7823170811493
  0
LINE
  5
112
330
1F
100
AcDbEntity
  8
0
  6
Continuous
 62
     0
370
     0
100
AcDbLine
 10
257.2176237001559
 20
119.0988727662751
 30
0.0
 11
257.2223193540713
 21
119.1149046275803
 31
0.0
  0
ARC
  5
113
330
1F
100
AcDbEntity
  8
0
  6
Continuous
 62
     0
370
     0
100
AcDbCircle
 10
257.1763883521166
 20
119.127605218358
 30
0.0
 40
0.0476546109695246
100
AcDbArc
 50
344.5431033341047
 51
0.6863334984620926
  0
LINE
  5
114
330
1F
100
AcDbEntity
  8
0
  6
Continuous
 62
     0
370
     0
100
AcDbLine
 10
257.2240395441195
 20
119.1281760487744
 30
0.0
 11
257.2240395441195
 21
119.2091683302113
 31
0.0
  0
LINE
  5
115
330
1F
100
AcDbEntity
  8
0
  6
Continuous
 62
     0
370
     0
100
AcDbLine
 10
257.0371587171694
 20
119.4556785378644
 30
0.0
 11
257.0290381803652
 21
119.4593223188111
 31
0.0
  0
LINE
  5
116
330
1F
100
AcDbEntity
  8
0
  6
Continuous
 62
     0
370
     0
100
AcDbLine
 10
257.0290381803652
 20
119.4593223188111
 30
0.0
 11
257.0290381803652
 21
119.2155919227788
 31
0.0
  0
ARC
  5
117
330
1F
100
AcDbEntity
  8
0
  6
Continuous
 62
     0
370
     0
100
AcDbCircle
 10
257.0951134895009
 20
119.2157285202385
 30
0.0
 40
0.0660754503295341
100
AcDbArc
 50
180.1184473729581
 51
193.0733186653071
  0
LINE
  5
118
330
1F
100
AcDbEntity
  8
0
  6
Continuous
 62
     0
370
     0
100
AcDbLine
 10
257.0307506218096
 20
119.2007824037263
 30
0.0
 11
257.035446275725
 21
119.1805430505463
 31
0.0
  0
ARC
  5
119
330
1F
100
AcDbEntity
  8
0
  6
Continuous
 62
     0
370
     0
100
AcDbCircle
 10
256.9710946355044
 20
119.1655982144524
 30
0.0
 40
0.0660642242439788
100
AcDbArc
 50
0.1190370687087034
 51
13.07443952724821
  0
LINE
  5
11A
330
1F
100
AcDbEntity
  8
0
  6
Continuous
 62
     0
370
     0
100
AcDbLine
 10
257.0371587171694
 20
119.1657354686448
 30
0.0
 11
257.0371587171694
 21
119.117771610994
 31
0.0
  0
ARC
  5
11B
330
1F
100
AcDbEntity
  8
0
  6
Continuous
 62
     0
370
     0
100
AcDbCircle
 10
256.9893732719135
 20
119.117193136781
 30
0.0
 40
0.0477889465328987
100
AcDbArc
 50
344.5995489142525
 51
0.693569179344076
  0
LINE
  5
11C
330
1F
100
AcDbEntity
  8
0
  6
Continuous
 62
     0
370
     0
100
AcDbLine
 10
257.035446275725
 20
119.1045021269509
 30
0.0
 11
257.0326722755572
 21
119.0950197730252
 31
0.0
  0
ARC
  5
11D
330
1F
100
AcDbEntity
  8
0
  6
Continuous
 62
     0
370
     0
100
AcDbCircle
 10
257.0884990716854
 20
119.0809812400529
 30
0.0
 40
0.0575648466858234
100
AcDbArc
 50
165.8847370077207
 51
194.1152629922793
  0
LINE
  5
11E
330
1F
100
AcDbEntity
  8
0
  6
Continuous
 62
     0
370
     0
100
AcDbLine
 10
257.0326722755572
 20
119.0669427070805
 30
0.0
 11
257.035446275725
 21
119.0549730513283
 31
0.0
  0
ARC
  5
11F
330
1F
100
AcDbEntity
  8
0
  6
Continuous
 62
     0
370
     0
100
AcDbCircle
 10
256.9710830567707
 20
119.0400268761972
 30
0.0
 40
0.0660758057477824
100
AcDbArc
 50
0.1201773153951019
 51
13.07329928054723
  0
LINE
  5
120
330
1F
100
AcDbEntity
  8
0
  6
Continuous
 62
     0
370
     0
100
AcDbLine
 10
257.0371587171694
 20
119.0401654694268
 30
0.0
 11
257.0371587171694
 21
118.992201611776
 31
0.0
  0
ARC
  5
121
330
1F
100
AcDbEntity
  8
0
  6
Continuous
 62
     0
370
     0
100
AcDbCircle
 10
256.9893572930127
 20
118.9916233467835
 30
0.0
 40
0.0478049217320174
100
AcDbArc
 50
344.6021546614395
 51
0.6930866186225432
  0
LINE
  5
122
330
1F
100
AcDbEntity
  8
0
  6
Continuous
 62
     0
370
     0
100
AcDbLine
 10
257.035446275725
 20
118.9789301905819
 30
0.0
 11
257.0326722755572
 21
118.9694497738072
 31
0.0
  0
ARC
  5
123
330
1F
100
AcDbEntity
  8
0
  6
Continuous
 62
     0
370
     0
100
AcDbCircle
 10
257.0884990716854
 20
118.9554112408349
 30
0.0
 40
0.0575648466858234
100
AcDbArc
 50
165.8847370077207
 51
194.1152629922793
  0
LINE
  5
124
330
1F
100
AcDbEntity
  8
0
  6
Continuous
 62
     0
370
     0
100
AcDbLine
 10
257.0326722755572
 20
118.9413727078625
 30
0.0
 11
257.035446275725
 21
118.9294030521103
 31
0.0
  0
ARC
  5
125
330
1F
100
AcDbEntity
  8
0
  6
Continuous
 62
     0
370
     0
100
AcDbCircle
 10
256.9710834080306
 20
118.9144569355977
 30
0.0
 40
0.0660754503325835
100
AcDbArc
 50
0.1184473733222626
 51
13.07331866506516
  0
LINE
  5
126
330
1F
100
AcDbEntity
  8
0
  6
Continuous
 62
     0
370
     0
100
AcDbLine
 10
257.0371587171694
 20
118.9145935330578
 30
0.0
 11
257.0371587171694
 21
118.8643147800156
 31
0.0
  0
ARC
  5
127
330
1F
100
AcDbEntity
  8
0
  6
Continuous
 62
     0
370
     0
100
AcDbCircle
 10
256.9854740109239
 20
118.863987000704
 30
0.0
 40
0.0516857456071461
100
AcDbArc
 50
349.7172116495487
 51
0.3633593137889922
  0
LINE
  5
128
330
1F
100
AcDbEntity
  8
0
  6
Continuous
 62
     0
370
     0
100
AcDbLine
 10
257.0363296165606
 20
118.8547607515046
 30
0.0
 11
257.0246137275835
 21
118.7921326611229
 31
0.0
  0
LWPOLYLINE
  5
129
330
1F
100
AcDbEntity
  8
0
  6
Continuous
 62
     0
370
     0
100
AcDbPolyline
 90
        9
 70
   128
 43
0.0
 10
257.009201754584
 20
118.7775769088456
 10
257.0117277994295
 20
118.7768272314259
 10
257.0141918554446
 20
118.7768582258412
 10
257.0165319337984
 20
118.7776698920914
 10
257.0187015428683
 20
118.779242858667
 10
257.0206386938235
 20
118.7815403196999
 10
257.0222891464373
 20
118.7845041606614
 10
257.0236296548983
 20
118.788064644117
 10
257.0246137275835
 20
118.7921326611229
  0
LINE
  5
12A
330
1F
100
AcDbEntity
  8
0
  6
Continuous
 62
     0
370
     0
100
AcDbLine
 10
257.009201754584
 20
118.7775769088456
 30
0.0
 11
256.9965405359408
 21
118.7832546982953
 31
0.0
  0
LINE
  5
12B
330
1F
100
AcDbEntity
  8
0
  6
Continuous
 62
     0
370
     0
100
AcDbLine
 10
256.9965405359408
 20
118.7832546982953
 30
0.0
 11
256.9965405359408
 21
119.1725213084408
 31
0.0
  0
ARC
  5
12C
330
1F
100
AcDbEntity
  8
0
  6
Continuous
 62
     0
370
     0
100
AcDbCircle
 10
256.9698668121189
 20
119.1749625268209
 30
0.0
 40
0.0267852028124962
100
AcDbArc
 50
354.7707739500547
 51
50.82980895838252
  0
LINE
  5
12D
330
1F
100
AcDbEntity
  8
0
  6
Continuous
 62
     0
370
     0
100
AcDbLine
 10
256.9867850437304
 20
119.1957283768841
 30
0.0
 11
256.9542873993059
 21
119.2102976892182
 31
0.0
  0
ARC
  5
12E
330
1F
100
AcDbEntity
  8
0
  6
Continuous
 62
     0
370
     0
100
AcDbCircle
 10
256.965575633996
 20
119.2241424406608
 30
0.0
 40
0.0178634091069748
100
AcDbArc
 50
174.7796151705538
 51
230.8081255299471
  0
LINE
  5
12F
330
1F
100
AcDbEntity
  8
0
  6
Continuous
 62
     0
370
     0
100
AcDbLine
 10
256.9477863207003
 20
119.2257677767464
 30
0.0
 11
256.9477863207003
 21
119.5271380994507
 31
0.0
  0
LINE
  5
130
330
1F
100
AcDbEntity
  8
0
  6
Continuous
 62
     0
370
     0
100
AcDbLine
 10
256.9802839651247
 20
119.5753537867257
 30
0.0
 11
256.9477863207003
 21
119.5271380994507
 31
0.0
  0
LINE
  5
131
330
1F
100
AcDbEntity
  8
0
  6
Continuous
 62
     0
370
     0
100
AcDbLine
 10
256.9802839651247
 20
119.5753537867257
 30
0.0
 11
257.2727860107561
 21
119.4442299757191
 31
0.0
  0
LINE
  5
132
330
1F
100
AcDbEntity
  8
0
  6
Continuous
 62
     0
370
     0
100
AcDbLine
 10
257.2848893299242
 20
119.4154264781663
 30
0.0
 11
257.2727860107561
 21
119.4442299757191
 31
0.0
  0
LINE
  5
133
330
1F
100
AcDbEntity
  8
0
  6
Continuous
 62
     0
370
     0
100
AcDbLine
 10
257.3052836551806
 20
119.2213103923985
 30
0.0
 11
257.3052836551806
 21
119.0655053410718
 31
0.0
  0
LWPOLYLINE
  5
134
330
1F
100
AcDbEntity
  8
0
  6
Continuous
 62
     0
370
     0
100
AcDbPolyline
 90
        9
 70
   128
 43
0.0
 10
257.2987903251787
 20
119.0558622036168
 10
257.3000533476015
 20
119.0555348251053
 10
257.3012776270052
 20
119.0557033572384
 10
257.3024011745592
 20
119.0563600514123
 10
257.3033852472445
 20
119.0574797246644
 10
257.3041911020418
 20
119.0590197596737
 10
257.3047954931399
 20
119.0609220419118
 10
257.3051596775194
 20
119.0631110224911
 10
257.3052836551806
 20
119.0655053410718
  0
LINE
  5
135
330
1F
100
AcDbEntity
  8
0
  6
Continuous
 62
     0
370
     0
100
AcDbLine
 10
257.2987903251787
 20
119.0558622036168
 30
0.0
 11
257.2662849321505
 21
119.0704315159508
 31
0.0
  0
LINE
  5
136
330
1F
100
AcDbEntity
  8
0
  6
Continuous
 62
     0
370
     0
100
AcDbLine
 10
200.7048864259859
 20
110.3716357801148
 30
0.0
 11
256.9965405359408
 21
118.7832546982953
 31
0.0
  0
LINE
  5
137
330
1F
100
AcDbEntity
  8
0
  6
Continuous
 62
     0
370
     0
100
AcDbLine
 10
200.7175476446291
 20
110.3659579906651
 30
0.0
 11
257.009201754584
 21
118.7775769088456
 31
0.0
  0
LINE
  5
138
330
1F
100
AcDbEntity
  8
0
  6
Continuous
 62
     0
370
     0
100
AcDbLine
 10
200.7175476446291
 20
110.3659579906651
 30
0.0
 11
200.7048864259859
 21
110.3716357801148
 31
0.0
  0
LINE
  5
139
330
1F
100
AcDbEntity
  8
0
  6
Continuous
 62
     0
370
     0
100
AcDbLine
 10
200.7048864259859
 20
110.3716357801148
 30
0.0
 11
200.7048864259859
 21
110.7609023902604
 31
0.0
  0
LWPOLYLINE
  5
13A
330
1F
100
AcDbEntity
  8
0
  6
Continuous
 62
     0
370
     0
100
AcDbPolyline
 90
        3
 70
   128
 43
0.0
 10
200.722351778998
 20
110.3652083132454
 10
200.7200736894747
 20
110.3652083132454
 10
200.7175476446291
 20
110.3659579906651
  0
ARC
  5
13B
330
1F
100
AcDbEntity
  8
0
  6
Continuous
 62
     0
370
     0
100
AcDbCircle
 10
200.6738941614918
 20
110.8125176621341
 30
0.0
 40
0.0178366952127947
100
AcDbArc
 50
174.7528710994335
 51
230.8836423875829
  0
LINE
  5
13C
330
1F
100
AcDbEntity
  8
0
  6
Continuous
 62
     0
370
     0
100
AcDbLine
 10
256.9477863207003
 20
119.5271380994507
 30
0.0
 11
250.7499570741793
 21
118.6009997878262
 31
0.0
  0
LINE
  5
13D
330
1F
100
AcDbEntity
  8
0
  6
Continuous
 62
     0
370
     0
100
AcDbLine
 10
249.8577440872332
 20
118.4676773104855
 30
0.0
 11
207.6868433847567
 21
112.1661116931626
 31
0.0
  0
LINE
  5
13E
330
1F
100
AcDbEntity
  8
0
  6
Continuous
 62
     0
370
     0
100
AcDbLine
 10
206.7946381464144
 20
112.0327892158219
 30
0.0
 11
200.6561322107455
 21
111.1155191812703
 31
0.0
  0
LINE
  5
13F
330
1F
100
AcDbEntity
  8
0
  6
Continuous
 62
     0
370
     0
100
AcDbLine
 10
200.6561322107455
 20
110.814148858566
 30
0.0
 11
200.6561322107455
 21
111.1155191812703
 31
0.0
  0
LINE
  5
140
330
1F
100
AcDbEntity
  8
0
  6
Continuous
 62
     0
370
     0
100
AcDbLine
 10
200.6951386823794
 20
110.7841094587037
 30
0.0
 11
200.6626410379549
 21
110.7986787710377
 31
0.0
  0
ARC
  5
141
330
1F
100
AcDbEntity
  8
0
  6
Continuous
 62
     0
370
     0
100
AcDbCircle
 10
200.6782217252561
 20
110.7633530487593
 30
0.0
 40
0.0267770796034394
100
AcDbArc
 50
354.7488990413309
 51
50.8191647572145
  0
LINE
  5
142
330
1F
100
AcDbEntity
  8
0
  6
Continuous
 62
     0
370
     0
100
AcDbLine
 10
200.6886298551699
 20
111.1637348685452
 30
0.0
 11
206.7931039228579
 21
112.0759198818394
 31
0.0
  0
LINE
  5
143
330
1F
100
AcDbEntity
  8
0
  6
Continuous
 62
     0
370
     0
100
AcDbLine
 10
207.6853246584078
 20
112.2092442963311
 30
0.0
 11
249.8562176122805
 21
118.510809913654
 31
0.0
  0
LINE
  5
144
330
1F
100
AcDbEntity
  8
0
  6
Continuous
 62
     0
370
     0
100
AcDbLine
 10
250.7484305992266
 20
118.6441323909947
 30
0.0
 11
256.9802839651247
 21
119.5753537867257
 31
0.0
  0
LINE
  5
145
330
1F
100
AcDbEntity
  8
0
  6
Continuous
 62
     0
370
     0
100
AcDbLine
 10
200.6561322107455
 20
111.1155191812703
 30
0.0
 11
200.6886298551699
 21
111.1637348685452
 31
0.0
  0
LINE
  5
146
330
1F
100
AcDbEntity
  8
0
  6
Continuous
 62
     0
370
     0
100
AcDbLine
 10
257.20084022428
 20
118.6583762619683
 30
0.0
 11
257.2565371885439
 21
118.6666982624718
 31
0.0
  0
LWPOLYLINE
  5
147
330
1F
100
AcDbEntity
  8
0
  6
Continuous
 62
     0
370
     0
100
AcDbPolyline
 90
        7
 70
   128
 43
0.0
 10
258.130548705115
 20
119.3245624754616
 10
258.136515130057
 20
119.249133691568
 10
258.1538255109926
 20
119.1757389161774
 10
258.180790652289
 20
119.1115630421826
 10
258.2147682800432
 20
119.0628901872822
 10
258.2524264946123
 20
119.0344838056752
 10
258.2884497537752
 20
119.0288544449994
  0
LWPOLYLINE
  5
148
330
1F
100
AcDbEntity
  8
0
  6
Continuous
 62
     0
370
     0
100
AcDbPolyline
 90
        6
 70
   128
 43
0.0
 10
258.2164032354494
 20
119.5110016319939
 10
258.2147682800432
 20
119.5107323680111
 10
258.180790652289
 20
119.4925212118813
 10
258.1538255109926
 20
119.4525190446564
 10
258.136515130057
 20
119.3946447227189
 10
258.130548705115
 20
119.3245624754616
  0
LWPOLYLINE
  5
149
330
1F
100
AcDbEntity
  8
0
  6
Continuous
 62
     0
370
     0
100
AcDbPolyline
 90
       10
 70
   128
 43
0.0
 10
257.1121806993624
 20
119.0066295120904
 10
257.1079344644686
 20
119.0055737648198
 10
257.0921195640703
 20
118.9922481033989
 10
257.0815504684588
 20
118.966431692619
 10
257.0778466358324
 20
118.932055011768
 10
257.0815504684588
 20
118.894352242727
 10
257.0921195640703
 20
118.8590612266251
 10
257.1079344644686
 20
118.8315556202122
 10
257.1265931024691
 20
118.8160235438534
 10
257.1410055055758
 20
118.8137725744435
  0
LWPOLYLINE
  5
14A
330
1F
100
AcDbEntity
  8
0
  6
Continuous
 62
     0
370
     0
100
AcDbPolyline
 90
       10
 70
   128
 43
0.0
 10
257.1121806993624
 20
119.3896197531411
 10
257.1079344644686
 20
119.3885620687195
 10
257.0921195640703
 20
119.3752383444497
 10
257.0815504684588
 20
119.3494219336697
 10
257.0778466358324
 20
119.3150452528187
 10
257.0815504684588
 20
119.2773405466267
 10
257.0921195640703
 20
119.2420495305249
 10
257.1079344644686
 20
119.2145458612629
 10
257.1265931024691
 20
119.1990137849042
 10
257.1410055055758
 20
119.1967608783433
  0
LWPOLYLINE
  5
14B
330
1F
100
AcDbEntity
  8
0
  6
Continuous
 62
     0
370
     0
100
AcDbPolyline
 90
        6
 70
   128
 43
0.0
 10
200.8613617315432
 20
110.1993630085179
 10
200.8349389925143
 20
110.2034910772034
 10
200.8007521524569
 20
110.2319497618863
 10
200.7717723741671
 20
110.2823408696839
 10
200.7523853674074
 20
110.3470029685685
 10
200.7487435236117
 20
110.3691523525902
  0
LWPOLYLINE
  5
14C
330
1F
100
AcDbEntity
  8
0
  6
Continuous
 62
     0
370
     0
100
AcDbPolyline
 90
        9
 70
   128
 43
0.0
 10
257.2159654989382
 20
118.7477041039654
 10
257.2091622247835
 20
118.6846808347889
 10
257.1897907152315
 20
118.6373504255005
 10
257.1607954397341
 20
118.6129210148045
 10
257.1265931024691
 20
118.6151099953839
 10
257.0923907652041
 20
118.6435861144253
 10
257.0633954897066
 20
118.6940120909401
 10
257.0440239801546
 20
118.7587129328438
 10
257.037220706
 20
118.8278362903782
  0
LINE
  5
14D
330
1F
100
AcDbEntity
  8
0
  6
Continuous
 62
     0
370
     0
100
AcDbLine
 10
257.037220706
 20
119.4556882236191
 30
0.0
 11
257.1664906635424
 21
119.3977344784924
 31
0.0
  0
LINE
  5
14E
330
1F
100
AcDbEntity
  8
0
  6
Continuous
 62
     0
370
     0
100
AcDbLine
 10
257.2159654989382
 20
119.2079634223172
 30
0.0
 11
257.2159654989382
 21
119.0221383426377
 31
0.0
  0
LINE
  5
14F
330
1F
100
AcDbEntity
  8
0
  6
Continuous
 62
     0
370
     0
100
AcDbLine
 10
257.2159654989382
 20
118.8249731812665
 30
0.0
 11
257.2159654989382
 21
118.7477041039654
 31
0.0
  0
LINE
  5
150
330
1F
100
AcDbEntity
  8
0
  6
Continuous
 62
     0
370
     0
100
AcDbLine
 10
257.037220706
 20
118.8278362903782
 30
0.0
 11
257.037220706
 21
119.4556882236191
 31
0.0
  0
LINE
  5
151
330
1F
100
AcDbEntity
  8
0
  6
Continuous
 62
     0
370
     0
100
AcDbLine
 10
257.0290381803652
 20
119.4544658813664
 30
0.0
 11
257.037220706
 21
119.4556882236191
 31
0.0
  0
LINE
  5
152
330
1F
100
AcDbEntity
  8
0
  6
Continuous
 62
     0
370
     0
100
AcDbLine
 10
250.804453004851
 20
118.7110164020249
 30
0.0
 11
251.0579563274523
 21
118.7488973889538
 31
0.0
  0
LINE
  5
153
330
1F
100
AcDbEntity
  8
0
  6
Continuous
 62
     0
370
     0
100
AcDbLine
 10
250.8109540834567
 20
118.8596249375531
 30
0.0
 11
250.8072812452456
 21
118.8590767238328
 31
0.0
  0
LINE
  5
154
330
1F
100
AcDbEntity
  8
0
  6
Continuous
 62
     0
370
     0
100
AcDbLine
 10
250.7545442476412
 20
118.6651640389153
 30
0.0
 11
250.750879158034
 21
118.664615825195
 31
0.0
  0
LINE
  5
155
330
1F
100
AcDbEntity
  8
0
  6
Continuous
 62
     0
370
     0
100
AcDbLine
 10
251.064457406058
 20
118.7334273014256
 30
0.0
 11
250.804453004851
 21
118.6945758018681
 31
0.0
  0
LINE
  5
156
330
1F
100
AcDbEntity
  8
0
  6
Continuous
 62
     0
370
     0
100
AcDbLine
 10
249.6169639721057
 20
118.6840938780495
 30
0.0
 11
249.6169639721057
 21
118.6462419483849
 31
0.0
  0
LINE
  5
157
330
1F
100
AcDbEntity
  8
0
  6
Continuous
 62
     0
370
     0
100
AcDbLine
 10
207.7413470640322
 20
112.2761283073613
 30
0.0
 11
207.9948348894259
 21
112.3140092942902
 31
0.0
  0
LINE
  5
158
330
1F
100
AcDbEntity
  8
0
  6
Continuous
 62
     0
370
     0
100
AcDbLine
 10
207.747840394034
 20
112.4247368428895
 30
0.0
 11
207.744167555823
 21
112.4241886291691
 31
0.0
  0
LINE
  5
159
330
1F
100
AcDbEntity
  8
0
  6
Continuous
 62
     0
370
     0
100
AcDbLine
 10
207.6914305582186
 20
112.2302759442517
 30
0.0
 11
207.6877577200075
 21
112.2297257933804
 31
0.0
  0
LINE
  5
15A
330
1F
100
AcDbEntity
  8
0
  6
Continuous
 62
     0
370
     0
100
AcDbLine
 10
208.0013437166353
 20
112.298537269611
 30
0.0
 11
207.7413470640322
 21
112.2596857700535
 31
0.0
  0
LINE
  5
15B
330
1F
100
AcDbEntity
  8
0
  6
Continuous
 62
     0
370
     0
100
AcDbLine
 10
206.5538580312868
 20
112.2492057833859
 30
0.0
 11
206.5538580312868
 21
112.2113519165703
 31
0.0
  0
LINE
  5
15C
330
1F
100
AcDbEntity
  8
0
  6
Continuous
 62
     0
370
     0
100
AcDbLine
 10
256.9965405359408
 20
119.1725213084408
 30
0.0
 11
250.7690341367861
 21
118.2419507954308
 31
0.0
  0
LINE
  5
15D
330
1F
100
AcDbEntity
  8
0
  6
Continuous
 62
     0
370
     0
100
AcDbLine
 10
249.8704750433108
 20
118.1076791141221
 30
0.0
 11
207.7059204473635
 21
111.8070627007672
 31
0.0
  0
LINE
  5
15E
330
1F
100
AcDbEntity
  8
0
  6
Continuous
 62
     0
370
     0
100
AcDbLine
 10
206.8073613538882
 20
111.6727910194584
 30
0.0
 11
200.7048864259859
 21
110.7609023902604
 31
0.0
  0
LINE
  5
15F
330
1F
100
AcDbEntity
  8
0
  6
Continuous
 62
     0
370
     0
100
AcDbLine
 10
200.6561322107455
 20
110.814148858566
 30
0.0
 11
206.8052227392336
 21
111.7330034825989
 31
0.0
  0
LINE
  5
160
330
1F
100
AcDbEntity
  8
0
  6
Continuous
 62
     0
370
     0
100
AcDbLine
 10
207.6925928487917
 20
111.8656014654824
 30
0.0
 11
249.8683441772601
 21
118.1678915772626
 31
0.0
  0
LINE
  5
161
330
1F
100
AcDbEntity
  8
0
  6
Continuous
 62
     0
370
     0
100
AcDbLine
 10
250.7557065382144
 20
118.300489560146
 30
0.0
 11
256.9477863207003
 21
119.2257677767464
 31
0.0
  0
LINE
  5
162
330
1F
100
AcDbEntity
  8
0
  6
Continuous
 62
     0
370
     0
100
AcDbLine
 10
256.9542873993059
 20
119.2102976892182
 30
0.0
 11
250.7611383094927
 21
118.2848606262394
 31
0.0
  0
LINE
  5
163
330
1F
100
AcDbEntity
  8
0
  6
Continuous
 62
     0
370
     0
100
AcDbLine
 10
249.8689175739428
 20
118.1515362117478
 30
0.0
 11
207.6980168714663
 21
111.8499705944249
 31
0.0
  0
LINE
  5
164
330
1F
100
AcDbEntity
  8
0
  6
Continuous
 62
     0
370
     0
100
AcDbLine
 10
206.805811633124
 20
111.7166481170842
 30
0.0
 11
200.6626410379549
 21
110.7986787710377
 31
0.0
  0
LINE
  5
165
330
1F
100
AcDbEntity
  8
0
  6
Continuous
 62
     0
370
     0
100
AcDbLine
 10
200.6951386823794
 20
110.7841094587037
 30
0.0
 11
206.8064935102602
 21
111.6973250363061
 31
0.0
  0
LINE
  5
166
330
1F
100
AcDbEntity
  8
0
  6
Continuous
 62
     0
370
     0
100
AcDbLine
 10
207.6986987486025
 20
111.8306475136468
 30
0.0
 11
249.8696071996829
 21
118.1322131309697
 31
0.0
  0
LINE
  5
167
330
1F
100
AcDbEntity
  8
0
  6
Continuous
 62
     0
370
     0
100
AcDbLine
 10
250.761820186629
 20
118.2655356083104
 30
0.0
 11
256.9867850437304
 21
119.1957283768841
 31
0.0
  0
LINE
  5
168
330
1F
100
AcDbEntity
  8
0
  6
Continuous
 62
     0
370
     0
100
AcDbLine
 10
257.2119439735552
 20
118.6982835087964
 30
0.0
 11
257.2284562482973
 21
118.7007514391133
 31
0.0
  0
LINE
  5
169
330
1F
100
AcDbEntity
  8
0
  6
Continuous
 62
     0
370
     0
100
AcDbLine
 10
257.2167481079241
 20
118.7738808248231
 30
0.0
 11
257.2159654989382
 21
118.7737645957657
 31
0.0
  0
LINE
  5
16A
330
1F
100
AcDbEntity
  8
0
  6
Continuous
 62
     0
370
     0
100
AcDbLine
 10
257.2438759699007
 20
118.6723760519215
 30
0.0
 11
257.2038776769778
 21
118.6663980040738
 31
0.0
  0
LINE
  5
16B
330
1F
100
AcDbEntity
  8
0
  6
Continuous
 62
     0
370
     0
100
AcDbLine
 10
257.2176237001559
 20
119.0228318426797
 30
0.0
 11
257.2159654989382
 21
119.0225838873574
 31
0.0
  0
LINE
  5
16C
330
1F
100
AcDbEntity
  8
0
  6
Continuous
 62
     0
370
     0
100
AcDbLine
 10
257.2159654989382
 20
119.0986248109528
 30
0.0
 11
257.2176237001559
 21
119.0988727662751
 31
0.0
  0
LINE
  5
16D
330
1F
100
AcDbEntity
  8
0
  6
Continuous
 62
     0
370
     0
100
AcDbLine
 10
257.2223193540713
 20
119.1149046275803
 30
0.0
 11
257.2159654989382
 21
119.1139554236123
 31
0.0
  0
LINE
  5
16E
330
1F
100
AcDbEntity
  8
0
  6
Continuous
 62
     0
370
     0
100
AcDbLine
 10
257.2159654989382
 20
119.1269692037293
 30
0.0
 11
257.2240395441195
 21
119.1281760487744
 31
0.0
  0
LINE
  5
16F
330
1F
100
AcDbEntity
  8
0
  6
Continuous
 62
     0
370
     0
100
AcDbLine
 10
257.2662849321505
 20
119.0704315159508
 30
0.0
 11
257.2607834234377
 21
119.0696082267949
 31
0.0
  0
LINE
  5
170
330
1F
100
AcDbEntity
  8
0
  6
Continuous
 62
     0
370
     0
100
AcDbLine
 10
257.2565371885439
 20
119.0495490286538
 30
0.0
 11
257.2987903251787
 21
119.0558622036168
 31
0.0
  0
LINE
  5
179
330
1F
100
AcDbEntity
  8
0
  6
Continuous
 62
     0
370
     0
100
AcDbLine
 10
257.031122554793
 20
118.8269238922783
 30
0.0
 11
257.037220706
 21
118.8278362903782
 31
0.0
  0
ARC
  5
17A
330
1F
100
AcDbEntity
  8
0
  6
ByBlock
 62
     0
370
     0
100
AcDbCircle
 10
264.7443385112028
 20
120.9808581272193
 30
0.0
 40
3.003268235351955
100
AcDbArc
 50
157.3801350519596
 51
202.6198649480422
  0
ARC
  5
17B
330
1F
100
AcDbEntity
  8
0
  6
ByBlock
 62
     0
370
     0
100
AcDbCircle
 10
259.1998433074763
 20
118.6706517923332
 30
0.0
 40
3.003268235351952
100
AcDbArc
 50
337.3801350519606
 51
22.61986494803993
  0
ARC
  5
17C
330
1F
100
AcDbEntity
  8
0
  6
ByBlock
 62
     0
370
     0
100
AcDbCircle
 10
265.272456999974
 20
121.0597741639675
 30
0.0
 40
3.003268235351972
100
AcDbArc
 50
157.3801350519596
 51
202.6198649480409
  0
ARC
  5
17D
330
1F
100
AcDbEntity
  8
0
  6
ByBlock
 62
     0
370
     0
100
AcDbCircle
 10
259.7279617962473
 20
118.7495678290814
 30
0.0
 40
3.003268235351955
100
AcDbArc
 50
337.3801350519595
 51
22.61986494803993
  0
LINE
  5
2FF
330
1F
100
AcDbEntity
  8
0
  6
Continuous
 62
     0
370
     0
100
AcDbLine
 10
193.5915131464144
 20
109.5597409460731
 30
0.0
 11
194.4358940019747
 21
109.6859153363892
 31
0.0
  0
LINE
  5
300
330
1F
100
AcDbEntity
  8
0
  6
Continuous
 62
     0
370
     0
100
AcDbLine
 10
194.408727396979
 20
110.3714478764721
 30
0.0
 11
193.5643465414187
 21
110.2452734861561
 31
0.0
  0
LINE
  5
301
330
1F
100
AcDbEntity
  8
0
  6
Continuous
 62
     0
370
     0
100
AcDbLine
 10
150.5283994569918
 20
103.1248528514096
 30
0.0
 11
151.3727803125521
 21
103.2510272417256
 31
0.0
  0
LINE
  5
302
330
1F
100
AcDbEntity
  8
0
  6
Continuous
 62
     0
370
     0
100
AcDbLine
 10
151.3456137075563
 20
103.9365578446576
 30
0.0
 11
150.5012328519961
 21
103.8103853914925
 31
0.0
  0
LINE
  5
303
330
1F
100
AcDbEntity
  8
0
  6
Continuous
 62
     0
370
     0
100
AcDbLine
 10
144.5696456327577
 20
101.7877382788846
 30
0.0
 11
200.8612997427126
 21
110.199357197065
 31
0.0
  0
LINE
  5
304
330
1F
100
AcDbEntity
  8
0
  6
Continuous
 62
     0
370
     0
100
AcDbLine
 10
144.4306976690432
 20
101.953589395065
 30
0.0
 11
200.722351778998
 21
110.3652083132454
 31
0.0
  0
LINE
  5
305
330
1F
100
AcDbEntity
  8
0
  6
Continuous
 62
     0
370
     0
100
AcDbLine
 10
195.4271108999392
 20
110.3775111589619
 30
0.0
 11
195.0919682874819
 21
110.5277527127453
 31
0.0
  0
LINE
  5
306
330
1F
100
AcDbEntity
  8
0
  6
Continuous
 62
     0
370
     0
100
AcDbLine
 10
195.0919682874819
 20
110.6533227119633
 30
0.0
 11
195.0919682874819
 21
110.5277527127453
 31
0.0
  0
LINE
  5
307
330
1F
100
AcDbEntity
  8
0
  6
Continuous
 62
     0
370
     0
100
AcDbLine
 10
195.0919682874819
 20
110.6533227119633
 30
0.0
 11
195.5469663038393
 21
110.4493523392865
 31
0.0
  0
LINE
  5
308
330
1F
100
AcDbEntity
  8
0
  6
Continuous
 62
     0
370
     0
100
AcDbLine
 10
195.5469663038393
 20
110.4493523392865
 30
0.0
 11
195.5469663038393
 21
110.3954201195427
 31
0.0
  0
LINE
  5
309
330
1F
100
AcDbEntity
  8
0
  6
Continuous
 62
     0
370
     0
100
AcDbLine
 10
194.5128066435
 20
110.4383648190685
 30
0.0
 11
194.5128066435
 21
110.2437295768448
 31
0.0
  0
LWPOLYLINE
  5
30A
330
1F
100
AcDbEntity
  8
0
  6
Continuous
 62
     0
370
     0
100
AcDbPolyline
 90
        3
 70
   128
 43
0.0
 10
194.5126206770083
 20
110.2408587191292
 10
194.5126671686312
 20
110.2413352582642
 10
194.5128066435
 20
110.2437295768448
  0
LINE
  5
30B
330
1F
100
AcDbEntity
  8
0
  6
Continuous
 62
     0
370
     0
100
AcDbLine
 10
194.4965500726839
 20
110.2384566519448
 30
0.0
 11
194.4628901376864
 21
110.2535470578858
 31
0.0
  0
LWPOLYLINE
  5
30C
330
1F
100
AcDbEntity
  8
0
  6
Continuous
 62
     0
370
     0
100
AcDbPolyline
 90
        9
 70
   128
 43
0.0
 10
194.4564123048922
 20
110.2430263910481
 10
194.4564587965151
 20
110.2455756817051
 10
194.4567687406679
 20
110.2479312572667
 10
194.4573421373507
 20
110.2499981973359
 10
194.4581324949404
 20
110.2516854558178
 10
194.4591398134371
 20
110.2529271695801
 10
194.4603021040102
 20
110.253667161245
 10
194.4615728750368
 20
110.2538763735482
 10
194.4628901376864
 20
110.2535470578858
  0
LINE
  5
30D
330
1F
100
AcDbEntity
  8
0
  6
Continuous
 62
     0
370
     0
100
AcDbLine
 10
194.4564123048922
 20
110.2430263910481
 30
0.0
 11
194.4640524282595
 21
110.0268461559006
 31
0.0
  0
LINE
  5
30E
330
1F
100
AcDbEntity
  8
0
  6
Continuous
 62
     0
370
     0
100
AcDbLine
 10
194.4694454565188
 20
109.8740746829697
 30
0.0
 11
194.4702358141085
 21
109.8518923673817
 31
0.0
  0
ARC
  5
30F
330
1F
100
AcDbEntity
  8
0
  6
Continuous
 62
     0
370
     0
100
AcDbCircle
 10
194.5067345919602
 20
109.8528091967043
 30
0.0
 40
0.0365102911612093
100
AcDbArc
 50
181.438936022476
 51
207.1049272054563
  0
LINE
  5
310
330
1F
100
AcDbEntity
  8
0
  6
Continuous
 62
     0
370
     0
100
AcDbLine
 10
194.47423409368
 20
109.8361743245312
 30
0.0
 11
194.4965500726839
 21
109.7947987172791
 31
0.0
  0
LINE
  5
311
330
1F
100
AcDbEntity
  8
0
  6
Continuous
 62
     0
370
     0
100
AcDbLine
 10
194.4965500726839
 20
109.7947987172791
 30
0.0
 11
194.4965500726839
 21
109.7759637985417
 31
0.0
  0
LINE
  5
312
330
1F
100
AcDbEntity
  8
0
  6
Continuous
 62
     0
370
     0
100
AcDbLine
 10
194.4965500726839
 20
109.7759637985417
 30
0.0
 11
194.438606013312
 21
109.6878970418164
 31
0.0
  0
LWPOLYLINE
  5
313
330
1F
100
AcDbEntity
  8
0
  6
Continuous
 62
     0
370
     0
100
AcDbPolyline
 90
        9
 70
   128
 43
0.0
 10
194.4274790182253
 20
109.7008100900837
 10
194.427881945624
 20
109.6971236918159
 10
194.4287652864596
 20
109.6935709569642
 10
194.4300825491091
 20
109.6904443953225
 10
194.4317252531191
 20
109.687999710817
 10
194.4335384264132
 20
109.6864364299962
 10
194.4353980913302
 20
109.685882404823
 10
194.437133778586
 20
109.6863821897694
 10
194.438606013312
 20
109.6878970418164
  0
LINE
  5
314
330
1F
100
AcDbEntity
  8
0
  6
Continuous
 62
     0
370
     0
100
AcDbLine
 10
194.4274790182253
 20
109.7008100900837
 30
0.0
 11
194.4041557207247
 21
110.3606269512363
 31
0.0
  0
LWPOLYLINE
  5
315
330
1F
100
AcDbEntity
  8
0
  6
Continuous
 62
     0
370
     0
100
AcDbPolyline
 90
        9
 70
   128
 43
0.0
 10
194.4106335535189
 20
110.3711476180741
 10
194.4093162908694
 20
110.3714769337365
 10
194.4080455198427
 20
110.3712677214333
 10
194.4068832292696
 20
110.3705277297684
 10
194.4058914079805
 20
110.3692860160061
 10
194.4050855531832
 20
110.3675987575242
 10
194.4045121565005
 20
110.365531817455
 10
194.4042022123476
 20
110.3631762418934
 10
194.4041557207247
 20
110.3606269512363
  0
LINE
  5
316
330
1F
100
AcDbEntity
  8
0
  6
Continuous
 62
     0
370
     0
100
AcDbLine
 10
194.4106335535189
 20
110.3711476180741
 30
0.0
 11
194.4640524282595
 21
110.3472044322678
 31
0.0
  0
LINE
  5
317
330
1F
100
AcDbEntity
  8
0
  6
Continuous
 62
     0
370
     0
100
AcDbLine
 10
194.4640524282595
 20
110.3472044322678
 30
0.0
 11
194.4640524282595
 21
110.4727744314858
 31
0.0
  0
LINE
  5
318
330
1F
100
AcDbEntity
  8
0
  6
Continuous
 62
     0
370
     0
100
AcDbLine
 10
194.5192999735018
 20
110.4480079565236
 30
0.0
 11
194.4640524282595
 21
110.4727744314858
 31
0.0
  0
LWPOLYLINE
  5
319
330
1F
100
AcDbEntity
  8
0
  6
Continuous
 62
     0
370
     0
100
AcDbPolyline
 90
        9
 70
   128
 43
0.0
 10
194.5128066435
 20
110.4383648190685
 10
194.5129306211611
 20
110.4407572004982
 10
194.5132870569368
 20
110.4429481182286
 10
194.5138914480349
 20
110.4448484633156
 10
194.5146973028322
 20
110.446390435476
 10
194.5156891241213
 20
110.4475101087281
 10
194.5168049230715
 20
110.4481668029018
 10
194.5180292024752
 20
110.448333397884
 10
194.5192999735018
 20
110.4480079565236
  0
LINE
  5
31A
330
1F
100
AcDbEntity
  8
0
  6
Continuous
 62
     0
370
     0
100
AcDbLine
 10
194.8641903295656
 20
110.2933942530343
 30
0.0
 11
194.821542014136
 21
110.3125119958111
 31
0.0
  0
LINE
  5
31B
330
1F
100
AcDbEntity
  8
0
  6
Continuous
 62
     0
370
     0
100
AcDbLine
 10
194.821542014136
 20
110.3125119958111
 30
0.0
 11
194.7662944688936
 21
110.3372804079243
 31
0.0
  0
LINE
  5
31C
330
1F
100
AcDbEntity
  8
0
  6
Continuous
 62
     0
370
     0
100
AcDbLine
 10
193.4569044008394
 20
110.0831048939416
 30
0.0
 11
193.1217617883822
 21
110.2333464477249
 31
0.0
  0
LINE
  5
31D
330
1F
100
AcDbEntity
  8
0
  6
Continuous
 62
     0
370
     0
100
AcDbLine
 10
193.1693382158419
 20
110.279307291288
 30
0.0
 11
193.1217617883822
 21
110.2333464477249
 31
0.0
  0
LINE
  5
31E
330
1F
100
AcDbEntity
  8
0
  6
Continuous
 62
     0
370
     0
100
AcDbLine
 10
193.1693382158419
 20
110.279307291288
 30
0.0
 11
193.6196715726992
 21
110.3466000411698
 31
0.0
  0
LINE
  5
31F
330
1F
100
AcDbEntity
  8
0
  6
Continuous
 62
     0
370
     0
100
AcDbLine
 10
194.9143857851168
 20
110.5400671813675
 30
0.0
 11
194.4640524282595
 21
110.4727744314858
 31
0.0
  0
LINE
  5
320
330
1F
100
AcDbEntity
  8
0
  6
Continuous
 62
     0
370
     0
100
AcDbLine
 10
195.0919682874819
 20
110.5277527127453
 30
0.0
 11
194.9143857851168
 21
110.5400671813675
 31
0.0
  0
LWPOLYLINE
  5
321
330
1F
100
AcDbEntity
  8
0
  6
Continuous
 62
     0
370
     0
100
AcDbPolyline
 90
        3
 70
   128
 43
0.0
 10
193.4878058328768
 20
110.1617764685341
 10
193.5254330530306
 20
110.1506727192589
 10
193.5629362955233
 20
110.1452777538487
  0
LINE
  5
322
330
1F
100
AcDbEntity
  8
0
  6
Continuous
 62
     0
370
     0
100
AcDbLine
 10
193.6196715726992
 20
110.2540720257947
 30
0.0
 11
193.5786194696566
 21
110.27247689702
 31
0.0
  0
LWPOLYLINE
  5
323
330
1F
100
AcDbEntity
  8
0
  6
Continuous
 62
     0
370
     0
100
AcDbPolyline
 90
        9
 70
   128
 43
0.0
 10
193.5786194696566
 20
110.27247689702
 10
193.5409922495028
 20
110.2835806462952
 10
193.4898204698702
 20
110.2901127193162
 10
193.432883728995
 20
110.2910774204918
 10
193.3788449659487
 20
110.2863314006516
 10
193.3359331979891
 20
110.2765933427998
 10
193.3107037439486
 20
110.2633471045682
 10
193.306968916907
 20
110.248609260101
 10
193.3253176107546
 20
110.2346230302044
  0
LINE
  5
324
330
1F
100
AcDbEntity
  8
0
  6
Continuous
 62
     0
370
     0
100
AcDbLine
 10
193.3253176107546
 20
110.2346230302044
 30
0.0
 11
193.4878058328768
 21
110.1617764685341
 31
0.0
  0
LWPOLYLINE
  5
325
330
1F
100
AcDbEntity
  8
0
  6
Continuous
 62
     0
370
     0
100
AcDbPolyline
 90
       17
 70
   128
 43
0.0
 10
194.7955067052981
 20
110.422476306934
 10
194.8138553991457
 20
110.4084900770375
 10
194.8514826192995
 20
110.3973863277623
 10
194.9026543989321
 20
110.3908542547413
 10
194.9595911398073
 20
110.3898876164146
 10
195.0136299028536
 20
110.3946355734059
 10
195.0565416708132
 20
110.4043736312577
 10
195.0817711248537
 20
110.4176198694893
 10
195.0855059518954
 20
110.4323577139565
 10
195.0671572580477
 20
110.4463439438531
 10
195.0295455351015
 20
110.4574476931283
 10
194.9783582582613
 20
110.4639797661492
 10
194.9214215173861
 20
110.4649444673249
 10
194.8673827543398
 20
110.4601984474846
 10
194.8244864835879
 20
110.4504603896329
 10
194.7992415323397
 20
110.4372141514012
 10
194.7955067052981
 20
110.422476306934
  0
LINE
  5
326
330
1F
100
AcDbEntity
  8
0
  6
Continuous
 62
     0
370
     0
100
AcDbLine
 10
194.9143857851168
 20
110.5400671813675
 30
0.0
 11
194.9143857851168
 21
110.6656391177365
 31
0.0
  0
LINE
  5
327
330
1F
100
AcDbEntity
  8
0
  6
Continuous
 62
     0
370
     0
100
AcDbLine
 10
194.9143857851168
 20
110.6656391177365
 30
0.0
 11
195.0919682874819
 21
110.6533227119633
 31
0.0
  0
LINE
  5
328
330
1F
100
AcDbEntity
  8
0
  6
Continuous
 62
     0
370
     0
100
AcDbLine
 10
193.5831136598727
 20
109.5746356997677
 30
0.0
 11
194.4274790182253
 21
109.7008100900837
 31
0.0
  0
LINE
  5
329
330
1F
100
AcDbEntity
  8
0
  6
Continuous
 62
     0
370
     0
100
AcDbLine
 10
193.5831136598727
 20
109.5746356997677
 30
0.0
 11
193.5597748651644
 21
110.2344525609204
 31
0.0
  0
LINE
  5
32A
330
1F
100
AcDbEntity
  8
0
  6
Continuous
 62
     0
370
     0
100
AcDbLine
 10
194.4041557207247
 20
110.3606269512363
 30
0.0
 11
193.5597748651644
 21
110.2344525609204
 31
0.0
  0
LINE
  5
32B
330
1F
100
AcDbEntity
  8
0
  6
Continuous
 62
     0
370
     0
100
AcDbLine
 10
193.6196715726992
 20
110.2535412464329
 30
0.0
 11
193.6196715726992
 21
110.3466000411698
 31
0.0
  0
LINE
  5
32C
330
1F
100
AcDbEntity
  8
0
  6
Continuous
 62
     0
370
     0
100
AcDbLine
 10
193.1693382158419
 20
110.404877290506
 30
0.0
 11
193.1693382158419
 21
110.279307291288
 31
0.0
  0
LINE
  5
32D
330
1F
100
AcDbEntity
  8
0
  6
Continuous
 62
     0
370
     0
100
AcDbLine
 10
193.1693382158419
 20
110.404877290506
 30
0.0
 11
194.9143857851168
 21
110.6656391177365
 31
0.0
  0
LWPOLYLINE
  5
32E
330
1F
100
AcDbEntity
  8
0
  6
Continuous
 62
     0
370
     0
100
AcDbPolyline
 90
        8
 70
   128
 43
0.0
 10
193.5915131464144
 20
109.5597409460731
 10
193.5910172357699
 20
109.559708014507
 10
193.5891575708529
 20
109.5602620396802
 10
193.5873443975588
 20
109.561825320501
 10
193.5857016935488
 20
109.5642700050065
 10
193.5843999281069
 20
109.5673965666482
 10
193.5835010900637
 20
109.5709493015
 10
193.5831136598727
 20
109.5746356997677
  0
LWPOLYLINE
  5
32F
330
1F
100
AcDbEntity
  8
0
  6
Continuous
 62
     0
370
     0
100
AcDbPolyline
 90
        8
 70
   128
 43
0.0
 10
193.5597748651644
 20
110.2344525609204
 10
193.5598213567873
 20
110.2370018515774
 10
193.5601467981478
 20
110.239357427139
 10
193.5607046976229
 20
110.2414243672081
 10
193.5615105524203
 20
110.2431116256901
 10
193.562517870917
 20
110.2443533394524
 10
193.5636801614901
 20
110.2450933311173
 10
193.5643465414187
 20
110.2452734861561
  0
LINE
  5
330
330
1F
100
AcDbEntity
  8
0
  6
Continuous
 62
     0
370
     0
100
AcDbLine
 10
194.7728032961031
 20
110.2797373388001
 30
0.0
 11
194.7728032961031
 21
110.3218083832451
 31
0.0
  0
ARC
  5
331
330
1F
100
AcDbEntity
  8
0
  6
Continuous
 62
     0
370
     0
100
AcDbCircle
 10
194.7550408851717
 20
110.3234411188829
 30
0.0
 40
0.0178372942947823
100
AcDbArc
 50
354.7480828639212
 51
50.88330196671033
  0
LINE
  5
332
330
1F
100
AcDbEntity
  8
0
  6
Continuous
 62
     0
370
     0
100
AcDbLine
 10
194.821542014136
 20
110.3125119958111
 30
0.0
 11
194.821542014136
 21
110.2870229635426
 31
0.0
  0
LINE
  5
333
330
1F
100
AcDbEntity
  8
0
  6
Continuous
 62
     0
370
     0
100
AcDbLine
 10
193.1217617883822
 20
110.2333464477249
 30
0.0
 11
193.1217617883822
 21
110.358916446943
 31
0.0
  0
LINE
  5
334
330
1F
100
AcDbEntity
  8
0
  6
Continuous
 62
     0
370
     0
100
AcDbLine
 10
193.1217617883822
 20
110.358916446943
 30
0.0
 11
193.1693382158419
 21
110.404877290506
 31
0.0
  0
LINE
  5
335
330
1F
100
AcDbEntity
  8
0
  6
Continuous
 62
     0
370
     0
100
AcDbLine
 10
193.4878058328768
 20
110.2873464677521
 30
0.0
 11
193.4878058328768
 21
110.1617764685341
 31
0.0
  0
LINE
  5
336
330
1F
100
AcDbEntity
  8
0
  6
Continuous
 62
     0
370
     0
100
AcDbLine
 10
193.4803671732088
 20
110.290680304546
 30
0.0
 11
193.4878058328768
 21
110.2873464677521
 31
0.0
  0
ARC
  5
337
330
1F
100
AcDbEntity
  8
0
  6
Continuous
 62
     0
370
     0
100
AcDbCircle
 10
193.5967129306605
 20
110.6008751809928
 30
0.0
 40
0.3319051219460959
100
AcDbArc
 50
250.8448565875562
 51
268.1603777433334
  0
LINE
  5
338
330
1F
100
AcDbEntity
  8
0
  6
Continuous
 62
     0
370
     0
100
AcDbLine
 10
152.3639972105166
 20
103.9426230642982
 30
0.0
 11
152.0288545980593
 21
104.0928646180817
 31
0.0
  0
LINE
  5
339
330
1F
100
AcDbEntity
  8
0
  6
Continuous
 62
     0
370
     0
100
AcDbLine
 10
152.0288545980593
 20
104.2184346172996
 30
0.0
 11
152.0288545980593
 21
104.0928646180817
 31
0.0
  0
LINE
  5
33A
330
1F
100
AcDbEntity
  8
0
  6
Continuous
 62
     0
370
     0
100
AcDbLine
 10
152.0288545980593
 20
104.2184346172996
 30
0.0
 11
152.4838526144167
 21
104.0144642446229
 31
0.0
  0
LINE
  5
33B
330
1F
100
AcDbEntity
  8
0
  6
Continuous
 62
     0
370
     0
100
AcDbLine
 10
152.4838526144167
 20
104.0144642446229
 30
0.0
 11
152.4838526144167
 21
103.9605320248791
 31
0.0
  0
LINE
  5
33C
330
1F
100
AcDbEntity
  8
0
  6
Continuous
 62
     0
370
     0
100
AcDbLine
 10
151.4496929540774
 20
104.003474787254
 30
0.0
 11
151.4496929540774
 21
103.8088414821812
 31
0.0
  0
LWPOLYLINE
  5
33D
330
1F
100
AcDbEntity
  8
0
  6
Continuous
 62
     0
370
     0
100
AcDbPolyline
 90
        3
 70
   128
 43
0.0
 10
151.4495069875857
 20
103.8059706244656
 10
151.4495689764162
 20
103.8064471636006
 10
151.4496929540774
 20
103.8088414821812
  0
LINE
  5
33E
330
1F
100
AcDbEntity
  8
0
  6
Continuous
 62
     0
370
     0
100
AcDbLine
 10
151.4334363832613
 20
103.8035685572812
 30
0.0
 11
151.3997764482637
 21
103.8186570260712
 31
0.0
  0
LWPOLYLINE
  5
33F
330
1F
100
AcDbEntity
  8
0
  6
Continuous
 62
     0
370
     0
100
AcDbPolyline
 90
        9
 70
   128
 43
0.0
 10
151.3932986154696
 20
103.8081382963845
 10
151.3933451070925
 20
103.8106875870415
 10
151.3936550512453
 20
103.8130431626031
 10
151.3942284479281
 20
103.8151081655213
 10
151.3950188055178
 20
103.8167973611542
 10
151.3960261240145
 20
103.8180371377656
 10
151.3971884145876
 20
103.8187790665814
 10
151.3984591856142
 20
103.8189882788846
 10
151.3997764482637
 20
103.8186570260712
  0
LINE
  5
340
330
1F
100
AcDbEntity
  8
0
  6
Continuous
 62
     0
370
     0
100
AcDbLine
 10
151.3932986154696
 20
103.8081382963845
 30
0.0
 11
151.4009387388369
 21
103.591958061237
 31
0.0
  0
LINE
  5
341
330
1F
100
AcDbEntity
  8
0
  6
Continuous
 62
     0
370
     0
100
AcDbLine
 10
151.4063317670961
 20
103.439186588306
 30
0.0
 11
151.4071221246859
 21
103.4170023355671
 31
0.0
  0
ARC
  5
342
330
1F
100
AcDbEntity
  8
0
  6
Continuous
 62
     0
370
     0
100
AcDbCircle
 10
151.4436103443612
 20
103.4179185290988
 30
0.0
 40
0.0364997203504955
100
AcDbArc
 50
181.4383544916722
 51
207.1088832609224
  0
LINE
  5
343
330
1F
100
AcDbEntity
  8
0
  6
Continuous
 62
     0
370
     0
100
AcDbLine
 10
151.4111204042574
 20
103.4012862298676
 30
0.0
 11
151.4334363832613
 21
103.3599106226155
 31
0.0
  0
LINE
  5
344
330
1F
100
AcDbEntity
  8
0
  6
Continuous
 62
     0
370
     0
100
AcDbLine
 10
151.4334363832613
 20
103.3599106226155
 30
0.0
 11
151.4334363832613
 21
103.3410757038781
 31
0.0
  0
LINE
  5
345
330
1F
100
AcDbEntity
  8
0
  6
Continuous
 62
     0
370
     0
100
AcDbLine
 10
151.4334363832613
 20
103.3410757038781
 30
0.0
 11
151.3754923238893
 21
103.2530089471528
 31
0.0
  0
LWPOLYLINE
  5
346
330
1F
100
AcDbEntity
  8
0
  6
Continuous
 62
     0
370
     0
100
AcDbPolyline
 90
        9
 70
   128
 43
0.0
 10
151.3643653288027
 20
103.2659219954201
 10
151.3647682562014
 20
103.2622355971524
 10
151.3656515970369
 20
103.2586828623005
 10
151.3669688596865
 20
103.2555563006589
 10
151.3686115636965
 20
103.2531116161534
 10
151.3704247369906
 20
103.2515483353325
 10
151.3722844019076
 20
103.2509943101594
 10
151.3740200891634
 20
103.2514940951058
 10
151.3754923238893
 20
103.2530089471528
  0
LINE
  5
347
330
1F
100
AcDbEntity
  8
0
  6
Continuous
 62
     0
370
     0
100
AcDbLine
 10
151.3643653288027
 20
103.2659219954201
 30
0.0
 11
151.3410420313021
 21
103.9257388565728
 31
0.0
  0
LWPOLYLINE
  5
348
330
1F
100
AcDbEntity
  8
0
  6
Continuous
 62
     0
370
     0
100
AcDbPolyline
 90
        9
 70
   128
 43
0.0
 10
151.3475353613039
 20
103.9362575862595
 10
151.3462026014467
 20
103.9365888390728
 10
151.3449318304201
 20
103.9363796267697
 10
151.3437850370547
 20
103.9356396351047
 10
151.342777718558
 20
103.9343979213425
 10
151.3419718637606
 20
103.9327106628605
 10
151.3413984670778
 20
103.9306437227913
 10
151.341088522925
 20
103.9282881472298
 10
151.3410420313021
 20
103.9257388565728
  0
LINE
  5
349
330
1F
100
AcDbEntity
  8
0
  6
Continuous
 62
     0
370
     0
100
AcDbLine
 10
151.3475353613039
 20
103.9362575862595
 30
0.0
 11
151.4009387388369
 21
103.9123163376041
 31
0.0
  0
LINE
  5
34A
330
1F
100
AcDbEntity
  8
0
  6
Continuous
 62
     0
370
     0
100
AcDbLine
 10
151.4009387388369
 20
103.9123163376041
 30
0.0
 11
151.4009387388369
 21
104.0378863368222
 31
0.0
  0
LINE
  5
34B
330
1F
100
AcDbEntity
  8
0
  6
Continuous
 62
     0
370
     0
100
AcDbLine
 10
151.4561862840792
 20
104.013117924709
 30
0.0
 11
151.4009387388369
 21
104.0378863368222
 31
0.0
  0
LWPOLYLINE
  5
34C
330
1F
100
AcDbEntity
  8
0
  6
Continuous
 62
     0
370
     0
100
AcDbPolyline
 90
        9
 70
   128
 43
0.0
 10
151.4496929540774
 20
104.003474787254
 10
151.4498169317385
 20
104.0058691058346
 10
151.4501888647219
 20
104.008058086414
 10
151.4507777586123
 20
104.009960368652
 10
151.4515836134096
 20
104.0115004036614
 10
151.4525754346987
 20
104.0126220140644
 10
151.4537067308565
 20
104.0132787082383
 10
151.4549155130526
 20
104.0134453032204
 10
151.4561862840792
 20
104.013117924709
  0
LINE
  5
34D
330
1F
100
AcDbEntity
  8
0
  6
Continuous
 62
     0
370
     0
100
AcDbLine
 10
151.8512720956942
 20
104.1051790867039
 30
0.0
 11
151.8512720956942
 21
104.2307490859219
 31
0.0
  0
LINE
  5
34E
330
1F
100
AcDbEntity
  8
0
  6
Continuous
 62
     0
370
     0
100
AcDbLine
 10
151.8512720956942
 20
104.2307490859219
 30
0.0
 11
152.0288545980593
 21
104.2184346172996
 31
0.0
  0
LINE
  5
34F
330
1F
100
AcDbEntity
  8
0
  6
Continuous
 62
     0
370
     0
100
AcDbLine
 10
152.0288545980593
 20
104.0928646180817
 30
0.0
 11
151.8512720956942
 21
104.1051790867039
 31
0.0
  0
LINE
  5
350
330
1F
100
AcDbEntity
  8
0
  6
Continuous
 62
     0
370
     0
100
AcDbLine
 10
151.801076640143
 20
103.8585061583706
 30
0.0
 11
151.758443821921
 21
103.8776239011475
 31
0.0
  0
LINE
  5
351
330
1F
100
AcDbEntity
  8
0
  6
Continuous
 62
     0
370
     0
100
AcDbLine
 10
151.758443821921
 20
103.8776239011475
 30
0.0
 11
151.703180779471
 21
103.9023923132607
 31
0.0
  0
LINE
  5
352
330
1F
100
AcDbEntity
  8
0
  6
Continuous
 62
     0
370
     0
100
AcDbLine
 10
150.3937907114168
 20
103.6482148621269
 30
0.0
 11
150.0586480989595
 21
103.7984564159104
 31
0.0
  0
LINE
  5
353
330
1F
100
AcDbEntity
  8
0
  6
Continuous
 62
     0
370
     0
100
AcDbLine
 10
150.1062245264193
 20
103.8444191966244
 30
0.0
 11
150.0586480989595
 21
103.7984564159104
 31
0.0
  0
LINE
  5
354
330
1F
100
AcDbEntity
  8
0
  6
Continuous
 62
     0
370
     0
100
AcDbLine
 10
150.1062245264193
 20
103.8444191966244
 30
0.0
 11
150.5565578832766
 21
103.9117119465062
 31
0.0
  0
LINE
  5
355
330
1F
100
AcDbEntity
  8
0
  6
Continuous
 62
     0
370
     0
100
AcDbLine
 10
151.8512720956942
 20
104.1051790867039
 30
0.0
 11
151.4009387388369
 21
104.0378863368222
 31
0.0
  0
LWPOLYLINE
  5
356
330
1F
100
AcDbEntity
  8
0
  6
Continuous
 62
     0
370
     0
100
AcDbPolyline
 90
        3
 70
   128
 43
0.0
 10
150.4246921434542
 20
103.7268883738705
 10
150.462319363608
 20
103.7157846245953
 10
150.4998226061007
 20
103.7103896591851
  0
LINE
  5
357
330
1F
100
AcDbEntity
  8
0
  6
Continuous
 62
     0
370
     0
100
AcDbLine
 10
150.5565578832766
 20
103.819183931131
 30
0.0
 11
150.515505780234
 21
103.8375868652054
 31
0.0
  0
LWPOLYLINE
  5
358
330
1F
100
AcDbEntity
  8
0
  6
Continuous
 62
     0
370
     0
100
AcDbPolyline
 90
        9
 70
   128
 43
0.0
 10
150.515505780234
 20
103.8375868652054
 10
150.4778785600802
 20
103.8486925516316
 10
150.4267067804476
 20
103.8552246246525
 10
150.3697700395724
 20
103.8561893258282
 10
150.3157312765261
 20
103.851443305988
 10
150.2728195085665
 20
103.8417052481362
 10
150.247590054526
 20
103.8284590099045
 10
150.2438552274843
 20
103.8137211654374
 10
150.262203921332
 20
103.7997349355408
  0
LINE
  5
359
330
1F
100
AcDbEntity
  8
0
  6
Continuous
 62
     0
370
     0
100
AcDbLine
 10
150.262203921332
 20
103.7997349355408
 30
0.0
 11
150.4246921434542
 21
103.7268883738705
 31
0.0
  0
LWPOLYLINE
  5
35A
330
1F
100
AcDbEntity
  8
0
  6
Continuous
 62
     0
370
     0
100
AcDbPolyline
 90
       17
 70
   128
 43
0.0
 10
151.7323930158754
 20
103.9875882122704
 10
151.7507417097231
 20
103.9736019823739
 10
151.7883689298769
 20
103.9624982330986
 10
151.8395407095095
 20
103.9559661600777
 10
151.8964774503847
 20
103.9549995217511
 10
151.950516213431
 20
103.9597474787422
 10
151.9934279813906
 20
103.9694855365941
 10
152.0186574354311
 20
103.9827317748257
 10
152.0223922624727
 20
103.9974696192929
 10
152.0040435686251
 20
104.0114539120385
 10
151.9664318456789
 20
104.0225595984646
 10
151.9152445688387
 20
104.0290916714856
 10
151.8583078279634
 20
104.0300563726612
 10
151.8042690649172
 20
104.025310352821
 10
151.7613727941652
 20
104.0155722949692
 10
151.7361278429171
 20
104.0023260567375
 10
151.7323930158754
 20
103.9875882122704
  0
LINE
  5
35B
330
1F
100
AcDbEntity
  8
0
  6
Continuous
 62
     0
370
     0
100
AcDbLine
 10
150.51999997045
 20
103.1397476051041
 30
0.0
 11
151.3643653288027
 21
103.2659219954201
 31
0.0
  0
LINE
  5
35C
330
1F
100
AcDbEntity
  8
0
  6
Continuous
 62
     0
370
     0
100
AcDbLine
 10
150.51999997045
 20
103.1397476051041
 30
0.0
 11
150.4966611757418
 21
103.7995644662567
 31
0.0
  0
LINE
  5
35D
330
1F
100
AcDbEntity
  8
0
  6
Continuous
 62
     0
370
     0
100
AcDbLine
 10
151.3410420313021
 20
103.9257388565728
 30
0.0
 11
150.4966611757418
 21
103.7995644662567
 31
0.0
  0
LINE
  5
35E
330
1F
100
AcDbEntity
  8
0
  6
Continuous
 62
     0
370
     0
100
AcDbLine
 10
150.5565578832766
 20
103.8186531517693
 30
0.0
 11
150.5565578832766
 21
103.9117119465062
 31
0.0
  0
LINE
  5
35F
330
1F
100
AcDbEntity
  8
0
  6
Continuous
 62
     0
370
     0
100
AcDbLine
 10
150.1062245264193
 20
103.9699891958424
 30
0.0
 11
150.1062245264193
 21
103.8444191966244
 31
0.0
  0
LINE
  5
360
330
1F
100
AcDbEntity
  8
0
  6
Continuous
 62
     0
370
     0
100
AcDbLine
 10
150.1062245264193
 20
103.9699891958424
 30
0.0
 11
151.8512720956942
 21
104.2307490859219
 31
0.0
  0
LWPOLYLINE
  5
361
330
1F
100
AcDbEntity
  8
0
  6
Continuous
 62
     0
370
     0
100
AcDbPolyline
 90
        8
 70
   128
 43
0.0
 10
150.5283994569918
 20
103.1248528514096
 10
150.5279035463472
 20
103.1248199198433
 10
150.5260438814302
 20
103.1253739450165
 10
150.5242307081362
 20
103.1269372258373
 10
150.5226035013338
 20
103.1293819103428
 10
150.5212862386843
 20
103.1325084719845
 10
150.5203874006411
 20
103.1360612068363
 10
150.51999997045
 20
103.1397476051041
  0
LWPOLYLINE
  5
362
330
1F
100
AcDbEntity
  8
0
  6
Continuous
 62
     0
370
     0
100
AcDbPolyline
 90
        8
 70
   128
 43
0.0
 10
150.4966611757418
 20
103.7995644662567
 10
150.4967076673647
 20
103.8021137569138
 10
150.4970331087252
 20
103.8044693324753
 10
150.4975910082003
 20
103.8065362725445
 10
150.4983968629977
 20
103.8082235310265
 10
150.4994041814944
 20
103.8094652447888
 10
150.5005664720675
 20
103.8102052364537
 10
150.5012328519961
 20
103.8103853914925
  0
LINE
  5
363
330
1F
100
AcDbEntity
  8
0
  6
Continuous
 62
     0
370
     0
100
AcDbLine
 10
151.7096896066805
 20
103.8448492441365
 30
0.0
 11
151.7096896066805
 21
103.8869202885815
 31
0.0
  0
ARC
  5
364
330
1F
100
AcDbEntity
  8
0
  6
Continuous
 62
     0
370
     0
100
AcDbCircle
 10
151.6919229788334
 20
103.8885512502319
 30
0.0
 40
0.0178413312553357
100
AcDbArc
 50
354.7549955300481
 51
50.87638930042427
  0
LINE
  5
365
330
1F
100
AcDbEntity
  8
0
  6
Continuous
 62
     0
370
     0
100
AcDbLine
 10
151.758443821921
 20
103.8776239011475
 30
0.0
 11
151.758443821921
 21
103.852132931728
 31
0.0
  0
LINE
  5
366
330
1F
100
AcDbEntity
  8
0
  6
Continuous
 62
     0
370
     0
100
AcDbLine
 10
150.0586480989595
 20
103.7984564159104
 30
0.0
 11
150.0586480989595
 21
103.9240283522793
 31
0.0
  0
LINE
  5
367
330
1F
100
AcDbEntity
  8
0
  6
Continuous
 62
     0
370
     0
100
AcDbLine
 10
150.0586480989595
 20
103.9240283522793
 30
0.0
 11
150.1062245264193
 21
103.9699891958424
 31
0.0
  0
LINE
  5
368
330
1F
100
AcDbEntity
  8
0
  6
Continuous
 62
     0
370
     0
100
AcDbLine
 10
150.4246921434542
 20
103.8524583730885
 30
0.0
 11
150.4246921434542
 21
103.7268883738705
 31
0.0
  0
LINE
  5
369
330
1F
100
AcDbEntity
  8
0
  6
Continuous
 62
     0
370
     0
100
AcDbLine
 10
150.4172534837862
 20
103.8557922098824
 30
0.0
 11
150.4246921434542
 21
103.8524583730885
 31
0.0
  0
ARC
  5
36A
330
1F
100
AcDbEntity
  8
0
  6
Continuous
 62
     0
370
     0
100
AcDbCircle
 10
150.5335992412379
 20
104.1659870863297
 30
0.0
 40
0.3319051219465024
100
AcDbArc
 50
250.8448565875711
 51
268.160377743326
  0
LWPOLYLINE
  5
36B
330
1F
100
AcDbEntity
  8
0
  6
Continuous
 62
     0
370
     0
100
AcDbPolyline
 90
        6
 70
   128
 43
0.0
 10
144.5696456327577
 20
101.7877382788846
 10
144.5432228937288
 20
101.7918663475701
 10
144.5090360536715
 20
101.820323095102
 10
144.4800562753817
 20
101.8707161400506
 10
144.460669268622
 20
101.9353763017841
 10
144.4570274248262
 20
101.9575256858059
  0
LWPOLYLINE
  5
36C
330
1F
100
AcDbEntity
  8
0
  6
Continuous
 62
     0
370
     0
100
AcDbPolyline
 90
        6
 70
   128
 43
0.0
 10
200.8612997427126
 20
110.199357197065
 10
200.8348770036837
 20
110.2034852657505
 10
200.8006746664187
 20
110.231959447641
 10
200.7716793909212
 20
110.2823854241558
 10
200.7523078813692
 20
110.3470862660595
 10
200.7486815347811
 20
110.3691446039864
  0
LWPOLYLINE
  5
36D
330
1F
100
AcDbEntity
  8
0
  6
Continuous
 62
     0
370
     0
100
AcDbPolyline
 90
        3
 70
   128
 43
0.0
 10
200.7175476446291
 20
110.3659599278161
 10
200.7200736894747
 20
110.3652083132454
 10
200.722351778998
 20
110.3652083132454
  0
LINE
  5
36E
330
1F
100
AcDbEntity
  8
0
  6
Continuous
 62
     0
370
     0
100
AcDbLine
 10
200.7175476446291
 20
110.3659599278161
 30
0.0
 11
200.7048864259859
 21
110.3716357801148
 31
0.0
  0
LINE
  5
36F
330
1F
100
AcDbEntity
  8
0
  6
Continuous
 62
     0
370
     0
100
AcDbLine
 10
200.7048864259859
 20
110.3716357801148
 30
0.0
 11
200.7048864259859
 21
110.7609043274113
 31
0.0
  0
ARC
  5
370
330
1F
100
AcDbEntity
  8
0
  6
Continuous
 62
     0
370
     0
100
AcDbCircle
 10
200.6781461305958
 20
110.7633232336289
 30
0.0
 40
0.0268494786698131
100
AcDbArc
 50
354.8311366535135
 51
50.73692714496316
  0
LINE
  5
371
330
1F
100
AcDbEntity
  8
0
  6
Continuous
 62
     0
370
     0
100
AcDbLine
 10
200.6951386823794
 20
110.7841113958546
 30
0.0
 11
200.6626255407473
 21
110.7986807081887
 31
0.0
  0
ARC
  5
372
330
1F
100
AcDbEntity
  8
0
  6
Continuous
 62
     0
370
     0
100
AcDbCircle
 10
200.6739490645784
 20
110.8125313633934
 30
0.0
 40
0.017890300208594
100
AcDbArc
 50
174.8064694410775
 51
230.7324810194452
  0
LINE
  5
373
330
1F
100
AcDbEntity
  8
0
  6
Continuous
 62
     0
370
     0
100
AcDbLine
 10
200.6561322107455
 20
110.8141507957169
 30
0.0
 11
200.6561322107455
 21
111.1155191812703
 31
0.0
  0
LINE
  5
374
330
1F
100
AcDbEntity
  8
0
  6
Continuous
 62
     0
370
     0
100
AcDbLine
 10
200.6886298551699
 20
111.1637348685452
 30
0.0
 11
200.6561322107455
 21
111.1155191812703
 31
0.0
  0
LWPOLYLINE
  5
375
330
1F
100
AcDbEntity
  8
0
  6
Continuous
 62
     0
370
     0
100
AcDbPolyline
 90
        2
 70
   128
 43
0.0
 10
144.4132323160311
 20
101.9600168619343
 10
200.7048864259859
 20
110.3716357801148
  0
LWPOLYLINE
  5
376
330
1F
100
AcDbEntity
  8
0
  6
Continuous
 62
     0
370
     0
100
AcDbPolyline
 90
        2
 70
   128
 43
0.0
 10
144.4258935346743
 20
101.9543410096355
 10
200.7175476446291
 20
110.3659599278161
  0
LINE
  5
377
330
1F
100
AcDbEntity
  8
0
  6
Continuous
 62
     0
370
     0
100
AcDbLine
 10
144.4258935346743
 20
101.9543410096355
 30
0.0
 11
144.4132323160311
 21
101.9600168619343
 31
0.0
  0
LINE
  5
378
330
1F
100
AcDbEntity
  8
0
  6
Continuous
 62
     0
370
     0
100
AcDbLine
 10
144.4132323160311
 20
101.9600168619343
 30
0.0
 11
144.4132323160311
 21
102.3492854092309
 31
0.0
  0
LWPOLYLINE
  5
379
330
1F
100
AcDbEntity
  8
0
  6
Continuous
 62
     0
370
     0
100
AcDbPolyline
 90
        3
 70
   128
 43
0.0
 10
144.4306976690432
 20
101.953589395065
 10
144.4284195795199
 20
101.953589395065
 10
144.4258935346743
 20
101.9543410096355
  0
ARC
  5
37A
330
1F
100
AcDbEntity
  8
0
  6
Continuous
 62
     0
370
     0
100
AcDbCircle
 10
144.3822400515369
 20
102.4009006811046
 30
0.0
 40
0.0178366952128011
100
AcDbArc
 50
174.7528710993425
 51
230.8836423876405
  0
LINE
  5
37B
330
1F
100
AcDbEntity
  8
0
  6
Continuous
 62
     0
370
     0
100
AcDbLine
 10
200.6561322107455
 20
111.1155191812703
 30
0.0
 11
194.4583029642245
 21
110.1893828067966
 31
0.0
  0
LINE
  5
37C
330
1F
100
AcDbEntity
  8
0
  6
Continuous
 62
     0
370
     0
100
AcDbLine
 10
193.5660822286745
 20
110.056060329456
 30
0.0
 11
151.3951892748019
 21
103.7544947121331
 31
0.0
  0
LINE
  5
37D
330
1F
100
AcDbEntity
  8
0
  6
Continuous
 62
     0
370
     0
100
AcDbLine
 10
150.5029685392519
 20
103.6211722347923
 30
0.0
 11
144.3644781007906
 21
102.7039002630898
 31
0.0
  0
LINE
  5
37E
330
1F
100
AcDbEntity
  8
0
  6
Continuous
 62
     0
370
     0
100
AcDbLine
 10
144.3644781007906
 20
102.4025318775364
 30
0.0
 11
144.3644781007906
 21
102.7039002630898
 31
0.0
  0
LINE
  5
37F
330
1F
100
AcDbEntity
  8
0
  6
Continuous
 62
     0
370
     0
100
AcDbLine
 10
144.4034845724245
 20
102.3724924776742
 30
0.0
 11
144.3709869280001
 21
102.3870617900082
 31
0.0
  0
ARC
  5
380
330
1F
100
AcDbEntity
  8
0
  6
Continuous
 62
     0
370
     0
100
AcDbCircle
 10
144.3865302596679
 20
102.3517203771165
 30
0.0
 40
0.0268128492075134
100
AcDbArc
 50
354.7895928421209
 51
50.77847095641702
  0
LINE
  5
381
330
1F
100
AcDbEntity
  8
0
  6
Continuous
 62
     0
370
     0
100
AcDbLine
 10
144.396975745215
 20
102.7521159503647
 30
0.0
 11
150.501449812903
 21
103.6643029008099
 31
0.0
  0
LINE
  5
382
330
1F
100
AcDbEntity
  8
0
  6
Continuous
 62
     0
370
     0
100
AcDbLine
 10
151.393670548453
 20
103.7976253781506
 30
0.0
 11
193.5645635023257
 21
110.0991909954735
 31
0.0
  0
LWPOLYLINE
  5
383
330
1F
100
AcDbEntity
  8
0
  6
Continuous
 62
     0
370
     0
100
AcDbPolyline
 90
        2
 70
   128
 43
0.0
 10
194.4567842378756
 20
110.2325154099652
 10
200.6886298551699
 20
111.1637348685452
  0
LINE
  5
384
330
1F
100
AcDbEntity
  8
0
  6
Continuous
 62
     0
370
     0
100
AcDbLine
 10
144.3644781007906
 20
102.7039002630898
 30
0.0
 11
144.396975745215
 21
102.7521159503647
 31
0.0
  0
LWPOLYLINE
  5
385
330
1F
100
AcDbEntity
  8
0
  6
Continuous
 62
     0
370
     0
100
AcDbPolyline
 90
        3
 70
   128
 43
0.0
 10
200.722351778998
 20
110.3652083132454
 10
200.7200736894747
 20
110.3652083132454
 10
200.7175476446291
 20
110.3659599278161
  0
LWPOLYLINE
  5
386
330
1F
100
AcDbEntity
  8
0
  6
Continuous
 62
     0
370
     0
100
AcDbPolyline
 90
        6
 70
   128
 43
0.0
 10
200.8613617315432
 20
110.1993649456688
 10
200.8349389925143
 20
110.2034930143544
 10
200.8007521524569
 20
110.2319497618863
 10
200.7717568769594
 20
110.2823428068348
 10
200.7523853674074
 20
110.3470029685685
 10
200.7487435236116
 20
110.3691523525902
  0
LINE
  5
387
330
1F
100
AcDbEntity
  8
0
  6
Continuous
 62
     0
370
     0
100
AcDbLine
 10
194.5128066435
 20
110.2993994209954
 30
0.0
 11
194.7662944688936
 21
110.3372804079243
 31
0.0
  0
LINE
  5
388
330
1F
100
AcDbEntity
  8
0
  6
Continuous
 62
     0
370
     0
100
AcDbLine
 10
194.5192999735018
 20
110.4480079565236
 30
0.0
 11
194.5156271352907
 21
110.4474578056523
 31
0.0
  0
LINE
  5
389
330
1F
100
AcDbEntity
  8
0
  6
Continuous
 62
     0
370
     0
100
AcDbLine
 10
194.4628901376864
 20
110.2535470578858
 30
0.0
 11
194.4592172994753
 21
110.2529969070145
 31
0.0
  0
LINE
  5
38A
330
1F
100
AcDbEntity
  8
0
  6
Continuous
 62
     0
370
     0
100
AcDbLine
 10
194.7728032961031
 20
110.3218083832451
 30
0.0
 11
194.5128066435
 21
110.2829568836876
 31
0.0
  0
LINE
  5
38B
330
1F
100
AcDbEntity
  8
0
  6
Continuous
 62
     0
370
     0
100
AcDbLine
 10
193.3253176107546
 20
110.27247689702
 30
0.0
 11
193.3253176107546
 21
110.2346230302044
 31
0.0
  0
LINE
  5
38C
330
1F
100
AcDbEntity
  8
0
  6
Continuous
 62
     0
370
     0
100
AcDbLine
 10
151.4496929540774
 20
103.8645113263318
 30
0.0
 11
151.703180779471
 21
103.9023923132607
 31
0.0
  0
LINE
  5
38D
330
1F
100
AcDbEntity
  8
0
  6
Continuous
 62
     0
370
     0
100
AcDbLine
 10
151.4561862840792
 20
104.013117924709
 30
0.0
 11
151.4525134458681
 21
104.0125697109887
 31
0.0
  0
LINE
  5
38E
330
1F
100
AcDbEntity
  8
0
  6
Continuous
 62
     0
370
     0
100
AcDbLine
 10
151.3997764482637
 20
103.8186570260712
 30
0.0
 11
151.3961036100527
 21
103.8181088123509
 31
0.0
  0
LINE
  5
38F
330
1F
100
AcDbEntity
  8
0
  6
Continuous
 62
     0
370
     0
100
AcDbLine
 10
151.7096896066805
 20
103.8869202885815
 30
0.0
 11
151.4496929540774
 21
103.848068789024
 31
0.0
  0
LINE
  5
390
330
1F
100
AcDbEntity
  8
0
  6
Continuous
 62
     0
370
     0
100
AcDbLine
 10
150.262203921332
 20
103.8375868652054
 30
0.0
 11
150.262203921332
 21
103.7997349355408
 31
0.0
  0
LINE
  5
391
330
1F
100
AcDbEntity
  8
0
  6
Continuous
 62
     0
370
     0
100
AcDbLine
 10
200.7048864259859
 20
110.7609043274113
 30
0.0
 11
194.4773800268313
 21
109.8303338144013
 31
0.0
  0
LINE
  5
392
330
1F
100
AcDbEntity
  8
0
  6
Continuous
 62
     0
370
     0
100
AcDbLine
 10
193.5788209333559
 20
109.6960621330926
 30
0.0
 11
151.4142663374086
 21
103.3954437825867
 31
0.0
  0
LINE
  5
393
330
1F
100
AcDbEntity
  8
0
  6
Continuous
 62
     0
370
     0
100
AcDbLine
 10
150.5157072439333
 20
103.2611740384289
 30
0.0
 11
144.4132323160311
 21
102.3492854092309
 31
0.0
  0
LINE
  5
394
330
1F
100
AcDbEntity
  8
0
  6
Continuous
 62
     0
370
     0
100
AcDbLine
 10
144.3644781007906
 20
102.4025318775364
 30
0.0
 11
150.5135686292788
 21
103.3213865015694
 31
0.0
  0
LINE
  5
395
330
1F
100
AcDbEntity
  8
0
  6
Continuous
 62
     0
370
     0
100
AcDbLine
 10
151.4009387388369
 20
103.4539844844529
 30
0.0
 11
193.5766823187014
 21
109.756274596233
 31
0.0
  0
LWPOLYLINE
  5
396
330
1F
100
AcDbEntity
  8
0
  6
Continuous
 62
     0
370
     0
100
AcDbPolyline
 90
        2
 70
   128
 43
0.0
 10
194.4640524282595
 20
109.8888725791164
 10
200.6561322107455
 20
110.8141507957169
  0
LINE
  5
397
330
1F
100
AcDbEntity
  8
0
  6
Continuous
 62
     0
370
     0
100
AcDbLine
 10
200.6626255407473
 20
110.7986807081887
 30
0.0
 11
194.4694764509341
 21
109.873241708059
 31
0.0
  0
LINE
  5
398
330
1F
100
AcDbEntity
  8
0
  6
Continuous
 62
     0
370
     0
100
AcDbLine
 10
193.5772712125918
 20
109.7399192307183
 30
0.0
 11
151.4063627615114
 21
103.4383536133953
 31
0.0
  0
LINE
  5
399
330
1F
100
AcDbEntity
  8
0
  6
Continuous
 62
     0
370
     0
100
AcDbLine
 10
150.5141575231691
 20
103.3050311360547
 30
0.0
 11
144.3709869280001
 21
102.3870617900082
 31
0.0
  0
LINE
  5
39A
330
1F
100
AcDbEntity
  8
0
  6
Continuous
 62
     0
370
     0
100
AcDbLine
 10
144.4034845724245
 20
102.3724924776742
 30
0.0
 11
150.5148394003054
 21
103.2857061181255
 31
0.0
  0
LINE
  5
39B
330
1F
100
AcDbEntity
  8
0
  6
Continuous
 62
     0
370
     0
100
AcDbLine
 10
151.4070446386477
 20
103.4190305326172
 30
0.0
 11
193.577953089728
 21
109.7205961499402
 31
0.0
  0
LWPOLYLINE
  5
39C
330
1F
100
AcDbEntity
  8
0
  6
Continuous
 62
     0
370
     0
100
AcDbPolyline
 90
        2
 70
   128
 43
0.0
 10
194.4701583280703
 20
109.8539186272809
 10
200.6951386823794
 20
110.7841113958546
  0
LINE
  5
39D
330
1F
100
AcDbEntity
  8
0
  6
Continuous
 62
     0
370
     0
100
AcDbLine
 10
137.2998590364595
 20
101.1481220278927
 30
0.0
 11
138.1442398920198
 21
101.2742964182087
 31
0.0
  0
LINE
  5
39E
330
1F
100
AcDbEntity
  8
0
  6
Continuous
 62
     0
370
     0
100
AcDbLine
 10
138.1170732870241
 20
101.9598289582917
 30
0.0
 11
137.2726924314638
 21
101.8336545679757
 31
0.0
  0
LINE
  5
39F
330
1F
100
AcDbEntity
  8
0
  6
Continuous
 62
     0
370
     0
100
AcDbLine
 10
94.23674534703693
 20
94.71323393322912
 30
0.0
 11
95.0811262025972
 21
94.83940832354513
 31
0.0
  0
LINE
  5
3A0
330
1F
100
AcDbEntity
  8
0
  6
Continuous
 62
     0
370
     0
100
AcDbLine
 10
95.05395959760148
 20
95.5249389264771
 30
0.0
 11
94.2095787420412
 21
95.39876647331205
 31
0.0
  0
LINE
  5
3A1
330
1F
100
AcDbEntity
  8
0
  6
Continuous
 62
     0
370
     0
100
AcDbLine
 10
88.27799152280286
 20
93.37611936070408
 30
0.0
 11
144.5696456327578
 21
101.7877382788846
 31
0.0
  0
LINE
  5
3A2
330
1F
100
AcDbEntity
  8
0
  6
Continuous
 62
     0
370
     0
100
AcDbLine
 10
88.13904355908832
 20
93.5419704768845
 30
0.0
 11
144.4306976690432
 21
101.9535893950649
 31
0.0
  0
LINE
  5
3A3
330
1F
100
AcDbEntity
  8
0
  6
Continuous
 62
     0
370
     0
100
AcDbLine
 10
139.1354567899843
 20
101.9658922407815
 30
0.0
 11
138.800314177527
 21
102.1161337945649
 31
0.0
  0
LINE
  5
3A4
330
1F
100
AcDbEntity
  8
0
  6
Continuous
 62
     0
370
     0
100
AcDbLine
 10
138.800314177527
 20
102.2417037937829
 30
0.0
 11
138.800314177527
 21
102.1161337945649
 31
0.0
  0
LINE
  5
3A5
330
1F
100
AcDbEntity
  8
0
  6
Continuous
 62
     0
370
     0
100
AcDbLine
 10
138.800314177527
 20
102.2417037937829
 30
0.0
 11
139.2553121938845
 21
102.037733421106
 31
0.0
  0
LINE
  5
3A6
330
1F
100
AcDbEntity
  8
0
  6
Continuous
 62
     0
370
     0
100
AcDbLine
 10
139.2553121938845
 20
102.037733421106
 30
0.0
 11
139.2553121938845
 21
101.9838012013623
 31
0.0
  0
LINE
  5
3A7
330
1F
100
AcDbEntity
  8
0
  6
Continuous
 62
     0
370
     0
100
AcDbLine
 10
138.2211525335451
 20
102.0267459008881
 30
0.0
 11
138.2211525335451
 21
101.8321106586643
 31
0.0
  0
LWPOLYLINE
  5
3A8
330
1F
100
AcDbEntity
  8
0
  6
Continuous
 62
     0
370
     0
100
AcDbPolyline
 90
        3
 70
   128
 43
0.0
 10
138.2209665670534
 20
101.8292398009488
 10
138.2210130586763
 20
101.8297163400837
 10
138.2211525335451
 20
101.8321106586643
  0
LINE
  5
3A9
330
1F
100
AcDbEntity
  8
0
  6
Continuous
 62
     0
370
     0
100
AcDbLine
 10
138.204895962729
 20
101.8268377337643
 30
0.0
 11
138.1712360277315
 21
101.8419281397053
 31
0.0
  0
LWPOLYLINE
  5
3AA
330
1F
100
AcDbEntity
  8
0
  6
Continuous
 62
     0
370
     0
100
AcDbPolyline
 90
        9
 70
   128
 43
0.0
 10
138.1647581949373
 20
101.8314074728676
 10
138.1648046865602
 20
101.8339567635247
 10
138.1651146307131
 20
101.8363123390862
 10
138.1656880273958
 20
101.8383792791554
 10
138.1664783849855
 20
101.8400665376374
 10
138.1674857034822
 20
101.8413082513997
 10
138.1686479940554
 20
101.8420482430645
 10
138.169918765082
 20
101.8422574553677
 10
138.1712360277315
 20
101.8419281397053
  0
LINE
  5
3AB
330
1F
100
AcDbEntity
  8
0
  6
Continuous
 62
     0
370
     0
100
AcDbLine
 10
138.1647581949373
 20
101.8314074728676
 30
0.0
 11
138.1723983183046
 21
101.6152272377201
 31
0.0
  0
LINE
  5
3AC
330
1F
100
AcDbEntity
  8
0
  6
Continuous
 62
     0
370
     0
100
AcDbLine
 10
138.1777913465639
 20
101.4624557647893
 30
0.0
 11
138.1785817041536
 21
101.4402734492012
 31
0.0
  0
ARC
  5
3AD
330
1F
100
AcDbEntity
  8
0
  6
Continuous
 62
     0
370
     0
100
AcDbCircle
 10
138.2150804820053
 20
101.4411902785238
 30
0.0
 40
0.0365102911612093
100
AcDbArc
 50
181.438936022476
 51
207.1049272054156
  0
LINE
  5
3AE
330
1F
100
AcDbEntity
  8
0
  6
Continuous
 62
     0
370
     0
100
AcDbLine
 10
138.1825799837251
 20
101.4245554063508
 30
0.0
 11
138.204895962729
 21
101.3831797990986
 31
0.0
  0
LINE
  5
3AF
330
1F
100
AcDbEntity
  8
0
  6
Continuous
 62
     0
370
     0
100
AcDbLine
 10
138.204895962729
 20
101.3831797990986
 30
0.0
 11
138.204895962729
 21
101.3643448803612
 31
0.0
  0
LINE
  5
3B0
330
1F
100
AcDbEntity
  8
0
  6
Continuous
 62
     0
370
     0
100
AcDbLine
 10
138.204895962729
 20
101.3643448803612
 30
0.0
 11
138.1469519033571
 21
101.2762781236359
 31
0.0
  0
LWPOLYLINE
  5
3B1
330
1F
100
AcDbEntity
  8
0
  6
Continuous
 62
     0
370
     0
100
AcDbPolyline
 90
        9
 70
   128
 43
0.0
 10
138.1358249082705
 20
101.2891911719033
 10
138.1362278356691
 20
101.2855047736355
 10
138.1371111765047
 20
101.2819520387837
 10
138.1384284391542
 20
101.278825477142
 10
138.1400711431642
 20
101.2763807926365
 10
138.1418843164583
 20
101.2748175118157
 10
138.1437439813753
 20
101.2742634866425
 10
138.1454796686312
 20
101.2747632715889
 10
138.1469519033571
 20
101.2762781236359
  0
LINE
  5
3B2
330
1F
100
AcDbEntity
  8
0
  6
Continuous
 62
     0
370
     0
100
AcDbLine
 10
138.1358249082705
 20
101.2891911719033
 30
0.0
 11
138.1125016107698
 21
101.9490080330559
 31
0.0
  0
LWPOLYLINE
  5
3B3
330
1F
100
AcDbEntity
  8
0
  6
Continuous
 62
     0
370
     0
100
AcDbPolyline
 90
        9
 70
   128
 43
0.0
 10
138.118979443564
 20
101.9595286998936
 10
138.1176621809145
 20
101.959858015556
 10
138.1163914098879
 20
101.9596488032528
 10
138.1152291193148
 20
101.958908811588
 10
138.1142372980256
 20
101.9576670978256
 10
138.1134314432283
 20
101.9559798393437
 10
138.1128580465456
 20
101.9539128992745
 10
138.1125481023928
 20
101.951557323713
 10
138.1125016107698
 20
101.9490080330559
  0
LINE
  5
3B4
330
1F
100
AcDbEntity
  8
0
  6
Continuous
 62
     0
370
     0
100
AcDbLine
 10
138.118979443564
 20
101.9595286998936
 30
0.0
 11
138.1723983183046
 21
101.9355855140874
 31
0.0
  0
LINE
  5
3B5
330
1F
100
AcDbEntity
  8
0
  6
Continuous
 62
     0
370
     0
100
AcDbLine
 10
138.1723983183046
 20
101.9355855140874
 30
0.0
 11
138.1723983183046
 21
102.0611555133053
 31
0.0
  0
LINE
  5
3B6
330
1F
100
AcDbEntity
  8
0
  6
Continuous
 62
     0
370
     0
100
AcDbLine
 10
138.2276458635469
 20
102.0363890383431
 30
0.0
 11
138.1723983183046
 21
102.0611555133053
 31
0.0
  0
LWPOLYLINE
  5
3B7
330
1F
100
AcDbEntity
  8
0
  6
Continuous
 62
     0
370
     0
100
AcDbPolyline
 90
        9
 70
   128
 43
0.0
 10
138.2211525335451
 20
102.0267459008881
 10
138.2212765112062
 20
102.0291382823177
 10
138.2216329469819
 20
102.0313292000481
 10
138.22223733808
 20
102.0332295451352
 10
138.2230431928774
 20
102.0347715172955
 10
138.2240350141664
 20
102.0358911905476
 10
138.2251508131166
 20
102.0365478847214
 10
138.2263750925203
 20
102.0367144797036
 10
138.2276458635469
 20
102.0363890383431
  0
LINE
  5
3B8
330
1F
100
AcDbEntity
  8
0
  6
Continuous
 62
     0
370
     0
100
AcDbLine
 10
138.5725362196108
 20
101.8817753348538
 30
0.0
 11
138.5298879041811
 21
101.9008930776307
 31
0.0
  0
LINE
  5
3B9
330
1F
100
AcDbEntity
  8
0
  6
Continuous
 62
     0
370
     0
100
AcDbLine
 10
138.5298879041811
 20
101.9008930776307
 30
0.0
 11
138.4746403589388
 21
101.9256614897439
 31
0.0
  0
LINE
  5
3BA
330
1F
100
AcDbEntity
  8
0
  6
Continuous
 62
     0
370
     0
100
AcDbLine
 10
137.1652502908846
 20
101.6714859757611
 30
0.0
 11
136.8301076784273
 21
101.8217275295444
 31
0.0
  0
LINE
  5
3BB
330
1F
100
AcDbEntity
  8
0
  6
Continuous
 62
     0
370
     0
100
AcDbLine
 10
136.877684105887
 20
101.8676883731076
 30
0.0
 11
136.8301076784273
 21
101.8217275295444
 31
0.0
  0
LINE
  5
3BC
330
1F
100
AcDbEntity
  8
0
  6
Continuous
 62
     0
370
     0
100
AcDbLine
 10
136.877684105887
 20
101.8676883731076
 30
0.0
 11
137.3280174627443
 21
101.9349811229893
 31
0.0
  0
LINE
  5
3BD
330
1F
100
AcDbEntity
  8
0
  6
Continuous
 62
     0
370
     0
100
AcDbLine
 10
138.6227316751619
 20
102.1284482631871
 30
0.0
 11
138.1723983183046
 21
102.0611555133053
 31
0.0
  0
LINE
  5
3BE
330
1F
100
AcDbEntity
  8
0
  6
Continuous
 62
     0
370
     0
100
AcDbLine
 10
138.800314177527
 20
102.1161337945649
 30
0.0
 11
138.6227316751619
 21
102.1284482631871
 31
0.0
  0
LWPOLYLINE
  5
3BF
330
1F
100
AcDbEntity
  8
0
  6
Continuous
 62
     0
370
     0
100
AcDbPolyline
 90
        3
 70
   128
 43
0.0
 10
137.1961517229219
 20
101.7501575503537
 10
137.2337789430757
 20
101.7390538010785
 10
137.2712821855684
 20
101.7336588356682
  0
LINE
  5
3C0
330
1F
100
AcDbEntity
  8
0
  6
Continuous
 62
     0
370
     0
100
AcDbLine
 10
137.3280174627443
 20
101.8424531076142
 30
0.0
 11
137.2869653597017
 21
101.8608579788395
 31
0.0
  0
LWPOLYLINE
  5
3C1
330
1F
100
AcDbEntity
  8
0
  6
Continuous
 62
     0
370
     0
100
AcDbPolyline
 90
        9
 70
   128
 43
0.0
 10
137.2869653597017
 20
101.8608579788395
 10
137.2493381395479
 20
101.8719617281148
 10
137.1981663599153
 20
101.8784938011357
 10
137.1412296190401
 20
101.8794585023114
 10
137.0871908559938
 20
101.8747124824711
 10
137.0442790880342
 20
101.8649744246193
 10
137.0190496339937
 20
101.8517281863877
 10
137.0153148069521
 20
101.8369903419205
 10
137.0336635007997
 20
101.823004112024
  0
LINE
  5
3C2
330
1F
100
AcDbEntity
  8
0
  6
Continuous
 62
     0
370
     0
100
AcDbLine
 10
137.0336635007997
 20
101.823004112024
 30
0.0
 11
137.1961517229219
 21
101.7501575503537
 31
0.0
  0
LWPOLYLINE
  5
3C3
330
1F
100
AcDbEntity
  8
0
  6
Continuous
 62
     0
370
     0
100
AcDbPolyline
 90
       17
 70
   128
 43
0.0
 10
138.5038525953432
 20
102.0108573887536
 10
138.5222012891908
 20
101.996871158857
 10
138.5598285093447
 20
101.9857674095818
 10
138.6110002889772
 20
101.9792353365609
 10
138.6679370298525
 20
101.9782686982342
 10
138.7219757928987
 20
101.9830166552254
 10
138.7648875608583
 20
101.9927547130772
 10
138.7901170148989
 20
102.0060009513089
 10
138.7938518419405
 20
102.020738795776
 10
138.7755031480928
 20
102.0347250256726
 10
138.7378914251467
 20
102.0458287749478
 10
138.6867041483064
 20
102.0523608479687
 10
138.6297674074312
 20
102.0533255491444
 10
138.575728644385
 20
102.0485795293042
 10
138.532832373633
 20
102.0388414714524
 10
138.5075874223848
 20
102.0255952332207
 10
138.5038525953432
 20
102.0108573887536
  0
LINE
  5
3C4
330
1F
100
AcDbEntity
  8
0
  6
Continuous
 62
     0
370
     0
100
AcDbLine
 10
138.6227316751619
 20
102.1284482631871
 30
0.0
 11
138.6227316751619
 21
102.254020199556
 31
0.0
  0
LINE
  5
3C5
330
1F
100
AcDbEntity
  8
0
  6
Continuous
 62
     0
370
     0
100
AcDbLine
 10
138.6227316751619
 20
102.254020199556
 30
0.0
 11
138.800314177527
 21
102.2417037937829
 31
0.0
  0
LINE
  5
3C6
330
1F
100
AcDbEntity
  8
0
  6
Continuous
 62
     0
370
     0
100
AcDbLine
 10
137.2914595499178
 20
101.1630167815873
 30
0.0
 11
138.1358249082705
 21
101.2891911719033
 31
0.0
  0
LINE
  5
3C7
330
1F
100
AcDbEntity
  8
0
  6
Continuous
 62
     0
370
     0
100
AcDbLine
 10
137.2914595499178
 20
101.1630167815873
 30
0.0
 11
137.2681207552095
 21
101.8228336427399
 31
0.0
  0
LINE
  5
3C8
330
1F
100
AcDbEntity
  8
0
  6
Continuous
 62
     0
370
     0
100
AcDbLine
 10
138.1125016107698
 20
101.9490080330559
 30
0.0
 11
137.2681207552095
 21
101.8228336427399
 31
0.0
  0
LINE
  5
3C9
330
1F
100
AcDbEntity
  8
0
  6
Continuous
 62
     0
370
     0
100
AcDbLine
 10
137.3280174627443
 20
101.8419223282524
 30
0.0
 11
137.3280174627443
 21
101.9349811229893
 31
0.0
  0
LINE
  5
3CA
330
1F
100
AcDbEntity
  8
0
  6
Continuous
 62
     0
370
     0
100
AcDbLine
 10
136.877684105887
 20
101.9932583723256
 30
0.0
 11
136.877684105887
 21
101.8676883731076
 31
0.0
  0
LINE
  5
3CB
330
1F
100
AcDbEntity
  8
0
  6
Continuous
 62
     0
370
     0
100
AcDbLine
 10
136.877684105887
 20
101.9932583723256
 30
0.0
 11
138.6227316751619
 21
102.254020199556
 31
0.0
  0
LWPOLYLINE
  5
3CC
330
1F
100
AcDbEntity
  8
0
  6
Continuous
 62
     0
370
     0
100
AcDbPolyline
 90
        8
 70
   128
 43
0.0
 10
137.2998590364595
 20
101.1481220278927
 10
137.299363125815
 20
101.1480890963265
 10
137.297503460898
 20
101.1486431214997
 10
137.2956902876039
 20
101.1502064023205
 10
137.2940475835939
 20
101.152651086826
 10
137.292745818152
 20
101.1557776484677
 10
137.2918469801088
 20
101.1593303833195
 10
137.2914595499178
 20
101.1630167815873
  0
LWPOLYLINE
  5
3CD
330
1F
100
AcDbEntity
  8
0
  6
Continuous
 62
     0
370
     0
100
AcDbPolyline
 90
        8
 70
   128
 43
0.0
 10
137.2681207552095
 20
101.8228336427399
 10
137.2681672468324
 20
101.825382933397
 10
137.2684926881929
 20
101.8277385089585
 10
137.269050587668
 20
101.8298054490276
 10
137.2698564424654
 20
101.8314927075097
 10
137.2708637609621
 20
101.832734421272
 10
137.2720260515352
 20
101.8334744129368
 10
137.2726924314638
 20
101.8336545679757
  0
LINE
  5
3CE
330
1F
100
AcDbEntity
  8
0
  6
Continuous
 62
     0
370
     0
100
AcDbLine
 10
138.4811491861483
 20
101.8681184206196
 30
0.0
 11
138.4811491861483
 21
101.9101894650647
 31
0.0
  0
ARC
  5
3CF
330
1F
100
AcDbEntity
  8
0
  6
Continuous
 62
     0
370
     0
100
AcDbCircle
 10
138.4633867752169
 20
101.9118222007024
 30
0.0
 40
0.0178372942947823
100
AcDbArc
 50
354.7480828639212
 51
50.88330196689635
  0
LINE
  5
3D0
330
1F
100
AcDbEntity
  8
0
  6
Continuous
 62
     0
370
     0
100
AcDbLine
 10
138.5298879041811
 20
101.9008930776307
 30
0.0
 11
138.5298879041811
 21
101.8754040453621
 31
0.0
  0
LINE
  5
3D1
330
1F
100
AcDbEntity
  8
0
  6
Continuous
 62
     0
370
     0
100
AcDbLine
 10
136.8301076784273
 20
101.8217275295444
 30
0.0
 11
136.8301076784273
 21
101.9472975287625
 31
0.0
  0
LINE
  5
3D2
330
1F
100
AcDbEntity
  8
0
  6
Continuous
 62
     0
370
     0
100
AcDbLine
 10
136.8301076784273
 20
101.9472975287625
 30
0.0
 11
136.877684105887
 21
101.9932583723256
 31
0.0
  0
LINE
  5
3D3
330
1F
100
AcDbEntity
  8
0
  6
Continuous
 62
     0
370
     0
100
AcDbLine
 10
137.1961517229219
 20
101.8757275495717
 30
0.0
 11
137.1961517229219
 21
101.7501575503537
 31
0.0
  0
LINE
  5
3D4
330
1F
100
AcDbEntity
  8
0
  6
Continuous
 62
     0
370
     0
100
AcDbLine
 10
137.188713063254
 20
101.8790613863656
 30
0.0
 11
137.1961517229219
 21
101.8757275495717
 31
0.0
  0
ARC
  5
3D5
330
1F
100
AcDbEntity
  8
0
  6
Continuous
 62
     0
370
     0
100
AcDbCircle
 10
137.3050588207056
 20
102.1892562628124
 30
0.0
 40
0.3319051219460959
100
AcDbArc
 50
250.84485658755
 51
268.1603777433285
  0
LINE
  5
3D6
330
1F
100
AcDbEntity
  8
0
  6
Continuous
 62
     0
370
     0
100
AcDbLine
 10
96.07234310056171
 20
95.5310041461178
 30
0.0
 11
95.7372004881044
 21
95.68124569990125
 31
0.0
  0
LINE
  5
3D7
330
1F
100
AcDbEntity
  8
0
  6
Continuous
 62
     0
370
     0
100
AcDbLine
 10
95.7372004881044
 20
95.8068156991192
 30
0.0
 11
95.7372004881044
 21
95.68124569990125
 31
0.0
  0
LINE
  5
3D8
330
1F
100
AcDbEntity
  8
0
  6
Continuous
 62
     0
370
     0
100
AcDbLine
 10
95.7372004881044
 20
95.8068156991192
 30
0.0
 11
96.19219850446183
 21
95.60284532644239
 31
0.0
  0
LINE
  5
3D9
330
1F
100
AcDbEntity
  8
0
  6
Continuous
 62
     0
370
     0
100
AcDbLine
 10
96.19219850446183
 20
95.60284532644239
 30
0.0
 11
96.19219850446183
 21
95.54891310669862
 31
0.0
  0
LINE
  5
3DA
330
1F
100
AcDbEntity
  8
0
  6
Continuous
 62
     0
370
     0
100
AcDbLine
 10
95.1580388441225
 20
95.59185586907354
 30
0.0
 11
95.1580388441225
 21
95.39722256400076
 31
0.0
  0
LWPOLYLINE
  5
3DB
330
1F
100
AcDbEntity
  8
0
  6
Continuous
 62
     0
370
     0
100
AcDbPolyline
 90
        3
 70
   128
 43
0.0
 10
95.1578528776308
 20
95.39435170628515
 10
95.15791486646134
 20
95.39482824542013
 10
95.1580388441225
 20
95.39722256400076
  0
LINE
  5
3DC
330
1F
100
AcDbEntity
  8
0
  6
Continuous
 62
     0
370
     0
100
AcDbLine
 10
95.14178227330646
 20
95.3919496391007
 30
0.0
 11
95.10812233830887
 21
95.40703810789076
 31
0.0
  0
LWPOLYLINE
  5
3DD
330
1F
100
AcDbEntity
  8
0
  6
Continuous
 62
     0
370
     0
100
AcDbPolyline
 90
        9
 70
   128
 43
0.0
 10
95.10164450551471
 20
95.39651937820402
 10
95.10169099713761
 20
95.39906866886106
 10
95.10200094129044
 20
95.40142424442259
 10
95.10257433797321
 20
95.40348924734083
 10
95.1033646955629
 20
95.40517844297376
 10
95.1043720140596
 20
95.40641821958509
 10
95.10553430463273
 20
95.40716014840093
 10
95.10680507565934
 20
95.4073693607041
 10
95.10812233830887
 20
95.40703810789076
  0
LINE
  5
3DE
330
1F
100
AcDbEntity
  8
0
  6
Continuous
 62
     0
370
     0
100
AcDbLine
 10
95.10164450551471
 20
95.39651937820402
 30
0.0
 11
95.109284628882
 21
95.18033914305654
 31
0.0
  0
LINE
  5
3DF
330
1F
100
AcDbEntity
  8
0
  6
Continuous
 62
     0
370
     0
100
AcDbLine
 10
95.11467765714127
 20
95.02756767012559
 30
0.0
 11
95.11546801473102
 21
95.00538341738668
 31
0.0
  0
ARC
  5
3E0
330
1F
100
AcDbEntity
  8
0
  6
Continuous
 62
     0
370
     0
100
AcDbCircle
 10
95.15195623440636
 20
95.00629961091829
 30
0.0
 40
0.0364997203504955
100
AcDbArc
 50
181.4383544916511
 51
207.1088832608827
  0
LINE
  5
3E1
330
1F
100
AcDbEntity
  8
0
  6
Continuous
 62
     0
370
     0
100
AcDbLine
 10
95.11946629430255
 20
94.9896673116871
 30
0.0
 11
95.14178227330646
 21
94.94829170443502
 31
0.0
  0
LINE
  5
3E2
330
1F
100
AcDbEntity
  8
0
  6
Continuous
 62
     0
370
     0
100
AcDbLine
 10
95.14178227330646
 20
94.94829170443502
 30
0.0
 11
95.14178227330646
 21
94.92945678569761
 31
0.0
  0
LINE
  5
3E3
330
1F
100
AcDbEntity
  8
0
  6
Continuous
 62
     0
370
     0
100
AcDbLine
 10
95.14178227330646
 20
94.92945678569761
 30
0.0
 11
95.08383821393448
 21
94.8413900289723
 31
0.0
  0
LWPOLYLINE
  5
3E4
330
1F
100
AcDbEntity
  8
0
  6
Continuous
 62
     0
370
     0
100
AcDbPolyline
 90
        9
 70
   128
 43
0.0
 10
95.07271121884781
 20
94.85430307723966
 10
95.07311414624652
 20
94.85061667897192
 10
95.07399748708207
 20
94.84706394412004
 10
95.0753147497316
 20
94.84393738247839
 10
95.07695745374164
 20
94.84149269797292
 10
95.07877062703571
 20
94.83992941715208
 10
95.0806302919527
 20
94.83937539197889
 10
95.08236597920853
 20
94.83987517692533
 10
95.08383821393448
 20
94.8413900289723
  0
LINE
  5
3E5
330
1F
100
AcDbEntity
  8
0
  6
Continuous
 62
     0
370
     0
100
AcDbLine
 10
95.07271121884781
 20
94.85430307723966
 30
0.0
 11
95.0493879213472
 21
95.51411993839231
 31
0.0
  0
LWPOLYLINE
  5
3E6
330
1F
100
AcDbEntity
  8
0
  6
Continuous
 62
     0
370
     0
100
AcDbPolyline
 90
        9
 70
   128
 43
0.0
 10
95.05588125134906
 20
95.52463866807905
 10
95.05454849149186
 20
95.52496992089235
 10
95.05327772046527
 20
95.52476070858923
 10
95.0521309270998
 20
95.5240207169243
 10
95.05112360860309
 20
95.52277900316206
 10
95.0503177538057
 20
95.52109174468008
 10
95.04974435712296
 20
95.51902480461088
 10
95.04943441297013
 20
95.51666922904931
 10
95.0493879213472
 20
95.51411993839231
  0
LINE
  5
3E7
330
1F
100
AcDbEntity
  8
0
  6
Continuous
 62
     0
370
     0
100
AcDbLine
 10
95.05588125134906
 20
95.52463866807905
 30
0.0
 11
95.109284628882
 21
95.50069741942369
 31
0.0
  0
LINE
  5
3E8
330
1F
100
AcDbEntity
  8
0
  6
Continuous
 62
     0
370
     0
100
AcDbLine
 10
95.109284628882
 20
95.50069741942369
 30
0.0
 11
95.109284628882
 21
95.62626741864172
 31
0.0
  0
LINE
  5
3E9
330
1F
100
AcDbEntity
  8
0
  6
Continuous
 62
     0
370
     0
100
AcDbLine
 10
95.1645321741243
 20
95.60149900652853
 30
0.0
 11
95.109284628882
 21
95.62626741864172
 31
0.0
  0
LWPOLYLINE
  5
3EA
330
1F
100
AcDbEntity
  8
0
  6
Continuous
 62
     0
370
     0
100
AcDbPolyline
 90
        9
 70
   128
 43
0.0
 10
95.1580388441225
 20
95.59185586907354
 10
95.15816282178363
 20
95.59425018765417
 10
95.158534754767
 20
95.59643916823354
 10
95.15912364865741
 20
95.59834145047155
 10
95.15992950345475
 20
95.59988148548094
 10
95.16092132474384
 20
95.60100309588395
 10
95.16205262090165
 20
95.60165979005781
 10
95.16326140309769
 20
95.60182638503991
 10
95.1645321741243
 20
95.60149900652853
  0
LINE
  5
3EB
330
1F
100
AcDbEntity
  8
0
  6
Continuous
 62
     0
370
     0
100
AcDbLine
 10
95.55961798573932
 20
95.69356016852342
 30
0.0
 11
95.55961798573932
 21
95.81913016774145
 31
0.0
  0
LINE
  5
3EC
330
1F
100
AcDbEntity
  8
0
  6
Continuous
 62
     0
370
     0
100
AcDbLine
 10
95.55961798573932
 20
95.81913016774145
 30
0.0
 11
95.7372004881044
 21
95.8068156991192
 31
0.0
  0
LINE
  5
3ED
330
1F
100
AcDbEntity
  8
0
  6
Continuous
 62
     0
370
     0
100
AcDbLine
 10
95.7372004881044
 20
95.68124569990125
 30
0.0
 11
95.55961798573932
 21
95.69356016852342
 31
0.0
  0
LINE
  5
3EE
330
1F
100
AcDbEntity
  8
0
  6
Continuous
 62
     0
370
     0
100
AcDbLine
 10
95.50942253018815
 20
95.44688724019018
 30
0.0
 11
95.46678971196613
 21
95.46600498296705
 31
0.0
  0
LINE
  5
3EF
330
1F
100
AcDbEntity
  8
0
  6
Continuous
 62
     0
370
     0
100
AcDbLine
 10
95.46678971196613
 20
95.46600498296705
 30
0.0
 11
95.41152666951615
 21
95.49077339508024
 31
0.0
  0
LINE
  5
3F0
330
1F
100
AcDbEntity
  8
0
  6
Continuous
 62
     0
370
     0
100
AcDbLine
 10
94.10213660146198
 20
95.23659594394647
 30
0.0
 11
93.76699398900467
 21
95.38683749772993
 31
0.0
  0
LINE
  5
3F1
330
1F
100
AcDbEntity
  8
0
  6
Continuous
 62
     0
370
     0
100
AcDbLine
 10
93.81457041646439
 20
95.43280027844392
 30
0.0
 11
93.76699398900467
 21
95.38683749772993
 31
0.0
  0
LINE
  5
3F2
330
1F
100
AcDbEntity
  8
0
  6
Continuous
 62
     0
370
     0
100
AcDbLine
 10
93.81457041646439
 20
95.43280027844392
 30
0.0
 11
94.26490377332172
 21
95.50009302832571
 31
0.0
  0
LINE
  5
3F3
330
1F
100
AcDbEntity
  8
0
  6
Continuous
 62
     0
370
     0
100
AcDbLine
 10
95.55961798573932
 20
95.69356016852342
 30
0.0
 11
95.109284628882
 21
95.62626741864172
 31
0.0
  0
LWPOLYLINE
  5
3F4
330
1F
100
AcDbEntity
  8
0
  6
Continuous
 62
     0
370
     0
100
AcDbPolyline
 90
        3
 70
   128
 43
0.0
 10
94.1330380334993
 20
95.31526945569006
 10
94.17066525365311
 20
95.30416570641485
 10
94.20816849614579
 20
95.29877074100462
  0
LINE
  5
3F5
330
1F
100
AcDbEntity
  8
0
  6
Continuous
 62
     0
370
     0
100
AcDbLine
 10
94.26490377332172
 20
95.40756501295057
 30
0.0
 11
94.22385167027909
 21
95.42596794702497
 31
0.0
  0
LWPOLYLINE
  5
3F6
330
1F
100
AcDbEntity
  8
0
  6
Continuous
 62
     0
370
     0
100
AcDbPolyline
 90
        9
 70
   128
 43
0.0
 10
94.22385167027909
 20
95.42596794702497
 10
94.18622445012531
 20
95.43707363345113
 10
94.13505267049271
 20
95.44360570647207
 10
94.0781159296175
 20
95.44457040764776
 10
94.02407716657123
 20
95.43982438780752
 10
93.98116539861161
 20
95.43008632995573
 10
93.95593594457111
 20
95.41684009172407
 10
93.95220111752948
 20
95.4021022472569
 10
93.97054981137711
 20
95.38811601736036
  0
LINE
  5
3F7
330
1F
100
AcDbEntity
  8
0
  6
Continuous
 62
     0
370
     0
100
AcDbLine
 10
93.97054981137711
 20
95.38811601736036
 30
0.0
 11
94.1330380334993
 21
95.31526945569006
 31
0.0
  0
LWPOLYLINE
  5
3F8
330
1F
100
AcDbEntity
  8
0
  6
Continuous
 62
     0
370
     0
100
AcDbPolyline
 90
       17
 70
   128
 43
0.0
 10
95.44073890592057
 20
95.57596929408994
 10
95.45908759976825
 20
95.5619830641934
 10
95.49671481992203
 20
95.55087931491815
 10
95.54788659955463
 20
95.54434724189726
 10
95.60482334042987
 20
95.54338060357061
 10
95.65886210347611
 20
95.54812856056176
 10
95.70177387143573
 20
95.5578666184136
 10
95.72700332547623
 20
95.57111285664521
 10
95.73073815251789
 20
95.58585070111242
 10
95.71238945867023
 20
95.59983499385801
 10
95.67477773572404
 20
95.61094068028413
 10
95.62359045888385
 20
95.61747275330511
 10
95.56665371800858
 20
95.61843745448076
 10
95.51261495496234
 20
95.61369143464051
 10
95.46971868421036
 20
95.60395337678877
 10
95.44447373296222
 20
95.59070713855706
 10
95.44073890592057
 20
95.57596929408994
  0
LINE
  5
3F9
330
1F
100
AcDbEntity
  8
0
  6
Continuous
 62
     0
370
     0
100
AcDbLine
 10
94.22834586049515
 20
94.72812868692365
 30
0.0
 11
95.07271121884781
 21
94.85430307723966
 31
0.0
  0
LINE
  5
3FA
330
1F
100
AcDbEntity
  8
0
  6
Continuous
 62
     0
370
     0
100
AcDbLine
 10
94.22834586049515
 20
94.72812868692365
 30
0.0
 11
94.20500706578693
 21
95.38794554807626
 31
0.0
  0
LINE
  5
3FB
330
1F
100
AcDbEntity
  8
0
  6
Continuous
 62
     0
370
     0
100
AcDbLine
 10
95.0493879213472
 20
95.51411993839231
 30
0.0
 11
94.20500706578693
 21
95.38794554807626
 31
0.0
  0
LINE
  5
3FC
330
1F
100
AcDbEntity
  8
0
  6
Continuous
 62
     0
370
     0
100
AcDbLine
 10
94.26490377332172
 20
95.40703423358885
 30
0.0
 11
94.26490377332172
 21
95.50009302832571
 31
0.0
  0
LINE
  5
3FD
330
1F
100
AcDbEntity
  8
0
  6
Continuous
 62
     0
370
     0
100
AcDbLine
 10
93.81457041646439
 20
95.55837027766195
 30
0.0
 11
93.81457041646439
 21
95.43280027844392
 31
0.0
  0
LINE
  5
3FE
330
1F
100
AcDbEntity
  8
0
  6
Continuous
 62
     0
370
     0
100
AcDbLine
 10
93.81457041646439
 20
95.55837027766195
 30
0.0
 11
95.55961798573932
 21
95.81913016774145
 31
0.0
  0
LWPOLYLINE
  5
3FF
330
1F
100
AcDbEntity
  8
0
  6
Continuous
 62
     0
370
     0
100
AcDbPolyline
 90
        8
 70
   128
 43
0.0
 10
94.23674534703693
 20
94.71323393322912
 10
94.23624943639237
 20
94.71320100166288
 10
94.23438977147538
 20
94.71375502683607
 10
94.23257659818131
 20
94.71531830765687
 10
94.23094939137894
 20
94.71776299216238
 10
94.2296321287294
 20
94.72088955380407
 10
94.2287332906862
 20
94.72444228865587
 10
94.22834586049515
 20
94.72812868692365
  0
LWPOLYLINE
  5
400
330
1F
100
AcDbEntity
  8
0
  6
Continuous
 62
     0
370
     0
100
AcDbPolyline
 90
        8
 70
   128
 43
0.0
 10
94.20500706578693
 20
95.38794554807626
 10
94.20505355740985
 20
95.39049483873335
 10
94.2053789987703
 20
95.39285041429487
 10
94.20593689824543
 20
95.39491735436407
 10
94.20674275304279
 20
95.396604612846
 10
94.2077500715395
 20
95.39784632660833
 10
94.20891236211261
 20
95.39858631827322
 10
94.2095787420412
 20
95.39876647331205
  0
LINE
  5
401
330
1F
100
AcDbEntity
  8
0
  6
Continuous
 62
     0
370
     0
100
AcDbLine
 10
95.41803549672562
 20
95.43323032595602
 30
0.0
 11
95.41803549672562
 21
95.47530137040101
 31
0.0
  0
ARC
  5
402
330
1F
100
AcDbEntity
  8
0
  6
Continuous
 62
     0
370
     0
100
AcDbCircle
 10
95.40026886887853
 20
95.47693233205146
 30
0.0
 40
0.0178413312553357
100
AcDbArc
 50
354.7549955301473
 51
50.87638930045307
  0
LINE
  5
403
330
1F
100
AcDbEntity
  8
0
  6
Continuous
 62
     0
370
     0
100
AcDbLine
 10
95.46678971196613
 20
95.46600498296705
 30
0.0
 11
95.46678971196613
 21
95.44051401354757
 31
0.0
  0
LINE
  5
404
330
1F
100
AcDbEntity
  8
0
  6
Continuous
 62
     0
370
     0
100
AcDbLine
 10
93.76699398900467
 20
95.38683749772993
 30
0.0
 11
93.76699398900467
 21
95.51240943409887
 31
0.0
  0
LINE
  5
405
330
1F
100
AcDbEntity
  8
0
  6
Continuous
 62
     0
370
     0
100
AcDbLine
 10
93.76699398900467
 20
95.51240943409887
 30
0.0
 11
93.81457041646439
 21
95.55837027766195
 31
0.0
  0
LINE
  5
406
330
1F
100
AcDbEntity
  8
0
  6
Continuous
 62
     0
370
     0
100
AcDbLine
 10
94.1330380334993
 20
95.440839454908
 30
0.0
 11
94.1330380334993
 21
95.31526945569006
 31
0.0
  0
LINE
  5
407
330
1F
100
AcDbEntity
  8
0
  6
Continuous
 62
     0
370
     0
100
AcDbLine
 10
94.12559937383134
 20
95.44417329170194
 30
0.0
 11
94.1330380334993
 21
95.440839454908
 31
0.0
  0
ARC
  5
408
330
1F
100
AcDbEntity
  8
0
  6
Continuous
 62
     0
370
     0
100
AcDbCircle
 10
94.24194513128302
 20
95.75436816814917
 30
0.0
 40
0.3319051219465024
100
AcDbArc
 50
250.8448565875749
 51
268.1603777433259
  0
LWPOLYLINE
  5
409
330
1F
100
AcDbEntity
  8
0
  6
Continuous
 62
     0
370
     0
100
AcDbPolyline
 90
        6
 70
   128
 43
0.0
 10
88.27799152280286
 20
93.37611936070408
 10
88.25156878377393
 20
93.38024742938961
 10
88.21738194371662
 20
93.4087041769215
 10
88.18840216542682
 20
93.45909722187008
 10
88.16901515866715
 20
93.52375738360368
 10
88.16537331487137
 20
93.54590676762547
  0
LWPOLYLINE
  5
40A
330
1F
100
AcDbEntity
  8
0
  6
Continuous
 62
     0
370
     0
100
AcDbPolyline
 90
        6
 70
   128
 43
0.0
 10
144.5696456327578
 20
101.7877382788846
 10
144.5432228937288
 20
101.79186634757
 10
144.5090205564638
 20
101.8203405294606
 10
144.4800252809663
 20
101.8707665059753
 10
144.4606537714143
 20
101.935467347879
 10
144.4570274248262
 20
101.9575256858059
  0
LWPOLYLINE
  5
40B
330
1F
100
AcDbEntity
  8
0
  6
Continuous
 62
     0
370
     0
100
AcDbPolyline
 90
        3
 70
   128
 43
0.0
 10
144.4258935346743
 20
101.9543410096356
 10
144.4284195795198
 20
101.9535893950649
 10
144.4306976690432
 20
101.9535893950649
  0
LINE
  5
40C
330
1F
100
AcDbEntity
  8
0
  6
Continuous
 62
     0
370
     0
100
AcDbLine
 10
144.4258935346743
 20
101.9543410096356
 30
0.0
 11
144.413232316031
 21
101.9600168619343
 31
0.0
  0
LINE
  5
40D
330
1F
100
AcDbEntity
  8
0
  6
Continuous
 62
     0
370
     0
100
AcDbLine
 10
144.413232316031
 20
101.9600168619343
 30
0.0
 11
144.413232316031
 21
102.3492854092309
 31
0.0
  0
ARC
  5
40E
330
1F
100
AcDbEntity
  8
0
  6
Continuous
 62
     0
370
     0
100
AcDbCircle
 10
144.3864920206409
 20
102.3517043154484
 30
0.0
 40
0.0268494786698131
100
AcDbArc
 50
354.8311366535189
 51
50.7369271449162
  0
LINE
  5
40F
330
1F
100
AcDbEntity
  8
0
  6
Continuous
 62
     0
370
     0
100
AcDbLine
 10
144.4034845724245
 20
102.3724924776742
 30
0.0
 11
144.3709714307924
 21
102.3870617900082
 31
0.0
  0
ARC
  5
410
330
1F
100
AcDbEntity
  8
0
  6
Continuous
 62
     0
370
     0
100
AcDbCircle
 10
144.3822949546235
 20
102.400912445213
 30
0.0
 40
0.017890300208594
100
AcDbArc
 50
174.8064694410775
 51
230.7324810194452
  0
LINE
  5
411
330
1F
100
AcDbEntity
  8
0
  6
Continuous
 62
     0
370
     0
100
AcDbLine
 10
144.3644781007906
 20
102.4025318775364
 30
0.0
 11
144.3644781007906
 21
102.7039002630898
 31
0.0
  0
LINE
  5
412
330
1F
100
AcDbEntity
  8
0
  6
Continuous
 62
     0
370
     0
100
AcDbLine
 10
144.396975745215
 20
102.7521159503647
 30
0.0
 11
144.3644781007906
 21
102.7039002630898
 31
0.0
  0
LWPOLYLINE
  5
413
330
1F
100
AcDbEntity
  8
0
  6
Continuous
 62
     0
370
     0
100
AcDbPolyline
 90
        2
 70
   128
 43
0.0
 10
88.12157820607624
 20
93.54839794375383
 10
144.413232316031
 20
101.9600168619343
  0
LWPOLYLINE
  5
414
330
1F
100
AcDbEntity
  8
0
  6
Continuous
 62
     0
370
     0
100
AcDbPolyline
 90
        2
 70
   128
 43
0.0
 10
88.13423942471942
 20
93.54272209145509
 10
144.4258935346743
 20
101.9543410096356
  0
LINE
  5
415
330
1F
100
AcDbEntity
  8
0
  6
Continuous
 62
     0
370
     0
100
AcDbLine
 10
88.13423942471942
 20
93.54272209145509
 30
0.0
 11
88.12157820607624
 21
93.54839794375383
 31
0.0
  0
LINE
  5
416
330
1F
100
AcDbEntity
  8
0
  6
Continuous
 62
     0
370
     0
100
AcDbLine
 10
88.12157820607624
 20
93.54839794375383
 30
0.0
 11
88.12157820607624
 21
93.9376664910504
 31
0.0
  0
LWPOLYLINE
  5
417
330
1F
100
AcDbEntity
  8
0
  6
Continuous
 62
     0
370
     0
100
AcDbPolyline
 90
        3
 70
   128
 43
0.0
 10
88.13904355908832
 20
93.5419704768845
 10
88.136765469565
 20
93.5419704768845
 10
88.13423942471942
 20
93.54272209145509
  0
ARC
  5
418
330
1F
100
AcDbEntity
  8
0
  6
Continuous
 62
     0
370
     0
100
AcDbCircle
 10
88.09058594158205
 20
93.98928176292414
 30
0.0
 40
0.0178366952128011
100
AcDbArc
 50
174.7528710993509
 51
230.8836423876117
  0
LINE
  5
419
330
1F
100
AcDbEntity
  8
0
  6
Continuous
 62
     0
370
     0
100
AcDbLine
 10
144.3644781007906
 20
102.7039002630898
 30
0.0
 11
138.1666488542696
 21
101.7777638886162
 31
0.0
  0
LINE
  5
41A
330
1F
100
AcDbEntity
  8
0
  6
Continuous
 62
     0
370
     0
100
AcDbLine
 10
137.2744281187197
 20
101.6444414112755
 30
0.0
 11
95.10353516484699
 21
95.34287579395262
 31
0.0
  0
LINE
  5
41B
330
1F
100
AcDbEntity
  8
0
  6
Continuous
 62
     0
370
     0
100
AcDbLine
 10
94.21131442929706
 20
95.20955331661187
 30
0.0
 11
88.07282399083573
 21
94.29228134490934
 31
0.0
  0
LINE
  5
41C
330
1F
100
AcDbEntity
  8
0
  6
Continuous
 62
     0
370
     0
100
AcDbLine
 10
88.07282399083573
 20
93.99091295935598
 30
0.0
 11
88.07282399083573
 21
94.29228134490934
 31
0.0
  0
LINE
  5
41D
330
1F
100
AcDbEntity
  8
0
  6
Continuous
 62
     0
370
     0
100
AcDbLine
 10
88.11183046246964
 20
93.96087355949369
 30
0.0
 11
88.0793328180452
 21
93.97544287182771
 31
0.0
  0
ARC
  5
41E
330
1F
100
AcDbEntity
  8
0
  6
Continuous
 62
     0
370
     0
100
AcDbCircle
 10
88.09487614971306
 20
93.94010145893604
 30
0.0
 40
0.0268128492075134
100
AcDbArc
 50
354.7895928421209
 51
50.77847095636997
  0
LINE
  5
41F
330
1F
100
AcDbEntity
  8
0
  6
Continuous
 62
     0
370
     0
100
AcDbLine
 10
88.10532163526017
 20
94.34049703218427
 30
0.0
 11
94.20979570294816
 21
95.2526839826294
 31
0.0
  0
LINE
  5
420
330
1F
100
AcDbEntity
  8
0
  6
Continuous
 62
     0
370
     0
100
AcDbLine
 10
95.10201643849811
 20
95.38600645997015
 30
0.0
 11
137.2729093923708
 21
101.6875720772931
 31
0.0
  0
LWPOLYLINE
  5
421
330
1F
100
AcDbEntity
  8
0
  6
Continuous
 62
     0
370
     0
100
AcDbPolyline
 90
        2
 70
   128
 43
0.0
 10
138.1651301279207
 20
101.8208964917847
 10
144.396975745215
 20
102.7521159503647
  0
LINE
  5
422
330
1F
100
AcDbEntity
  8
0
  6
Continuous
 62
     0
370
     0
100
AcDbLine
 10
88.07282399083573
 20
94.29228134490934
 30
0.0
 11
88.10532163526017
 21
94.34049703218427
 31
0.0
  0
LWPOLYLINE
  5
423
330
1F
100
AcDbEntity
  8
0
  6
Continuous
 62
     0
370
     0
100
AcDbPolyline
 90
        3
 70
   128
 43
0.0
 10
144.4306976690432
 20
101.9535893950649
 10
144.4284195795198
 20
101.9535893950649
 10
144.4258935346743
 20
101.9543410096356
  0
LWPOLYLINE
  5
424
330
1F
100
AcDbEntity
  8
0
  6
Continuous
 62
     0
370
     0
100
AcDbPolyline
 90
        6
 70
   128
 43
0.0
 10
144.5697076215883
 20
101.7877460274884
 10
144.5432848825594
 20
101.7918740961739
 10
144.509098042502
 20
101.8203308437058
 10
144.4801027670045
 20
101.8707238886544
 10
144.4607312574525
 20
101.935384050388
 10
144.4570894136567
 20
101.9575334344098
  0
LINE
  5
425
330
1F
100
AcDbEntity
  8
0
  6
Continuous
 62
     0
370
     0
100
AcDbLine
 10
138.2211525335451
 20
101.8877805028149
 30
0.0
 11
138.4746403589388
 21
101.9256614897439
 31
0.0
  0
LINE
  5
426
330
1F
100
AcDbEntity
  8
0
  6
Continuous
 62
     0
370
     0
100
AcDbLine
 10
138.2276458635469
 20
102.0363890383431
 30
0.0
 11
138.2239730253359
 21
102.0358388874718
 31
0.0
  0
LINE
  5
427
330
1F
100
AcDbEntity
  8
0
  6
Continuous
 62
     0
370
     0
100
AcDbLine
 10
138.1712360277315
 20
101.8419281397053
 30
0.0
 11
138.1675631895205
 21
101.8413779888341
 31
0.0
  0
LINE
  5
428
330
1F
100
AcDbEntity
  8
0
  6
Continuous
 62
     0
370
     0
100
AcDbLine
 10
138.4811491861483
 20
101.9101894650647
 30
0.0
 11
138.2211525335451
 21
101.8713379655071
 31
0.0
  0
LINE
  5
429
330
1F
100
AcDbEntity
  8
0
  6
Continuous
 62
     0
370
     0
100
AcDbLine
 10
137.0336635007997
 20
101.8608579788395
 30
0.0
 11
137.0336635007997
 21
101.823004112024
 31
0.0
  0
LINE
  5
42A
330
1F
100
AcDbEntity
  8
0
  6
Continuous
 62
     0
370
     0
100
AcDbLine
 10
95.1580388441225
 20
95.4528924081513
 30
0.0
 11
95.41152666951615
 21
95.49077339508024
 31
0.0
  0
LINE
  5
42B
330
1F
100
AcDbEntity
  8
0
  6
Continuous
 62
     0
370
     0
100
AcDbLine
 10
95.1645321741243
 20
95.60149900652853
 30
0.0
 11
95.16085933591324
 21
95.6009507928082
 31
0.0
  0
LINE
  5
42C
330
1F
100
AcDbEntity
  8
0
  6
Continuous
 62
     0
370
     0
100
AcDbLine
 10
95.10812233830887
 20
95.40703810789076
 30
0.0
 11
95.10444950009781
 21
95.40648989417043
 31
0.0
  0
LINE
  5
42D
330
1F
100
AcDbEntity
  8
0
  6
Continuous
 62
     0
370
     0
100
AcDbLine
 10
95.41803549672562
 20
95.47530137040101
 30
0.0
 11
95.1580388441225
 21
95.43644987084356
 31
0.0
  0
LINE
  5
42E
330
1F
100
AcDbEntity
  8
0
  6
Continuous
 62
     0
370
     0
100
AcDbLine
 10
93.97054981137711
 20
95.42596794702497
 30
0.0
 11
93.97054981137711
 21
95.38811601736036
 31
0.0
  0
LINE
  5
42F
330
1F
100
AcDbEntity
  8
0
  6
Continuous
 62
     0
370
     0
100
AcDbLine
 10
144.413232316031
 20
102.3492854092309
 30
0.0
 11
138.1857259168764
 21
101.4187148962208
 31
0.0
  0
LINE
  5
430
330
1F
100
AcDbEntity
  8
0
  6
Continuous
 62
     0
370
     0
100
AcDbLine
 10
137.2871668234011
 20
101.2844432149121
 30
0.0
 11
95.12261222745377
 21
94.98382486440626
 31
0.0
  0
LINE
  5
431
330
1F
100
AcDbEntity
  8
0
  6
Continuous
 62
     0
370
     0
100
AcDbLine
 10
94.22405313397843
 20
94.84955512024847
 30
0.0
 11
88.12157820607624
 21
93.9376664910504
 31
0.0
  0
LINE
  5
432
330
1F
100
AcDbEntity
  8
0
  6
Continuous
 62
     0
370
     0
100
AcDbLine
 10
88.07282399083573
 20
93.99091295935598
 30
0.0
 11
94.22191451932389
 21
94.90976758338896
 31
0.0
  0
LINE
  5
433
330
1F
100
AcDbEntity
  8
0
  6
Continuous
 62
     0
370
     0
100
AcDbLine
 10
95.109284628882
 20
95.04236556627241
 30
0.0
 11
137.2850282087465
 21
101.3446556780525
 31
0.0
  0
LWPOLYLINE
  5
434
330
1F
100
AcDbEntity
  8
0
  6
Continuous
 62
     0
370
     0
100
AcDbPolyline
 90
        2
 70
   128
 43
0.0
 10
138.1723983183046
 20
101.477253660936
 10
144.3644781007906
 20
102.4025318775364
  0
LINE
  5
435
330
1F
100
AcDbEntity
  8
0
  6
Continuous
 62
     0
370
     0
100
AcDbLine
 10
144.3709714307924
 20
102.3870617900082
 30
0.0
 11
138.1778223409792
 21
101.4616227898785
 31
0.0
  0
LINE
  5
436
330
1F
100
AcDbEntity
  8
0
  6
Continuous
 62
     0
370
     0
100
AcDbLine
 10
137.2856171026369
 20
101.3283003125378
 30
0.0
 11
95.11470865155655
 21
95.02673469521486
 31
0.0
  0
LINE
  5
437
330
1F
100
AcDbEntity
  8
0
  6
Continuous
 62
     0
370
     0
100
AcDbLine
 10
94.22250341321427
 20
94.8934122178742
 30
0.0
 11
88.0793328180452
 21
93.97544287182771
 31
0.0
  0
LINE
  5
438
330
1F
100
AcDbEntity
  8
0
  6
Continuous
 62
     0
370
     0
100
AcDbLine
 10
88.11183046246964
 20
93.96087355949369
 30
0.0
 11
94.22318529035053
 21
94.87408719994508
 31
0.0
  0
LINE
  5
439
330
1F
100
AcDbEntity
  8
0
  6
Continuous
 62
     0
370
     0
100
AcDbLine
 10
95.11539052869281
 20
95.00741161443673
 30
0.0
 11
137.2862989797731
 21
101.3089772317597
 31
0.0
  0
LWPOLYLINE
  5
43A
330
1F
100
AcDbEntity
  8
0
  6
Continuous
 62
     0
370
     0
100
AcDbPolyline
 90
        2
 70
   128
 43
0.0
 10
138.1785042181154
 20
101.4422997091004
 10
144.4034845724245
 20
102.3724924776742
  0
LINE
  5
43B
330
1F
100
AcDbEntity
  8
0
  6
Continuous
 62
     0
370
     0
100
AcDbLine
 10
81.00820492650466
 20
92.73650310971223
 30
0.0
 11
81.85258578206498
 21
92.86267750002827
 31
0.0
  0
LINE
  5
43C
330
1F
100
AcDbEntity
  8
0
  6
Continuous
 62
     0
370
     0
100
AcDbLine
 10
81.82541917706925
 20
93.5482100401112
 30
0.0
 11
80.98103832150895
 21
93.42203564979519
 31
0.0
  0
LINE
  5
43D
330
1F
100
AcDbEntity
  8
0
  6
Continuous
 62
     0
370
     0
100
AcDbLine
 10
37.94509123708208
 20
86.30161501504864
 30
0.0
 11
38.78947209264236
 21
86.42778940536465
 31
0.0
  0
LINE
  5
43E
330
1F
100
AcDbEntity
  8
0
  6
Continuous
 62
     0
370
     0
100
AcDbLine
 10
38.76230548764663
 20
87.11332000829663
 30
0.0
 11
37.91792463208634
 21
86.98714755513157
 31
0.0
  0
LINE
  5
43F
330
1F
100
AcDbEntity
  8
0
  6
Continuous
 62
     0
370
     0
100
AcDbLine
 10
31.98633741284802
 20
84.96450044252362
 30
0.0
 11
88.27799152280289
 21
93.37611936070408
 31
0.0
  0
LINE
  5
440
330
1F
100
AcDbEntity
  8
0
  6
Continuous
 62
     0
370
     0
100
AcDbLine
 10
31.84738944913346
 20
85.13035155870404
 30
0.0
 11
88.1390435590883
 21
93.54197047688447
 31
0.0
  0
LINE
  5
441
330
1F
100
AcDbEntity
  8
0
  6
Continuous
 62
     0
370
     0
100
AcDbLine
 10
82.84380268002946
 20
93.55427332260098
 30
0.0
 11
82.50866006757218
 21
93.7045148763844
 31
0.0
  0
LINE
  5
442
330
1F
100
AcDbEntity
  8
0
  6
Continuous
 62
     0
370
     0
100
AcDbLine
 10
82.50866006757218
 20
93.83008487560238
 30
0.0
 11
82.50866006757218
 21
93.7045148763844
 31
0.0
  0
LINE
  5
443
330
1F
100
AcDbEntity
  8
0
  6
Continuous
 62
     0
370
     0
100
AcDbLine
 10
82.50866006757218
 20
93.83008487560238
 30
0.0
 11
82.9636580839296
 21
93.62611450292553
 31
0.0
  0
LINE
  5
444
330
1F
100
AcDbEntity
  8
0
  6
Continuous
 62
     0
370
     0
100
AcDbLine
 10
82.9636580839296
 20
93.62611450292553
 30
0.0
 11
82.9636580839296
 21
93.5721822831818
 31
0.0
  0
LINE
  5
445
330
1F
100
AcDbEntity
  8
0
  6
Continuous
 62
     0
370
     0
100
AcDbLine
 10
81.92949842359025
 20
93.61512698270761
 30
0.0
 11
81.92949842359025
 21
93.42049174048387
 31
0.0
  0
LWPOLYLINE
  5
446
330
1F
100
AcDbEntity
  8
0
  6
Continuous
 62
     0
370
     0
100
AcDbPolyline
 90
        3
 70
   128
 43
0.0
 10
81.92931245709855
 20
93.41762088276829
 10
81.92935894872146
 20
93.41809742190327
 10
81.92949842359025
 20
93.42049174048387
  0
LINE
  5
447
330
1F
100
AcDbEntity
  8
0
  6
Continuous
 62
     0
370
     0
100
AcDbLine
 10
81.91324185277419
 20
93.41521881558384
 30
0.0
 11
81.87958191777665
 21
93.43030922152485
 31
0.0
  0
LWPOLYLINE
  5
448
330
1F
100
AcDbEntity
  8
0
  6
Continuous
 62
     0
370
     0
100
AcDbPolyline
 90
        9
 70
   128
 43
0.0
 10
81.87310408498244
 20
93.41978855468716
 10
81.87315057660538
 20
93.4223378453442
 10
81.87346052075821
 20
93.42469342090573
 10
81.87403391744094
 20
93.42676036097492
 10
81.87482427503068
 20
93.4284476194569
 10
81.87583159352738
 20
93.42968933321919
 10
81.8769938841005
 20
93.43042932488405
 10
81.87826465512711
 20
93.43063853718724
 10
81.87958191777665
 20
93.43030922152485
  0
LINE
  5
449
330
1F
100
AcDbEntity
  8
0
  6
Continuous
 62
     0
370
     0
100
AcDbLine
 10
81.87310408498244
 20
93.41978855468716
 30
0.0
 11
81.88074420834977
 21
93.20360831953965
 31
0.0
  0
LINE
  5
44A
330
1F
100
AcDbEntity
  8
0
  6
Continuous
 62
     0
370
     0
100
AcDbLine
 10
81.88613723660904
 20
93.05083684660877
 30
0.0
 11
81.88692759419877
 21
93.02865453102075
 31
0.0
  0
ARC
  5
44B
330
1F
100
AcDbEntity
  8
0
  6
Continuous
 62
     0
370
     0
100
AcDbCircle
 10
81.92342637205049
 20
93.02957136034337
 30
0.0
 40
0.0365102911612093
100
AcDbArc
 50
181.4389360224309
 51
207.104927205436
  0
LINE
  5
44C
330
1F
100
AcDbEntity
  8
0
  6
Continuous
 62
     0
370
     0
100
AcDbLine
 10
81.89092587377029
 20
93.01293648817028
 30
0.0
 11
81.91324185277419
 21
92.97156088091816
 31
0.0
  0
LINE
  5
44D
330
1F
100
AcDbEntity
  8
0
  6
Continuous
 62
     0
370
     0
100
AcDbLine
 10
81.91324185277419
 20
92.97156088091816
 30
0.0
 11
81.91324185277419
 21
92.95272596218075
 31
0.0
  0
LINE
  5
44E
330
1F
100
AcDbEntity
  8
0
  6
Continuous
 62
     0
370
     0
100
AcDbLine
 10
81.91324185277419
 20
92.95272596218075
 30
0.0
 11
81.85529779340226
 21
92.86465920545544
 31
0.0
  0
LWPOLYLINE
  5
44F
330
1F
100
AcDbEntity
  8
0
  6
Continuous
 62
     0
370
     0
100
AcDbPolyline
 90
        9
 70
   128
 43
0.0
 10
81.84417079831559
 20
92.8775722537228
 10
81.84457372571427
 20
92.87388585545503
 10
81.84545706654984
 20
92.87033312060322
 10
81.84677432919938
 20
92.86720655896153
 10
81.84841703320939
 20
92.86476187445604
 10
81.85023020650345
 20
92.86319859363522
 10
81.85208987142045
 20
92.86264456846203
 10
81.8538255586763
 20
92.86314435340844
 10
81.85529779340226
 20
92.86465920545544
  0
LINE
  5
450
330
1F
100
AcDbEntity
  8
0
  6
Continuous
 62
     0
370
     0
100
AcDbLine
 10
81.84417079831559
 20
92.8775722537228
 30
0.0
 11
81.82084750081498
 21
93.53738911487542
 31
0.0
  0
LWPOLYLINE
  5
451
330
1F
100
AcDbEntity
  8
0
  6
Continuous
 62
     0
370
     0
100
AcDbPolyline
 90
        9
 70
   128
 43
0.0
 10
81.82732533360917
 20
93.54790978171314
 10
81.82600807095963
 20
93.54823909737553
 10
81.82473729993302
 20
93.54802988507237
 10
81.8235750093599
 20
93.54728989340748
 10
81.82258318807082
 20
93.54604817964517
 10
81.82177733327347
 20
93.54436092116322
 10
81.82120393659073
 20
93.54229398109402
 10
81.8208939924379
 20
93.5399384055325
 10
81.82084750081498
 20
93.53738911487542
  0
LINE
  5
452
330
1F
100
AcDbEntity
  8
0
  6
Continuous
 62
     0
370
     0
100
AcDbLine
 10
81.82732533360917
 20
93.54790978171314
 30
0.0
 11
81.88074420834977
 21
93.52396659590687
 31
0.0
  0
LINE
  5
453
330
1F
100
AcDbEntity
  8
0
  6
Continuous
 62
     0
370
     0
100
AcDbLine
 10
81.88074420834977
 20
93.52396659590687
 30
0.0
 11
81.88074420834977
 21
93.64953659512486
 31
0.0
  0
LINE
  5
454
330
1F
100
AcDbEntity
  8
0
  6
Continuous
 62
     0
370
     0
100
AcDbLine
 10
81.93599175359208
 20
93.62477012016262
 30
0.0
 11
81.88074420834977
 21
93.64953659512486
 31
0.0
  0
LWPOLYLINE
  5
455
330
1F
100
AcDbEntity
  8
0
  6
Continuous
 62
     0
370
     0
100
AcDbPolyline
 90
        9
 70
   128
 43
0.0
 10
81.92949842359025
 20
93.61512698270761
 10
81.92962240125138
 20
93.61751936413728
 10
81.92997883702712
 20
93.61971028186764
 10
81.93058322812516
 20
93.62161062695469
 10
81.93138908292252
 20
93.62315259911503
 10
81.93238090421157
 20
93.62427227236714
 10
81.93349670316178
 20
93.62492896654092
 10
81.93472098256547
 20
93.6250955615231
 10
81.93599175359208
 20
93.62477012016262
  0
LINE
  5
456
330
1F
100
AcDbEntity
  8
0
  6
Continuous
 62
     0
370
     0
100
AcDbLine
 10
82.28088210965592
 20
93.47015641667332
 30
0.0
 11
82.23823379422623
 21
93.48927415945019
 31
0.0
  0
LINE
  5
457
330
1F
100
AcDbEntity
  8
0
  6
Continuous
 62
     0
370
     0
100
AcDbLine
 10
82.23823379422623
 20
93.48927415945019
 30
0.0
 11
82.18298624898392
 21
93.51404257156338
 31
0.0
  0
LINE
  5
458
330
1F
100
AcDbEntity
  8
0
  6
Continuous
 62
     0
370
     0
100
AcDbLine
 10
80.87359618092972
 20
93.2598670575806
 30
0.0
 11
80.53845356847245
 21
93.410108611364
 31
0.0
  0
LINE
  5
459
330
1F
100
AcDbEntity
  8
0
  6
Continuous
 62
     0
370
     0
100
AcDbLine
 10
80.58602999593217
 20
93.4560694549271
 30
0.0
 11
80.53845356847245
 21
93.410108611364
 31
0.0
  0
LINE
  5
45A
330
1F
100
AcDbEntity
  8
0
  6
Continuous
 62
     0
370
     0
100
AcDbLine
 10
80.58602999593217
 20
93.4560694549271
 30
0.0
 11
81.03636335278946
 21
93.52336220480885
 31
0.0
  0
LINE
  5
45B
330
1F
100
AcDbEntity
  8
0
  6
Continuous
 62
     0
370
     0
100
AcDbLine
 10
82.33107756520707
 20
93.7168293450066
 30
0.0
 11
81.88074420834977
 21
93.64953659512486
 31
0.0
  0
LINE
  5
45C
330
1F
100
AcDbEntity
  8
0
  6
Continuous
 62
     0
370
     0
100
AcDbLine
 10
82.50866006757218
 20
93.7045148763844
 30
0.0
 11
82.33107756520707
 21
93.7168293450066
 31
0.0
  0
LWPOLYLINE
  5
45D
330
1F
100
AcDbEntity
  8
0
  6
Continuous
 62
     0
370
     0
100
AcDbPolyline
 90
        3
 70
   128
 43
0.0
 10
80.90449761296708
 20
93.3385386321732
 10
80.94212483312089
 20
93.32743488289799
 10
80.97962807561356
 20
93.32203991748776
  0
LINE
  5
45E
330
1F
100
AcDbEntity
  8
0
  6
Continuous
 62
     0
370
     0
100
AcDbLine
 10
81.03636335278946
 20
93.43083418943371
 30
0.0
 11
80.99531124974686
 21
93.44923906065904
 31
0.0
  0
LWPOLYLINE
  5
45F
330
1F
100
AcDbEntity
  8
0
  6
Continuous
 62
     0
370
     0
100
AcDbPolyline
 90
        9
 70
   128
 43
0.0
 10
80.99531124974686
 20
93.44923906065904
 10
80.95768402959304
 20
93.46034280993428
 10
80.90651224996049
 20
93.46687488295521
 10
80.84957550908524
 20
93.4678395841309
 10
80.79553674603898
 20
93.46309356429066
 10
80.75262497807938
 20
93.45335550643884
 10
80.72739552403884
 20
93.44010926820721
 10
80.72366069699723
 20
93.42537142374005
 10
80.74200939084488
 20
93.4113851938435
  0
LINE
  5
460
330
1F
100
AcDbEntity
  8
0
  6
Continuous
 62
     0
370
     0
100
AcDbLine
 10
80.74200939084488
 20
93.4113851938435
 30
0.0
 11
80.90449761296708
 21
93.3385386321732
 31
0.0
  0
LWPOLYLINE
  5
461
330
1F
100
AcDbEntity
  8
0
  6
Continuous
 62
     0
370
     0
100
AcDbPolyline
 90
       17
 70
   128
 43
0.0
 10
82.21219848538834
 20
93.59923847057308
 10
82.23054717923598
 20
93.58525224067654
 10
82.2681743993898
 20
93.57414849140133
 10
82.31934617902236
 20
93.5676164183804
 10
82.37628291989762
 20
93.56664978005372
 10
82.43032168294388
 20
93.57139773704495
 10
82.47323345090346
 20
93.58113579489674
 10
82.498462904944
 20
93.5943820331284
 10
82.50219773198563
 20
93.60911987759556
 10
82.48384903813796
 20
93.6231061074921
 10
82.44623731519181
 20
93.63420985676731
 10
82.39505003835158
 20
93.64074192978825
 10
82.33811329747635
 20
93.64170663096394
 10
82.28407453443009
 20
93.6369606111237
 10
82.24117826367814
 20
93.6272225532719
 10
82.21593331242997
 20
93.61397631504025
 10
82.21219848538834
 20
93.59923847057308
  0
LINE
  5
462
330
1F
100
AcDbEntity
  8
0
  6
Continuous
 62
     0
370
     0
100
AcDbLine
 10
82.33107756520707
 20
93.7168293450066
 30
0.0
 11
82.33107756520707
 21
93.84240128137556
 31
0.0
  0
LINE
  5
463
330
1F
100
AcDbEntity
  8
0
  6
Continuous
 62
     0
370
     0
100
AcDbLine
 10
82.33107756520707
 20
93.84240128137556
 30
0.0
 11
82.50866006757218
 21
93.83008487560238
 31
0.0
  0
LINE
  5
464
330
1F
100
AcDbEntity
  8
0
  6
Continuous
 62
     0
370
     0
100
AcDbLine
 10
80.99980543996293
 20
92.7513978634068
 30
0.0
 11
81.84417079831559
 21
92.8775722537228
 31
0.0
  0
LINE
  5
465
330
1F
100
AcDbEntity
  8
0
  6
Continuous
 62
     0
370
     0
100
AcDbLine
 10
80.99980543996293
 20
92.7513978634068
 30
0.0
 11
80.97646664525467
 21
93.41121472455944
 31
0.0
  0
LINE
  5
466
330
1F
100
AcDbEntity
  8
0
  6
Continuous
 62
     0
370
     0
100
AcDbLine
 10
81.82084750081498
 20
93.53738911487542
 30
0.0
 11
80.97646664525467
 21
93.41121472455944
 31
0.0
  0
LINE
  5
467
330
1F
100
AcDbEntity
  8
0
  6
Continuous
 62
     0
370
     0
100
AcDbLine
 10
81.03636335278946
 20
93.43030341007196
 30
0.0
 11
81.03636335278946
 21
93.52336220480885
 31
0.0
  0
LINE
  5
468
330
1F
100
AcDbEntity
  8
0
  6
Continuous
 62
     0
370
     0
100
AcDbLine
 10
80.58602999593217
 20
93.58163945414509
 30
0.0
 11
80.58602999593217
 21
93.4560694549271
 31
0.0
  0
LINE
  5
469
330
1F
100
AcDbEntity
  8
0
  6
Continuous
 62
     0
370
     0
100
AcDbLine
 10
80.58602999593217
 20
93.58163945414509
 30
0.0
 11
82.33107756520707
 21
93.84240128137556
 31
0.0
  0
LWPOLYLINE
  5
46A
330
1F
100
AcDbEntity
  8
0
  6
Continuous
 62
     0
370
     0
100
AcDbPolyline
 90
        8
 70
   128
 43
0.0
 10
81.00820492650466
 20
92.73650310971223
 10
81.00770901586014
 20
92.73647017814602
 10
81.00584935094315
 20
92.73702420331921
 10
81.00403617764908
 20
92.73858748414006
 10
81.00239347363906
 20
92.74103216864552
 10
81.00109170819718
 20
92.74415873028721
 10
81.00019287015397
 20
92.74771146513905
 10
80.99980543996293
 20
92.7513978634068
  0
LWPOLYLINE
  5
46B
330
1F
100
AcDbEntity
  8
0
  6
Continuous
 62
     0
370
     0
100
AcDbPolyline
 90
        8
 70
   128
 43
0.0
 10
80.97646664525467
 20
93.41121472455944
 10
80.97651313687759
 20
93.41376401521649
 10
80.97683857823807
 20
93.41611959077801
 10
80.97739647771317
 20
93.41818653084718
 10
80.97820233251053
 20
93.41987378932919
 10
80.97920965100724
 20
93.42111550309147
 10
80.98037194158036
 20
93.42185549475636
 10
80.98103832150895
 20
93.42203564979519
  0
LINE
  5
46C
330
1F
100
AcDbEntity
  8
0
  6
Continuous
 62
     0
370
     0
100
AcDbLine
 10
82.1894950761934
 20
93.45649950243916
 30
0.0
 11
82.1894950761934
 21
93.4985705468842
 31
0.0
  0
ARC
  5
46D
330
1F
100
AcDbEntity
  8
0
  6
Continuous
 62
     0
370
     0
100
AcDbCircle
 10
82.17173266526201
 20
93.50020328252192
 30
0.0
 40
0.0178372942947823
100
AcDbArc
 50
354.7480828638757
 51
50.88330196686756
  0
LINE
  5
46E
330
1F
100
AcDbEntity
  8
0
  6
Continuous
 62
     0
370
     0
100
AcDbLine
 10
82.23823379422623
 20
93.48927415945019
 30
0.0
 11
82.23823379422623
 21
93.46378512718167
 31
0.0
  0
LINE
  5
46F
330
1F
100
AcDbEntity
  8
0
  6
Continuous
 62
     0
370
     0
100
AcDbLine
 10
80.53845356847245
 20
93.410108611364
 30
0.0
 11
80.53845356847245
 21
93.53567861058201
 31
0.0
  0
LINE
  5
470
330
1F
100
AcDbEntity
  8
0
  6
Continuous
 62
     0
370
     0
100
AcDbLine
 10
80.53845356847245
 20
93.53567861058201
 30
0.0
 11
80.58602999593217
 21
93.58163945414509
 31
0.0
  0
LINE
  5
471
330
1F
100
AcDbEntity
  8
0
  6
Continuous
 62
     0
370
     0
100
AcDbLine
 10
80.90449761296708
 20
93.46410863139118
 30
0.0
 11
80.90449761296708
 21
93.3385386321732
 31
0.0
  0
LINE
  5
472
330
1F
100
AcDbEntity
  8
0
  6
Continuous
 62
     0
370
     0
100
AcDbLine
 10
80.89705895329911
 20
93.46744246818508
 30
0.0
 11
80.90449761296708
 21
93.46410863139118
 31
0.0
  0
ARC
  5
473
330
1F
100
AcDbEntity
  8
0
  6
Continuous
 62
     0
370
     0
100
AcDbCircle
 10
81.01340471075076
 20
93.77763734463191
 30
0.0
 40
0.3319051219460959
100
AcDbArc
 50
250.8448565875508
 51
268.1603777433286
  0
LINE
  5
474
330
1F
100
AcDbEntity
  8
0
  6
Continuous
 62
     0
370
     0
100
AcDbLine
 10
39.78068899060685
 20
87.11938522793733
 30
0.0
 11
39.44554637814956
 21
87.26962678172077
 31
0.0
  0
LINE
  5
475
330
1F
100
AcDbEntity
  8
0
  6
Continuous
 62
     0
370
     0
100
AcDbLine
 10
39.44554637814956
 20
87.39519678093873
 30
0.0
 11
39.44554637814956
 21
87.26962678172077
 31
0.0
  0
LINE
  5
476
330
1F
100
AcDbEntity
  8
0
  6
Continuous
 62
     0
370
     0
100
AcDbLine
 10
39.44554637814956
 20
87.39519678093873
 30
0.0
 11
39.90054439450698
 21
87.19122640826191
 31
0.0
  0
LINE
  5
477
330
1F
100
AcDbEntity
  8
0
  6
Continuous
 62
     0
370
     0
100
AcDbLine
 10
39.90054439450698
 20
87.19122640826191
 30
0.0
 11
39.90054439450698
 21
87.13729418851815
 31
0.0
  0
LINE
  5
478
330
1F
100
AcDbEntity
  8
0
  6
Continuous
 62
     0
370
     0
100
AcDbLine
 10
38.86638473416764
 20
87.18023695089306
 30
0.0
 11
38.86638473416764
 21
86.98560364582028
 31
0.0
  0
LWPOLYLINE
  5
479
330
1F
100
AcDbEntity
  8
0
  6
Continuous
 62
     0
370
     0
100
AcDbPolyline
 90
        3
 70
   128
 43
0.0
 10
38.86619876767594
 20
86.98273278810467
 10
38.86626075650649
 20
86.98320932723965
 10
38.86638473416764
 20
86.98560364582028
  0
LINE
  5
47A
330
1F
100
AcDbEntity
  8
0
  6
Continuous
 62
     0
370
     0
100
AcDbLine
 10
38.85012816335161
 20
86.98033072092022
 30
0.0
 11
38.81646822835403
 21
86.99541918971028
 31
0.0
  0
LWPOLYLINE
  5
47B
330
1F
100
AcDbEntity
  8
0
  6
Continuous
 62
     0
370
     0
100
AcDbPolyline
 90
        9
 70
   128
 43
0.0
 10
38.80999039555986
 20
86.98490046002354
 10
38.81003688718276
 20
86.98744975068058
 10
38.81034683133559
 20
86.9898053262421
 10
38.81092022801836
 20
86.99187032916035
 10
38.81171058560805
 20
86.99355952479328
 10
38.81271790410476
 20
86.99479930140461
 10
38.81388019467788
 20
86.99554123022045
 10
38.81515096570449
 20
86.99575044252362
 10
38.81646822835403
 20
86.99541918971028
  0
LINE
  5
47C
330
1F
100
AcDbEntity
  8
0
  6
Continuous
 62
     0
370
     0
100
AcDbLine
 10
38.80999039555986
 20
86.98490046002354
 30
0.0
 11
38.81763051892715
 21
86.76872022487606
 31
0.0
  0
LINE
  5
47D
330
1F
100
AcDbEntity
  8
0
  6
Continuous
 62
     0
370
     0
100
AcDbLine
 10
38.82302354718642
 20
86.61594875194513
 30
0.0
 11
38.82381390477616
 21
86.5937644992062
 31
0.0
  0
ARC
  5
47E
330
1F
100
AcDbEntity
  8
0
  6
Continuous
 62
     0
370
     0
100
AcDbCircle
 10
38.86030212445151
 20
86.59468069273782
 30
0.0
 40
0.0364997203504955
100
AcDbArc
 50
181.4383544916728
 51
207.1088832608827
  0
LINE
  5
47F
330
1F
100
AcDbEntity
  8
0
  6
Continuous
 62
     0
370
     0
100
AcDbLine
 10
38.82781218434771
 20
86.57804839350663
 30
0.0
 11
38.85012816335161
 21
86.53667278625454
 31
0.0
  0
LINE
  5
480
330
1F
100
AcDbEntity
  8
0
  6
Continuous
 62
     0
370
     0
100
AcDbLine
 10
38.85012816335161
 20
86.53667278625454
 30
0.0
 11
38.85012816335161
 21
86.51783786751713
 31
0.0
  0
LINE
  5
481
330
1F
100
AcDbEntity
  8
0
  6
Continuous
 62
     0
370
     0
100
AcDbLine
 10
38.85012816335161
 20
86.51783786751713
 30
0.0
 11
38.79218410397964
 21
86.42977111079182
 31
0.0
  0
LWPOLYLINE
  5
482
330
1F
100
AcDbEntity
  8
0
  6
Continuous
 62
     0
370
     0
100
AcDbPolyline
 90
        9
 70
   128
 43
0.0
 10
38.78105710889297
 20
86.44268415905918
 10
38.78146003629166
 20
86.43899776079144
 10
38.78234337712722
 20
86.43544502593957
 10
38.78366063977676
 20
86.43231846429791
 10
38.78530334378678
 20
86.42987377979244
 10
38.78711651708085
 20
86.4283104989716
 10
38.78897618199784
 20
86.42775647379841
 10
38.79071186925368
 20
86.42825625874485
 10
38.79218410397964
 20
86.42977111079182
  0
LINE
  5
483
330
1F
100
AcDbEntity
  8
0
  6
Continuous
 62
     0
370
     0
100
AcDbLine
 10
38.78105710889297
 20
86.44268415905918
 30
0.0
 11
38.75773381139236
 21
87.10250102021183
 31
0.0
  0
LWPOLYLINE
  5
484
330
1F
100
AcDbEntity
  8
0
  6
Continuous
 62
     0
370
     0
100
AcDbPolyline
 90
        9
 70
   128
 43
0.0
 10
38.7642271413942
 20
87.11301974989857
 10
38.76289438153701
 20
87.11335100271188
 10
38.76162361051041
 20
87.11314179040875
 10
38.76047681714495
 20
87.11240179874383
 10
38.75946949864824
 20
87.11116008498158
 10
38.75866364385085
 20
87.1094728264996
 10
38.75809024716811
 20
87.1074058864304
 10
38.75778030301528
 20
87.10505031086885
 10
38.75773381139236
 20
87.10250102021183
  0
LINE
  5
485
330
1F
100
AcDbEntity
  8
0
  6
Continuous
 62
     0
370
     0
100
AcDbLine
 10
38.7642271413942
 20
87.11301974989857
 30
0.0
 11
38.81763051892715
 21
87.08907850124322
 31
0.0
  0
LINE
  5
486
330
1F
100
AcDbEntity
  8
0
  6
Continuous
 62
     0
370
     0
100
AcDbLine
 10
38.81763051892715
 20
87.08907850124322
 30
0.0
 11
38.81763051892715
 21
87.21464850046124
 31
0.0
  0
LINE
  5
487
330
1F
100
AcDbEntity
  8
0
  6
Continuous
 62
     0
370
     0
100
AcDbLine
 10
38.87287806416946
 20
87.18988008834805
 30
0.0
 11
38.81763051892715
 21
87.21464850046124
 31
0.0
  0
LWPOLYLINE
  5
488
330
1F
100
AcDbEntity
  8
0
  6
Continuous
 62
     0
370
     0
100
AcDbPolyline
 90
        9
 70
   128
 43
0.0
 10
38.86638473416764
 20
87.18023695089306
 10
38.86650871182877
 20
87.18263126947369
 10
38.86688064481216
 20
87.18482025005306
 10
38.86746953870255
 20
87.18672253229107
 10
38.8682753934999
 20
87.18826256730046
 10
38.86926721478899
 20
87.18938417770349
 10
38.8703985109468
 20
87.19004087187733
 10
38.87160729314284
 20
87.19020746685945
 10
38.87287806416946
 20
87.18988008834805
  0
LINE
  5
489
330
1F
100
AcDbEntity
  8
0
  6
Continuous
 62
     0
370
     0
100
AcDbLine
 10
39.26796387578446
 20
87.28194125034295
 30
0.0
 11
39.26796387578446
 21
87.40751124956097
 31
0.0
  0
LINE
  5
48A
330
1F
100
AcDbEntity
  8
0
  6
Continuous
 62
     0
370
     0
100
AcDbLine
 10
39.26796387578446
 20
87.40751124956097
 30
0.0
 11
39.44554637814956
 21
87.39519678093873
 31
0.0
  0
LINE
  5
48B
330
1F
100
AcDbEntity
  8
0
  6
Continuous
 62
     0
370
     0
100
AcDbLine
 10
39.44554637814956
 20
87.26962678172077
 30
0.0
 11
39.26796387578446
 21
87.28194125034295
 31
0.0
  0
LINE
  5
48C
330
1F
100
AcDbEntity
  8
0
  6
Continuous
 62
     0
370
     0
100
AcDbLine
 10
39.2177684202333
 20
87.0352683220097
 30
0.0
 11
39.17513560201127
 21
87.05438606478657
 31
0.0
  0
LINE
  5
48D
330
1F
100
AcDbEntity
  8
0
  6
Continuous
 62
     0
370
     0
100
AcDbLine
 10
39.17513560201127
 20
87.05438606478657
 30
0.0
 11
39.1198725595613
 21
87.07915447689976
 31
0.0
  0
LINE
  5
48E
330
1F
100
AcDbEntity
  8
0
  6
Continuous
 62
     0
370
     0
100
AcDbLine
 10
37.81048249150712
 20
86.824977025766
 30
0.0
 11
37.47533987904983
 21
86.97521857954945
 31
0.0
  0
LINE
  5
48F
330
1F
100
AcDbEntity
  8
0
  6
Continuous
 62
     0
370
     0
100
AcDbLine
 10
37.52291630650954
 20
87.02118136026345
 30
0.0
 11
37.47533987904983
 21
86.97521857954945
 31
0.0
  0
LINE
  5
490
330
1F
100
AcDbEntity
  8
0
  6
Continuous
 62
     0
370
     0
100
AcDbLine
 10
37.52291630650954
 20
87.02118136026345
 30
0.0
 11
37.97324966336686
 21
87.08847411014523
 31
0.0
  0
LINE
  5
491
330
1F
100
AcDbEntity
  8
0
  6
Continuous
 62
     0
370
     0
100
AcDbLine
 10
39.26796387578446
 20
87.28194125034295
 30
0.0
 11
38.81763051892715
 21
87.21464850046124
 31
0.0
  0
LWPOLYLINE
  5
492
330
1F
100
AcDbEntity
  8
0
  6
Continuous
 62
     0
370
     0
100
AcDbPolyline
 90
        3
 70
   128
 43
0.0
 10
37.84138392354446
 20
86.90365053750958
 10
37.87901114369826
 20
86.89254678823437
 10
37.91651438619094
 20
86.88715182282414
  0
LINE
  5
493
330
1F
100
AcDbEntity
  8
0
  6
Continuous
 62
     0
370
     0
100
AcDbLine
 10
37.97324966336686
 20
86.99594609477009
 30
0.0
 11
37.93219756032424
 21
87.01434902884449
 31
0.0
  0
LWPOLYLINE
  5
494
330
1F
100
AcDbEntity
  8
0
  6
Continuous
 62
     0
370
     0
100
AcDbPolyline
 90
        9
 70
   128
 43
0.0
 10
37.93219756032424
 20
87.01434902884449
 10
37.89457034017046
 20
87.02545471527066
 10
37.84339856053786
 20
87.03198678829159
 10
37.78646181966263
 20
87.03295148946728
 10
37.73242305661637
 20
87.02820546962704
 10
37.68951128865676
 20
87.01846741177525
 10
37.66428183461626
 20
87.00522117354359
 10
37.66054700757462
 20
86.99048332907643
 10
37.67889570142226
 20
86.97649709917988
  0
LINE
  5
495
330
1F
100
AcDbEntity
  8
0
  6
Continuous
 62
     0
370
     0
100
AcDbLine
 10
37.67889570142226
 20
86.97649709917988
 30
0.0
 11
37.84138392354446
 21
86.90365053750958
 31
0.0
  0
LWPOLYLINE
  5
496
330
1F
100
AcDbEntity
  8
0
  6
Continuous
 62
     0
370
     0
100
AcDbPolyline
 90
       17
 70
   128
 43
0.0
 10
39.14908479596572
 20
87.16435037590946
 10
39.1674334898134
 20
87.15036414601292
 10
39.20506070996719
 20
87.13926039673768
 10
39.25623248959978
 20
87.13272832371678
 10
39.31316923047501
 20
87.13176168539013
 10
39.36720799352126
 20
87.1365096423813
 10
39.41011976148089
 20
87.14624770023312
 10
39.43534921552138
 20
87.15949393846475
 10
39.43908404256302
 20
87.17423178293194
 10
39.42073534871538
 20
87.18821607567753
 10
39.38312362576919
 20
87.19932176210366
 10
39.33193634892901
 20
87.20585383512463
 10
39.27499960805373
 20
87.20681853630029
 10
39.22096084500748
 20
87.20207251646005
 10
39.17806457425552
 20
87.19233445860829
 10
39.15281962300736
 20
87.1790882203766
 10
39.14908479596572
 20
87.16435037590946
  0
LINE
  5
497
330
1F
100
AcDbEntity
  8
0
  6
Continuous
 62
     0
370
     0
100
AcDbLine
 10
37.93669175054031
 20
86.31650976874317
 30
0.0
 11
38.78105710889297
 21
86.44268415905918
 31
0.0
  0
LINE
  5
498
330
1F
100
AcDbEntity
  8
0
  6
Continuous
 62
     0
370
     0
100
AcDbLine
 10
37.93669175054031
 20
86.31650976874317
 30
0.0
 11
37.91335295583207
 21
86.9763266298958
 31
0.0
  0
LINE
  5
499
330
1F
100
AcDbEntity
  8
0
  6
Continuous
 62
     0
370
     0
100
AcDbLine
 10
38.75773381139236
 20
87.10250102021183
 30
0.0
 11
37.91335295583207
 21
86.9763266298958
 31
0.0
  0
LINE
  5
49A
330
1F
100
AcDbEntity
  8
0
  6
Continuous
 62
     0
370
     0
100
AcDbLine
 10
37.97324966336686
 20
86.99541531540837
 30
0.0
 11
37.97324966336686
 21
87.08847411014523
 31
0.0
  0
LINE
  5
49B
330
1F
100
AcDbEntity
  8
0
  6
Continuous
 62
     0
370
     0
100
AcDbLine
 10
37.52291630650954
 20
87.14675135948147
 30
0.0
 11
37.52291630650954
 21
87.02118136026345
 31
0.0
  0
LINE
  5
49C
330
1F
100
AcDbEntity
  8
0
  6
Continuous
 62
     0
370
     0
100
AcDbLine
 10
37.52291630650954
 20
87.14675135948147
 30
0.0
 11
39.26796387578446
 21
87.40751124956097
 31
0.0
  0
LWPOLYLINE
  5
49D
330
1F
100
AcDbEntity
  8
0
  6
Continuous
 62
     0
370
     0
100
AcDbPolyline
 90
        8
 70
   128
 43
0.0
 10
37.94509123708208
 20
86.30161501504864
 10
37.94459532643752
 20
86.3015820834824
 10
37.94273566152053
 20
86.30213610865559
 10
37.94092248822646
 20
86.3036993894764
 10
37.93929528142409
 20
86.3061440739819
 10
37.93797801877456
 20
86.30927063562359
 10
37.93707918073135
 20
86.3128233704754
 10
37.93669175054031
 20
86.31650976874317
  0
LWPOLYLINE
  5
49E
330
1F
100
AcDbEntity
  8
0
  6
Continuous
 62
     0
370
     0
100
AcDbPolyline
 90
        8
 70
   128
 43
0.0
 10
37.91335295583207
 20
86.9763266298958
 10
37.91339944745501
 20
86.97887592055287
 10
37.91372488881545
 20
86.98123149611439
 10
37.91428278829056
 20
86.98329843618359
 10
37.91508864308793
 20
86.98498569466554
 10
37.91609596158463
 20
86.98622740842785
 10
37.91725825215775
 20
86.98696740009274
 10
37.91792463208634
 20
86.98714755513157
  0
LINE
  5
49F
330
1F
100
AcDbEntity
  8
0
  6
Continuous
 62
     0
370
     0
100
AcDbLine
 10
39.12638138677077
 20
87.02161140777554
 30
0.0
 11
39.12638138677077
 21
87.06368245222055
 31
0.0
  0
ARC
  5
4A0
330
1F
100
AcDbEntity
  8
0
  6
Continuous
 62
     0
370
     0
100
AcDbCircle
 10
39.10861475892366
 20
87.065313413871
 30
0.0
 40
0.0178413312553357
100
AcDbArc
 50
354.7549955301515
 51
50.87638930038887
  0
LINE
  5
4A1
330
1F
100
AcDbEntity
  8
0
  6
Continuous
 62
     0
370
     0
100
AcDbLine
 10
39.17513560201127
 20
87.05438606478657
 30
0.0
 11
39.17513560201127
 21
87.02889509536709
 31
0.0
  0
LINE
  5
4A2
330
1F
100
AcDbEntity
  8
0
  6
Continuous
 62
     0
370
     0
100
AcDbLine
 10
37.47533987904983
 20
86.97521857954945
 30
0.0
 11
37.47533987904983
 21
87.10079051591839
 31
0.0
  0
LINE
  5
4A3
330
1F
100
AcDbEntity
  8
0
  6
Continuous
 62
     0
370
     0
100
AcDbLine
 10
37.47533987904983
 20
87.10079051591839
 30
0.0
 11
37.52291630650954
 21
87.14675135948147
 31
0.0
  0
LINE
  5
4A4
330
1F
100
AcDbEntity
  8
0
  6
Continuous
 62
     0
370
     0
100
AcDbLine
 10
37.84138392354446
 20
87.02922053672754
 30
0.0
 11
37.84138392354446
 21
86.90365053750958
 31
0.0
  0
LINE
  5
4A5
330
1F
100
AcDbEntity
  8
0
  6
Continuous
 62
     0
370
     0
100
AcDbLine
 10
37.83394526387649
 20
87.03255437352146
 30
0.0
 11
37.84138392354446
 21
87.02922053672754
 31
0.0
  0
ARC
  5
4A6
330
1F
100
AcDbEntity
  8
0
  6
Continuous
 62
     0
370
     0
100
AcDbCircle
 10
37.95029102132817
 20
87.3427492499687
 30
0.0
 40
0.3319051219465024
100
AcDbArc
 50
250.8448565875703
 51
268.160377743326
  0
LWPOLYLINE
  5
4A7
330
1F
100
AcDbEntity
  8
0
  6
Continuous
 62
     0
370
     0
100
AcDbPolyline
 90
        6
 70
   128
 43
0.0
 10
31.98633741284802
 20
84.96450044252362
 10
31.95991467381909
 20
84.96862851120915
 10
31.92572783376175
 20
84.99708525874104
 10
31.89674805547196
 20
85.04747830368962
 10
31.8773610487123
 20
85.11213846542321
 10
31.87371920491653
 20
85.134287849445
  0
LWPOLYLINE
  5
4A8
330
1F
100
AcDbEntity
  8
0
  6
Continuous
 62
     0
370
     0
100
AcDbPolyline
 90
        6
 70
   128
 43
0.0
 10
88.27799152280289
 20
93.37611936070408
 10
88.25156878377396
 20
93.38024742938958
 10
88.21736644650895
 20
93.4087216112801
 10
88.18837117101148
 20
93.45914758779489
 10
88.16899966145948
 20
93.52384842969857
 10
88.16537331487137
 20
93.54590676762547
  0
LWPOLYLINE
  5
4A9
330
1F
100
AcDbEntity
  8
0
  6
Continuous
 62
     0
370
     0
100
AcDbPolyline
 90
        3
 70
   128
 43
0.0
 10
88.1342394247194
 20
93.54272209145512
 10
88.13676546956495
 20
93.54197047688447
 10
88.1390435590883
 20
93.54197047688447
  0
LINE
  5
4AA
330
1F
100
AcDbEntity
  8
0
  6
Continuous
 62
     0
370
     0
100
AcDbLine
 10
88.1342394247194
 20
93.54272209145512
 30
0.0
 11
88.12157820607618
 21
93.54839794375386
 31
0.0
  0
LINE
  5
4AB
330
1F
100
AcDbEntity
  8
0
  6
Continuous
 62
     0
370
     0
100
AcDbLine
 10
88.12157820607618
 20
93.54839794375386
 30
0.0
 11
88.12157820607618
 21
93.9376664910504
 31
0.0
  0
ARC
  5
4AC
330
1F
100
AcDbEntity
  8
0
  6
Continuous
 62
     0
370
     0
100
AcDbCircle
 10
88.09483791068607
 20
93.94008539726794
 30
0.0
 40
0.0268494786698131
100
AcDbArc
 50
354.8311366535135
 51
50.7369271450485
  0
LINE
  5
4AD
330
1F
100
AcDbEntity
  8
0
  6
Continuous
 62
     0
370
     0
100
AcDbLine
 10
88.11183046246964
 20
93.96087355949369
 30
0.0
 11
88.07931732083756
 21
93.97544287182775
 31
0.0
  0
ARC
  5
4AE
330
1F
100
AcDbEntity
  8
0
  6
Continuous
 62
     0
370
     0
100
AcDbCircle
 10
88.09064084466863
 20
93.98929352703249
 30
0.0
 40
0.017890300208594
100
AcDbArc
 50
174.8064694410404
 51
230.7324810194164
  0
LINE
  5
4AF
330
1F
100
AcDbEntity
  8
0
  6
Continuous
 62
     0
370
     0
100
AcDbLine
 10
88.07282399083573
 20
93.99091295935598
 30
0.0
 11
88.07282399083573
 21
94.29228134490934
 31
0.0
  0
LINE
  5
4B0
330
1F
100
AcDbEntity
  8
0
  6
Continuous
 62
     0
370
     0
100
AcDbLine
 10
88.10532163526017
 20
94.34049703218427
 30
0.0
 11
88.07282399083573
 21
94.29228134490934
 31
0.0
  0
LWPOLYLINE
  5
4B1
330
1F
100
AcDbEntity
  8
0
  6
Continuous
 62
     0
370
     0
100
AcDbPolyline
 90
        2
 70
   128
 43
0.0
 10
31.82992409612137
 20
85.13677902557336
 10
88.12157820607618
 20
93.54839794375386
  0
LWPOLYLINE
  5
4B2
330
1F
100
AcDbEntity
  8
0
  6
Continuous
 62
     0
370
     0
100
AcDbPolyline
 90
        2
 70
   128
 43
0.0
 10
31.84258531476456
 20
85.13110317327462
 10
88.1342394247194
 20
93.54272209145512
  0
LINE
  5
4B3
330
1F
100
AcDbEntity
  8
0
  6
Continuous
 62
     0
370
     0
100
AcDbLine
 10
31.84258531476456
 20
85.13110317327462
 30
0.0
 11
31.82992409612137
 21
85.13677902557336
 31
0.0
  0
LINE
  5
4B4
330
1F
100
AcDbEntity
  8
0
  6
Continuous
 62
     0
370
     0
100
AcDbLine
 10
31.82992409612137
 20
85.13677902557336
 30
0.0
 11
31.82992409612137
 21
85.52604757286991
 31
0.0
  0
LWPOLYLINE
  5
4B5
330
1F
100
AcDbEntity
  8
0
  6
Continuous
 62
     0
370
     0
100
AcDbPolyline
 90
        3
 70
   128
 43
0.0
 10
31.84738944913346
 20
85.13035155870404
 10
31.84511135961014
 20
85.13035155870404
 10
31.84258531476456
 20
85.13110317327462
  0
ARC
  5
4B6
330
1F
100
AcDbEntity
  8
0
  6
Continuous
 62
     0
370
     0
100
AcDbCircle
 10
31.7989318316272
 20
85.57766284474367
 30
0.0
 40
0.0178366952128011
100
AcDbArc
 50
174.7528710993922
 51
230.8836423876117
  0
LINE
  5
4B7
330
1F
100
AcDbEntity
  8
0
  6
Continuous
 62
     0
370
     0
100
AcDbLine
 10
88.07282399083573
 20
94.29228134490934
 30
0.0
 11
81.87499474431473
 21
93.36614497043573
 31
0.0
  0
LINE
  5
4B8
330
1F
100
AcDbEntity
  8
0
  6
Continuous
 62
     0
370
     0
100
AcDbLine
 10
80.9827740087648
 20
93.23282249309506
 30
0.0
 11
38.81188105489213
 21
86.93125687577214
 31
0.0
  0
LINE
  5
4B9
330
1F
100
AcDbEntity
  8
0
  6
Continuous
 62
     0
370
     0
100
AcDbLine
 10
37.9196603193422
 20
86.79793439843141
 30
0.0
 11
31.78116988088088
 21
85.88066242672886
 31
0.0
  0
LINE
  5
4BA
330
1F
100
AcDbEntity
  8
0
  6
Continuous
 62
     0
370
     0
100
AcDbLine
 10
31.78116988088088
 20
85.5792940411755
 30
0.0
 11
31.78116988088088
 21
85.88066242672886
 31
0.0
  0
LINE
  5
4BB
330
1F
100
AcDbEntity
  8
0
  6
Continuous
 62
     0
370
     0
100
AcDbLine
 10
31.82017635251479
 20
85.54925464131321
 30
0.0
 11
31.78767870809035
 21
85.56382395364724
 31
0.0
  0
ARC
  5
4BC
330
1F
100
AcDbEntity
  8
0
  6
Continuous
 62
     0
370
     0
100
AcDbCircle
 10
31.80322203975821
 20
85.52848254075558
 30
0.0
 40
0.0268128492075134
100
AcDbArc
 50
354.7895928420907
 51
50.77847095635077
  0
LINE
  5
4BD
330
1F
100
AcDbEntity
  8
0
  6
Continuous
 62
     0
370
     0
100
AcDbLine
 10
31.81366752530532
 20
85.9288781140038
 30
0.0
 11
37.91814159299331
 21
86.84106506444894
 31
0.0
  0
LINE
  5
4BE
330
1F
100
AcDbEntity
  8
0
  6
Continuous
 62
     0
370
     0
100
AcDbLine
 10
38.81036232854325
 20
86.97438754178967
 30
0.0
 11
80.98125528241593
 21
93.27595315911259
 31
0.0
  0
LWPOLYLINE
  5
4BF
330
1F
100
AcDbEntity
  8
0
  6
Continuous
 62
     0
370
     0
100
AcDbPolyline
 90
        2
 70
   128
 43
0.0
 10
81.87347601796586
 20
93.40927757360424
 10
88.10532163526017
 20
94.34049703218427
  0
LINE
  5
4C0
330
1F
100
AcDbEntity
  8
0
  6
Continuous
 62
     0
370
     0
100
AcDbLine
 10
31.78116988088088
 20
85.88066242672886
 30
0.0
 11
31.81366752530532
 21
85.9288781140038
 31
0.0
  0
LWPOLYLINE
  5
4C1
330
1F
100
AcDbEntity
  8
0
  6
Continuous
 62
     0
370
     0
100
AcDbPolyline
 90
        3
 70
   128
 43
0.0
 10
88.1390435590883
 20
93.54197047688447
 10
88.13676546956495
 20
93.54197047688447
 10
88.1342394247194
 20
93.54272209145512
  0
LWPOLYLINE
  5
4C2
330
1F
100
AcDbEntity
  8
0
  6
Continuous
 62
     0
370
     0
100
AcDbPolyline
 90
        6
 70
   128
 43
0.0
 10
88.27805351163346
 20
93.3761271093079
 10
88.25163077260453
 20
93.38025517799343
 10
88.21744393254716
 20
93.40871192552532
 10
88.18844865704969
 20
93.4591049704739
 10
88.16907714749769
 20
93.52376513220753
 10
88.16543530370191
 20
93.54591451622929
  0
LINE
  5
4C3
330
1F
100
AcDbEntity
  8
0
  6
Continuous
 62
     0
370
     0
100
AcDbLine
 10
81.92949842359025
 20
93.47616158463444
 30
0.0
 11
82.18298624898392
 21
93.51404257156338
 31
0.0
  0
LINE
  5
4C4
330
1F
100
AcDbEntity
  8
0
  6
Continuous
 62
     0
370
     0
100
AcDbLine
 10
81.93599175359208
 20
93.62477012016262
 30
0.0
 11
81.93231891538102
 21
93.62421996929135
 31
0.0
  0
LINE
  5
4C5
330
1F
100
AcDbEntity
  8
0
  6
Continuous
 62
     0
370
     0
100
AcDbLine
 10
81.87958191777665
 20
93.43030922152485
 30
0.0
 11
81.87590907956559
 21
93.42975907065357
 31
0.0
  0
LINE
  5
4C6
330
1F
100
AcDbEntity
  8
0
  6
Continuous
 62
     0
370
     0
100
AcDbLine
 10
82.1894950761934
 20
93.4985705468842
 30
0.0
 11
81.92949842359025
 21
93.45971904732667
 31
0.0
  0
LINE
  5
4C7
330
1F
100
AcDbEntity
  8
0
  6
Continuous
 62
     0
370
     0
100
AcDbLine
 10
80.74200939084488
 20
93.44923906065904
 30
0.0
 11
80.74200939084488
 21
93.4113851938435
 31
0.0
  0
LINE
  5
4C8
330
1F
100
AcDbEntity
  8
0
  6
Continuous
 62
     0
370
     0
100
AcDbLine
 10
38.86638473416764
 20
87.04127348997082
 30
0.0
 11
39.1198725595613
 21
87.07915447689976
 31
0.0
  0
LINE
  5
4C9
330
1F
100
AcDbEntity
  8
0
  6
Continuous
 62
     0
370
     0
100
AcDbLine
 10
38.87287806416946
 20
87.18988008834805
 30
0.0
 11
38.8692052259584
 21
87.18933187462773
 31
0.0
  0
LINE
  5
4CA
330
1F
100
AcDbEntity
  8
0
  6
Continuous
 62
     0
370
     0
100
AcDbLine
 10
38.81646822835403
 20
86.99541918971028
 30
0.0
 11
38.81279539014297
 21
86.99487097598995
 31
0.0
  0
LINE
  5
4CB
330
1F
100
AcDbEntity
  8
0
  6
Continuous
 62
     0
370
     0
100
AcDbLine
 10
39.12638138677077
 20
87.06368245222055
 30
0.0
 11
38.86638473416764
 21
87.02483095266308
 31
0.0
  0
LINE
  5
4CC
330
1F
100
AcDbEntity
  8
0
  6
Continuous
 62
     0
370
     0
100
AcDbLine
 10
37.67889570142226
 20
87.01434902884449
 30
0.0
 11
37.67889570142226
 21
86.97649709917988
 31
0.0
  0
LINE
  5
4CD
330
1F
100
AcDbEntity
  8
0
  6
Continuous
 62
     0
370
     0
100
AcDbLine
 10
88.12157820607618
 20
93.9376664910504
 30
0.0
 11
81.89407180692154
 21
93.00709597804035
 31
0.0
  0
LINE
  5
4CE
330
1F
100
AcDbEntity
  8
0
  6
Continuous
 62
     0
370
     0
100
AcDbLine
 10
80.9955127134462
 20
92.87282429673161
 30
0.0
 11
38.83095811749892
 21
86.57220594622578
 31
0.0
  0
LINE
  5
4CF
330
1F
100
AcDbEntity
  8
0
  6
Continuous
 62
     0
370
     0
100
AcDbLine
 10
37.93239902402358
 20
86.43793620206799
 30
0.0
 11
31.82992409612137
 21
85.52604757286991
 31
0.0
  0
LINE
  5
4D0
330
1F
100
AcDbEntity
  8
0
  6
Continuous
 62
     0
370
     0
100
AcDbLine
 10
31.78116988088088
 20
85.5792940411755
 30
0.0
 11
37.93026040936904
 21
86.49814866520848
 31
0.0
  0
LINE
  5
4D1
330
1F
100
AcDbEntity
  8
0
  6
Continuous
 62
     0
370
     0
100
AcDbLine
 10
38.81763051892715
 20
86.63074664809193
 30
0.0
 11
80.99337409879166
 21
92.93303675987207
 31
0.0
  0
LWPOLYLINE
  5
4D2
330
1F
100
AcDbEntity
  8
0
  6
Continuous
 62
     0
370
     0
100
AcDbPolyline
 90
        2
 70
   128
 43
0.0
 10
81.88074420834977
 20
93.06563474275552
 10
88.07282399083573
 20
93.99091295935598
  0
LINE
  5
4D3
330
1F
100
AcDbEntity
  8
0
  6
Continuous
 62
     0
370
     0
100
AcDbLine
 10
88.07931732083756
 20
93.97544287182775
 30
0.0
 11
81.88616823102433
 21
93.05000387169804
 31
0.0
  0
LINE
  5
4D4
330
1F
100
AcDbEntity
  8
0
  6
Continuous
 62
     0
370
     0
100
AcDbLine
 10
80.99396299268204
 20
92.91668139435734
 30
0.0
 11
38.82305454160171
 21
86.61511577703439
 31
0.0
  0
LINE
  5
4D5
330
1F
100
AcDbEntity
  8
0
  6
Continuous
 62
     0
370
     0
100
AcDbLine
 10
37.93084930325942
 20
86.48179329969372
 30
0.0
 11
31.78767870809035
 21
85.56382395364724
 31
0.0
  0
LINE
  5
4D6
330
1F
100
AcDbEntity
  8
0
  6
Continuous
 62
     0
370
     0
100
AcDbLine
 10
31.82017635251479
 20
85.54925464131321
 30
0.0
 11
37.93153118039568
 21
86.46246828176461
 31
0.0
  0
LINE
  5
4D7
330
1F
100
AcDbEntity
  8
0
  6
Continuous
 62
     0
370
     0
100
AcDbLine
 10
38.82373641873795
 20
86.59579269625627
 30
0.0
 11
80.99464486981826
 21
92.89735831357922
 31
0.0
  0
LWPOLYLINE
  5
4D8
330
1F
100
AcDbEntity
  8
0
  6
Continuous
 62
     0
370
     0
100
AcDbPolyline
 90
        2
 70
   128
 43
0.0
 10
81.88685010816056
 20
93.03068079091992
 10
88.11183046246964
 20
93.96087355949369
  0
MTEXT
  5
4E8
330
1F
100
AcDbEntity
  8
0
 62
     7
100
AcDbMText
 10
208.6083858071436
 20
79.33832541188409
 30
0.0
 40
3.031684027777777
 41
0.0
 46
3.083222656249999
 71
     1
 72
     1
  1
{HAC-D/W74T}
  7
Arial
 73
     1
 44
0.9673603504928806
  0
MTEXT
  5
517
330
1F
100
AcDbEntity
  8
0
 62
     7
100
AcDbMText
 10
173.6083858071436
 20
79.33832541188406
 30
0.0
 40
3.031684027777777
 41
0.0
 46
3.083222656249999
 71
     1
 72
     1
  1
{HAC-D/W/B36T}
  7
Arial
 73
     1
 44
0.9673603504928806
  0
MTEXT
  5
518
330
1F
100
AcDbEntity
  8
0
 62
     7
100
AcDbMText
 10
208.6083858071436
 20
72.33832541188409
 30
0.0
 40
3.031684027777777
 41
0.0
 46
3.083222656249999
 71
     1
 72
     1
  1
{HAC-D/H/B108T}
  7
Arial
 73
     1
 44
0.9673603504928806
  0
MTEXT
  5
519
330
1F
100
AcDbEntity
  8
0
 62
     7
100
AcDbMText
 10
173.6083858071436
 20
72.33832541188406
 30
0.0
 40
3.031684027777777
 41
0.0
 46
8.05420157191265
 71
     1
 72
     1
  1
{HAC-D/B52T\PHAC-H36T}
  7
Arial
 73
     1
 44
0.9673603504928806
  0
LINE
  5
52D
330
1F
100
AcDbEntity
  8
FORMAT
100
AcDbLine
 10
297.0000000000002
 20
-0.0000000000001887
 30
0.0
 11
297.0000000000001
 21
209.9999999999998
 31
0.0
  0
LINE
  5
52E
330
1F
100
AcDbEntity
  8
FORMAT
100
AcDbLine
 10
297.0000000000001
 20
209.9999999999998
 30
0.0
 11
0.0000000000000568
 21
210.0
 31
0.0
  0
LINE
  5
52F
330
1F
100
AcDbEntity
  8
FORMAT
100
AcDbLine
 10
0.0000000000000568
 20
210.0
 30
0.0
 11
0.0
 21
0.0
 31
0.0
  0
LINE
  5
530
330
1F
100
AcDbEntity
  8
FORMAT
100
AcDbLine
 10
0.0
 20
0.0
 30
0.0
 11
297.0
 21
0.0000000000000671
 31
0.0
  0
ENDSEC
  0
SECTION
  2
OBJECTS
  0
DICTIONARY
  5
C
330
0
100
AcDbDictionary
281
     1
  3
ACAD_DETAILVIEWSTYLE
350
1B4
  3
ACAD_GROUP
350
D
  3
ACAD_LAYOUT
350
1A
  3
ACAD_MATERIAL
350
198
  3
ACAD_MLEADERSTYLE
350
19E
  3
ACAD_MLINESTYLE
350
17
  3
ACAD_PLOTSETTINGS
350
19
  3
ACAD_PLOTSTYLENAME
350
E
  3
ACAD_SCALELIST
350
47
  3
ACAD_SECTIONVIEWSTYLE
350
1B5
  3
ACAD_TABLESTYLE
350
19C
  3
ACAD_VISUALSTYLE
350
17F
  3
ACDB_RECOMPOSE_DATA
350
534
  3
AcDbVariableDictionary
350
1AF
  3
APPDATA
350
1A0
  0
SUN
  5
1B6
330
29
100
AcDbSun
 90
        1
290
     0
 63
     7
421
 16777215
 40
1.0
291
     1
 91
  2455826
 92
 54000000
292
     0
 70
     2
 71
   256
280
     1
  0
DICTIONARY
  5
501
330
2
100
AcDbDictionary
280
     1
281
     1
  3
ACAD_LAYERSTATES
360
502
  0
DICTIONARY
  5
1B4
102
{ACAD_REACTORS
330
C
102
}
330
C
100
AcDbDictionary
281
     1
  0
DICTIONARY
  5
D
102
{ACAD_REACTORS
330
C
102
}
330
C
100
AcDbDictionary
281
     1
  0
DICTIONARY
  5
1A
102
{ACAD_REACTORS
330
C
102
}
330
C
100
AcDbDictionary
281
     1
  3
Layout1
350
1E
  3
Layout2
350
26
  3
Model
350
22
  0
DICTIONARY
  5
198
102
{ACAD_REACTORS
330
C
102
}
330
C
100
AcDbDictionary
281
     1
  3
ByBlock
350
19A
  3
ByLayer
350
199
  3
Global
350
19B
  0
DICTIONARY
  5
19E
102
{ACAD_REACTORS
330
C
102
}
330
C
100
AcDbDictionary
281
     1
  3
Standard
350
19F
  0
DICTIONARY
  5
17
102
{ACAD_REACTORS
330
C
102
}
330
C
100
AcDbDictionary
281
     1
  3
Standard
350
18
  0
DICTIONARY
  5
19
102
{ACAD_REACTORS
330
C
102
}
330
C
100
AcDbDictionary
281
     1
  0
ACDBDICTIONARYWDFLT
  5
E
102
{ACAD_REACTORS
330
C
102
}
330
C
100
AcDbDictionary
281
     1
  3
Normal
350
F
100
AcDbDictionaryWithDefault
340
F
  0
DICTIONARY
  5
47
102
{ACAD_REACTORS
330
C
102
}
330
C
100
AcDbDictionary
281
     1
  3
A0
350
48
  3
A1
350
49
  3
A2
350
4A
  3
A3
350
4B
  3
A4
350
4C
  3
A5
350
4D
  3
A6
350
4E
  3
A7
350
4F
  3
A8
350
50
  3
A9
350
51
  3
B0
350
52
  3
B1
350
53
  3
B2
350
54
  3
B3
350
55
  3
B4
350
56
  3
B5
350
57
  3
B6
350
58
  3
B7
350
59
  3
B8
350
5A
  3
B9
350
5B
  3
C0
350
5C
  3
C1
350
5D
  3
C2
350
5E
  3
C3
350
5F
  3
C4
350
60
  3
C5
350
61
  3
C6
350
62
  3
C7
350
63
  3
C8
350
64
  3
C9
350
65
  3
D0
350
66
  3
D1
350
67
  3
D2
350
68
  0
DICTIONARY
  5
1B5
102
{ACAD_REACTORS
330
C
102
}
330
C
100
AcDbDictionary
281
     1
  0
DICTIONARY
  5
19C
102
{ACAD_REACTORS
330
C
102
}
330
C
100
AcDbDictionary
281
     1
  3
Standard
350
19D
  0
DICTIONARY
  5
17F
102
{ACAD_REACTORS
330
C
102
}
330
C
100
AcDbDictionary
281
     1
  3
2dWireframe
350
184
  3
Basic
350
187
  3
Brighten
350
18B
  3
ColorChange
350
18F
  3
Conceptual
350
189
  3
Dim
350
18A
  3
EdgeColorOff
350
192
  3
Facepattern
350
18E
  3
Flat
350
180
  3
FlatWithEdges
350
181
  3
Gouraud
350
182
  3
GouraudWithEdges
350
183
  3
Hidden
350
186
  3
JitterOff
350
190
  3
Linepattern
350
18D
  3
OverhangOff
350
191
  3
Realistic
350
188
  3
Shaded
350
197
  3
Shaded with edges
350
196
  3
Shades of Gray
350
193
  3
Sketchy
350
194
  3
Thicken
350
18C
  3
Wireframe
350
185
  3
X-Ray
350
195
  0
XRECORD
  5
534
102
{ACAD_REACTORS
330
C
102
}
330
C
100
AcDbXrecord
280
     1
 90
        1
330
19D
  0
DICTIONARY
  5
1AF
102
{ACAD_REACTORS
330
C
102
}
330
C
100
AcDbDictionary
281
     1
  3
CANNOSCALE
350
1B0
  3
CMLEADERSTYLE
350
1B2
  3
CTABLESTYLE
350
1B1
  3
MSLTSCALE
350
1B3
  0
DICTIONARY
  5
1A0
102
{ACAD_REACTORS
330
C
102
}
330
C
100
AcDbDictionary
281
     1
  0
DICTIONARY
  5
502
102
{ACAD_REACTORS
330
501
102
}
330
501
100
AcDbDictionary
281
     1
  0
LAYOUT
  5
1E
102
{ACAD_REACTORS
330
1A
102
}
330
1A
100
AcDbPlotSettings
  1

  2
none_device
  4

  6

 40
0.0
 41
0.0
 42
0.0
 43
0.0
 44
0.0
 45
0.0
 46
0.0
 47
0.0
 48
0.0
 49
0.0
140
0.0
141
0.0
142
1.0
143
1.0
 70
   688
 72
     1
 73
     0
 74
     5
  7

 75
    16
 76
     0
 77
     2
 78
   300
147
1.0
148
0.0
149
0.0
100
AcDbLayout
  1
Layout1
 70
     1
 71
     1
 10
0.0
 20
0.0
 11
420.0
 21
297.0
 12
0.0
 22
0.0
 32
0.0
 14
1.000000000000000E+20
 24
1.000000000000000E+20
 34
1.000000000000000E+20
 15
-1.000000000000000E+20
 25
-1.000000000000000E+20
 35
-1.000000000000000E+20
146
0.0
 13
0.0
 23
0.0
 33
0.0
 16
1.0
 26
0.0
 36
0.0
 17
0.0
 27
1.0
 37
0.0
 76
     0
330
1B
  0
LAYOUT
  5
26
102
{ACAD_REACTORS
330
1A
102
}
330
1A
100
AcDbPlotSettings
  1

  2
none_device
  4

  6

 40
0.0
 41
0.0
 42
0.0
 43
0.0
 44
0.0
 45
0.0
 46
0.0
 47
0.0
 48
0.0
 49
0.0
140
0.0
141
0.0
142
1.0
143
1.0
 70
   688
 72
     1
 73
     0
 74
     5
  7

 75
    16
 76
     0
 77
     2
 78
   300
147
1.0
148
0.0
149
0.0
100
AcDbLayout
  1
Layout2
 70
     1
 71
     2
 10
0.0
 20
0.0
 11
0.0
 21
0.0
 12
0.0
 22
0.0
 32
0.0
 14
0.0
 24
0.0
 34
0.0
 15
0.0
 25
0.0
 35
0.0
146
0.0
 13
0.0
 23
0.0
 33
0.0
 16
1.0
 26
0.0
 36
0.0
 17
0.0
 27
1.0
 37
0.0
 76
     0
330
23
  0
LAYOUT
  5
22
102
{ACAD_REACTORS
330
1A
102
}
330
1A
100
AcDbPlotSettings
  1

  2
none_device
  4
Letter_(8.50_x_11.00_Inches)
  6

 40
6.35
 41
6.35
 42
6.35000508
 43
6.35000508
 44
215.9
 45
279.4
 46
0.0
 47
0.0
 48
0.0
 49
0.0
140
0.0
141
0.0
142
1.0
143
1.0
 70
  1712
 72
     1
 73
     0
 74
     0
  7

 75
     0
 76
     0
 77
     2
 78
   300
147
1.0
148
0.0
149
0.0
100
AcDbLayout
  1
Model
 70
     1
 71
     0
 10
0.0
 20
0.0
 11
210.0
 21
297.0
 12
0.0
 22
0.0
 32
0.0
 14
0.0
 24
-0.000000000000199
 34
0.0
 15
297.0000000000002
 25
210.0
 35
0.0
146
0.0
 13
0.0
 23
0.0
 33
0.0
 16
1.0
 26
0.0
 36
0.0
 17
0.0
 27
1.0
 37
0.0
 76
     0
330
1F
331
29
  0
MATERIAL
  5
19A
102
{ACAD_REACTORS
330
198
102
}
330
198
100
AcDbMaterial
  1
ByBlock
 72
     1
 94
      127
  0
MATERIAL
  5
199
102
{ACAD_REACTORS
330
198
102
}
330
198
100
AcDbMaterial
  1
ByLayer
 72
     1
 94
      127
  0
MATERIAL
  5
19B
102
{ACAD_REACTORS
330
198
102
}
330
198
100
AcDbMaterial
  1
Global
 72
     1
 94
      127
  0
MLEADERSTYLE
  5
19F
102
{ACAD_REACTORS
330
19E
102
}
330
19E
100
AcDbMLeaderStyle
179
     2
170
     2
171
     1
172
     0
 90
        2
 40
0.0
 41
0.0
173
     1
 91
-1056964608
340
14
 92
       -2
290
     1
 42
2.0
291
     1
 43
8.0
  3
Standard
341
0
 44
4.0
300

342
11
174
     1
178
     1
175
     1
176
     0
 93
-1056964608
 45
4.0
292
     0
297
     0
 46
4.0
343
0
 94
-1056964608
 47
1.0
 49
1.0
140
1.0
293
     1
141
0.0
294
     1
177
     0
142
1.0
295
     0
296
     0
143
3.75
271
     0
272
     9
273
     9
298
     0
  0
MLINESTYLE
  5
18
102
{ACAD_REACTORS
330
17
102
}
330
17
100
AcDbMlineStyle
  2
Standard
 70
     0
  3

 62
   256
 51
90.0
 52
90.0
 71
     2
 49
0.5
 62
   256
  6
BYLAYER
 49
-0.5
 62
   256
  6
BYLAYER
  0
ACDBPLACEHOLDER
  5
F
102
{ACAD_REACTORS
330
E
102
}
330
E
  0
SCALE
  5
48
102
{ACAD_REACTORS
330
47
102
}
330
47
100
AcDbScale
 70
     0
300
1:1
140
1.0
141
1.0
290
     1
  0
SCALE
  5
49
102
{ACAD_REACTORS
330
47
102
}
330
47
100
AcDbScale
 70
     0
300
1:2
140
1.0
141
2.0
290
     0
  0
SCALE
  5
4A
102
{ACAD_REACTORS
330
47
102
}
330
47
100
AcDbScale
 70
     0
300
1:4
140
1.0
141
4.0
290
     0
  0
SCALE
  5
4B
102
{ACAD_REACTORS
330
47
102
}
330
47
100
AcDbScale
 70
     0
300
1:5
140
1.0
141
5.0
290
     0
  0
SCALE
  5
4C
102
{ACAD_REACTORS
330
47
102
}
330
47
100
AcDbScale
 70
     0
300
1:8
140
1.0
141
8.0
290
     0
  0
SCALE
  5
4D
102
{ACAD_REACTORS
330
47
102
}
330
47
100
AcDbScale
 70
     0
300
1:10
140
1.0
141
10.0
290
     0
  0
SCALE
  5
4E
102
{ACAD_REACTORS
330
47
102
}
330
47
100
AcDbScale
 70
     0
300
1:16
140
1.0
141
16.0
290
     0
  0
SCALE
  5
4F
102
{ACAD_REACTORS
330
47
102
}
330
47
100
AcDbScale
 70
     0
300
1:20
140
1.0
141
20.0
290
     0
  0
SCALE
  5
50
102
{ACAD_REACTORS
330
47
102
}
330
47
100
AcDbScale
 70
     0
300
1:30
140
1.0
141
30.0
290
     0
  0
SCALE
  5
51
102
{ACAD_REACTORS
330
47
102
}
330
47
100
AcDbScale
 70
     0
300
1:40
140
1.0
141
40.0
290
     0
  0
SCALE
  5
52
102
{ACAD_REACTORS
330
47
102
}
330
47
100
AcDbScale
 70
     0
300
1:50
140
1.0
141
50.0
290
     0
  0
SCALE
  5
53
102
{ACAD_REACTORS
330
47
102
}
330
47
100
AcDbScale
 70
     0
300
1:100
140
1.0
141
100.0
290
     0
  0
SCALE
  5
54
102
{ACAD_REACTORS
330
47
102
}
330
47
100
AcDbScale
 70
     0
300
2:1
140
2.0
141
1.0
290
     0
  0
SCALE
  5
55
102
{ACAD_REACTORS
330
47
102
}
330
47
100
AcDbScale
 70
     0
300
4:1
140
4.0
141
1.0
290
     0
  0
SCALE
  5
56
102
{ACAD_REACTORS
330
47
102
}
330
47
100
AcDbScale
 70
     0
300
8:1
140
8.0
141
1.0
290
     0
  0
SCALE
  5
57
102
{ACAD_REACTORS
330
47
102
}
330
47
100
AcDbScale
 70
     0
300
10:1
140
10.0
141
1.0
290
     0
  0
SCALE
  5
58
102
{ACAD_REACTORS
330
47
102
}
330
47
100
AcDbScale
 70
     0
300
100:1
140
100.0
141
1.0
290
     0
  0
SCALE
  5
59
102
{ACAD_REACTORS
330
47
102
}
330
47
100
AcDbScale
 70
     0
300
1/128" = 1'-0"
140
0.0078125
141
12.0
290
     0
  0
SCALE
  5
5A
102
{ACAD_REACTORS
330
47
102
}
330
47
100
AcDbScale
 70
     0
300
1/64" = 1'-0"
140
0.015625
141
12.0
290
     0
  0
SCALE
  5
5B
102
{ACAD_REACTORS
330
47
102
}
330
47
100
AcDbScale
 70
     0
300
1/32" = 1'-0"
140
0.03125
141
12.0
290
     0
  0
SCALE
  5
5C
102
{ACAD_REACTORS
330
47
102
}
330
47
100
AcDbScale
 70
     0
300
1/16" = 1'-0"
140
0.0625
141
12.0
290
     0
  0
SCALE
  5
5D
102
{ACAD_REACTORS
330
47
102
}
330
47
100
AcDbScale
 70
     0
300
3/32" = 1'-0"
140
0.09375
141
12.0
290
     0
  0
SCALE
  5
5E
102
{ACAD_REACTORS
330
47
102
}
330
47
100
AcDbScale
 70
     0
300
1/8" = 1'-0"
140
0.125
141
12.0
290
     0
  0
SCALE
  5
5F
102
{ACAD_REACTORS
330
47
102
}
330
47
100
AcDbScale
 70
     0
300
3/16" = 1'-0"
140
0.1875
141
12.0
290
     0
  0
SCALE
  5
60
102
{ACAD_REACTORS
330
47
102
}
330
47
100
AcDbScale
 70
     0
300
1/4" = 1'-0"
140
0.25
141
12.0
290
     0
  0
SCALE
  5
61
102
{ACAD_REACTORS
330
47
102
}
330
47
100
AcDbScale
 70
     0
300
3/8" = 1'-0"
140
0.375
141
12.0
290
     0
  0
SCALE
  5
62
102
{ACAD_REACTORS
330
47
102
}
330
47
100
AcDbScale
 70
     0
300
1/2" = 1'-0"
140
0.5
141
12.0
290
     0
  0
SCALE
  5
63
102
{ACAD_REACTORS
330
47
102
}
330
47
100
AcDbScale
 70
     0
300
3/4" = 1'-0"
140
0.75
141
12.0
290
     0
  0
SCALE
  5
64
102
{ACAD_REACTORS
330
47
102
}
330
47
100
AcDbScale
 70
     0
300
1" = 1'-0"
140
1.0
141
12.0
290
     0
  0
SCALE
  5
65
102
{ACAD_REACTORS
330
47
102
}
330
47
100
AcDbScale
 70
     0
300
1-1/2" = 1'-0"
140
1.5
141
12.0
290
     0
  0
SCALE
  5
66
102
{ACAD_REACTORS
330
47
102
}
330
47
100
AcDbScale
 70
     0
300
3" = 1'-0"
140
3.0
141
12.0
290
     0
  0
SCALE
  5
67
102
{ACAD_REACTORS
330
47
102
}
330
47
100
AcDbScale
 70
     0
300
6" = 1'-0"
140
6.0
141
12.0
290
     0
  0
SCALE
  5
68
102
{ACAD_REACTORS
330
47
102
}
330
47
100
AcDbScale
 70
     0
300
1'-0" = 1'-0"
140
12.0
141
12.0
290
     0
  0
TABLESTYLE
  5
19D
102
{ACAD_REACTORS
330
19C
102
}
102
{ACAD_XDICTIONARY
360
532
102
}
330
19C
100
AcDbTableStyle
  3
Standard
 70
     0
 71
     0
 40
1.5
 41
1.5
280
     0
281
     0
  7
Standard
140
4.5
170
     2
 62
     0
 63
   257
283
     0
 90
        4
 91
        0
  1

274
    -2
284
     1
 64
     0
275
    -2
285
     1
 65
     0
276
    -2
286
     1
 66
     0
277
    -2
287
     1
 67
     0
278
    -2
288
     1
 68
     0
279
    -2
289
     1
 69
     0
  7
Standard
140
6.0
170
     5
 62
     0
 63
   257
283
     0
 90
        4
 91
        0
  1

274
    -2
284
     1
 64
     0
275
    -2
285
     1
 65
     0
276
    -2
286
     1
 66
     0
277
    -2
287
     1
 67
     0
278
    -2
288
     1
 68
     0
279
    -2
289
     1
 69
     0
  7
Standard
140
4.5
170
     5
 62
     0
 63
   257
283
     0
 90
        4
 91
        0
  1

274
    -2
284
     1
 64
     0
275
    -2
285
     1
 65
     0
276
    -2
286
     1
 66
     0
277
    -2
287
     1
 67
     0
278
    -2
288
     1
 68
     0
279
    -2
289
     1
 69
     0
  0
VISUALSTYLE
  5
184
102
{ACAD_REACTORS
330
17F
102
}
330
17F
100
AcDbVisualStyle
  2
2dWireframe
 70
     4
177
     3
291
     0
 70
    58
 90
        0
176
     1
 90
        2
176
     1
 90
        0
176
     1
 90
        0
176
     1
 40
0.6
176
     1
 40
30.0
176
     1
 62
     7
420
 16777215
176
     1
 90
        1
176
     1
 90
        4
176
     1
 62
     7
176
     1
 62
   257
176
     1
 90
        1
176
     1
 90
        1
176
     1
 40
1.0
176
     1
 90
        0
176
     1
 62
   257
176
     1
 40
1.0
176
     1
 90
        1
176
     1
 90
        6
176
     1
 90
        2
176
     1
 62
     7
176
     1
 90
        5
176
     1
 90
        0
176
     1
 90
        0
176
     1
290
     0
176
     1
 90
        1
176
     1
 40
0.0
176
     1
 90
        0
176
     1
290
     1
176
     1
290
     1
176
     1
290
     0
176
     1
290
     0
176
     1
290
     0
176
     1
290
     0
176
     1
290
     0
176
     1
290
     0
176
     1
290
     0
176
     1
 90
       50
176
     1
 40
0.0
176
     1
 40
1.0
176
     1
 90
        0
176
     1
 62
    18
420
        0
176
     1
 90
       50
176
     1
 90
        3
176
     1
 62
     5
420
      255
176
     1
290
     0
176
     1
 90
       50
176
     1
 90
       50
176
     1
 90
       50
176
     1
290
     0
176
     1
 90
       50
176
     1
 62
   256
176
     0
 40
1.0
176
     0
 90
        2
176
     1
  1
strokes_ogs.tif
176
     1
290
     0
176
     1
 40
1.0
176
     1
 40
1.0
176
     1
  0
VISUALSTYLE
  5
187
102
{ACAD_REACTORS
330
17F
102
}
330
17F
100
AcDbVisualStyle
  2
Basic
 70
     7
177
     3
291
     1
 70
    58
 90
        1
176
     1
 90
        0
176
     1
 90
        1
176
     1
 90
        0
176
     1
 40
0.6
176
     1
 40
30.0
176
     1
 62
     7
420
 16777215
176
     1
 90
        0
176
     1
 90
        4
176
     1
 62
     7
176
     1
 62
   257
176
     1
 90
        1
176
     1
 90
        1
176
     1
 40
1.0
176
     1
 90
        8
176
     1
 62
     7
176
     1
 40
1.0
176
     1
 90
        1
176
     1
 90
        6
176
     1
 90
        2
176
     1
 62
     7
176
     1
 90
        5
176
     1
 90
        0
176
     1
 90
        0
176
     1
290
     0
176
     1
 90
        1
176
     1
 40
0.0
176
     1
 90
        0
176
     1
290
     0
176
     1
290
     1
176
     1
290
     1
176
     1
290
     0
176
     1
290
     0
176
     1
290
     0
176
     1
290
     0
176
     1
290
     0
176
     1
290
     0
176
     1
 90
       50
176
     1
 40
0.0
176
     1
 40
1.0
176
     1
 90
        0
176
     1
 62
    18
420
        0
176
     1
 90
       50
176
     1
 90
        3
176
     1
 62
     5
420
      255
176
     1
290
     0
176
     1
 90
       50
176
     1
 90
       50
176
     1
 90
       50
176
     1
290
     0
176
     1
 90
       50
176
     1
 62
   256
176
     0
 40
1.0
176
     0
 90
        2
176
     1
  1
strokes_ogs.tif
176
     1
290
     0
176
     1
 40
1.0
176
     1
 40
1.0
176
     1
  0
VISUALSTYLE
  5
18B
102
{ACAD_REACTORS
330
17F
102
}
330
17F
100
AcDbVisualStyle
  2
Brighten
 70
    12
177
     3
291
     1
 70
    58
 90
        2
176
     1
 90
        2
176
     1
 90
        0
176
     1
 90
        0
176
     1
 40
0.6
176
     1
 40
30.0
176
     1
 62
     7
420
 16777215
176
     1
 90
        1
176
     1
 90
        4
176
     1
 62
     7
176
     1
 62
   257
176
     1
 90
        1
176
     1
 90
        1
176
     1
 40
1.0
176
     1
 90
        8
176
     1
 62
     7
176
     1
 40
1.0
176
     1
 90
        1
176
     1
 90
        6
176
     1
 90
        2
176
     1
 62
     7
176
     1
 90
        5
176
     1
 90
        0
176
     1
 90
        0
176
     1
290
     0
176
     1
 90
        1
176
     1
 40
50.0
176
     1
 90
        0
176
     1
290
     0
176
     1
290
     1
176
     1
290
     1
176
     1
290
     0
176
     1
290
     0
176
     1
290
     0
176
     1
290
     0
176
     1
290
     0
176
     1
290
     0
176
     1
 90
       50
176
     1
 40
0.0
176
     1
 40
1.0
176
     1
 90
        0
176
     1
 62
    18
420
        0
176
     1
 90
       50
176
     1
 90
        3
176
     1
 62
     5
420
      255
176
     1
290
     0
176
     1
 90
       50
176
     1
 90
       50
176
     1
 90
       50
176
     1
290
     0
176
     1
 90
       50
176
     1
 62
   256
176
     0
 40
1.0
176
     0
 90
        2
176
     1
  1
strokes_ogs.tif
176
     1
290
     0
176
     1
 40
1.0
176
     1
 40
1.0
176
     1
  0
VISUALSTYLE
  5
18F
102
{ACAD_REACTORS
330
17F
102
}
330
17F
100
AcDbVisualStyle
  2
ColorChange
 70
    16
177
     3
291
     1
 70
    58
 90
        2
176
     1
 90
        2
176
     1
 90
        3
176
     1
 90
        0
176
     1
 40
0.6
176
     1
 40
30.0
176
     1
 62
     8
420
  8421504
176
     1
 90
        1
176
     1
 90
        4
176
     1
 62
     7
176
     1
 62
   257
176
     1
 90
        1
176
     1
 90
        1
176
     1
 40
1.0
176
     1
 90
        8
176
     1
 62
     8
420
  8421504
176
     1
 40
1.0
176
     1
 90
        1
176
     1
 90
        6
176
     1
 90
        2
176
     1
 62
     7
176
     1
 90
        5
176
     1
 90
        0
176
     1
 90
        0
176
     1
290
     0
176
     1
 90
        1
176
     1
 40
0.0
176
     1
 90
        0
176
     1
290
     0
176
     1
290
     1
176
     1
290
     1
176
     1
290
     0
176
     1
290
     0
176
     1
290
     0
176
     1
290
     0
176
     1
290
     0
176
     1
290
     0
176
     1
 90
       50
176
     1
 40
0.0
176
     1
 40
1.0
176
     1
 90
        0
176
     1
 62
    18
420
        0
176
     1
 90
       50
176
     1
 90
        3
176
     1
 62
     5
420
      255
176
     1
290
     0
176
     1
 90
       50
176
     1
 90
       50
176
     1
 90
       50
176
     1
290
     0
176
     1
 90
       50
176
     1
 62
   256
176
     0
 40
1.0
176
     0
 90
        2
176
     1
  1
strokes_ogs.tif
176
     1
290
     0
176
     1
 40
1.0
176
     1
 40
1.0
176
     1
  0
VISUALSTYLE
  5
189
102
{ACAD_REACTORS
330
17F
102
}
330
17F
100
AcDbVisualStyle
  2
Conceptual
 70
     9
177
     3
291
     0
 70
    58
 90
        3
176
     1
 90
        2
176
     1
 90
        0
176
     1
 90
        0
176
     1
 40
0.6
176
     1
 40
30.0
176
     1
 62
     7
420
 16777215
176
     1
 90
        2
176
     1
 90
        2
176
     1
 62
     7
176
     1
 62
   257
176
     1
 90
        1
176
     1
 90
        1
176
     1
 40
179.0
176
     1
 90
        8
176
     1
 62
     7
176
     1
 40
1.0
176
     1
 90
        1
176
     1
 90
        6
176
     1
 90
        2
176
     1
 62
     7
176
     1
 90
        3
176
     1
 90
        0
176
     1
 90
        0
176
     1
290
     0
176
     1
 90
        1
176
     1
 40
0.0
176
     1
 90
        0
176
     1
290
     0
176
     1
290
     1
176
     1
290
     1
176
     1
290
     0
176
     1
290
     0
176
     1
290
     0
176
     1
290
     0
176
     1
290
     0
176
     1
290
     0
176
     1
 90
       50
176
     1
 40
0.0
176
     1
 40
1.0
176
     1
 90
        0
176
     1
 62
    18
420
        0
176
     1
 90
       50
176
     1
 90
        3
176
     1
 62
     5
420
      255
176
     1
290
     0
176
     1
 90
       50
176
     1
 90
       50
176
     1
 90
       50
176
     1
290
     0
176
     1
 90
       50
176
     1
 62
   256
176
     0
 40
1.0
176
     0
 90
        2
176
     1
  1
strokes_ogs.tif
176
     1
290
     0
176
     1
 40
1.0
176
     1
 40
1.0
176
     1
  0
VISUALSTYLE
  5
18A
102
{ACAD_REACTORS
330
17F
102
}
330
17F
100
AcDbVisualStyle
  2
Dim
 70
    11
177
     3
291
     1
 70
    58
 90
        2
176
     1
 90
        2
176
     1
 90
        0
176
     1
 90
        0
176
     1
 40
0.6
176
     1
 40
30.0
176
     1
 62
     7
420
 16777215
176
     1
 90
        1
176
     1
 90
        4
176
     1
 62
     7
176
     1
 62
   257
176
     1
 90
        1
176
     1
 90
        1
176
     1
 40
1.0
176
     1
 90
        8
176
     1
 62
     7
176
     1
 40
1.0
176
     1
 90
        1
176
     1
 90
        6
176
     1
 90
        2
176
     1
 62
     7
176
     1
 90
        5
176
     1
 90
        0
176
     1
 90
        0
176
     1
290
     0
176
     1
 90
        1
176
     1
 40
-50.0
176
     1
 90
        0
176
     1
290
     0
176
     1
290
     1
176
     1
290
     1
176
     1
290
     0
176
     1
290
     0
176
     1
290
     0
176
     1
290
     0
176
     1
290
     0
176
     1
290
     0
176
     1
 90
       50
176
     1
 40
0.0
176
     1
 40
1.0
176
     1
 90
        0
176
     1
 62
    18
420
        0
176
     1
 90
       50
176
     1
 90
        3
176
     1
 62
     5
420
      255
176
     1
290
     0
176
     1
 90
       50
176
     1
 90
       50
176
     1
 90
       50
176
     1
290
     0
176
     1
 90
       50
176
     1
 62
   256
176
     0
 40
1.0
176
     0
 90
        2
176
     1
  1
strokes_ogs.tif
176
     1
290
     0
176
     1
 40
1.0
176
     1
 40
1.0
176
     1
  0
VISUALSTYLE
  5
192
102
{ACAD_REACTORS
330
17F
102
}
330
17F
100
AcDbVisualStyle
  2
EdgeColorOff
 70
    22
177
     3
291
     1
 70
    58
 90
        2
176
     0
 90
        2
176
     0
 90
        0
176
     0
 90
        0
176
     0
 40
0.6
176
     0
 40
30.0
176
     0
 62
     7
420
 16777215
176
     0
 90
        1
176
     0
 90
        4
176
     0
 62
     7
176
     0
 62
   257
176
     0
 90
        1
176
     0
 90
        1
176
     0
 40
1.0
176
     0
 90
        8
176
     2
 62
     7
176
     0
 40
1.0
176
     0
 90
        1
176
     0
 90
        6
176
     0
 90
        2
176
     0
 62
     7
176
     0
 90
        5
176
     0
 90
        0
176
     0
 90
        0
176
     0
290
     0
176
     0
 90
        1
176
     0
 40
0.0
176
     0
 90
        0
176
     0
290
     0
176
     0
290
     1
176
     0
290
     1
176
     0
290
     0
176
     0
290
     0
176
     0
290
     0
176
     0
290
     0
176
     0
290
     0
176
     0
290
     0
176
     0
 90
       50
176
     0
 40
0.0
176
     0
 40
1.0
176
     0
 90
        0
176
     0
 62
    18
420
        0
176
     0
 90
       50
176
     0
 90
        3
176
     0
 62
     5
420
      255
176
     0
290
     0
176
     0
 90
       50
176
     0
 90
       50
176
     0
 90
       50
176
     0
290
     0
176
     0
 90
       50
176
     0
 62
   256
176
     0
 40
1.0
176
     0
 90
        2
176
     0
  1
strokes_ogs.tif
176
     0
290
     0
176
     0
 40
1.0
176
     0
 40
1.0
176
     0
  0
VISUALSTYLE
  5
18E
102
{ACAD_REACTORS
330
17F
102
}
330
17F
100
AcDbVisualStyle
  2
Facepattern
 70
    15
177
     3
291
     1
 70
    58
 90
        2
176
     1
 90
        2
176
     1
 90
        0
176
     1
 90
        0
176
     1
 40
0.6
176
     1
 40
30.0
176
     1
 62
     7
420
 16777215
176
     1
 90
        1
176
     1
 90
        4
176
     1
 62
     7
176
     1
 62
   257
176
     1
 90
        1
176
     1
 90
        1
176
     1
 40
1.0
176
     1
 90
        8
176
     1
 62
     7
176
     1
 40
1.0
176
     1
 90
        1
176
     1
 90
        6
176
     1
 90
        2
176
     1
 62
     7
176
     1
 90
        5
176
     1
 90
        0
176
     1
 90
        0
176
     1
290
     0
176
     1
 90
        1
176
     1
 40
0.0
176
     1
 90
        0
176
     1
290
     0
176
     1
290
     1
176
     1
290
     1
176
     1
290
     0
176
     1
290
     0
176
     1
290
     0
176
     1
290
     0
176
     1
290
     0
176
     1
290
     0
176
     1
 90
       50
176
     1
 40
0.0
176
     1
 40
1.0
176
     1
 90
        0
176
     1
 62
    18
420
        0
176
     1
 90
       50
176
     1
 90
        3
176
     1
 62
     5
420
      255
176
     1
290
     0
176
     1
 90
       50
176
     1
 90
       50
176
     1
 90
       50
176
     1
290
     0
176
     1
 90
       50
176
     1
 62
   256
176
     0
 40
1.0
176
     0
 90
        2
176
     1
  1
strokes_ogs.tif
176
     1
290
     0
176
     1
 40
1.0
176
     1
 40
1.0
176
     1
  0
VISUALSTYLE
  5
180
102
{ACAD_REACTORS
330
17F
102
}
330
17F
100
AcDbVisualStyle
  2
Flat
 70
     0
177
     3
291
     1
 70
    58
 90
        2
176
     1
 90
        1
176
     1
 90
        1
176
     1
 90
        2
176
     1
 40
0.6
176
     1
 40
30.0
176
     1
 62
     7
420
 16777215
176
     1
 90
        0
176
     1
 90
        0
176
     1
 62
     7
176
     1
 62
   257
176
     1
 90
        1
176
     1
 90
        1
176
     1
 40
1.0
176
     1
 90
        8
176
     1
 62
     7
176
     1
 40
1.0
176
     1
 90
        1
176
     1
 90
        6
176
     1
 90
        2
176
     1
 62
     7
176
     1
 90
        5
176
     1
 90
        0
176
     1
 90
        0
176
     1
290
     0
176
     1
 90
       13
176
     1
 40
0.0
176
     1
 90
        0
176
     1
290
     0
176
     1
290
     1
176
     1
290
     1
176
     1
290
     0
176
     1
290
     0
176
     1
290
     0
176
     1
290
     0
176
     1
290
     0
176
     1
290
     0
176
     1
 90
       50
176
     1
 40
0.0
176
     1
 40
1.0
176
     1
 90
        0
176
     1
 62
    18
420
        0
176
     1
 90
       50
176
     1
 90
        3
176
     1
 62
     5
420
      255
176
     1
290
     0
176
     1
 90
       50
176
     1
 90
       50
176
     1
 90
       50
176
     1
290
     0
176
     1
 90
       50
176
     1
 62
   256
176
     0
 40
1.0
176
     0
 90
        2
176
     1
  1
strokes_ogs.tif
176
     1
290
     0
176
     1
 40
1.0
176
     1
 40
1.0
176
     1
  0
VISUALSTYLE
  5
181
102
{ACAD_REACTORS
330
17F
102
}
330
17F
100
AcDbVisualStyle
  2
FlatWithEdges
 70
     1
177
     3
291
     1
 70
    58
 90
        2
176
     1
 90
        1
176
     1
 90
        1
176
     1
 90
        2
176
     1
 40
0.6
176
     1
 40
30.0
176
     1
 62
     7
420
 16777215
176
     1
 90
        1
176
     1
 90
        0
176
     1
 62
     7
176
     1
 62
   257
176
     1
 90
        1
176
     1
 90
        1
176
     1
 40
1.0
176
     1
 90
        0
176
     1
 62
   257
176
     1
 40
1.0
176
     1
 90
        1
176
     1
 90
        6
176
     1
 90
        2
176
     1
 62
     7
176
     1
 90
        5
176
     1
 90
        0
176
     1
 90
        0
176
     1
290
     0
176
     1
 90
       13
176
     1
 40
0.0
176
     1
 90
        0
176
     1
290
     0
176
     1
290
     1
176
     1
290
     1
176
     1
290
     0
176
     1
290
     0
176
     1
290
     0
176
     1
290
     0
176
     1
290
     0
176
     1
290
     0
176
     1
 90
       50
176
     1
 40
0.0
176
     1
 40
1.0
176
     1
 90
        0
176
     1
 62
    18
420
        0
176
     1
 90
       50
176
     1
 90
        3
176
     1
 62
     5
420
      255
176
     1
290
     0
176
     1
 90
       50
176
     1
 90
       50
176
     1
 90
       50
176
     1
290
     0
176
     1
 90
       50
176
     1
 62
   256
176
     0
 40
1.0
176
     0
 90
        2
176
     1
  1
strokes_ogs.tif
176
     1
290
     0
176
     1
 40
1.0
176
     1
 40
1.0
176
     1
  0
VISUALSTYLE
  5
182
102
{ACAD_REACTORS
330
17F
102
}
330
17F
100
AcDbVisualStyle
  2
Gouraud
 70
     2
177
     3
291
     1
 70
    58
 90
        2
176
     1
 90
        2
176
     1
 90
        1
176
     1
 90
        2
176
     1
 40
0.6
176
     1
 40
30.0
176
     1
 62
     7
420
 16777215
176
     1
 90
        0
176
     1
 90
        0
176
     1
 62
     7
176
     1
 62
   257
176
     1
 90
        1
176
     1
 90
        1
176
     1
 40
1.0
176
     1
 90
        0
176
     1
 62
     7
176
     1
 40
1.0
176
     1
 90
        1
176
     1
 90
        6
176
     1
 90
        2
176
     1
 62
     7
176
     1
 90
        5
176
     1
 90
        0
176
     1
 90
        0
176
     1
290
     0
176
     1
 90
       13
176
     1
 40
0.0
176
     1
 90
        0
176
     1
290
     0
176
     1
290
     1
176
     1
290
     1
176
     1
290
     0
176
     1
290
     0
176
     1
290
     0
176
     1
290
     0
176
     1
290
     0
176
     1
290
     0
176
     1
 90
       50
176
     1
 40
0.0
176
     1
 40
1.0
176
     1
 90
        0
176
     1
 62
    18
420
        0
176
     1
 90
       50
176
     1
 90
        3
176
     1
 62
     5
420
      255
176
     1
290
     0
176
     1
 90
       50
176
     1
 90
       50
176
     1
 90
       50
176
     1
290
     0
176
     1
 90
       50
176
     1
 62
   256
176
     0
 40
1.0
176
     0
 90
        2
176
     1
  1
strokes_ogs.tif
176
     1
290
     0
176
     1
 40
1.0
176
     1
 40
1.0
176
     1
  0
VISUALSTYLE
  5
183
102
{ACAD_REACTORS
330
17F
102
}
330
17F
100
AcDbVisualStyle
  2
GouraudWithEdges
 70
     3
177
     3
291
     1
 70
    58
 90
        2
176
     1
 90
        2
176
     1
 90
        1
176
     1
 90
        2
176
     1
 40
0.6
176
     1
 40
30.0
176
     1
 62
     7
420
 16777215
176
     1
 90
        1
176
     1
 90
        0
176
     1
 62
     7
176
     1
 62
   257
176
     1
 90
        1
176
     1
 90
        1
176
     1
 40
1.0
176
     1
 90
        0
176
     1
 62
   257
176
     1
 40
1.0
176
     1
 90
        1
176
     1
 90
        6
176
     1
 90
        2
176
     1
 62
     7
176
     1
 90
        5
176
     1
 90
        0
176
     1
 90
        0
176
     1
290
     0
176
     1
 90
       13
176
     1
 40
0.0
176
     1
 90
        0
176
     1
290
     0
176
     1
290
     1
176
     1
290
     1
176
     1
290
     0
176
     1
290
     0
176
     1
290
     0
176
     1
290
     0
176
     1
290
     0
176
     1
290
     0
176
     1
 90
       50
176
     1
 40
0.0
176
     1
 40
1.0
176
     1
 90
        0
176
     1
 62
    18
420
        0
176
     1
 90
       50
176
     1
 90
        3
176
     1
 62
     5
420
      255
176
     1
290
     0
176
     1
 90
       50
176
     1
 90
       50
176
     1
 90
       50
176
     1
290
     0
176
     1
 90
       50
176
     1
 62
   256
176
     0
 40
1.0
176
     0
 90
        2
176
     1
  1
strokes_ogs.tif
176
     1
290
     0
176
     1
 40
1.0
176
     1
 40
1.0
176
     1
  0
VISUALSTYLE
  5
186
102
{ACAD_REACTORS
330
17F
102
}
330
17F
100
AcDbVisualStyle
  2
Hidden
 70
     6
177
     3
291
     0
 70
    58
 90
        1
176
     1
 90
        2
176
     1
 90
        2
176
     1
 90
        0
176
     1
 40
0.6
176
     1
 40
30.0
176
     1
 62
     7
420
 16777215
176
     1
 90
        2
176
     1
 90
        2
176
     1
 62
     7
176
     1
 62
   257
176
     1
 90
        2
176
     1
 90
        1
176
     1
 40
40.0
176
     1
 90
        0
176
     1
 62
   257
176
     1
 40
1.0
176
     1
 90
        1
176
     1
 90
        6
176
     1
 90
        2
176
     1
 62
     7
176
     1
 90
        3
176
     1
 90
        0
176
     1
 90
        0
176
     1
290
     0
176
     1
 90
        1
176
     1
 40
0.0
176
     1
 90
        0
176
     1
290
     0
176
     1
290
     1
176
     1
290
     1
176
     1
290
     0
176
     1
290
     0
176
     1
290
     0
176
     1
290
     0
176
     1
290
     0
176
     1
290
     0
176
     1
 90
       50
176
     1
 40
0.0
176
     1
 40
1.0
176
     1
 90
        0
176
     1
 62
    18
420
        0
176
     1
 90
       50
176
     1
 90
        3
176
     1
 62
     5
420
      255
176
     1
290
     0
176
     1
 90
       50
176
     1
 90
       50
176
     1
 90
       50
176
     1
290
     0
176
     1
 90
       50
176
     1
 62
   256
176
     0
 40
1.0
176
     0
 90
        2
176
     1
  1
strokes_ogs.tif
176
     1
290
     0
176
     1
 40
1.0
176
     1
 40
1.0
176
     1
  0
VISUALSTYLE
  5
190
102
{ACAD_REACTORS
330
17F
102
}
330
17F
100
AcDbVisualStyle
  2
JitterOff
 70
    20
177
     3
291
     1
 70
    58
 90
        2
176
     0
 90
        2
176
     0
 90
        0
176
     0
 90
        0
176
     0
 40
0.6
176
     0
 40
30.0
176
     0
 62
     7
420
 16777215
176
     0
 90
        1
176
     0
 90
        4
176
     0
 62
     7
176
     0
 62
   257
176
     0
 90
        1
176
     0
 90
        1
176
     0
 40
1.0
176
     0
 90
       10
176
     2
 62
     7
176
     0
 40
1.0
176
     0
 90
        1
176
     0
 90
        6
176
     0
 90
        2
176
     0
 62
     7
176
     0
 90
        5
176
     0
 90
        0
176
     0
 90
        0
176
     0
290
     0
176
     0
 90
        1
176
     0
 40
0.0
176
     0
 90
        0
176
     0
290
     0
176
     0
290
     1
176
     0
290
     1
176
     0
290
     0
176
     0
290
     0
176
     0
290
     0
176
     0
290
     0
176
     0
290
     0
176
     0
290
     0
176
     0
 90
       50
176
     0
 40
0.0
176
     0
 40
1.0
176
     0
 90
        0
176
     0
 62
    18
420
        0
176
     0
 90
       50
176
     0
 90
        3
176
     0
 62
     5
420
      255
176
     0
290
     0
176
     0
 90
       50
176
     0
 90
       50
176
     0
 90
       50
176
     0
290
     0
176
     0
 90
       50
176
     0
 62
   256
176
     0
 40
1.0
176
     0
 90
        2
176
     0
  1
strokes_ogs.tif
176
     0
290
     0
176
     0
 40
1.0
176
     0
 40
1.0
176
     0
  0
VISUALSTYLE
  5
18D
102
{ACAD_REACTORS
330
17F
102
}
330
17F
100
AcDbVisualStyle
  2
Linepattern
 70
    14
177
     3
291
     1
 70
    58
 90
        2
176
     1
 90
        2
176
     1
 90
        0
176
     1
 90
        0
176
     1
 40
0.6
176
     1
 40
30.0
176
     1
 62
     7
420
 16777215
176
     1
 90
        1
176
     1
 90
        4
176
     1
 62
     7
176
     1
 62
   257
176
     1
 90
        7
176
     1
 90
        7
176
     1
 40
1.0
176
     1
 90
        8
176
     1
 62
     7
176
     1
 40
1.0
176
     1
 90
        1
176
     1
 90
        6
176
     1
 90
        2
176
     1
 62
     7
176
     1
 90
        5
176
     1
 90
        0
176
     1
 90
        0
176
     1
290
     0
176
     1
 90
        1
176
     1
 40
0.0
176
     1
 90
        0
176
     1
290
     0
176
     1
290
     1
176
     1
290
     1
176
     1
290
     0
176
     1
290
     0
176
     1
290
     0
176
     1
290
     0
176
     1
290
     0
176
     1
290
     0
176
     1
 90
       50
176
     1
 40
0.0
176
     1
 40
1.0
176
     1
 90
        0
176
     1
 62
    18
420
        0
176
     1
 90
       50
176
     1
 90
        3
176
     1
 62
     5
420
      255
176
     1
290
     0
176
     1
 90
       50
176
     1
 90
       50
176
     1
 90
       50
176
     1
290
     0
176
     1
 90
       50
176
     1
 62
   256
176
     0
 40
1.0
176
     0
 90
        2
176
     1
  1
strokes_ogs.tif
176
     1
290
     0
176
     1
 40
1.0
176
     1
 40
1.0
176
     1
  0
VISUALSTYLE
  5
191
102
{ACAD_REACTORS
330
17F
102
}
330
17F
100
AcDbVisualStyle
  2
OverhangOff
 70
    21
177
     3
291
     1
 70
    58
 90
        2
176
     0
 90
        2
176
     0
 90
        0
176
     0
 90
        0
176
     0
 40
0.6
176
     0
 40
30.0
176
     0
 62
     7
420
 16777215
176
     0
 90
        1
176
     0
 90
        4
176
     0
 62
     7
176
     0
 62
   257
176
     0
 90
        1
176
     0
 90
        1
176
     0
 40
1.0
176
     0
 90
        9
176
     2
 62
     7
176
     0
 40
1.0
176
     0
 90
        1
176
     0
 90
        6
176
     0
 90
        2
176
     0
 62
     7
176
     0
 90
        5
176
     0
 90
        0
176
     0
 90
        0
176
     0
290
     0
176
     0
 90
        1
176
     0
 40
0.0
176
     0
 90
        0
176
     0
290
     0
176
     0
290
     1
176
     0
290
     1
176
     0
290
     0
176
     0
290
     0
176
     0
290
     0
176
     0
290
     0
176
     0
290
     0
176
     0
290
     0
176
     0
 90
       50
176
     0
 40
0.0
176
     0
 40
1.0
176
     0
 90
        0
176
     0
 62
    18
420
        0
176
     0
 90
       50
176
     0
 90
        3
176
     0
 62
     5
420
      255
176
     0
290
     0
176
     0
 90
       50
176
     0
 90
       50
176
     0
 90
       50
176
     0
290
     0
176
     0
 90
       50
176
     0
 62
   256
176
     0
 40
1.0
176
     0
 90
        2
176
     0
  1
strokes_ogs.tif
176
     0
290
     0
176
     0
 40
1.0
176
     0
 40
1.0
176
     0
  0
VISUALSTYLE
  5
188
102
{ACAD_REACTORS
330
17F
102
}
330
17F
100
AcDbVisualStyle
  2
Realistic
 70
     8
177
     3
291
     0
 70
    58
 90
        2
176
     1
 90
        3
176
     1
 90
        0
176
     1
 90
        2
176
     1
 40
0.6
176
     1
 40
30.0
176
     1
 62
     7
420
 16777215
176
     1
 90
        0
176
     1
 90
        0
176
     1
 62
     7
176
     1
 62
   257
176
     1
 90
        1
176
     1
 90
        1
176
     1
 40
1.0
176
     1
 90
        8
176
     1
 62
   257
176
     1
 40
1.0
176
     1
 90
        1
176
     1
 90
        6
176
     1
 90
        2
176
     1
 62
     7
176
     1
 90
        3
176
     1
 90
        0
176
     1
 90
        0
176
     1
290
     0
176
     1
 90
       13
176
     1
 40
0.0
176
     1
 90
        0
176
     1
290
     0
176
     1
290
     1
176
     1
290
     1
176
     1
290
     0
176
     1
290
     0
176
     1
290
     0
176
     1
290
     0
176
     1
290
     0
176
     1
290
     0
176
     1
 90
       50
176
     1
 40
0.0
176
     1
 40
1.0
176
     1
 90
        0
176
     1
 62
    18
420
        0
176
     1
 90
       50
176
     1
 90
        3
176
     1
 62
     5
420
      255
176
     1
290
     0
176
     1
 90
       50
176
     1
 90
       50
176
     1
 90
       50
176
     1
290
     0
176
     1
 90
       50
176
     1
 62
   256
176
     0
 40
1.0
176
     0
 90
        2
176
     1
  1
strokes_ogs.tif
176
     1
290
     0
176
     1
 40
1.0
176
     1
 40
1.0
176
     1
  0
VISUALSTYLE
  5
197
102
{ACAD_REACTORS
330
17F
102
}
330
17F
100
AcDbVisualStyle
  2
Shaded
 70
    27
177
     3
291
     0
 70
    58
 90
        2
176
     1
 90
        2
176
     1
 90
        1
176
     1
 90
        2
176
     1
 40
0.6
176
     1
 40
30.0
176
     1
 62
     7
420
 16777215
176
     1
 90
        0
176
     1
 90
        4
176
     1
 62
     7
176
     1
 62
   257
176
     1
 90
        1
176
     1
 90
        1
176
     1
 40
1.0
176
     1
 90
        8
176
     1
 62
   257
176
     1
 40
1.0
176
     1
 90
        1
176
     1
 90
        6
176
     1
 90
        2
176
     1
 62
     8
420
  7895160
176
     1
 90
        3
176
     1
 90
        0
176
     1
 90
        0
176
     1
290
     0
176
     1
 90
        5
176
     1
 40
0.0
176
     1
 90
        0
176
     1
290
     0
176
     1
290
     1
176
     1
290
     1
176
     1
290
     0
176
     1
290
     0
176
     1
290
     0
176
     1
290
     0
176
     1
290
     0
176
     1
290
     0
176
     1
 90
       50
176
     1
 40
0.0
176
     1
 40
1.0
176
     1
 90
        0
176
     1
 62
    18
420
        0
176
     1
 90
       50
176
     1
 90
        3
176
     1
 62
     5
420
      255
176
     1
290
     0
176
     1
 90
       50
176
     1
 90
       50
176
     1
 90
       50
176
     1
290
     0
176
     1
 90
       50
176
     1
 62
   256
176
     0
 40
1.0
176
     0
 90
        2
176
     1
  1
strokes_ogs.tif
176
     1
290
     0
176
     1
 40
1.0
176
     1
 40
1.0
176
     1
  0
VISUALSTYLE
  5
196
102
{ACAD_REACTORS
330
17F
102
}
330
17F
100
AcDbVisualStyle
  2
Shaded with edges
 70
    26
177
     3
291
     0
 70
    58
 90
        2
176
     1
 90
        2
176
     1
 90
        1
176
     1
 90
        2
176
     1
 40
0.6
176
     1
 40
30.0
176
     1
 62
     7
420
 16777215
176
     1
 90
        1
176
     1
 90
       10
176
     1
 62
     7
176
     1
 62
   257
176
     1
 90
        2
176
     1
 90
        1
176
     1
 40
1.0
176
     1
 90
        8
176
     1
 62
   257
176
     1
 40
1.0
176
     1
 90
        1
176
     1
 90
        6
176
     1
 90
        2
176
     1
 62
     7
176
     1
 90
        3
176
     1
 90
        0
176
     1
 90
        0
176
     1
290
     0
176
     1
 90
        5
176
     1
 40
0.0
176
     1
 90
        0
176
     1
290
     0
176
     1
290
     1
176
     1
290
     1
176
     1
290
     0
176
     1
290
     0
176
     1
290
     0
176
     1
290
     0
176
     1
290
     0
176
     1
290
     0
176
     1
 90
       50
176
     1
 40
0.0
176
     1
 40
1.0
176
     1
 90
        0
176
     1
 62
    18
420
        0
176
     1
 90
       50
176
     1
 90
        3
176
     1
 62
     5
420
      255
176
     1
290
     0
176
     1
 90
       50
176
     1
 90
       50
176
     1
 90
       50
176
     1
290
     0
176
     1
 90
       50
176
     1
 62
   256
176
     0
 40
1.0
176
     0
 90
        2
176
     1
  1
strokes_ogs.tif
176
     1
290
     0
176
     1
 40
1.0
176
     1
 40
1.0
176
     1
  0
VISUALSTYLE
  5
193
102
{ACAD_REACTORS
330
17F
102
}
330
17F
100
AcDbVisualStyle
  2
Shades of Gray
 70
    23
177
     3
291
     0
 70
    58
 90
        2
176
     1
 90
        2
176
     1
 90
        3
176
     1
 90
        0
176
     1
 40
0.6
176
     1
 40
30.0
176
     1
 62
     7
420
 16777215
176
     1
 90
        2
176
     1
 90
        2
176
     1
 62
     7
176
     1
 62
     7
176
     1
 90
        1
176
     1
 90
        1
176
     1
 40
40.0
176
     1
 90
        8
176
     1
 62
     7
176
     1
 40
1.0
176
     1
 90
        1
176
     1
 90
        6
176
     1
 90
        2
176
     1
 62
     7
176
     1
 90
        3
176
     1
 90
        0
176
     1
 90
        0
176
     1
290
     0
176
     1
 90
        1
176
     1
 40
0.0
176
     1
 90
        0
176
     1
290
     0
176
     1
290
     1
176
     1
290
     1
176
     1
290
     0
176
     1
290
     0
176
     1
290
     0
176
     1
290
     0
176
     1
290
     0
176
     1
290
     0
176
     1
 90
       50
176
     1
 40
0.0
176
     1
 40
1.0
176
     1
 90
        0
176
     1
 62
    18
420
        0
176
     1
 90
       50
176
     1
 90
        3
176
     1
 62
     5
420
      255
176
     1
290
     0
176
     1
 90
       50
176
     1
 90
       50
176
     1
 90
       50
176
     1
290
     0
176
     1
 90
       50
176
     1
 62
   256
176
     0
 40
1.0
176
     0
 90
        2
176
     1
  1
strokes_ogs.tif
176
     1
290
     0
176
     1
 40
1.0
176
     1
 40
1.0
176
     1
  0
VISUALSTYLE
  5
194
102
{ACAD_REACTORS
330
17F
102
}
330
17F
100
AcDbVisualStyle
  2
Sketchy
 70
    24
177
     3
291
     0
 70
    58
 90
        1
176
     1
 90
        2
176
     1
 90
        2
176
     1
 90
        0
176
     1
 40
0.6
176
     1
 40
30.0
176
     1
 62
     7
420
 16777215
176
     1
 90
        2
176
     1
 90
        2
176
     1
 62
     7
176
     1
 62
     7
176
     1
 90
        1
176
     1
 90
        1
176
     1
 40
40.0
176
     1
 90
       11
176
     1
 62
     7
176
     1
 40
1.0
176
     1
 90
        1
176
     1
 90
        6
176
     1
 90
        2
176
     1
 62
     7
176
     1
 90
        6
176
     1
 90
        0
176
     1
 90
        0
176
     1
290
     0
176
     1
 90
        1
176
     1
 40
0.0
176
     1
 90
        0
176
     1
290
     0
176
     1
290
     1
176
     1
290
     1
176
     1
290
     0
176
     1
290
     0
176
     1
290
     0
176
     1
290
     0
176
     1
290
     0
176
     1
290
     0
176
     1
 90
       50
176
     1
 40
0.0
176
     1
 40
1.0
176
     1
 90
        0
176
     1
 62
    18
420
        0
176
     1
 90
       50
176
     1
 90
        3
176
     1
 62
     5
420
      255
176
     1
290
     0
176
     1
 90
       50
176
     1
 90
       50
176
     1
 90
       50
176
     1
290
     0
176
     1
 90
       50
176
     1
 62
   256
176
     0
 40
1.0
176
     0
 90
        2
176
     1
  1
strokes_ogs.tif
176
     1
290
     0
176
     1
 40
1.0
176
     1
 40
1.0
176
     1
  0
VISUALSTYLE
  5
18C
102
{ACAD_REACTORS
330
17F
102
}
330
17F
100
AcDbVisualStyle
  2
Thicken
 70
    13
177
     3
291
     1
 70
    58
 90
        2
176
     1
 90
        2
176
     1
 90
        0
176
     1
 90
        0
176
     1
 40
0.6
176
     1
 40
30.0
176
     1
 62
     7
420
 16777215
176
     1
 90
        1
176
     1
 90
        4
176
     1
 62
     7
176
     1
 62
   257
176
     1
 90
        1
176
     1
 90
        1
176
     1
 40
1.0
176
     1
 90
       12
176
     1
 62
     7
176
     1
 40
1.0
176
     1
 90
        1
176
     1
 90
        6
176
     1
 90
        2
176
     1
 62
     7
176
     1
 90
        5
176
     1
 90
        0
176
     1
 90
        0
176
     1
290
     0
176
     1
 90
        1
176
     1
 40
0.0
176
     1
 90
        0
176
     1
290
     0
176
     1
290
     1
176
     1
290
     1
176
     1
290
     0
176
     1
290
     0
176
     1
290
     0
176
     1
290
     0
176
     1
290
     0
176
     1
290
     0
176
     1
 90
       50
176
     1
 40
0.0
176
     1
 40
1.0
176
     1
 90
        0
176
     1
 62
    18
420
        0
176
     1
 90
       50
176
     1
 90
        3
176
     1
 62
     5
420
      255
176
     1
290
     0
176
     1
 90
       50
176
     1
 90
       50
176
     1
 90
       50
176
     1
290
     0
176
     1
 90
       50
176
     1
 62
   256
176
     0
 40
1.0
176
     0
 90
        2
176
     1
  1
strokes_ogs.tif
176
     1
290
     0
176
     1
 40
1.0
176
     1
 40
1.0
176
     1
  0
VISUALSTYLE
  5
185
102
{ACAD_REACTORS
330
17F
102
}
330
17F
100
AcDbVisualStyle
  2
Wireframe
 70
     5
177
     3
291
     0
 70
    58
 90
        0
176
     1
 90
        2
176
     1
 90
        0
176
     1
 90
        0
176
     1
 40
0.6
176
     1
 40
30.0
176
     1
 62
     7
420
 16777215
176
     1
 90
        1
176
     1
 90
        4
176
     1
 62
     7
176
     1
 62
   257
176
     1
 90
        1
176
     1
 90
        1
176
     1
 40
1.0
176
     1
 90
        0
176
     1
 62
   257
176
     1
 40
1.0
176
     1
 90
        1
176
     1
 90
        6
176
     1
 90
        2
176
     1
 62
     7
176
     1
 90
        3
176
     1
 90
        0
176
     1
 90
        0
176
     1
290
     0
176
     1
 90
        1
176
     1
 40
0.0
176
     1
 90
        0
176
     1
290
     0
176
     1
290
     1
176
     1
290
     1
176
     1
290
     0
176
     1
290
     0
176
     1
290
     0
176
     1
290
     0
176
     1
290
     0
176
     1
290
     0
176
     1
 90
       50
176
     1
 40
0.0
176
     1
 40
1.0
176
     1
 90
        0
176
     1
 62
    18
420
        0
176
     1
 90
       50
176
     1
 90
        3
176
     1
 62
     5
420
      255
176
     1
290
     0
176
     1
 90
       50
176
     1
 90
       50
176
     1
 90
       50
176
     1
290
     0
176
     1
 90
       50
176
     1
 62
   256
176
     0
 40
1.0
176
     0
 90
        2
176
     1
  1
strokes_ogs.tif
176
     1
290
     0
176
     1
 40
1.0
176
     1
 40
1.0
176
     1
  0
VISUALSTYLE
  5
195
102
{ACAD_REACTORS
330
17F
102
}
330
17F
100
AcDbVisualStyle
  2
X-Ray
 70
    25
177
     3
291
     0
 70
    58
 90
        2
176
     1
 90
        2
176
     1
 90
        1
176
     1
 90
        1
176
     1
 40
0.5
176
     1
 40
30.0
176
     1
 62
     7
420
 16777215
176
     1
 90
        1
176
     1
 90
        0
176
     1
 62
     7
176
     1
 62
   257
176
     1
 90
        1
176
     1
 90
        1
176
     1
 40
1.0
176
     1
 90
        8
176
     1
 62
     7
176
     1
 40
1.0
176
     1
 90
        1
176
     1
 90
        6
176
     1
 90
        2
176
     1
 62
     7
176
     1
 90
        3
176
     1
 90
        0
176
     1
 90
        0
176
     1
290
     0
176
     1
 90
       13
176
     1
 40
0.0
176
     1
 90
        0
176
     1
290
     0
176
     1
290
     1
176
     1
290
     1
176
     1
290
     0
176
     1
290
     0
176
     1
290
     0
176
     1
290
     0
176
     1
290
     0
176
     1
290
     0
176
     1
 90
       50
176
     1
 40
0.0
176
     1
 40
1.0
176
     1
 90
        0
176
     1
 62
    18
420
        0
176
     1
 90
       50
176
     1
 90
        3
176
     1
 62
     5
420
      255
176
     1
290
     0
176
     1
 90
       50
176
     1
 90
       50
176
     1
 90
       50
176
     1
290
     0
176
     1
 90
       50
176
     1
 62
   256
176
     0
 40
1.0
176
     0
 90
        2
176
     1
  1
strokes_ogs.tif
176
     1
290
     0
176
     1
 40
1.0
176
     1
 40
1.0
176
     1
  0
DICTIONARYVAR
  5
1B0
102
{ACAD_REACTORS
330
1AF
102
}
330
1AF
100
DictionaryVariables
280
     0
  1
1:1
  0
DICTIONARYVAR
  5
1B2
102
{ACAD_REACTORS
330
1AF
102
}
330
1AF
100
DictionaryVariables
280
     0
  1
Standard
  0
DICTIONARYVAR
  5
1B1
102
{ACAD_REACTORS
330
1AF
102
}
330
1AF
100
DictionaryVariables
280
     0
  1
Standard
  0
DICTIONARYVAR
  5
1B3
102
{ACAD_REACTORS
330
1AF
102
}
330
1AF
100
DictionaryVariables
280
     0
  1
0
  0
DICTIONARY
  5
532
330
19D
100
AcDbDictionary
280
     1
281
     1
  3
ACAD_ROUNDTRIP_2008_TABLESTYLE_CELLSTYLEMAP
360
533
  0
CELLSTYLEMAP
  5
533
102
{ACAD_REACTORS
330
532
102
}
330
532
100
AcDbCellStyleMap
 90
        3
300
CELLSTYLE
  1
TABLEFORMAT_BEGIN
 90
        5
170
     1
 91
        0
 92
    32768
 62
   257
 93
        1
300
CONTENTFORMAT
  1
CONTENTFORMAT_BEGIN
 90
        0
 91
        0
 92
        4
 93
        0
300

 40
0.0
140
1.0
 94
        5
 62
     0
340
11
144
6.0
309
CONTENTFORMAT_END
171
     1
301
MARGIN
  1
CELLMARGIN_BEGIN
 40
1.5
 40
1.5
 40
1.5
 40
1.5
 40
1.5
 40
1.5
309
CELLMARGIN_END
 94
        6
 95
        1
302
GRIDFORMAT
  1
GRIDFORMAT_BEGIN
 90
        0
 91
        1
 62
     0
 92
       -2
340
14
 93
        0
 40
0.045
309
GRIDFORMAT_END
 95
        2
302
GRIDFORMAT
  1
GRIDFORMAT_BEGIN
 90
        0
 91
        1
 62
     0
 92
       -2
340
14
 93
        0
 40
0.045
309
GRIDFORMAT_END
 95
        4
302
GRIDFORMAT
  1
GRIDFORMAT_BEGIN
 90
        0
 91
        1
 62
     0
 92
       -2
340
14
 93
        0
 40
0.045
309
GRIDFORMAT_END
 95
        8
302
GRIDFORMAT
  1
GRIDFORMAT_BEGIN
 90
        0
 91
        1
 62
     0
 92
       -2
340
14
 93
        0
 40
0.045
309
GRIDFORMAT_END
 95
       16
302
GRIDFORMAT
  1
GRIDFORMAT_BEGIN
 90
        0
 91
        1
 62
     0
 92
       -2
340
14
 93
        0
 40
0.045
309
GRIDFORMAT_END
 95
       32
302
GRIDFORMAT
  1
GRIDFORMAT_BEGIN
 90
        0
 91
        1
 62
     0
 92
       -2
340
14
 93
        0
 40
0.045
309
GRIDFORMAT_END
309
TABLEFORMAT_END
  1
CELLSTYLE_BEGIN
 90
        1
 91
        1
300
_TITLE
309
CELLSTYLE_END
300
CELLSTYLE
  1
TABLEFORMAT_BEGIN
 90
        5
170
     1
 91
        0
 92
        0
 62
   257
 93
        1
300
CONTENTFORMAT
  1
CONTENTFORMAT_BEGIN
 90
        0
 91
        0
 92
        4
 93
        0
300

 40
0.0
140
1.0
 94
        5
 62
     0
340
11
144
4.5
309
CONTENTFORMAT_END
171
     1
301
MARGIN
  1
CELLMARGIN_BEGIN
 40
1.5
 40
1.5
 40
1.5
 40
1.5
 40
1.5
 40
1.5
309
CELLMARGIN_END
 94
        6
 95
        1
302
GRIDFORMAT
  1
GRIDFORMAT_BEGIN
 90
        0
 91
        1
 62
     0
 92
       -2
340
14
 93
        0
 40
0.045
309
GRIDFORMAT_END
 95
        2
302
GRIDFORMAT
  1
GRIDFORMAT_BEGIN
 90
        0
 91
        1
 62
     0
 92
       -2
340
14
 93
        0
 40
0.045
309
GRIDFORMAT_END
 95
        4
302
GRIDFORMAT
  1
GRIDFORMAT_BEGIN
 90
        0
 91
        1
 62
     0
 92
       -2
340
14
 93
        0
 40
0.045
309
GRIDFORMAT_END
 95
        8
302
GRIDFORMAT
  1
GRIDFORMAT_BEGIN
 90
        0
 91
        1
 62
     0
 92
       -2
340
14
 93
        0
 40
0.045
309
GRIDFORMAT_END
 95
       16
302
GRIDFORMAT
  1
GRIDFORMAT_BEGIN
 90
        0
 91
        1
 62
     0
 92
       -2
340
14
 93
        0
 40
0.045
309
GRIDFORMAT_END
 95
       32
302
GRIDFORMAT
  1
GRIDFORMAT_BEGIN
 90
        0
 91
        1
 62
     0
 92
       -2
340
14
 93
        0
 40
0.045
309
GRIDFORMAT_END
309
TABLEFORMAT_END
  1
CELLSTYLE_BEGIN
 90
        2
 91
        1
300
_HEADER
309
CELLSTYLE_END
300
CELLSTYLE
  1
TABLEFORMAT_BEGIN
 90
        5
170
     1
 91
        0
 92
        0
 62
   257
 93
        1
300
CONTENTFORMAT
  1
CONTENTFORMAT_BEGIN
 90
        0
 91
        0
 92
        4
 93
        0
300

 40
0.0
140
1.0
 94
        2
 62
     0
340
11
144
4.5
309
CONTENTFORMAT_END
171
     1
301
MARGIN
  1
CELLMARGIN_BEGIN
 40
1.5
 40
1.5
 40
1.5
 40
1.5
 40
1.5
 40
1.5
309
CELLMARGIN_END
 94
        6
 95
        1
302
GRIDFORMAT
  1
GRIDFORMAT_BEGIN
 90
        0
 91
        1
 62
     0
 92
       -2
340
14
 93
        0
 40
0.045
309
GRIDFORMAT_END
 95
        2
302
GRIDFORMAT
  1
GRIDFORMAT_BEGIN
 90
        0
 91
        1
 62
     0
 92
       -2
340
14
 93
        0
 40
0.045
309
GRIDFORMAT_END
 95
        4
302
GRIDFORMAT
  1
GRIDFORMAT_BEGIN
 90
        0
 91
        1
 62
     0
 92
       -2
340
14
 93
        0
 40
0.045
309
GRIDFORMAT_END
 95
        8
302
GRIDFORMAT
  1
GRIDFORMAT_BEGIN
 90
        0
 91
        1
 62
     0
 92
       -2
340
14
 93
        0
 40
0.045
309
GRIDFORMAT_END
 95
       16
302
GRIDFORMAT
  1
GRIDFORMAT_BEGIN
 90
        0
 91
        1
 62
     0
 92
       -2
340
14
 93
        0
 40
0.045
309
GRIDFORMAT_END
 95
       32
302
GRIDFORMAT
  1
GRIDFORMAT_BEGIN
 90
        0
 91
        1
 62
     0
 92
       -2
340
14
 93
        0
 40
0.045
309
GRIDFORMAT_END
309
TABLEFORMAT_END
  1
CELLSTYLE_BEGIN
 90
        3
 91
        2
300
_DATA
309
CELLSTYLE_END
  0
ENDSEC
  0
EOF
