  0
SECTION
  2
HEADER
  9
$ACADVER
  1
AC1032
  9
$ACADMAINTVER
 90
        4
  9
$DWGCODEPAGE
  3
ANSI_932
  9
$LASTSAVEDBY
  1
9128
  9
$REQUIREDVERSIONS
160
                 0
  9
$INSBASE
 10
0.0
 20
0.0
 30
0.0
  9
$EXTMIN
 10
0.0
 20
-0.000000000000199
 30
0.0
  9
$EXTMAX
 10
297.0000000000002
 20
210.0
 30
0.0
  9
$LIMMIN
 10
0.0
 20
0.0
  9
$LIMMAX
 10
210.0
 20
297.0
  9
$ORTHOMODE
 70
     0
  9
$REGENMODE
 70
     1
  9
$FILLMODE
 70
     1
  9
$QTEXTMODE
 70
     0
  9
$MIRRTEXT
 70
     1
  9
$LTSCALE
 40
1.0
  9
$ATTMODE
 70
     1
  9
$TEXTSIZE
 40
3.5
  9
$TRACEWID
 40
1.0
  9
$TEXTSTYLE
  7
Standard
  9
$CLAYER
  8
0
  9
$CELTYPE
  6
ByLayer
  9
$CECOLOR
 62
   256
  9
$CELTSCALE
 40
1.0
  9
$DISPSILH
 70
     0
  9
$DIMSCALE
 40
1.0
  9
$DIMASZ
 40
3.302
  9
$DIMEXO
 40
1.0
  9
$DIMDLI
 40
3.75
  9
$DIMRND
 40
0.0
  9
$DIMDLE
 40
0.0
  9
$DIMEXE
 40
1.0
  9
$DIMTP
 40
0.0
  9
$DIMTM
 40
0.0
  9
$DIMTXT
 40
3.5
  9
$DIMCEN
 40
2.5
  9
$DIMTSZ
 40
0.0
  9
$DIMTOL
 70
     0
  9
$DIMLIM
 70
     0
  9
$DIMTIH
 70
     1
  9
$DIMTOH
 70
     1
  9
$DIMSE1
 70
     0
  9
$DIMSE2
 70
     0
  9
$DIMTAD
 70
     1
  9
$DIMZIN
 70
     1
  9
$DIMBLK
  1

  9
$DIMASO
 70
     1
  9
$DIMSHO
 70
     1
  9
$DIMPOST
  1

  9
$DIMAPOST
  1

  9
$DIMALT
 70
     0
  9
$DIMALTD
 70
     3
  9
$DIMALTF
 40
0.0393700787401575
  9
$DIMLFAC
 40
100.0
  9
$DIMTOFL
 70
     1
  9
$DIMTVP
 40
0.0
  9
$DIMTIX
 70
     0
  9
$DIMSOXD
 70
     0
  9
$DIMSAH
 70
     0
  9
$DIMBLK1
  1

  9
$DIMBLK2
  1

  9
$DIMSTYLE
  2
ISO-25
  9
$DIMCLRD
 70
     0
  9
$DIMCLRE
 70
     0
  9
$DIMCLRT
 70
     0
  9
$DIMTFAC
 40
1.0
  9
$DIMGAP
 40
1.524
  9
$DIMJUST
 70
     0
  9
$DIMSD1
 70
     0
  9
$DIMSD2
 70
     0
  9
$DIMTOLJ
 70
     0
  9
$DIMTZIN
 70
     1
  9
$DIMALTZ
 70
     0
  9
$DIMALTTZ
 70
     0
  9
$DIMUPT
 70
     0
  9
$DIMDEC
 70
     2
  9
$DIMTDEC
 70
     2
  9
$DIMALTU
 70
     2
  9
$DIMALTTD
 70
     3
  9
$DIMTXSTY
  7
Standard
  9
$DIMAUNIT
 70
     0
  9
$DIMADEC
 70
     2
  9
$DIMALTRND
 40
0.0
  9
$DIMAZIN
 70
     0
  9
$DIMDSEP
 70
    44
  9
$DIMATFIT
 70
     3
  9
$DIMFRAC
 70
     0
  9
$DIMLDRBLK
  1

  9
$DIMLUNIT
 70
     2
  9
$DIMLWD
 70
    -2
  9
$DIMLWE
 70
    -2
  9
$DIMTMOVE
 70
     0
  9
$DIMFXL
 40
1.0
  9
$DIMFXLON
 70
     0
  9
$DIMJOGANG
 40
0.7853981633974483
  9
$DIMTFILL
 70
     0
  9
$DIMTFILLCLR
 70
     0
  9
$DIMARCSYM
 70
     0
  9
$DIMLTYPE
  6

  9
$DIMLTEX1
  6

  9
$DIMLTEX2
  6

  9
$DIMTXTDIRECTION
 70
     0
  9
$LUNITS
 70
     2
  9
$LUPREC
 70
     2
  9
$SKETCHINC
 40
1.0
  9
$FILLETRAD
 40
10.0
  9
$AUNITS
 70
     0
  9
$AUPREC
 70
     2
  9
$MENU
  1
.
  9
$ELEVATION
 40
0.0
  9
$PELEVATION
 40
0.0
  9
$THICKNESS
 40
0.0
  9
$LIMCHECK
 70
     0
  9
$CHAMFERA
 40
0.0
  9
$CHAMFERB
 40
0.0
  9
$CHAMFERC
 40
0.0
  9
$CHAMFERD
 40
0.0
  9
$SKPOLY
 70
     0
  9
$TDCREATE
 40
2459629.486316933
  9
$TDUCREATE
 40
2459629.111316933
  9
$TDUPDATE
 40
2459635.724071342
  9
$TDUUPDATE
 40
2459635.349071342
  9
$TDINDWG
 40
0.0035913542
  9
$TDUSRTIMER
 40
0.0000655787
  9
$USRTIMER
 70
     1
  9
$ANGBASE
 50
0.0
  9
$ANGDIR
 70
     0
  9
$PDMODE
 70
     0
  9
$PDSIZE
 40
-1.0
  9
$PLINEWID
 40
0.0
  9
$SPLFRAME
 70
     0
  9
$SPLINETYPE
 70
     6
  9
$SPLINESEGS
 70
     8
  9
$HANDSEED
  5
509
  9
$SURFTAB1
 70
     6
  9
$SURFTAB2
 70
     6
  9
$SURFTYPE
 70
     6
  9
$SURFU
 70
     6
  9
$SURFV
 70
     6
  9
$UCSBASE
  2

  9
$UCSNAME
  2

  9
$UCSORG
 10
0.0
 20
0.0
 30
0.0
  9
$UCSXDIR
 10
1.0
 20
0.0
 30
0.0
  9
$UCSYDIR
 10
0.0
 20
1.0
 30
0.0
  9
$UCSORTHOREF
  2

  9
$UCSORTHOVIEW
 70
     0
  9
$UCSORGTOP
 10
0.0
 20
0.0
 30
0.0
  9
$UCSORGBOTTOM
 10
0.0
 20
0.0
 30
0.0
  9
$UCSORGLEFT
 10
0.0
 20
0.0
 30
0.0
  9
$UCSORGRIGHT
 10
0.0
 20
0.0
 30
0.0
  9
$UCSORGFRONT
 10
0.0
 20
0.0
 30
0.0
  9
$UCSORGBACK
 10
0.0
 20
0.0
 30
0.0
  9
$PUCSBASE
  2

  9
$PUCSNAME
  2

  9
$PUCSORG
 10
0.0
 20
0.0
 30
0.0
  9
$PUCSXDIR
 10
1.0
 20
0.0
 30
0.0
  9
$PUCSYDIR
 10
0.0
 20
1.0
 30
0.0
  9
$PUCSORTHOREF
  2

  9
$PUCSORTHOVIEW
 70
     0
  9
$PUCSORGTOP
 10
0.0
 20
0.0
 30
0.0
  9
$PUCSORGBOTTOM
 10
0.0
 20
0.0
 30
0.0
  9
$PUCSORGLEFT
 10
0.0
 20
0.0
 30
0.0
  9
$PUCSORGRIGHT
 10
0.0
 20
0.0
 30
0.0
  9
$PUCSORGFRONT
 10
0.0
 20
0.0
 30
0.0
  9
$PUCSORGBACK
 10
0.0
 20
0.0
 30
0.0
  9
$USERI1
 70
     0
  9
$USERI2
 70
     0
  9
$USERI3
 70
     0
  9
$USERI4
 70
     0
  9
$USERI5
 70
     0
  9
$USERR1
 40
0.0
  9
$USERR2
 40
0.0
  9
$USERR3
 40
0.0
  9
$USERR4
 40
0.0
  9
$USERR5
 40
0.0
  9
$WORLDVIEW
 70
     1
  9
$SHADEDGE
 70
     3
  9
$SHADEDIF
 70
    70
  9
$TILEMODE
 70
     1
  9
$MAXACTVP
 70
    64
  9
$PINSBASE
 10
0.0
 20
0.0
 30
0.0
  9
$PLIMCHECK
 70
     0
  9
$PEXTMIN
 10
1.000000000000000E+20
 20
1.000000000000000E+20
 30
1.000000000000000E+20
  9
$PEXTMAX
 10
-1.000000000000000E+20
 20
-1.000000000000000E+20
 30
-1.000000000000000E+20
  9
$PLIMMIN
 10
0.0
 20
0.0
  9
$PLIMMAX
 10
0.0
 20
0.0
  9
$UNITMODE
 70
     0
  9
$VISRETAIN
 70
     1
  9
$PLINEGEN
 70
     0
  9
$PSLTSCALE
 70
     1
  9
$TREEDEPTH
 70
  3020
  9
$CMLSTYLE
  2
Standard
  9
$CMLJUST
 70
     0
  9
$CMLSCALE
 40
20.0
  9
$PROXYGRAPHICS
 70
     1
  9
$MEASUREMENT
 70
     1
  9
$CELWEIGHT
370
    -1
  9
$ENDCAPS
280
     0
  9
$JOINSTYLE
280
     0
  9
$LWDISPLAY
290
     1
  9
$INSUNITS
 70
     4
  9
$HYPERLINKBASE
  1

  9
$STYLESHEET
  1

  9
$XEDIT
290
     1
  9
$CEPSNTYPE
380
     0
  9
$PSTYLEMODE
290
     1
  9
$FINGERPRINTGUID
  2
{0d375390-5716-4af1-a86c-5130061aa51d}
  9
$VERSIONGUID
  2
{FAEB1C32-E019-11D5-929B-00C0DF256EC4}
  9
$EXTNAMES
290
     1
  9
$PSVPSCALE
 40
0.0
  9
$OLESTARTUP
290
     0
  9
$SORTENTS
280
   127
  9
$INDEXCTL
280
     0
  9
$HIDETEXT
280
     1
  9
$XCLIPFRAME
280
     2
  9
$HALOGAP
280
     0
  9
$OBSCOLOR
 70
   257
  9
$OBSLTYPE
280
     0
  9
$INTERSECTIONDISPLAY
280
     0
  9
$INTERSECTIONCOLOR
 70
   257
  9
$DIMASSOC
280
     2
  9
$PROJECTNAME
  1

  9
$CAMERADISPLAY
290
     0
  9
$LENSLENGTH
 40
50.0
  9
$CAMERAHEIGHT
 40
0.0
  9
$STEPSPERSEC
 40
2.0
  9
$STEPSIZE
 40
6.0
  9
$3DDWFPREC
 40
2.0
  9
$PSOLWIDTH
 40
0.25
  9
$PSOLHEIGHT
 40
4.0
  9
$LOFTANG1
 40
1.570796326794897
  9
$LOFTANG2
 40
1.570796326794897
  9
$LOFTMAG1
 40
0.0
  9
$LOFTMAG2
 40
0.0
  9
$LOFTPARAM
 70
     7
  9
$LOFTNORMALS
280
     1
  9
$LATITUDE
 40
37.795
  9
$LONGITUDE
 40
-122.394
  9
$NORTHDIRECTION
 40
0.0
  9
$TIMEZONE
 70
 -8000
  9
$LIGHTGLYPHDISPLAY
280
     1
  9
$TILEMODELIGHTSYNCH
280
     1
  9
$SOLIDHIST
280
     0
  9
$SHOWHIST
280
     1
  9
$DWFFRAME
280
     2
  9
$DGNFRAME
280
     2
  9
$REALWORLDSCALE
290
     1
  9
$INTERFERECOLOR
 62
   256
  9
$CSHADOW
280
     0
  9
$SHADOWPLANELOCATION
 40
0.0
  0
ENDSEC
  0
SECTION
  2
CLASSES
  0
CLASS
  1
ACDBDICTIONARYWDFLT
  2
AcDbDictionaryWithDefault
  3
ObjectDBX Classes
 90
        0
 91
        3
280
     0
281
     0
  0
CLASS
  1
VISUALSTYLE
  2
AcDbVisualStyle
  3
ObjectDBX Classes
 90
     4095
 91
        3
280
     0
281
     0
  0
CLASS
  1
MATERIAL
  2
AcDbMaterial
  3
ObjectDBX Classes
 90
     1153
 91
        3
280
     0
281
     0
  0
CLASS
  1
SCALE
  2
AcDbScale
  3
ObjectDBX Classes
 90
     1153
 91
        3
280
     0
281
     0
  0
CLASS
  1
TABLESTYLE
  2
AcDbTableStyle
  3
ObjectDBX Classes
 90
     4095
 91
        3
280
     0
281
     0
  0
CLASS
  1
MLEADERSTYLE
  2
AcDbMLeaderStyle
  3
ACDB_MLEADERSTYLE_CLASS
 90
     4095
 91
        3
280
     0
281
     0
  0
CLASS
  1
SUN
  2
AcDbSun
  3
SCENEOE
 90
     1153
 91
        3
280
     0
281
     0
  0
CLASS
  1
ACDBPLACEHOLDER
  2
AcDbPlaceHolder
  3
ObjectDBX Classes
 90
        0
 91
        1
280
     0
281
     0
  0
CLASS
  1
LAYOUT
  2
AcDbLayout
  3
ObjectDBX Classes
 90
        0
 91
        1
280
     0
281
     0
  0
CLASS
  1
DICTIONARYVAR
  2
AcDbDictionaryVar
  3
ObjectDBX Classes
 90
        0
 91
        3
280
     0
281
     0
  0
CLASS
  1
CELLSTYLEMAP
  2
AcDbCellStyleMap
  3
ObjectDBX Classes
 90
     1152
 91
        3
280
     0
281
     0
  0
ENDSEC
  0
SECTION
  2
TABLES
  0
TABLE
  2
VPORT
  5
8
330
0
100
AcDbSymbolTable
 70
     1
  0
VPORT
  5
29
330
8
100
AcDbSymbolTableRecord
100
AcDbViewportTableRecord
  2
*Active
 70
     0
 10
0.0
 20
0.0
 11
1.0
 21
1.0
 12
131.6984360091674
 22
91.33836963984521
 13
0.0
 23
0.0
 14
10.0
 24
10.0
 15
10.0
 25
10.0
 16
0.0
 26
0.0
 36
1.0
 17
0.0
 27
0.0
 37
0.0
 40
357.3683400563734
 41
2.260623229461757
 42
50.0
 43
0.0
 44
0.0
 50
0.0
 51
0.0
 71
    16
 72
  2000
 73
     1
 74
     3
 75
     0
 76
     0
 77
     0
 78
     0
281
     0
 65
     1
110
0.0
120
0.0
130
0.0
111
1.0
121
0.0
131
0.0
112
0.0
122
1.0
132
0.0
 79
     0
146
0.0
348
17B
 60
     3
 61
     5
292
     1
282
     1
141
0.0
142
0.0
 63
   256
361
4A8
  0
ENDTAB
  0
TABLE
  2
LTYPE
  5
5
330
0
100
AcDbSymbolTable
 70
     6
  0
LTYPE
  5
14
330
5
100
AcDbSymbolTableRecord
100
AcDbLinetypeTableRecord
  2
ByBlock
 70
     0
  3

 72
    65
 73
     0
 40
0.0
  0
LTYPE
  5
15
330
5
100
AcDbSymbolTableRecord
100
AcDbLinetypeTableRecord
  2
ByLayer
 70
     0
  3

 72
    65
 73
     0
 40
0.0
  0
LTYPE
  5
16
330
5
100
AcDbSymbolTableRecord
100
AcDbLinetypeTableRecord
  2
Continuous
 70
     0
  3
Solid line
 72
    65
 73
     0
 40
0.0
  0
LTYPE
  5
6E
330
5
100
AcDbSymbolTableRecord
100
AcDbLinetypeTableRecord
  2
HIDDEN
 70
     0
  3
Hidden __ __ __ __ __ __ __ __ __ __ __ __ __ __
 72
    65
 73
     2
 40
1.905
 49
1.27
 74
     0
 49
-0.635
 74
     0
  0
LTYPE
  5
6F
330
5
100
AcDbSymbolTableRecord
100
AcDbLinetypeTableRecord
  2
PHANTOM
 70
     0
  3
Phantom ______  __  __  ______  __  __  ______
 72
    65
 73
     6
 40
12.7
 49
6.35
 74
     0
 49
-1.27
 74
     0
 49
1.27
 74
     0
 49
-1.27
 74
     0
 49
1.27
 74
     0
 49
-1.27
 74
     0
  0
LTYPE
  5
70
330
5
100
AcDbSymbolTableRecord
100
AcDbLinetypeTableRecord
  2
CENTER
 70
     0
  3
Center ____ _ ____ _ ____ _ ____ _ ____ _ ____
 72
    65
 73
     4
 40
10.16
 49
6.35
 74
     0
 49
-1.27
 74
     0
 49
1.27
 74
     0
 49
-1.27
 74
     0
  0
LTYPE
  5
71
330
5
100
AcDbSymbolTableRecord
100
AcDbLinetypeTableRecord
  2
CENTERX2
 70
     0
  3
Center (2x) ________  __  ________  __  _____
 72
    65
 73
     4
 40
20.32
 49
12.7
 74
     0
 49
-2.54
 74
     0
 49
2.54
 74
     0
 49
-2.54
 74
     0
  0
LTYPE
  5
72
330
5
100
AcDbSymbolTableRecord
100
AcDbLinetypeTableRecord
  2
DOT2
 70
     0
  3
Dot (.5x) ........................................
 72
    65
 73
     2
 40
0.635
 49
0.0
 74
     0
 49
-0.635
 74
     0
  0
ENDTAB
  0
TABLE
  2
LAYER
  5
2
102
{ACAD_XDICTIONARY
360
4C1
102
}
330
0
100
AcDbSymbolTable
 70
     2
  0
LAYER
  5
10
330
2
100
AcDbSymbolTableRecord
100
AcDbLayerTableRecord
  2
0
 70
     0
 62
     7
  6
Continuous
370
    -3
390
F
347
192
348
0
  0
LAYER
  5
73
330
2
100
AcDbSymbolTableRecord
100
AcDbLayerTableRecord
  2
FORMAT
 70
     0
 62
    -7
  6
Continuous
370
    -3
390
F
347
192
348
0
  0
ENDTAB
  0
TABLE
  2
STYLE
  5
3
330
0
100
AcDbSymbolTable
 70
     2
  0
STYLE
  5
11
330
3
100
AcDbSymbolTableRecord
100
AcDbTextStyleTableRecord
  2
Standard
 70
     0
 40
0.0
 41
1.0
 50
0.0
 71
     0
 42
3.5
  3
txt
  4
bigfont
  0
STYLE
  5
4AD
330
3
100
AcDbSymbolTableRecord
100
AcDbTextStyleTableRecord
  2
Arial
 70
     0
 40
0.0
 41
1.0
 50
0.0
 71
     0
 42
3.5
  3
Arial
  4

1001
ACAD
1000
Arial
1071
        0
  0
ENDTAB
  0
TABLE
  2
VIEW
  5
6
330
0
100
AcDbSymbolTable
 70
     0
  0
ENDTAB
  0
TABLE
  2
UCS
  5
7
330
0
100
AcDbSymbolTable
 70
     0
  0
ENDTAB
  0
TABLE
  2
APPID
  5
9
330
0
100
AcDbSymbolTable
 70
     2
  0
APPID
  5
12
330
9
100
AcDbSymbolTableRecord
100
AcDbRegAppTableRecord
  2
ACAD
 70
     0
  0
APPID
  5
4C4
330
9
100
AcDbSymbolTableRecord
100
AcDbRegAppTableRecord
  2
PLOTTRANSPARENCY
 70
     0
  0
ENDTAB
  0
TABLE
  2
DIMSTYLE
  5
A
330
0
100
AcDbSymbolTable
 70
     2
100
AcDbDimStyleTable
  0
DIMSTYLE
105
27
330
A
100
AcDbSymbolTableRecord
100
AcDbDimStyleTableRecord
  2
ISO-25
 70
     0
 41
2.5
 42
0.625
 43
3.75
 44
1.25
 73
     0
 74
     0
 77
     1
 78
     8
140
2.5
141
2.5
143
0.03937007874016
147
0.625
171
     3
172
     1
178
     0
271
     2
272
     2
274
     3
278
    44
283
     0
284
     8
340
11
  0
DIMSTYLE
105
4AC
330
A
100
AcDbSymbolTableRecord
100
AcDbDimStyleTableRecord
  2
Standard
 70
     0
178
     0
340
11
  0
ENDTAB
  0
TABLE
  2
BLOCK_RECORD
  5
1
330
0
100
AcDbSymbolTable
 70
     2
  0
BLOCK_RECORD
  5
1F
330
1
100
AcDbSymbolTableRecord
100
AcDbBlockTableRecord
  2
*Model_Space
340
22
 70
     0
280
     1
281
     0
  0
BLOCK_RECORD
  5
1B
330
1
100
AcDbSymbolTableRecord
100
AcDbBlockTableRecord
  2
*Paper_Space
340
1E
 70
     0
280
     1
281
     0
  0
BLOCK_RECORD
  5
23
330
1
100
AcDbSymbolTableRecord
100
AcDbBlockTableRecord
  2
*Paper_Space0
340
26
 70
     0
280
     1
281
     0
  0
BLOCK_RECORD
  5
74
330
1
100
AcDbSymbolTableRecord
100
AcDbBlockTableRecord
  2
SW_BROKEN_VIEW_0
340
0
102
{BLKREFS
331
77
102
}
 70
     0
280
     1
281
     0
  0
ENDTAB
  0
ENDSEC
  0
SECTION
  2
BLOCKS
  0
BLOCK
  5
20
330
1F
100
AcDbEntity
  8
0
100
AcDbBlockBegin
  2
*Model_Space
 70
     0
 10
0.0
 20
0.0
 30
0.0
  3
*Model_Space
  1

  0
ENDBLK
  5
21
330
1F
100
AcDbEntity
  8
0
100
AcDbBlockEnd
  0
BLOCK
  5
1C
330
1B
100
AcDbEntity
 67
     1
  8
0
100
AcDbBlockBegin
  2
*Paper_Space
 70
     0
 10
0.0
 20
0.0
 30
0.0
  3
*Paper_Space
  1

  0
ENDBLK
  5
1D
330
1B
100
AcDbEntity
 67
     1
  8
0
100
AcDbBlockEnd
  0
BLOCK
  5
24
330
23
100
AcDbEntity
  8
0
100
AcDbBlockBegin
  2
*Paper_Space0
 70
     0
 10
0.0
 20
0.0
 30
0.0
  3
*Paper_Space0
  1

  0
ENDBLK
  5
25
330
23
100
AcDbEntity
  8
0
100
AcDbBlockEnd
  0
BLOCK
  5
75
330
74
100
AcDbEntity
  8
0
100
AcDbBlockBegin
  2
SW_BROKEN_VIEW_0
 70
     0
 10
0.0
 20
0.0
 30
0.0
  3
SW_BROKEN_VIEW_0
  1

  0
ENDBLK
  5
76
330
74
100
AcDbEntity
  8
0
100
AcDbBlockEnd
  0
ENDSEC
  0
SECTION
  2
ENTITIES
  0
INSERT
  5
77
330
1F
100
AcDbEntity
  8
0
  6
Continuous
 62
     7
100
AcDbBlockReference
  2
SW_BROKEN_VIEW_0
 10
0.0
 20
0.0
 30
0.0
  0
LINE
  5
78
330
1F
100
AcDbEntity
  8
0
  6
Continuous
 62
     0
370
     0
100
AcDbLine
 10
278.1373148049198
 20
129.5892208238636
 30
0.0
 11
281.9044380272709
 21
130.0939145108258
 31
0.0
  0
LINE
  5
79
330
1F
100
AcDbEntity
  8
0
  6
Continuous
 62
     0
370
     0
100
AcDbLine
 10
281.8526463593327
 20
130.4804613610302
 30
0.0
 11
278.0855231369816
 21
129.9757637997662
 31
0.0
  0
LINE
  5
7A
330
1F
100
AcDbEntity
  8
0
  6
Continuous
 62
     0
370
     0
100
AcDbLine
 10
281.8859343613468
 20
130.4404475708996
 30
0.0
 11
281.9044380272709
 21
130.4429232498204
 31
0.0
  0
LINE
  5
7B
330
1F
100
AcDbEntity
  8
0
  6
Continuous
 62
     0
370
     0
100
AcDbLine
 10
281.8526463593327
 20
130.8294701000248
 30
0.0
 11
278.0855231369816
 21
130.3247725387608
 31
0.0
  0
LINE
  5
7C
330
1F
100
AcDbEntity
  8
0
  6
Continuous
 62
     0
370
     0
100
AcDbLine
 10
273.6850910271488
 20
128.8721262832676
 30
0.0
 11
278.1761508072697
 21
129.4738131185566
 31
0.0
  0
LINE
  5
7D
330
1F
100
AcDbEntity
  8
0
  6
Continuous
 62
     0
370
     0
100
AcDbLine
 10
278.0466871346317
 20
130.4401802440678
 30
0.0
 11
273.3395032967411
 21
129.8095368763005
 31
0.0
  0
LWPOLYLINE
  5
7E
330
1F
100
AcDbEntity
  8
0
  6
Continuous
 62
     0
370
     0
100
AcDbPolyline
 90
       17
 70
   128
 43
0.0
 10
281.8319110955082
 20
130.4388242383991
 10
281.8280677880131
 20
130.3813683410679
 10
281.8319110955082
 20
130.3095736523663
 10
281.8428521241032
 20
130.2343695779835
 10
281.8592171753727
 20
130.1672085543667
 10
281.8785266960941
 20
130.1183148642575
 10
281.8978362168156
 20
130.0951310416256
 10
281.9142322625004
 20
130.1011827012097
 10
281.9251732910953
 20
130.1355555077587
 10
281.9290165985905
 20
130.19301140509
 10
281.9251732910953
 20
130.2648060937916
 10
281.9142322625004
 20
130.3400101681744
 10
281.8978362168156
 20
130.4071711917912
 10
281.8785266960941
 20
130.4560648819004
 10
281.8592171753727
 20
130.4792487045323
 10
281.8428521241032
 20
130.4731970449482
 10
281.8319110955082
 20
130.4388242383991
  0
ARC
  5
7F
330
1F
100
AcDbEntity
  8
0
  6
Continuous
 62
     0
370
     0
100
AcDbCircle
 10
278.4039403280919
 20
129.8139284606862
 30
0.0
 40
0.3486870970557465
100
AcDbArc
 50
169.6338080240744
 51
220.1236422581997
  0
LWPOLYLINE
  5
80
330
1F
100
AcDbEntity
  8
0
  6
Continuous
 62
     0
370
     0
100
AcDbPolyline
 90
        4
 70
   128
 43
0.0
 10
278.0855231369816
 20
129.9757637997662
 10
278.0757289017521
 20
129.9684994836842
 10
278.0647878731571
 20
129.9341266771351
 10
278.060944565662
 20
129.8766707798039
  0
ARC
  5
81
330
1F
100
AcDbEntity
  8
0
  6
Continuous
 62
     0
370
     0
100
AcDbCircle
 10
278.7668170637772
 20
130.2211134876891
 30
0.0
 40
0.7058872659536768
100
AcDbArc
 50
179.6293797200566
 51
200.1246467112844
  0
LWPOLYLINE
  5
82
330
1F
100
AcDbEntity
  8
0
  6
Continuous
 62
     0
370
     0
100
AcDbPolyline
 90
        4
 70
   128
 43
0.0
 10
278.0855231369816
 20
130.3247725387608
 10
278.0757289017521
 20
130.3175082226788
 10
278.0647878731571
 20
130.2831354161297
 10
278.060944565662
 20
130.2256795187985
  0
LWPOLYLINE
  5
83
330
1F
100
AcDbEntity
  8
0
  6
Continuous
 62
     0
370
     0
100
AcDbPolyline
 90
       17
 70
   128
 43
0.0
 10
281.8319110955082
 20
130.7878329773937
 10
281.8280677880131
 20
130.7303770800625
 10
281.8319110955082
 20
130.6585823913609
 10
281.8428521241032
 20
130.5833783169781
 10
281.8592171753727
 20
130.5162172933613
 10
281.8785266960941
 20
130.4673236032521
 10
281.8978362168156
 20
130.4441359063183
 10
281.9142322625004
 20
130.4501914402043
 10
281.9251732910953
 20
130.4845642467534
 10
281.9290165985905
 20
130.5420201440846
 10
281.9251732910953
 20
130.6138148327862
 10
281.9142322625004
 20
130.6890150328671
 10
281.8978362168156
 20
130.7561760564839
 10
281.8785266960941
 20
130.805073620895
 10
281.8592171753727
 20
130.8282574435269
 10
281.8428521241032
 20
130.8222057839428
 10
281.8319110955082
 20
130.7878329773937
  0
LWPOLYLINE
  5
84
330
1F
100
AcDbEntity
  8
0
  6
Continuous
 62
     0
370
     0
100
AcDbPolyline
 90
       10
 70
   128
 43
0.0
 10
277.9852562035404
 20
130.1924418827092
 10
277.9914240921818
 20
130.0504525919949
 10
278.0093388642155
 20
129.8993199487721
 10
278.0372648323856
 20
129.7538321634327
 10
278.0724434937321
 20
129.6282272954976
 10
278.1114344681583
 20
129.534810127834
 10
278.1504254425846
 20
129.4827162643467
 10
278.185604103931
 20
129.4770481606518
 10
278.2134990776859
 20
129.5183637162243
 10
278.2313208664738
 20
129.6018123050724
  0
LWPOLYLINE
  5
85
330
1F
100
AcDbEntity
  8
0
  6
Continuous
 62
     0
370
     0
100
AcDbPolyline
 90
        7
 70
   128
 43
0.0
 10
278.1335954750858
 20
130.3312155028378
 10
278.1114344681583
 20
130.3791832347905
 10
278.0724434937321
 20
130.4312770982777
 10
278.0372648323856
 20
130.4369452019726
 10
278.0093388642155
 20
130.3956296464001
 10
277.9914240921818
 20
130.3113790770565
 10
277.9852562035404
 20
130.1924418827092
  0
LINE
  5
86
330
1F
100
AcDbEntity
  8
0
  6
Continuous
 62
     0
370
     0
100
AcDbLine
 10
248.0677074839012
 20
126.051814597623
 30
0.0
 11
249.9512690950767
 21
126.304163378255
 31
0.0
  0
LINE
  5
87
330
1F
100
AcDbEntity
  8
0
  6
Continuous
 62
     0
370
     0
100
AcDbLine
 10
249.9202126909629
 20
127.5651672897502
 30
0.0
 11
248.0366510797874
 21
127.3128185091182
 31
0.0
  0
LINE
  5
88
330
1F
100
AcDbEntity
  8
0
  6
Continuous
 62
     0
370
     0
100
AcDbLine
 10
152.0061273027793
 20
113.1820035395785
 30
0.0
 11
153.8896889139548
 21
113.4343523202106
 31
0.0
  0
LINE
  5
89
330
1F
100
AcDbEntity
  8
0
  6
Continuous
 62
     0
370
     0
100
AcDbLine
 10
153.8586325098411
 20
114.6953562317058
 30
0.0
 11
151.9750708986655
 21
114.4430074510738
 31
0.0
  0
LINE
  5
8A
330
1F
100
AcDbEntity
  8
0
  6
Continuous
 62
     0
370
     0
100
AcDbLine
 10
138.2935470987693
 20
110.501656871812
 30
0.0
 11
263.8639027525321
 21
127.3248947081729
 31
0.0
  0
LINE
  5
8B
330
1F
100
AcDbEntity
  8
0
  6
Continuous
 62
     0
370
     0
100
AcDbLine
 10
266.5529007364646
 20
127.916589718835
 30
0.0
 11
272.9410976816551
 21
128.7724462566539
 31
0.0
  0
LINE
  5
8C
330
1F
100
AcDbEntity
  8
0
  6
Continuous
 62
     0
370
     0
100
AcDbLine
 10
272.595525448455
 20
129.7098626611396
 30
0.0
 11
266.423421566619
 21
128.8829568443462
 31
0.0
  0
LINE
  5
8D
330
1F
100
AcDbEntity
  8
0
  6
Continuous
 62
     0
370
     0
100
AcDbLine
 10
266.3770384241478
 20
128.4071228323146
 30
0.0
 11
265.9265655924217
 21
128.3467728314563
 31
0.0
  0
LINE
  5
8E
330
1F
100
AcDbEntity
  8
0
  6
Continuous
 62
     0
370
     0
100
AcDbLine
 10
265.9783572603599
 20
127.9602259812518
 30
0.0
 11
266.4659768988029
 21
128.025554460065
 31
0.0
  0
LINE
  5
8F
330
1F
100
AcDbEntity
  8
0
  6
Continuous
 62
     0
370
     0
100
AcDbLine
 10
265.6991595674888
 20
128.2864576993152
 30
0.0
 11
265.2478343893425
 21
128.1045940933391
 31
0.0
  0
LINE
  5
90
330
1F
100
AcDbEntity
  8
0
  6
Continuous
 62
     0
370
     0
100
AcDbLine
 10
265.3936011244193
 20
127.7428582725688
 30
0.0
 11
265.8449263025657
 21
127.924718004243
 31
0.0
  0
SPLINE
  5
91
330
1F
100
AcDbEntity
  8
0
  6
Continuous
 62
     0
370
     0
100
AcDbSpline
210
0.0
220
0.0
230
1.0
 70
     8
 71
     3
 72
     9
 73
     5
 74
     0
 42
0.000000001
 43
0.00000001
 40
0.0
 40
0.0
 40
0.0
 40
0.0
 40
0.4557884769620172
 40
1.0
 40
1.0
 40
1.0
 40
1.0
 10
265.8449263025657
 20
127.924718004243
 30
0.0
 10
265.8646682335051
 20
127.9320616593921
 30
0.0
 10
265.9079820335182
 20
127.9481736401031
 30
0.0
 10
265.9535556002166
 20
127.9559784912967
 30
0.0
 10
265.9783572603599
 20
127.9602259812518
 30
0.0
  0
SPLINE
  5
92
330
1F
100
AcDbEntity
  8
0
  6
Continuous
 62
     0
370
     0
100
AcDbSpline
210
0.0
220
0.0
230
1.0
 70
     8
 71
     3
 72
     9
 73
     5
 74
     0
 42
0.000000001
 43
0.00000001
 40
0.0
 40
0.0
 40
0.0
 40
0.0
 40
0.4488556504486779
 40
1.0
 40
1.0
 40
1.0
 40
1.0
 10
265.9265655924217
 20
128.3467728314563
 30
0.0
 10
265.8916873536847
 20
128.3410538649559
 30
0.0
 10
265.8139825532616
 20
128.3283126496127
 30
0.0
 10
265.7399578592955
 20
128.3013293773533
 30
0.0
 10
265.6991595674888
 20
128.2864576993152
 30
0.0
  0
LINE
  5
93
330
1F
100
AcDbEntity
  8
0
  6
Continuous
 62
     0
370
     0
100
AcDbLine
 10
138.4538812090293
 20
110.3228190956279
 30
0.0
 11
264.0242213655845
 21
127.1460569319888
 31
0.0
  0
SPLINE
  5
94
330
1F
100
AcDbEntity
  8
0
  6
Continuous
 62
     0
370
     0
100
AcDbSpline
210
0.0
220
0.0
230
1.0
 70
     8
 71
     3
 72
     9
 73
     5
 74
     0
 42
0.000000001
 43
0.00000001
 40
0.0
 40
0.0
 40
0.0
 40
0.0
 40
0.4488200692166397
 40
1.0
 40
1.0
 40
1.0
 40
1.0
 10
265.1662105966941
 20
127.6825431404277
 30
0.0
 10
265.2010835730295
 20
127.6882625357421
 30
0.0
 10
265.2787828087083
 20
127.7010057165992
 30
0.0
 10
265.352802794032
 20
127.727986826359
 30
0.0
 10
265.3936011244193
 20
127.7428582725688
 30
0.0
  0
SPLINE
  5
95
330
1F
100
AcDbEntity
  8
0
  6
Continuous
 62
     0
370
     0
100
AcDbSpline
210
0.0
220
0.0
230
1.0
 70
     8
 71
     3
 72
     9
 73
     5
 74
     0
 42
0.000000001
 43
0.00000001
 40
0.0
 40
0.0
 40
0.0
 40
0.0
 40
0.4558335810209669
 40
0.9999999999999999
 40
0.9999999999999999
 40
0.9999999999999999
 40
0.9999999999999999
 10
265.2478343893425
 20
128.1045940933391
 30
0.0
 10
265.2280923408439
 20
128.097252142949
 30
0.0
 10
265.184782568768
 20
128.0811454963661
 30
0.0
 10
265.1392151745109
 20
128.0733383678171
 30
0.0
 10
265.1144189287559
 20
128.0690899906322
 30
0.0
  0
LINE
  5
96
330
1F
100
AcDbEntity
  8
0
  6
Continuous
 62
     0
370
     0
100
AcDbLine
 10
266.3682515074149
 20
128.7549537835284
 30
0.0
 11
265.9265655924217
 21
128.6957815704509
 31
0.0
  0
LINE
  5
97
330
1F
100
AcDbEntity
  8
0
  6
Continuous
 62
     0
370
     0
100
AcDbLine
 10
265.1144189287559
 20
128.0690899906322
 30
0.0
 11
263.9508575846092
 21
127.9132035789653
 31
0.0
  0
LINE
  5
98
330
1F
100
AcDbEntity
  8
0
  6
Continuous
 62
     0
370
     0
100
AcDbLine
 10
264.0026492525474
 20
127.5266567287608
 30
0.0
 11
265.1662105966941
 21
127.6825431404277
 31
0.0
  0
SPLINE
  5
99
330
1F
100
AcDbEntity
  8
0
  6
Continuous
 62
     0
370
     0
100
AcDbSpline
210
0.0
220
0.0
230
1.0
 70
     8
 71
     3
 72
     9
 73
     5
 74
     0
 42
0.000000001
 43
0.00000001
 40
0.0
 40
0.0
 40
0.0
 40
0.0
 40
0.461732305006084
 40
1.0
 40
1.0
 40
1.0
 40
1.0
 10
265.9265655924217
 20
128.6957815704509
 30
0.0
 10
265.9068170818533
 20
128.6936859207271
 30
0.0
 10
265.8640466056397
 20
128.6891472525399
 30
0.0
 10
265.8212020648888
 20
128.6931629061909
 30
0.0
 10
265.7981402326957
 20
128.6953244028255
 30
0.0
  0
LINE
  5
9A
330
1F
100
AcDbEntity
  8
0
  6
Continuous
 62
     0
370
     0
100
AcDbLine
 10
265.7981402326957
 20
128.6953244028255
 30
0.0
 11
265.3468150545494
 21
128.7562516746684
 31
0.0
  0
LINE
  5
9B
330
1F
100
AcDbEntity
  8
0
  6
Continuous
 62
     0
370
     0
100
AcDbLine
 10
265.2946359564201
 20
128.3697590646907
 30
0.0
 11
265.7459611345664
 21
128.3088279185458
 31
0.0
  0
SPLINE
  5
9C
330
1F
100
AcDbEntity
  8
0
  6
Continuous
 62
     0
370
     0
100
AcDbSpline
210
0.0
220
0.0
230
1.0
 70
     8
 71
     3
 72
     9
 73
     5
 74
     0
 42
0.000000001
 43
0.00000001
 40
0.0
 40
0.0
 40
0.0
 40
0.0
 40
0.4617323050059549
 40
0.9999999999999999
 40
0.9999999999999999
 40
0.9999999999999999
 40
0.9999999999999999
 10
265.1662105966941
 20
128.3693018970653
 30
0.0
 10
265.1859591072624
 20
128.371397546789
 30
0.0
 10
265.228729583476
 20
128.3759362149762
 30
0.0
 10
265.271574124227
 20
128.3719205613253
 30
0.0
 10
265.2946359564201
 20
128.3697590646907
 30
0.0
  0
SPLINE
  5
9D
330
1F
100
AcDbEntity
  8
0
  6
Continuous
 62
     0
370
     0
100
AcDbSpline
210
0.0
220
0.0
230
1.0
 70
     8
 71
     3
 72
     9
 73
     5
 74
     0
 42
0.000000001
 43
0.00000001
 40
0.0
 40
0.0
 40
0.0
 40
0.0
 40
0.4482252246700886
 40
0.9999999999999999
 40
0.9999999999999999
 40
0.9999999999999999
 40
0.9999999999999999
 10
265.3468150545494
 20
128.7562516746684
 30
0.0
 10
265.3121118998716
 20
128.7598009271159
 30
0.0
 10
265.2346884244229
 20
128.7677193847398
 30
0.0
 10
265.1571839453071
 20
128.7600696680033
 30
0.0
 10
265.1144189287559
 20
128.7558487472697
 30
0.0
  0
LINE
  5
9E
330
1F
100
AcDbEntity
  8
0
  6
Continuous
 62
     0
370
     0
100
AcDbLine
 10
265.1144189287559
 20
128.7558487472697
 30
0.0
 11
263.9508575846092
 21
128.5999623356029
 31
0.0
  0
LINE
  5
9F
330
1F
100
AcDbEntity
  8
0
  6
Continuous
 62
     0
370
     0
100
AcDbLine
 10
264.0026492525474
 20
128.2134154853984
 30
0.0
 11
265.1662105966941
 21
128.3693018970653
 31
0.0
  0
LINE
  5
A0
330
1F
100
AcDbEntity
  8
0
  6
Continuous
 62
     0
370
     0
100
AcDbLine
 10
250.0294370104209
 20
127.567209046857
 30
0.0
 11
250.0294370104209
 21
127.229331177251
 31
0.0
  0
LINE
  5
A1
330
1F
100
AcDbEntity
  8
0
  6
Continuous
 62
     0
370
     0
100
AcDbLine
 10
250.0126070429222
 20
127.2270763335391
 30
0.0
 11
249.9777693201439
 21
127.2920987425014
 31
0.0
  0
LWPOLYLINE
  5
A2
330
1F
100
AcDbEntity
  8
0
  6
Continuous
 62
     0
370
     0
100
AcDbPolyline
 90
        9
 70
   128
 43
0.0
 10
249.9710435320274
 20
127.2805494485065
 10
249.971105520858
 20
127.2850707588359
 10
249.9714154650108
 20
127.2889411864444
 10
249.9720043589012
 20
127.2920018849536
 10
249.9728412081138
 20
127.2941250024005
 10
249.9738640238182
 20
127.2952175555392
 10
249.9750728060142
 20
127.2952408013507
 10
249.9764055658714
 20
127.2941831169292
 10
249.9777693201439
 20
127.2920987425014
  0
LINE
  5
A3
330
1F
100
AcDbEntity
  8
0
  6
Continuous
 62
     0
370
     0
100
AcDbLine
 10
249.9710435320274
 20
127.2805494485065
 30
0.0
 11
249.9789471079246
 21
126.8842858491107
 31
0.0
  0
LINE
  5
A4
330
1F
100
AcDbEntity
  8
0
  6
Continuous
 62
     0
370
     0
100
AcDbLine
 10
249.9845570970909
 20
126.604251307027
 30
0.0
 11
249.9853629518882
 21
126.5635905084773
 31
0.0
  0
ARC
  5
A5
330
1F
100
AcDbEntity
  8
0
  6
Continuous
 62
     0
370
     0
100
AcDbCircle
 10
250.152819069694
 20
126.5681049226179
 30
0.0
 40
0.1675169583225134
100
AcDbArc
 50
181.5442507925661
 51
192.8311372653557
  0
LINE
  5
A6
330
1F
100
AcDbEntity
  8
0
  6
Continuous
 62
     0
370
     0
100
AcDbLine
 10
249.9894852091209
 20
126.5309030232593
 30
0.0
 11
250.0126070429222
 21
126.4315310535594
 31
0.0
  0
LINE
  5
A7
330
1F
100
AcDbEntity
  8
0
  6
Continuous
 62
     0
370
     0
100
AcDbLine
 10
250.0126070429222
 20
126.4315310535594
 30
0.0
 11
250.0126070429222
 21
126.3977548895045
 31
0.0
  0
LINE
  5
A8
330
1F
100
AcDbEntity
  8
0
  6
Continuous
 62
     0
370
     0
100
AcDbLine
 10
250.0126070429222
 20
126.3977548895045
 30
0.0
 11
249.9526328493492
 21
126.3051978168651
 31
0.0
  0
LWPOLYLINE
  5
A9
330
1F
100
AcDbEntity
  8
0
  6
Continuous
 62
     0
370
     0
100
AcDbPolyline
 90
        9
 70
   128
 43
0.0
 10
249.9411029268638
 20
126.3408995089694
 10
249.9415058542625
 20
126.3338482794925
 10
249.942435686721
 20
126.3264716086551
 10
249.9437994409935
 20
126.3193816361591
 10
249.9454731394187
 20
126.3131517586871
 10
249.947363798751
 20
126.3082972583934
 10
249.9492854524986
 20
126.3052133140727
 10
249.951083128585
 20
126.3041517553493
 10
249.9526328493492
 20
126.3051978168651
  0
LINE
  5
AA
330
1F
100
AcDbEntity
  8
0
  6
Continuous
 62
     0
370
     0
100
AcDbLine
 10
249.9411029268638
 20
126.3408995089694
 30
0.0
 11
249.9169582773582
 21
127.5503674564525
 31
0.0
  0
LWPOLYLINE
  5
AB
330
1F
100
AcDbEntity
  8
0
  6
Continuous
 62
     0
370
     0
100
AcDbPolyline
 90
        9
 70
   128
 43
0.0
 10
249.9236530710594
 20
127.5619167504474
 10
249.9222893167869
 20
127.5640011248752
 10
249.920987551345
 20
127.5650549349948
 10
249.919778769149
 20
127.5650355634853
 10
249.9187559534446
 20
127.5639391360446
 10
249.917919104232
 20
127.5618198928996
 10
249.9173302103416
 20
127.5587591943904
 10
249.9169892717735
 20
127.55488489248
 10
249.9169582773582
 20
127.5503674564525
  0
LINE
  5
AC
330
1F
100
AcDbEntity
  8
0
  6
Continuous
 62
     0
370
     0
100
AcDbLine
 10
249.9236530710594
 20
127.5619167504474
 30
0.0
 11
249.9789471079246
 21
127.4587363419696
 31
0.0
  0
LINE
  5
AD
330
1F
100
AcDbEntity
  8
0
  6
Continuous
 62
     0
370
     0
100
AcDbLine
 10
249.9789471079246
 20
127.4587363419696
 30
0.0
 11
249.9789471079246
 21
127.6839030203982
 31
0.0
  0
LINE
  5
AE
330
1F
100
AcDbEntity
  8
0
  6
Continuous
 62
     0
370
     0
100
AcDbLine
 10
250.0361627985374
 20
127.5771698770686
 30
0.0
 11
249.9789471079246
 21
127.6839030203982
 31
0.0
  0
LWPOLYLINE
  5
AF
330
1F
100
AcDbEntity
  8
0
  6
Continuous
 62
     0
370
     0
100
AcDbPolyline
 90
        9
 70
   128
 43
0.0
 10
250.0294370104209
 20
127.567209046857
 10
250.0295609880821
 20
127.5713622985049
 10
250.0299329210654
 20
127.5748685417338
 10
250.0305528093711
 20
127.5776037988826
 10
250.0313896585838
 20
127.5794518408939
 10
250.0324124742881
 20
127.5803506789371
 10
250.0335902620689
 20
127.5802615699931
 10
250.0348610330955
 20
127.579184514062
 10
250.0361627985374
 20
127.5771698770686
  0
LINE
  5
B0
330
1F
100
AcDbEntity
  8
0
  6
Continuous
 62
     0
370
     0
100
AcDbLine
 10
248.0575413156883
 20
126.0885507283374
 30
0.0
 11
249.9411029268638
 21
126.3408995089694
 31
0.0
  0
LINE
  5
B1
330
1F
100
AcDbEntity
  8
0
  6
Continuous
 62
     0
370
     0
100
AcDbLine
 10
248.0575413156883
 20
126.0885507283374
 30
0.0
 11
248.0333966661826
 21
127.2980186758205
 31
0.0
  0
LINE
  5
B2
330
1F
100
AcDbEntity
  8
0
  6
Continuous
 62
     0
370
     0
100
AcDbLine
 10
249.9169582773582
 20
127.5503674564525
 30
0.0
 11
248.0333966661826
 21
127.2980186758205
 31
0.0
  0
ARC
  5
B3
330
1F
100
AcDbEntity
  8
0
  6
Continuous
 62
     0
370
     0
100
AcDbCircle
 10
248.1027964100409
 20
126.0812996588551
 30
0.0
 40
0.0458323201846035
100
AcDbArc
 50
170.8970648940623
 51
220.040179215644
  0
LINE
  5
B4
330
1F
100
AcDbEntity
  8
0
  6
Continuous
 62
     0
370
     0
100
AcDbLine
 10
251.4653462816612
 20
127.42170576431
 30
0.0
 11
251.3019437242881
 21
127.7265668330356
 31
0.0
  0
LINE
  5
B5
330
1F
100
AcDbEntity
  8
0
  6
Continuous
 62
     0
370
     0
100
AcDbLine
 10
251.3019437242881
 20
127.9517335114642
 30
0.0
 11
251.3019437242881
 21
127.7265668330356
 31
0.0
  0
LINE
  5
B6
330
1F
100
AcDbEntity
  8
0
  6
Continuous
 62
     0
370
     0
100
AcDbLine
 10
251.3019437242881
 20
127.9517335114642
 30
0.0
 11
251.5779179979697
 21
127.4367884216472
 31
0.0
  0
LINE
  5
B7
330
1F
100
AcDbEntity
  8
0
  6
Continuous
 62
     0
370
     0
100
AcDbLine
 10
247.0908564974204
 20
127.2969687400027
 30
0.0
 11
248.0954164911643
 21
127.4315542397662
 31
0.0
  0
LINE
  5
B8
330
1F
100
AcDbEntity
  8
0
  6
Continuous
 62
     0
370
     0
100
AcDbLine
 10
247.0908564974204
 20
127.5221354184314
 30
0.0
 11
247.0908564974204
 21
127.2969687400027
 31
0.0
  0
LINE
  5
B9
330
1F
100
AcDbEntity
  8
0
  6
Continuous
 62
     0
370
     0
100
AcDbLine
 10
247.0908564974204
 20
127.5221354184314
 30
0.0
 11
250.9835380960838
 21
128.0436551985904
 31
0.0
  0
LINE
  5
BA
330
1F
100
AcDbEntity
  8
0
  6
Continuous
 62
     0
370
     0
100
AcDbLine
 10
250.9835380960838
 20
127.8184885201617
 30
0.0
 11
250.9835380960838
 21
128.0436551985904
 31
0.0
  0
LINE
  5
BB
330
1F
100
AcDbEntity
  8
0
  6
Continuous
 62
     0
370
     0
100
AcDbLine
 10
250.9835380960838
 20
127.8184885201617
 30
0.0
 11
249.9789471079246
 21
127.6839030203982
 31
0.0
  0
LINE
  5
BC
330
1F
100
AcDbEntity
  8
0
  6
Continuous
 62
     0
370
     0
100
AcDbLine
 10
248.0954164911643
 20
127.3206910906001
 30
0.0
 11
248.0954164911643
 21
127.4315542397662
 31
0.0
  0
LWPOLYLINE
  5
BD
330
1F
100
AcDbEntity
  8
0
  6
Continuous
 62
     0
370
     0
100
AcDbPolyline
 90
        7
 70
   128
 43
0.0
 10
248.0333966661826
 20
127.2980186758205
 10
248.0334586550132
 20
127.302536111848
 10
248.0337685991661
 20
127.3064104137584
 10
248.0343574930564
 20
127.3094711122676
 10
248.0351943422691
 20
127.3115903554126
 10
248.0362171579734
 20
127.3126867828532
 10
248.0366510797874
 20
127.3128185091182
  0
LINE
  5
BE
330
1F
100
AcDbEntity
  8
0
  6
Continuous
 62
     0
370
     0
100
AcDbLine
 10
250.9835380960838
 20
128.0436551985904
 30
0.0
 11
251.3019437242881
 21
127.9517335114642
 31
0.0
  0
LINE
  5
BF
330
1F
100
AcDbEntity
  8
0
  6
Continuous
 62
     0
370
     0
100
AcDbLine
 10
251.3019437242881
 20
127.7265668330356
 30
0.0
 11
250.9835380960838
 21
127.8184885201617
 31
0.0
  0
LINE
  5
C0
330
1F
100
AcDbEntity
  8
0
  6
Continuous
 62
     0
370
     0
100
AcDbLine
 10
247.0703691889183
 20
126.8328932342692
 30
0.0
 11
246.9069976259605
 21
127.1377543029948
 31
0.0
  0
LINE
  5
C1
330
1F
100
AcDbEntity
  8
0
  6
Continuous
 62
     0
370
     0
100
AcDbLine
 10
247.0908564974204
 20
127.2969687400027
 30
0.0
 11
246.9069976259605
 21
127.1377543029948
 31
0.0
  0
LINE
  5
C2
330
1F
100
AcDbEntity
  8
0
  6
Continuous
 62
     0
370
     0
100
AcDbLine
 10
247.9807681490318
 20
126.9548601327106
 30
0.0
 11
247.8678554941551
 21
127.1655446705981
 31
0.0
  0
LWPOLYLINE
  5
C3
330
1F
100
AcDbEntity
  8
0
  6
Continuous
 62
     0
370
     0
100
AcDbPolyline
 90
        9
 70
   128
 43
0.0
 10
247.8678554941551
 20
127.1655446705981
 10
247.8173655916587
 20
127.2167241988345
 10
247.7315730501549
 20
127.2543475446864
 10
247.6234955240623
 20
127.2726884899303
 10
247.5096220423118
 20
127.2689575371905
 10
247.4072474886314
 20
127.2437203345462
 10
247.3319930483237
 20
127.2008163151904
 10
247.2953266550438
 20
127.1467814264461
 10
247.302796309127
 20
127.089836936967
  0
LINE
  5
C4
330
1F
100
AcDbEntity
  8
0
  6
Continuous
 62
     0
370
     0
100
AcDbLine
 10
247.302796309127
 20
127.089836936967
 30
0.0
 11
247.4156779695884
 21
126.8791562733813
 31
0.0
  0
LINE
  5
C5
330
1F
100
AcDbEntity
  8
0
  6
Continuous
 62
     0
370
     0
100
AcDbLine
 10
250.5261535097495
 20
127.3534560618564
 30
0.0
 11
250.5761784960166
 21
127.302578729169
 31
0.0
  0
LWPOLYLINE
  5
C6
330
1F
100
AcDbEntity
  8
0
  6
Continuous
 62
     0
370
     0
100
AcDbPolyline
 90
       10
 70
   128
 43
0.0
 10
251.0987753321067
 20
127.3725989875957
 10
251.0912126947777
 20
127.4291599211856
 10
251.0407537866966
 20
127.480339449422
 10
250.9549302507774
 20
127.5179666695758
 10
250.8468837191002
 20
127.5363076148196
 10
250.7329792429344
 20
127.5325766620799
 10
250.6306356836693
 20
127.5073355851337
 10
250.5553812433616
 20
127.4644354400798
 10
250.5186838556663
 20
127.4103966770335
 10
250.5261535097495
 20
127.3534560618564
  0
ARC
  5
C7
330
1F
100
AcDbEntity
  8
0
  6
Continuous
 62
     0
370
     0
100
AcDbCircle
 10
250.8086831022636
 20
127.9770250645021
 30
0.0
 40
0.5086359218043119
100
AcDbArc
 50
248.466196727416
 51
291.5338032725768
  0
LINE
  5
C8
330
1F
100
AcDbEntity
  8
0
  6
Continuous
 62
     0
370
     0
100
AcDbLine
 10
246.9069976259605
 20
127.1377543029948
 30
0.0
 11
246.9069976259605
 21
127.3629209814235
 31
0.0
  0
LINE
  5
C9
330
1F
100
AcDbEntity
  8
0
  6
Continuous
 62
     0
370
     0
100
AcDbLine
 10
246.9069976259605
 20
127.3629209814235
 30
0.0
 11
247.0908564974204
 21
127.5221354184314
 31
0.0
  0
LINE
  5
CA
330
1F
100
AcDbEntity
  8
0
  6
Continuous
 62
     0
370
     0
100
AcDbLine
 10
247.3548979212181
 20
127.2177741346522
 30
0.0
 11
247.4710030008689
 21
127.0010805545016
 31
0.0
  0
ARC
  5
CB
330
1F
100
AcDbEntity
  8
0
  6
Continuous
 62
     0
370
     0
100
AcDbCircle
 10
247.6741533396361
 20
127.1619216096334
 30
0.0
 40
0.2591136915663148
100
AcDbArc
 50
218.3698611780603
 51
259.2843596181274
  0
LINE
  5
CC
330
1F
100
AcDbEntity
  8
0
  6
Continuous
 62
     0
370
     0
100
AcDbLine
 10
153.9678568292991
 20
114.6973979888126
 30
0.0
 11
153.9678568292991
 21
114.3595201192065
 31
0.0
  0
LINE
  5
CD
330
1F
100
AcDbEntity
  8
0
  6
Continuous
 62
     0
370
     0
100
AcDbLine
 10
153.9510268618003
 20
114.3572652754947
 30
0.0
 11
153.916189139022
 21
114.4222876844569
 31
0.0
  0
LWPOLYLINE
  5
CE
330
1F
100
AcDbEntity
  8
0
  6
Continuous
 62
     0
370
     0
100
AcDbPolyline
 90
        9
 70
   128
 43
0.0
 10
153.9094633509056
 20
114.4107422647639
 10
153.9095253397361
 20
114.4152597007915
 10
153.9098352838889
 20
114.4191340027019
 10
153.9104241777793
 20
114.4221947012111
 10
153.911261026992
 20
114.4243139443561
 10
153.9123148371116
 20
114.4254064974948
 10
153.9134926248924
 20
114.4254297433063
 10
153.9148253847495
 20
114.4243759331866
 10
153.916189139022
 20
114.4222876844569
  0
LINE
  5
CF
330
1F
100
AcDbEntity
  8
0
  6
Continuous
 62
     0
370
     0
100
AcDbLine
 10
153.9094633509056
 20
114.4107422647639
 30
0.0
 11
153.917397921218
 21
114.0144747910663
 31
0.0
  0
LINE
  5
D0
330
1F
100
AcDbEntity
  8
0
  6
Continuous
 62
     0
370
     0
100
AcDbLine
 10
153.922976915969
 20
113.7344402489825
 30
0.0
 11
153.9237827707664
 21
113.6937794504329
 31
0.0
  0
ARC
  5
D1
330
1F
100
AcDbEntity
  8
0
  6
Continuous
 62
     0
370
     0
100
AcDbCircle
 10
154.0875198143491
 20
113.6979761804843
 30
0.0
 40
0.163790817765654
100
AcDbArc
 50
181.4682217295964
 51
193.0141089042329
  0
LINE
  5
D2
330
1F
100
AcDbEntity
  8
0
  6
Continuous
 62
     0
370
     0
100
AcDbLine
 10
153.9279360224143
 20
113.6610919652148
 30
0.0
 11
153.9510268618003
 21
113.561719995515
 31
0.0
  0
LINE
  5
D3
330
1F
100
AcDbEntity
  8
0
  6
Continuous
 62
     0
370
     0
100
AcDbLine
 10
153.9510268618003
 20
113.561719995515
 30
0.0
 11
153.9510268618003
 21
113.527947705762
 31
0.0
  0
LINE
  5
D4
330
1F
100
AcDbEntity
  8
0
  6
Continuous
 62
     0
370
     0
100
AcDbLine
 10
153.9510268618003
 20
113.527947705762
 30
0.0
 11
153.8910526682273
 21
113.4353867588206
 31
0.0
  0
LWPOLYLINE
  5
D5
330
1F
100
AcDbEntity
  8
0
  6
Continuous
 62
     0
370
     0
100
AcDbPolyline
 90
        9
 70
   128
 43
0.0
 10
153.879522745742
 20
113.4710923252269
 10
153.8799256731406
 20
113.4640372214481
 10
153.8808555055991
 20
113.4566605506106
 10
153.8822192598716
 20
113.4495705781146
 10
153.8839239527122
 20
113.4433445749446
 10
153.8857836176292
 20
113.438486200349
 10
153.8877052713767
 20
113.4354022560283
 10
153.8895029474631
 20
113.4343406973048
 10
153.8910526682273
 20
113.4353867588206
  0
LINE
  5
D6
330
1F
100
AcDbEntity
  8
0
  6
Continuous
 62
     0
370
     0
100
AcDbLine
 10
153.879522745742
 20
113.4710923252269
 30
0.0
 11
153.8553780962364
 21
114.680556398408
 31
0.0
  0
LWPOLYLINE
  5
D7
330
1F
100
AcDbEntity
  8
0
  6
Continuous
 62
     0
370
     0
100
AcDbPolyline
 90
        9
 70
   128
 43
0.0
 10
153.8621038843528
 20
114.6921056924029
 10
153.860709135665
 20
114.6941900668307
 10
153.8594073702232
 20
114.6952438769504
 10
153.8581985880271
 20
114.6952245054408
 10
153.8571757723228
 20
114.6941280780002
 10
153.8563389231101
 20
114.6920088348552
 10
153.8557500292197
 20
114.688948136346
 10
153.8554400850669
 20
114.6850738344356
 10
153.8553780962364
 20
114.680556398408
  0
LINE
  5
D8
330
1F
100
AcDbEntity
  8
0
  6
Continuous
 62
     0
370
     0
100
AcDbLine
 10
153.8621038843528
 20
114.6921056924029
 30
0.0
 11
153.917397921218
 21
114.5889252839252
 31
0.0
  0
LINE
  5
D9
330
1F
100
AcDbEntity
  8
0
  6
Continuous
 62
     0
370
     0
100
AcDbLine
 10
153.917397921218
 20
114.5889252839252
 30
0.0
 11
153.917397921218
 21
114.8140919623538
 31
0.0
  0
LINE
  5
DA
330
1F
100
AcDbEntity
  8
0
  6
Continuous
 62
     0
370
     0
100
AcDbLine
 10
153.9745826174155
 20
114.7073588190242
 30
0.0
 11
153.917397921218
 21
114.8140919623538
 31
0.0
  0
LWPOLYLINE
  5
DB
330
1F
100
AcDbEntity
  8
0
  6
Continuous
 62
     0
370
     0
100
AcDbPolyline
 90
        9
 70
   128
 43
0.0
 10
153.9678568292991
 20
114.6973979888126
 10
153.9679808069602
 20
114.7015512404605
 10
153.9683527399436
 20
114.7050613579913
 10
153.9690036226646
 20
114.7077927408382
 10
153.9698404718772
 20
114.7096407828494
 10
153.9708322931663
 20
114.7105396208926
 10
153.9720100809471
 20
114.7104505119487
 10
153.9732808519736
 20
114.7093773303195
 10
153.9745826174155
 20
114.7073588190242
  0
LINE
  5
DC
330
1F
100
AcDbEntity
  8
0
  6
Continuous
 62
     0
370
     0
100
AcDbLine
 10
151.9959611345664
 20
113.2187435445949
 30
0.0
 11
153.879522745742
 21
113.4710923252269
 31
0.0
  0
LINE
  5
DD
330
1F
100
AcDbEntity
  8
0
  6
Continuous
 62
     0
370
     0
100
AcDbLine
 10
151.9959611345664
 20
113.2187435445949
 30
0.0
 11
151.9718164850608
 21
114.428207617776
 31
0.0
  0
LINE
  5
DE
330
1F
100
AcDbEntity
  8
0
  6
Continuous
 62
     0
370
     0
100
AcDbLine
 10
153.8553780962364
 20
114.680556398408
 30
0.0
 11
151.9718164850608
 21
114.428207617776
 31
0.0
  0
ARC
  5
DF
330
1F
100
AcDbEntity
  8
0
  6
Continuous
 62
     0
370
     0
100
AcDbCircle
 10
152.0412967019886
 20
113.2115116330094
 30
0.0
 40
0.0459087597160433
100
AcDbArc
 50
170.9365629268061
 51
219.9975750012443
  0
LINE
  5
E0
330
1F
100
AcDbEntity
  8
0
  6
Continuous
 62
     0
370
     0
100
AcDbLine
 10
155.4037661005393
 20
114.5518947062656
 30
0.0
 11
155.2403945375816
 21
114.8567557749911
 31
0.0
  0
LINE
  5
E1
330
1F
100
AcDbEntity
  8
0
  6
Continuous
 62
     0
370
     0
100
AcDbLine
 10
155.2403945375816
 20
115.0819224534198
 30
0.0
 11
155.2403945375816
 21
114.8567557749911
 31
0.0
  0
LINE
  5
E2
330
1F
100
AcDbEntity
  8
0
  6
Continuous
 62
     0
370
     0
100
AcDbLine
 10
155.2403945375816
 20
115.0819224534198
 30
0.0
 11
155.5163378168479
 21
114.5669773636027
 31
0.0
  0
LINE
  5
E3
330
1F
100
AcDbEntity
  8
0
  6
Continuous
 62
     0
370
     0
100
AcDbLine
 10
151.0292763162986
 20
114.4271576819583
 30
0.0
 11
152.0338363100425
 21
114.5617431817218
 31
0.0
  0
LINE
  5
E4
330
1F
100
AcDbEntity
  8
0
  6
Continuous
 62
     0
370
     0
100
AcDbLine
 10
151.0292763162986
 20
114.652324360387
 30
0.0
 11
151.0292763162986
 21
114.4271576819583
 31
0.0
  0
LINE
  5
E5
330
1F
100
AcDbEntity
  8
0
  6
Continuous
 62
     0
370
     0
100
AcDbLine
 10
151.0292763162986
 20
114.652324360387
 30
0.0
 11
154.9219579149619
 21
115.173844140546
 31
0.0
  0
LINE
  5
E6
330
1F
100
AcDbEntity
  8
0
  6
Continuous
 62
     0
370
     0
100
AcDbLine
 10
154.9219579149619
 20
114.9486774621173
 30
0.0
 11
154.9219579149619
 21
115.173844140546
 31
0.0
  0
LINE
  5
E7
330
1F
100
AcDbEntity
  8
0
  6
Continuous
 62
     0
370
     0
100
AcDbLine
 10
154.9219579149619
 20
114.9486774621173
 30
0.0
 11
153.917397921218
 21
114.8140919623538
 31
0.0
  0
LINE
  5
E8
330
1F
100
AcDbEntity
  8
0
  6
Continuous
 62
     0
370
     0
100
AcDbLine
 10
152.0338363100425
 20
114.4508800325557
 30
0.0
 11
152.0338363100425
 21
114.5617431817218
 31
0.0
  0
LWPOLYLINE
  5
E9
330
1F
100
AcDbEntity
  8
0
  6
Continuous
 62
     0
370
     0
100
AcDbPolyline
 90
        7
 70
   128
 43
0.0
 10
151.9718164850608
 20
114.428207617776
 10
151.9718784738914
 20
114.4327289281055
 10
151.9721884180442
 20
114.436599355714
 10
151.9727773119346
 20
114.4396600542232
 10
151.9736141611472
 20
114.4417792973682
 10
151.9746679712669
 20
114.4428757248088
 10
151.9750708986655
 20
114.4430074510738
  0
LINE
  5
EA
330
1F
100
AcDbEntity
  8
0
  6
Continuous
 62
     0
370
     0
100
AcDbLine
 10
154.9219579149619
 20
115.173844140546
 30
0.0
 11
155.2403945375816
 21
115.0819224534198
 31
0.0
  0
LINE
  5
EB
330
1F
100
AcDbEntity
  8
0
  6
Continuous
 62
     0
370
     0
100
AcDbLine
 10
155.2403945375816
 20
114.8567557749911
 30
0.0
 11
154.9219579149619
 21
114.9486774621173
 31
0.0
  0
LINE
  5
EC
330
1F
100
AcDbEntity
  8
0
  6
Continuous
 62
     0
370
     0
100
AcDbLine
 10
151.0087890077964
 20
113.9630821762248
 30
0.0
 11
150.8454174448386
 21
114.2679432449504
 31
0.0
  0
LINE
  5
ED
330
1F
100
AcDbEntity
  8
0
  6
Continuous
 62
     0
370
     0
100
AcDbLine
 10
151.0292763162986
 20
114.4271576819583
 30
0.0
 11
150.8454174448386
 21
114.2679432449504
 31
0.0
  0
LINE
  5
EE
330
1F
100
AcDbEntity
  8
0
  6
Continuous
 62
     0
370
     0
100
AcDbLine
 10
151.9191879679099
 20
114.0850490746661
 30
0.0
 11
151.8062753130332
 21
114.2957336125537
 31
0.0
  0
LWPOLYLINE
  5
EF
330
1F
100
AcDbEntity
  8
0
  6
Continuous
 62
     0
370
     0
100
AcDbPolyline
 90
        9
 70
   128
 43
0.0
 10
151.8062753130332
 20
114.2957336125537
 10
151.7557854105369
 20
114.3469131407901
 10
151.669992869033
 20
114.384536486642
 10
151.5619153429404
 20
114.4028774318858
 10
151.44804186119
 20
114.3991464791461
 10
151.3456673075095
 20
114.3739092765018
 10
151.2704438616172
 20
114.331005257146
 10
151.2337464739219
 20
114.2769703684016
 10
151.2412161280051
 20
114.2200297532245
  0
LINE
  5
F0
330
1F
100
AcDbEntity
  8
0
  6
Continuous
 62
     0
370
     0
100
AcDbLine
 10
151.2412161280051
 20
114.2200297532245
 30
0.0
 11
151.3540977884666
 21
114.0093452153369
 31
0.0
  0
LINE
  5
F1
330
1F
100
AcDbEntity
  8
0
  6
Continuous
 62
     0
370
     0
100
AcDbLine
 10
154.4645733286277
 20
114.4836450038119
 30
0.0
 11
154.5145983148948
 21
114.4327715454265
 31
0.0
  0
LWPOLYLINE
  5
F2
330
1F
100
AcDbEntity
  8
0
  6
Continuous
 62
     0
370
     0
100
AcDbPolyline
 90
       10
 70
   128
 43
0.0
 10
155.0372261454002
 20
114.5027879295512
 10
155.0296635080711
 20
114.5593488631412
 10
154.9791736055747
 20
114.6105283913776
 10
154.8933810640708
 20
114.6481556115314
 10
154.7853035379783
 20
114.6664965567752
 10
154.6713990618125
 20
114.6627656040355
 10
154.5690555025474
 20
114.6375245270892
 10
154.4938010622398
 20
114.5946243820354
 10
154.4571036745444
 20
114.540589493291
 10
154.4645733286277
 20
114.4836450038119
  0
ARC
  5
F3
330
1F
100
AcDbEntity
  8
0
  6
Continuous
 62
     0
370
     0
100
AcDbCircle
 10
154.7471184183494
 20
115.1078232065195
 30
0.0
 40
0.5092083316407366
100
AcDbArc
 50
248.4897348057453
 51
291.5102651942547
  0
LINE
  5
F4
330
1F
100
AcDbEntity
  8
0
  6
Continuous
 62
     0
370
     0
100
AcDbLine
 10
150.8454174448386
 20
114.2679432449504
 30
0.0
 11
150.8454174448386
 21
114.4931099233791
 31
0.0
  0
LINE
  5
F5
330
1F
100
AcDbEntity
  8
0
  6
Continuous
 62
     0
370
     0
100
AcDbLine
 10
150.8454174448386
 20
114.4931099233791
 30
0.0
 11
151.0292763162986
 21
114.652324360387
 31
0.0
  0
LINE
  5
F6
330
1F
100
AcDbEntity
  8
0
  6
Continuous
 62
     0
370
     0
100
AcDbLine
 10
151.2933177400962
 20
114.3479630766078
 30
0.0
 11
151.4094538141624
 21
114.1312694964572
 31
0.0
  0
ARC
  5
F7
330
1F
100
AcDbEntity
  8
0
  6
Continuous
 62
     0
370
     0
100
AcDbCircle
 10
151.6126918078137
 20
114.2922394802244
 30
0.0
 40
0.2592624495321696
100
AcDbArc
 50
218.3801755023212
 51
259.2638936911693
  0
LINE
  5
F8
330
1F
100
AcDbEntity
  8
0
  6
Continuous
 62
     0
370
     0
100
AcDbLine
 10
264.1113466669456
 20
127.5412163553401
 30
0.0
 11
264.1113466669456
 21
126.8552092132732
 31
0.0
  0
LINE
  5
F9
330
1F
100
AcDbEntity
  8
0
  6
Continuous
 62
     0
370
     0
100
AcDbLine
 10
264.1113466669456
 20
126.8552092132732
 30
0.0
 11
264.0982360292808
 21
126.8796715555354
 31
0.0
  0
ARC
  5
FA
330
1F
100
AcDbEntity
  8
0
  6
Continuous
 62
     0
370
     0
100
AcDbCircle
 10
264.2829178533405
 20
126.9588523543927
 30
0.0
 40
0.2009402275445934
100
AcDbArc
 50
183.1117768653714
 51
203.2068319118909
  0
LINE
  5
FB
330
1F
100
AcDbEntity
  8
0
  6
Continuous
 62
     0
370
     0
100
AcDbLine
 10
264.08227390541
 20
126.9479445038005
 30
0.0
 11
264.0701395918265
 21
127.0922893700763
 31
0.0
  0
ARC
  5
FC
330
1F
100
AcDbEntity
  8
0
  6
Continuous
 62
     0
370
     0
100
AcDbCircle
 10
264.3029977196073
 20
127.112238517563
 30
0.0
 40
0.2337110954983412
100
AcDbArc
 50
180.1321136746175
 51
184.8966203858391
  0
LINE
  5
FD
330
1F
100
AcDbEntity
  8
0
  6
Continuous
 62
     0
370
     0
100
AcDbLine
 10
264.0692872454063
 20
127.1116996226474
 30
0.0
 11
264.0692872454063
 21
127.2018623767062
 31
0.0
  0
ARC
  5
FE
330
1F
100
AcDbEntity
  8
0
  6
Continuous
 62
     0
370
     0
100
AcDbCircle
 10
264.1824126684796
 20
127.2037201075458
 30
0.0
 40
0.1131406757510494
100
AcDbArc
 50
169.8177032383547
 51
180.9408191992412
  0
LINE
  5
FF
330
1F
100
AcDbEntity
  8
0
  6
Continuous
 62
     0
370
     0
100
AcDbLine
 10
264.0710539270775
 20
127.2237211880847
 30
0.0
 11
264.0739364076987
 21
127.2375911889239
 31
0.0
  0
ARC
  5
100
330
1F
100
AcDbEntity
  8
0
  6
Continuous
 62
     0
370
     0
100
AcDbCircle
 10
263.89943863781
 20
127.2627644655868
 30
0.0
 40
0.1763041847321803
100
AcDbArc
 50
351.7910694665596
 51
8.208930533440395
  0
LINE
  5
101
330
1F
100
AcDbEntity
  8
0
  6
Continuous
 62
     0
370
     0
100
AcDbLine
 10
264.0739364076987
 20
127.2879377422496
 30
0.0
 11
264.0710539270775
 21
127.3125318107768
 31
0.0
  0
ARC
  5
102
330
1F
100
AcDbEntity
  8
0
  6
Continuous
 62
     0
370
     0
100
AcDbCircle
 10
264.3208035339098
 20
127.3423188102882
 30
0.0
 40
0.251519644268214
100
AcDbArc
 50
180.2959701466511
 51
186.8013938012869
  0
LINE
  5
103
330
1F
100
AcDbEntity
  8
0
  6
Continuous
 62
     0
370
     0
100
AcDbLine
 10
264.0692872454063
 20
127.341019552724
 30
0.0
 11
264.0692872454063
 21
127.4270290551349
 31
0.0
  0
ARC
  5
104
330
1F
100
AcDbEntity
  8
0
  6
Continuous
 62
     0
370
     0
100
AcDbCircle
 10
264.1824126684797
 20
127.4288867859745
 30
0.0
 40
0.1131406757511227
100
AcDbArc
 50
169.8177032383598
 51
180.9408191992263
  0
LINE
  5
105
330
1F
100
AcDbEntity
  8
0
  6
Continuous
 62
     0
370
     0
100
AcDbLine
 10
264.0710539270775
 20
127.4488878665134
 30
0.0
 11
264.0739364076987
 21
127.4627578673526
 31
0.0
  0
ARC
  5
106
330
1F
100
AcDbEntity
  8
0
  6
Continuous
 62
     0
370
     0
100
AcDbCircle
 10
263.8994386378101
 20
127.4879311440154
 30
0.0
 40
0.1763041847321071
100
AcDbArc
 50
351.791069466557
 51
8.208930533443032
  0
LINE
  5
107
330
1F
100
AcDbEntity
  8
0
  6
Continuous
 62
     0
370
     0
100
AcDbLine
 10
264.0739364076987
 20
127.5131044206782
 30
0.0
 11
264.0712708879844
 21
127.5358504471942
 31
0.0
  0
LINE
  5
108
330
1F
100
AcDbEntity
  8
0
  6
Continuous
 62
     0
370
     0
100
AcDbLine
 10
264.0777022291557
 20
127.9301962671443
 30
0.0
 11
264.0777022291557
 21
128.2234692988559
 31
0.0
  0
LINE
  5
109
330
1F
100
AcDbEntity
  8
0
  6
Continuous
 62
     0
370
     0
100
AcDbLine
 10
263.9881593634025
 20
128.6049563107654
 30
0.0
 11
263.8758201052086
 21
128.8145792899295
 31
0.0
  0
LINE
  5
10A
330
1F
100
AcDbEntity
  8
0
  6
Continuous
 62
     0
370
     0
100
AcDbLine
 10
263.8758201052086
 20
128.8145792899295
 30
0.0
 11
263.8758201052086
 21
128.09607837774
 31
0.0
  0
ARC
  5
10B
330
1F
100
AcDbEntity
  8
0
  6
Continuous
 62
     0
370
     0
100
AcDbCircle
 10
264.1272579860604
 20
128.0973727728136
 30
0.0
 40
0.2514412125843974
100
AcDbArc
 50
180.2949544410338
 51
186.8024095066275
  0
LINE
  5
10C
330
1F
100
AcDbEntity
  8
0
  6
Continuous
 62
     0
370
     0
100
AcDbLine
 10
263.8775867868796
 20
128.0675906357928
 30
0.0
 11
263.8824529100792
 21
128.0260000047847
 31
0.0
  0
ARC
  5
10D
330
1F
100
AcDbEntity
  8
0
  6
Continuous
 62
     0
370
     0
100
AcDbCircle
 10
263.6311462608915
 20
127.9959787695015
 30
0.0
 40
0.2530934738270785
100
AcDbArc
 50
0.3471572472421346
 51
6.812303091066236
  0
LINE
  5
10E
330
1F
100
AcDbEntity
  8
0
  6
Continuous
 62
     0
370
     0
100
AcDbLine
 10
263.884235088958
 20
127.9975122628375
 30
0.0
 11
263.884235088958
 21
127.9115066347285
 31
0.0
  0
ARC
  5
10F
330
1F
100
AcDbEntity
  8
0
  6
Continuous
 62
     0
370
     0
100
AcDbCircle
 10
263.7704548552676
 20
127.9097812358375
 30
0.0
 40
0.1137933151813456
100
AcDbArc
 50
349.8090280438332
 51
0.8687844504449403
  0
LINE
  5
110
330
1F
100
AcDbEntity
  8
0
  6
Continuous
 62
     0
370
     0
100
AcDbLine
 10
263.8824529100792
 20
127.8896478233501
 30
0.0
 11
263.8795704294578
 21
127.8757778225108
 31
0.0
  0
ARC
  5
111
330
1F
100
AcDbEntity
  8
0
  6
Continuous
 62
     0
370
     0
100
AcDbCircle
 10
264.0540984431254
 20
127.850602608697
 30
0.0
 40
0.1763343952418409
100
AcDbArc
 50
171.7918496161887
 51
188.2081503838113
  0
LINE
  5
112
330
1F
100
AcDbEntity
  8
0
  6
Continuous
 62
     0
370
     0
100
AcDbLine
 10
263.8795704294578
 20
127.8254273948833
 30
0.0
 11
263.8824529100792
 21
127.800833326356
 31
0.0
  0
ARC
  5
113
330
1F
100
AcDbEntity
  8
0
  6
Continuous
 62
     0
370
     0
100
AcDbCircle
 10
263.6311462608919
 20
127.7708120910729
 30
0.0
 40
0.2530934738267073
100
AcDbArc
 50
0.3471572472490366
 51
6.812303091075395
  0
LINE
  5
114
330
1F
100
AcDbEntity
  8
0
  6
Continuous
 62
     0
370
     0
100
AcDbLine
 10
263.884235088958
 20
127.7723455844089
 30
0.0
 11
263.884235088958
 21
127.6863399562999
 31
0.0
  0
ARC
  5
115
330
1F
100
AcDbEntity
  8
0
  6
Continuous
 62
     0
370
     0
100
AcDbCircle
 10
263.7704548552671
 20
127.6846145574088
 30
0.0
 40
0.1137933151817885
100
AcDbArc
 50
349.8090280438738
 51
0.8687844504414686
  0
LINE
  5
116
330
1F
100
AcDbEntity
  8
0
  6
Continuous
 62
     0
370
     0
100
AcDbLine
 10
263.8824529100792
 20
127.6644811449214
 30
0.0
 11
263.8795704294578
 21
127.6506111440822
 31
0.0
  0
ARC
  5
117
330
1F
100
AcDbEntity
  8
0
  6
Continuous
 62
     0
370
     0
100
AcDbCircle
 10
264.0540984431253
 20
127.6254359302684
 30
0.0
 40
0.1763343952418043
100
AcDbArc
 50
171.7918496161861
 51
188.2081503838139
  0
LINE
  5
118
330
1F
100
AcDbEntity
  8
0
  6
Continuous
 62
     0
370
     0
100
AcDbLine
 10
263.8795704294578
 20
127.6002607164546
 30
0.0
 11
263.8824529100792
 21
127.5756666479274
 31
0.0
  0
ARC
  5
119
330
1F
100
AcDbEntity
  8
0
  6
Continuous
 62
     0
370
     0
100
AcDbCircle
 10
263.6311462608908
 20
127.5456454126442
 30
0.0
 40
0.25309347382778
100
AcDbArc
 50
0.3471572472411211
 51
6.812303091052782
  0
LINE
  5
11A
330
1F
100
AcDbEntity
  8
0
  6
Continuous
 62
     0
370
     0
100
AcDbLine
 10
263.884235088958
 20
127.5471789059802
 30
0.0
 11
263.884235088958
 21
127.4570200262233
 31
0.0
  0
ARC
  5
11B
330
1F
100
AcDbEntity
  8
0
  6
Continuous
 62
     0
370
     0
100
AcDbCircle
 10
263.7432616677556
 20
127.4564577778764
 30
0.0
 40
0.1409745424135611
100
AcDbArc
 50
353.635098018552
 51
0.2285131923120781
  0
LINE
  5
11C
330
1F
100
AcDbEntity
  8
0
  6
Continuous
 62
     0
370
     0
100
AcDbLine
 10
263.88336724533
 20
127.4408293185397
 30
0.0
 11
263.8712329317466
 21
127.3417362985774
 31
0.0
  0
LWPOLYLINE
  5
11D
330
1F
100
AcDbEntity
  8
0
  6
Continuous
 62
     0
370
     0
100
AcDbPolyline
 90
        9
 70
   128
 43
0.0
 10
263.8552863050834
 20
127.3330268678828
 10
263.8578898359672
 20
127.3288309989139
 10
263.8604468752281
 20
127.3261073646709
 10
263.8628799368278
 20
127.3249179539844
 10
263.8651115347282
 20
127.3252976355716
 10
263.867110674514
 20
127.3272347865268
 10
263.8688308645621
 20
127.330682915227
 10
263.8702101160423
 20
127.3355567870303
 10
263.8712329317466
 20
127.3417362985774
  0
LINE
  5
11E
330
1F
100
AcDbEntity
  8
0
  6
Continuous
 62
     0
370
     0
100
AcDbLine
 10
263.8552863050834
 20
127.3330268678828
 30
0.0
 11
263.8421756674186
 21
127.3574892101451
 31
0.0
  0
LINE
  5
11F
330
1F
100
AcDbEntity
  8
0
  6
Continuous
 62
     0
370
     0
100
AcDbLine
 10
263.8421756674186
 20
127.3574892101451
 30
0.0
 11
263.8421756674186
 21
128.3369669733211
 31
0.0
  0
ARC
  5
120
330
1F
100
AcDbEntity
  8
0
  6
Continuous
 62
     0
370
     0
100
AcDbCircle
 10
263.7097186184978
 20
128.3388019877302
 30
0.0
 40
0.1324697591403107
100
AcDbArc
 50
359.206294746703
 51
22.53752737993081
  0
LINE
  5
121
330
1F
100
AcDbEntity
  8
0
  6
Continuous
 62
     0
370
     0
100
AcDbLine
 10
263.8320714880363
 20
128.3895761189624
 30
0.0
 11
263.7984270502463
 21
128.4523630557223
 31
0.0
  0
ARC
  5
122
330
1F
100
AcDbEntity
  8
0
  6
Continuous
 62
     0
370
     0
100
AcDbCircle
 10
263.88008296825
 20
128.4862032599175
 30
0.0
 40
0.0883903182762858
100
AcDbArc
 50
179.2001754004499
 51
202.5103098696525
  0
LINE
  5
123
330
1F
100
AcDbEntity
  8
0
  6
Continuous
 62
     0
370
     0
100
AcDbLine
 10
263.7917012621299
 20
128.4874371109172
 30
0.0
 11
263.7917012621299
 21
129.0278363642856
 31
0.0
  0
LINE
  5
124
330
1F
100
AcDbEntity
  8
0
  6
Continuous
 62
     0
370
     0
100
AcDbLine
 10
263.8253456999199
 20
129.07763276674
 30
0.0
 11
263.7917012621299
 21
129.0278363642856
 31
0.0
  0
LINE
  5
125
330
1F
100
AcDbEntity
  8
0
  6
Continuous
 62
     0
370
     0
100
AcDbLine
 10
263.8253456999199
 20
129.07763276674
 30
0.0
 11
264.072588150634
 21
128.6162692723437
 31
0.0
  0
LINE
  5
126
330
1F
100
AcDbEntity
  8
0
  6
Continuous
 62
     0
370
     0
100
AcDbLine
 10
264.1618055750266
 20
128.2347396431132
 30
0.0
 11
264.1618055750266
 21
127.9414627370998
 31
0.0
  0
LINE
  5
127
330
1F
100
AcDbEntity
  8
0
  6
Continuous
 62
     0
370
     0
100
AcDbLine
 10
138.2718200136558
 20
110.5342513737842
 30
0.0
 11
263.8421756674186
 21
127.3574892101451
 31
0.0
  0
LINE
  5
128
330
1F
100
AcDbEntity
  8
0
  6
Continuous
 62
     0
370
     0
100
AcDbLine
 10
138.2849306513206
 20
110.5097890315219
 30
0.0
 11
263.8552863050834
 21
127.3330268678828
 31
0.0
  0
LINE
  5
129
330
1F
100
AcDbEntity
  8
0
  6
Continuous
 62
     0
370
     0
100
AcDbLine
 10
138.2849306513206
 20
110.5097890315219
 30
0.0
 11
138.2718200136558
 21
110.5342513737842
 31
0.0
  0
LINE
  5
12A
330
1F
100
AcDbEntity
  8
0
  6
Continuous
 62
     0
370
     0
100
AcDbLine
 10
138.2718200136558
 20
110.5342513737842
 30
0.0
 11
138.2718200136558
 21
111.5137291369601
 31
0.0
  0
LWPOLYLINE
  5
12B
330
1F
100
AcDbEntity
  8
0
  6
Continuous
 62
     0
370
     0
100
AcDbPolyline
 90
        5
 70
   128
 43
0.0
 10
138.2935470987693
 20
110.501656871812
 10
138.2925242830649
 20
110.5016801176234
 10
138.2900757242576
 20
110.5028695283099
 10
138.2875341822044
 20
110.5055931625529
 10
138.2849306513206
 20
110.5097890315219
  0
ARC
  5
12C
330
1F
100
AcDbEntity
  8
0
  6
Continuous
 62
     0
370
     0
100
AcDbCircle
 10
138.3094387478811
 20
111.6629849629729
 30
0.0
 40
0.0881170041341038
100
AcDbArc
 50
179.2104006287852
 51
202.5977399493125
  0
LINE
  5
12D
330
1F
100
AcDbEntity
  8
0
  6
Continuous
 62
     0
370
     0
100
AcDbLine
 10
263.7917012621299
 20
129.0278363642856
 30
0.0
 11
249.9731201578514
 21
127.1764973220988
 31
0.0
  0
LINE
  5
12E
330
1F
100
AcDbEntity
  8
0
  6
Continuous
 62
     0
370
     0
100
AcDbLine
 10
248.040990297927
 20
126.9176397142573
 30
0.0
 11
153.9115399767295
 21
114.3066862640544
 31
0.0
  0
LINE
  5
12F
330
1F
100
AcDbEntity
  8
0
  6
Continuous
 62
     0
370
     0
100
AcDbLine
 10
151.9794101168052
 20
114.0478286562129
 30
0.0
 11
138.2213301111595
 21
112.2045985279246
 31
0.0
  0
LINE
  5
130
330
1F
100
AcDbEntity
  8
0
  6
Continuous
 62
     0
370
     0
100
AcDbLine
 10
138.2213301111595
 20
111.6641992745563
 30
0.0
 11
138.2213301111595
 21
112.2045985279246
 31
0.0
  0
LINE
  5
131
330
1F
100
AcDbEntity
  8
0
  6
Continuous
 62
     0
370
     0
100
AcDbLine
 10
138.2617158342735
 20
111.5663382826015
 30
0.0
 11
138.2280868936912
 21
111.6291252193614
 31
0.0
  0
ARC
  5
132
330
1F
100
AcDbEntity
  8
0
  6
Continuous
 62
     0
370
     0
100
AcDbCircle
 10
138.1391056668969
 20
111.5155147344195
 30
0.0
 40
0.1327263583239237
100
AcDbArc
 50
359.2291637775944
 51
22.51465834901992
  0
LINE
  5
133
330
1F
100
AcDbEntity
  8
0
  6
Continuous
 62
     0
370
     0
100
AcDbLine
 10
138.254990046157
 20
112.254394930379
 30
0.0
 11
151.978511278762
 21
114.0929991421863
 31
0.0
  0
LINE
  5
134
330
1F
100
AcDbEntity
  8
0
  6
Continuous
 62
     0
370
     0
100
AcDbLine
 10
153.9106411386863
 20
114.3518567500278
 30
0.0
 11
248.0400914598838
 21
126.9628102002307
 31
0.0
  0
LINE
  5
135
330
1F
100
AcDbEntity
  8
0
  6
Continuous
 62
     0
370
     0
100
AcDbLine
 10
249.9722213198082
 20
127.2216678080722
 30
0.0
 11
263.8253456999199
 21
129.07763276674
 31
0.0
  0
LINE
  5
136
330
1F
100
AcDbEntity
  8
0
  6
Continuous
 62
     0
370
     0
100
AcDbLine
 10
138.2213301111595
 20
112.2045985279246
 30
0.0
 11
138.254990046157
 21
112.254394930379
 31
0.0
  0
LINE
  5
137
330
1F
100
AcDbEntity
  8
0
  6
Continuous
 62
     0
370
     0
100
AcDbLine
 10
138.5119027544395
 20
110.1247066674396
 30
0.0
 11
264.08227390541
 21
126.9479445038005
 31
0.0
  0
LINE
  5
138
330
1F
100
AcDbEntity
  8
0
  6
Continuous
 62
     0
370
     0
100
AcDbLine
 10
138.5119027544395
 20
110.1247066674396
 30
0.0
 11
138.4997839380637
 21
110.2690515337154
 31
0.0
  0
LINE
  5
139
330
1F
100
AcDbEntity
  8
0
  6
Continuous
 62
     0
370
     0
100
AcDbLine
 10
264.0701395918265
 20
127.0922893700763
 30
0.0
 11
138.4997839380637
 21
110.2690515337154
 31
0.0
  0
LINE
  5
13A
330
1F
100
AcDbEntity
  8
0
  6
Continuous
 62
     0
370
     0
100
AcDbLine
 10
264.0982360292808
 20
126.8796715555354
 30
0.0
 11
138.5278648783103
 21
110.0564337191745
 31
0.0
  0
ARC
  5
13B
330
1F
100
AcDbEntity
  8
0
  6
Continuous
 62
     0
370
     0
100
AcDbCircle
 10
138.7141294074212
 20
110.1359845523531
 30
0.0
 40
0.2025408844265616
100
AcDbArc
 50
183.1919954609881
 51
203.1266133162449
  0
LINE
  5
13C
330
1F
100
AcDbEntity
  8
0
  6
Continuous
 62
     0
370
     0
100
AcDbLine
 10
138.4989160944358
 20
110.2884617862865
 30
0.0
 11
264.0692872454063
 21
127.1116996226474
 31
0.0
  0
ARC
  5
13D
330
1F
100
AcDbEntity
  8
0
  6
Continuous
 62
     0
370
     0
100
AcDbCircle
 10
138.7378865888353
 20
110.2894217682365
 30
0.0
 40
0.2389724225907889
100
AcDbArc
 50
180.2301648930137
 51
184.8898801405169
  0
LINE
  5
13E
330
1F
100
AcDbEntity
  8
0
  6
Continuous
 62
     0
370
     0
100
AcDbLine
 10
138.5409755159751
 20
110.0319713769122
 30
0.0
 11
264.1113466669456
 21
126.8552092132732
 31
0.0
  0
LINE
  5
13F
330
1F
100
AcDbEntity
  8
0
  6
Continuous
 62
     0
370
     0
100
AcDbLine
 10
138.5409755159751
 20
110.0319713769122
 30
0.0
 11
138.5278648783103
 21
110.0564337191745
 31
0.0
  0
LINE
  5
140
330
1F
100
AcDbEntity
  8
0
  6
Continuous
 62
     0
370
     0
100
AcDbLine
 10
138.4989160944358
 20
110.2884617862865
 30
0.0
 11
138.4989160944358
 21
110.3288552580043
 31
0.0
  0
LWPOLYLINE
  5
141
330
1F
100
AcDbEntity
  8
0
  6
Continuous
 62
     0
370
     0
100
AcDbPolyline
 90
        8
 70
   128
 43
0.0
 10
266.3619906355278
 20
128.6352184829875
 10
266.3681585241691
 20
128.4932330665752
 10
266.3860887934105
 20
128.3420965490504
 10
266.413999264373
 20
128.1966087637111
 10
266.4491779257194
 20
128.0710038957759
 10
266.4881689001456
 20
127.9775867281123
 10
266.527159874572
 20
127.9254928646251
 10
266.5529007364646
 20
127.916589718835
  0
LWPOLYLINE
  5
142
330
1F
100
AcDbEntity
  8
0
  6
Continuous
 62
     0
370
     0
100
AcDbPolyline
 90
        5
 70
   128
 43
0.0
 10
266.423421566619
 20
128.8829568443462
 10
266.413999264373
 20
128.879721802251
 10
266.3860887934105
 20
128.8384062466785
 10
266.3681585241691
 20
128.7541556773349
 10
266.3619906355278
 20
128.6352184829875
  0
LWPOLYLINE
  5
143
330
1F
100
AcDbEntity
  8
0
  6
Continuous
 62
     0
370
     0
100
AcDbPolyline
 90
        5
 70
   128
 43
0.0
 10
138.4538812090293
 20
110.3228190956279
 10
138.4417933870689
 20
110.3250506935283
 10
138.4063977648154
 20
110.3675517854854
 10
138.371002142562
 20
110.4571411428615
 10
138.3563727785483
 20
110.5100718555614
  0
LWPOLYLINE
  5
144
330
1F
100
AcDbEntity
  8
0
  6
Continuous
 62
     0
370
     0
100
AcDbPolyline
 90
        9
 70
   128
 43
0.0
 10
264.0692872454063
 20
127.3277345714732
 10
264.0622360159293
 20
127.2223961768314
 10
264.0421826292412
 20
127.1593806562587
 10
264.0121645380394
 20
127.1482807812854
 10
263.9767534185783
 20
127.1907896218463
 10
263.9413422991173
 20
127.2804293451472
 10
263.9113242079154
 20
127.4035585341617
 10
263.8912708212272
 20
127.5414294419452
 10
263.884235088958
 20
127.6730511007472
  0
LINE
  5
145
330
1F
100
AcDbEntity
  8
0
  6
Continuous
 62
     0
370
     0
100
AcDbLine
 10
263.884235088958
 20
128.7988844928905
 30
0.0
 11
263.9881593634025
 21
128.6049563107654
 31
0.0
  0
LINE
  5
146
330
1F
100
AcDbEntity
  8
0
  6
Continuous
 62
     0
370
     0
100
AcDbLine
 10
264.0692872454063
 20
128.222341877
 30
0.0
 11
264.0692872454063
 21
127.9290688452884
 31
0.0
  0
LINE
  5
147
330
1F
100
AcDbEntity
  8
0
  6
Continuous
 62
     0
370
     0
100
AcDbLine
 10
264.0692872454063
 20
127.5355831203624
 30
0.0
 11
264.0692872454063
 21
127.3277345714732
 31
0.0
  0
LINE
  5
148
330
1F
100
AcDbEntity
  8
0
  6
Continuous
 62
     0
370
     0
100
AcDbLine
 10
263.884235088958
 20
127.6730511007472
 30
0.0
 11
263.884235088958
 21
128.7988844928905
 31
0.0
  0
LWPOLYLINE
  5
149
330
1F
100
AcDbEntity
  8
0
  6
Continuous
 62
     0
370
     0
100
AcDbPolyline
 90
       10
 70
   128
 43
0.0
 10
263.9508575846092
 20
128.5999623356029
 10
263.9410633493797
 20
128.592694145219
 10
263.9301223207847
 20
128.5583213386699
 10
263.9262790132896
 20
128.5008654413386
 10
263.9301223207847
 20
128.429070752637
 10
263.9410633493797
 20
128.3538705525561
 10
263.9574438978569
 20
128.2867095289394
 10
263.9767534185783
 20
128.2378119645282
 10
263.9960629392997
 20
128.2146281418964
 10
264.0026492525474
 20
128.2134154853984
  0
LWPOLYLINE
  5
14A
330
1F
100
AcDbEntity
  8
0
  6
Continuous
 62
     0
370
     0
100
AcDbPolyline
 90
       10
 70
   128
 43
0.0
 10
263.9508575846092
 20
127.9132035789653
 10
263.9410633493797
 20
127.9059353885814
 10
263.9301223207847
 20
127.8715625820323
 10
263.9262790132896
 20
127.8141066847011
 10
263.9301223207847
 20
127.7423119959994
 10
263.9410633493797
 20
127.6671117959186
 10
263.9574438978569
 20
127.5999507723018
 10
263.9767534185783
 20
127.5510532078906
 10
263.9960629392997
 20
127.5278693852588
 10
264.0026492525474
 20
127.5266567287608
  0
LINE
  5
14B
330
1F
100
AcDbEntity
  8
0
  6
Continuous
 62
     0
370
     0
100
AcDbLine
 10
263.8758201052086
 20
128.7977570710345
 30
0.0
 11
263.884235088958
 21
128.7988844928905
 31
0.0
  0
LINE
  5
14C
330
1F
100
AcDbEntity
  8
0
  6
Continuous
 62
     0
370
     0
100
AcDbLine
 10
250.0361627985374
 20
127.5771698770686
 30
0.0
 11
250.0302428652183
 21
127.576375645177
 31
0.0
  0
LINE
  5
14D
330
1F
100
AcDbEntity
  8
0
  6
Continuous
 62
     0
370
     0
100
AcDbLine
 10
249.9777693201439
 20
127.2920987425014
 30
0.0
 11
249.9718493868248
 21
127.2913045106097
 31
0.0
  0
LINE
  5
14E
330
1F
100
AcDbEntity
  8
0
  6
Continuous
 62
     0
370
     0
100
AcDbLine
 10
247.302796309127
 20
127.1655446705981
 30
0.0
 11
247.302796309127
 21
127.089836936967
 31
0.0
  0
LINE
  5
14F
330
1F
100
AcDbEntity
  8
0
  6
Continuous
 62
     0
370
     0
100
AcDbLine
 10
247.4710030008689
 20
127.0010805545016
 30
0.0
 11
247.4710030008689
 21
126.8865678129359
 31
0.0
  0
LINE
  5
150
330
1F
100
AcDbEntity
  8
0
  6
Continuous
 62
     0
370
     0
100
AcDbLine
 10
153.9745826174155
 20
114.7073588190242
 30
0.0
 11
153.9686626840965
 21
114.7065645871326
 31
0.0
  0
LINE
  5
151
330
1F
100
AcDbEntity
  8
0
  6
Continuous
 62
     0
370
     0
100
AcDbLine
 10
153.916189139022
 20
114.4222876844569
 30
0.0
 11
153.9102692057029
 21
114.4214934525653
 31
0.0
  0
LINE
  5
152
330
1F
100
AcDbEntity
  8
0
  6
Continuous
 62
     0
370
     0
100
AcDbLine
 10
151.2412161280051
 20
114.2957336125537
 30
0.0
 11
151.2412161280051
 21
114.2200297532245
 31
0.0
  0
LINE
  5
153
330
1F
100
AcDbEntity
  8
0
  6
Continuous
 62
     0
370
     0
100
AcDbLine
 10
151.4094538141624
 20
114.1312694964572
 30
0.0
 11
151.4094538141624
 21
114.0167567548915
 31
0.0
  0
LINE
  5
154
330
1F
100
AcDbEntity
  8
0
  6
Continuous
 62
     0
370
     0
100
AcDbLine
 10
263.8421756674186
 20
128.3369669733211
 30
0.0
 11
250.0007361818687
 21
126.4825672326251
 31
0.0
  0
LINE
  5
155
330
1F
100
AcDbEntity
  8
0
  6
Continuous
 62
     0
370
     0
100
AcDbLine
 10
248.0548757959739
 20
126.2218693313762
 30
0.0
 11
153.9391560007469
 21
113.6127561745807
 31
0.0
  0
LINE
  5
156
330
1F
100
AcDbEntity
  8
0
  6
Continuous
 62
     0
370
     0
100
AcDbLine
 10
151.9933266092674
 20
113.3520621476337
 30
0.0
 11
138.2718200136558
 21
111.5137291369601
 31
0.0
  0
LINE
  5
157
330
1F
100
AcDbEntity
  8
0
  6
Continuous
 62
     0
370
     0
100
AcDbLine
 10
138.2213301111595
 20
111.6641992745563
 30
0.0
 11
151.9901961733237
 21
113.5088706431552
 31
0.0
  0
LINE
  5
158
330
1F
100
AcDbEntity
  8
0
  6
Continuous
 62
     0
370
     0
100
AcDbLine
 10
153.917397921218
 20
113.7670696196719
 30
0.0
 11
248.0517453600303
 21
126.3786817011996
 31
0.0
  0
LINE
  5
159
330
1F
100
AcDbEntity
  8
0
  6
Continuous
 62
     0
370
     0
100
AcDbLine
 10
249.9789471079246
 20
126.6368806777164
 30
0.0
 11
263.7917012621299
 21
128.4874371109172
 31
0.0
  0
LINE
  5
15A
330
1F
100
AcDbEntity
  8
0
  6
Continuous
 62
     0
370
     0
100
AcDbLine
 10
263.7984270502463
 20
128.4523630557223
 30
0.0
 11
249.9845880915062
 21
126.6016593990489
 31
0.0
  0
LINE
  5
15B
330
1F
100
AcDbEntity
  8
0
  6
Continuous
 62
     0
370
     0
100
AcDbLine
 10
248.0524582315818
 20
126.3428017912074
 30
0.0
 11
153.9230389047996
 21
113.7318483410045
 31
0.0
  0
LINE
  5
15C
330
1F
100
AcDbEntity
  8
0
  6
Continuous
 62
     0
370
     0
100
AcDbLine
 10
151.9909090448753
 20
113.4729946074649
 30
0.0
 11
138.2280868936912
 21
111.6291252193614
 31
0.0
  0
LINE
  5
15D
330
1F
100
AcDbEntity
  8
0
  6
Continuous
 62
     0
370
     0
100
AcDbLine
 10
138.2617158342735
 20
111.5663382826015
 30
0.0
 11
151.9922418047325
 21
113.405880075471
 31
0.0
  0
LINE
  5
15E
330
1F
100
AcDbEntity
  8
0
  6
Continuous
 62
     0
370
     0
100
AcDbLine
 10
153.9270371843711
 20
113.6650941190883
 30
0.0
 11
248.0538219858543
 21
126.2756911335155
 31
0.0
  0
LINE
  5
15F
330
1F
100
AcDbEntity
  8
0
  6
Continuous
 62
     0
370
     0
100
AcDbLine
 10
249.988617365493
 20
126.5349051771327
 30
0.0
 11
263.8320714880363
 21
128.3895761189624
 31
0.0
  0
LINE
  5
160
330
1F
100
AcDbEntity
  8
0
  6
Continuous
 62
     0
370
     0
100
AcDbLine
 10
264.0692872454063
 20
127.2018623767062
 30
0.0
 11
264.057927792205
 21
127.2003397760554
 31
0.0
  0
LINE
  5
161
330
1F
100
AcDbEntity
  8
0
  6
Continuous
 62
     0
370
     0
100
AcDbLine
 10
264.0622670103446
 20
127.2225434003039
 30
0.0
 11
264.0710539270775
 21
127.2237211880847
 31
0.0
  0
LINE
  5
162
330
1F
100
AcDbEntity
  8
0
  6
Continuous
 62
     0
370
     0
100
AcDbLine
 10
264.0739364076987
 20
127.2375911889239
 30
0.0
 11
264.0642351557152
 21
127.236289423482
 31
0.0
  0
LINE
  5
163
330
1F
100
AcDbEntity
  8
0
  6
Continuous
 62
     0
370
     0
100
AcDbLine
 10
264.0684194017784
 20
127.2872016248866
 30
0.0
 11
264.0739364076987
 21
127.2879377422496
 31
0.0
  0
LINE
  5
164
330
1F
100
AcDbEntity
  8
0
  6
Continuous
 62
     0
370
     0
100
AcDbLine
 10
264.0710539270775
 20
127.3125318107768
 30
0.0
 11
264.0691632677451
 21
127.3122799811526
 31
0.0
  0
LINE
  5
165
330
1F
100
AcDbEntity
  8
0
  6
Continuous
 62
     0
370
     0
100
AcDbLine
 10
264.0692872454063
 20
127.4486515340968
 30
0.0
 11
264.0710539270775
 21
127.4488878665134
 31
0.0
  0
LINE
  5
166
330
1F
100
AcDbEntity
  8
0
  6
Continuous
 62
     0
370
     0
100
AcDbLine
 10
264.0739364076987
 20
127.4627578673526
 30
0.0
 11
264.0692872454063
 21
127.462134104745
 31
0.0
  0
LINE
  5
167
330
1F
100
AcDbEntity
  8
0
  6
Continuous
 62
     0
370
     0
100
AcDbLine
 10
264.0692872454063
 20
127.5124806580707
 30
0.0
 11
264.0739364076987
 21
127.5131044206782
 31
0.0
  0
LINE
  5
16B
330
1F
100
AcDbEntity
  8
0
  6
Continuous
 62
     0
370
     0
100
AcDbLine
 10
263.8836616922752
 20
127.6729774890109
 30
0.0
 11
263.884235088958
 21
127.6730511007472
 31
0.0
  0
ARC
  5
171
330
1F
100
AcDbEntity
  8
0
  6
ByBlock
 62
     0
370
     0
100
AcDbCircle
 10
278.3115459668612
 20
131.5508325627907
 30
0.0
 40
6.005162354682487
100
AcDbArc
 50
157.3801350519597
 51
202.6198649480417
  0
ARC
  5
172
330
1F
100
AcDbEntity
  8
0
  6
ByBlock
 62
     0
370
     0
100
AcDbCircle
 10
267.2250923889858
 20
126.9314769053426
 30
0.0
 40
6.005162354682529
100
AcDbArc
 50
337.3801350519602
 51
22.61986494804055
  0
ARC
  5
173
330
1F
100
AcDbEntity
  8
0
  6
ByBlock
 62
     0
370
     0
100
AcDbCircle
 10
279.0555269612349
 20
131.6505082750855
 30
0.0
 40
6.005162354682563
100
AcDbArc
 50
157.3801350519597
 51
202.6198649480411
  0
ARC
  5
174
330
1F
100
AcDbEntity
  8
0
  6
ByBlock
 62
     0
370
     0
100
AcDbCircle
 10
267.9690733833595
 20
127.0311526176374
 30
0.0
 40
6.005162354682494
100
AcDbArc
 50
337.3801350519605
 51
22.61986494804076
  0
LINE
  5
333
330
1F
100
AcDbEntity
  8
0
  6
Continuous
 62
     0
370
     0
100
AcDbLine
 10
26.4357871462241
 20
96.35876570321761
 30
0.0
 11
28.31934875739961
 21
96.61111448384963
 31
0.0
  0
LINE
  5
334
330
1F
100
AcDbEntity
  8
0
  6
Continuous
 62
     0
370
     0
100
AcDbLine
 10
28.28829235328584
 20
97.87211839534484
 30
0.0
 11
26.40473074211037
 21
97.61976961471282
 31
0.0
  0
LINE
  5
335
330
1F
100
AcDbEntity
  8
0
  6
Continuous
 62
     0
370
     0
100
AcDbLine
 10
122.4973673273459
 20
109.228576761262
 30
0.0
 11
124.3809289385215
 21
109.4809255418941
 31
0.0
  0
LINE
  5
336
330
1F
100
AcDbEntity
  8
0
  6
Continuous
 62
     0
370
     0
100
AcDbLine
 10
124.3498725344077
 20
110.7419294533893
 30
0.0
 11
122.4663109232322
 21
110.4895806727573
 31
0.0
  0
LINE
  5
33B
330
1F
100
AcDbEntity
  8
0
  6
Continuous
 62
     0
370
     0
100
AcDbLine
 10
12.88326210273659
 20
93.49954639054977
 30
0.0
 11
138.453633253707
 21
110.3227842269107
 31
0.0
  0
LINE
  5
33C
330
1F
100
AcDbEntity
  8
0
  6
Continuous
 62
     0
370
     0
100
AcDbLine
 10
12.7229589868918
 20
93.67838416673385
 30
0.0
 11
138.293299143447
 21
110.5016220030948
 31
0.0
  0
LINE
  5
373
330
1F
100
AcDbEntity
  8
0
  6
Continuous
 62
     0
370
     0
100
AcDbLine
 10
28.39751667274392
 20
97.87416015245162
 30
0.0
 11
28.39751667274392
 21
97.5362822828456
 31
0.0
  0
LINE
  5
374
330
1F
100
AcDbEntity
  8
0
  6
Continuous
 62
     0
370
     0
100
AcDbLine
 10
28.3806867052451
 20
97.53402743913375
 30
0.0
 11
28.34584898246675
 21
97.599049848096
 31
0.0
  0
LWPOLYLINE
  5
375
330
1F
100
AcDbEntity
  8
0
  6
Continuous
 62
     0
370
     0
100
AcDbPolyline
 90
        9
 70
   128
 43
0.0
 10
28.33912319435029
 20
97.5875005541011
 10
28.33918518318086
 20
97.59202186443054
 10
28.33949512733369
 20
97.59589229203903
 10
28.3400840212241
 20
97.59895299054824
 10
28.34092087043675
 20
97.60107610799514
 10
28.34194368614109
 20
97.60216866113387
 10
28.34315246833711
 20
97.60219190694534
 10
28.344454233779
 20
97.6011342225238
 10
28.34584898246675
 20
97.599049848096
  0
LINE
  5
376
330
1F
100
AcDbEntity
  8
0
  6
Continuous
 62
     0
370
     0
100
AcDbLine
 10
28.33912319435029
 20
97.5875005541011
 30
0.0
 11
28.34702677024751
 21
97.19123695470535
 31
0.0
  0
LINE
  5
377
330
1F
100
AcDbEntity
  8
0
  6
Continuous
 62
     0
370
     0
100
AcDbLine
 10
28.3526367594138
 20
96.9112024126216
 30
0.0
 11
28.35344261421113
 21
96.87054161407195
 31
0.0
  0
ARC
  5
378
330
1F
100
AcDbEntity
  8
0
  6
Continuous
 62
     0
370
     0
100
AcDbCircle
 10
28.52089873201869
 20
96.8750560282129
 30
0.0
 40
0.167516958324269
100
AcDbArc
 50
181.5442507926858
 51
192.8311372653673
  0
LINE
  5
379
330
1F
100
AcDbEntity
  8
0
  6
Continuous
 62
     0
370
     0
100
AcDbLine
 10
28.3575648714438
 20
96.8378541288539
 30
0.0
 11
28.3806867052451
 21
96.73848215915405
 31
0.0
  0
LINE
  5
37A
330
1F
100
AcDbEntity
  8
0
  6
Continuous
 62
     0
370
     0
100
AcDbLine
 10
28.3806867052451
 20
96.73848215915405
 30
0.0
 11
28.3806867052451
 21
96.70470599509918
 31
0.0
  0
LINE
  5
37B
330
1F
100
AcDbEntity
  8
0
  6
Continuous
 62
     0
370
     0
100
AcDbLine
 10
28.3806867052451
 20
96.70470599509918
 30
0.0
 11
28.3207125116721
 21
96.61214892245971
 31
0.0
  0
LWPOLYLINE
  5
37C
330
1F
100
AcDbEntity
  8
0
  6
Continuous
 62
     0
370
     0
100
AcDbPolyline
 90
        9
 70
   128
 43
0.0
 10
28.30918258918679
 20
96.64785061456405
 10
28.3095855165854
 20
96.64079938508712
 10
28.3105153490439
 20
96.63342271424972
 10
28.31187910331639
 20
96.62633274175369
 10
28.31355280174165
 20
96.62010286428176
 10
28.31544346107395
 20
96.61524836398803
 10
28.31736511482151
 20
96.61216441966735
 10
28.31916279090794
 20
96.6111028609439
 10
28.3207125116721
 20
96.61214892245971
  0
LINE
  5
37D
330
1F
100
AcDbEntity
  8
0
  6
Continuous
 62
     0
370
     0
100
AcDbLine
 10
28.30918258918679
 20
96.64785061456405
 30
0.0
 11
28.2850379396811
 21
97.85731856204711
 31
0.0
  0
LWPOLYLINE
  5
37E
330
1F
100
AcDbEntity
  8
0
  6
Continuous
 62
     0
370
     0
100
AcDbPolyline
 90
        9
 70
   128
 43
0.0
 10
28.2917327333823
 20
97.8688639817401
 10
28.29036897910981
 20
97.87095223046981
 10
28.28906721366792
 20
97.87200604058944
 10
28.2878584314719
 20
97.87198666907989
 10
28.28683561576756
 20
97.87089024163924
 10
28.28599876655491
 20
97.86877099849426
 10
28.2854098726645
 20
97.86571029998504
 10
28.28506893409642
 20
97.86183599807464
 10
28.2850379396811
 20
97.85731856204711
  0
LINE
  5
37F
330
1F
100
AcDbEntity
  8
0
  6
Continuous
 62
     0
370
     0
100
AcDbLine
 10
28.2917327333823
 20
97.8688639817401
 30
0.0
 11
28.34702677024751
 21
97.76568744756423
 31
0.0
  0
LINE
  5
380
330
1F
100
AcDbEntity
  8
0
  6
Continuous
 62
     0
370
     0
100
AcDbLine
 10
28.34702677024751
 20
97.76568744756423
 30
0.0
 11
28.34702677024751
 21
97.99085412599288
 31
0.0
  0
LINE
  5
381
330
1F
100
AcDbEntity
  8
0
  6
Continuous
 62
     0
370
     0
100
AcDbLine
 10
28.40424246086033
 20
97.88412098266326
 30
0.0
 11
28.34702677024751
 21
97.99085412599288
 31
0.0
  0
LWPOLYLINE
  5
382
330
1F
100
AcDbEntity
  8
0
  6
Continuous
 62
     0
370
     0
100
AcDbPolyline
 90
        9
 70
   128
 43
0.0
 10
28.39751667274392
 20
97.87416015245162
 10
28.39764065040501
 20
97.87831340409957
 10
28.39801258338838
 20
97.88181964732848
 10
28.39863247169404
 20
97.88455490447723
 10
28.39946932090669
 20
97.88640294648849
 10
28.40049213661104
 20
97.8873017845317
 10
28.40166992439183
 20
97.88721267558776
 10
28.40290970100315
 20
97.88613561965667
 10
28.40424246086033
 20
97.88412098266326
  0
LINE
  5
383
330
1F
100
AcDbEntity
  8
0
  6
Continuous
 62
     0
370
     0
100
AcDbLine
 10
26.42562097801121
 20
96.39550183393203
 30
0.0
 11
28.30918258918679
 21
96.64785061456405
 31
0.0
  0
LINE
  5
384
330
1F
100
AcDbEntity
  8
0
  6
Continuous
 62
     0
370
     0
100
AcDbLine
 10
26.42562097801121
 20
96.39550183393203
 30
0.0
 11
26.40147632850564
 21
97.6049697814151
 31
0.0
  0
LINE
  5
385
330
1F
100
AcDbEntity
  8
0
  6
Continuous
 62
     0
370
     0
100
AcDbLine
 10
28.2850379396811
 20
97.85731856204711
 30
0.0
 11
26.40147632850564
 21
97.6049697814151
 31
0.0
  0
ARC
  5
386
330
1F
100
AcDbEntity
  8
0
  6
Continuous
 62
     0
370
     0
100
AcDbCircle
 10
26.47086780384468
 20
96.38824847626219
 30
0.0
 40
0.0458245179515391
100
AcDbArc
 50
170.8926043151438
 51
220.0446397945489
  0
LINE
  5
387
330
1F
100
AcDbEntity
  8
0
  6
Continuous
 62
     0
370
     0
100
AcDbLine
 10
29.83339494956883
 20
97.72865686990463
 30
0.0
 11
29.67002338661104
 21
98.03351793863021
 31
0.0
  0
LINE
  5
388
330
1F
100
AcDbEntity
  8
0
  6
Continuous
 62
     0
370
     0
100
AcDbLine
 10
29.67002338661104
 20
98.25868461705886
 30
0.0
 11
29.67002338661104
 21
98.03351793863021
 31
0.0
  0
LINE
  5
389
330
1F
100
AcDbEntity
  8
0
  6
Continuous
 62
     0
370
     0
100
AcDbLine
 10
29.67002338661104
 20
98.25868461705886
 30
0.0
 11
29.94599766029275
 21
97.74373952724181
 31
0.0
  0
LINE
  5
38A
330
1F
100
AcDbEntity
  8
0
  6
Continuous
 62
     0
370
     0
100
AcDbLine
 10
25.4589051653281
 20
97.60391984559737
 30
0.0
 11
26.46349615348726
 21
97.73850534536086
 31
0.0
  0
LINE
  5
38B
330
1F
100
AcDbEntity
  8
0
  6
Continuous
 62
     0
370
     0
100
AcDbLine
 10
25.4589051653281
 20
97.82908652402602
 30
0.0
 11
25.4589051653281
 21
97.60391984559737
 31
0.0
  0
LINE
  5
38C
330
1F
100
AcDbEntity
  8
0
  6
Continuous
 62
     0
370
     0
100
AcDbLine
 10
25.4589051653281
 20
97.82908652402602
 30
0.0
 11
29.35158676399143
 21
98.35060630418502
 31
0.0
  0
LINE
  5
38D
330
1F
100
AcDbEntity
  8
0
  6
Continuous
 62
     0
370
     0
100
AcDbLine
 10
29.35158676399143
 20
98.12543962575637
 30
0.0
 11
29.35158676399143
 21
98.35060630418502
 31
0.0
  0
LINE
  5
38E
330
1F
100
AcDbEntity
  8
0
  6
Continuous
 62
     0
370
     0
100
AcDbLine
 10
29.35158676399143
 20
98.12543962575637
 30
0.0
 11
28.34702677024751
 21
97.99085412599288
 31
0.0
  0
LINE
  5
38F
330
1F
100
AcDbEntity
  8
0
  6
Continuous
 62
     0
370
     0
100
AcDbLine
 10
26.46349615348726
 20
97.62764219619476
 30
0.0
 11
26.46349615348726
 21
97.73850534536086
 31
0.0
  0
LWPOLYLINE
  5
390
330
1F
100
AcDbEntity
  8
0
  6
Continuous
 62
     0
370
     0
100
AcDbPolyline
 90
        7
 70
   128
 43
0.0
 10
26.40147632850564
 20
97.6049697814151
 10
26.40153831733616
 20
97.60948721744262
 10
26.40184826148899
 20
97.61336151935302
 10
26.40243715537935
 20
97.61642221786224
 10
26.40327400459199
 20
97.61854146100723
 10
26.40429682029634
 20
97.61963788844787
 10
26.40473074211037
 20
97.61976961471282
  0
LINE
  5
391
330
1F
100
AcDbEntity
  8
0
  6
Continuous
 62
     0
370
     0
100
AcDbLine
 10
25.43844885124119
 20
97.13984433986388
 30
0.0
 11
25.2750772882834
 21
97.44470153428756
 31
0.0
  0
LINE
  5
392
330
1F
100
AcDbEntity
  8
0
  6
Continuous
 62
     0
370
     0
100
AcDbLine
 10
25.4589051653281
 20
97.60391984559737
 30
0.0
 11
25.2750772882834
 21
97.44470153428756
 31
0.0
  0
LINE
  5
393
330
1F
100
AcDbEntity
  8
0
  6
Continuous
 62
     0
370
     0
100
AcDbLine
 10
29.67002338661104
 20
98.03351793863021
 30
0.0
 11
29.35158676399143
 21
98.12543962575637
 31
0.0
  0
LINE
  5
394
330
1F
100
AcDbEntity
  8
0
  6
Continuous
 62
     0
370
     0
100
AcDbLine
 10
26.3488168169394
 20
97.2618112383052
 30
0.0
 11
26.23593515647801
 21
97.47249577619277
 31
0.0
  0
LWPOLYLINE
  5
395
330
1F
100
AcDbEntity
  8
0
  6
Continuous
 62
     0
370
     0
100
AcDbPolyline
 90
        9
 70
   128
 43
0.0
 10
26.23593515647801
 20
97.47249577619277
 10
26.18544525398171
 20
97.52367143012725
 10
26.09965271247776
 20
97.56129865028106
 10
25.99157518638528
 20
97.5796395955249
 10
25.87770170463472
 20
97.57590864278518
 10
25.7753271509543
 20
97.55067144014083
 10
25.70007271064675
 20
97.50776742078506
 10
25.66340631736668
 20
97.4537325320407
 10
25.6708759714499
 20
97.39678804256164
  0
LINE
  5
396
330
1F
100
AcDbEntity
  8
0
  6
Continuous
 62
     0
370
     0
100
AcDbLine
 10
25.6708759714499
 20
97.39678804256164
 30
0.0
 11
25.7837576319114
 21
97.18610737897598
 31
0.0
  0
LINE
  5
397
330
1F
100
AcDbEntity
  8
0
  6
Continuous
 62
     0
370
     0
100
AcDbLine
 10
28.89423317207246
 20
97.66040716745101
 30
0.0
 11
28.94425815833962
 21
97.60952983476363
 31
0.0
  0
LWPOLYLINE
  5
398
330
1F
100
AcDbEntity
  8
0
  6
Continuous
 62
     0
370
     0
100
AcDbPolyline
 90
       10
 70
   128
 43
0.0
 10
29.46685499442964
 20
97.6795500931903
 10
29.45929235710057
 20
97.73611102678024
 10
29.40883344901951
 20
97.78729055501663
 10
29.32300991310036
 20
97.82491777517043
 10
29.21496338142308
 20
97.84325872041427
 10
29.1010589052573
 20
97.83952776767455
 10
28.99871534599217
 20
97.8142866907283
 10
28.92346090568455
 20
97.77138654567443
 10
28.88676351798928
 20
97.71734778262817
 10
28.89423317207246
 20
97.66040716745101
  0
LINE
  5
399
330
1F
100
AcDbEntity
  8
0
  6
Continuous
 62
     0
370
     0
100
AcDbLine
 10
29.35158676399143
 20
98.35060630418502
 30
0.0
 11
29.67002338661104
 21
98.25868461705886
 31
0.0
  0
ARC
  5
39A
330
1F
100
AcDbEntity
  8
0
  6
Continuous
 62
     0
370
     0
100
AcDbCircle
 10
29.17676276458653
 20
98.28397617009841
 30
0.0
 40
0.5086359218058704
100
AcDbArc
 50
248.4661967274827
 51
291.5338032725202
  0
LINE
  5
39B
330
1F
100
AcDbEntity
  8
0
  6
Continuous
 62
     0
370
     0
100
AcDbLine
 10
25.2750772882834
 20
97.44470153428756
 30
0.0
 11
25.2750772882834
 21
97.66986821271621
 31
0.0
  0
LINE
  5
39C
330
1F
100
AcDbEntity
  8
0
  6
Continuous
 62
     0
370
     0
100
AcDbLine
 10
25.2750772882834
 20
97.66986821271621
 30
0.0
 11
25.4589051653281
 21
97.82908652402602
 31
0.0
  0
LINE
  5
39D
330
1F
100
AcDbEntity
  8
0
  6
Continuous
 62
     0
370
     0
100
AcDbLine
 10
25.722977583541
 20
97.52472524024688
 30
0.0
 11
25.83908266319192
 21
97.30803166009628
 31
0.0
  0
ARC
  5
39E
330
1F
100
AcDbEntity
  8
0
  6
Continuous
 62
     0
370
     0
100
AcDbCircle
 10
26.04223300195871
 20
97.46887271522738
 30
0.0
 40
0.2591136915655934
100
AcDbArc
 50
218.3698611780173
 51
259.2843596181808
  0
LINE
  5
39F
330
1F
100
AcDbEntity
  8
0
  6
Continuous
 62
     0
370
     0
100
AcDbLine
 10
124.4590968538657
 20
110.7439712104961
 30
0.0
 11
124.4590968538657
 21
110.40609334089
 31
0.0
  0
LINE
  5
3A0
330
1F
100
AcDbEntity
  8
0
  6
Continuous
 62
     0
370
     0
100
AcDbLine
 10
124.4422668863669
 20
110.4038384971782
 30
0.0
 11
124.4074291635886
 21
110.4688609061404
 31
0.0
  0
LWPOLYLINE
  5
3A1
330
1F
100
AcDbEntity
  8
0
  6
Continuous
 62
     0
370
     0
100
AcDbPolyline
 90
        9
 70
   128
 43
0.0
 10
124.4007033754722
 20
110.4573116121455
 10
124.4007343698874
 20
110.461832922475
 10
124.4010753084556
 20
110.4657033500835
 10
124.4016642023459
 20
110.4687640485927
 10
124.4025010515586
 20
110.4708871660396
 10
124.4035238672629
 20
110.4719797191783
 10
124.404732649459
 20
110.4719990906879
 10
124.4060344149009
 20
110.4709452805682
 10
124.4074291635886
 20
110.4688609061404
  0
LINE
  5
3A2
330
1F
100
AcDbEntity
  8
0
  6
Continuous
 62
     0
370
     0
100
AcDbLine
 10
124.4007033754722
 20
110.4573116121455
 30
0.0
 11
124.4086069513694
 21
110.0610480127498
 31
0.0
  0
LINE
  5
3A3
330
1F
100
AcDbEntity
  8
0
  6
Continuous
 62
     0
370
     0
100
AcDbLine
 10
124.4142169405356
 20
109.781013470666
 30
0.0
 11
124.415022795333
 21
109.7403526721164
 31
0.0
  0
ARC
  5
3A4
330
1F
100
AcDbEntity
  8
0
  6
Continuous
 62
     0
370
     0
100
AcDbCircle
 10
124.5797584135717
 20
109.7445240008549
 30
0.0
 40
0.1647884216197486
100
AcDbArc
 50
181.4504967051088
 51
192.9248913530131
  0
LINE
  5
3A5
330
1F
100
AcDbEntity
  8
0
  6
Continuous
 62
     0
370
     0
100
AcDbLine
 10
124.4191450525657
 20
109.7076651868983
 30
0.0
 11
124.4422668863669
 21
109.6082932171985
 31
0.0
  0
LINE
  5
3A6
330
1F
100
AcDbEntity
  8
0
  6
Continuous
 62
     0
370
     0
100
AcDbLine
 10
124.4422668863669
 20
109.6082932171985
 30
0.0
 11
124.4422668863669
 21
109.5745170531436
 31
0.0
  0
LINE
  5
3A7
330
1F
100
AcDbEntity
  8
0
  6
Continuous
 62
     0
370
     0
100
AcDbLine
 10
124.4422668863669
 20
109.5745170531436
 30
0.0
 11
124.3822616983787
 21
109.4819599805041
 31
0.0
  0
LWPOLYLINE
  5
3A8
330
1F
100
AcDbEntity
  8
0
  6
Continuous
 62
     0
370
     0
100
AcDbPolyline
 90
        9
 70
   128
 43
0.0
 10
124.3707627703086
 20
109.5176616726085
 10
124.3711656977073
 20
109.5106104431316
 10
124.3720955301658
 20
109.5032337722942
 10
124.3734592844382
 20
109.4961437997981
 10
124.3751329828635
 20
109.4899139223262
 10
124.3770236421958
 20
109.4850594220325
 10
124.3789452959434
 20
109.4819754777118
 10
124.3807429720298
 20
109.4809139189883
 10
124.3822616983787
 20
109.4819599805041
  0
LINE
  5
3A9
330
1F
100
AcDbEntity
  8
0
  6
Continuous
 62
     0
370
     0
100
AcDbLine
 10
124.3707627703086
 20
109.5176616726085
 30
0.0
 11
124.346618120803
 21
110.7271296200915
 31
0.0
  0
LWPOLYLINE
  5
3AA
330
1F
100
AcDbEntity
  8
0
  6
Continuous
 62
     0
370
     0
100
AcDbPolyline
 90
        9
 70
   128
 43
0.0
 10
124.3533129145041
 20
110.7386750397845
 10
124.3519491602317
 20
110.7407594142123
 10
124.3506473947898
 20
110.7418170986339
 10
124.3494386125937
 20
110.7417938528224
 10
124.3483848024741
 20
110.7407012996837
 10
124.3475789476767
 20
110.7385781822368
 10
124.3469900537864
 20
110.7355174837276
 10
124.3466491152182
 20
110.7316470561191
 10
124.346618120803
 20
110.7271296200915
  0
LINE
  5
3AB
330
1F
100
AcDbEntity
  8
0
  6
Continuous
 62
     0
370
     0
100
AcDbLine
 10
124.3533129145041
 20
110.7386750397845
 30
0.0
 11
124.4086069513694
 21
110.6354985056087
 31
0.0
  0
LINE
  5
3AC
330
1F
100
AcDbEntity
  8
0
  6
Continuous
 62
     0
370
     0
100
AcDbLine
 10
124.4086069513694
 20
110.6354985056087
 30
0.0
 11
124.4086069513694
 21
110.8606651840373
 31
0.0
  0
LINE
  5
3AD
330
1F
100
AcDbEntity
  8
0
  6
Continuous
 62
     0
370
     0
100
AcDbLine
 10
124.4658226419822
 20
110.7539320407077
 30
0.0
 11
124.4086069513694
 21
110.8606651840373
 31
0.0
  0
LWPOLYLINE
  5
3AE
330
1F
100
AcDbEntity
  8
0
  6
Continuous
 62
     0
370
     0
100
AcDbPolyline
 90
        9
 70
   128
 43
0.0
 10
124.4590968538657
 20
110.7439712104961
 10
124.4592208315269
 20
110.7481205878421
 10
124.4595927645103
 20
110.7516307053729
 10
124.4602126528159
 20
110.7543659625217
 10
124.4610495020286
 20
110.7562140045329
 10
124.4620723177329
 20
110.7571128425761
 10
124.4632501055137
 20
110.7570237336322
 10
124.464489882125
 20
110.7559466777011
 10
124.4658226419822
 20
110.7539320407077
  0
LINE
  5
3AF
330
1F
100
AcDbEntity
  8
0
  6
Continuous
 62
     0
370
     0
100
AcDbLine
 10
122.4872011591331
 20
109.2653128919765
 30
0.0
 11
124.3707627703086
 21
109.5176616726085
 31
0.0
  0
LINE
  5
3B0
330
1F
100
AcDbEntity
  8
0
  6
Continuous
 62
     0
370
     0
100
AcDbLine
 10
122.4872011591331
 20
109.2653128919765
 30
0.0
 11
122.4630565096274
 21
110.4747808394595
 31
0.0
  0
LINE
  5
3B1
330
1F
100
AcDbEntity
  8
0
  6
Continuous
 62
     0
370
     0
100
AcDbLine
 10
124.346618120803
 20
110.7271296200915
 30
0.0
 11
122.4630565096274
 21
110.4747808394595
 31
0.0
  0
ARC
  5
3B2
330
1F
100
AcDbEntity
  8
0
  6
Continuous
 62
     0
370
     0
100
AcDbCircle
 10
122.5323149108829
 20
109.2580227080678
 30
0.0
 40
0.0456989866229193
100
AcDbArc
 50
170.8206059952421
 51
220.116638114291
  0
LINE
  5
3B3
330
1F
100
AcDbEntity
  8
0
  6
Continuous
 62
     0
370
     0
100
AcDbLine
 10
125.8949751306907
 20
110.5984679279491
 30
0.0
 11
125.7316035677329
 21
110.9033289966746
 31
0.0
  0
LINE
  5
3B4
330
1F
100
AcDbEntity
  8
0
  6
Continuous
 62
     0
370
     0
100
AcDbLine
 10
125.7316035677329
 20
111.1284956751033
 30
0.0
 11
125.7316035677329
 21
110.9033289966746
 31
0.0
  0
LINE
  5
3B5
330
1F
100
AcDbEntity
  8
0
  6
Continuous
 62
     0
370
     0
100
AcDbLine
 10
125.7316035677329
 20
111.1284956751033
 30
0.0
 11
126.0075778414146
 21
110.6135505852862
 31
0.0
  0
LINE
  5
3B6
330
1F
100
AcDbEntity
  8
0
  6
Continuous
 62
     0
370
     0
100
AcDbLine
 10
121.52048534645
 20
110.4737309036418
 30
0.0
 11
122.5250453401939
 21
110.6083164034053
 31
0.0
  0
LINE
  5
3B7
330
1F
100
AcDbEntity
  8
0
  6
Continuous
 62
     0
370
     0
100
AcDbLine
 10
121.52048534645
 20
110.6988975820705
 30
0.0
 11
121.52048534645
 21
110.4737309036418
 31
0.0
  0
LINE
  5
3B8
330
1F
100
AcDbEntity
  8
0
  6
Continuous
 62
     0
370
     0
100
AcDbLine
 10
121.52048534645
 20
110.6988975820705
 30
0.0
 11
125.4131669451133
 21
111.2204173622295
 31
0.0
  0
LINE
  5
3B9
330
1F
100
AcDbEntity
  8
0
  6
Continuous
 62
     0
370
     0
100
AcDbLine
 10
125.4131669451133
 20
110.9952506838008
 30
0.0
 11
125.4131669451133
 21
111.2204173622295
 31
0.0
  0
LINE
  5
3BA
330
1F
100
AcDbEntity
  8
0
  6
Continuous
 62
     0
370
     0
100
AcDbLine
 10
125.4131669451133
 20
110.9952506838008
 30
0.0
 11
124.4086069513694
 21
110.8606651840373
 31
0.0
  0
LINE
  5
3BB
330
1F
100
AcDbEntity
  8
0
  6
Continuous
 62
     0
370
     0
100
AcDbLine
 10
122.5250453401939
 20
110.4974493799373
 30
0.0
 11
122.5250453401939
 21
110.6083164034053
 31
0.0
  0
LWPOLYLINE
  5
3BC
330
1F
100
AcDbEntity
  8
0
  6
Continuous
 62
     0
370
     0
100
AcDbPolyline
 90
        7
 70
   128
 43
0.0
 10
122.4630565096274
 20
110.4747808394595
 10
122.4630875040427
 20
110.4792982754871
 10
122.4634284426108
 20
110.4831725773975
 10
122.4640173365012
 20
110.4862332759067
 10
122.4648541857139
 20
110.4883525190517
 10
122.4658770014182
 20
110.4894450721904
 10
122.4663109232322
 20
110.4895806727573
  0
LINE
  5
3BD
330
1F
100
AcDbEntity
  8
0
  6
Continuous
 62
     0
370
     0
100
AcDbLine
 10
121.5000290323631
 20
110.0096515236064
 30
0.0
 11
121.3366574694053
 21
110.314512592332
 31
0.0
  0
LINE
  5
3BE
330
1F
100
AcDbEntity
  8
0
  6
Continuous
 62
     0
370
     0
100
AcDbLine
 10
121.52048534645
 20
110.4737309036418
 30
0.0
 11
121.3366574694053
 21
110.314512592332
 31
0.0
  0
LINE
  5
3BF
330
1F
100
AcDbEntity
  8
0
  6
Continuous
 62
     0
370
     0
100
AcDbLine
 10
125.7316035677329
 20
110.9033289966746
 30
0.0
 11
125.4131669451133
 21
110.9952506838008
 31
0.0
  0
LINE
  5
3C0
330
1F
100
AcDbEntity
  8
0
  6
Continuous
 62
     0
370
     0
100
AcDbLine
 10
122.4103969980613
 20
110.1316222963496
 30
0.0
 11
122.2975153375999
 21
110.3423029599353
 31
0.0
  0
LWPOLYLINE
  5
3C1
330
1F
100
AcDbEntity
  8
0
  6
Continuous
 62
     0
370
     0
100
AcDbPolyline
 90
        9
 70
   128
 43
0.0
 10
122.2975153375999
 20
110.3423029599353
 10
122.2470254351035
 20
110.3934824881717
 10
122.1612328935996
 20
110.4311097083255
 10
122.0531553675071
 20
110.4494506535693
 10
121.9392508913413
 20
110.4457197008296
 10
121.8369073320762
 20
110.4204786238834
 10
121.7616528917686
 20
110.3775784788295
 10
121.7249555040733
 20
110.3235435900851
 10
121.7324251581564
 20
110.2665991006061
  0
LINE
  5
3C2
330
1F
100
AcDbEntity
  8
0
  6
Continuous
 62
     0
370
     0
100
AcDbLine
 10
121.7324251581564
 20
110.2665991006061
 30
0.0
 11
121.8453378130332
 21
110.0559184370204
 31
0.0
  0
LINE
  5
3C3
330
1F
100
AcDbEntity
  8
0
  6
Continuous
 62
     0
370
     0
100
AcDbLine
 10
124.9558133531943
 20
110.5302182254954
 30
0.0
 11
125.0058383394614
 21
110.4793408928081
 31
0.0
  0
LWPOLYLINE
  5
3C4
330
1F
100
AcDbEntity
  8
0
  6
Continuous
 62
     0
370
     0
100
AcDbPolyline
 90
       10
 70
   128
 43
0.0
 10
125.5284351755515
 20
110.5493572769328
 10
125.5208725382224
 20
110.6059220848247
 10
125.4704136301414
 20
110.6571016130611
 10
125.3845900942222
 20
110.694724958913
 10
125.2765125681296
 20
110.7130697784587
 10
125.1626390863792
 20
110.709338825719
 10
125.060295527114
 20
110.6840977487727
 10
124.9850410868064
 20
110.641193729417
 10
124.9483436991111
 20
110.5871588406726
 10
124.9558133531943
 20
110.5302182254954
  0
LINE
  5
3C5
330
1F
100
AcDbEntity
  8
0
  6
Continuous
 62
     0
370
     0
100
AcDbLine
 10
125.4131669451133
 20
111.2204173622295
 30
0.0
 11
125.7316035677329
 21
111.1284956751033
 31
0.0
  0
ARC
  5
3C6
330
1F
100
AcDbEntity
  8
0
  6
Continuous
 62
     0
370
     0
100
AcDbCircle
 10
125.2383429457084
 20
111.1537872281424
 30
0.0
 40
0.5086359218054977
100
AcDbArc
 50
248.4661967274648
 51
291.533803272531
  0
LINE
  5
3C7
330
1F
100
AcDbEntity
  8
0
  6
Continuous
 62
     0
370
     0
100
AcDbLine
 10
121.3366574694053
 20
110.314512592332
 30
0.0
 11
121.3366574694053
 21
110.5396792707606
 31
0.0
  0
LINE
  5
3C8
330
1F
100
AcDbEntity
  8
0
  6
Continuous
 62
     0
370
     0
100
AcDbLine
 10
121.3366574694053
 20
110.5396792707606
 30
0.0
 11
121.52048534645
 21
110.6988975820705
 31
0.0
  0
LINE
  5
3C9
330
1F
100
AcDbEntity
  8
0
  6
Continuous
 62
     0
370
     0
100
AcDbLine
 10
121.7845267702476
 20
110.3945362982913
 30
0.0
 11
121.9006628443137
 21
110.1778427181407
 31
0.0
  0
ARC
  5
3CA
330
1F
100
AcDbEntity
  8
0
  6
Continuous
 62
     0
370
     0
100
AcDbCircle
 10
122.1039115181453
 20
110.3388303522971
 30
0.0
 40
0.2592817806279408
100
AcDbArc
 50
218.3817677017807
 51
259.2623014917182
  0
LWPOLYLINE
  5
3F7
330
1F
100
AcDbEntity
  8
0
  6
Continuous
 62
     0
370
     0
100
AcDbPolyline
 90
        5
 70
   128
 43
0.0
 10
138.453633253707
 20
110.3227842269107
 10
138.4415764261619
 20
110.3250080762073
 10
138.4061498094932
 20
110.3675169167682
 10
138.3707541872398
 20
110.4571566400691
 10
138.3561248232261
 20
110.5100408611461
  0
LWPOLYLINE
  5
3F8
330
1F
100
AcDbEntity
  8
0
  6
Continuous
 62
     0
370
     0
100
AcDbPolyline
 90
        5
 70
   128
 43
0.0
 10
12.88326210273659
 20
93.49954639054977
 10
12.87120527519136
 20
93.50177798845016
 10
12.83580965293797
 20
93.54427908040725
 10
12.80041403068455
 20
93.63387231208526
 10
12.78575367225559
 20
93.68680302478515
  0
LINE
  5
3F9
330
1F
100
AcDbEntity
  8
0
  6
Continuous
 62
     0
370
     0
100
AcDbLine
 10
138.5407275606528
 20
110.0324401674434
 30
0.0
 11
138.5407275606528
 21
110.031936508195
 31
0.0
  0
LINE
  5
3FA
330
1F
100
AcDbEntity
  8
0
  6
Continuous
 62
     0
370
     0
100
AcDbLine
 10
138.5407275606528
 20
110.031936508195
 30
0.0
 11
138.5276479174033
 21
110.0563988504573
 31
0.0
  0
ARC
  5
3FB
330
1F
100
AcDbEntity
  8
0
  6
Continuous
 62
     0
370
     0
100
AcDbCircle
 10
138.7115151586999
 20
110.1353892009555
 30
0.0
 40
0.2001165607685967
100
AcDbArc
 50
183.0699899945568
 51
203.2486187826997
  0
LINE
  5
3FC
330
1F
100
AcDbEntity
  8
0
  6
Continuous
 62
     0
370
     0
100
AcDbLine
 10
138.5116857935325
 20
110.1246717987224
 30
0.0
 11
138.4995359827415
 21
110.2690166649982
 31
0.0
  0
ARC
  5
3FD
330
1F
100
AcDbEntity
  8
0
  6
Continuous
 62
     0
370
     0
100
AcDbCircle
 10
138.7285320744671
 20
110.2886126798469
 30
0.0
 40
0.2298330129106007
100
AcDbArc
 50
180.0453434182863
 51
184.8910891816169
  0
LINE
  5
3FE
330
1F
100
AcDbEntity
  8
0
  6
Continuous
 62
     0
370
     0
100
AcDbLine
 10
138.4986991335288
 20
110.2884307918712
 30
0.0
 11
138.4986991335288
 21
110.3288203892871
 31
0.0
  0
LWPOLYLINE
  5
3FF
330
1F
100
AcDbEntity
  8
0
  6
Continuous
 62
     0
370
     0
100
AcDbPolyline
 90
        5
 70
   128
 43
0.0
 10
138.2846826959983
 20
110.5097580371066
 10
138.2872862268821
 20
110.5055582938357
 10
138.2898587633506
 20
110.5028346595927
 10
138.2922763277427
 20
110.5016491232082
 10
138.293299143447
 20
110.5016220030948
  0
LINE
  5
400
330
1F
100
AcDbEntity
  8
0
  6
Continuous
 62
     0
370
     0
100
AcDbLine
 10
138.2846826959983
 20
110.5097580371066
 30
0.0
 11
138.2715720583335
 21
110.5342203793689
 31
0.0
  0
LINE
  5
401
330
1F
100
AcDbEntity
  8
0
  6
Continuous
 62
     0
370
     0
100
AcDbLine
 10
138.2715720583335
 20
110.5342203793689
 30
0.0
 11
138.2715720583335
 21
111.5136942682429
 31
0.0
  0
ARC
  5
402
330
1F
100
AcDbEntity
  8
0
  6
Continuous
 62
     0
370
     0
100
AcDbCircle
 10
138.1393693852057
 20
111.5155781383902
 30
0.0
 40
0.132216094893389
100
AcDbArc
 50
359.1835981752721
 51
22.56022395141457
  0
LINE
  5
403
330
1F
100
AcDbEntity
  8
0
  6
Continuous
 62
     0
370
     0
100
AcDbLine
 10
138.2614678789512
 20
111.5663034138843
 30
0.0
 11
138.2278389383689
 21
111.6290903506442
 31
0.0
  0
ARC
  5
404
330
1F
100
AcDbEntity
  8
0
  6
Continuous
 62
     0
370
     0
100
AcDbCircle
 10
138.3088700874322
 20
111.6628107493737
 30
0.0
 40
0.0877673766783346
100
AcDbArc
 50
179.1162789576352
 51
202.5942063124632
  0
LINE
  5
405
330
1F
100
AcDbEntity
  8
0
  6
Continuous
 62
     0
370
     0
100
AcDbLine
 10
138.2211131502524
 20
111.6641644058391
 30
0.0
 11
138.2211131502524
 21
112.2045636592075
 31
0.0
  0
LINE
  5
406
330
1F
100
AcDbEntity
  8
0
  6
Continuous
 62
     0
370
     0
100
AcDbLine
 10
138.2547420908347
 20
112.2543600616618
 30
0.0
 11
138.2211131502524
 21
112.2045636592075
 31
0.0
  0
LINE
  5
407
330
1F
100
AcDbEntity
  8
0
  6
Continuous
 62
     0
370
     0
100
AcDbLine
 10
138.2547420908347
 20
112.2543600616618
 30
0.0
 11
138.2548350740806
 21
112.2541740951701
 31
0.0
  0
LINE
  5
408
330
1F
100
AcDbEntity
  8
0
  6
Continuous
 62
     0
370
     0
100
AcDbLine
 10
12.70120090736299
 20
93.71098254300796
 30
0.0
 11
138.2715720583335
 21
110.5342203793689
 31
0.0
  0
LINE
  5
409
330
1F
100
AcDbEntity
  8
0
  6
Continuous
 62
     0
370
     0
100
AcDbLine
 10
12.70120090736299
 20
93.71098254300796
 30
0.0
 11
12.70120090736299
 21
94.69045643188201
 31
0.0
  0
LINE
  5
40A
330
1F
100
AcDbEntity
  8
0
  6
Continuous
 62
     0
370
     0
100
AcDbLine
 10
12.71431154502781
 20
93.68652020074569
 30
0.0
 11
138.2846826959983
 21
110.5097580371066
 31
0.0
  0
LINE
  5
40B
330
1F
100
AcDbEntity
  8
0
  6
Continuous
 62
     0
370
     0
100
AcDbLine
 10
12.71431154502781
 20
93.68652020074569
 30
0.0
 11
12.70120090736299
 21
93.71098254300796
 31
0.0
  0
LWPOLYLINE
  5
40C
330
1F
100
AcDbEntity
  8
0
  6
Continuous
 62
     0
370
     0
100
AcDbPolyline
 90
        5
 70
   128
 43
0.0
 10
12.7229589868918
 20
93.67838416673385
 10
12.7219051767722
 20
93.67840741254531
 10
12.71948761238008
 20
93.6795968232318
 10
12.71694607032688
 20
93.68232045747482
 10
12.71431154502781
 20
93.68652020074569
  0
ARC
  5
40D
330
1F
100
AcDbEntity
  8
0
  6
Continuous
 62
     0
370
     0
100
AcDbCircle
 10
12.73976158482137
 20
94.8398150380049
 30
0.0
 40
0.0890265247655369
100
AcDbArc
 50
179.2846208799581
 51
202.4258643903688
  0
LINE
  5
40E
330
1F
100
AcDbEntity
  8
0
  6
Continuous
 62
     0
370
     0
100
AcDbLine
 10
138.2211131502524
 20
112.2045636592075
 30
0.0
 11
124.4027800012962
 21
110.3532594857379
 31
0.0
  0
LINE
  5
40F
330
1F
100
AcDbEntity
  8
0
  6
Continuous
 62
     0
370
     0
100
AcDbLine
 10
122.4706501413718
 20
110.0944018778964
 30
0.0
 11
28.34119982017427
 21
97.48344842769347
 31
0.0
  0
LINE
  5
410
330
1F
100
AcDbEntity
  8
0
  6
Continuous
 62
     0
370
     0
100
AcDbLine
 10
26.40906996025002
 20
97.22459081985198
 30
0.0
 11
12.65074199928193
 21
95.38132582284652
 31
0.0
  0
LINE
  5
411
330
1F
100
AcDbEntity
  8
0
  6
Continuous
 62
     0
370
     0
100
AcDbLine
 10
12.65074199928193
 20
94.84092656947814
 30
0.0
 11
12.65074199928193
 21
95.38132582284652
 31
0.0
  0
LINE
  5
412
330
1F
100
AcDbEntity
  8
0
  6
Continuous
 62
     0
370
     0
100
AcDbLine
 10
12.69112772239595
 20
94.74306557752334
 30
0.0
 11
12.65746778739845
 21
94.80585251428329
 31
0.0
  0
ARC
  5
413
330
1F
100
AcDbEntity
  8
0
  6
Continuous
 62
     0
370
     0
100
AcDbCircle
 10
12.56883191702288
 20
94.69238039976656
 30
0.0
 40
0.1323829719264655
100
AcDbArc
 50
359.1672711445938
 51
22.51143456097203
  0
LINE
  5
414
330
1F
100
AcDbEntity
  8
0
  6
Continuous
 62
     0
370
     0
100
AcDbLine
 10
12.68440193427952
 20
95.4311222253009
 30
0.0
 11
26.40817112220674
 21
97.26976130582534
 31
0.0
  0
LINE
  5
415
330
1F
100
AcDbEntity
  8
0
  6
Continuous
 62
     0
370
     0
100
AcDbLine
 10
28.34030098213108
 20
97.52861891366683
 30
0.0
 11
122.4697513033286
 21
110.1395723638698
 31
0.0
  0
LINE
  5
416
330
1F
100
AcDbEntity
  8
0
  6
Continuous
 62
     0
370
     0
100
AcDbLine
 10
124.401881163253
 20
110.3984299717113
 30
0.0
 11
138.2547420908347
 21
112.2543600616618
 31
0.0
  0
LINE
  5
417
330
1F
100
AcDbEntity
  8
0
  6
Continuous
 62
     0
370
     0
100
AcDbLine
 10
12.65074199928193
 20
95.38132582284652
 30
0.0
 11
12.68440193427952
 21
95.4311222253009
 31
0.0
  0
LINE
  5
418
330
1F
100
AcDbEntity
  8
0
  6
Continuous
 62
     0
370
     0
100
AcDbLine
 10
12.94131464256196
 20
93.30143396236144
 30
0.0
 11
138.5116857935325
 21
110.1246717987224
 31
0.0
  0
LINE
  5
419
330
1F
100
AcDbEntity
  8
0
  6
Continuous
 62
     0
370
     0
100
AcDbLine
 10
12.94131464256196
 20
93.30143396236144
 30
0.0
 11
12.92919582618626
 21
93.44577882863723
 31
0.0
  0
LINE
  5
41A
330
1F
100
AcDbEntity
  8
0
  6
Continuous
 62
     0
370
     0
100
AcDbLine
 10
138.4995359827415
 20
110.2690166649982
 30
0.0
 11
12.92919582618626
 21
93.44577882863723
 31
0.0
  0
LINE
  5
41B
330
1F
100
AcDbEntity
  8
0
  6
Continuous
 62
     0
370
     0
100
AcDbLine
 10
138.5276479174033
 20
110.0563988504573
 30
0.0
 11
12.95727676643281
 21
93.23316101409637
 31
0.0
  0
ARC
  5
41C
330
1F
100
AcDbEntity
  8
0
  6
Continuous
 62
     0
370
     0
100
AcDbCircle
 10
13.14282626586514
 20
93.31254467429378
 30
0.0
 40
0.2018176955718331
100
AcDbArc
 50
183.1559121261915
 51
203.1626966510811
  0
LINE
  5
41D
330
1F
100
AcDbEntity
  8
0
  6
Continuous
 62
     0
370
     0
100
AcDbLine
 10
12.92832798255833
 20
93.46518908120834
 30
0.0
 11
138.4986991335288
 21
110.2884307918712
 31
0.0
  0
ARC
  5
41E
330
1F
100
AcDbEntity
  8
0
  6
Continuous
 62
     0
370
     0
100
AcDbCircle
 10
13.16729847689312
 20
93.46614906315519
 30
0.0
 40
0.2389724225260169
100
AcDbArc
 50
180.2301648923163
 51
184.8898801410826
  0
LINE
  5
41F
330
1F
100
AcDbEntity
  8
0
  6
Continuous
 62
     0
370
     0
100
AcDbLine
 10
12.97038740409761
 20
93.2086986718341
 30
0.0
 11
138.5407275606528
 21
110.031936508195
 31
0.0
  0
LINE
  5
420
330
1F
100
AcDbEntity
  8
0
  6
Continuous
 62
     0
370
     0
100
AcDbLine
 10
12.97038740409761
 20
93.2086986718341
 30
0.0
 11
12.95727676643281
 21
93.23316101409637
 31
0.0
  0
LINE
  5
421
330
1F
100
AcDbEntity
  8
0
  6
Continuous
 62
     0
370
     0
100
AcDbLine
 10
12.92832798255833
 20
93.46518908120834
 30
0.0
 11
12.92832798255833
 21
93.50558255292617
 31
0.0
  0
LINE
  5
44E
330
1F
100
AcDbEntity
  8
0
  6
Continuous
 62
     0
370
     0
100
AcDbLine
 10
138.2849306513206
 20
110.5097890315219
 30
0.0
 11
138.2718200136558
 21
110.5342513737842
 31
0.0
  0
LINE
  5
44F
330
1F
100
AcDbEntity
  8
0
  6
Continuous
 62
     0
370
     0
100
AcDbLine
 10
138.2718200136558
 20
110.5342513737842
 30
0.0
 11
138.2718200136558
 21
111.5137291369601
 31
0.0
  0
LWPOLYLINE
  5
450
330
1F
100
AcDbEntity
  8
0
  6
Continuous
 62
     0
370
     0
100
AcDbPolyline
 90
        5
 70
   128
 43
0.0
 10
138.2935780931846
 20
110.501656871812
 10
138.2925242830649
 20
110.5016801176234
 10
138.2901067186729
 20
110.5028695283099
 10
138.2875341822044
 20
110.5055931625529
 10
138.2849306513206
 20
110.5097890315219
  0
ARC
  5
451
330
1F
100
AcDbEntity
  8
0
  6
Continuous
 62
     0
370
     0
100
AcDbCircle
 10
138.3091654629472
 20
111.662850837068
 30
0.0
 40
0.0878146515323988
100
AcDbArc
 50
179.1226884700909
 51
202.5877968001172
  0
LINE
  5
455
330
1F
100
AcDbEntity
  8
0
  6
Continuous
 62
     0
370
     0
100
AcDbLine
 10
138.2213611055747
 20
111.6641954002544
 30
0.0
 11
138.2213611055747
 21
112.2045985279246
 31
0.0
  0
LINE
  5
456
330
1F
100
AcDbEntity
  8
0
  6
Continuous
 62
     0
370
     0
100
AcDbLine
 10
138.2617158342734
 20
111.5663382826015
 30
0.0
 11
138.2280868936912
 21
111.6291213450595
 31
0.0
  0
ARC
  5
457
330
1F
100
AcDbEntity
  8
0
  6
Continuous
 62
     0
370
     0
100
AcDbCircle
 10
138.1396173405283
 20
111.5156130071074
 30
0.0
 40
0.1322160948931297
100
AcDbArc
 50
359.1835981752457
 51
22.56022395143908
  0
LINE
  5
45B
330
1F
100
AcDbEntity
  8
0
  6
Continuous
 62
     0
370
     0
100
AcDbLine
 10
138.2213611055747
 20
112.2045985279246
 30
0.0
 11
138.254990046157
 21
112.254394930379
 31
0.0
  0
LINE
  5
45D
330
1F
100
AcDbEntity
  8
0
  6
Continuous
 62
     0
370
     0
100
AcDbLine
 10
138.5119337488547
 20
110.1247066674396
 30
0.0
 11
138.4997839380637
 21
110.2690515337154
 31
0.0
  0
ARC
  5
460
330
1F
100
AcDbEntity
  8
0
  6
Continuous
 62
     0
370
     0
100
AcDbCircle
 10
138.7117418774927
 20
110.1354191046005
 30
0.0
 40
0.2000950888446156
100
AcDbArc
 50
183.0688959913347
 51
203.2497127859219
  0
ARC
  5
462
330
1F
100
AcDbEntity
  8
0
  6
Continuous
 62
     0
370
     0
100
AcDbCircle
 10
138.7285836886706
 20
110.2886391202498
 30
0.0
 40
0.2296366682914847
100
AcDbArc
 50
180.0442459331542
 51
184.8931707639271
  0
LINE
  5
464
330
1F
100
AcDbEntity
  8
0
  6
Continuous
 62
     0
370
     0
100
AcDbLine
 10
138.5410065103904
 20
110.0319713769122
 30
0.0
 11
138.5278958727256
 21
110.0564337191745
 31
0.0
  0
LINE
  5
465
330
1F
100
AcDbEntity
  8
0
  6
Continuous
 62
     0
370
     0
100
AcDbLine
 10
138.4989470888511
 20
110.2884617862865
 30
0.0
 11
138.4989470888511
 21
110.3288552580043
 31
0.0
  0
LWPOLYLINE
  5
46F
330
1F
100
AcDbEntity
  8
0
  6
Continuous
 62
     0
370
     0
100
AcDbPolyline
 90
        5
 70
   128
 43
0.0
 10
138.4538812090293
 20
110.3228190956279
 10
138.4417933870689
 20
110.3250506935283
 10
138.4063977648154
 20
110.3675479111835
 10
138.371002142562
 20
110.4571411428615
 10
138.3563727785483
 20
110.5100718555614
  0
LINE
  5
475
330
1F
100
AcDbEntity
  8
0
  6
Continuous
 62
     0
370
     0
100
AcDbLine
 10
28.40424246086033
 20
97.88412098266326
 30
0.0
 11
28.39832252754121
 21
97.88332675077163
 31
0.0
  0
LINE
  5
476
330
1F
100
AcDbEntity
  8
0
  6
Continuous
 62
     0
370
     0
100
AcDbLine
 10
28.34584898246675
 20
97.599049848096
 30
0.0
 11
28.33989805473237
 21
97.59825561620437
 31
0.0
  0
LINE
  5
477
330
1F
100
AcDbEntity
  8
0
  6
Continuous
 62
     0
370
     0
100
AcDbLine
 10
25.6708759714499
 20
97.47249577619277
 30
0.0
 11
25.6708759714499
 21
97.39678804256164
 31
0.0
  0
LINE
  5
478
330
1F
100
AcDbEntity
  8
0
  6
Continuous
 62
     0
370
     0
100
AcDbLine
 10
25.83908266319192
 20
97.30803166009628
 30
0.0
 11
25.83908266319192
 21
97.19351891853057
 31
0.0
  0
LINE
  5
479
330
1F
100
AcDbEntity
  8
0
  6
Continuous
 62
     0
370
     0
100
AcDbLine
 10
124.4658226419822
 20
110.7539320407077
 30
0.0
 11
124.4598717142478
 21
110.7531378088161
 31
0.0
  0
LINE
  5
47A
330
1F
100
AcDbEntity
  8
0
  6
Continuous
 62
     0
370
     0
100
AcDbLine
 10
124.4074291635886
 20
110.4688609061404
 30
0.0
 11
124.4014782358543
 21
110.4680666742488
 31
0.0
  0
LINE
  5
47B
330
1F
100
AcDbEntity
  8
0
  6
Continuous
 62
     0
370
     0
100
AcDbLine
 10
121.7324251581564
 20
110.3423029599353
 30
0.0
 11
121.7324251581564
 21
110.2665991006061
 31
0.0
  0
LINE
  5
47C
330
1F
100
AcDbEntity
  8
0
  6
Continuous
 62
     0
370
     0
100
AcDbLine
 10
121.9006628443137
 20
110.1778427181407
 30
0.0
 11
121.9006628443137
 21
110.063329976575
 31
0.0
  0
LINE
  5
481
330
1F
100
AcDbEntity
  8
0
  6
Continuous
 62
     0
370
     0
100
AcDbLine
 10
138.2715720583335
 20
111.5136942682429
 30
0.0
 11
124.4303960253135
 21
109.6593255219623
 31
0.0
  0
LINE
  5
482
330
1F
100
AcDbEntity
  8
0
  6
Continuous
 62
     0
370
     0
100
AcDbLine
 10
122.4845356394187
 20
109.3986314950153
 30
0.0
 11
28.36881584419163
 21
96.78951833821975
 31
0.0
  0
LINE
  5
483
330
1F
100
AcDbEntity
  8
0
  6
Continuous
 62
     0
370
     0
100
AcDbLine
 10
26.42295545829683
 20
96.52882043697082
 30
0.0
 11
12.70120090736299
 21
94.69045643188201
 31
0.0
  0
LINE
  5
484
330
1F
100
AcDbEntity
  8
0
  6
Continuous
 62
     0
370
     0
100
AcDbLine
 10
12.65074199928193
 20
94.84092656947814
 30
0.0
 11
26.41982502235325
 21
96.68563280679427
 31
0.0
  0
LINE
  5
485
330
1F
100
AcDbEntity
  8
0
  6
Continuous
 62
     0
370
     0
100
AcDbLine
 10
28.34702677024751
 20
96.943831783311
 30
0.0
 11
122.481405203475
 21
109.5554438648387
 31
0.0
  0
LINE
  5
486
330
1F
100
AcDbEntity
  8
0
  6
Continuous
 62
     0
370
     0
100
AcDbLine
 10
124.4086069513694
 20
109.8136389670535
 30
0.0
 11
138.2211131502524
 21
111.6641644058391
 31
0.0
  0
LINE
  5
487
330
1F
100
AcDbEntity
  8
0
  6
Continuous
 62
     0
370
     0
100
AcDbLine
 10
138.2278389383689
 20
111.6290903506442
 30
0.0
 11
124.4142479349509
 21
109.778421562688
 31
0.0
  0
LINE
  5
488
330
1F
100
AcDbEntity
  8
0
  6
Continuous
 62
     0
370
     0
100
AcDbLine
 10
122.4821180750266
 20
109.5195639548465
 30
0.0
 11
28.35266775382905
 21
96.90861050464355
 31
0.0
  0
LINE
  5
489
330
1F
100
AcDbEntity
  8
0
  6
Continuous
 62
     0
370
     0
100
AcDbLine
 10
26.42053789390481
 20
96.64975289680206
 30
0.0
 11
12.65746778739845
 21
94.80585251428329
 31
0.0
  0
LINE
  5
48A
330
1F
100
AcDbEntity
  8
0
  6
Continuous
 62
     0
370
     0
100
AcDbLine
 10
12.69112772239595
 20
94.74306557752334
 30
0.0
 11
26.42190164817723
 21
96.5826422391101
 31
0.0
  0
LINE
  5
48B
330
1F
100
AcDbEntity
  8
0
  6
Continuous
 62
     0
370
     0
100
AcDbLine
 10
28.35669702781587
 20
96.84185628272735
 30
0.0
 11
122.4834508348838
 21
109.4524532971545
 31
0.0
  0
LINE
  5
48C
330
1F
100
AcDbEntity
  8
0
  6
Continuous
 62
     0
370
     0
100
AcDbLine
 10
124.4182772089378
 20
109.7116673407718
 30
0.0
 11
138.2614678789512
 21
111.5663034138843
 31
0.0
  0
MTEXT
  5
4BC
330
1F
100
AcDbEntity
  8
0
 62
     7
100
AcDbMText
 10
195.2547007821189
 20
83.25380871887641
 30
0.0
 40
3.031684027777777
 41
0.0
 46
3.083222656249999
 71
     1
 72
     1
  1
{HAC-D/W82T}
  7
Arial
 73
     1
 44
0.9673603504928806
  0
MTEXT
  5
4D8
330
1F
100
AcDbEntity
  8
0
 62
     7
100
AcDbMText
 10
160.2547007821189
 20
83.25380871887644
 30
0.0
 40
3.031684027777777
 41
0.0
 46
3.083222656249999
 71
     1
 72
     1
  1
{HAC-D/W42T}
  7
Arial
 73
     1
 44
0.9673603504928806
  0
MTEXT
  5
4D9
330
1F
100
AcDbEntity
  8
0
 62
     7
100
AcDbMText
 10
195.2547007821189
 20
76.25380871887641
 30
0.0
 40
3.031684027777777
 41
0.0
 46
3.083222656249999
 71
     1
 72
     1
  1
{HAC-D/H/B116T}
  7
Arial
 73
     1
 44
0.9673603504928806
  0
MTEXT
  5
4DA
330
1F
100
AcDbEntity
  8
0
 62
     7
100
AcDbMText
 10
160.2547007821189
 20
76.25380871887644
 30
0.0
 40
3.031684027777777
 41
0.0
 46
3.083222656249999
 71
     1
 72
     1
  1
{HAC-D/H/B54T}
  7
Arial
 73
     1
 44
0.9673603504928806
  0
LINE
  5
4FF
330
1F
100
AcDbEntity
  8
FORMAT
100
AcDbLine
 10
297.0000000000002
 20
-0.0000000000001887
 30
0.0
 11
297.0000000000001
 21
209.9999999999998
 31
0.0
  0
LINE
  5
500
330
1F
100
AcDbEntity
  8
FORMAT
100
AcDbLine
 10
297.0000000000001
 20
209.9999999999998
 30
0.0
 11
0.0000000000000568
 21
210.0
 31
0.0
  0
LINE
  5
501
330
1F
100
AcDbEntity
  8
FORMAT
100
AcDbLine
 10
0.0000000000000568
 20
210.0
 30
0.0
 11
0.0
 21
0.0
 31
0.0
  0
LINE
  5
502
330
1F
100
AcDbEntity
  8
FORMAT
100
AcDbLine
 10
0.0
 20
0.0
 30
0.0
 11
297.0
 21
0.0000000000000671
 31
0.0
  0
ENDSEC
  0
SECTION
  2
OBJECTS
  0
DICTIONARY
  5
C
330
0
100
AcDbDictionary
281
     1
  3
ACAD_DETAILVIEWSTYLE
350
1AB
  3
ACAD_GROUP
350
D
  3
ACAD_LAYOUT
350
1A
  3
ACAD_MATERIAL
350
18F
  3
ACAD_MLEADERSTYLE
350
195
  3
ACAD_MLINESTYLE
350
17
  3
ACAD_PLOTSETTINGS
350
19
  3
ACAD_PLOTSTYLENAME
350
E
  3
ACAD_SCALELIST
350
47
  3
ACAD_SECTIONVIEWSTYLE
350
1AC
  3
ACAD_TABLESTYLE
350
193
  3
ACAD_VISUALSTYLE
350
176
  3
ACDB_RECOMPOSE_DATA
350
508
  3
AcDbVariableDictionary
350
1A6
  3
APPDATA
350
197
  0
SUN
  5
4A8
330
29
100
AcDbSun
 90
        1
290
     0
 63
     7
421
 16777215
 40
1.0
291
     1
 91
  2455826
 92
 54000000
292
     0
 70
     2
 71
   256
280
     1
  0
DICTIONARY
  5
4C1
330
2
100
AcDbDictionary
280
     1
281
     1
  3
ACAD_LAYERSTATES
360
4C2
  0
DICTIONARY
  5
1AB
102
{ACAD_REACTORS
330
C
102
}
330
C
100
AcDbDictionary
281
     1
  0
DICTIONARY
  5
D
102
{ACAD_REACTORS
330
C
102
}
330
C
100
AcDbDictionary
281
     1
  0
DICTIONARY
  5
1A
102
{ACAD_REACTORS
330
C
102
}
330
C
100
AcDbDictionary
281
     1
  3
Layout1
350
1E
  3
Layout2
350
26
  3
Model
350
22
  0
DICTIONARY
  5
18F
102
{ACAD_REACTORS
330
C
102
}
330
C
100
AcDbDictionary
281
     1
  3
ByBlock
350
191
  3
ByLayer
350
190
  3
Global
350
192
  0
DICTIONARY
  5
195
102
{ACAD_REACTORS
330
C
102
}
330
C
100
AcDbDictionary
281
     1
  3
Standard
350
196
  0
DICTIONARY
  5
17
102
{ACAD_REACTORS
330
C
102
}
330
C
100
AcDbDictionary
281
     1
  3
Standard
350
18
  0
DICTIONARY
  5
19
102
{ACAD_REACTORS
330
C
102
}
330
C
100
AcDbDictionary
281
     1
  0
ACDBDICTIONARYWDFLT
  5
E
102
{ACAD_REACTORS
330
C
102
}
330
C
100
AcDbDictionary
281
     1
  3
Normal
350
F
100
AcDbDictionaryWithDefault
340
F
  0
DICTIONARY
  5
47
102
{ACAD_REACTORS
330
C
102
}
330
C
100
AcDbDictionary
281
     1
  3
A0
350
48
  3
A1
350
49
  3
A2
350
4A
  3
A3
350
4B
  3
A4
350
4C
  3
A5
350
4D
  3
A6
350
4E
  3
A7
350
4F
  3
A8
350
50
  3
A9
350
51
  3
B0
350
52
  3
B1
350
53
  3
B2
350
54
  3
B3
350
55
  3
B4
350
56
  3
B5
350
57
  3
B6
350
58
  3
B7
350
59
  3
B8
350
5A
  3
B9
350
5B
  3
C0
350
5C
  3
C1
350
5D
  3
C2
350
5E
  3
C3
350
5F
  3
C4
350
60
  3
C5
350
61
  3
C6
350
62
  3
C7
350
63
  3
C8
350
64
  3
C9
350
65
  3
D0
350
66
  3
D1
350
67
  3
D2
350
68
  0
DICTIONARY
  5
1AC
102
{ACAD_REACTORS
330
C
102
}
330
C
100
AcDbDictionary
281
     1
  0
DICTIONARY
  5
193
102
{ACAD_REACTORS
330
C
102
}
330
C
100
AcDbDictionary
281
     1
  3
Standard
350
194
  0
DICTIONARY
  5
176
102
{ACAD_REACTORS
330
C
102
}
330
C
100
AcDbDictionary
281
     1
  3
2dWireframe
350
17B
  3
Basic
350
17E
  3
Brighten
350
182
  3
ColorChange
350
186
  3
Conceptual
350
180
  3
Dim
350
181
  3
EdgeColorOff
350
189
  3
Facepattern
350
185
  3
Flat
350
177
  3
FlatWithEdges
350
178
  3
Gouraud
350
179
  3
GouraudWithEdges
350
17A
  3
Hidden
350
17D
  3
JitterOff
350
187
  3
Linepattern
350
184
  3
OverhangOff
350
188
  3
Realistic
350
17F
  3
Shaded
350
18E
  3
Shaded with edges
350
18D
  3
Shades of Gray
350
18A
  3
Sketchy
350
18B
  3
Thicken
350
183
  3
Wireframe
350
17C
  3
X-Ray
350
18C
  0
XRECORD
  5
508
102
{ACAD_REACTORS
330
C
102
}
330
C
100
AcDbXrecord
280
     1
 90
        1
330
194
  0
DICTIONARY
  5
1A6
102
{ACAD_REACTORS
330
C
102
}
330
C
100
AcDbDictionary
281
     1
  3
CANNOSCALE
350
1A7
  3
CMLEADERSTYLE
350
1A9
  3
CTABLESTYLE
350
1A8
  3
MSLTSCALE
350
1AA
  0
DICTIONARY
  5
197
102
{ACAD_REACTORS
330
C
102
}
330
C
100
AcDbDictionary
281
     1
  0
DICTIONARY
  5
4C2
102
{ACAD_REACTORS
330
4C1
102
}
330
4C1
100
AcDbDictionary
281
     1
  0
LAYOUT
  5
1E
102
{ACAD_REACTORS
330
1A
102
}
330
1A
100
AcDbPlotSettings
  1

  2
none_device
  4

  6

 40
0.0
 41
0.0
 42
0.0
 43
0.0
 44
0.0
 45
0.0
 46
0.0
 47
0.0
 48
0.0
 49
0.0
140
0.0
141
0.0
142
1.0
143
1.0
 70
   688
 72
     1
 73
     0
 74
     5
  7

 75
    16
 76
     0
 77
     2
 78
   300
147
1.0
148
0.0
149
0.0
100
AcDbLayout
  1
Layout1
 70
     1
 71
     1
 10
0.0
 20
0.0
 11
420.0
 21
297.0
 12
0.0
 22
0.0
 32
0.0
 14
1.000000000000000E+20
 24
1.000000000000000E+20
 34
1.000000000000000E+20
 15
-1.000000000000000E+20
 25
-1.000000000000000E+20
 35
-1.000000000000000E+20
146
0.0
 13
0.0
 23
0.0
 33
0.0
 16
1.0
 26
0.0
 36
0.0
 17
0.0
 27
1.0
 37
0.0
 76
     0
330
1B
  0
LAYOUT
  5
26
102
{ACAD_REACTORS
330
1A
102
}
330
1A
100
AcDbPlotSettings
  1

  2
none_device
  4

  6

 40
0.0
 41
0.0
 42
0.0
 43
0.0
 44
0.0
 45
0.0
 46
0.0
 47
0.0
 48
0.0
 49
0.0
140
0.0
141
0.0
142
1.0
143
1.0
 70
   688
 72
     1
 73
     0
 74
     5
  7

 75
    16
 76
     0
 77
     2
 78
   300
147
1.0
148
0.0
149
0.0
100
AcDbLayout
  1
Layout2
 70
     1
 71
     2
 10
0.0
 20
0.0
 11
0.0
 21
0.0
 12
0.0
 22
0.0
 32
0.0
 14
0.0
 24
0.0
 34
0.0
 15
0.0
 25
0.0
 35
0.0
146
0.0
 13
0.0
 23
0.0
 33
0.0
 16
1.0
 26
0.0
 36
0.0
 17
0.0
 27
1.0
 37
0.0
 76
     0
330
23
  0
LAYOUT
  5
22
102
{ACAD_REACTORS
330
1A
102
}
330
1A
100
AcDbPlotSettings
  1

  2
none_device
  4
Letter_(8.50_x_11.00_Inches)
  6

 40
6.35
 41
6.35
 42
6.35000508
 43
6.35000508
 44
215.9
 45
279.4
 46
0.0
 47
0.0
 48
0.0
 49
0.0
140
0.0
141
0.0
142
1.0
143
1.0
 70
  1712
 72
     1
 73
     0
 74
     0
  7

 75
     0
 76
     0
 77
     2
 78
   300
147
1.0
148
0.0
149
0.0
100
AcDbLayout
  1
Model
 70
     1
 71
     0
 10
0.0
 20
0.0
 11
210.0
 21
297.0
 12
0.0
 22
0.0
 32
0.0
 14
0.0
 24
-0.000000000000199
 34
0.0
 15
297.0000000000002
 25
210.0
 35
0.0
146
0.0
 13
0.0
 23
0.0
 33
0.0
 16
1.0
 26
0.0
 36
0.0
 17
0.0
 27
1.0
 37
0.0
 76
     0
330
1F
331
29
  0
MATERIAL
  5
191
102
{ACAD_REACTORS
330
18F
102
}
330
18F
100
AcDbMaterial
  1
ByBlock
 72
     1
 94
      127
  0
MATERIAL
  5
190
102
{ACAD_REACTORS
330
18F
102
}
330
18F
100
AcDbMaterial
  1
ByLayer
 72
     1
 94
      127
  0
MATERIAL
  5
192
102
{ACAD_REACTORS
330
18F
102
}
330
18F
100
AcDbMaterial
  1
Global
 72
     1
 94
      127
  0
MLEADERSTYLE
  5
196
102
{ACAD_REACTORS
330
195
102
}
330
195
100
AcDbMLeaderStyle
179
     2
170
     2
171
     1
172
     0
 90
        2
 40
0.0
 41
0.0
173
     1
 91
-1056964608
340
14
 92
       -2
290
     1
 42
2.0
291
     1
 43
8.0
  3
Standard
341
0
 44
4.0
300

342
11
174
     1
178
     1
175
     1
176
     0
 93
-1056964608
 45
4.0
292
     0
297
     0
 46
4.0
343
0
 94
-1056964608
 47
1.0
 49
1.0
140
1.0
293
     1
141
0.0
294
     1
177
     0
142
1.0
295
     0
296
     0
143
3.75
271
     0
272
     9
273
     9
298
     0
  0
MLINESTYLE
  5
18
102
{ACAD_REACTORS
330
17
102
}
330
17
100
AcDbMlineStyle
  2
Standard
 70
     0
  3

 62
   256
 51
90.0
 52
90.0
 71
     2
 49
0.5
 62
   256
  6
BYLAYER
 49
-0.5
 62
   256
  6
BYLAYER
  0
ACDBPLACEHOLDER
  5
F
102
{ACAD_REACTORS
330
E
102
}
330
E
  0
SCALE
  5
48
102
{ACAD_REACTORS
330
47
102
}
330
47
100
AcDbScale
 70
     0
300
1:1
140
1.0
141
1.0
290
     1
  0
SCALE
  5
49
102
{ACAD_REACTORS
330
47
102
}
330
47
100
AcDbScale
 70
     0
300
1:2
140
1.0
141
2.0
290
     0
  0
SCALE
  5
4A
102
{ACAD_REACTORS
330
47
102
}
330
47
100
AcDbScale
 70
     0
300
1:4
140
1.0
141
4.0
290
     0
  0
SCALE
  5
4B
102
{ACAD_REACTORS
330
47
102
}
330
47
100
AcDbScale
 70
     0
300
1:5
140
1.0
141
5.0
290
     0
  0
SCALE
  5
4C
102
{ACAD_REACTORS
330
47
102
}
330
47
100
AcDbScale
 70
     0
300
1:8
140
1.0
141
8.0
290
     0
  0
SCALE
  5
4D
102
{ACAD_REACTORS
330
47
102
}
330
47
100
AcDbScale
 70
     0
300
1:10
140
1.0
141
10.0
290
     0
  0
SCALE
  5
4E
102
{ACAD_REACTORS
330
47
102
}
330
47
100
AcDbScale
 70
     0
300
1:16
140
1.0
141
16.0
290
     0
  0
SCALE
  5
4F
102
{ACAD_REACTORS
330
47
102
}
330
47
100
AcDbScale
 70
     0
300
1:20
140
1.0
141
20.0
290
     0
  0
SCALE
  5
50
102
{ACAD_REACTORS
330
47
102
}
330
47
100
AcDbScale
 70
     0
300
1:30
140
1.0
141
30.0
290
     0
  0
SCALE
  5
51
102
{ACAD_REACTORS
330
47
102
}
330
47
100
AcDbScale
 70
     0
300
1:40
140
1.0
141
40.0
290
     0
  0
SCALE
  5
52
102
{ACAD_REACTORS
330
47
102
}
330
47
100
AcDbScale
 70
     0
300
1:50
140
1.0
141
50.0
290
     0
  0
SCALE
  5
53
102
{ACAD_REACTORS
330
47
102
}
330
47
100
AcDbScale
 70
     0
300
1:100
140
1.0
141
100.0
290
     0
  0
SCALE
  5
54
102
{ACAD_REACTORS
330
47
102
}
330
47
100
AcDbScale
 70
     0
300
2:1
140
2.0
141
1.0
290
     0
  0
SCALE
  5
55
102
{ACAD_REACTORS
330
47
102
}
330
47
100
AcDbScale
 70
     0
300
4:1
140
4.0
141
1.0
290
     0
  0
SCALE
  5
56
102
{ACAD_REACTORS
330
47
102
}
330
47
100
AcDbScale
 70
     0
300
8:1
140
8.0
141
1.0
290
     0
  0
SCALE
  5
57
102
{ACAD_REACTORS
330
47
102
}
330
47
100
AcDbScale
 70
     0
300
10:1
140
10.0
141
1.0
290
     0
  0
SCALE
  5
58
102
{ACAD_REACTORS
330
47
102
}
330
47
100
AcDbScale
 70
     0
300
100:1
140
100.0
141
1.0
290
     0
  0
SCALE
  5
59
102
{ACAD_REACTORS
330
47
102
}
330
47
100
AcDbScale
 70
     0
300
1/128" = 1'-0"
140
0.0078125
141
12.0
290
     0
  0
SCALE
  5
5A
102
{ACAD_REACTORS
330
47
102
}
330
47
100
AcDbScale
 70
     0
300
1/64" = 1'-0"
140
0.015625
141
12.0
290
     0
  0
SCALE
  5
5B
102
{ACAD_REACTORS
330
47
102
}
330
47
100
AcDbScale
 70
     0
300
1/32" = 1'-0"
140
0.03125
141
12.0
290
     0
  0
SCALE
  5
5C
102
{ACAD_REACTORS
330
47
102
}
330
47
100
AcDbScale
 70
     0
300
1/16" = 1'-0"
140
0.0625
141
12.0
290
     0
  0
SCALE
  5
5D
102
{ACAD_REACTORS
330
47
102
}
330
47
100
AcDbScale
 70
     0
300
3/32" = 1'-0"
140
0.09375
141
12.0
290
     0
  0
SCALE
  5
5E
102
{ACAD_REACTORS
330
47
102
}
330
47
100
AcDbScale
 70
     0
300
1/8" = 1'-0"
140
0.125
141
12.0
290
     0
  0
SCALE
  5
5F
102
{ACAD_REACTORS
330
47
102
}
330
47
100
AcDbScale
 70
     0
300
3/16" = 1'-0"
140
0.1875
141
12.0
290
     0
  0
SCALE
  5
60
102
{ACAD_REACTORS
330
47
102
}
330
47
100
AcDbScale
 70
     0
300
1/4" = 1'-0"
140
0.25
141
12.0
290
     0
  0
SCALE
  5
61
102
{ACAD_REACTORS
330
47
102
}
330
47
100
AcDbScale
 70
     0
300
3/8" = 1'-0"
140
0.375
141
12.0
290
     0
  0
SCALE
  5
62
102
{ACAD_REACTORS
330
47
102
}
330
47
100
AcDbScale
 70
     0
300
1/2" = 1'-0"
140
0.5
141
12.0
290
     0
  0
SCALE
  5
63
102
{ACAD_REACTORS
330
47
102
}
330
47
100
AcDbScale
 70
     0
300
3/4" = 1'-0"
140
0.75
141
12.0
290
     0
  0
SCALE
  5
64
102
{ACAD_REACTORS
330
47
102
}
330
47
100
AcDbScale
 70
     0
300
1" = 1'-0"
140
1.0
141
12.0
290
     0
  0
SCALE
  5
65
102
{ACAD_REACTORS
330
47
102
}
330
47
100
AcDbScale
 70
     0
300
1-1/2" = 1'-0"
140
1.5
141
12.0
290
     0
  0
SCALE
  5
66
102
{ACAD_REACTORS
330
47
102
}
330
47
100
AcDbScale
 70
     0
300
3" = 1'-0"
140
3.0
141
12.0
290
     0
  0
SCALE
  5
67
102
{ACAD_REACTORS
330
47
102
}
330
47
100
AcDbScale
 70
     0
300
6" = 1'-0"
140
6.0
141
12.0
290
     0
  0
SCALE
  5
68
102
{ACAD_REACTORS
330
47
102
}
330
47
100
AcDbScale
 70
     0
300
1'-0" = 1'-0"
140
12.0
141
12.0
290
     0
  0
TABLESTYLE
  5
194
102
{ACAD_REACTORS
330
193
102
}
102
{ACAD_XDICTIONARY
360
506
102
}
330
193
100
AcDbTableStyle
  3
Standard
 70
     0
 71
     0
 40
1.5
 41
1.5
280
     0
281
     0
  7
Standard
140
4.5
170
     2
 62
     0
 63
   257
283
     0
 90
        4
 91
        0
  1

274
    -2
284
     1
 64
     0
275
    -2
285
     1
 65
     0
276
    -2
286
     1
 66
     0
277
    -2
287
     1
 67
     0
278
    -2
288
     1
 68
     0
279
    -2
289
     1
 69
     0
  7
Standard
140
6.0
170
     5
 62
     0
 63
   257
283
     0
 90
        4
 91
        0
  1

274
    -2
284
     1
 64
     0
275
    -2
285
     1
 65
     0
276
    -2
286
     1
 66
     0
277
    -2
287
     1
 67
     0
278
    -2
288
     1
 68
     0
279
    -2
289
     1
 69
     0
  7
Standard
140
4.5
170
     5
 62
     0
 63
   257
283
     0
 90
        4
 91
        0
  1

274
    -2
284
     1
 64
     0
275
    -2
285
     1
 65
     0
276
    -2
286
     1
 66
     0
277
    -2
287
     1
 67
     0
278
    -2
288
     1
 68
     0
279
    -2
289
     1
 69
     0
  0
VISUALSTYLE
  5
17B
102
{ACAD_REACTORS
330
176
102
}
330
176
100
AcDbVisualStyle
  2
2dWireframe
 70
     4
177
     3
291
     0
 70
    58
 90
        0
176
     1
 90
        2
176
     1
 90
        0
176
     1
 90
        0
176
     1
 40
0.6
176
     1
 40
30.0
176
     1
 62
     7
420
 16777215
176
     1
 90
        1
176
     1
 90
        4
176
     1
 62
     7
176
     1
 62
   257
176
     1
 90
        1
176
     1
 90
        1
176
     1
 40
1.0
176
     1
 90
        0
176
     1
 62
   257
176
     1
 40
1.0
176
     1
 90
        1
176
     1
 90
        6
176
     1
 90
        2
176
     1
 62
     7
176
     1
 90
        5
176
     1
 90
        0
176
     1
 90
        0
176
     1
290
     0
176
     1
 90
        1
176
     1
 40
0.0
176
     1
 90
        0
176
     1
290
     1
176
     1
290
     1
176
     1
290
     0
176
     1
290
     0
176
     1
290
     0
176
     1
290
     0
176
     1
290
     0
176
     1
290
     0
176
     1
290
     0
176
     1
 90
       50
176
     1
 40
0.0
176
     1
 40
1.0
176
     1
 90
        0
176
     1
 62
    18
420
        0
176
     1
 90
       50
176
     1
 90
        3
176
     1
 62
     5
420
      255
176
     1
290
     0
176
     1
 90
       50
176
     1
 90
       50
176
     1
 90
       50
176
     1
290
     0
176
     1
 90
       50
176
     1
 62
   256
176
     0
 40
1.0
176
     0
 90
        2
176
     1
  1
strokes_ogs.tif
176
     1
290
     0
176
     1
 40
1.0
176
     1
 40
1.0
176
     1
  0
VISUALSTYLE
  5
17E
102
{ACAD_REACTORS
330
176
102
}
330
176
100
AcDbVisualStyle
  2
Basic
 70
     7
177
     3
291
     1
 70
    58
 90
        1
176
     1
 90
        0
176
     1
 90
        1
176
     1
 90
        0
176
     1
 40
0.6
176
     1
 40
30.0
176
     1
 62
     7
420
 16777215
176
     1
 90
        0
176
     1
 90
        4
176
     1
 62
     7
176
     1
 62
   257
176
     1
 90
        1
176
     1
 90
        1
176
     1
 40
1.0
176
     1
 90
        8
176
     1
 62
     7
176
     1
 40
1.0
176
     1
 90
        1
176
     1
 90
        6
176
     1
 90
        2
176
     1
 62
     7
176
     1
 90
        5
176
     1
 90
        0
176
     1
 90
        0
176
     1
290
     0
176
     1
 90
        1
176
     1
 40
0.0
176
     1
 90
        0
176
     1
290
     0
176
     1
290
     1
176
     1
290
     1
176
     1
290
     0
176
     1
290
     0
176
     1
290
     0
176
     1
290
     0
176
     1
290
     0
176
     1
290
     0
176
     1
 90
       50
176
     1
 40
0.0
176
     1
 40
1.0
176
     1
 90
        0
176
     1
 62
    18
420
        0
176
     1
 90
       50
176
     1
 90
        3
176
     1
 62
     5
420
      255
176
     1
290
     0
176
     1
 90
       50
176
     1
 90
       50
176
     1
 90
       50
176
     1
290
     0
176
     1
 90
       50
176
     1
 62
   256
176
     0
 40
1.0
176
     0
 90
        2
176
     1
  1
strokes_ogs.tif
176
     1
290
     0
176
     1
 40
1.0
176
     1
 40
1.0
176
     1
  0
VISUALSTYLE
  5
182
102
{ACAD_REACTORS
330
176
102
}
330
176
100
AcDbVisualStyle
  2
Brighten
 70
    12
177
     3
291
     1
 70
    58
 90
        2
176
     1
 90
        2
176
     1
 90
        0
176
     1
 90
        0
176
     1
 40
0.6
176
     1
 40
30.0
176
     1
 62
     7
420
 16777215
176
     1
 90
        1
176
     1
 90
        4
176
     1
 62
     7
176
     1
 62
   257
176
     1
 90
        1
176
     1
 90
        1
176
     1
 40
1.0
176
     1
 90
        8
176
     1
 62
     7
176
     1
 40
1.0
176
     1
 90
        1
176
     1
 90
        6
176
     1
 90
        2
176
     1
 62
     7
176
     1
 90
        5
176
     1
 90
        0
176
     1
 90
        0
176
     1
290
     0
176
     1
 90
        1
176
     1
 40
50.0
176
     1
 90
        0
176
     1
290
     0
176
     1
290
     1
176
     1
290
     1
176
     1
290
     0
176
     1
290
     0
176
     1
290
     0
176
     1
290
     0
176
     1
290
     0
176
     1
290
     0
176
     1
 90
       50
176
     1
 40
0.0
176
     1
 40
1.0
176
     1
 90
        0
176
     1
 62
    18
420
        0
176
     1
 90
       50
176
     1
 90
        3
176
     1
 62
     5
420
      255
176
     1
290
     0
176
     1
 90
       50
176
     1
 90
       50
176
     1
 90
       50
176
     1
290
     0
176
     1
 90
       50
176
     1
 62
   256
176
     0
 40
1.0
176
     0
 90
        2
176
     1
  1
strokes_ogs.tif
176
     1
290
     0
176
     1
 40
1.0
176
     1
 40
1.0
176
     1
  0
VISUALSTYLE
  5
186
102
{ACAD_REACTORS
330
176
102
}
330
176
100
AcDbVisualStyle
  2
ColorChange
 70
    16
177
     3
291
     1
 70
    58
 90
        2
176
     1
 90
        2
176
     1
 90
        3
176
     1
 90
        0
176
     1
 40
0.6
176
     1
 40
30.0
176
     1
 62
     8
420
  8421504
176
     1
 90
        1
176
     1
 90
        4
176
     1
 62
     7
176
     1
 62
   257
176
     1
 90
        1
176
     1
 90
        1
176
     1
 40
1.0
176
     1
 90
        8
176
     1
 62
     8
420
  8421504
176
     1
 40
1.0
176
     1
 90
        1
176
     1
 90
        6
176
     1
 90
        2
176
     1
 62
     7
176
     1
 90
        5
176
     1
 90
        0
176
     1
 90
        0
176
     1
290
     0
176
     1
 90
        1
176
     1
 40
0.0
176
     1
 90
        0
176
     1
290
     0
176
     1
290
     1
176
     1
290
     1
176
     1
290
     0
176
     1
290
     0
176
     1
290
     0
176
     1
290
     0
176
     1
290
     0
176
     1
290
     0
176
     1
 90
       50
176
     1
 40
0.0
176
     1
 40
1.0
176
     1
 90
        0
176
     1
 62
    18
420
        0
176
     1
 90
       50
176
     1
 90
        3
176
     1
 62
     5
420
      255
176
     1
290
     0
176
     1
 90
       50
176
     1
 90
       50
176
     1
 90
       50
176
     1
290
     0
176
     1
 90
       50
176
     1
 62
   256
176
     0
 40
1.0
176
     0
 90
        2
176
     1
  1
strokes_ogs.tif
176
     1
290
     0
176
     1
 40
1.0
176
     1
 40
1.0
176
     1
  0
VISUALSTYLE
  5
180
102
{ACAD_REACTORS
330
176
102
}
330
176
100
AcDbVisualStyle
  2
Conceptual
 70
     9
177
     3
291
     0
 70
    58
 90
        3
176
     1
 90
        2
176
     1
 90
        0
176
     1
 90
        0
176
     1
 40
0.6
176
     1
 40
30.0
176
     1
 62
     7
420
 16777215
176
     1
 90
        2
176
     1
 90
        2
176
     1
 62
     7
176
     1
 62
   257
176
     1
 90
        1
176
     1
 90
        1
176
     1
 40
179.0
176
     1
 90
        8
176
     1
 62
     7
176
     1
 40
1.0
176
     1
 90
        1
176
     1
 90
        6
176
     1
 90
        2
176
     1
 62
     7
176
     1
 90
        3
176
     1
 90
        0
176
     1
 90
        0
176
     1
290
     0
176
     1
 90
        1
176
     1
 40
0.0
176
     1
 90
        0
176
     1
290
     0
176
     1
290
     1
176
     1
290
     1
176
     1
290
     0
176
     1
290
     0
176
     1
290
     0
176
     1
290
     0
176
     1
290
     0
176
     1
290
     0
176
     1
 90
       50
176
     1
 40
0.0
176
     1
 40
1.0
176
     1
 90
        0
176
     1
 62
    18
420
        0
176
     1
 90
       50
176
     1
 90
        3
176
     1
 62
     5
420
      255
176
     1
290
     0
176
     1
 90
       50
176
     1
 90
       50
176
     1
 90
       50
176
     1
290
     0
176
     1
 90
       50
176
     1
 62
   256
176
     0
 40
1.0
176
     0
 90
        2
176
     1
  1
strokes_ogs.tif
176
     1
290
     0
176
     1
 40
1.0
176
     1
 40
1.0
176
     1
  0
VISUALSTYLE
  5
181
102
{ACAD_REACTORS
330
176
102
}
330
176
100
AcDbVisualStyle
  2
Dim
 70
    11
177
     3
291
     1
 70
    58
 90
        2
176
     1
 90
        2
176
     1
 90
        0
176
     1
 90
        0
176
     1
 40
0.6
176
     1
 40
30.0
176
     1
 62
     7
420
 16777215
176
     1
 90
        1
176
     1
 90
        4
176
     1
 62
     7
176
     1
 62
   257
176
     1
 90
        1
176
     1
 90
        1
176
     1
 40
1.0
176
     1
 90
        8
176
     1
 62
     7
176
     1
 40
1.0
176
     1
 90
        1
176
     1
 90
        6
176
     1
 90
        2
176
     1
 62
     7
176
     1
 90
        5
176
     1
 90
        0
176
     1
 90
        0
176
     1
290
     0
176
     1
 90
        1
176
     1
 40
-50.0
176
     1
 90
        0
176
     1
290
     0
176
     1
290
     1
176
     1
290
     1
176
     1
290
     0
176
     1
290
     0
176
     1
290
     0
176
     1
290
     0
176
     1
290
     0
176
     1
290
     0
176
     1
 90
       50
176
     1
 40
0.0
176
     1
 40
1.0
176
     1
 90
        0
176
     1
 62
    18
420
        0
176
     1
 90
       50
176
     1
 90
        3
176
     1
 62
     5
420
      255
176
     1
290
     0
176
     1
 90
       50
176
     1
 90
       50
176
     1
 90
       50
176
     1
290
     0
176
     1
 90
       50
176
     1
 62
   256
176
     0
 40
1.0
176
     0
 90
        2
176
     1
  1
strokes_ogs.tif
176
     1
290
     0
176
     1
 40
1.0
176
     1
 40
1.0
176
     1
  0
VISUALSTYLE
  5
189
102
{ACAD_REACTORS
330
176
102
}
330
176
100
AcDbVisualStyle
  2
EdgeColorOff
 70
    22
177
     3
291
     1
 70
    58
 90
        2
176
     0
 90
        2
176
     0
 90
        0
176
     0
 90
        0
176
     0
 40
0.6
176
     0
 40
30.0
176
     0
 62
     7
420
 16777215
176
     0
 90
        1
176
     0
 90
        4
176
     0
 62
     7
176
     0
 62
   257
176
     0
 90
        1
176
     0
 90
        1
176
     0
 40
1.0
176
     0
 90
        8
176
     2
 62
     7
176
     0
 40
1.0
176
     0
 90
        1
176
     0
 90
        6
176
     0
 90
        2
176
     0
 62
     7
176
     0
 90
        5
176
     0
 90
        0
176
     0
 90
        0
176
     0
290
     0
176
     0
 90
        1
176
     0
 40
0.0
176
     0
 90
        0
176
     0
290
     0
176
     0
290
     1
176
     0
290
     1
176
     0
290
     0
176
     0
290
     0
176
     0
290
     0
176
     0
290
     0
176
     0
290
     0
176
     0
290
     0
176
     0
 90
       50
176
     0
 40
0.0
176
     0
 40
1.0
176
     0
 90
        0
176
     0
 62
    18
420
        0
176
     0
 90
       50
176
     0
 90
        3
176
     0
 62
     5
420
      255
176
     0
290
     0
176
     0
 90
       50
176
     0
 90
       50
176
     0
 90
       50
176
     0
290
     0
176
     0
 90
       50
176
     0
 62
   256
176
     0
 40
1.0
176
     0
 90
        2
176
     0
  1
strokes_ogs.tif
176
     0
290
     0
176
     0
 40
1.0
176
     0
 40
1.0
176
     0
  0
VISUALSTYLE
  5
185
102
{ACAD_REACTORS
330
176
102
}
330
176
100
AcDbVisualStyle
  2
Facepattern
 70
    15
177
     3
291
     1
 70
    58
 90
        2
176
     1
 90
        2
176
     1
 90
        0
176
     1
 90
        0
176
     1
 40
0.6
176
     1
 40
30.0
176
     1
 62
     7
420
 16777215
176
     1
 90
        1
176
     1
 90
        4
176
     1
 62
     7
176
     1
 62
   257
176
     1
 90
        1
176
     1
 90
        1
176
     1
 40
1.0
176
     1
 90
        8
176
     1
 62
     7
176
     1
 40
1.0
176
     1
 90
        1
176
     1
 90
        6
176
     1
 90
        2
176
     1
 62
     7
176
     1
 90
        5
176
     1
 90
        0
176
     1
 90
        0
176
     1
290
     0
176
     1
 90
        1
176
     1
 40
0.0
176
     1
 90
        0
176
     1
290
     0
176
     1
290
     1
176
     1
290
     1
176
     1
290
     0
176
     1
290
     0
176
     1
290
     0
176
     1
290
     0
176
     1
290
     0
176
     1
290
     0
176
     1
 90
       50
176
     1
 40
0.0
176
     1
 40
1.0
176
     1
 90
        0
176
     1
 62
    18
420
        0
176
     1
 90
       50
176
     1
 90
        3
176
     1
 62
     5
420
      255
176
     1
290
     0
176
     1
 90
       50
176
     1
 90
       50
176
     1
 90
       50
176
     1
290
     0
176
     1
 90
       50
176
     1
 62
   256
176
     0
 40
1.0
176
     0
 90
        2
176
     1
  1
strokes_ogs.tif
176
     1
290
     0
176
     1
 40
1.0
176
     1
 40
1.0
176
     1
  0
VISUALSTYLE
  5
177
102
{ACAD_REACTORS
330
176
102
}
330
176
100
AcDbVisualStyle
  2
Flat
 70
     0
177
     3
291
     1
 70
    58
 90
        2
176
     1
 90
        1
176
     1
 90
        1
176
     1
 90
        2
176
     1
 40
0.6
176
     1
 40
30.0
176
     1
 62
     7
420
 16777215
176
     1
 90
        0
176
     1
 90
        0
176
     1
 62
     7
176
     1
 62
   257
176
     1
 90
        1
176
     1
 90
        1
176
     1
 40
1.0
176
     1
 90
        8
176
     1
 62
     7
176
     1
 40
1.0
176
     1
 90
        1
176
     1
 90
        6
176
     1
 90
        2
176
     1
 62
     7
176
     1
 90
        5
176
     1
 90
        0
176
     1
 90
        0
176
     1
290
     0
176
     1
 90
       13
176
     1
 40
0.0
176
     1
 90
        0
176
     1
290
     0
176
     1
290
     1
176
     1
290
     1
176
     1
290
     0
176
     1
290
     0
176
     1
290
     0
176
     1
290
     0
176
     1
290
     0
176
     1
290
     0
176
     1
 90
       50
176
     1
 40
0.0
176
     1
 40
1.0
176
     1
 90
        0
176
     1
 62
    18
420
        0
176
     1
 90
       50
176
     1
 90
        3
176
     1
 62
     5
420
      255
176
     1
290
     0
176
     1
 90
       50
176
     1
 90
       50
176
     1
 90
       50
176
     1
290
     0
176
     1
 90
       50
176
     1
 62
   256
176
     0
 40
1.0
176
     0
 90
        2
176
     1
  1
strokes_ogs.tif
176
     1
290
     0
176
     1
 40
1.0
176
     1
 40
1.0
176
     1
  0
VISUALSTYLE
  5
178
102
{ACAD_REACTORS
330
176
102
}
330
176
100
AcDbVisualStyle
  2
FlatWithEdges
 70
     1
177
     3
291
     1
 70
    58
 90
        2
176
     1
 90
        1
176
     1
 90
        1
176
     1
 90
        2
176
     1
 40
0.6
176
     1
 40
30.0
176
     1
 62
     7
420
 16777215
176
     1
 90
        1
176
     1
 90
        0
176
     1
 62
     7
176
     1
 62
   257
176
     1
 90
        1
176
     1
 90
        1
176
     1
 40
1.0
176
     1
 90
        0
176
     1
 62
   257
176
     1
 40
1.0
176
     1
 90
        1
176
     1
 90
        6
176
     1
 90
        2
176
     1
 62
     7
176
     1
 90
        5
176
     1
 90
        0
176
     1
 90
        0
176
     1
290
     0
176
     1
 90
       13
176
     1
 40
0.0
176
     1
 90
        0
176
     1
290
     0
176
     1
290
     1
176
     1
290
     1
176
     1
290
     0
176
     1
290
     0
176
     1
290
     0
176
     1
290
     0
176
     1
290
     0
176
     1
290
     0
176
     1
 90
       50
176
     1
 40
0.0
176
     1
 40
1.0
176
     1
 90
        0
176
     1
 62
    18
420
        0
176
     1
 90
       50
176
     1
 90
        3
176
     1
 62
     5
420
      255
176
     1
290
     0
176
     1
 90
       50
176
     1
 90
       50
176
     1
 90
       50
176
     1
290
     0
176
     1
 90
       50
176
     1
 62
   256
176
     0
 40
1.0
176
     0
 90
        2
176
     1
  1
strokes_ogs.tif
176
     1
290
     0
176
     1
 40
1.0
176
     1
 40
1.0
176
     1
  0
VISUALSTYLE
  5
179
102
{ACAD_REACTORS
330
176
102
}
330
176
100
AcDbVisualStyle
  2
Gouraud
 70
     2
177
     3
291
     1
 70
    58
 90
        2
176
     1
 90
        2
176
     1
 90
        1
176
     1
 90
        2
176
     1
 40
0.6
176
     1
 40
30.0
176
     1
 62
     7
420
 16777215
176
     1
 90
        0
176
     1
 90
        0
176
     1
 62
     7
176
     1
 62
   257
176
     1
 90
        1
176
     1
 90
        1
176
     1
 40
1.0
176
     1
 90
        0
176
     1
 62
     7
176
     1
 40
1.0
176
     1
 90
        1
176
     1
 90
        6
176
     1
 90
        2
176
     1
 62
     7
176
     1
 90
        5
176
     1
 90
        0
176
     1
 90
        0
176
     1
290
     0
176
     1
 90
       13
176
     1
 40
0.0
176
     1
 90
        0
176
     1
290
     0
176
     1
290
     1
176
     1
290
     1
176
     1
290
     0
176
     1
290
     0
176
     1
290
     0
176
     1
290
     0
176
     1
290
     0
176
     1
290
     0
176
     1
 90
       50
176
     1
 40
0.0
176
     1
 40
1.0
176
     1
 90
        0
176
     1
 62
    18
420
        0
176
     1
 90
       50
176
     1
 90
        3
176
     1
 62
     5
420
      255
176
     1
290
     0
176
     1
 90
       50
176
     1
 90
       50
176
     1
 90
       50
176
     1
290
     0
176
     1
 90
       50
176
     1
 62
   256
176
     0
 40
1.0
176
     0
 90
        2
176
     1
  1
strokes_ogs.tif
176
     1
290
     0
176
     1
 40
1.0
176
     1
 40
1.0
176
     1
  0
VISUALSTYLE
  5
17A
102
{ACAD_REACTORS
330
176
102
}
330
176
100
AcDbVisualStyle
  2
GouraudWithEdges
 70
     3
177
     3
291
     1
 70
    58
 90
        2
176
     1
 90
        2
176
     1
 90
        1
176
     1
 90
        2
176
     1
 40
0.6
176
     1
 40
30.0
176
     1
 62
     7
420
 16777215
176
     1
 90
        1
176
     1
 90
        0
176
     1
 62
     7
176
     1
 62
   257
176
     1
 90
        1
176
     1
 90
        1
176
     1
 40
1.0
176
     1
 90
        0
176
     1
 62
   257
176
     1
 40
1.0
176
     1
 90
        1
176
     1
 90
        6
176
     1
 90
        2
176
     1
 62
     7
176
     1
 90
        5
176
     1
 90
        0
176
     1
 90
        0
176
     1
290
     0
176
     1
 90
       13
176
     1
 40
0.0
176
     1
 90
        0
176
     1
290
     0
176
     1
290
     1
176
     1
290
     1
176
     1
290
     0
176
     1
290
     0
176
     1
290
     0
176
     1
290
     0
176
     1
290
     0
176
     1
290
     0
176
     1
 90
       50
176
     1
 40
0.0
176
     1
 40
1.0
176
     1
 90
        0
176
     1
 62
    18
420
        0
176
     1
 90
       50
176
     1
 90
        3
176
     1
 62
     5
420
      255
176
     1
290
     0
176
     1
 90
       50
176
     1
 90
       50
176
     1
 90
       50
176
     1
290
     0
176
     1
 90
       50
176
     1
 62
   256
176
     0
 40
1.0
176
     0
 90
        2
176
     1
  1
strokes_ogs.tif
176
     1
290
     0
176
     1
 40
1.0
176
     1
 40
1.0
176
     1
  0
VISUALSTYLE
  5
17D
102
{ACAD_REACTORS
330
176
102
}
330
176
100
AcDbVisualStyle
  2
Hidden
 70
     6
177
     3
291
     0
 70
    58
 90
        1
176
     1
 90
        2
176
     1
 90
        2
176
     1
 90
        0
176
     1
 40
0.6
176
     1
 40
30.0
176
     1
 62
     7
420
 16777215
176
     1
 90
        2
176
     1
 90
        2
176
     1
 62
     7
176
     1
 62
   257
176
     1
 90
        2
176
     1
 90
        1
176
     1
 40
40.0
176
     1
 90
        0
176
     1
 62
   257
176
     1
 40
1.0
176
     1
 90
        1
176
     1
 90
        6
176
     1
 90
        2
176
     1
 62
     7
176
     1
 90
        3
176
     1
 90
        0
176
     1
 90
        0
176
     1
290
     0
176
     1
 90
        1
176
     1
 40
0.0
176
     1
 90
        0
176
     1
290
     0
176
     1
290
     1
176
     1
290
     1
176
     1
290
     0
176
     1
290
     0
176
     1
290
     0
176
     1
290
     0
176
     1
290
     0
176
     1
290
     0
176
     1
 90
       50
176
     1
 40
0.0
176
     1
 40
1.0
176
     1
 90
        0
176
     1
 62
    18
420
        0
176
     1
 90
       50
176
     1
 90
        3
176
     1
 62
     5
420
      255
176
     1
290
     0
176
     1
 90
       50
176
     1
 90
       50
176
     1
 90
       50
176
     1
290
     0
176
     1
 90
       50
176
     1
 62
   256
176
     0
 40
1.0
176
     0
 90
        2
176
     1
  1
strokes_ogs.tif
176
     1
290
     0
176
     1
 40
1.0
176
     1
 40
1.0
176
     1
  0
VISUALSTYLE
  5
187
102
{ACAD_REACTORS
330
176
102
}
330
176
100
AcDbVisualStyle
  2
JitterOff
 70
    20
177
     3
291
     1
 70
    58
 90
        2
176
     0
 90
        2
176
     0
 90
        0
176
     0
 90
        0
176
     0
 40
0.6
176
     0
 40
30.0
176
     0
 62
     7
420
 16777215
176
     0
 90
        1
176
     0
 90
        4
176
     0
 62
     7
176
     0
 62
   257
176
     0
 90
        1
176
     0
 90
        1
176
     0
 40
1.0
176
     0
 90
       10
176
     2
 62
     7
176
     0
 40
1.0
176
     0
 90
        1
176
     0
 90
        6
176
     0
 90
        2
176
     0
 62
     7
176
     0
 90
        5
176
     0
 90
        0
176
     0
 90
        0
176
     0
290
     0
176
     0
 90
        1
176
     0
 40
0.0
176
     0
 90
        0
176
     0
290
     0
176
     0
290
     1
176
     0
290
     1
176
     0
290
     0
176
     0
290
     0
176
     0
290
     0
176
     0
290
     0
176
     0
290
     0
176
     0
290
     0
176
     0
 90
       50
176
     0
 40
0.0
176
     0
 40
1.0
176
     0
 90
        0
176
     0
 62
    18
420
        0
176
     0
 90
       50
176
     0
 90
        3
176
     0
 62
     5
420
      255
176
     0
290
     0
176
     0
 90
       50
176
     0
 90
       50
176
     0
 90
       50
176
     0
290
     0
176
     0
 90
       50
176
     0
 62
   256
176
     0
 40
1.0
176
     0
 90
        2
176
     0
  1
strokes_ogs.tif
176
     0
290
     0
176
     0
 40
1.0
176
     0
 40
1.0
176
     0
  0
VISUALSTYLE
  5
184
102
{ACAD_REACTORS
330
176
102
}
330
176
100
AcDbVisualStyle
  2
Linepattern
 70
    14
177
     3
291
     1
 70
    58
 90
        2
176
     1
 90
        2
176
     1
 90
        0
176
     1
 90
        0
176
     1
 40
0.6
176
     1
 40
30.0
176
     1
 62
     7
420
 16777215
176
     1
 90
        1
176
     1
 90
        4
176
     1
 62
     7
176
     1
 62
   257
176
     1
 90
        7
176
     1
 90
        7
176
     1
 40
1.0
176
     1
 90
        8
176
     1
 62
     7
176
     1
 40
1.0
176
     1
 90
        1
176
     1
 90
        6
176
     1
 90
        2
176
     1
 62
     7
176
     1
 90
        5
176
     1
 90
        0
176
     1
 90
        0
176
     1
290
     0
176
     1
 90
        1
176
     1
 40
0.0
176
     1
 90
        0
176
     1
290
     0
176
     1
290
     1
176
     1
290
     1
176
     1
290
     0
176
     1
290
     0
176
     1
290
     0
176
     1
290
     0
176
     1
290
     0
176
     1
290
     0
176
     1
 90
       50
176
     1
 40
0.0
176
     1
 40
1.0
176
     1
 90
        0
176
     1
 62
    18
420
        0
176
     1
 90
       50
176
     1
 90
        3
176
     1
 62
     5
420
      255
176
     1
290
     0
176
     1
 90
       50
176
     1
 90
       50
176
     1
 90
       50
176
     1
290
     0
176
     1
 90
       50
176
     1
 62
   256
176
     0
 40
1.0
176
     0
 90
        2
176
     1
  1
strokes_ogs.tif
176
     1
290
     0
176
     1
 40
1.0
176
     1
 40
1.0
176
     1
  0
VISUALSTYLE
  5
188
102
{ACAD_REACTORS
330
176
102
}
330
176
100
AcDbVisualStyle
  2
OverhangOff
 70
    21
177
     3
291
     1
 70
    58
 90
        2
176
     0
 90
        2
176
     0
 90
        0
176
     0
 90
        0
176
     0
 40
0.6
176
     0
 40
30.0
176
     0
 62
     7
420
 16777215
176
     0
 90
        1
176
     0
 90
        4
176
     0
 62
     7
176
     0
 62
   257
176
     0
 90
        1
176
     0
 90
        1
176
     0
 40
1.0
176
     0
 90
        9
176
     2
 62
     7
176
     0
 40
1.0
176
     0
 90
        1
176
     0
 90
        6
176
     0
 90
        2
176
     0
 62
     7
176
     0
 90
        5
176
     0
 90
        0
176
     0
 90
        0
176
     0
290
     0
176
     0
 90
        1
176
     0
 40
0.0
176
     0
 90
        0
176
     0
290
     0
176
     0
290
     1
176
     0
290
     1
176
     0
290
     0
176
     0
290
     0
176
     0
290
     0
176
     0
290
     0
176
     0
290
     0
176
     0
290
     0
176
     0
 90
       50
176
     0
 40
0.0
176
     0
 40
1.0
176
     0
 90
        0
176
     0
 62
    18
420
        0
176
     0
 90
       50
176
     0
 90
        3
176
     0
 62
     5
420
      255
176
     0
290
     0
176
     0
 90
       50
176
     0
 90
       50
176
     0
 90
       50
176
     0
290
     0
176
     0
 90
       50
176
     0
 62
   256
176
     0
 40
1.0
176
     0
 90
        2
176
     0
  1
strokes_ogs.tif
176
     0
290
     0
176
     0
 40
1.0
176
     0
 40
1.0
176
     0
  0
VISUALSTYLE
  5
17F
102
{ACAD_REACTORS
330
176
102
}
330
176
100
AcDbVisualStyle
  2
Realistic
 70
     8
177
     3
291
     0
 70
    58
 90
        2
176
     1
 90
        3
176
     1
 90
        0
176
     1
 90
        2
176
     1
 40
0.6
176
     1
 40
30.0
176
     1
 62
     7
420
 16777215
176
     1
 90
        0
176
     1
 90
        0
176
     1
 62
     7
176
     1
 62
   257
176
     1
 90
        1
176
     1
 90
        1
176
     1
 40
1.0
176
     1
 90
        8
176
     1
 62
   257
176
     1
 40
1.0
176
     1
 90
        1
176
     1
 90
        6
176
     1
 90
        2
176
     1
 62
     7
176
     1
 90
        3
176
     1
 90
        0
176
     1
 90
        0
176
     1
290
     0
176
     1
 90
       13
176
     1
 40
0.0
176
     1
 90
        0
176
     1
290
     0
176
     1
290
     1
176
     1
290
     1
176
     1
290
     0
176
     1
290
     0
176
     1
290
     0
176
     1
290
     0
176
     1
290
     0
176
     1
290
     0
176
     1
 90
       50
176
     1
 40
0.0
176
     1
 40
1.0
176
     1
 90
        0
176
     1
 62
    18
420
        0
176
     1
 90
       50
176
     1
 90
        3
176
     1
 62
     5
420
      255
176
     1
290
     0
176
     1
 90
       50
176
     1
 90
       50
176
     1
 90
       50
176
     1
290
     0
176
     1
 90
       50
176
     1
 62
   256
176
     0
 40
1.0
176
     0
 90
        2
176
     1
  1
strokes_ogs.tif
176
     1
290
     0
176
     1
 40
1.0
176
     1
 40
1.0
176
     1
  0
VISUALSTYLE
  5
18E
102
{ACAD_REACTORS
330
176
102
}
330
176
100
AcDbVisualStyle
  2
Shaded
 70
    27
177
     3
291
     0
 70
    58
 90
        2
176
     1
 90
        2
176
     1
 90
        1
176
     1
 90
        2
176
     1
 40
0.6
176
     1
 40
30.0
176
     1
 62
     7
420
 16777215
176
     1
 90
        0
176
     1
 90
        4
176
     1
 62
     7
176
     1
 62
   257
176
     1
 90
        1
176
     1
 90
        1
176
     1
 40
1.0
176
     1
 90
        8
176
     1
 62
   257
176
     1
 40
1.0
176
     1
 90
        1
176
     1
 90
        6
176
     1
 90
        2
176
     1
 62
     8
420
  7895160
176
     1
 90
        3
176
     1
 90
        0
176
     1
 90
        0
176
     1
290
     0
176
     1
 90
        5
176
     1
 40
0.0
176
     1
 90
        0
176
     1
290
     0
176
     1
290
     1
176
     1
290
     1
176
     1
290
     0
176
     1
290
     0
176
     1
290
     0
176
     1
290
     0
176
     1
290
     0
176
     1
290
     0
176
     1
 90
       50
176
     1
 40
0.0
176
     1
 40
1.0
176
     1
 90
        0
176
     1
 62
    18
420
        0
176
     1
 90
       50
176
     1
 90
        3
176
     1
 62
     5
420
      255
176
     1
290
     0
176
     1
 90
       50
176
     1
 90
       50
176
     1
 90
       50
176
     1
290
     0
176
     1
 90
       50
176
     1
 62
   256
176
     0
 40
1.0
176
     0
 90
        2
176
     1
  1
strokes_ogs.tif
176
     1
290
     0
176
     1
 40
1.0
176
     1
 40
1.0
176
     1
  0
VISUALSTYLE
  5
18D
102
{ACAD_REACTORS
330
176
102
}
330
176
100
AcDbVisualStyle
  2
Shaded with edges
 70
    26
177
     3
291
     0
 70
    58
 90
        2
176
     1
 90
        2
176
     1
 90
        1
176
     1
 90
        2
176
     1
 40
0.6
176
     1
 40
30.0
176
     1
 62
     7
420
 16777215
176
     1
 90
        1
176
     1
 90
       10
176
     1
 62
     7
176
     1
 62
   257
176
     1
 90
        2
176
     1
 90
        1
176
     1
 40
1.0
176
     1
 90
        8
176
     1
 62
   257
176
     1
 40
1.0
176
     1
 90
        1
176
     1
 90
        6
176
     1
 90
        2
176
     1
 62
     7
176
     1
 90
        3
176
     1
 90
        0
176
     1
 90
        0
176
     1
290
     0
176
     1
 90
        5
176
     1
 40
0.0
176
     1
 90
        0
176
     1
290
     0
176
     1
290
     1
176
     1
290
     1
176
     1
290
     0
176
     1
290
     0
176
     1
290
     0
176
     1
290
     0
176
     1
290
     0
176
     1
290
     0
176
     1
 90
       50
176
     1
 40
0.0
176
     1
 40
1.0
176
     1
 90
        0
176
     1
 62
    18
420
        0
176
     1
 90
       50
176
     1
 90
        3
176
     1
 62
     5
420
      255
176
     1
290
     0
176
     1
 90
       50
176
     1
 90
       50
176
     1
 90
       50
176
     1
290
     0
176
     1
 90
       50
176
     1
 62
   256
176
     0
 40
1.0
176
     0
 90
        2
176
     1
  1
strokes_ogs.tif
176
     1
290
     0
176
     1
 40
1.0
176
     1
 40
1.0
176
     1
  0
VISUALSTYLE
  5
18A
102
{ACAD_REACTORS
330
176
102
}
330
176
100
AcDbVisualStyle
  2
Shades of Gray
 70
    23
177
     3
291
     0
 70
    58
 90
        2
176
     1
 90
        2
176
     1
 90
        3
176
     1
 90
        0
176
     1
 40
0.6
176
     1
 40
30.0
176
     1
 62
     7
420
 16777215
176
     1
 90
        2
176
     1
 90
        2
176
     1
 62
     7
176
     1
 62
     7
176
     1
 90
        1
176
     1
 90
        1
176
     1
 40
40.0
176
     1
 90
        8
176
     1
 62
     7
176
     1
 40
1.0
176
     1
 90
        1
176
     1
 90
        6
176
     1
 90
        2
176
     1
 62
     7
176
     1
 90
        3
176
     1
 90
        0
176
     1
 90
        0
176
     1
290
     0
176
     1
 90
        1
176
     1
 40
0.0
176
     1
 90
        0
176
     1
290
     0
176
     1
290
     1
176
     1
290
     1
176
     1
290
     0
176
     1
290
     0
176
     1
290
     0
176
     1
290
     0
176
     1
290
     0
176
     1
290
     0
176
     1
 90
       50
176
     1
 40
0.0
176
     1
 40
1.0
176
     1
 90
        0
176
     1
 62
    18
420
        0
176
     1
 90
       50
176
     1
 90
        3
176
     1
 62
     5
420
      255
176
     1
290
     0
176
     1
 90
       50
176
     1
 90
       50
176
     1
 90
       50
176
     1
290
     0
176
     1
 90
       50
176
     1
 62
   256
176
     0
 40
1.0
176
     0
 90
        2
176
     1
  1
strokes_ogs.tif
176
     1
290
     0
176
     1
 40
1.0
176
     1
 40
1.0
176
     1
  0
VISUALSTYLE
  5
18B
102
{ACAD_REACTORS
330
176
102
}
330
176
100
AcDbVisualStyle
  2
Sketchy
 70
    24
177
     3
291
     0
 70
    58
 90
        1
176
     1
 90
        2
176
     1
 90
        2
176
     1
 90
        0
176
     1
 40
0.6
176
     1
 40
30.0
176
     1
 62
     7
420
 16777215
176
     1
 90
        2
176
     1
 90
        2
176
     1
 62
     7
176
     1
 62
     7
176
     1
 90
        1
176
     1
 90
        1
176
     1
 40
40.0
176
     1
 90
       11
176
     1
 62
     7
176
     1
 40
1.0
176
     1
 90
        1
176
     1
 90
        6
176
     1
 90
        2
176
     1
 62
     7
176
     1
 90
        6
176
     1
 90
        0
176
     1
 90
        0
176
     1
290
     0
176
     1
 90
        1
176
     1
 40
0.0
176
     1
 90
        0
176
     1
290
     0
176
     1
290
     1
176
     1
290
     1
176
     1
290
     0
176
     1
290
     0
176
     1
290
     0
176
     1
290
     0
176
     1
290
     0
176
     1
290
     0
176
     1
 90
       50
176
     1
 40
0.0
176
     1
 40
1.0
176
     1
 90
        0
176
     1
 62
    18
420
        0
176
     1
 90
       50
176
     1
 90
        3
176
     1
 62
     5
420
      255
176
     1
290
     0
176
     1
 90
       50
176
     1
 90
       50
176
     1
 90
       50
176
     1
290
     0
176
     1
 90
       50
176
     1
 62
   256
176
     0
 40
1.0
176
     0
 90
        2
176
     1
  1
strokes_ogs.tif
176
     1
290
     0
176
     1
 40
1.0
176
     1
 40
1.0
176
     1
  0
VISUALSTYLE
  5
183
102
{ACAD_REACTORS
330
176
102
}
330
176
100
AcDbVisualStyle
  2
Thicken
 70
    13
177
     3
291
     1
 70
    58
 90
        2
176
     1
 90
        2
176
     1
 90
        0
176
     1
 90
        0
176
     1
 40
0.6
176
     1
 40
30.0
176
     1
 62
     7
420
 16777215
176
     1
 90
        1
176
     1
 90
        4
176
     1
 62
     7
176
     1
 62
   257
176
     1
 90
        1
176
     1
 90
        1
176
     1
 40
1.0
176
     1
 90
       12
176
     1
 62
     7
176
     1
 40
1.0
176
     1
 90
        1
176
     1
 90
        6
176
     1
 90
        2
176
     1
 62
     7
176
     1
 90
        5
176
     1
 90
        0
176
     1
 90
        0
176
     1
290
     0
176
     1
 90
        1
176
     1
 40
0.0
176
     1
 90
        0
176
     1
290
     0
176
     1
290
     1
176
     1
290
     1
176
     1
290
     0
176
     1
290
     0
176
     1
290
     0
176
     1
290
     0
176
     1
290
     0
176
     1
290
     0
176
     1
 90
       50
176
     1
 40
0.0
176
     1
 40
1.0
176
     1
 90
        0
176
     1
 62
    18
420
        0
176
     1
 90
       50
176
     1
 90
        3
176
     1
 62
     5
420
      255
176
     1
290
     0
176
     1
 90
       50
176
     1
 90
       50
176
     1
 90
       50
176
     1
290
     0
176
     1
 90
       50
176
     1
 62
   256
176
     0
 40
1.0
176
     0
 90
        2
176
     1
  1
strokes_ogs.tif
176
     1
290
     0
176
     1
 40
1.0
176
     1
 40
1.0
176
     1
  0
VISUALSTYLE
  5
17C
102
{ACAD_REACTORS
330
176
102
}
330
176
100
AcDbVisualStyle
  2
Wireframe
 70
     5
177
     3
291
     0
 70
    58
 90
        0
176
     1
 90
        2
176
     1
 90
        0
176
     1
 90
        0
176
     1
 40
0.6
176
     1
 40
30.0
176
     1
 62
     7
420
 16777215
176
     1
 90
        1
176
     1
 90
        4
176
     1
 62
     7
176
     1
 62
   257
176
     1
 90
        1
176
     1
 90
        1
176
     1
 40
1.0
176
     1
 90
        0
176
     1
 62
   257
176
     1
 40
1.0
176
     1
 90
        1
176
     1
 90
        6
176
     1
 90
        2
176
     1
 62
     7
176
     1
 90
        3
176
     1
 90
        0
176
     1
 90
        0
176
     1
290
     0
176
     1
 90
        1
176
     1
 40
0.0
176
     1
 90
        0
176
     1
290
     0
176
     1
290
     1
176
     1
290
     1
176
     1
290
     0
176
     1
290
     0
176
     1
290
     0
176
     1
290
     0
176
     1
290
     0
176
     1
290
     0
176
     1
 90
       50
176
     1
 40
0.0
176
     1
 40
1.0
176
     1
 90
        0
176
     1
 62
    18
420
        0
176
     1
 90
       50
176
     1
 90
        3
176
     1
 62
     5
420
      255
176
     1
290
     0
176
     1
 90
       50
176
     1
 90
       50
176
     1
 90
       50
176
     1
290
     0
176
     1
 90
       50
176
     1
 62
   256
176
     0
 40
1.0
176
     0
 90
        2
176
     1
  1
strokes_ogs.tif
176
     1
290
     0
176
     1
 40
1.0
176
     1
 40
1.0
176
     1
  0
VISUALSTYLE
  5
18C
102
{ACAD_REACTORS
330
176
102
}
330
176
100
AcDbVisualStyle
  2
X-Ray
 70
    25
177
     3
291
     0
 70
    58
 90
        2
176
     1
 90
        2
176
     1
 90
        1
176
     1
 90
        1
176
     1
 40
0.5
176
     1
 40
30.0
176
     1
 62
     7
420
 16777215
176
     1
 90
        1
176
     1
 90
        0
176
     1
 62
     7
176
     1
 62
   257
176
     1
 90
        1
176
     1
 90
        1
176
     1
 40
1.0
176
     1
 90
        8
176
     1
 62
     7
176
     1
 40
1.0
176
     1
 90
        1
176
     1
 90
        6
176
     1
 90
        2
176
     1
 62
     7
176
     1
 90
        3
176
     1
 90
        0
176
     1
 90
        0
176
     1
290
     0
176
     1
 90
       13
176
     1
 40
0.0
176
     1
 90
        0
176
     1
290
     0
176
     1
290
     1
176
     1
290
     1
176
     1
290
     0
176
     1
290
     0
176
     1
290
     0
176
     1
290
     0
176
     1
290
     0
176
     1
290
     0
176
     1
 90
       50
176
     1
 40
0.0
176
     1
 40
1.0
176
     1
 90
        0
176
     1
 62
    18
420
        0
176
     1
 90
       50
176
     1
 90
        3
176
     1
 62
     5
420
      255
176
     1
290
     0
176
     1
 90
       50
176
     1
 90
       50
176
     1
 90
       50
176
     1
290
     0
176
     1
 90
       50
176
     1
 62
   256
176
     0
 40
1.0
176
     0
 90
        2
176
     1
  1
strokes_ogs.tif
176
     1
290
     0
176
     1
 40
1.0
176
     1
 40
1.0
176
     1
  0
DICTIONARYVAR
  5
1A7
102
{ACAD_REACTORS
330
1A6
102
}
330
1A6
100
DictionaryVariables
280
     0
  1
1:1
  0
DICTIONARYVAR
  5
1A9
102
{ACAD_REACTORS
330
1A6
102
}
330
1A6
100
DictionaryVariables
280
     0
  1
Standard
  0
DICTIONARYVAR
  5
1A8
102
{ACAD_REACTORS
330
1A6
102
}
330
1A6
100
DictionaryVariables
280
     0
  1
Standard
  0
DICTIONARYVAR
  5
1AA
102
{ACAD_REACTORS
330
1A6
102
}
330
1A6
100
DictionaryVariables
280
     0
  1
0
  0
DICTIONARY
  5
506
330
194
100
AcDbDictionary
280
     1
281
     1
  3
ACAD_ROUNDTRIP_2008_TABLESTYLE_CELLSTYLEMAP
360
507
  0
CELLSTYLEMAP
  5
507
102
{ACAD_REACTORS
330
506
102
}
330
506
100
AcDbCellStyleMap
 90
        3
300
CELLSTYLE
  1
TABLEFORMAT_BEGIN
 90
        5
170
     1
 91
        0
 92
    32768
 62
   257
 93
        1
300
CONTENTFORMAT
  1
CONTENTFORMAT_BEGIN
 90
        0
 91
        0
 92
        4
 93
        0
300

 40
0.0
140
1.0
 94
        5
 62
     0
340
11
144
6.0
309
CONTENTFORMAT_END
171
     1
301
MARGIN
  1
CELLMARGIN_BEGIN
 40
1.5
 40
1.5
 40
1.5
 40
1.5
 40
1.5
 40
1.5
309
CELLMARGIN_END
 94
        6
 95
        1
302
GRIDFORMAT
  1
GRIDFORMAT_BEGIN
 90
        0
 91
        1
 62
     0
 92
       -2
340
14
 93
        0
 40
0.045
309
GRIDFORMAT_END
 95
        2
302
GRIDFORMAT
  1
GRIDFORMAT_BEGIN
 90
        0
 91
        1
 62
     0
 92
       -2
340
14
 93
        0
 40
0.045
309
GRIDFORMAT_END
 95
        4
302
GRIDFORMAT
  1
GRIDFORMAT_BEGIN
 90
        0
 91
        1
 62
     0
 92
       -2
340
14
 93
        0
 40
0.045
309
GRIDFORMAT_END
 95
        8
302
GRIDFORMAT
  1
GRIDFORMAT_BEGIN
 90
        0
 91
        1
 62
     0
 92
       -2
340
14
 93
        0
 40
0.045
309
GRIDFORMAT_END
 95
       16
302
GRIDFORMAT
  1
GRIDFORMAT_BEGIN
 90
        0
 91
        1
 62
     0
 92
       -2
340
14
 93
        0
 40
0.045
309
GRIDFORMAT_END
 95
       32
302
GRIDFORMAT
  1
GRIDFORMAT_BEGIN
 90
        0
 91
        1
 62
     0
 92
       -2
340
14
 93
        0
 40
0.045
309
GRIDFORMAT_END
309
TABLEFORMAT_END
  1
CELLSTYLE_BEGIN
 90
        1
 91
        1
300
_TITLE
309
CELLSTYLE_END
300
CELLSTYLE
  1
TABLEFORMAT_BEGIN
 90
        5
170
     1
 91
        0
 92
        0
 62
   257
 93
        1
300
CONTENTFORMAT
  1
CONTENTFORMAT_BEGIN
 90
        0
 91
        0
 92
        4
 93
        0
300

 40
0.0
140
1.0
 94
        5
 62
     0
340
11
144
4.5
309
CONTENTFORMAT_END
171
     1
301
MARGIN
  1
CELLMARGIN_BEGIN
 40
1.5
 40
1.5
 40
1.5
 40
1.5
 40
1.5
 40
1.5
309
CELLMARGIN_END
 94
        6
 95
        1
302
GRIDFORMAT
  1
GRIDFORMAT_BEGIN
 90
        0
 91
        1
 62
     0
 92
       -2
340
14
 93
        0
 40
0.045
309
GRIDFORMAT_END
 95
        2
302
GRIDFORMAT
  1
GRIDFORMAT_BEGIN
 90
        0
 91
        1
 62
     0
 92
       -2
340
14
 93
        0
 40
0.045
309
GRIDFORMAT_END
 95
        4
302
GRIDFORMAT
  1
GRIDFORMAT_BEGIN
 90
        0
 91
        1
 62
     0
 92
       -2
340
14
 93
        0
 40
0.045
309
GRIDFORMAT_END
 95
        8
302
GRIDFORMAT
  1
GRIDFORMAT_BEGIN
 90
        0
 91
        1
 62
     0
 92
       -2
340
14
 93
        0
 40
0.045
309
GRIDFORMAT_END
 95
       16
302
GRIDFORMAT
  1
GRIDFORMAT_BEGIN
 90
        0
 91
        1
 62
     0
 92
       -2
340
14
 93
        0
 40
0.045
309
GRIDFORMAT_END
 95
       32
302
GRIDFORMAT
  1
GRIDFORMAT_BEGIN
 90
        0
 91
        1
 62
     0
 92
       -2
340
14
 93
        0
 40
0.045
309
GRIDFORMAT_END
309
TABLEFORMAT_END
  1
CELLSTYLE_BEGIN
 90
        2
 91
        1
300
_HEADER
309
CELLSTYLE_END
300
CELLSTYLE
  1
TABLEFORMAT_BEGIN
 90
        5
170
     1
 91
        0
 92
        0
 62
   257
 93
        1
300
CONTENTFORMAT
  1
CONTENTFORMAT_BEGIN
 90
        0
 91
        0
 92
        4
 93
        0
300

 40
0.0
140
1.0
 94
        2
 62
     0
340
11
144
4.5
309
CONTENTFORMAT_END
171
     1
301
MARGIN
  1
CELLMARGIN_BEGIN
 40
1.5
 40
1.5
 40
1.5
 40
1.5
 40
1.5
 40
1.5
309
CELLMARGIN_END
 94
        6
 95
        1
302
GRIDFORMAT
  1
GRIDFORMAT_BEGIN
 90
        0
 91
        1
 62
     0
 92
       -2
340
14
 93
        0
 40
0.045
309
GRIDFORMAT_END
 95
        2
302
GRIDFORMAT
  1
GRIDFORMAT_BEGIN
 90
        0
 91
        1
 62
     0
 92
       -2
340
14
 93
        0
 40
0.045
309
GRIDFORMAT_END
 95
        4
302
GRIDFORMAT
  1
GRIDFORMAT_BEGIN
 90
        0
 91
        1
 62
     0
 92
       -2
340
14
 93
        0
 40
0.045
309
GRIDFORMAT_END
 95
        8
302
GRIDFORMAT
  1
GRIDFORMAT_BEGIN
 90
        0
 91
        1
 62
     0
 92
       -2
340
14
 93
        0
 40
0.045
309
GRIDFORMAT_END
 95
       16
302
GRIDFORMAT
  1
GRIDFORMAT_BEGIN
 90
        0
 91
        1
 62
     0
 92
       -2
340
14
 93
        0
 40
0.045
309
GRIDFORMAT_END
 95
       32
302
GRIDFORMAT
  1
GRIDFORMAT_BEGIN
 90
        0
 91
        1
 62
     0
 92
       -2
340
14
 93
        0
 40
0.045
309
GRIDFORMAT_END
309
TABLEFORMAT_END
  1
CELLSTYLE_BEGIN
 90
        3
 91
        2
300
_DATA
309
CELLSTYLE_END
  0
ENDSEC
  0
EOF
