  0
SECTION
  2
HEADER
  9
$ACADVER
  1
AC1032
  9
$ACADMAINTVER
 90
        4
  9
$DWGCODEPAGE
  3
ANSI_932
  9
$LASTSAVEDBY
  1
9128
  9
$REQUIREDVERSIONS
160
                 0
  9
$INSBASE
 10
0.0
 20
0.0
 30
0.0
  9
$EXTMIN
 10
0.0
 20
-0.0000000000001705
 30
0.0
  9
$EXTMAX
 10
297.0000000000002
 20
210.0
 30
0.0
  9
$LIMMIN
 10
0.0
 20
0.0
  9
$LIMMAX
 10
210.0
 20
297.0
  9
$ORTHOMODE
 70
     0
  9
$REGENMODE
 70
     1
  9
$FILLMODE
 70
     1
  9
$QTEXTMODE
 70
     0
  9
$MIRRTEXT
 70
     1
  9
$LTSCALE
 40
1.0
  9
$ATTMODE
 70
     1
  9
$TEXTSIZE
 40
3.5
  9
$TRACEWID
 40
1.0
  9
$TEXTSTYLE
  7
Standard
  9
$CLAYER
  8
0
  9
$CELTYPE
  6
ByLayer
  9
$CECOLOR
 62
   256
  9
$CELTSCALE
 40
1.0
  9
$DISPSILH
 70
     0
  9
$DIMSCALE
 40
1.0
  9
$DIMASZ
 40
1.5
  9
$DIMEXO
 40
1.0
  9
$DIMDLI
 40
3.75
  9
$DIMRND
 40
0.0
  9
$DIMDLE
 40
0.0
  9
$DIMEXE
 40
1.0
  9
$DIMTP
 40
0.0
  9
$DIMTM
 40
0.0
  9
$DIMTXT
 40
3.5
  9
$DIMCEN
 40
2.5
  9
$DIMTSZ
 40
0.0
  9
$DIMTOL
 70
     0
  9
$DIMLIM
 70
     0
  9
$DIMTIH
 70
     1
  9
$DIMTOH
 70
     1
  9
$DIMSE1
 70
     0
  9
$DIMSE2
 70
     0
  9
$DIMTAD
 70
     1
  9
$DIMZIN
 70
     0
  9
$DIMBLK
  1

  9
$DIMASO
 70
     1
  9
$DIMSHO
 70
     1
  9
$DIMPOST
  1

  9
$DIMAPOST
  1

  9
$DIMALT
 70
     0
  9
$DIMALTD
 70
     3
  9
$DIMALTF
 40
0.0393700787401575
  9
$DIMLFAC
 40
100.0
  9
$DIMTOFL
 70
     1
  9
$DIMTVP
 40
0.0
  9
$DIMTIX
 70
     0
  9
$DIMSOXD
 70
     0
  9
$DIMSAH
 70
     0
  9
$DIMBLK1
  1

  9
$DIMBLK2
  1

  9
$DIMSTYLE
  2
ISO-25
  9
$DIMCLRD
 70
     0
  9
$DIMCLRE
 70
     0
  9
$DIMCLRT
 70
     0
  9
$DIMTFAC
 40
1.0
  9
$DIMGAP
 40
1.5
  9
$DIMJUST
 70
     0
  9
$DIMSD1
 70
     0
  9
$DIMSD2
 70
     0
  9
$DIMTOLJ
 70
     0
  9
$DIMTZIN
 70
     0
  9
$DIMALTZ
 70
     0
  9
$DIMALTTZ
 70
     0
  9
$DIMUPT
 70
     0
  9
$DIMDEC
 70
     1
  9
$DIMTDEC
 70
     1
  9
$DIMALTU
 70
     2
  9
$DIMALTTD
 70
     3
  9
$DIMTXSTY
  7
Standard
  9
$DIMAUNIT
 70
     0
  9
$DIMADEC
 70
     2
  9
$DIMALTRND
 40
0.0
  9
$DIMAZIN
 70
     0
  9
$DIMDSEP
 70
    44
  9
$DIMATFIT
 70
     3
  9
$DIMFRAC
 70
     0
  9
$DIMLDRBLK
  1

  9
$DIMLUNIT
 70
     2
  9
$DIMLWD
 70
    -2
  9
$DIMLWE
 70
    -2
  9
$DIMTMOVE
 70
     0
  9
$DIMFXL
 40
1.0
  9
$DIMFXLON
 70
     0
  9
$DIMJOGANG
 40
0.7853981633974483
  9
$DIMTFILL
 70
     0
  9
$DIMTFILLCLR
 70
     0
  9
$DIMARCSYM
 70
     0
  9
$DIMLTYPE
  6

  9
$DIMLTEX1
  6

  9
$DIMLTEX2
  6

  9
$DIMTXTDIRECTION
 70
     0
  9
$LUNITS
 70
     2
  9
$LUPREC
 70
     2
  9
$SKETCHINC
 40
1.0
  9
$FILLETRAD
 40
10.0
  9
$AUNITS
 70
     0
  9
$AUPREC
 70
     2
  9
$MENU
  1
.
  9
$ELEVATION
 40
0.0
  9
$PELEVATION
 40
0.0
  9
$THICKNESS
 40
0.0
  9
$LIMCHECK
 70
     0
  9
$CHAMFERA
 40
0.0
  9
$CHAMFERB
 40
0.0
  9
$CHAMFERC
 40
0.0
  9
$CHAMFERD
 40
0.0
  9
$SKPOLY
 70
     0
  9
$TDCREATE
 40
2459628.482298993
  9
$TDUCREATE
 40
2459628.107298993
  9
$TDUPDATE
 40
2459635.725340822
  9
$TDUUPDATE
 40
2459635.350340822
  9
$TDINDWG
 40
0.0043173495
  9
$TDUSRTIMER
 40
0.0000662269
  9
$USRTIMER
 70
     1
  9
$ANGBASE
 50
0.0
  9
$ANGDIR
 70
     0
  9
$PDMODE
 70
     0
  9
$PDSIZE
 40
-1.0
  9
$PLINEWID
 40
0.0
  9
$SPLFRAME
 70
     0
  9
$SPLINETYPE
 70
     6
  9
$SPLINESEGS
 70
     8
  9
$HANDSEED
  5
4A8
  9
$SURFTAB1
 70
     6
  9
$SURFTAB2
 70
     6
  9
$SURFTYPE
 70
     6
  9
$SURFU
 70
     6
  9
$SURFV
 70
     6
  9
$UCSBASE
  2

  9
$UCSNAME
  2

  9
$UCSORG
 10
0.0
 20
0.0
 30
0.0
  9
$UCSXDIR
 10
1.0
 20
0.0
 30
0.0
  9
$UCSYDIR
 10
0.0
 20
1.0
 30
0.0
  9
$UCSORTHOREF
  2

  9
$UCSORTHOVIEW
 70
     0
  9
$UCSORGTOP
 10
0.0
 20
0.0
 30
0.0
  9
$UCSORGBOTTOM
 10
0.0
 20
0.0
 30
0.0
  9
$UCSORGLEFT
 10
0.0
 20
0.0
 30
0.0
  9
$UCSORGRIGHT
 10
0.0
 20
0.0
 30
0.0
  9
$UCSORGFRONT
 10
0.0
 20
0.0
 30
0.0
  9
$UCSORGBACK
 10
0.0
 20
0.0
 30
0.0
  9
$PUCSBASE
  2

  9
$PUCSNAME
  2

  9
$PUCSORG
 10
0.0
 20
0.0
 30
0.0
  9
$PUCSXDIR
 10
1.0
 20
0.0
 30
0.0
  9
$PUCSYDIR
 10
0.0
 20
1.0
 30
0.0
  9
$PUCSORTHOREF
  2

  9
$PUCSORTHOVIEW
 70
     0
  9
$PUCSORGTOP
 10
0.0
 20
0.0
 30
0.0
  9
$PUCSORGBOTTOM
 10
0.0
 20
0.0
 30
0.0
  9
$PUCSORGLEFT
 10
0.0
 20
0.0
 30
0.0
  9
$PUCSORGRIGHT
 10
0.0
 20
0.0
 30
0.0
  9
$PUCSORGFRONT
 10
0.0
 20
0.0
 30
0.0
  9
$PUCSORGBACK
 10
0.0
 20
0.0
 30
0.0
  9
$USERI1
 70
     0
  9
$USERI2
 70
     0
  9
$USERI3
 70
     0
  9
$USERI4
 70
     0
  9
$USERI5
 70
     0
  9
$USERR1
 40
0.0
  9
$USERR2
 40
0.0
  9
$USERR3
 40
0.0
  9
$USERR4
 40
0.0
  9
$USERR5
 40
0.0
  9
$WORLDVIEW
 70
     1
  9
$SHADEDGE
 70
     3
  9
$SHADEDIF
 70
    70
  9
$TILEMODE
 70
     1
  9
$MAXACTVP
 70
    64
  9
$PINSBASE
 10
0.0
 20
0.0
 30
0.0
  9
$PLIMCHECK
 70
     0
  9
$PEXTMIN
 10
1.000000000000000E+20
 20
1.000000000000000E+20
 30
1.000000000000000E+20
  9
$PEXTMAX
 10
-1.000000000000000E+20
 20
-1.000000000000000E+20
 30
-1.000000000000000E+20
  9
$PLIMMIN
 10
0.0
 20
0.0
  9
$PLIMMAX
 10
0.0
 20
0.0
  9
$UNITMODE
 70
     0
  9
$VISRETAIN
 70
     1
  9
$PLINEGEN
 70
     0
  9
$PSLTSCALE
 70
     1
  9
$TREEDEPTH
 70
  3020
  9
$CMLSTYLE
  2
Standard
  9
$CMLJUST
 70
     0
  9
$CMLSCALE
 40
20.0
  9
$PROXYGRAPHICS
 70
     1
  9
$MEASUREMENT
 70
     1
  9
$CELWEIGHT
370
    -1
  9
$ENDCAPS
280
     0
  9
$JOINSTYLE
280
     0
  9
$LWDISPLAY
290
     1
  9
$INSUNITS
 70
     4
  9
$HYPERLINKBASE
  1

  9
$STYLESHEET
  1

  9
$XEDIT
290
     1
  9
$CEPSNTYPE
380
     0
  9
$PSTYLEMODE
290
     1
  9
$FINGERPRINTGUID
  2
{e31a748c-1e15-4797-9d48-411dca69ee53}
  9
$VERSIONGUID
  2
{FAEB1C32-E019-11D5-929B-00C0DF256EC4}
  9
$EXTNAMES
290
     1
  9
$PSVPSCALE
 40
0.0
  9
$OLESTARTUP
290
     0
  9
$SORTENTS
280
   127
  9
$INDEXCTL
280
     0
  9
$HIDETEXT
280
     1
  9
$XCLIPFRAME
280
     2
  9
$HALOGAP
280
     0
  9
$OBSCOLOR
 70
   257
  9
$OBSLTYPE
280
     0
  9
$INTERSECTIONDISPLAY
280
     0
  9
$INTERSECTIONCOLOR
 70
   257
  9
$DIMASSOC
280
     2
  9
$PROJECTNAME
  1

  9
$CAMERADISPLAY
290
     0
  9
$LENSLENGTH
 40
50.0
  9
$CAMERAHEIGHT
 40
0.0
  9
$STEPSPERSEC
 40
2.0
  9
$STEPSIZE
 40
6.0
  9
$3DDWFPREC
 40
2.0
  9
$PSOLWIDTH
 40
0.25
  9
$PSOLHEIGHT
 40
4.0
  9
$LOFTANG1
 40
1.570796326794897
  9
$LOFTANG2
 40
1.570796326794897
  9
$LOFTMAG1
 40
0.0
  9
$LOFTMAG2
 40
0.0
  9
$LOFTPARAM
 70
     7
  9
$LOFTNORMALS
280
     1
  9
$LATITUDE
 40
37.795
  9
$LONGITUDE
 40
-122.394
  9
$NORTHDIRECTION
 40
0.0
  9
$TIMEZONE
 70
 -8000
  9
$LIGHTGLYPHDISPLAY
280
     1
  9
$TILEMODELIGHTSYNCH
280
     1
  9
$SOLIDHIST
280
     0
  9
$SHOWHIST
280
     1
  9
$DWFFRAME
280
     2
  9
$DGNFRAME
280
     2
  9
$REALWORLDSCALE
290
     1
  9
$INTERFERECOLOR
 62
   256
  9
$CSHADOW
280
     0
  9
$SHADOWPLANELOCATION
 40
0.0
  0
ENDSEC
  0
SECTION
  2
CLASSES
  0
CLASS
  1
ACDBDICTIONARYWDFLT
  2
AcDbDictionaryWithDefault
  3
ObjectDBX Classes
 90
        0
 91
        3
280
     0
281
     0
  0
CLASS
  1
VISUALSTYLE
  2
AcDbVisualStyle
  3
ObjectDBX Classes
 90
     4095
 91
        3
280
     0
281
     0
  0
CLASS
  1
MATERIAL
  2
AcDbMaterial
  3
ObjectDBX Classes
 90
     1153
 91
        3
280
     0
281
     0
  0
CLASS
  1
SCALE
  2
AcDbScale
  3
ObjectDBX Classes
 90
     1153
 91
        3
280
     0
281
     0
  0
CLASS
  1
TABLESTYLE
  2
AcDbTableStyle
  3
ObjectDBX Classes
 90
     4095
 91
        3
280
     0
281
     0
  0
CLASS
  1
MLEADERSTYLE
  2
AcDbMLeaderStyle
  3
ACDB_MLEADERSTYLE_CLASS
 90
     4095
 91
        3
280
     0
281
     0
  0
CLASS
  1
SUN
  2
AcDbSun
  3
SCENEOE
 90
     1153
 91
        3
280
     0
281
     0
  0
CLASS
  1
ACDBPLACEHOLDER
  2
AcDbPlaceHolder
  3
ObjectDBX Classes
 90
        0
 91
        1
280
     0
281
     0
  0
CLASS
  1
LAYOUT
  2
AcDbLayout
  3
ObjectDBX Classes
 90
        0
 91
        1
280
     0
281
     0
  0
CLASS
  1
DICTIONARYVAR
  2
AcDbDictionaryVar
  3
ObjectDBX Classes
 90
        0
 91
        3
280
     0
281
     0
  0
CLASS
  1
CELLSTYLEMAP
  2
AcDbCellStyleMap
  3
ObjectDBX Classes
 90
     1152
 91
        3
280
     0
281
     0
  0
ENDSEC
  0
SECTION
  2
TABLES
  0
TABLE
  2
VPORT
  5
8
330
0
100
AcDbSymbolTable
 70
     1
  0
VPORT
  5
29
330
8
100
AcDbSymbolTableRecord
100
AcDbViewportTableRecord
  2
*Active
 70
     0
 10
0.0
 20
0.0
 11
1.0
 21
1.0
 12
223.9116642591245
 22
100.7296050367962
 13
0.0
 23
0.0
 14
10.0
 24
10.0
 15
10.0
 25
10.0
 16
0.0
 26
0.0
 36
1.0
 17
0.0
 27
0.0
 37
0.0
 40
278.7868782456967
 41
2.260623229461757
 42
50.0
 43
0.0
 44
0.0
 50
0.0
 51
0.0
 71
    16
 72
  2000
 73
     1
 74
     3
 75
     0
 76
     0
 77
     0
 78
     0
281
     0
 65
     1
110
0.0
120
0.0
130
0.0
111
1.0
121
0.0
131
0.0
112
0.0
122
1.0
132
0.0
 79
     0
146
0.0
348
184
 60
     3
 61
     5
292
     1
282
     1
141
0.0
142
0.0
 63
   256
361
1B6
  0
ENDTAB
  0
TABLE
  2
LTYPE
  5
5
330
0
100
AcDbSymbolTable
 70
     6
  0
LTYPE
  5
14
330
5
100
AcDbSymbolTableRecord
100
AcDbLinetypeTableRecord
  2
ByBlock
 70
     0
  3

 72
    65
 73
     0
 40
0.0
  0
LTYPE
  5
15
330
5
100
AcDbSymbolTableRecord
100
AcDbLinetypeTableRecord
  2
ByLayer
 70
     0
  3

 72
    65
 73
     0
 40
0.0
  0
LTYPE
  5
16
330
5
100
AcDbSymbolTableRecord
100
AcDbLinetypeTableRecord
  2
Continuous
 70
     0
  3
Solid line
 72
    65
 73
     0
 40
0.0
  0
LTYPE
  5
6E
330
5
100
AcDbSymbolTableRecord
100
AcDbLinetypeTableRecord
  2
HIDDEN
 70
     0
  3
Hidden __ __ __ __ __ __ __ __ __ __ __ __ __ __
 72
    65
 73
     2
 40
1.905
 49
1.27
 74
     0
 49
-0.635
 74
     0
  0
LTYPE
  5
6F
330
5
100
AcDbSymbolTableRecord
100
AcDbLinetypeTableRecord
  2
PHANTOM
 70
     0
  3
Phantom ______  __  __  ______  __  __  ______
 72
    65
 73
     6
 40
12.7
 49
6.35
 74
     0
 49
-1.27
 74
     0
 49
1.27
 74
     0
 49
-1.27
 74
     0
 49
1.27
 74
     0
 49
-1.27
 74
     0
  0
LTYPE
  5
70
330
5
100
AcDbSymbolTableRecord
100
AcDbLinetypeTableRecord
  2
CENTER
 70
     0
  3
Center ____ _ ____ _ ____ _ ____ _ ____ _ ____
 72
    65
 73
     4
 40
10.16
 49
6.35
 74
     0
 49
-1.27
 74
     0
 49
1.27
 74
     0
 49
-1.27
 74
     0
  0
LTYPE
  5
71
330
5
100
AcDbSymbolTableRecord
100
AcDbLinetypeTableRecord
  2
CENTERX2
 70
     0
  3
Center (2x) ________  __  ________  __  _____
 72
    65
 73
     4
 40
20.32
 49
12.7
 74
     0
 49
-2.54
 74
     0
 49
2.54
 74
     0
 49
-2.54
 74
     0
  0
LTYPE
  5
72
330
5
100
AcDbSymbolTableRecord
100
AcDbLinetypeTableRecord
  2
DOT2
 70
     0
  3
Dot (.5x) ........................................
 72
    65
 73
     2
 40
0.635
 49
0.0
 74
     0
 49
-0.635
 74
     0
  0
ENDTAB
  0
TABLE
  2
LAYER
  5
2
102
{ACAD_XDICTIONARY
360
47E
102
}
330
0
100
AcDbSymbolTable
 70
     2
  0
LAYER
  5
10
330
2
100
AcDbSymbolTableRecord
100
AcDbLayerTableRecord
  2
0
 70
     0
 62
     7
  6
Continuous
370
    -3
390
F
347
19B
348
0
  0
LAYER
  5
73
330
2
100
AcDbSymbolTableRecord
100
AcDbLayerTableRecord
  2
FORMAT
 70
     0
 62
    -7
  6
Continuous
370
    -3
390
F
347
19B
348
0
  0
ENDTAB
  0
TABLE
  2
STYLE
  5
3
330
0
100
AcDbSymbolTable
 70
     2
  0
STYLE
  5
11
330
3
100
AcDbSymbolTableRecord
100
AcDbTextStyleTableRecord
  2
Standard
 70
     0
 40
0.0
 41
1.0
 50
0.0
 71
     0
 42
3.5
  3
txt
  4
bigfont
  0
STYLE
  5
43F
330
3
100
AcDbSymbolTableRecord
100
AcDbTextStyleTableRecord
  2
Arial
 70
     0
 40
0.0
 41
1.0
 50
0.0
 71
     0
 42
3.5
  3
Arial
  4

1001
ACAD
1000
Arial
1071
        0
  0
ENDTAB
  0
TABLE
  2
VIEW
  5
6
330
0
100
AcDbSymbolTable
 70
     0
  0
ENDTAB
  0
TABLE
  2
UCS
  5
7
330
0
100
AcDbSymbolTable
 70
     0
  0
ENDTAB
  0
TABLE
  2
APPID
  5
9
330
0
100
AcDbSymbolTable
 70
     2
  0
APPID
  5
12
330
9
100
AcDbSymbolTableRecord
100
AcDbRegAppTableRecord
  2
ACAD
 70
     0
  0
APPID
  5
485
330
9
100
AcDbSymbolTableRecord
100
AcDbRegAppTableRecord
  2
PLOTTRANSPARENCY
 70
     0
  0
ENDTAB
  0
TABLE
  2
DIMSTYLE
  5
A
330
0
100
AcDbSymbolTable
 70
     2
100
AcDbDimStyleTable
  0
DIMSTYLE
105
27
330
A
100
AcDbSymbolTableRecord
100
AcDbDimStyleTableRecord
  2
ISO-25
 70
     0
 41
2.5
 42
0.625
 43
3.75
 44
1.25
 73
     0
 74
     0
 77
     1
 78
     8
140
2.5
141
2.5
143
0.03937007874016
147
0.625
171
     3
172
     1
178
     0
271
     2
272
     2
274
     3
278
    44
283
     0
284
     8
340
11
  0
DIMSTYLE
105
43E
330
A
100
AcDbSymbolTableRecord
100
AcDbDimStyleTableRecord
  2
Standard
 70
     0
178
     0
340
11
  0
ENDTAB
  0
TABLE
  2
BLOCK_RECORD
  5
1
330
0
100
AcDbSymbolTable
 70
     2
  0
BLOCK_RECORD
  5
1F
330
1
100
AcDbSymbolTableRecord
100
AcDbBlockTableRecord
  2
*Model_Space
340
22
 70
     0
280
     1
281
     0
  0
BLOCK_RECORD
  5
1B
330
1
100
AcDbSymbolTableRecord
100
AcDbBlockTableRecord
  2
*Paper_Space
340
1E
 70
     0
280
     1
281
     0
  0
BLOCK_RECORD
  5
23
330
1
100
AcDbSymbolTableRecord
100
AcDbBlockTableRecord
  2
*Paper_Space0
340
26
 70
     0
280
     1
281
     0
  0
BLOCK_RECORD
  5
74
330
1
100
AcDbSymbolTableRecord
100
AcDbBlockTableRecord
  2
SW_BROKEN_VIEW_0
340
0
102
{BLKREFS
331
77
102
}
 70
     0
280
     1
281
     0
  0
ENDTAB
  0
ENDSEC
  0
SECTION
  2
BLOCKS
  0
BLOCK
  5
20
330
1F
100
AcDbEntity
  8
0
100
AcDbBlockBegin
  2
*Model_Space
 70
     0
 10
0.0
 20
0.0
 30
0.0
  3
*Model_Space
  1

  0
ENDBLK
  5
21
330
1F
100
AcDbEntity
  8
0
100
AcDbBlockEnd
  0
BLOCK
  5
1C
330
1B
100
AcDbEntity
 67
     1
  8
0
100
AcDbBlockBegin
  2
*Paper_Space
 70
     0
 10
0.0
 20
0.0
 30
0.0
  3
*Paper_Space
  1

  0
ENDBLK
  5
1D
330
1B
100
AcDbEntity
 67
     1
  8
0
100
AcDbBlockEnd
  0
BLOCK
  5
24
330
23
100
AcDbEntity
  8
0
100
AcDbBlockBegin
  2
*Paper_Space0
 70
     0
 10
0.0
 20
0.0
 30
0.0
  3
*Paper_Space0
  1

  0
ENDBLK
  5
25
330
23
100
AcDbEntity
  8
0
100
AcDbBlockEnd
  0
BLOCK
  5
75
330
74
100
AcDbEntity
  8
0
100
AcDbBlockBegin
  2
SW_BROKEN_VIEW_0
 70
     0
 10
0.0
 20
0.0
 30
0.0
  3
SW_BROKEN_VIEW_0
  1

  0
ENDBLK
  5
76
330
74
100
AcDbEntity
  8
0
100
AcDbBlockEnd
  0
ENDSEC
  0
SECTION
  2
ENTITIES
  0
INSERT
  5
77
330
1F
100
AcDbEntity
  8
0
  6
Continuous
 62
     7
100
AcDbBlockReference
  2
SW_BROKEN_VIEW_0
 10
0.0
 20
0.0
 30
0.0
  0
LINE
  5
78
330
1F
100
AcDbEntity
  8
0
  6
Continuous
 62
     0
370
     0
100
AcDbLine
 10
266.910624004207
 20
126.5408478464579
 30
0.0
 11
269.2488879927018
 21
126.8902538504099
 31
0.0
  0
LINE
  5
79
330
1F
100
AcDbEntity
  8
0
  6
Continuous
 62
     0
370
     0
100
AcDbLine
 10
269.2089767225602
 20
127.1572892155146
 30
0.0
 11
266.8707127340654
 21
126.8078832115625
 31
0.0
  0
LINE
  5
7A
330
1F
100
AcDbEntity
  8
0
  6
Continuous
 62
     0
370
     0
100
AcDbLine
 10
269.2240185507158
 20
127.1560312594866
 30
0.0
 11
269.2488879927018
 21
127.1597488011812
 31
0.0
  0
LINE
  5
7B
330
1F
100
AcDbEntity
  8
0
  6
Continuous
 62
     0
370
     0
100
AcDbLine
 10
269.2089767225602
 20
127.4267841662859
 30
0.0
 11
266.8707127340654
 21
127.0773781623339
 31
0.0
  0
LINE
  5
7C
330
1F
100
AcDbEntity
  8
0
  6
Continuous
 62
     0
370
     0
100
AcDbLine
 10
264.1496653326371
 20
126.0582835759615
 30
0.0
 11
266.940535999141
 21
126.475318798015
 31
0.0
  0
LINE
  5
7D
330
1F
100
AcDbEntity
  8
0
  6
Continuous
 62
     0
370
     0
100
AcDbLine
 10
266.8407792814592
 20
127.1429072107767
 30
0.0
 11
263.9111203916885
 21
126.705130466411
 31
0.0
  0
LWPOLYLINE
  5
7E
330
1F
100
AcDbEntity
  8
0
  6
Continuous
 62
     0
370
     0
100
AcDbPolyline
 90
       17
 70
   128
 43
0.0
 10
269.1665763624528
 20
127.1016306962465
 10
269.1614265211442
 20
127.0540322150682
 10
269.1665763624528
 20
127.0018256988024
 10
269.1812104948381
 20
126.9529612149691
 10
269.2030973203996
 20
126.9148792113756
 10
269.228932357631
 20
126.8933732594942
 10
269.2547673948625
 20
126.891718336532
 10
269.276654220424
 20
126.9101692523455
 10
269.2912883528093
 20
126.9459150518869
 10
269.2964381941179
 20
126.9935135330652
 10
269.2912883528093
 20
127.0457173671221
 10
269.276654220424
 20
127.0945818509554
 10
269.2547673948625
 20
127.1326665367579
 10
269.228932357631
 20
127.1541724886393
 10
269.2030973203996
 20
127.1558247293924
 10
269.1812104948381
 20
127.137376495788
 10
269.1665763624528
 20
127.1016306962465
  0
LWPOLYLINE
  5
7F
330
1F
100
AcDbEntity
  8
0
  6
Continuous
 62
     0
370
     0
100
AcDbPolyline
 90
        6
 70
   128
 43
0.0
 10
266.8231625326493
 20
126.7046262111162
 10
266.8283123739579
 20
126.6524196948504
 10
266.8429465063432
 20
126.603555211017
 10
266.8648333319047
 20
126.5654732074236
 10
266.8906683691362
 20
126.5439672555422
 10
266.910624004207
 20
126.5408478464579
  0
LWPOLYLINE
  5
80
330
1F
100
AcDbEntity
  8
0
  6
Continuous
 62
     0
370
     0
100
AcDbPolyline
 90
        5
 70
   128
 43
0.0
 10
266.8707127340654
 20
126.8078832115625
 10
266.8648333319047
 20
126.8064214076494
 10
266.8429465063432
 20
126.787970491836
 10
266.8283123739579
 20
126.7522246922945
 10
266.8231625326493
 20
126.7046262111162
  0
LWPOLYLINE
  5
81
330
1F
100
AcDbEntity
  8
0
  6
Continuous
 62
     0
370
     0
100
AcDbPolyline
 90
        6
 70
   128
 43
0.0
 10
266.8231625326493
 20
126.9741184796785
 10
266.8283123739579
 20
126.9219146456217
 10
266.8429465063432
 20
126.8730501617884
 10
266.8648333319047
 20
126.8349654759859
 10
266.8906683691362
 20
126.8134595241045
 10
266.8955821760514
 20
126.8116007532572
  0
LWPOLYLINE
  5
82
330
1F
100
AcDbEntity
  8
0
  6
Continuous
 62
     0
370
     0
100
AcDbPolyline
 90
        5
 70
   128
 43
0.0
 10
266.8707127340654
 20
127.0773781623339
 10
266.8648333319047
 20
127.0759136762117
 10
266.8429465063432
 20
127.0574627603983
 10
266.8283123739579
 20
127.0217169608568
 10
266.8231625326493
 20
126.9741184796785
  0
LWPOLYLINE
  5
83
330
1F
100
AcDbEntity
  8
0
  6
Continuous
 62
     0
370
     0
100
AcDbPolyline
 90
       17
 70
   128
 43
0.0
 10
269.1665763624528
 20
127.3711229648088
 10
269.1614265211442
 20
127.3235244836306
 10
269.1665763624528
 20
127.2713206495737
 10
269.1812104948381
 20
127.2224561657404
 10
269.2030973203996
 20
127.1843714799379
 10
269.228932357631
 20
127.1628655280565
 10
269.2547673948625
 20
127.1612132873034
 10
269.276654220424
 20
127.1796615209078
 10
269.2912883528093
 20
127.2154073204493
 10
269.2964381941179
 20
127.2630058016275
 10
269.2912883528093
 20
127.3152123178934
 10
269.276654220424
 20
127.3640768017267
 10
269.2547673948625
 20
127.4021588053202
 10
269.228932357631
 20
127.4236647572016
 10
269.2030973203996
 20
127.4253196801638
 10
269.1812104948381
 20
127.4068687643503
 10
269.1665763624528
 20
127.3711229648088
  0
LWPOLYLINE
  5
84
330
1F
100
AcDbEntity
  8
0
  6
Continuous
 62
     0
370
     0
100
AcDbPolyline
 90
       10
 70
   128
 43
0.0
 10
266.7219252355912
 20
126.8847606863474
 10
266.730164981685
 20
126.7803208317255
 10
266.7541546591141
 20
126.6786972965693
 10
266.7914695509294
 20
126.5898383941149
 10
266.8385262258867
 20
126.5224452104067
 10
266.8906683691362
 20
126.4831132974123
 10
266.9428105123857
 20
126.4756916250681
 10
266.9898457296708
 20
126.5009097542261
 10
267.0271820791581
 20
126.5562946881746
 10
267.0281262167314
 20
126.5584082688784
  0
LWPOLYLINE
  5
85
330
1F
100
AcDbEntity
  8
0
  6
Continuous
 62
     0
370
     0
100
AcDbPolyline
 90
        8
 70
   128
 43
0.0
 10
266.9488401182512
 20
127.0890511359667
 10
266.9428105123857
 20
127.0957807983851
 10
266.8906683691362
 20
127.1351127113794
 10
266.8385262258867
 20
127.1425343837236
 10
266.7914695509294
 20
127.1173189367746
 10
266.7541546591141
 20
127.0619313206171
 10
266.730164981685
 20
126.9817976440882
 10
266.7219252355912
 20
126.8847606863474
  0
LINE
  5
86
330
1F
100
AcDbEntity
  8
0
  6
Continuous
 62
     0
370
     0
100
AcDbLine
 10
246.5606421471134
 20
123.7048098389047
 30
0.0
 11
247.7297848701969
 21
123.8795128408807
 31
0.0
  0
LINE
  5
87
330
1F
100
AcDbEntity
  8
0
  6
Continuous
 62
     0
370
     0
100
AcDbLine
 10
247.692158842136
 20
124.828711742534
 30
0.0
 11
246.5230268478885
 21
124.654008740558
 31
0.0
  0
LINE
  5
88
330
1F
100
AcDbEntity
  8
0
  6
Continuous
 62
     0
370
     0
100
AcDbLine
 10
186.9347924232975
 20
114.7949647847551
 30
0.0
 11
188.103935146381
 21
114.9696677867311
 31
0.0
  0
LINE
  5
89
330
1F
100
AcDbEntity
  8
0
  6
Continuous
 62
     0
370
     0
100
AcDbLine
 10
188.0663198471561
 20
115.9188666883844
 30
0.0
 11
186.8971771240726
 21
115.7441636864084
 31
0.0
  0
LINE
  5
8A
330
1F
100
AcDbEntity
  8
0
  6
Continuous
 62
     0
370
     0
100
AcDbLine
 10
178.4918207169071
 20
113.1732180658716
 30
0.0
 11
256.4341110229984
 21
124.8200750295061
 31
0.0
  0
LINE
  5
8B
330
1F
100
AcDbEntity
  8
0
  6
Continuous
 62
     0
370
     0
100
AcDbLine
 10
256.769923591663
 20
125.1968771163362
 30
0.0
 11
256.8310886860386
 21
125.20601540245
 31
0.0
  0
LINE
  5
8C
330
1F
100
AcDbEntity
  8
0
  6
Continuous
 62
     0
370
     0
100
AcDbLine
 10
258.1987256050601
 20
125.1690357867616
 30
0.0
 11
263.4184330940739
 21
125.9490114394563
 31
0.0
  0
LINE
  5
8D
330
1F
100
AcDbEntity
  8
0
  6
Continuous
 62
     0
370
     0
100
AcDbLine
 10
263.1798666954533
 20
126.5958596710104
 30
0.0
 11
258.0989688873783
 21
125.8366241995233
 31
0.0
  0
LINE
  5
8E
330
1F
100
AcDbEntity
  8
0
  6
Continuous
 62
     0
370
     0
100
AcDbLine
 10
257.9873782635227
 20
125.4804563466448
 30
0.0
 11
257.7963835239902
 21
125.4519149605173
 31
0.0
  0
LINE
  5
8F
330
1F
100
AcDbEntity
  8
0
  6
Continuous
 62
     0
370
     0
100
AcDbLine
 10
257.8362840652958
 20
125.1848795954126
 30
0.0
 11
258.0906754971043
 21
125.2228918615717
 31
0.0
  0
LINE
  5
90
330
1F
100
AcDbEntity
  8
0
  6
Continuous
 62
     0
370
     0
100
AcDbLine
 10
258.011378669788
 20
125.75353472866
 30
0.0
 11
257.7963835239902
 21
125.7214072290796
 31
0.0
  0
SPLINE
  5
91
330
1F
100
AcDbEntity
  8
0
  6
Continuous
 62
     0
370
     0
100
AcDbSpline
210
0.0
220
0.0
230
1.0
 70
     8
 71
     3
 72
     9
 73
     5
 74
     0
 42
0.000000001
 43
0.00000001
 40
0.0
 40
0.0
 40
0.0
 40
0.0
 40
0.4666076649083276
 40
1.0
 40
1.0
 40
1.0
 40
1.0
 10
257.7631670475498
 20
125.1618179623026
 30
0.0
 10
257.7741181978977
 20
125.1667171320018
 30
0.0
 10
257.7975879159744
 20
125.1772166802685
 30
0.0
 10
257.8228235640443
 20
125.1822140413279
 30
0.0
 10
257.8362840652958
 20
125.1848795954126
 30
0.0
  0
SPLINE
  5
92
330
1F
100
AcDbEntity
  8
0
  6
Continuous
 62
     0
370
     0
100
AcDbSpline
210
0.0
220
0.0
230
1.0
 70
     8
 71
     3
 72
     9
 73
     5
 74
     0
 42
0.000000001
 43
0.00000001
 40
0.0
 40
0.0
 40
0.0
 40
0.0
 40
0.4485320013347194
 40
1.0
 40
1.0
 40
1.0
 40
1.0
 10
257.7963835239902
 20
125.4519149605173
 30
0.0
 10
257.7730220998702
 20
125.4475403129341
 30
0.0
 10
257.7209379140138
 20
125.4377870565997
 30
0.0
 10
257.672337604445
 20
125.4165541455032
 30
0.0
 10
257.6455360889927
 20
125.4048448745149
 30
0.0
  0
LINE
  5
93
330
1F
100
AcDbEntity
  8
0
  6
Continuous
 62
     0
370
     0
100
AcDbLine
 10
257.6455360889927
 20
125.4048448745149
 30
0.0
 11
257.3653954506412
 21
125.269245797767
 31
0.0
  0
LINE
  5
94
330
1F
100
AcDbEntity
  8
0
  6
Continuous
 62
     0
370
     0
100
AcDbLine
 10
257.4830264091984
 20
125.0262188855547
 30
0.0
 11
257.7631670475498
 21
125.1618179623026
 31
0.0
  0
SPLINE
  5
95
330
1F
100
AcDbEntity
  8
0
  6
Continuous
 62
     0
370
     0
100
AcDbSpline
210
0.0
220
0.0
230
1.0
 70
     8
 71
     3
 72
     9
 73
     5
 74
     0
 42
0.000000001
 43
0.00000001
 40
0.0
 40
0.0
 40
0.0
 40
0.0
 40
0.6703337560550774
 40
1.0
 40
1.0
 40
1.0
 40
1.0
 10
257.6797718048587
 20
125.4567456189531
 30
0.0
 10
257.7031297965653
 20
125.4529334040264
 30
0.0
 10
257.7379751127911
 20
125.4472463639627
 30
0.0
 10
257.7730265339623
 20
125.4502914937391
 30
0.0
 10
257.7845818043247
 20
125.4512953702348
 30
0.0
  0
SPLINE
  5
96
330
1F
100
AcDbEntity
  8
0
  6
Continuous
 62
     0
370
     0
100
AcDbSpline
210
0.0
220
0.0
230
1.0
 70
     8
 71
     3
 72
     9
 73
     5
 74
     0
 42
0.000000001
 43
0.00000001
 40
0.0
 40
0.0
 40
0.0
 40
0.0
 40
0.4640339019875435
 40
0.9999999999999999
 40
0.9999999999999999
 40
0.9999999999999999
 40
0.9999999999999999
 10
257.7963835239902
 20
125.7214072290796
 30
0.0
 10
257.7859418602648
 20
125.7202055007558
 30
0.0
 10
257.7634399187457
 20
125.717615758242
 30
0.0
 10
257.7409728948272
 20
125.7206203226078
 30
0.0
 10
257.7289313316837
 20
125.7222306672472
 30
0.0
  0
LINE
  5
97
330
1F
100
AcDbEntity
  8
0
  6
Continuous
 62
     0
370
     0
100
AcDbLine
 10
257.7289313316837
 20
125.7222306672472
 30
0.0
 11
257.4487906933323
 21
125.7741072718042
 31
0.0
  0
LINE
  5
98
330
1F
100
AcDbEntity
  8
0
  6
Continuous
 62
     0
370
     0
100
AcDbLine
 10
257.3996311665073
 20
125.5086195413011
 30
0.0
 11
257.6797718048587
 21
125.4567456189531
 31
0.0
  0
SPLINE
  5
99
330
1F
100
AcDbEntity
  8
0
  6
Continuous
 62
     0
370
     0
100
AcDbSpline
210
0.0
220
0.0
230
1.0
 70
     8
 71
     3
 72
     9
 73
     5
 74
     0
 42
0.000000001
 43
0.00000001
 40
0.0
 40
0.0
 40
0.0
 40
0.0
 40
0.4485347495165415
 40
1.0
 40
1.0
 40
1.0
 40
1.0
 10
257.3321789742008
 20
124.9791514817613
 30
0.0
 10
257.35554034472
 20
124.9835262663414
 30
0.0
 10
257.4076240919534
 20
124.9932797683493
 30
0.0
 10
257.4562248048738
 20
125.0145107415826
 30
0.0
 10
257.4830264091984
 20
125.0262188855547
 30
0.0
  0
SPLINE
  5
9A
330
1F
100
AcDbEntity
  8
0
  6
Continuous
 62
     0
370
     0
100
AcDbSpline
210
0.0
220
0.0
230
1.0
 70
     8
 71
     3
 72
     9
 73
     5
 74
     0
 42
0.000000001
 43
0.00000001
 40
0.0
 40
0.0
 40
0.0
 40
0.0
 40
0.4666114599936927
 40
1.0
 40
1.0
 40
1.0
 40
1.0
 10
257.3653954506412
 20
125.269245797767
 30
0.0
 10
257.3544443427052
 20
125.2643464522623
 30
0.0
 10
257.3309749064078
 20
125.2538466126208
 30
0.0
 10
257.3057389844591
 20
125.2488512930688
 30
0.0
 10
257.2922784328953
 20
125.246186846866
 30
0.0
  0
LINE
  5
9B
330
1F
100
AcDbEntity
  8
0
  6
Continuous
 62
     0
370
     0
100
AcDbLine
 10
257.2922784328953
 20
125.246186846866
 30
0.0
 11
256.5700453758732
 21
125.1382628027338
 31
0.0
  0
LINE
  5
9C
330
1F
100
AcDbEntity
  8
0
  6
Continuous
 62
     0
370
     0
100
AcDbLine
 10
256.6099566460148
 20
124.8712301198381
 30
0.0
 11
257.3321789742008
 21
124.9791514817613
 31
0.0
  0
SPLINE
  5
9D
330
1F
100
AcDbEntity
  8
0
  6
Continuous
 62
     0
370
     0
100
AcDbSpline
210
0.0
220
0.0
230
1.0
 70
     8
 71
     3
 72
     9
 73
     5
 74
     0
 42
0.000000001
 43
0.00000001
 40
0.0
 40
0.0
 40
0.0
 40
0.0
 40
0.4640339019875417
 40
0.9999999999999999
 40
0.9999999999999999
 40
0.9999999999999999
 40
0.9999999999999999
 10
257.3321789742008
 20
125.5094429794687
 30
0.0
 10
257.3426206379262
 20
125.5106447077925
 30
0.0
 10
257.3651225794453
 20
125.5132344503063
 30
0.0
 10
257.3875896033637
 20
125.5102298859405
 30
0.0
 10
257.3996311665073
 20
125.5086195413011
 30
0.0
  0
SPLINE
  5
9E
330
1F
100
AcDbEntity
  8
0
  6
Continuous
 62
     0
370
     0
100
AcDbSpline
210
0.0
220
0.0
230
1.0
 70
     8
 71
     3
 72
     9
 73
     5
 74
     0
 42
0.000000001
 43
0.00000001
 40
0.0
 40
0.0
 40
0.0
 40
0.0
 40
0.4493538403829264
 40
1.0
 40
1.0
 40
1.0
 40
1.0
 10
257.4487906933323
 20
125.7741072718042
 30
0.0
 10
257.4254189370004
 20
125.7774884614973
 30
0.0
 10
257.3734070162566
 20
125.7850130209631
 30
0.0
 10
257.3210878054178
 20
125.7795090726014
 30
0.0
 10
257.2922784328953
 20
125.7764783445734
 30
0.0
  0
LINE
  5
9F
330
1F
100
AcDbEntity
  8
0
  6
Continuous
 62
     0
370
     0
100
AcDbLine
 10
257.2922784328953
 20
125.7764783445734
 30
0.0
 11
256.5700453758732
 21
125.6685569826502
 31
0.0
  0
LINE
  5
A0
330
1F
100
AcDbEntity
  8
0
  6
Continuous
 62
     0
370
     0
100
AcDbLine
 10
256.6099566460148
 20
125.4015216175455
 30
0.0
 11
257.3321789742008
 21
125.5094429794687
 31
0.0
  0
LINE
  5
A1
330
1F
100
AcDbEntity
  8
0
  6
Continuous
 62
     0
370
     0
100
AcDbLine
 10
178.6842960358158
 20
112.9435861054796
 30
0.0
 11
256.6265756130709
 21
124.5904430691141
 31
0.0
  0
LINE
  5
A2
330
1F
100
AcDbEntity
  8
0
  6
Continuous
 62
     0
370
     0
100
AcDbLine
 10
249.1022390366092
 20
124.8371070567507
 30
0.0
 11
248.6381954193608
 21
125.0451338235277
 31
0.0
  0
LINE
  5
A3
330
1F
100
AcDbEntity
  8
0
  6
Continuous
 62
     0
370
     0
100
AcDbLine
 10
248.6381954193608
 20
125.2189999762911
 30
0.0
 11
248.6381954193608
 21
125.0451338235277
 31
0.0
  0
LINE
  5
A4
330
1F
100
AcDbEntity
  8
0
  6
Continuous
 62
     0
370
     0
100
AcDbLine
 10
248.6381954193608
 20
125.2189999762911
 30
0.0
 11
249.2681926727787
 21
124.936579460277
 31
0.0
  0
LINE
  5
A5
330
1F
100
AcDbEntity
  8
0
  6
Continuous
 62
     0
370
     0
100
AcDbLine
 10
249.2681926727787
 20
124.936579460277
 30
0.0
 11
249.2681926727787
 21
124.8619067613024
 31
0.0
  0
LINE
  5
A6
330
1F
100
AcDbEntity
  8
0
  6
Continuous
 62
     0
370
     0
100
AcDbLine
 10
247.8362685680882
 20
124.9213659707445
 30
0.0
 11
247.8362685680882
 21
124.6518710199732
 31
0.0
  0
LWPOLYLINE
  5
A7
330
1F
100
AcDbEntity
  8
0
  6
Continuous
 62
     0
370
     0
100
AcDbPolyline
 90
        3
 70
   128
 43
0.0
 10
247.8360218048587
 20
124.6478959862131
 10
247.8360969067112
 20
124.6485584918398
 10
247.8362685680882
 20
124.6518710199732
  0
LINE
  5
A8
330
1F
100
AcDbEntity
  8
0
  6
Continuous
 62
     0
370
     0
100
AcDbLine
 10
247.8137701988712
 20
124.6445727292436
 30
0.0
 11
247.7671641350284
 21
124.6654644552606
 31
0.0
  0
LWPOLYLINE
  5
A9
330
1F
100
AcDbEntity
  8
0
  6
Continuous
 62
     0
370
     0
100
AcDbPolyline
 90
        9
 70
   128
 43
0.0
 10
247.7581948280826
 20
124.6508973781008
 10
247.7582484722629
 20
124.6544271651643
 10
247.7586883545414
 20
124.6576914135355
 10
247.7594715595737
 20
124.6605506483453
 10
247.7605873585238
 20
124.6628895346063
 10
247.7619713783756
 20
124.6646061483759
 10
247.7635807037846
 20
124.6656307522196
 10
247.7653402328983
 20
124.6659204307932
 10
247.7671641350284
 20
124.6654644552606
  0
LINE
  5
AA
330
1F
100
AcDbEntity
  8
0
  6
Continuous
 62
     0
370
     0
100
AcDbLine
 10
247.7581948280826
 20
124.6508973781008
 30
0.0
 11
247.7687734604374
 21
124.3515735808748
 31
0.0
  0
LINE
  5
AB
330
1F
100
AcDbEntity
  8
0
  6
Continuous
 62
     0
370
     0
100
AcDbLine
 10
247.7762514591708
 20
124.1400438491243
 30
0.0
 11
247.7773350716129
 21
124.1093271914858
 31
0.0
  0
ARC
  5
AC
330
1F
100
AcDbEntity
  8
0
  6
Continuous
 62
     0
370
     0
100
AcDbCircle
 10
247.8286240298252
 20
124.1107654279582
 30
0.0
 40
0.0513091196442078
100
AcDbArc
 50
181.6062578248464
 51
206.8845415545992
  0
LINE
  5
AD
330
1F
100
AcDbEntity
  8
0
  6
Continuous
 62
     0
370
     0
100
AcDbLine
 10
247.7828604221836
 20
124.0875637475389
 30
0.0
 11
247.8137701988712
 21
124.0302771273988
 31
0.0
  0
LINE
  5
AE
330
1F
100
AcDbEntity
  8
0
  6
Continuous
 62
     0
370
     0
100
AcDbLine
 10
247.8137701988712
 20
124.0302771273988
 30
0.0
 11
247.8137701988712
 21
124.004198009147
 31
0.0
  0
LINE
  5
AF
330
1F
100
AcDbEntity
  8
0
  6
Continuous
 62
     0
370
     0
100
AcDbLine
 10
247.8137701988712
 20
124.004198009147
 30
0.0
 11
247.7335399628178
 21
123.882256740703
 31
0.0
  0
LWPOLYLINE
  5
B0
330
1F
100
AcDbEntity
  8
0
  6
Continuous
 62
     0
370
     0
100
AcDbPolyline
 90
        9
 70
   128
 43
0.0
 10
247.7181440830723
 20
123.9001363459963
 10
247.7186805248753
 20
123.8950321022409
 10
247.7199143410221
 20
123.8901129309076
 10
247.7217382431523
 20
123.8857865277666
 10
247.7240020275607
 20
123.8823988977808
 10
247.7265233040347
 20
123.8802343551058
 10
247.7290874958531
 20
123.8794672433275
 10
247.7314907551304
 20
123.8801619354624
 10
247.7335399628178
 20
123.882256740703
  0
LINE
  5
B1
330
1F
100
AcDbEntity
  8
0
  6
Continuous
 62
     0
370
     0
100
AcDbLine
 10
247.7181440830723
 20
123.9001363459963
 30
0.0
 11
247.6858395576969
 21
124.8137316051859
 31
0.0
  0
LWPOLYLINE
  5
B2
330
1F
100
AcDbEntity
  8
0
  6
Continuous
 62
     0
370
     0
100
AcDbPolyline
 90
        9
 70
   128
 43
0.0
 10
247.6948195934787
 20
124.8282960001367
 10
247.6929849625126
 20
124.8287546578783
 10
247.6912361622348
 20
124.8284622970957
 10
247.6896268368259
 20
124.827437693252
 10
247.6882428169742
 20
124.8257210794824
 10
247.687127018024
 20
124.8233821932214
 10
247.6863438129916
 20
124.8205229584116
 10
247.6859039307133
 20
124.8172587100404
 10
247.6858395576969
 20
124.8137316051859
  0
LINE
  5
B3
330
1F
100
AcDbEntity
  8
0
  6
Continuous
 62
     0
370
     0
100
AcDbLine
 10
247.6948195934787
 20
124.8282960001367
 30
0.0
 11
247.7687734604374
 21
124.7951438967127
 31
0.0
  0
LINE
  5
B4
330
1F
100
AcDbEntity
  8
0
  6
Continuous
 62
     0
370
     0
100
AcDbLine
 10
247.7687734604374
 20
124.7951438967127
 30
0.0
 11
247.7687734604374
 21
124.969012731685
 31
0.0
  0
LINE
  5
B5
330
1F
100
AcDbEntity
  8
0
  6
Continuous
 62
     0
370
     0
100
AcDbLine
 10
247.8452700615421
 20
124.9347180072206
 30
0.0
 11
247.7687734604374
 21
124.969012731685
 31
0.0
  0
LWPOLYLINE
  5
B6
330
1F
100
AcDbEntity
  8
0
  6
Continuous
 62
     0
370
     0
100
AcDbPolyline
 90
        9
 70
   128
 43
0.0
 10
247.8362685680882
 20
124.9213659707445
 10
247.836440229465
 20
124.9246811810869
 10
247.8369552135959
 20
124.9277120772737
 10
247.8377920628086
 20
124.9303460065263
 10
247.8389078617587
 20
124.9324783626932
 10
247.8402704239383
 20
124.9340286795038
 10
247.841826105167
 20
124.9349379483598
 10
247.8435212612643
 20
124.9351713005441
 10
247.8452700615421
 20
124.9347180072206
  0
LINE
  5
B7
330
1F
100
AcDbEntity
  8
0
  6
Continuous
 62
     0
370
     0
100
AcDbLine
 10
248.3923119545475
 20
125.0621873084444
 30
0.0
 11
248.3923119545475
 21
125.2360534612077
 31
0.0
  0
LINE
  5
B8
330
1F
100
AcDbEntity
  8
0
  6
Continuous
 62
     0
370
     0
100
AcDbLine
 10
248.3923119545475
 20
125.2360534612077
 30
0.0
 11
248.6381954193608
 21
125.2189999762911
 31
0.0
  0
LINE
  5
B9
330
1F
100
AcDbEntity
  8
0
  6
Continuous
 62
     0
370
     0
100
AcDbLine
 10
248.6381954193608
 20
125.0451338235277
 30
0.0
 11
248.3923119545475
 21
125.0621873084444
 31
0.0
  0
LINE
  5
BA
330
1F
100
AcDbEntity
  8
0
  6
Continuous
 62
     0
370
     0
100
AcDbLine
 10
248.3228212833897
 20
124.720637494697
 30
0.0
 11
248.2637697697177
 21
124.7471082154649
 31
0.0
  0
LINE
  5
BB
330
1F
100
AcDbEntity
  8
0
  6
Continuous
 62
     0
370
     0
100
AcDbLine
 10
248.2637697697177
 20
124.7471082154649
 30
0.0
 11
248.187273168613
 21
124.7814029399294
 31
0.0
  0
LINE
  5
BC
330
1F
100
AcDbEntity
  8
0
  6
Continuous
 62
     0
370
     0
100
AcDbLine
 10
246.3742608070865
 20
124.4294676128763
 30
0.0
 11
245.910217189838
 21
124.6374943796533
 31
0.0
  0
LINE
  5
BD
330
1F
100
AcDbEntity
  8
0
  6
Continuous
 62
     0
370
     0
100
AcDbLine
 10
245.9761029720799
 20
124.7011351529497
 30
0.0
 11
245.910217189838
 21
124.6374943796533
 31
0.0
  0
LINE
  5
BE
330
1F
100
AcDbEntity
  8
0
  6
Continuous
 62
     0
370
     0
100
AcDbLine
 10
245.9761029720799
 20
124.7011351529497
 30
0.0
 11
246.5996414661899
 21
124.794309729709
 31
0.0
  0
LINE
  5
BF
330
1F
100
AcDbEntity
  8
0
  6
Continuous
 62
     0
370
     0
100
AcDbLine
 10
248.3923119545475
 20
125.0621873084444
 30
0.0
 11
247.7687734604374
 21
124.969012731685
 31
0.0
  0
LWPOLYLINE
  5
C0
330
1F
100
AcDbEntity
  8
0
  6
Continuous
 62
     0
370
     0
100
AcDbPolyline
 90
        3
 70
   128
 43
0.0
 10
246.4170581341282
 20
124.5384001675981
 10
246.4691466331974
 20
124.5230230633157
 10
246.5210741997257
 20
124.5155557934183
  0
LINE
  5
C1
330
1F
100
AcDbEntity
  8
0
  6
Continuous
 62
     0
370
     0
100
AcDbLine
 10
246.5996414661899
 20
124.6661940161127
 30
0.0
 11
246.5428000927464
 21
124.6916750017542
 31
0.0
  0
LWPOLYLINE
  5
C2
330
1F
100
AcDbEntity
  8
0
  6
Continuous
 62
     0
370
     0
100
AcDbPolyline
 90
        9
 70
   128
 43
0.0
 10
246.5428000927464
 20
124.6916750017542
 10
246.490700864841
 20
124.7070494238275
 10
246.4198369026676
 20
124.7160938326257
 10
246.3409906864659
 20
124.7174322549242
 10
246.2661785126224
 20
124.7108581606287
 10
246.2067729473606
 20
124.6973746959108
 10
246.1718291283146
 20
124.679033750667
 10
246.1666578293338
 20
124.6586275044817
 10
246.1920529842868
 20
124.6392646376032
  0
LINE
  5
C3
330
1F
100
AcDbEntity
  8
0
  6
Continuous
 62
     0
370
     0
100
AcDbLine
 10
246.1920529842868
 20
124.6392646376032
 30
0.0
 11
246.4170581341282
 21
124.5384001675981
 31
0.0
  0
LWPOLYLINE
  5
C4
330
1F
100
AcDbEntity
  8
0
  6
Continuous
 62
     0
370
     0
100
AcDbPolyline
 90
       17
 70
   128
 43
0.0
 10
248.2277208805575
 20
124.8993664924043
 10
248.2531160355106
 20
124.8800036255258
 10
248.3052045345798
 20
124.8646292034525
 10
248.3760684967533
 20
124.8555821124452
 10
248.4549147129551
 20
124.8542463723558
 10
248.5297376156344
 20
124.8608204666513
 10
248.5891324520603
 20
124.8743039313692
 10
248.6240869999424
 20
124.892642194404
 10
248.629247570087
 20
124.9130484405893
 10
248.603852415134
 20
124.9324139896768
 10
248.5517531872287
 20
124.9477884117502
 10
248.4808892250553
 20
124.9568328205484
 10
248.4020537376896
 20
124.9581712428468
 10
248.3272308350101
 20
124.9515971485513
 10
248.2678252697483
 20
124.9381136838335
 10
248.2328814507023
 20
124.9197727385896
 10
248.2277208805575
 20
124.8993664924043
  0
LINE
  5
C5
330
1F
100
AcDbEntity
  8
0
  6
Continuous
 62
     0
370
     0
100
AcDbLine
 10
246.5490120888248
 20
123.7254333440202
 30
0.0
 11
247.7181440830723
 21
123.9001363459963
 31
0.0
  0
LINE
  5
C6
330
1F
100
AcDbEntity
  8
0
  6
Continuous
 62
     0
370
     0
100
AcDbLine
 10
246.5490120888248
 20
123.7254333440202
 30
0.0
 11
246.5167075634494
 21
124.6390286032099
 31
0.0
  0
LINE
  5
C7
330
1F
100
AcDbEntity
  8
0
  6
Continuous
 62
     0
370
     0
100
AcDbLine
 10
247.6858395576969
 20
124.8137316051859
 30
0.0
 11
246.5167075634494
 21
124.6390286032099
 31
0.0
  0
LINE
  5
C8
330
1F
100
AcDbEntity
  8
0
  6
Continuous
 62
     0
370
     0
100
AcDbLine
 10
246.5996414661899
 20
124.6654564086336
 30
0.0
 11
246.5996414661899
 21
124.794309729709
 31
0.0
  0
LINE
  5
C9
330
1F
100
AcDbEntity
  8
0
  6
Continuous
 62
     0
370
     0
100
AcDbLine
 10
245.9761029720799
 20
124.8750013057131
 30
0.0
 11
245.9761029720799
 21
124.7011351529497
 31
0.0
  0
LINE
  5
CA
330
1F
100
AcDbEntity
  8
0
  6
Continuous
 62
     0
370
     0
100
AcDbLine
 10
245.9761029720799
 20
124.8750013057131
 30
0.0
 11
248.3923119545475
 21
125.2360534612077
 31
0.0
  0
LWPOLYLINE
  5
CB
330
1F
100
AcDbEntity
  8
0
  6
Continuous
 62
     0
370
     0
100
AcDbPolyline
 90
        8
 70
   128
 43
0.0
 10
246.5606421471134
 20
123.7048098389047
 10
246.5599555016056
 20
123.7047642413515
 10
246.5573913097874
 20
123.7055313531297
 10
246.5548700333134
 20
123.7076958958048
 10
246.5526062489048
 20
123.7110835257906
 10
246.5507823467746
 20
123.7154126111406
 10
246.5495485306278
 20
123.7203291002649
 10
246.5490120888248
 20
123.7254333440202
  0
LWPOLYLINE
  5
CC
330
1F
100
AcDbEntity
  8
0
  6
Continuous
 62
     0
370
     0
100
AcDbPolyline
 90
        8
 70
   128
 43
0.0
 10
246.5167075634494
 20
124.6390286032099
 10
246.5167719364658
 20
124.6425557080644
 10
246.5172010899082
 20
124.6458199564356
 10
246.5179950237766
 20
124.6486791912454
 10
246.5191108227268
 20
124.6510180775064
 10
246.5204948425784
 20
124.652734691276
 10
246.5221041679874
 20
124.6537592951196
 10
246.5230268478885
 20
124.654008740558
  0
LINE
  5
CD
330
1F
100
AcDbEntity
  8
0
  6
Continuous
 62
     0
370
     0
100
AcDbLine
 10
248.1962746620671
 20
124.701727921142
 30
0.0
 11
248.1962746620671
 21
124.7599828187364
 31
0.0
  0
ARC
  5
CE
330
1F
100
AcDbEntity
  8
0
  6
Continuous
 62
     0
370
     0
100
AcDbCircle
 10
248.1716433051961
 20
124.7622332840858
 30
0.0
 40
0.0247339510711974
100
AcDbArc
 50
354.7796151705589
 51
50.80812553025359
  0
LINE
  5
CF
330
1F
100
AcDbEntity
  8
0
  6
Continuous
 62
     0
370
     0
100
AcDbLine
 10
248.2637697697177
 20
124.7471082154649
 30
0.0
 11
248.2637697697177
 21
124.711815709247
 31
0.0
  0
LINE
  5
D0
330
1F
100
AcDbEntity
  8
0
  6
Continuous
 62
     0
370
     0
100
AcDbLine
 10
245.910217189838
 20
124.6374943796533
 30
0.0
 11
245.910217189838
 21
124.8113605324167
 31
0.0
  0
LINE
  5
D1
330
1F
100
AcDbEntity
  8
0
  6
Continuous
 62
     0
370
     0
100
AcDbLine
 10
245.910217189838
 20
124.8113605324167
 30
0.0
 11
245.9761029720799
 21
124.8750013057131
 31
0.0
  0
LINE
  5
D2
330
1F
100
AcDbEntity
  8
0
  6
Continuous
 62
     0
370
     0
100
AcDbLine
 10
246.4170581341282
 20
124.7122663203615
 30
0.0
 11
246.4170581341282
 21
124.5384001675981
 31
0.0
  0
LINE
  5
D3
330
1F
100
AcDbEntity
  8
0
  6
Continuous
 62
     0
370
     0
100
AcDbLine
 10
246.406758451511
 20
124.7168824020761
 30
0.0
 11
246.4170581341282
 21
124.7122663203615
 31
0.0
  0
ARC
  5
D4
330
1F
100
AcDbEntity
  8
0
  6
Continuous
 62
     0
370
     0
100
AcDbCircle
 10
246.5678065294886
 20
125.1461282237838
 30
0.0
 40
0.4593051599372199
100
AcDbArc
 50
250.8398542273314
 51
268.1637610460033
  0
LINE
  5
D5
330
1F
100
AcDbEntity
  8
0
  6
Continuous
 62
     0
370
     0
100
AcDbLine
 10
189.4763893127933
 20
115.927262002601
 30
0.0
 11
189.0123456955448
 21
116.1352887693781
 31
0.0
  0
LINE
  5
D6
330
1F
100
AcDbEntity
  8
0
  6
Continuous
 62
     0
370
     0
100
AcDbLine
 10
189.0123456955448
 20
116.3091549221414
 30
0.0
 11
189.0123456955448
 21
116.1352887693781
 31
0.0
  0
LINE
  5
D7
330
1F
100
AcDbEntity
  8
0
  6
Continuous
 62
     0
370
     0
100
AcDbLine
 10
189.0123456955448
 20
116.3091549221414
 30
0.0
 11
189.6423429489627
 21
116.0267344061273
 31
0.0
  0
LINE
  5
D8
330
1F
100
AcDbEntity
  8
0
  6
Continuous
 62
     0
370
     0
100
AcDbLine
 10
189.6423429489627
 20
116.0267344061273
 30
0.0
 11
189.6423429489627
 21
115.9520590249437
 31
0.0
  0
LINE
  5
D9
330
1F
100
AcDbEntity
  8
0
  6
Continuous
 62
     0
370
     0
100
AcDbLine
 10
188.2104295731083
 20
116.0115209165949
 30
0.0
 11
188.2104295731083
 21
115.7420259658235
 31
0.0
  0
LWPOLYLINE
  5
DA
330
1F
100
AcDbEntity
  8
0
  6
Continuous
 62
     0
370
     0
100
AcDbPolyline
 90
        3
 70
   128
 43
0.0
 10
188.2101720810428
 20
115.7380509320635
 10
188.2102579117313
 20
115.7387134376901
 10
188.2104295731083
 20
115.7420259658235
  0
LINE
  5
DB
330
1F
100
AcDbEntity
  8
0
  6
Continuous
 62
     0
370
     0
100
AcDbLine
 10
188.1879204750553
 20
115.734727675094
 30
0.0
 11
188.1413144112125
 21
115.755619401111
 31
0.0
  0
LWPOLYLINE
  5
DC
330
1F
100
AcDbEntity
  8
0
  6
Continuous
 62
     0
370
     0
100
AcDbPolyline
 90
        9
 70
   128
 43
0.0
 10
188.1323451042667
 20
115.7410523239511
 10
188.1324094772831
 20
115.7445821110147
 10
188.1328386307254
 20
115.7478436771768
 10
188.1336325645939
 20
115.7507055941957
 10
188.134748363544
 20
115.7530417982477
 10
188.1361216545597
 20
115.7547610942262
 10
188.1377309799686
 20
115.7557856980699
 10
188.1394905090824
 20
115.7560753766435
 10
188.1413144112125
 20
115.755619401111
  0
LINE
  5
DD
330
1F
100
AcDbEntity
  8
0
  6
Continuous
 62
     0
370
     0
100
AcDbLine
 10
188.1323451042667
 20
115.7410523239511
 30
0.0
 11
188.1429237366214
 21
115.4417258445162
 31
0.0
  0
LINE
  5
DE
330
1F
100
AcDbEntity
  8
0
  6
Continuous
 62
     0
370
     0
100
AcDbLine
 10
188.1503910065189
 20
115.2301961127657
 30
0.0
 11
188.151485347797
 21
115.1994821373361
 31
0.0
  0
ARC
  5
DF
330
1F
100
AcDbEntity
  8
0
  6
Continuous
 62
     0
370
     0
100
AcDbCircle
 10
188.2020310807663
 20
115.2007538734476
 30
0.0
 40
0.0505617289473385
100
AcDbArc
 50
181.4412639426789
 51
207.1025992851233
  0
LINE
  5
E0
330
1F
100
AcDbEntity
  8
0
  6
Continuous
 62
     0
370
     0
100
AcDbLine
 10
188.1570214272037
 20
115.1777186933893
 30
0.0
 11
188.1879204750553
 21
115.1204320732492
 31
0.0
  0
LINE
  5
E1
330
1F
100
AcDbEntity
  8
0
  6
Continuous
 62
     0
370
     0
100
AcDbLine
 10
188.1879204750553
 20
115.1204320732492
 30
0.0
 11
188.1879204750553
 21
115.0943502727884
 31
0.0
  0
LINE
  5
E2
330
1F
100
AcDbEntity
  8
0
  6
Continuous
 62
     0
370
     0
100
AcDbLine
 10
188.1879204750553
 20
115.0943502727884
 30
0.0
 11
188.1076902390018
 21
114.9724116865534
 31
0.0
  0
LWPOLYLINE
  5
E3
330
1F
100
AcDbEntity
  8
0
  6
Continuous
 62
     0
370
     0
100
AcDbPolyline
 90
        9
 70
   128
 43
0.0
 10
188.0922836304203
 20
114.9902912918466
 10
188.0928415298954
 20
114.9851870480913
 10
188.0940646172062
 20
114.980267876758
 10
188.0958885193363
 20
114.9759387914079
 10
188.0981630325809
 20
114.9725538436311
 10
188.1006735802189
 20
114.9703893009561
 10
188.1032485008731
 20
114.9696221891779
 10
188.1056517601505
 20
114.9703141991037
 10
188.1076902390018
 20
114.9724116865534
  0
LINE
  5
E4
330
1F
100
AcDbEntity
  8
0
  6
Continuous
 62
     0
370
     0
100
AcDbLine
 10
188.0922836304203
 20
114.9902912918466
 30
0.0
 11
188.059989833881
 21
115.9038838688272
 31
0.0
  0
LWPOLYLINE
  5
E5
330
1F
100
AcDbEntity
  8
0
  6
Continuous
 62
     0
370
     0
100
AcDbPolyline
 90
        9
 70
   128
 43
0.0
 10
188.0689805984989
 20
115.9184509459871
 10
188.0671352386966
 20
115.9189069215196
 10
188.0653757095829
 20
115.918617242946
 10
188.0637878418461
 20
115.9175926391023
 10
188.0623930931583
 20
115.9158760253328
 10
188.0612772942081
 20
115.9135371390718
 10
188.0604833603397
 20
115.9106779042619
 10
188.0600542068973
 20
115.9074136558908
 10
188.059989833881
 20
115.9038838688272
  0
LINE
  5
E6
330
1F
100
AcDbEntity
  8
0
  6
Continuous
 62
     0
370
     0
100
AcDbLine
 10
188.0689805984989
 20
115.9184509459871
 30
0.0
 11
188.1429237366214
 21
115.885298842563
 31
0.0
  0
LINE
  5
E7
330
1F
100
AcDbEntity
  8
0
  6
Continuous
 62
     0
370
     0
100
AcDbLine
 10
188.1429237366214
 20
115.885298842563
 30
0.0
 11
188.1429237366214
 21
116.0591649953264
 31
0.0
  0
LINE
  5
E8
330
1F
100
AcDbEntity
  8
0
  6
Continuous
 62
     0
370
     0
100
AcDbLine
 10
188.2194203377262
 20
116.024872953071
 30
0.0
 11
188.1429237366214
 21
116.0591649953264
 31
0.0
  0
LWPOLYLINE
  5
E9
330
1F
100
AcDbEntity
  8
0
  6
Continuous
 62
     0
370
     0
100
AcDbPolyline
 90
        9
 70
   128
 43
0.0
 10
188.2104295731083
 20
116.0115209165949
 10
188.2106012344852
 20
116.0148334447283
 10
188.2111162186161
 20
116.0178670231241
 10
188.2119316101566
 20
116.0204982701677
 10
188.2130688667789
 20
116.0226333085436
 10
188.2144207001224
 20
116.0241836253542
 10
188.2159871101871
 20
116.0250928942102
 10
188.2176608086124
 20
116.0253262463945
 10
188.2194203377262
 20
116.024872953071
  0
LINE
  5
EA
330
1F
100
AcDbEntity
  8
0
  6
Continuous
 62
     0
370
     0
100
AcDbLine
 10
188.7664622307315
 20
116.1523422542948
 30
0.0
 11
188.7664622307315
 21
116.3262084070581
 31
0.0
  0
LINE
  5
EB
330
1F
100
AcDbEntity
  8
0
  6
Continuous
 62
     0
370
     0
100
AcDbLine
 10
188.7664622307315
 20
116.3262084070581
 30
0.0
 11
189.0123456955448
 21
116.3091549221414
 31
0.0
  0
LINE
  5
EC
330
1F
100
AcDbEntity
  8
0
  6
Continuous
 62
     0
370
     0
100
AcDbLine
 10
189.0123456955448
 20
116.1352887693781
 30
0.0
 11
188.7664622307315
 21
116.1523422542948
 31
0.0
  0
LINE
  5
ED
330
1F
100
AcDbEntity
  8
0
  6
Continuous
 62
     0
370
     0
100
AcDbLine
 10
188.6969608307377
 20
115.8107924405473
 30
0.0
 11
188.6379307747379
 21
115.8372631613153
 31
0.0
  0
LINE
  5
EE
330
1F
100
AcDbEntity
  8
0
  6
Continuous
 62
     0
370
     0
100
AcDbLine
 10
188.6379307747379
 20
115.8372631613153
 30
0.0
 11
188.561412715961
 21
115.8715578857797
 31
0.0
  0
LINE
  5
EF
330
1F
100
AcDbEntity
  8
0
  6
Continuous
 62
     0
370
     0
100
AcDbLine
 10
186.7484110832706
 20
115.5196225587267
 30
0.0
 11
186.284367466022
 21
115.7276493255037
 31
0.0
  0
LINE
  5
F0
330
1F
100
AcDbEntity
  8
0
  6
Continuous
 62
     0
370
     0
100
AcDbLine
 10
186.3502425194278
 20
115.791287416591
 30
0.0
 11
186.284367466022
 21
115.7276493255037
 31
0.0
  0
LINE
  5
F1
330
1F
100
AcDbEntity
  8
0
  6
Continuous
 62
     0
370
     0
100
AcDbLine
 10
186.3502425194278
 20
115.791287416591
 30
0.0
 11
186.9737810135379
 21
115.8844619933504
 31
0.0
  0
LINE
  5
F2
330
1F
100
AcDbEntity
  8
0
  6
Continuous
 62
     0
370
     0
100
AcDbLine
 10
188.7664622307315
 20
116.1523422542948
 30
0.0
 11
188.1429237366214
 21
116.0591649953264
 31
0.0
  0
LWPOLYLINE
  5
F3
330
1F
100
AcDbEntity
  8
0
  6
Continuous
 62
     0
370
     0
100
AcDbPolyline
 90
        3
 70
   128
 43
0.0
 10
186.7911976814761
 20
115.6285524312395
 10
186.8432969093815
 20
115.6131780091661
 10
186.8952244759098
 20
115.6057080570596
  0
LINE
  5
F4
330
1F
100
AcDbEntity
  8
0
  6
Continuous
 62
     0
370
     0
100
AcDbLine
 10
186.9737810135379
 20
115.7563489619631
 30
0.0
 11
186.9169396400943
 21
115.7818299476045
 31
0.0
  0
LWPOLYLINE
  5
F5
330
1F
100
AcDbEntity
  8
0
  6
Continuous
 62
     0
370
     0
100
AcDbPolyline
 90
        9
 70
   128
 43
0.0
 10
186.9169396400943
 20
115.7818299476045
 10
186.8648404121891
 20
115.7972043696779
 10
186.7939871788516
 20
115.8062487784761
 10
186.7151516914859
 20
115.8075872007745
 10
186.6403287888065
 20
115.801013106479
 10
186.5809124947085
 20
115.7875296417612
 10
186.5459794044987
 20
115.7691886965173
 10
186.5408081055179
 20
115.748782450332
 10
186.5662139893069
 20
115.7294169012445
  0
LINE
  5
F6
330
1F
100
AcDbEntity
  8
0
  6
Continuous
 62
     0
370
     0
100
AcDbLine
 10
186.5662139893069
 20
115.7294169012445
 30
0.0
 11
186.7911976814761
 21
115.6285524312395
 31
0.0
  0
LWPOLYLINE
  5
F7
330
1F
100
AcDbEntity
  8
0
  6
Continuous
 62
     0
370
     0
100
AcDbPolyline
 90
       17
 70
   128
 43
0.0
 10
188.6018604279056
 20
115.9895214382547
 10
188.6272663116947
 20
115.9701585713762
 10
188.6793655396
 20
115.9547814670938
 10
188.7502187729374
 20
115.9457370582956
 10
188.8290757179752
 20
115.9444013182062
 10
188.9038771629825
 20
115.9509727302927
 10
188.9632934570804
 20
115.9644561950105
 10
188.9982265472904
 20
115.9827971402544
 10
189.0033978462711
 20
116.0032033864397
 10
188.9780134201542
 20
116.0225689355272
 10
188.9259141922489
 20
116.0379433576006
 10
188.8550395012394
 20
116.0469877663988
 10
188.7762040138736
 20
116.0483261886972
 10
188.7013811111942
 20
116.0417520944017
 10
188.6419862747684
 20
116.0282686296839
 10
188.6070317268863
 20
116.00992768444
 10
188.6018604279056
 20
115.9895214382547
  0
LINE
  5
F8
330
1F
100
AcDbEntity
  8
0
  6
Continuous
 62
     0
370
     0
100
AcDbLine
 10
186.9231623650088
 20
114.8155882898706
 30
0.0
 11
188.0922836304203
 21
114.9902912918466
 31
0.0
  0
LINE
  5
F9
330
1F
100
AcDbEntity
  8
0
  6
Continuous
 62
     0
370
     0
100
AcDbLine
 10
186.9231623650088
 20
114.8155882898706
 30
0.0
 11
186.8908685684695
 21
115.7291835490602
 31
0.0
  0
LINE
  5
FA
330
1F
100
AcDbEntity
  8
0
  6
Continuous
 62
     0
370
     0
100
AcDbLine
 10
188.059989833881
 20
115.9038838688272
 30
0.0
 11
186.8908685684695
 21
115.7291835490602
 31
0.0
  0
LINE
  5
FB
330
1F
100
AcDbEntity
  8
0
  6
Continuous
 62
     0
370
     0
100
AcDbLine
 10
186.9737810135379
 20
115.755611354484
 30
0.0
 11
186.9737810135379
 21
115.8844619933504
 31
0.0
  0
LINE
  5
FC
330
1F
100
AcDbEntity
  8
0
  6
Continuous
 62
     0
370
     0
100
AcDbLine
 10
186.3502425194278
 20
115.9651562515634
 30
0.0
 11
186.3502425194278
 21
115.791287416591
 31
0.0
  0
LINE
  5
FD
330
1F
100
AcDbEntity
  8
0
  6
Continuous
 62
     0
370
     0
100
AcDbLine
 10
186.3502425194278
 20
115.9651562515634
 30
0.0
 11
188.7664622307315
 21
116.3262084070581
 31
0.0
  0
LWPOLYLINE
  5
FE
330
1F
100
AcDbEntity
  8
0
  6
Continuous
 62
     0
370
     0
100
AcDbPolyline
 90
        8
 70
   128
 43
0.0
 10
186.9347924232975
 20
114.7949647847551
 10
186.9341057777896
 20
114.7949191872019
 10
186.9315308571353
 20
114.7956862989801
 10
186.9290203094974
 20
114.7978508416551
 10
186.9267672539249
 20
114.8012357894319
 10
186.9249433517948
 20
114.805564874782
 10
186.9236988068118
 20
114.8104840461153
 10
186.9231623650088
 20
114.8155882898706
  0
LWPOLYLINE
  5
FF
330
1F
100
AcDbEntity
  8
0
  6
Continuous
 62
     0
370
     0
100
AcDbPolyline
 90
        8
 70
   128
 43
0.0
 10
186.8908685684695
 20
115.7291835490602
 10
186.8909114838139
 20
115.7327106539148
 10
186.8913620949283
 20
115.7359749022859
 10
186.8921345711246
 20
115.7388341370958
 10
186.8932503700748
 20
115.7411730233568
 10
186.8946451187626
 20
115.7428896371263
 10
186.8962544441715
 20
115.74391424097
 10
186.8971771240726
 20
115.7441636864084
  0
LINE
  5
100
330
1F
100
AcDbEntity
  8
0
  6
Continuous
 62
     0
370
     0
100
AcDbLine
 10
188.5704249382511
 20
115.7918828669924
 30
0.0
 11
188.5704249382511
 21
115.8501350823778
 31
0.0
  0
ARC
  5
101
330
1F
100
AcDbEntity
  8
0
  6
Continuous
 62
     0
370
     0
100
AcDbCircle
 10
188.5458308308078
 20
115.8523957932609
 30
0.0
 40
0.0246977921002352
100
AcDbArc
 50
354.7480828635001
 51
50.88330196699012
  0
LINE
  5
102
330
1F
100
AcDbEntity
  8
0
  6
Continuous
 62
     0
370
     0
100
AcDbLine
 10
188.6379307747379
 20
115.8372631613153
 30
0.0
 11
188.6379307747379
 21
115.8019706550974
 31
0.0
  0
LINE
  5
103
330
1F
100
AcDbEntity
  8
0
  6
Continuous
 62
     0
370
     0
100
AcDbLine
 10
186.284367466022
 20
115.7276493255037
 30
0.0
 11
186.284367466022
 21
115.9015154782671
 31
0.0
  0
LINE
  5
104
330
1F
100
AcDbEntity
  8
0
  6
Continuous
 62
     0
370
     0
100
AcDbLine
 10
186.284367466022
 20
115.9015154782671
 30
0.0
 11
186.3502425194278
 21
115.9651562515634
 31
0.0
  0
LINE
  5
105
330
1F
100
AcDbEntity
  8
0
  6
Continuous
 62
     0
370
     0
100
AcDbLine
 10
186.7911976814761
 20
115.8024212662119
 30
0.0
 11
186.7911976814761
 21
115.6285524312395
 31
0.0
  0
LINE
  5
106
330
1F
100
AcDbEntity
  8
0
  6
Continuous
 62
     0
370
     0
100
AcDbLine
 10
186.7809194565311
 20
115.8070373479265
 30
0.0
 11
186.7911976814761
 21
115.8024212662119
 31
0.0
  0
ARC
  5
107
330
1F
100
AcDbEntity
  8
0
  6
Continuous
 62
     0
370
     0
100
AcDbCircle
 10
186.9418973724906
 20
116.2360265793012
 30
0.0
 40
0.4590467998049851
100
AcDbArc
 50
250.8350851750944
 51
268.1701491557996
  0
LWPOLYLINE
  5
108
330
1F
100
AcDbEntity
  8
0
  6
Continuous
 62
     0
370
     0
100
AcDbPolyline
 90
        9
 70
   128
 43
0.0
 10
256.769923591663
 20
125.2065759841341
 10
256.7701810837283
 20
125.2115487996477
 10
256.7709535599247
 20
125.2160951439279
 10
256.7721981049076
 20
125.2200460378069
 10
256.7738825321688
 20
125.2232459131616
 10
256.7759210110202
 20
125.2255713883775
 10
256.7782598972813
 20
125.2269339505571
 10
256.7807919025913
 20
125.2272853199381
 10
256.7834204674259
 20
125.2266040388483
  0
LINE
  5
109
330
1F
100
AcDbEntity
  8
0
  6
Continuous
 62
     0
370
     0
100
AcDbLine
 10
256.769923591663
 20
125.2065759841341
 30
0.0
 11
256.769923591663
 21
125.1681318823236
 31
0.0
  0
LINE
  5
10A
330
1F
100
AcDbEntity
  8
0
  6
Continuous
 62
     0
370
     0
100
AcDbLine
 10
256.769923591663
 20
124.8951339665788
 30
0.0
 11
256.769923591663
 21
124.6675887648004
 31
0.0
  0
LINE
  5
10B
330
1F
100
AcDbEntity
  8
0
  6
Continuous
 62
     0
370
     0
100
AcDbLine
 10
256.769923591663
 20
124.6675887648004
 30
0.0
 11
256.7523926735416
 21
124.6754503194231
 31
0.0
  0
ARC
  5
10C
330
1F
100
AcDbEntity
  8
0
  6
Continuous
 62
     0
370
     0
100
AcDbCircle
 10
256.783624918597
 20
124.717868111394
 30
0.0
 40
0.0526756320027607
100
AcDbArc
 50
183.4052232634721
 51
233.6357623218817
  0
LINE
  5
10D
330
1F
100
AcDbEntity
  8
0
  6
Continuous
 62
     0
370
     0
100
AcDbLine
 10
256.7310422897831
 20
124.7147393170732
 30
0.0
 11
256.7148310184971
 21
124.8159953895944
 31
0.0
  0
ARC
  5
10E
330
1F
100
AcDbEntity
  8
0
  6
Continuous
 62
     0
370
     0
100
AcDbCircle
 10
256.805283334725
 20
124.830592416974
 30
0.0
 40
0.0916225666488566
100
AcDbArc
 50
182.4918665927622
 51
189.1672514814732
  0
LINE
  5
10F
330
1F
100
AcDbEntity
  8
0
  6
Continuous
 62
     0
370
     0
100
AcDbLine
 10
256.7161828518406
 20
125.160101348533
 30
0.0
 11
256.7160433769718
 21
125.1606967989343
 31
0.0
  0
ARC
  5
110
330
1F
100
AcDbEntity
  8
0
  6
Continuous
 62
     0
370
     0
100
AcDbCircle
 10
256.807743366767
 20
125.1817719551046
 30
0.0
 40
0.0940906495675632
100
AcDbArc
 50
182.5706932581492
 51
192.9433634186025
  0
ARC
  5
111
330
1F
100
AcDbEntity
  8
0
  6
Continuous
 62
     0
370
     0
100
AcDbCircle
 10
256.7787702727952
 20
125.2486738247652
 30
0.0
 40
0.0650716039805143
100
AcDbArc
 50
164.5723761694069
 51
177.7823170811556
  0
LINE
  5
112
330
1F
100
AcDbEntity
  8
0
  6
Continuous
 62
     0
370
     0
100
AcDbLine
 10
256.7160433769718
 20
125.2659842316049
 30
0.0
 11
256.7225450516238
 21
125.2881821934122
 31
0.0
  0
ARC
  5
113
330
1F
100
AcDbEntity
  8
0
  6
Continuous
 62
     0
370
     0
100
AcDbCircle
 10
256.6589482796867
 20
125.3057676267967
 30
0.0
 40
0.0659833074962649
100
AcDbArc
 50
344.5431033341227
 51
0.6863334984632633
  0
LINE
  5
114
330
1F
100
AcDbEntity
  8
0
  6
Continuous
 62
     0
370
     0
100
AcDbLine
 10
256.7249268532291
 20
125.3065580073732
 30
0.0
 11
256.7249268532291
 21
125.4187011662859
 31
0.0
  0
LINE
  5
115
330
1F
100
AcDbEntity
  8
0
  6
Continuous
 62
     0
370
     0
100
AcDbLine
 10
256.4661687851444
 20
125.760022992267
 30
0.0
 11
256.454924964954
 21
125.765068227424
 31
0.0
  0
LINE
  5
116
330
1F
100
AcDbEntity
  8
0
  6
Continuous
 62
     0
370
     0
100
AcDbLine
 10
256.454924964954
 20
125.765068227424
 30
0.0
 11
256.454924964954
 21
125.4275953713793
 31
0.0
  0
ARC
  5
117
330
1F
100
AcDbEntity
  8
0
  6
Continuous
 62
     0
370
     0
100
AcDbCircle
 10
256.5464138545265
 20
125.4277845063234
 30
0.0
 40
0.0914890850716626
100
AcDbArc
 50
180.118447372932
 51
193.0733186652756
  0
LINE
  5
118
330
1F
100
AcDbEntity
  8
0
  6
Continuous
 62
     0
370
     0
100
AcDbLine
 10
256.4572960377232
 20
125.4070898834604
 30
0.0
 11
256.4637977123753
 21
125.3790661636728
 31
0.0
  0
ARC
  5
119
330
1F
100
AcDbEntity
  8
0
  6
Continuous
 62
     0
370
     0
100
AcDbCircle
 10
256.3746954413006
 20
125.3583733136966
 30
0.0
 40
0.0914735412608937
100
AcDbArc
 50
0.1190370686949752
 51
13.07443952723116
  0
LINE
  5
11A
330
1F
100
AcDbEntity
  8
0
  6
Continuous
 62
     0
370
     0
100
AcDbLine
 10
256.4661687851444
 20
125.358563357963
 30
0.0
 11
256.4661687851444
 21
125.2921518627542
 31
0.0
  0
ARC
  5
11B
330
1F
100
AcDbEntity
  8
0
  6
Continuous
 62
     0
370
     0
100
AcDbCircle
 10
256.4000043224823
 20
125.2913508984592
 30
0.0
 40
0.0661693105840136
100
AcDbArc
 50
344.5995489142168
 51
0.6935691793385805
  0
LINE
  5
11C
330
1F
100
AcDbEntity
  8
0
  6
Continuous
 62
     0
370
     0
100
AcDbLine
 10
256.4637977123753
 20
125.2737787310022
 30
0.0
 11
256.4599567890658
 21
125.2606493178743
 31
0.0
  0
ARC
  5
11D
330
1F
100
AcDbEntity
  8
0
  6
Continuous
 62
     0
370
     0
100
AcDbCircle
 10
256.5372554298589
 20
125.2412113491434
 30
0.0
 40
0.079705172334217
100
AcDbArc
 50
165.884737007736
 51
194.115262992264
  0
LINE
  5
11E
330
1F
100
AcDbEntity
  8
0
  6
Continuous
 62
     0
370
     0
100
AcDbLine
 10
256.4599567890658
 20
125.2217733804125
 30
0.0
 11
256.4637977123753
 21
125.2052000109094
 31
0.0
  0
ARC
  5
11F
330
1F
100
AcDbEntity
  8
0
  6
Continuous
 62
     0
370
     0
100
AcDbCircle
 10
256.3746794092076
 20
125.1845053068817
 30
0.0
 40
0.0914895771892372
100
AcDbArc
 50
0.1201773153922028
 51
13.07329928052721
  0
LINE
  5
120
330
1F
100
AcDbEntity
  8
0
  6
Continuous
 62
     0
370
     0
100
AcDbLine
 10
256.4661687851444
 20
125.1846972051996
 30
0.0
 11
256.4661687851444
 21
125.1182857099909
 31
0.0
  0
ARC
  5
121
330
1F
100
AcDbEntity
  8
0
  6
Continuous
 62
     0
370
     0
100
AcDbCircle
 10
256.3999821978506
 20
125.1174850353858
 30
0.0
 40
0.0661914300904856
100
AcDbArc
 50
344.6021546614685
 51
0.6930866186548044
  0
LINE
  5
122
330
1F
100
AcDbEntity
  8
0
  6
Continuous
 62
     0
370
     0
100
AcDbLine
 10
256.4637977123753
 20
125.0999098960298
 30
0.0
 11
256.4599567890658
 21
125.0867831651109
 31
0.0
  0
ARC
  5
123
330
1F
100
AcDbEntity
  8
0
  6
Continuous
 62
     0
370
     0
100
AcDbCircle
 10
256.5372554298589
 20
125.06734519638
 30
0.0
 40
0.079705172334217
100
AcDbArc
 50
165.884737007736
 51
194.115262992264
  0
LINE
  5
124
330
1F
100
AcDbEntity
  8
0
  6
Continuous
 62
     0
370
     0
100
AcDbLine
 10
256.4599567890658
 20
125.0479072276491
 30
0.0
 11
256.4637977123753
 21
125.0313338581461
 31
0.0
  0
ARC
  5
125
330
1F
100
AcDbEntity
  8
0
  6
Continuous
 62
     0
370
     0
100
AcDbCircle
 10
256.3746798955676
 20
125.0106392352824
 30
0.0
 40
0.0914890850758849
100
AcDbArc
 50
0.1184473733181551
 51
13.07331866506116
  0
LINE
  5
126
330
1F
100
AcDbEntity
  8
0
  6
Continuous
 62
     0
370
     0
100
AcDbLine
 10
256.4661687851444
 20
125.0108283702272
 30
0.0
 11
256.4661687851444
 21
124.9412116352457
 31
0.0
  0
ARC
  5
127
330
1F
100
AcDbEntity
  8
0
  6
Continuous
 62
     0
370
     0
100
AcDbCircle
 10
256.3946053457275
 20
124.940757786968
 30
0.0
 40
0.0715648785329715
100
AcDbArc
 50
349.717211649546
 51
0.3633593137836524
  0
LINE
  5
128
330
1F
100
AcDbEntity
  8
0
  6
Continuous
 62
     0
370
     0
100
AcDbLine
 10
256.465020799686
 20
124.9279829803842
 30
0.0
 11
256.4487987995639
 21
124.8412671629328
 31
0.0
  0
LWPOLYLINE
  5
129
330
1F
100
AcDbEntity
  8
0
  6
Continuous
 62
     0
370
     0
100
AcDbPolyline
 90
        9
 70
   128
 43
0.0
 10
256.4274591446415
 20
124.8211130443948
 10
256.4309567451969
 20
124.8200750295061
 10
256.4343685150637
 20
124.8201179448503
 10
256.4376086235538
 20
124.8212417904276
 10
256.4406126976505
 20
124.8234197441477
 10
256.4432949066654
 20
124.8266008440393
 10
256.445580148746
 20
124.8307046238321
 10
256.4474362373844
 20
124.8356345240015
 10
256.4487987995639
 20
124.8412671629328
  0
LINE
  5
12A
330
1F
100
AcDbEntity
  8
0
  6
Continuous
 62
     0
370
     0
100
AcDbLine
 10
256.4274591446415
 20
124.8211130443948
 30
0.0
 11
256.4099282265202
 21
124.8289745990175
 31
0.0
  0
LINE
  5
12B
330
1F
100
AcDbEntity
  8
0
  6
Continuous
 62
     0
370
     0
100
AcDbLine
 10
256.4099282265202
 20
124.8289745990175
 30
0.0
 11
256.4099282265202
 21
125.3679591361421
 31
0.0
  0
ARC
  5
12C
330
1F
100
AcDbEntity
  8
0
  6
Continuous
 62
     0
370
     0
100
AcDbCircle
 10
256.3729953781514
 20
125.3713392846685
 30
0.0
 40
0.0370872038942255
100
AcDbArc
 50
354.7707739499213
 51
50.82980895830202
  0
LINE
  5
12D
330
1F
100
AcDbEntity
  8
0
  6
Continuous
 62
     0
370
     0
100
AcDbLine
 10
256.3964206219212
 20
125.4000920001405
 30
0.0
 11
256.3514238834873
 21
125.4202648941416
 31
0.0
  0
ARC
  5
12E
330
1F
100
AcDbEntity
  8
0
  6
Continuous
 62
     0
370
     0
100
AcDbCircle
 10
256.3670537469042
 20
125.4394345499851
 30
0.0
 40
0.0247339510711959
100
AcDbArc
 50
174.7796151705589
 51
230.8081255302536
  0
LINE
  5
12F
330
1F
100
AcDbEntity
  8
0
  6
Continuous
 62
     0
370
     0
100
AcDbLine
 10
256.3424223900332
 20
125.4416850153345
 30
0.0
 11
256.3424223900332
 21
125.8589670006174
 31
0.0
  0
LINE
  5
130
330
1F
100
AcDbEntity
  8
0
  6
Continuous
 62
     0
370
     0
100
AcDbLine
 10
256.3874191284672
 20
125.9257271829981
 30
0.0
 11
256.3424223900332
 21
125.8589670006174
 31
0.0
  0
LINE
  5
131
330
1F
100
AcDbEntity
  8
0
  6
Continuous
 62
     0
370
     0
100
AcDbLine
 10
256.3874191284672
 20
125.9257271829981
 30
0.0
 11
256.7924219608799
 21
125.744171136989
 31
0.0
  0
LINE
  5
132
330
1F
100
AcDbEntity
  8
0
  6
Continuous
 62
     0
370
     0
100
AcDbLine
 10
256.8091804028048
 20
125.7042893711466
 30
0.0
 11
256.7924219608799
 21
125.744171136989
 31
0.0
  0
LINE
  5
133
330
1F
100
AcDbEntity
  8
0
  6
Continuous
 62
     0
370
     0
100
AcDbLine
 10
256.8374186993137
 20
125.4355132523912
 30
0.0
 11
256.8374186993137
 21
125.2197831813234
 31
0.0
  0
LWPOLYLINE
  5
134
330
1F
100
AcDbEntity
  8
0
  6
Continuous
 62
     0
370
     0
100
AcDbPolyline
 90
        9
 70
   128
 43
0.0
 10
256.8284279346958
 20
125.2064311448473
 10
256.8301767349735
 20
125.2059778515238
 10
256.8318718910708
 20
125.2062112037081
 10
256.8334275722995
 20
125.2071204725641
 10
256.8347901344791
 20
125.2086707893747
 10
256.8359059334293
 20
125.2108031455415
 10
256.836742782642
 20
125.2134370747942
 10
256.8372470379368
 20
125.216467970981
 10
256.8374186993137
 20
125.2197831813234
  0
LINE
  5
135
330
1F
100
AcDbEntity
  8
0
  6
Continuous
 62
     0
370
     0
100
AcDbLine
 10
256.8284279346958
 20
125.2064311448473
 30
0.0
 11
256.7834204674259
 21
125.2266040388483
 31
0.0
  0
LINE
  5
136
330
1F
100
AcDbEntity
  8
0
  6
Continuous
 62
     0
370
     0
100
AcDbLine
 10
178.4676379204288
 20
113.182117635383
 30
0.0
 11
256.4099282265202
 21
124.8289745990175
 31
0.0
  0
LINE
  5
137
330
1F
100
AcDbEntity
  8
0
  6
Continuous
 62
     0
370
     0
100
AcDbLine
 10
178.4851688385502
 20
113.1742560807604
 30
0.0
 11
256.4274591446415
 21
124.8211130443948
 31
0.0
  0
LINE
  5
138
330
1F
100
AcDbEntity
  8
0
  6
Continuous
 62
     0
370
     0
100
AcDbLine
 10
178.4851688385502
 20
113.1742560807604
 30
0.0
 11
178.4676379204288
 21
113.182117635383
 31
0.0
  0
LINE
  5
139
330
1F
100
AcDbEntity
  8
0
  6
Continuous
 62
     0
370
     0
100
AcDbLine
 10
178.4676379204288
 20
113.182117635383
 30
0.0
 11
178.4676379204288
 21
113.7211021725076
 31
0.0
  0
LWPOLYLINE
  5
13A
330
1F
100
AcDbEntity
  8
0
  6
Continuous
 62
     0
370
     0
100
AcDbPolyline
 90
        3
 70
   128
 43
0.0
 10
178.4918207169071
 20
113.1732180658716
 10
178.4886664391056
 20
113.1732180658716
 10
178.4851688385502
 20
113.1742560807604
  0
ARC
  5
13B
330
1F
100
AcDbEntity
  8
0
  6
Continuous
 62
     0
370
     0
100
AcDbCircle
 10
178.4247255542062
 20
113.7925694720252
 30
0.0
 40
0.0246969626023311
100
AcDbArc
 50
174.7528710994551
 51
230.8836423875374
  0
LINE
  5
13C
330
1F
100
AcDbEntity
  8
0
  6
Continuous
 62
     0
370
     0
100
AcDbLine
 10
256.3424223900332
 20
125.8589670006174
 30
0.0
 11
247.7608126640812
 21
124.5766216460603
 31
0.0
  0
LINE
  5
13D
330
1F
100
AcDbEntity
  8
0
  6
Continuous
 62
     0
370
     0
100
AcDbLine
 10
246.5254408360019
 20
124.3920212928194
 30
0.0
 11
188.1349629402652
 21
115.6667765919107
 31
0.0
  0
LINE
  5
13E
330
1F
100
AcDbEntity
  8
0
  6
Continuous
 62
     0
370
     0
100
AcDbLine
 10
186.8996018410221
 20
115.4821762386698
 30
0.0
 11
178.400132083942
 21
114.2121100369829
 31
0.0
  0
LINE
  5
13F
330
1F
100
AcDbEntity
  8
0
  6
Continuous
 62
     0
370
     0
100
AcDbLine
 10
178.400132083942
 20
113.7948280517
 30
0.0
 11
178.400132083942
 21
114.2121100369829
 31
0.0
  0
LINE
  5
140
330
1F
100
AcDbEntity
  8
0
  6
Continuous
 62
     0
370
     0
100
AcDbLine
 10
178.4541410446659
 20
113.7532350365061
 30
0.0
 11
178.409144306232
 21
113.7734079305071
 31
0.0
  0
ARC
  5
141
330
1F
100
AcDbEntity
  8
0
  6
Continuous
 62
     0
370
     0
100
AcDbCircle
 10
178.4307175655722
 20
113.7244953919677
 30
0.0
 40
0.037075956373993
100
AcDbArc
 50
354.7488990412987
 51
50.81916475721101
  0
LINE
  5
142
330
1F
100
AcDbEntity
  8
0
  6
Continuous
 62
     0
370
     0
100
AcDbLine
 10
178.4451288223758
 20
114.2788702193636
 30
0.0
 11
186.8974775314823
 21
115.5418956223863
 31
0.0
  0
LINE
  5
143
330
1F
100
AcDbEntity
  8
0
  6
Continuous
 62
     0
370
     0
100
AcDbLine
 10
188.1328600883976
 20
115.7264986578363
 30
0.0
 11
246.5233272552983
 21
124.451743358745
 31
0.0
  0
LINE
  5
144
330
1F
100
AcDbEntity
  8
0
  6
Continuous
 62
     0
370
     0
100
AcDbLine
 10
247.7586990833775
 20
124.6363437119859
 30
0.0
 11
256.3874191284672
 21
125.9257271829981
 31
0.0
  0
LINE
  5
145
330
1F
100
AcDbEntity
  8
0
  6
Continuous
 62
     0
370
     0
100
AcDbLine
 10
178.400132083942
 20
114.2121100369829
 30
0.0
 11
178.4451288223758
 21
114.2788702193636
 31
0.0
  0
LINE
  5
146
330
1F
100
AcDbEntity
  8
0
  6
Continuous
 62
     0
370
     0
100
AcDbLine
 10
256.6928047180668
 20
124.6560659948724
 30
0.0
 11
256.769923591663
 21
124.6675887648004
 31
0.0
  0
LWPOLYLINE
  5
147
330
1F
100
AcDbEntity
  8
0
  6
Continuous
 62
     0
370
     0
100
AcDbPolyline
 90
        7
 70
   128
 43
0.0
 10
257.9800933838383
 20
125.578477675094
 10
257.9883545876041
 20
125.4740378204721
 10
258.0123228073612
 20
125.3724142853159
 10
258.0496591568485
 20
125.2835553828615
 10
258.0967051029697
 20
125.2161621991533
 10
258.1488472462192
 20
125.1768302861589
 10
258.1987256050601
 20
125.1690357867616
  0
LWPOLYLINE
  5
148
330
1F
100
AcDbEntity
  8
0
  6
Continuous
 62
     0
370
     0
100
AcDbPolyline
 90
        6
 70
   128
 43
0.0
 10
258.0989688873783
 20
125.8366241995233
 10
258.0967051029697
 20
125.8362513724703
 10
258.0496591568485
 20
125.8110359255213
 10
258.0123228073612
 20
125.7556483093637
 10
257.9883545876041
 20
125.6755146328348
 10
257.9800933838383
 20
125.578477675094
  0
LWPOLYLINE
  5
149
330
1F
100
AcDbEntity
  8
0
  6
Continuous
 62
     0
370
     0
100
AcDbPolyline
 90
       10
 70
   128
 43
0.0
 10
256.5700453758732
 20
125.1382628027338
 10
256.5641659737125
 20
125.1368009988207
 10
256.542268419315
 20
125.1183500830072
 10
256.5276342869297
 20
125.0826042834657
 10
256.5225059032931
 20
125.0350058022875
 10
256.5276342869297
 20
124.9828019682306
 10
256.542268419315
 20
124.9339374843973
 10
256.5641659737125
 20
124.8958527985948
 10
256.590001010944
 20
124.8743468467134
 10
256.6099566460148
 20
124.8712301198381
  0
LWPOLYLINE
  5
14A
330
1F
100
AcDbEntity
  8
0
  6
Continuous
 62
     0
370
     0
100
AcDbPolyline
 90
       10
 70
   128
 43
0.0
 10
256.5700453758732
 20
125.6685569826502
 10
256.5641659737125
 20
125.667092496528
 10
256.542268419315
 20
125.6486442629236
 10
256.5276342869297
 20
125.6128984633821
 10
256.5225059032931
 20
125.5652999822038
 10
256.5276342869297
 20
125.513093465938
 10
256.542268419315
 20
125.4642289821047
 10
256.5641659737125
 20
125.4261469785112
 10
256.590001010944
 20
125.4046410266298
 10
256.6099566460148
 20
125.4015216175455
  0
LWPOLYLINE
  5
14B
330
1F
100
AcDbEntity
  8
0
  6
Continuous
 62
     0
370
     0
100
AcDbPolyline
 90
        6
 70
   128
 43
0.0
 10
178.6842960358158
 20
112.9435861054796
 10
178.6477107048526
 20
112.9493018928903
 10
178.6003750801578
 20
112.9887062255281
 10
178.560249233295
 20
113.0584785286325
 10
178.533405685474
 20
113.1480106655496
 10
178.528363132526
 20
113.1786790434259
  0
LWPOLYLINE
  5
14C
330
1F
100
AcDbEntity
  8
0
  6
Continuous
 62
     0
370
     0
100
AcDbPolyline
 90
        9
 70
   128
 43
0.0
 10
256.7137474060549
 20
124.7797506991762
 10
256.7043274879948
 20
124.6924877110857
 10
256.6775053978458
 20
124.6269532982248
 10
256.6373580933108
 20
124.593127960338
 10
256.590001010944
 20
124.5961588565248
 10
256.542643928577
 20
124.6355873290437
 10
256.502496624042
 20
124.7054079119104
 10
256.4756745338931
 20
124.7949936930078
 10
256.4662546158329
 20
124.8907029572862
  0
LINE
  5
14D
330
1F
100
AcDbEntity
  8
0
  6
Continuous
 62
     0
370
     0
100
AcDbLine
 10
256.4662546158329
 20
125.7600364033121
 30
0.0
 11
256.6452437878146
 21
125.6797927562135
 31
0.0
  0
LINE
  5
14E
330
1F
100
AcDbEntity
  8
0
  6
Continuous
 62
     0
370
     0
100
AcDbLine
 10
256.7137474060549
 20
125.4170328322786
 30
0.0
 11
256.7137474060549
 21
125.159736568107
 31
0.0
  0
LINE
  5
14F
330
1F
100
AcDbEntity
  8
0
  6
Continuous
 62
     0
370
     0
100
AcDbLine
 10
256.7137474060549
 20
124.8867386523622
 30
0.0
 11
256.7137474060549
 21
124.7797506991762
 31
0.0
  0
LINE
  5
150
330
1F
100
AcDbEntity
  8
0
  6
Continuous
 62
     0
370
     0
100
AcDbLine
 10
256.4662546158329
 20
124.8907029572862
 30
0.0
 11
256.4662546158329
 21
125.7600364033121
 31
0.0
  0
LINE
  5
151
330
1F
100
AcDbEntity
  8
0
  6
Continuous
 62
     0
370
     0
100
AcDbLine
 10
256.454924964954
 20
125.7583439294237
 30
0.0
 11
256.4662546158329
 21
125.7600364033121
 31
0.0
  0
LINE
  5
152
330
1F
100
AcDbEntity
  8
0
  6
Continuous
 62
     0
370
     0
100
AcDbLine
 10
247.8362685680882
 20
124.7289523426431
 30
0.0
 11
248.187273168613
 21
124.7814029399294
 31
0.0
  0
LINE
  5
153
330
1F
100
AcDbEntity
  8
0
  6
Continuous
 62
     0
370
     0
100
AcDbLine
 10
247.8452700615421
 20
124.9347180072206
 30
0.0
 11
247.8401845932499
 21
124.9339589420694
 31
0.0
  0
LINE
  5
154
330
1F
100
AcDbEntity
  8
0
  6
Continuous
 62
     0
370
     0
100
AcDbLine
 10
247.7671641350284
 20
124.6654644552606
 30
0.0
 11
247.7620893955722
 21
124.6647053901094
 31
0.0
  0
LINE
  5
155
330
1F
100
AcDbEntity
  8
0
  6
Continuous
 62
     0
370
     0
100
AcDbLine
 10
248.1962746620671
 20
124.7599828187364
 30
0.0
 11
247.8362685680882
 21
124.7061884347337
 31
0.0
  0
LINE
  5
156
330
1F
100
AcDbEntity
  8
0
  6
Continuous
 62
     0
370
     0
100
AcDbLine
 10
246.1920529842868
 20
124.6916750017542
 30
0.0
 11
246.1920529842868
 21
124.6392646376032
 31
0.0
  0
LINE
  5
157
330
1F
100
AcDbEntity
  8
0
  6
Continuous
 62
     0
370
     0
100
AcDbLine
 10
188.2104295731083
 20
115.8191072884935
 30
0.0
 11
188.561412715961
 21
115.8715578857797
 31
0.0
  0
LINE
  5
158
330
1F
100
AcDbEntity
  8
0
  6
Continuous
 62
     0
370
     0
100
AcDbLine
 10
188.2194203377262
 20
116.024872953071
 30
0.0
 11
188.2143348694339
 21
116.0241138879198
 31
0.0
  0
LINE
  5
159
330
1F
100
AcDbEntity
  8
0
  6
Continuous
 62
     0
370
     0
100
AcDbLine
 10
188.1413144112125
 20
115.755619401111
 30
0.0
 11
188.1362289429203
 21
115.7548576537508
 31
0.0
  0
LINE
  5
15A
330
1F
100
AcDbEntity
  8
0
  6
Continuous
 62
     0
370
     0
100
AcDbLine
 10
188.5704249382511
 20
115.8501350823778
 30
0.0
 11
188.2104295731083
 21
115.7963406983751
 31
0.0
  0
LINE
  5
15B
330
1F
100
AcDbEntity
  8
0
  6
Continuous
 62
     0
370
     0
100
AcDbLine
 10
186.5662139893069
 20
115.7818299476045
 30
0.0
 11
186.5662139893069
 21
115.7294169012445
 31
0.0
  0
LINE
  5
15C
330
1F
100
AcDbEntity
  8
0
  6
Continuous
 62
     0
370
     0
100
AcDbLine
 10
256.4099282265202
 20
125.3679591361421
 30
0.0
 11
247.7872270584598
 21
124.079476887359
 31
0.0
  0
LINE
  5
15D
330
1F
100
AcDbEntity
  8
0
  6
Continuous
 62
     0
370
     0
100
AcDbLine
 10
246.5430683136479
 20
123.8935622517008
 30
0.0
 11
188.1613773346439
 21
115.1696318332094
 31
0.0
  0
LINE
  5
15E
330
1F
100
AcDbEntity
  8
0
  6
Continuous
 62
     0
370
     0
100
AcDbLine
 10
186.9172185898319
 20
114.9837171975511
 30
0.0
 11
178.4676379204288
 21
113.7211021725076
 31
0.0
  0
LINE
  5
15F
330
1F
100
AcDbEntity
  8
0
  6
Continuous
 62
     0
370
     0
100
AcDbLine
 10
178.400132083942
 20
113.7948280517
 30
0.0
 11
186.9142574310794
 21
115.067088300361
 31
0.0
  0
LINE
  5
160
330
1F
100
AcDbEntity
  8
0
  6
Continuous
 62
     0
370
     0
100
AcDbLine
 10
188.1429237366214
 20
115.2506855074304
 30
0.0
 11
246.5401178837315
 21
123.9769333545107
 31
0.0
  0
LINE
  5
161
330
1F
100
AcDbEntity
  8
0
  6
Continuous
 62
     0
370
     0
100
AcDbLine
 10
247.7687734604374
 20
124.1605305615801
 30
0.0
 11
256.3424223900332
 21
125.4416850153345
 31
0.0
  0
LINE
  5
162
330
1F
100
AcDbEntity
  8
0
  6
Continuous
 62
     0
370
     0
100
AcDbLine
 10
256.3514238834873
 20
125.4202648941416
 30
0.0
 11
247.7762943745152
 21
124.1388904992479
 31
0.0
  0
LINE
  5
163
330
1F
100
AcDbEntity
  8
0
  6
Continuous
 62
     0
370
     0
100
AcDbLine
 10
246.5409118175998
 20
123.9542874637979
 30
0.0
 11
188.1504339218631
 21
115.2290427628893
 31
0.0
  0
LINE
  5
164
330
1F
100
AcDbEntity
  8
0
  6
Continuous
 62
     0
370
     0
100
AcDbLine
 10
186.91507282262
 20
115.0444424096483
 30
0.0
 11
178.409144306232
 21
113.7734079305071
 31
0.0
  0
LINE
  5
165
330
1F
100
AcDbEntity
  8
0
  6
Continuous
 62
     0
370
     0
100
AcDbLine
 10
178.4541410446659
 20
113.7532350365061
 30
0.0
 11
186.9160169601933
 21
115.0176873747247
 31
0.0
  0
LINE
  5
166
330
1F
100
AcDbEntity
  8
0
  6
Continuous
 62
     0
370
     0
100
AcDbLine
 10
188.1513780594364
 20
115.2022877279657
 30
0.0
 11
246.5418666840091
 21
123.9275324288744
 31
0.0
  0
LINE
  5
167
330
1F
100
AcDbEntity
  8
0
  6
Continuous
 62
     0
370
     0
100
AcDbLine
 10
247.7772385120884
 20
124.1121327821153
 30
0.0
 11
256.3964206219212
 21
125.4000920001405
 31
0.0
  0
LINE
  5
168
330
1F
100
AcDbEntity
  8
0
  6
Continuous
 62
     0
370
     0
100
AcDbLine
 10
256.7081791401401
 20
124.7113221827883
 30
0.0
 11
256.7310422897831
 21
124.7147393170732
 31
0.0
  0
LINE
  5
169
330
1F
100
AcDbEntity
  8
0
  6
Continuous
 62
     0
370
     0
100
AcDbLine
 10
256.7148310184971
 20
124.8159953895944
 30
0.0
 11
256.7137474060549
 21
124.8158344570535
 31
0.0
  0
LINE
  5
16A
330
1F
100
AcDbEntity
  8
0
  6
Continuous
 62
     0
370
     0
100
AcDbLine
 10
256.7523926735416
 20
124.6754503194231
 30
0.0
 11
256.697010421802
 21
124.6671730224031
 31
0.0
  0
LINE
  5
16B
330
1F
100
AcDbEntity
  8
0
  6
Continuous
 62
     0
370
     0
100
AcDbLine
 10
256.7160433769718
 20
125.1606967989343
 30
0.0
 11
256.7137474060549
 21
125.1603534761804
 31
0.0
  0
LINE
  5
16C
330
1F
100
AcDbEntity
  8
0
  6
Continuous
 62
     0
370
     0
100
AcDbLine
 10
256.7137474060549
 20
125.265640908851
 30
0.0
 11
256.7160433769718
 21
125.2659842316049
 31
0.0
  0
LINE
  5
16D
330
1F
100
AcDbEntity
  8
0
  6
Continuous
 62
     0
370
     0
100
AcDbLine
 10
256.7225450516238
 20
125.2881821934122
 30
0.0
 11
256.7137474060549
 21
125.2868679109949
 31
0.0
  0
LINE
  5
16E
330
1F
100
AcDbEntity
  8
0
  6
Continuous
 62
     0
370
     0
100
AcDbLine
 10
256.7137474060549
 20
125.3048869911569
 30
0.0
 11
256.7249268532291
 21
125.3065580073732
 31
0.0
  0
LINE
  5
16F
330
1F
100
AcDbEntity
  8
0
  6
Continuous
 62
     0
370
     0
100
AcDbLine
 10
256.7834204674259
 20
125.2266040388483
 30
0.0
 11
256.7758029938236
 21
125.2254641000169
 31
0.0
  0
LINE
  5
170
330
1F
100
AcDbEntity
  8
0
  6
Continuous
 62
     0
370
     0
100
AcDbLine
 10
256.769923591663
 20
125.1976898256677
 30
0.0
 11
256.8284279346958
 21
125.2064311448473
 31
0.0
  0
LINE
  5
179
330
1F
100
AcDbEntity
  8
0
  6
Continuous
 62
     0
370
     0
100
AcDbLine
 10
256.4578110218539
 20
124.8894396368402
 30
0.0
 11
256.4662546158329
 21
124.8907029572862
 31
0.0
  0
ARC
  5
17A
330
1F
100
AcDbEntity
  8
0
  6
ByBlock
 62
     0
370
     0
100
AcDbCircle
 10
267.1376484999599
 20
127.8718101159892
 30
0.0
 40
4.158371402795015
100
AcDbArc
 50
157.3801350519592
 51
202.6198649480419
  0
ARC
  5
17B
330
1F
100
AcDbEntity
  8
0
  6
ByBlock
 62
     0
370
     0
100
AcDbCircle
 10
259.4606551409538
 20
124.67306288307
 30
0.0
 40
4.15837140279501
100
AcDbArc
 50
337.3801350519608
 51
22.61986494804018
  0
ARC
  5
17C
330
1F
100
AcDbEntity
  8
0
  6
ByBlock
 62
     0
370
     0
100
AcDbCircle
 10
267.8688894844122
 20
127.9810784745637
 30
0.0
 40
4.158371402795038
100
AcDbArc
 50
157.3801350519602
 51
202.6198649480409
  0
ARC
  5
17D
330
1F
100
AcDbEntity
  8
0
  6
ByBlock
 62
     0
370
     0
100
AcDbCircle
 10
260.1918961254061
 20
124.7823312416445
 30
0.0
 40
4.158371402795015
100
AcDbArc
 50
337.3801350519602
 51
22.61986494804018
  0
LINE
  5
2FF
330
1F
100
AcDbEntity
  8
0
  6
Continuous
 62
     0
370
     0
100
AcDbLine
 10
168.618351841022
 20
112.0579555574793
 30
0.0
 11
169.7874945641056
 21
112.2326585594553
 31
0.0
  0
LINE
  5
300
330
1F
100
AcDbEntity
  8
0
  6
Continuous
 62
     0
370
     0
100
AcDbLine
 10
169.7498792648807
 20
113.1818574611086
 30
0.0
 11
168.5807365417972
 21
113.0071544591326
 31
0.0
  0
LINE
  5
301
330
1F
100
AcDbEntity
  8
0
  6
Continuous
 62
     0
370
     0
100
AcDbLine
 10
108.9925021172062
 20
103.1481105033296
 30
0.0
 11
110.1616448402896
 21
103.3228135053056
 31
0.0
  0
LINE
  5
302
330
1F
100
AcDbEntity
  8
0
  6
Continuous
 62
     0
370
     0
100
AcDbLine
 10
110.1240295410647
 20
104.2720097247499
 30
0.0
 11
108.9548868179813
 21
104.0973094049829
 31
0.0
  0
LINE
  5
303
330
1F
100
AcDbEntity
  8
0
  6
Continuous
 62
     0
370
     0
100
AcDbLine
 10
100.7419198990359
 20
101.2967210952181
 30
0.0
 11
178.6842102051273
 21
112.9435780588526
 31
0.0
  0
LINE
  5
304
330
1F
100
AcDbEntity
  8
0
  6
Continuous
 62
     0
370
     0
100
AcDbLine
 10
100.5495304108157
 20
101.5263611022371
 30
0.0
 11
178.4918207169071
 21
113.1732180658716
 31
0.0
  0
LINE
  5
305
330
1F
100
AcDbEntity
  8
0
  6
Continuous
 62
     0
370
     0
100
AcDbLine
 10
171.1599487305179
 20
113.1902527753252
 30
0.0
 11
170.6959051132694
 21
113.3982795421022
 31
0.0
  0
LINE
  5
306
330
1F
100
AcDbEntity
  8
0
  6
Continuous
 62
     0
370
     0
100
AcDbLine
 10
170.6959051132694
 20
113.5721456948656
 30
0.0
 11
170.6959051132694
 21
113.3982795421022
 31
0.0
  0
LINE
  5
307
330
1F
100
AcDbEntity
  8
0
  6
Continuous
 62
     0
370
     0
100
AcDbLine
 10
170.6959051132694
 20
113.5721456948656
 30
0.0
 11
171.3259023666874
 21
113.2897251788515
 31
0.0
  0
LINE
  5
308
330
1F
100
AcDbEntity
  8
0
  6
Continuous
 62
     0
370
     0
100
AcDbLine
 10
171.3259023666874
 20
113.2897251788515
 30
0.0
 11
171.3259023666874
 21
113.2150497976679
 31
0.0
  0
LINE
  5
309
330
1F
100
AcDbEntity
  8
0
  6
Continuous
 62
     0
370
     0
100
AcDbLine
 10
169.8939889908329
 20
113.274511689319
 30
0.0
 11
169.8939889908329
 21
113.0050167385477
 31
0.0
  0
LWPOLYLINE
  5
30A
330
1F
100
AcDbEntity
  8
0
  6
Continuous
 62
     0
370
     0
100
AcDbPolyline
 90
        3
 70
   128
 43
0.0
 10
169.8937314987674
 20
113.0010417047876
 10
169.8937958717837
 20
113.0017015282053
 10
169.8939889908329
 20
113.0050167385477
  0
LINE
  5
30B
330
1F
100
AcDbEntity
  8
0
  6
Continuous
 62
     0
370
     0
100
AcDbLine
 10
169.8714798927798
 20
112.9977157656091
 30
0.0
 11
169.8248738289371
 21
113.0186101738352
 31
0.0
  0
LWPOLYLINE
  5
30C
330
1F
100
AcDbEntity
  8
0
  6
Continuous
 62
     0
370
     0
100
AcDbPolyline
 90
        9
 70
   128
 43
0.0
 10
169.8159045219913
 20
113.0040430966753
 10
169.8159688950077
 20
113.0075728837389
 10
169.8163980484501
 20
113.010834449901
 10
169.8171919823184
 20
113.0136963669199
 10
169.8182863235965
 20
113.0160325709718
 10
169.8196810722843
 20
113.0177518669504
 10
169.8212903976932
 20
113.0187764707941
 10
169.823049926807
 20
113.0190661493677
 10
169.8248738289371
 20
113.0186101738352
  0
LINE
  5
30D
330
1F
100
AcDbEntity
  8
0
  6
Continuous
 62
     0
370
     0
100
AcDbLine
 10
169.8159045219913
 20
113.0040430966753
 30
0.0
 11
169.8264831543461
 21
112.7047166172403
 31
0.0
  0
LINE
  5
30E
330
1F
100
AcDbEntity
  8
0
  6
Continuous
 62
     0
370
     0
100
AcDbLine
 10
169.8339504242435
 20
112.4931868854898
 30
0.0
 11
169.8350447655216
 21
112.4624729100603
 31
0.0
  0
ARC
  5
30F
330
1F
100
AcDbEntity
  8
0
  6
Continuous
 62
     0
370
     0
100
AcDbCircle
 10
169.8855815348547
 20
112.4637423660454
 30
0.0
 40
0.0505527108385975
100
AcDbArc
 50
181.438936022383
 51
207.1049272054292
  0
LINE
  5
310
330
1F
100
AcDbEntity
  8
0
  6
Continuous
 62
     0
370
     0
100
AcDbLine
 10
169.8405808449283
 20
112.4407094661134
 30
0.0
 11
169.8714798927798
 21
112.3834201637644
 31
0.0
  0
LINE
  5
311
330
1F
100
AcDbEntity
  8
0
  6
Continuous
 62
     0
370
     0
100
AcDbLine
 10
169.8714798927798
 20
112.3834201637644
 30
0.0
 11
169.8714798927798
 21
112.3573410455126
 31
0.0
  0
LINE
  5
312
330
1F
100
AcDbEntity
  8
0
  6
Continuous
 62
     0
370
     0
100
AcDbLine
 10
169.8714798927798
 20
112.3573410455126
 30
0.0
 11
169.7912496567264
 21
112.2354024592775
 31
0.0
  0
LWPOLYLINE
  5
313
330
1F
100
AcDbEntity
  8
0
  6
Continuous
 62
     0
370
     0
100
AcDbPolyline
 90
        9
 70
   128
 43
0.0
 10
169.7758430481449
 20
112.2532820645708
 10
169.77640094762
 20
112.2481778208154
 10
169.7776240349308
 20
112.2432586494821
 10
169.7794479370609
 20
112.2389295641321
 10
169.7817224503055
 20
112.2355446163553
 10
169.7842329979435
 20
112.2333800736803
 10
169.7868079185978
 20
112.232612961902
 10
169.7892111778751
 20
112.2333049718279
 10
169.7912496567264
 20
112.2354024592775
  0
LINE
  5
314
330
1F
100
AcDbEntity
  8
0
  6
Continuous
 62
     0
370
     0
100
AcDbLine
 10
169.7758430481449
 20
112.2532820645708
 30
0.0
 11
169.7435492516056
 21
113.1668746415514
 31
0.0
  0
LWPOLYLINE
  5
315
330
1F
100
AcDbEntity
  8
0
  6
Continuous
 62
     0
370
     0
100
AcDbPolyline
 90
        9
 70
   128
 43
0.0
 10
169.7525185585514
 20
113.1814417187113
 10
169.7506946564212
 20
113.1818976942438
 10
169.7489351273075
 20
113.1816080156702
 10
169.7473258018985
 20
113.1805834118265
 10
169.7459525108829
 20
113.1788641158479
 10
169.7448367119327
 20
113.176527911796
 10
169.7440427780643
 20
113.1736659947771
 10
169.7436136246219
 20
113.170404428615
 10
169.7435492516056
 20
113.1668746415514
  0
LINE
  5
316
330
1F
100
AcDbEntity
  8
0
  6
Continuous
 62
     0
370
     0
100
AcDbLine
 10
169.7525185585514
 20
113.1814417187113
 30
0.0
 11
169.8264831543461
 21
113.1482896152872
 31
0.0
  0
LINE
  5
317
330
1F
100
AcDbEntity
  8
0
  6
Continuous
 62
     0
370
     0
100
AcDbLine
 10
169.8264831543461
 20
113.1482896152872
 30
0.0
 11
169.8264831543461
 21
113.3221557680505
 31
0.0
  0
LINE
  5
318
330
1F
100
AcDbEntity
  8
0
  6
Continuous
 62
     0
370
     0
100
AcDbLine
 10
169.9029797554508
 20
113.2878637257951
 30
0.0
 11
169.8264831543461
 21
113.3221557680505
 31
0.0
  0
LWPOLYLINE
  5
319
330
1F
100
AcDbEntity
  8
0
  6
Continuous
 62
     0
370
     0
100
AcDbPolyline
 90
        9
 70
   128
 43
0.0
 10
169.8939889908329
 20
113.274511689319
 10
169.8941606522098
 20
113.2778242174524
 10
169.8946541786685
 20
113.2808577958482
 10
169.8954910278812
 20
113.2834890428919
 10
169.8966068268314
 20
113.2856240812677
 10
169.897980117847
 20
113.2871743980783
 10
169.8995250702396
 20
113.2880836669344
 10
169.901220226337
 20
113.2883143369097
 10
169.9029797554508
 20
113.2878637257951
  0
LINE
  5
31A
330
1F
100
AcDbEntity
  8
0
  6
Continuous
 62
     0
370
     0
100
AcDbLine
 10
170.3805202484623
 20
113.0737832132715
 30
0.0
 11
170.3214687347904
 21
113.1002539340395
 31
0.0
  0
LINE
  5
31B
330
1F
100
AcDbEntity
  8
0
  6
Continuous
 62
     0
370
     0
100
AcDbLine
 10
170.3214687347904
 20
113.1002539340395
 30
0.0
 11
170.2449721336856
 21
113.1345486585039
 31
0.0
  0
LINE
  5
31C
330
1F
100
AcDbEntity
  8
0
  6
Continuous
 62
     0
370
     0
100
AcDbLine
 10
168.4319705009952
 20
112.7826133314508
 30
0.0
 11
167.9679268837467
 21
112.9906400982279
 31
0.0
  0
LINE
  5
31D
330
1F
100
AcDbEntity
  8
0
  6
Continuous
 62
     0
370
     0
100
AcDbLine
 10
168.0338019371524
 20
113.0542781893152
 30
0.0
 11
167.9679268837467
 21
112.9906400982279
 31
0.0
  0
LINE
  5
31E
330
1F
100
AcDbEntity
  8
0
  6
Continuous
 62
     0
370
     0
100
AcDbLine
 10
168.0338019371524
 20
113.0542781893152
 30
0.0
 11
168.6573404312626
 21
113.1474527660745
 31
0.0
  0
LINE
  5
31F
330
1F
100
AcDbEntity
  8
0
  6
Continuous
 62
     0
370
     0
100
AcDbLine
 10
170.4500216484562
 20
113.4153303448099
 30
0.0
 11
169.8264831543461
 21
113.3221557680505
 31
0.0
  0
LINE
  5
320
330
1F
100
AcDbEntity
  8
0
  6
Continuous
 62
     0
370
     0
100
AcDbLine
 10
170.6959051132694
 20
113.3982795421022
 30
0.0
 11
170.4500216484562
 21
113.4153303448099
 31
0.0
  0
LWPOLYLINE
  5
321
330
1F
100
AcDbEntity
  8
0
  6
Continuous
 62
     0
370
     0
100
AcDbPolyline
 90
        3
 70
   128
 43
0.0
 10
168.4747570992008
 20
112.8915432039636
 10
168.5268563271061
 20
112.8761687818903
 10
168.5787838936344
 20
112.8686988297838
  0
LINE
  5
322
330
1F
100
AcDbEntity
  8
0
  6
Continuous
 62
     0
370
     0
100
AcDbLine
 10
168.6573404312626
 20
113.0193370524782
 30
0.0
 11
168.600499057819
 21
113.0448207203287
 31
0.0
  0
LWPOLYLINE
  5
323
330
1F
100
AcDbEntity
  8
0
  6
Continuous
 62
     0
370
     0
100
AcDbPolyline
 90
        9
 70
   128
 43
0.0
 10
168.600499057819
 20
113.0448207203287
 10
168.5483998299136
 20
113.0601951424021
 10
168.4775465965763
 20
113.0692395512003
 10
168.3987111092106
 20
113.0705752912897
 10
168.3238882065311
 20
113.0640038792032
 10
168.2644719124332
 20
113.0505204144853
 10
168.2295388222232
 20
113.0321794692415
 10
168.2243675232425
 20
113.0117732230562
 10
168.2497734070316
 20
112.9924076739687
  0
LINE
  5
324
330
1F
100
AcDbEntity
  8
0
  6
Continuous
 62
     0
370
     0
100
AcDbLine
 10
168.2497734070316
 20
112.9924076739687
 30
0.0
 11
168.4747570992008
 21
112.8915432039636
 31
0.0
  0
LWPOLYLINE
  5
325
330
1F
100
AcDbEntity
  8
0
  6
Continuous
 62
     0
370
     0
100
AcDbPolyline
 90
       17
 70
   128
 43
0.0
 10
170.2854198456302
 20
113.2525122109789
 10
170.3108257294192
 20
113.2331466618913
 10
170.3629249573246
 20
113.217772239818
 10
170.4337781906619
 20
113.2087278310198
 10
170.5126136780277
 20
113.2073894087213
 10
170.5874365807071
 20
113.2139635030168
 10
170.646852874805
 20
113.2274469677347
 10
170.681785965015
 20
113.2457879129785
 10
170.6869572639957
 20
113.2661941591638
 10
170.6615513802066
 20
113.2855597082514
 10
170.6094736099735
 20
113.3009341303247
 10
170.5385989189639
 20
113.3099785391229
 10
170.4597634315982
 20
113.3113142792124
 10
170.3849405289188
 20
113.3047428671259
 10
170.325545692493
 20
113.291259402408
 10
170.2905911446109
 20
113.2729184571642
 10
170.2854198456302
 20
113.2525122109789
  0
LINE
  5
326
330
1F
100
AcDbEntity
  8
0
  6
Continuous
 62
     0
370
     0
100
AcDbLine
 10
170.4500216484562
 20
113.4153303448099
 30
0.0
 11
170.4500216484562
 21
113.5891991797823
 31
0.0
  0
LINE
  5
327
330
1F
100
AcDbEntity
  8
0
  6
Continuous
 62
     0
370
     0
100
AcDbLine
 10
170.4500216484562
 20
113.5891991797823
 30
0.0
 11
170.6959051132694
 21
113.5721456948656
 31
0.0
  0
LINE
  5
328
330
1F
100
AcDbEntity
  8
0
  6
Continuous
 62
     0
370
     0
100
AcDbLine
 10
168.6067217827335
 20
112.0785790625948
 30
0.0
 11
169.7758430481449
 21
112.2532820645708
 31
0.0
  0
LINE
  5
329
330
1F
100
AcDbEntity
  8
0
  6
Continuous
 62
     0
370
     0
100
AcDbLine
 10
168.6067217827335
 20
112.0785790625948
 30
0.0
 11
168.5744065285221
 21
112.9921716395754
 31
0.0
  0
LINE
  5
32A
330
1F
100
AcDbEntity
  8
0
  6
Continuous
 62
     0
370
     0
100
AcDbLine
 10
169.7435492516056
 20
113.1668746415514
 30
0.0
 11
168.5744065285221
 21
112.9921716395754
 31
0.0
  0
LINE
  5
32B
330
1F
100
AcDbEntity
  8
0
  6
Continuous
 62
     0
370
     0
100
AcDbLine
 10
168.6573404312626
 20
113.0186021272081
 30
0.0
 11
168.6573404312626
 21
113.1474527660745
 31
0.0
  0
LINE
  5
32C
330
1F
100
AcDbEntity
  8
0
  6
Continuous
 62
     0
370
     0
100
AcDbLine
 10
168.0338019371524
 20
113.2281443420786
 30
0.0
 11
168.0338019371524
 21
113.0542781893152
 31
0.0
  0
LINE
  5
32D
330
1F
100
AcDbEntity
  8
0
  6
Continuous
 62
     0
370
     0
100
AcDbLine
 10
168.0338019371524
 20
113.2281443420786
 30
0.0
 11
170.4500216484562
 21
113.5891991797823
 31
0.0
  0
LWPOLYLINE
  5
32E
330
1F
100
AcDbEntity
  8
0
  6
Continuous
 62
     0
370
     0
100
AcDbPolyline
 90
        8
 70
   128
 43
0.0
 10
168.618351841022
 20
112.0579555574793
 10
168.6176651955143
 20
112.057909959926
 10
168.61509027486
 20
112.0586770717043
 10
168.612579727222
 20
112.0608416143793
 10
168.6103052139773
 20
112.0642265621561
 10
168.6085027695194
 20
112.0685556475061
 10
168.6072582245365
 20
112.0734748188394
 10
168.6067217827335
 20
112.0785790625948
  0
LWPOLYLINE
  5
32F
330
1F
100
AcDbEntity
  8
0
  6
Continuous
 62
     0
370
     0
100
AcDbPolyline
 90
        8
 70
   128
 43
0.0
 10
168.5744065285221
 20
112.9921716395754
 10
168.5744709015384
 20
112.995701426639
 10
168.5749215126529
 20
112.9989629928011
 10
168.5756939888492
 20
113.00182490982
 10
168.5768097877994
 20
113.0041611138719
 10
168.5782045364872
 20
113.0058804098505
 10
168.5798138618961
 20
113.0069050136942
 10
168.5807365417972
 20
113.0071544591326
  0
LINE
  5
330
330
1F
100
AcDbEntity
  8
0
  6
Continuous
 62
     0
370
     0
100
AcDbLine
 10
170.2539843559757
 20
113.0548736397165
 30
0.0
 11
170.2539843559757
 21
113.1131258551019
 31
0.0
  0
ARC
  5
331
330
1F
100
AcDbEntity
  8
0
  6
Continuous
 62
     0
370
     0
100
AcDbCircle
 10
170.2293902485322
 20
113.115386565985
 30
0.0
 40
0.0246977921004678
100
AcDbArc
 50
354.7480828637454
 51
50.88330196670565
  0
LINE
  5
332
330
1F
100
AcDbEntity
  8
0
  6
Continuous
 62
     0
370
     0
100
AcDbLine
 10
170.3214687347904
 20
113.1002539340395
 30
0.0
 11
170.3214687347904
 21
113.0649614278215
 31
0.0
  0
LINE
  5
333
330
1F
100
AcDbEntity
  8
0
  6
Continuous
 62
     0
370
     0
100
AcDbLine
 10
167.9679268837467
 20
112.9906400982279
 30
0.0
 11
167.9679268837467
 21
113.1645062509912
 31
0.0
  0
LINE
  5
334
330
1F
100
AcDbEntity
  8
0
  6
Continuous
 62
     0
370
     0
100
AcDbLine
 10
167.9679268837467
 20
113.1645062509912
 30
0.0
 11
168.0338019371524
 21
113.2281443420786
 31
0.0
  0
LINE
  5
335
330
1F
100
AcDbEntity
  8
0
  6
Continuous
 62
     0
370
     0
100
AcDbLine
 10
168.4747570992008
 20
113.065409356727
 30
0.0
 11
168.4747570992008
 21
112.8915432039636
 31
0.0
  0
LINE
  5
336
330
1F
100
AcDbEntity
  8
0
  6
Continuous
 62
     0
370
     0
100
AcDbLine
 10
168.4644574165836
 20
113.0700254384416
 30
0.0
 11
168.4747570992008
 21
113.065409356727
 31
0.0
  0
ARC
  5
337
330
1F
100
AcDbEntity
  8
0
  6
Continuous
 62
     0
370
     0
100
AcDbCircle
 10
168.6255515422858
 20
113.4995260365988
 30
0.0
 40
0.4595609380792097
100
AcDbArc
 50
250.8448565875601
 51
268.1603777433373
  0
LINE
  5
338
330
1F
100
AcDbEntity
  8
0
  6
Continuous
 62
     0
370
     0
100
AcDbLine
 10
111.534099006702
 20
104.2804077211755
 30
0.0
 11
111.0700553894534
 21
104.4884344879526
 31
0.0
  0
LINE
  5
339
330
1F
100
AcDbEntity
  8
0
  6
Continuous
 62
     0
370
     0
100
AcDbLine
 10
111.0700553894534
 20
104.662300640716
 30
0.0
 11
111.0700553894534
 21
104.4884344879526
 31
0.0
  0
LINE
  5
33A
330
1F
100
AcDbEntity
  8
0
  6
Continuous
 62
     0
370
     0
100
AcDbLine
 10
111.0700553894534
 20
104.662300640716
 30
0.0
 11
111.7000526428714
 21
104.3798801247019
 31
0.0
  0
LINE
  5
33B
330
1F
100
AcDbEntity
  8
0
  6
Continuous
 62
     0
370
     0
100
AcDbLine
 10
111.7000526428714
 20
104.3798801247019
 30
0.0
 11
111.7000526428714
 21
104.3052047435182
 31
0.0
  0
LINE
  5
33C
330
1F
100
AcDbEntity
  8
0
  6
Continuous
 62
     0
370
     0
100
AcDbLine
 10
110.2681392670169
 20
104.3646639529604
 30
0.0
 11
110.2681392670169
 21
104.0951716843981
 31
0.0
  0
LWPOLYLINE
  5
33D
330
1F
100
AcDbEntity
  8
0
  6
Continuous
 62
     0
370
     0
100
AcDbPolyline
 90
        3
 70
   128
 43
0.0
 10
110.2678817749515
 20
104.091196650638
 10
110.2679676056399
 20
104.0918564740556
 10
110.2681392670169
 20
104.0951716843981
  0
LINE
  5
33E
330
1F
100
AcDbEntity
  8
0
  6
Continuous
 62
     0
370
     0
100
AcDbLine
 10
110.245630168964
 20
104.0878707114595
 30
0.0
 11
110.1990241051211
 21
104.1087624374765
 31
0.0
  0
LWPOLYLINE
  5
33F
330
1F
100
AcDbEntity
  8
0
  6
Continuous
 62
     0
370
     0
100
AcDbPolyline
 90
        9
 70
   128
 43
0.0
 10
110.1900547981754
 20
104.0941980425256
 10
110.1901191711917
 20
104.0977278295892
 10
110.1905483246341
 20
104.1009893957514
 10
110.1913422585025
 20
104.1038486305612
 10
110.1924365997806
 20
104.1061875168222
 10
110.1938313484683
 20
104.1079041305917
 10
110.1954406738772
 20
104.1089314166445
 10
110.197200202991
 20
104.1092210952181
 10
110.1990241051211
 20
104.1087624374765
  0
LINE
  5
340
330
1F
100
AcDbEntity
  8
0
  6
Continuous
 62
     0
370
     0
100
AcDbLine
 10
110.1900547981754
 20
104.0941980425256
 30
0.0
 11
110.2006334305301
 21
103.7948715630907
 31
0.0
  0
LINE
  5
341
330
1F
100
AcDbEntity
  8
0
  6
Continuous
 62
     0
370
     0
100
AcDbLine
 10
110.2081007004275
 20
103.5833418313402
 30
0.0
 11
110.2091950417056
 21
103.5526251737016
 31
0.0
  0
ARC
  5
342
330
1F
100
AcDbEntity
  8
0
  6
Continuous
 62
     0
370
     0
100
AcDbCircle
 10
110.2597171920254
 20
103.5538937493608
 30
0.0
 40
0.0505380743314553
100
AcDbArc
 50
181.4383544916701
 51
207.1088832608261
  0
LINE
  5
343
330
1F
100
AcDbEntity
  8
0
  6
Continuous
 62
     0
370
     0
100
AcDbLine
 10
110.2147311211124
 20
103.5308644119638
 30
0.0
 11
110.245630168964
 21
103.4735751096147
 31
0.0
  0
LINE
  5
344
330
1F
100
AcDbEntity
  8
0
  6
Continuous
 62
     0
370
     0
100
AcDbLine
 10
110.245630168964
 20
103.4735751096147
 30
0.0
 11
110.245630168964
 21
103.4474959913629
 31
0.0
  0
LINE
  5
345
330
1F
100
AcDbEntity
  8
0
  6
Continuous
 62
     0
370
     0
100
AcDbLine
 10
110.245630168964
 20
103.4474959913629
 30
0.0
 11
110.1653999329104
 21
103.3255574051279
 31
0.0
  0
LWPOLYLINE
  5
346
330
1F
100
AcDbEntity
  8
0
  6
Continuous
 62
     0
370
     0
100
AcDbPolyline
 90
        9
 70
   128
 43
0.0
 10
110.1499933243289
 20
103.3434370104212
 10
110.150551223804
 20
103.3383327666658
 10
110.1517743111148
 20
103.3334135953325
 10
110.1535982132449
 20
103.3290845099825
 10
110.1558727264896
 20
103.3256995622057
 10
110.1583832741275
 20
103.3235350195307
 10
110.1609581947818
 20
103.3227679077524
 10
110.1633614540591
 20
103.3234599176782
 10
110.1653999329104
 20
103.3255574051279
  0
LINE
  5
347
330
1F
100
AcDbEntity
  8
0
  6
Continuous
 62
     0
370
     0
100
AcDbLine
 10
110.1499933243289
 20
103.3434370104212
 30
0.0
 11
110.1176995277896
 21
104.2570295874017
 31
0.0
  0
LWPOLYLINE
  5
348
330
1F
100
AcDbEntity
  8
0
  6
Continuous
 62
     0
370
     0
100
AcDbPolyline
 90
        9
 70
   128
 43
0.0
 10
110.1266902924075
 20
104.2715939823526
 10
110.1248449326053
 20
104.2720526400942
 10
110.1230854034915
 20
104.2717629615206
 10
110.1214975357547
 20
104.2707383576769
 10
110.120102787067
 20
104.2690190616983
 10
110.1189869881167
 20
104.2666828576463
 10
110.1181930542483
 20
104.2638209406275
 10
110.117763900806
 20
104.2605593744653
 10
110.1176995277896
 20
104.2570295874017
  0
LINE
  5
349
330
1F
100
AcDbEntity
  8
0
  6
Continuous
 62
     0
370
     0
100
AcDbLine
 10
110.1266902924075
 20
104.2715939823526
 30
0.0
 11
110.2006334305301
 21
104.2384445611376
 31
0.0
  0
LINE
  5
34A
330
1F
100
AcDbEntity
  8
0
  6
Continuous
 62
     0
370
     0
100
AcDbLine
 10
110.2006334305301
 20
104.2384445611376
 30
0.0
 11
110.2006334305301
 21
104.4123107139009
 31
0.0
  0
LINE
  5
34B
330
1F
100
AcDbEntity
  8
0
  6
Continuous
 62
     0
370
     0
100
AcDbLine
 10
110.2771300316348
 20
104.3780159894365
 30
0.0
 11
110.2006334305301
 21
104.4123107139009
 31
0.0
  0
LWPOLYLINE
  5
34C
330
1F
100
AcDbEntity
  8
0
  6
Continuous
 62
     0
370
     0
100
AcDbPolyline
 90
        9
 70
   128
 43
0.0
 10
110.2681392670169
 20
104.3646639529604
 10
110.2683109283939
 20
104.3679791633028
 10
110.2688259125247
 20
104.3710100594896
 10
110.2696413040653
 20
104.3736439887422
 10
110.2707571030154
 20
104.3757763449091
 10
110.2721303940311
 20
104.3773293439287
 10
110.2736968040957
 20
104.3782386127847
 10
110.275370502521
 20
104.37846928276
 10
110.2771300316348
 20
104.3780159894365
  0
LINE
  5
34D
330
1F
100
AcDbEntity
  8
0
  6
Continuous
 62
     0
370
     0
100
AcDbLine
 10
110.8241719246402
 20
104.5054852906603
 30
0.0
 11
110.8241719246402
 21
104.6793514434236
 31
0.0
  0
LINE
  5
34E
330
1F
100
AcDbEntity
  8
0
  6
Continuous
 62
     0
370
     0
100
AcDbLine
 10
110.8241719246402
 20
104.6793514434236
 30
0.0
 11
111.0700553894534
 21
104.662300640716
 31
0.0
  0
LINE
  5
34F
330
1F
100
AcDbEntity
  8
0
  6
Continuous
 62
     0
370
     0
100
AcDbLine
 10
111.0700553894534
 20
104.4884344879526
 30
0.0
 11
110.8241719246402
 21
104.5054852906603
 31
0.0
  0
LINE
  5
350
330
1F
100
AcDbEntity
  8
0
  6
Continuous
 62
     0
370
     0
100
AcDbLine
 10
110.7546705246463
 20
104.1639381591219
 30
0.0
 11
110.6956404686466
 21
104.1904088798898
 31
0.0
  0
LINE
  5
351
330
1F
100
AcDbEntity
  8
0
  6
Continuous
 62
     0
370
     0
100
AcDbLine
 10
110.6956404686466
 20
104.1904088798898
 30
0.0
 11
110.6191224098697
 21
104.2247036043543
 31
0.0
  0
LINE
  5
352
330
1F
100
AcDbEntity
  8
0
  6
Continuous
 62
     0
370
     0
100
AcDbLine
 10
108.8061207771793
 20
103.8727655950922
 30
0.0
 11
108.3420771599307
 21
104.0807923618692
 31
0.0
  0
LINE
  5
353
330
1F
100
AcDbEntity
  8
0
  6
Continuous
 62
     0
370
     0
100
AcDbLine
 10
108.4079522133365
 20
104.1444331351656
 30
0.0
 11
108.3420771599307
 21
104.0807923618692
 31
0.0
  0
LINE
  5
354
330
1F
100
AcDbEntity
  8
0
  6
Continuous
 62
     0
370
     0
100
AcDbLine
 10
108.4079522133365
 20
104.1444331351656
 30
0.0
 11
109.0314907074466
 21
104.2376077119249
 31
0.0
  0
LINE
  5
355
330
1F
100
AcDbEntity
  8
0
  6
Continuous
 62
     0
370
     0
100
AcDbLine
 10
110.8241719246402
 20
104.5054852906603
 30
0.0
 11
110.2006334305301
 21
104.4123107139009
 31
0.0
  0
LWPOLYLINE
  5
356
330
1F
100
AcDbEntity
  8
0
  6
Continuous
 62
     0
370
     0
100
AcDbPolyline
 90
        3
 70
   128
 43
0.0
 10
108.8489073753848
 20
103.981698149814
 10
108.9010066032901
 20
103.9663237277406
 10
108.9529341698184
 20
103.9588537756342
  0
LINE
  5
357
330
1F
100
AcDbEntity
  8
0
  6
Continuous
 62
     0
370
     0
100
AcDbLine
 10
109.0314907074466
 20
104.1094919983286
 30
0.0
 11
108.974649334003
 21
104.13497298397
 31
0.0
  0
LWPOLYLINE
  5
358
330
1F
100
AcDbEntity
  8
0
  6
Continuous
 62
     0
370
     0
100
AcDbPolyline
 90
        9
 70
   128
 43
0.0
 10
108.974649334003
 20
104.13497298397
 10
108.9225501060978
 20
104.1503500882524
 10
108.8516968727603
 20
104.1593944970506
 10
108.7728613853946
 20
104.1607302371401
 10
108.6980384827152
 20
104.1541588250536
 10
108.6386221886172
 20
104.1406753603357
 10
108.6036890984073
 20
104.1223344150919
 10
108.5985177994266
 20
104.1019281689066
 10
108.6239236832156
 20
104.082562619819
  0
LINE
  5
359
330
1F
100
AcDbEntity
  8
0
  6
Continuous
 62
     0
370
     0
100
AcDbLine
 10
108.6239236832156
 20
104.082562619819
 30
0.0
 11
108.8489073753848
 21
103.981698149814
 31
0.0
  0
LWPOLYLINE
  5
35A
330
1F
100
AcDbEntity
  8
0
  6
Continuous
 62
     0
370
     0
100
AcDbPolyline
 90
       17
 70
   128
 43
0.0
 10
110.6595701218143
 20
104.3426671568292
 10
110.6849760056034
 20
104.3233016077417
 10
110.7370752335086
 20
104.3079271856683
 10
110.8079284668461
 20
104.2988827768701
 10
110.8867639542117
 20
104.2975443545717
 10
110.9615868568912
 20
104.3041184488672
 10
111.0210031509891
 20
104.3176019135851
 10
111.055936241199
 20
104.3359428588289
 10
111.0611075401798
 20
104.3563491050142
 10
111.0357016563907
 20
104.3757119718927
 10
110.9836238861575
 20
104.3910890761751
 10
110.9127491951481
 20
104.4001334849733
 10
110.8339137077823
 20
104.4014692250627
 10
110.7590908051029
 20
104.3948978129762
 10
110.699695968677
 20
104.3814143482584
 10
110.664741420795
 20
104.3630734030145
 10
110.6595701218143
 20
104.3426671568292
  0
LINE
  5
35B
330
1F
100
AcDbEntity
  8
0
  6
Continuous
 62
     0
370
     0
100
AcDbLine
 10
108.9808720589175
 20
103.1687340084451
 30
0.0
 11
110.1499933243289
 21
103.3434370104212
 31
0.0
  0
LINE
  5
35C
330
1F
100
AcDbEntity
  8
0
  6
Continuous
 62
     0
370
     0
100
AcDbLine
 10
108.9808720589175
 20
103.1687340084451
 30
0.0
 11
108.9485568047061
 21
104.0823265854257
 31
0.0
  0
LINE
  5
35D
330
1F
100
AcDbEntity
  8
0
  6
Continuous
 62
     0
370
     0
100
AcDbLine
 10
110.1176995277896
 20
104.2570295874017
 30
0.0
 11
108.9485568047061
 21
104.0823265854257
 31
0.0
  0
LINE
  5
35E
330
1F
100
AcDbEntity
  8
0
  6
Continuous
 62
     0
370
     0
100
AcDbLine
 10
109.0314907074466
 20
104.1087570730585
 30
0.0
 11
109.0314907074466
 21
104.2376077119249
 31
0.0
  0
LINE
  5
35F
330
1F
100
AcDbEntity
  8
0
  6
Continuous
 62
     0
370
     0
100
AcDbLine
 10
108.4079522133365
 20
104.3182992879289
 30
0.0
 11
108.4079522133365
 21
104.1444331351656
 31
0.0
  0
LINE
  5
360
330
1F
100
AcDbEntity
  8
0
  6
Continuous
 62
     0
370
     0
100
AcDbLine
 10
108.4079522133365
 20
104.3182992879289
 30
0.0
 11
110.8241719246402
 21
104.6793514434236
 31
0.0
  0
LWPOLYLINE
  5
361
330
1F
100
AcDbEntity
  8
0
  6
Continuous
 62
     0
370
     0
100
AcDbPolyline
 90
        8
 70
   128
 43
0.0
 10
108.9925021172062
 20
103.1481105033296
 10
108.9918154716983
 20
103.1480649057764
 10
108.989240551044
 20
103.1488320175546
 10
108.9867300034061
 20
103.1509965602297
 10
108.9844769478335
 20
103.1543815080065
 10
108.9826530457034
 20
103.1587105933565
 10
108.9814085007205
 20
103.1636297646898
 10
108.9808720589175
 20
103.1687340084451
  0
LWPOLYLINE
  5
362
330
1F
100
AcDbEntity
  8
0
  6
Continuous
 62
     0
370
     0
100
AcDbPolyline
 90
        8
 70
   128
 43
0.0
 10
108.9485568047061
 20
104.0823265854257
 10
108.9486211777225
 20
104.0858563724893
 10
108.949071788837
 20
104.0891179386514
 10
108.9498442650333
 20
104.0919798556703
 10
108.9509600639835
 20
104.0943160597223
 10
108.9523548126712
 20
104.0960353557008
 10
108.9539641380802
 20
104.0970599595445
 10
108.9548868179813
 20
104.0973094049829
  0
LINE
  5
363
330
1F
100
AcDbEntity
  8
0
  6
Continuous
 62
     0
370
     0
100
AcDbLine
 10
110.6281346321597
 20
104.1450285855669
 30
0.0
 11
110.6281346321597
 21
104.2032808009523
 31
0.0
  0
ARC
  5
364
330
1F
100
AcDbEntity
  8
0
  6
Continuous
 62
     0
370
     0
100
AcDbCircle
 10
110.6035346859099
 20
104.2055390555452
 30
0.0
 40
0.0247033817381572
100
AcDbArc
 50
354.7549955302791
 51
50.8763893003798
  0
LINE
  5
365
330
1F
100
AcDbEntity
  8
0
  6
Continuous
 62
     0
370
     0
100
AcDbLine
 10
110.6956404686466
 20
104.1904088798898
 30
0.0
 11
110.6956404686466
 21
104.1551136914629
 31
0.0
  0
LINE
  5
366
330
1F
100
AcDbEntity
  8
0
  6
Continuous
 62
     0
370
     0
100
AcDbLine
 10
108.3420771599307
 20
104.0807923618692
 30
0.0
 11
108.3420771599307
 21
104.2546611968416
 31
0.0
  0
LINE
  5
367
330
1F
100
AcDbEntity
  8
0
  6
Continuous
 62
     0
370
     0
100
AcDbLine
 10
108.3420771599307
 20
104.2546611968416
 30
0.0
 11
108.4079522133365
 21
104.3182992879289
 31
0.0
  0
LINE
  5
368
330
1F
100
AcDbEntity
  8
0
  6
Continuous
 62
     0
370
     0
100
AcDbLine
 10
108.8489073753848
 20
104.1555643025774
 30
0.0
 11
108.8489073753848
 21
103.981698149814
 31
0.0
  0
LINE
  5
369
330
1F
100
AcDbEntity
  8
0
  6
Continuous
 62
     0
370
     0
100
AcDbLine
 10
108.8386076927676
 20
104.160180384292
 30
0.0
 11
108.8489073753848
 21
104.1555643025774
 31
0.0
  0
ARC
  5
36A
330
1F
100
AcDbEntity
  8
0
  6
Continuous
 62
     0
370
     0
100
AcDbCircle
 10
108.99970181847
 20
104.5896809824497
 30
0.0
 40
0.4595609380797726
100
AcDbArc
 50
250.84485658757
 51
268.1603777433254
  0
LWPOLYLINE
  5
36B
330
1F
100
AcDbEntity
  8
0
  6
Continuous
 62
     0
370
     0
100
AcDbPolyline
 90
        6
 70
   128
 43
0.0
 10
100.7419198990359
 20
101.2967210952181
 10
100.7053345680728
 20
101.3024368826288
 10
100.657998943378
 20
101.3418385330576
 10
100.6178730965152
 20
101.411613518371
 10
100.5910295486941
 20
101.5011429730791
 10
100.5859869957461
 20
101.5318113509554
  0
LWPOLYLINE
  5
36C
330
1F
100
AcDbEntity
  8
0
  6
Continuous
 62
     0
370
     0
100
AcDbPolyline
 90
        6
 70
   128
 43
0.0
 10
178.6842102051273
 20
112.9435780588526
 10
178.6476248741642
 20
112.9492938462633
 10
178.6002677917972
 20
112.9887196365732
 10
178.5601204872623
 20
113.0585402194399
 10
178.5332983971133
 20
113.1481260005373
 10
178.5282773018375
 20
113.1786683145899
  0
LWPOLYLINE
  5
36D
330
1F
100
AcDbEntity
  8
0
  6
Continuous
 62
     0
370
     0
100
AcDbPolyline
 90
        3
 70
   128
 43
0.0
 10
178.4851688385502
 20
113.1742587629694
 10
178.4886664391055
 20
113.1732180658716
 10
178.4918207169071
 20
113.1732180658716
  0
LINE
  5
36E
330
1F
100
AcDbEntity
  8
0
  6
Continuous
 62
     0
370
     0
100
AcDbLine
 10
178.4851688385502
 20
113.1742587629694
 30
0.0
 11
178.4676379204288
 21
113.182117635383
 31
0.0
  0
LINE
  5
36F
330
1F
100
AcDbEntity
  8
0
  6
Continuous
 62
     0
370
     0
100
AcDbLine
 10
178.4676379204288
 20
113.182117635383
 30
0.0
 11
178.4676379204288
 21
113.7211048547167
 31
0.0
  0
ARC
  5
370
330
1F
100
AcDbEntity
  8
0
  6
Continuous
 62
     0
370
     0
100
AcDbCircle
 10
178.4306128960424
 20
113.7244541094794
 30
0.0
 40
0.0371762012351259
100
AcDbArc
 50
354.8311366535126
 51
50.73692714495082
  0
LINE
  5
371
330
1F
100
AcDbEntity
  8
0
  6
Continuous
 62
     0
370
     0
100
AcDbLine
 10
178.4541410446659
 20
113.7532377187151
 30
0.0
 11
178.4091228485599
 21
113.7734106127161
 31
0.0
  0
ARC
  5
372
330
1F
100
AcDbEntity
  8
0
  6
Continuous
 62
     0
370
     0
100
AcDbCircle
 10
178.4248015738645
 20
113.7925884429996
 30
0.0
 40
0.0247711849042071
100
AcDbArc
 50
174.8064694410725
 51
230.7324810194419
  0
LINE
  5
373
330
1F
100
AcDbEntity
  8
0
  6
Continuous
 62
     0
370
     0
100
AcDbLine
 10
178.400132083942
 20
113.794830733909
 30
0.0
 11
178.400132083942
 21
114.2121100369829
 31
0.0
  0
LINE
  5
374
330
1F
100
AcDbEntity
  8
0
  6
Continuous
 62
     0
370
     0
100
AcDbLine
 10
178.4451288223758
 20
114.2788702193636
 30
0.0
 11
178.400132083942
 21
114.2121100369829
 31
0.0
  0
LWPOLYLINE
  5
375
330
1F
100
AcDbEntity
  8
0
  6
Continuous
 62
     0
370
     0
100
AcDbPolyline
 90
        2
 70
   128
 43
0.0
 10
100.5253476143375
 20
101.5352606717485
 10
178.4676379204288
 20
113.182117635383
  0
LWPOLYLINE
  5
376
330
1F
100
AcDbEntity
  8
0
  6
Continuous
 62
     0
370
     0
100
AcDbPolyline
 90
        2
 70
   128
 43
0.0
 10
100.5428785324588
 20
101.5274017993349
 10
178.4851688385502
 20
113.1742587629694
  0
LINE
  5
377
330
1F
100
AcDbEntity
  8
0
  6
Continuous
 62
     0
370
     0
100
AcDbLine
 10
100.5428785324588
 20
101.5274017993349
 30
0.0
 11
100.5253476143375
 21
101.5352606717485
 31
0.0
  0
LINE
  5
378
330
1F
100
AcDbEntity
  8
0
  6
Continuous
 62
     0
370
     0
100
AcDbLine
 10
100.5253476143375
 20
101.5352606717485
 30
0.0
 11
100.5253476143375
 21
102.0742478910822
 31
0.0
  0
LWPOLYLINE
  5
379
330
1F
100
AcDbEntity
  8
0
  6
Continuous
 62
     0
370
     0
100
AcDbPolyline
 90
        3
 70
   128
 43
0.0
 10
100.5495304108157
 20
101.5263611022371
 10
100.5463761330142
 20
101.5263611022371
 10
100.5428785324588
 20
101.5274017993349
  0
ARC
  5
37A
330
1F
100
AcDbEntity
  8
0
  6
Continuous
 62
     0
370
     0
100
AcDbCircle
 10
100.4824352481148
 20
102.1457151905997
 30
0.0
 40
0.02469696260234
100
AcDbArc
 50
174.7528710994551
 51
230.8836423875885
  0
LINE
  5
37B
330
1F
100
AcDbEntity
  8
0
  6
Continuous
 62
     0
370
     0
100
AcDbLine
 10
178.400132083942
 20
114.2121100369829
 30
0.0
 11
169.8185223579898
 21
112.9297673646349
 31
0.0
  0
LINE
  5
37C
330
1F
100
AcDbEntity
  8
0
  6
Continuous
 62
     0
370
     0
100
AcDbLine
 10
168.5831398010746
 20
112.7451670113939
 30
0.0
 11
110.1926726341739
 21
104.0199223104852
 31
0.0
  0
LINE
  5
37D
330
1F
100
AcDbEntity
  8
0
  6
Continuous
 62
     0
370
     0
100
AcDbLine
 10
108.9572900772586
 20
103.8353219572443
 30
0.0
 11
100.4578417778506
 21
102.5652530733484
 31
0.0
  0
LINE
  5
37E
330
1F
100
AcDbEntity
  8
0
  6
Continuous
 62
     0
370
     0
100
AcDbLine
 10
100.4578417778506
 20
102.1479737702745
 30
0.0
 11
100.4578417778506
 21
102.5652530733484
 31
0.0
  0
LINE
  5
37F
330
1F
100
AcDbEntity
  8
0
  6
Continuous
 62
     0
370
     0
100
AcDbLine
 10
100.5118507385745
 20
102.1063807550806
 30
0.0
 11
100.4668540001407
 21
102.1265536490816
 31
0.0
  0
ARC
  5
380
330
1F
100
AcDbEntity
  8
0
  6
Continuous
 62
     0
370
     0
100
AcDbCircle
 10
100.4883755362962
 20
102.0776193850776
 30
0.0
 40
0.0371254835180955
100
AcDbArc
 50
354.789592842182
 51
50.77847095643712
  0
LINE
  5
381
330
1F
100
AcDbEntity
  8
0
  6
Continuous
 62
     0
370
     0
100
AcDbLine
 10
100.5028385162845
 20
102.6320132557291
 30
0.0
 11
108.9551872253909
 21
103.8950413409609
 31
0.0
  0
LINE
  5
382
330
1F
100
AcDbEntity
  8
0
  6
Continuous
 62
     0
370
     0
100
AcDbLine
 10
110.1905697823062
 20
104.0796416942018
 30
0.0
 11
168.5810369492069
 21
112.8048863951105
 31
0.0
  0
LWPOLYLINE
  5
383
330
1F
100
AcDbEntity
  8
0
  6
Continuous
 62
     0
370
     0
100
AcDbPolyline
 90
        2
 70
   128
 43
0.0
 10
169.8164195061222
 20
112.9894894305605
 10
178.4451288223758
 20
114.2788702193636
  0
LINE
  5
384
330
1F
100
AcDbEntity
  8
0
  6
Continuous
 62
     0
370
     0
100
AcDbLine
 10
100.4578417778506
 20
102.5652530733484
 30
0.0
 11
100.5028385162845
 21
102.6320132557291
 31
0.0
  0
LWPOLYLINE
  5
385
330
1F
100
AcDbEntity
  8
0
  6
Continuous
 62
     0
370
     0
100
AcDbPolyline
 90
        3
 70
   128
 43
0.0
 10
178.4918207169071
 20
113.1732180658716
 10
178.4886664391055
 20
113.1732180658716
 10
178.4851688385502
 20
113.1742587629694
  0
LWPOLYLINE
  5
386
330
1F
100
AcDbEntity
  8
0
  6
Continuous
 62
     0
370
     0
100
AcDbPolyline
 90
        6
 70
   128
 43
0.0
 10
178.6842960358158
 20
112.9435887876886
 10
178.6477107048526
 20
112.9493045750993
 10
178.6003750801578
 20
112.9887062255281
 10
178.5602277756228
 20
113.0584812108415
 10
178.5334056854739
 20
113.1480106655496
 10
178.5283631325259
 20
113.1786790434259
  0
LINE
  5
387
330
1F
100
AcDbEntity
  8
0
  6
Continuous
 62
     0
370
     0
100
AcDbLine
 10
169.8939889908329
 20
113.0820980612177
 30
0.0
 11
170.2449721336856
 21
113.1345486585039
 31
0.0
  0
LINE
  5
388
330
1F
100
AcDbEntity
  8
0
  6
Continuous
 62
     0
370
     0
100
AcDbLine
 10
169.9029797554508
 20
113.2878637257951
 30
0.0
 11
169.8978942871586
 21
113.2871019784349
 31
0.0
  0
LINE
  5
389
330
1F
100
AcDbEntity
  8
0
  6
Continuous
 62
     0
370
     0
100
AcDbLine
 10
169.8248738289371
 20
113.0186101738352
 30
0.0
 11
169.8197883606449
 21
113.0178484264749
 31
0.0
  0
LINE
  5
38A
330
1F
100
AcDbEntity
  8
0
  6
Continuous
 62
     0
370
     0
100
AcDbLine
 10
170.2539843559757
 20
113.1131258551019
 30
0.0
 11
169.8939889908329
 21
113.0593314710993
 31
0.0
  0
LINE
  5
38B
330
1F
100
AcDbEntity
  8
0
  6
Continuous
 62
     0
370
     0
100
AcDbLine
 10
168.2497734070316
 20
113.0448207203287
 30
0.0
 11
168.2497734070316
 21
112.9924076739687
 31
0.0
  0
LINE
  5
38C
330
1F
100
AcDbEntity
  8
0
  6
Continuous
 62
     0
370
     0
100
AcDbLine
 10
110.2681392670169
 20
104.172253007068
 30
0.0
 11
110.6191224098697
 21
104.2247036043543
 31
0.0
  0
LINE
  5
38D
330
1F
100
AcDbEntity
  8
0
  6
Continuous
 62
     0
370
     0
100
AcDbLine
 10
110.2771300316348
 20
104.3780159894365
 30
0.0
 11
110.2720445633426
 21
104.3772569242853
 31
0.0
  0
LINE
  5
38E
330
1F
100
AcDbEntity
  8
0
  6
Continuous
 62
     0
370
     0
100
AcDbLine
 10
110.1990241051211
 20
104.1087624374765
 30
0.0
 11
110.1939386368289
 21
104.1080033723253
 31
0.0
  0
LINE
  5
38F
330
1F
100
AcDbEntity
  8
0
  6
Continuous
 62
     0
370
     0
100
AcDbLine
 10
110.6281346321597
 20
104.2032808009523
 30
0.0
 11
110.2681392670169
 21
104.1494864169496
 31
0.0
  0
LINE
  5
390
330
1F
100
AcDbEntity
  8
0
  6
Continuous
 62
     0
370
     0
100
AcDbLine
 10
108.6239236832156
 20
104.13497298397
 30
0.0
 11
108.6239236832156
 21
104.082562619819
 31
0.0
  0
LINE
  5
391
330
1F
100
AcDbEntity
  8
0
  6
Continuous
 62
     0
370
     0
100
AcDbLine
 10
178.4676379204288
 20
113.7211048547167
 30
0.0
 11
169.8449367523685
 21
112.4326226059335
 31
0.0
  0
LINE
  5
392
330
1F
100
AcDbEntity
  8
0
  6
Continuous
 62
     0
370
     0
100
AcDbLine
 10
168.6007780075565
 20
112.2467079702753
 30
0.0
 11
110.2190870285525
 21
103.5227748695749
 31
0.0
  0
LINE
  5
393
330
1F
100
AcDbEntity
  8
0
  6
Continuous
 62
     0
370
     0
100
AcDbLine
 10
108.9749282837405
 20
103.3368629161257
 30
0.0
 11
100.5253476143375
 21
102.0742478910822
 31
0.0
  0
LINE
  5
394
330
1F
100
AcDbEntity
  8
0
  6
Continuous
 62
     0
370
     0
100
AcDbLine
 10
100.4578417778506
 20
102.1479737702745
 30
0.0
 11
108.9719671249881
 21
103.4202340189356
 31
0.0
  0
LINE
  5
395
330
1F
100
AcDbEntity
  8
0
  6
Continuous
 62
     0
370
     0
100
AcDbLine
 10
110.2006334305301
 20
103.603831226005
 30
0.0
 11
168.5978168488041
 21
112.3300790730852
 31
0.0
  0
LWPOLYLINE
  5
396
330
1F
100
AcDbEntity
  8
0
  6
Continuous
 62
     0
370
     0
100
AcDbPolyline
 90
        2
 70
   128
 43
0.0
 10
169.8264831543461
 20
112.5136762801546
 10
178.400132083942
 20
113.794830733909
  0
LINE
  5
397
330
1F
100
AcDbEntity
  8
0
  6
Continuous
 62
     0
370
     0
100
AcDbLine
 10
178.4091228485599
 20
113.7734106127161
 30
0.0
 11
169.8339933395877
 21
112.4920335356134
 31
0.0
  0
LINE
  5
398
330
1F
100
AcDbEntity
  8
0
  6
Continuous
 62
     0
370
     0
100
AcDbLine
 10
168.5986322403446
 20
112.3074331823724
 30
0.0
 11
110.2081436157718
 21
103.5821884814638
 31
0.0
  0
LINE
  5
399
330
1F
100
AcDbEntity
  8
0
  6
Continuous
 62
     0
370
     0
100
AcDbLine
 10
108.9727825165286
 20
103.3975881282228
 30
0.0
 11
100.4668540001407
 21
102.1265536490816
 31
0.0
  0
LINE
  5
39A
330
1F
100
AcDbEntity
  8
0
  6
Continuous
 62
     0
370
     0
100
AcDbLine
 10
100.5118507385745
 20
102.1063807550806
 30
0.0
 11
108.9737266541019
 21
103.3708304110903
 31
0.0
  0
LINE
  5
39B
330
1F
100
AcDbEntity
  8
0
  6
Continuous
 62
     0
370
     0
100
AcDbLine
 10
110.209087753345
 20
103.5554334465402
 30
0.0
 11
168.5995763779178
 21
112.2806781474489
 31
0.0
  0
LWPOLYLINE
  5
39C
330
1F
100
AcDbEntity
  8
0
  6
Continuous
 62
     0
370
     0
100
AcDbPolyline
 90
        2
 70
   128
 43
0.0
 10
169.834937477161
 20
112.4652785006899
 10
178.4541410446659
 20
113.7532377187151
  0
LINE
  5
39D
330
1F
100
AcDbEntity
  8
0
  6
Continuous
 62
     0
370
     0
100
AcDbLine
 10
90.67606153493068
 20
100.4110985938448
 30
0.0
 11
91.8452042580142
 21
100.5858015958208
 31
0.0
  0
LINE
  5
39E
330
1F
100
AcDbEntity
  8
0
  6
Continuous
 62
     0
370
     0
100
AcDbLine
 10
91.80758895878935
 20
101.5350004974741
 30
0.0
 11
90.63844623570586
 21
101.3602974954981
 31
0.0
  0
LINE
  5
39F
330
1F
100
AcDbEntity
  8
0
  6
Continuous
 62
     0
370
     0
100
AcDbLine
 10
31.05021181111479
 20
91.50125353969514
 30
0.0
 11
32.21935453419826
 21
91.67595654167116
 31
0.0
  0
LINE
  5
3A0
330
1F
100
AcDbEntity
  8
0
  6
Continuous
 62
     0
370
     0
100
AcDbLine
 10
32.18173923497341
 20
92.62515276111543
 30
0.0
 11
31.01259651188994
 21
92.45045244134843
 31
0.0
  0
LINE
  5
3A1
330
1F
100
AcDbEntity
  8
0
  6
Continuous
 62
     0
370
     0
100
AcDbLine
 10
22.79962959294457
 20
89.64986413158357
 30
0.0
 11
100.7419198990359
 21
101.2967210952181
 31
0.0
  0
LINE
  5
3A2
330
1F
100
AcDbEntity
  8
0
  6
Continuous
 62
     0
370
     0
100
AcDbLine
 10
22.60724010472441
 20
89.87950413860261
 30
0.0
 11
100.5495304108157
 21
101.5263611022371
 31
0.0
  0
LINE
  5
3A3
330
1F
100
AcDbEntity
  8
0
  6
Continuous
 62
     0
370
     0
100
AcDbLine
 10
93.21765842442656
 20
101.5433958116907
 30
0.0
 11
92.75361480717802
 21
101.7514225784677
 31
0.0
  0
LINE
  5
3A4
330
1F
100
AcDbEntity
  8
0
  6
Continuous
 62
     0
370
     0
100
AcDbLine
 10
92.75361480717802
 20
101.9252887312311
 30
0.0
 11
92.75361480717802
 21
101.7514225784677
 31
0.0
  0
LINE
  5
3A5
330
1F
100
AcDbEntity
  8
0
  6
Continuous
 62
     0
370
     0
100
AcDbLine
 10
92.75361480717802
 20
101.9252887312311
 30
0.0
 11
93.383612060596
 21
101.642868215217
 31
0.0
  0
LINE
  5
3A6
330
1F
100
AcDbEntity
  8
0
  6
Continuous
 62
     0
370
     0
100
AcDbLine
 10
93.383612060596
 20
101.642868215217
 30
0.0
 11
93.383612060596
 21
101.5681928340334
 31
0.0
  0
LINE
  5
3A7
330
1F
100
AcDbEntity
  8
0
  6
Continuous
 62
     0
370
     0
100
AcDbLine
 10
91.9516986847415
 20
101.6276547256845
 30
0.0
 11
91.9516986847415
 21
101.3581597749132
 31
0.0
  0
LWPOLYLINE
  5
3A8
330
1F
100
AcDbEntity
  8
0
  6
Continuous
 62
     0
370
     0
100
AcDbPolyline
 90
        3
 70
   128
 43
0.0
 10
91.95144119267607
 20
101.3541847411531
 10
91.9515055656924
 20
101.3548445645708
 10
91.9516986847415
 20
101.3581597749132
  0
LINE
  5
3A9
330
1F
100
AcDbEntity
  8
0
  6
Continuous
 62
     0
370
     0
100
AcDbLine
 10
91.9291895866885
 20
101.3508588019747
 30
0.0
 11
91.88258352284575
 21
101.3717532102007
 31
0.0
  0
LWPOLYLINE
  5
3AA
330
1F
100
AcDbEntity
  8
0
  6
Continuous
 62
     0
370
     0
100
AcDbPolyline
 90
        9
 70
   128
 43
0.0
 10
91.87361421589992
 20
101.3571861330408
 10
91.8736785889163
 20
101.3607159201044
 10
91.87410774235869
 20
101.3639774862665
 10
91.87490167622707
 20
101.3668394032854
 10
91.87599601750517
 20
101.3691756073374
 10
91.87739076619292
 20
101.3708949033159
 10
91.87900009160185
 20
101.3719195071596
 10
91.88075962071562
 20
101.3722091857332
 10
91.88258352284575
 20
101.3717532102007
  0
LINE
  5
3AB
330
1F
100
AcDbEntity
  8
0
  6
Continuous
 62
     0
370
     0
100
AcDbLine
 10
91.87361421589992
 20
101.3571861330408
 30
0.0
 11
91.88419284825468
 21
101.0578596536058
 31
0.0
  0
LINE
  5
3AC
330
1F
100
AcDbEntity
  8
0
  6
Continuous
 62
     0
370
     0
100
AcDbLine
 10
91.89166011815215
 20
100.8463299218553
 30
0.0
 11
91.89275445943022
 21
100.8156159464258
 31
0.0
  0
ARC
  5
3AD
330
1F
100
AcDbEntity
  8
0
  6
Continuous
 62
     0
370
     0
100
AcDbCircle
 10
91.94329122876337
 20
100.8168854024109
 30
0.0
 40
0.0505527108385975
100
AcDbArc
 50
181.4389360223838
 51
207.1049272054292
  0
LINE
  5
3AE
330
1F
100
AcDbEntity
  8
0
  6
Continuous
 62
     0
370
     0
100
AcDbLine
 10
91.89829053883693
 20
100.793852502479
 30
0.0
 11
91.9291895866885
 21
100.7365632001299
 31
0.0
  0
LINE
  5
3AF
330
1F
100
AcDbEntity
  8
0
  6
Continuous
 62
     0
370
     0
100
AcDbLine
 10
91.9291895866885
 20
100.7365632001299
 30
0.0
 11
91.9291895866885
 21
100.7104840818781
 31
0.0
  0
LINE
  5
3B0
330
1F
100
AcDbEntity
  8
0
  6
Continuous
 62
     0
370
     0
100
AcDbLine
 10
91.9291895866885
 20
100.7104840818781
 30
0.0
 11
91.84895935063506
 21
100.588545495643
 31
0.0
  0
LWPOLYLINE
  5
3B1
330
1F
100
AcDbEntity
  8
0
  6
Continuous
 62
     0
370
     0
100
AcDbPolyline
 90
        9
 70
   128
 43
0.0
 10
91.83355274205351
 20
100.6064251009363
 10
91.83411064152861
 20
100.601320857181
 10
91.8353337288394
 20
100.5964016858476
 10
91.83715763096953
 20
100.5920726004976
 10
91.83943214421416
 20
100.5886876527208
 10
91.8419426918521
 20
100.5865231100458
 10
91.8445176125064
 20
100.5857559982675
 10
91.84692087178374
 20
100.5864480081934
 10
91.84895935063506
 20
100.588545495643
  0
LINE
  5
3B2
330
1F
100
AcDbEntity
  8
0
  6
Continuous
 62
     0
370
     0
100
AcDbLine
 10
91.83355274205351
 20
100.6064251009363
 30
0.0
 11
91.8012589455142
 21
101.5200176779169
 31
0.0
  0
LWPOLYLINE
  5
3B3
330
1F
100
AcDbEntity
  8
0
  6
Continuous
 62
     0
370
     0
100
AcDbPolyline
 90
        9
 70
   128
 43
0.0
 10
91.81022825246
 20
101.5345847550768
 10
91.80840435032988
 20
101.5350407306093
 10
91.80664482121611
 20
101.5347510520357
 10
91.80503549580718
 20
101.533726448192
 10
91.80366220479152
 20
101.5320071522135
 10
91.80254640584135
 20
101.5296709481615
 10
91.80175247197295
 20
101.5268090311426
 10
91.80132331853056
 20
101.5235474649805
 10
91.8012589455142
 20
101.5200176779169
  0
LINE
  5
3B4
330
1F
100
AcDbEntity
  8
0
  6
Continuous
 62
     0
370
     0
100
AcDbLine
 10
91.81022825246
 20
101.5345847550768
 30
0.0
 11
91.88419284825468
 21
101.5014326516527
 31
0.0
  0
LINE
  5
3B5
330
1F
100
AcDbEntity
  8
0
  6
Continuous
 62
     0
370
     0
100
AcDbLine
 10
91.88419284825468
 20
101.5014326516527
 30
0.0
 11
91.88419284825468
 21
101.6752988044161
 31
0.0
  0
LINE
  5
3B6
330
1F
100
AcDbEntity
  8
0
  6
Continuous
 62
     0
370
     0
100
AcDbLine
 10
91.96068944935942
 20
101.6410067621607
 30
0.0
 11
91.88419284825468
 21
101.6752988044161
 31
0.0
  0
LWPOLYLINE
  5
3B7
330
1F
100
AcDbEntity
  8
0
  6
Continuous
 62
     0
370
     0
100
AcDbPolyline
 90
        9
 70
   128
 43
0.0
 10
91.9516986847415
 20
101.6276547256845
 10
91.95187034611845
 20
101.6309672538179
 10
91.95236387257717
 20
101.6340008322138
 10
91.95320072178984
 20
101.6366320792574
 10
91.95431652074004
 20
101.6387671176332
 10
91.95568981175563
 20
101.6403174344438
 10
91.95723476414824
 20
101.6412267032999
 10
91.95892992024565
 20
101.6414573732752
 10
91.96068944935942
 20
101.6410067621607
  0
LINE
  5
3B8
330
1F
100
AcDbEntity
  8
0
  6
Continuous
 62
     0
370
     0
100
AcDbLine
 10
92.4382299423709
 20
101.426926249637
 30
0.0
 11
92.37917842869902
 21
101.453396970405
 31
0.0
  0
LINE
  5
3B9
330
1F
100
AcDbEntity
  8
0
  6
Continuous
 62
     0
370
     0
100
AcDbLine
 10
92.37917842869902
 20
101.453396970405
 30
0.0
 11
92.30268182759428
 21
101.4876916948694
 31
0.0
  0
LINE
  5
3BA
330
1F
100
AcDbEntity
  8
0
  6
Continuous
 62
     0
370
     0
100
AcDbLine
 10
90.48968019490385
 20
101.1357563678163
 30
0.0
 11
90.02563657765532
 21
101.3437831345934
 31
0.0
  0
LINE
  5
3BB
330
1F
100
AcDbEntity
  8
0
  6
Continuous
 62
     0
370
     0
100
AcDbLine
 10
90.09151163106108
 20
101.4074212256807
 30
0.0
 11
90.02563657765532
 21
101.3437831345934
 31
0.0
  0
LINE
  5
3BC
330
1F
100
AcDbEntity
  8
0
  6
Continuous
 62
     0
370
     0
100
AcDbLine
 10
90.09151163106108
 20
101.4074212256807
 30
0.0
 11
90.71505012517119
 21
101.50059580244
 31
0.0
  0
LINE
  5
3BD
330
1F
100
AcDbEntity
  8
0
  6
Continuous
 62
     0
370
     0
100
AcDbLine
 10
92.50773134236479
 20
101.7684733811754
 30
0.0
 11
91.88419284825468
 21
101.6752988044161
 31
0.0
  0
LINE
  5
3BE
330
1F
100
AcDbEntity
  8
0
  6
Continuous
 62
     0
370
     0
100
AcDbLine
 10
92.75361480717802
 20
101.7514225784677
 30
0.0
 11
92.50773134236479
 21
101.7684733811754
 31
0.0
  0
LWPOLYLINE
  5
3BF
330
1F
100
AcDbEntity
  8
0
  6
Continuous
 62
     0
370
     0
100
AcDbPolyline
 90
        3
 70
   128
 43
0.0
 10
90.53246679310942
 20
101.2446862403291
 10
90.5845660210147
 20
101.2293118182558
 10
90.63649358754301
 20
101.2218418661493
  0
LINE
  5
3C0
330
1F
100
AcDbEntity
  8
0
  6
Continuous
 62
     0
370
     0
100
AcDbLine
 10
90.71505012517119
 20
101.3724800888437
 30
0.0
 11
90.65820875172759
 21
101.3979637566942
 31
0.0
  0
LWPOLYLINE
  5
3C1
330
1F
100
AcDbEntity
  8
0
  6
Continuous
 62
     0
370
     0
100
AcDbPolyline
 90
        9
 70
   128
 43
0.0
 10
90.65820875172759
 20
101.3979637566942
 10
90.60610952382228
 20
101.4133381787676
 10
90.53525629048491
 20
101.4223825875658
 10
90.45642080311919
 20
101.4237183276552
 10
90.38159790043974
 20
101.4171469155687
 10
90.32218160634184
 20
101.4036634508508
 10
90.28724851613185
 20
101.385322505607
 10
90.28207721715117
 20
101.3649162594217
 10
90.30748310094023
 20
101.3455507103342
  0
LINE
  5
3C2
330
1F
100
AcDbEntity
  8
0
  6
Continuous
 62
     0
370
     0
100
AcDbLine
 10
90.30748310094023
 20
101.3455507103342
 30
0.0
 11
90.53246679310942
 21
101.2446862403291
 31
0.0
  0
LWPOLYLINE
  5
3C3
330
1F
100
AcDbEntity
  8
0
  6
Continuous
 62
     0
370
     0
100
AcDbPolyline
 90
       17
 70
   128
 43
0.0
 10
92.34312953953886
 20
101.6056552473444
 10
92.3685354233279
 20
101.5862896982568
 10
92.4206346512332
 20
101.5709152761835
 10
92.49148788457057
 20
101.5618708673853
 10
92.57032337193633
 20
101.5605324450868
 10
92.64514627461577
 20
101.5671065393823
 10
92.70456256871364
 20
101.5805900041002
 10
92.73949565892363
 20
101.598930949344
 10
92.74466695790434
 20
101.6193371955293
 10
92.71926107411525
 20
101.6387027446169
 10
92.66718330388213
 20
101.6540771666902
 10
92.59630861287258
 20
101.6631215754884
 10
92.51747312550688
 20
101.6644573155779
 10
92.44265022282744
 20
101.6578859034914
 10
92.38325538640166
 20
101.6444024387735
 10
92.34830083851958
 20
101.6260614935297
 10
92.34312953953886
 20
101.6056552473444
  0
LINE
  5
3C4
330
1F
100
AcDbEntity
  8
0
  6
Continuous
 62
     0
370
     0
100
AcDbLine
 10
92.50773134236479
 20
101.7684733811754
 30
0.0
 11
92.50773134236479
 21
101.9423422161478
 31
0.0
  0
LINE
  5
3C5
330
1F
100
AcDbEntity
  8
0
  6
Continuous
 62
     0
370
     0
100
AcDbLine
 10
92.50773134236479
 20
101.9423422161478
 30
0.0
 11
92.75361480717802
 21
101.9252887312311
 31
0.0
  0
LINE
  5
3C6
330
1F
100
AcDbEntity
  8
0
  6
Continuous
 62
     0
370
     0
100
AcDbLine
 10
90.66443147664214
 20
100.4317220989603
 30
0.0
 11
91.83355274205351
 21
100.6064251009363
 31
0.0
  0
LINE
  5
3C7
330
1F
100
AcDbEntity
  8
0
  6
Continuous
 62
     0
370
     0
100
AcDbLine
 10
90.66443147664214
 20
100.4317220989603
 30
0.0
 11
90.63211622243071
 21
101.3453146759409
 31
0.0
  0
LINE
  5
3C8
330
1F
100
AcDbEntity
  8
0
  6
Continuous
 62
     0
370
     0
100
AcDbLine
 10
91.8012589455142
 20
101.5200176779169
 30
0.0
 11
90.63211622243071
 21
101.3453146759409
 31
0.0
  0
LINE
  5
3C9
330
1F
100
AcDbEntity
  8
0
  6
Continuous
 62
     0
370
     0
100
AcDbLine
 10
90.71505012517119
 20
101.3717451635736
 30
0.0
 11
90.71505012517119
 21
101.50059580244
 31
0.0
  0
LINE
  5
3CA
330
1F
100
AcDbEntity
  8
0
  6
Continuous
 62
     0
370
     0
100
AcDbLine
 10
90.09151163106108
 20
101.5812873784441
 30
0.0
 11
90.09151163106108
 21
101.4074212256807
 31
0.0
  0
LINE
  5
3CB
330
1F
100
AcDbEntity
  8
0
  6
Continuous
 62
     0
370
     0
100
AcDbLine
 10
90.09151163106108
 20
101.5812873784441
 30
0.0
 11
92.50773134236479
 21
101.9423422161478
 31
0.0
  0
LWPOLYLINE
  5
3CC
330
1F
100
AcDbEntity
  8
0
  6
Continuous
 62
     0
370
     0
100
AcDbPolyline
 90
        8
 70
   128
 43
0.0
 10
90.67606153493068
 20
100.4110985938448
 10
90.6753748894229
 20
100.4110529962915
 10
90.6727999687686
 20
100.4118201080698
 10
90.67028942113066
 20
100.4139846507448
 10
90.668014907886
 20
100.4173695985216
 10
90.66621246342802
 20
100.4216986838716
 10
90.66496791844511
 20
100.4266178552049
 10
90.66443147664214
 20
100.4317220989603
  0
LWPOLYLINE
  5
3CD
330
1F
100
AcDbEntity
  8
0
  6
Continuous
 62
     0
370
     0
100
AcDbPolyline
 90
        8
 70
   128
 43
0.0
 10
90.63211622243071
 20
101.3453146759409
 10
90.63218059544704
 20
101.3488444630045
 10
90.63263120656157
 20
101.3521060291666
 10
90.63340368275786
 20
101.3549679461855
 10
90.63451948170805
 20
101.3573041502374
 10
90.6359142303958
 20
101.359023446216
 10
90.63752355580473
 20
101.3600480500597
 10
90.63844623570586
 20
101.3602974954981
  0
LINE
  5
3CE
330
1F
100
AcDbEntity
  8
0
  6
Continuous
 62
     0
370
     0
100
AcDbLine
 10
92.31169404988432
 20
101.408016676082
 30
0.0
 11
92.31169404988432
 21
101.4662688914675
 31
0.0
  0
ARC
  5
3CF
330
1F
100
AcDbEntity
  8
0
  6
Continuous
 62
     0
370
     0
100
AcDbCircle
 10
92.28709994244085
 20
101.4685296023505
 30
0.0
 40
0.0246977921004678
100
AcDbArc
 50
354.7480828637454
 51
50.8833019666545
  0
LINE
  5
3D0
330
1F
100
AcDbEntity
  8
0
  6
Continuous
 62
     0
370
     0
100
AcDbLine
 10
92.37917842869902
 20
101.453396970405
 30
0.0
 11
92.37917842869902
 21
101.418104464187
 31
0.0
  0
LINE
  5
3D1
330
1F
100
AcDbEntity
  8
0
  6
Continuous
 62
     0
370
     0
100
AcDbLine
 10
90.02563657765532
 20
101.3437831345934
 30
0.0
 11
90.02563657765532
 21
101.5176492873567
 31
0.0
  0
LINE
  5
3D2
330
1F
100
AcDbEntity
  8
0
  6
Continuous
 62
     0
370
     0
100
AcDbLine
 10
90.02563657765532
 20
101.5176492873567
 30
0.0
 11
90.09151163106108
 21
101.5812873784441
 31
0.0
  0
LINE
  5
3D3
330
1F
100
AcDbEntity
  8
0
  6
Continuous
 62
     0
370
     0
100
AcDbLine
 10
90.53246679310942
 20
101.4185523930925
 30
0.0
 11
90.53246679310942
 21
101.2446862403291
 31
0.0
  0
LINE
  5
3D4
330
1F
100
AcDbEntity
  8
0
  6
Continuous
 62
     0
370
     0
100
AcDbLine
 10
90.52216711049223
 20
101.4231684748071
 30
0.0
 11
90.53246679310942
 21
101.4185523930925
 31
0.0
  0
ARC
  5
3D5
330
1F
100
AcDbEntity
  8
0
  6
Continuous
 62
     0
370
     0
100
AcDbCircle
 10
90.68326123619454
 20
101.8526690729643
 30
0.0
 40
0.4595609380792097
100
AcDbArc
 50
250.8448565875489
 51
268.1603777433266
  0
LINE
  5
3D6
330
1F
100
AcDbEntity
  8
0
  6
Continuous
 62
     0
370
     0
100
AcDbLine
 10
33.59180870061064
 20
92.63355075754106
 30
0.0
 11
33.12776508336208
 21
92.8415775243181
 31
0.0
  0
LINE
  5
3D7
330
1F
100
AcDbEntity
  8
0
  6
Continuous
 62
     0
370
     0
100
AcDbLine
 10
33.12776508336208
 20
93.01544367708146
 30
0.0
 11
33.12776508336208
 21
92.8415775243181
 31
0.0
  0
LINE
  5
3D8
330
1F
100
AcDbEntity
  8
0
  6
Continuous
 62
     0
370
     0
100
AcDbLine
 10
33.12776508336208
 20
93.01544367708146
 30
0.0
 11
33.75776233678005
 21
92.73302316106736
 31
0.0
  0
LINE
  5
3D9
330
1F
100
AcDbEntity
  8
0
  6
Continuous
 62
     0
370
     0
100
AcDbLine
 10
33.75776233678005
 20
92.73302316106736
 30
0.0
 11
33.75776233678005
 21
92.65834777988374
 31
0.0
  0
LINE
  5
3DA
330
1F
100
AcDbEntity
  8
0
  6
Continuous
 62
     0
370
     0
100
AcDbLine
 10
32.32584896092558
 20
92.71780698932588
 30
0.0
 11
32.32584896092558
 21
92.44831472076356
 31
0.0
  0
LWPOLYLINE
  5
3DB
330
1F
100
AcDbEntity
  8
0
  6
Continuous
 62
     0
370
     0
100
AcDbPolyline
 90
        3
 70
   128
 43
0.0
 10
32.32559146886015
 20
92.44433968700349
 10
32.3256772995486
 20
92.44499951042116
 10
32.32584896092558
 20
92.44831472076356
  0
LINE
  5
3DC
330
1F
100
AcDbEntity
  8
0
  6
Continuous
 62
     0
370
     0
100
AcDbLine
 10
32.3033398628726
 20
92.44101374782502
 30
0.0
 11
32.2567337990298
 21
92.46190547384202
 31
0.0
  0
LWPOLYLINE
  5
3DD
330
1F
100
AcDbEntity
  8
0
  6
Continuous
 62
     0
370
     0
100
AcDbPolyline
 90
        9
 70
   128
 43
0.0
 10
32.24776449208403
 20
92.44734107889116
 10
32.24782886510036
 20
92.45087086595476
 10
32.24825801854274
 20
92.45413243211686
 10
32.24905195241118
 20
92.45699166692674
 10
32.25014629368923
 20
92.45933055318773
 10
32.25154104237697
 20
92.46104716695726
 10
32.25315036778591
 20
92.46207445300996
 10
32.25490989689968
 20
92.46236413158357
 10
32.2567337990298
 20
92.46190547384202
  0
LINE
  5
3DE
330
1F
100
AcDbEntity
  8
0
  6
Continuous
 62
     0
370
     0
100
AcDbLine
 10
32.24776449208403
 20
92.44734107889116
 30
0.0
 11
32.25834312443874
 21
92.14801459945619
 31
0.0
  0
LINE
  5
3DF
330
1F
100
AcDbEntity
  8
0
  6
Continuous
 62
     0
370
     0
100
AcDbLine
 10
32.2658103943362
 20
91.9364848677057
 30
0.0
 11
32.2669047356143
 21
91.90576821006715
 31
0.0
  0
ARC
  5
3E0
330
1F
100
AcDbEntity
  8
0
  6
Continuous
 62
     0
370
     0
100
AcDbCircle
 10
32.31742688593403
 20
91.90703678572632
 30
0.0
 40
0.0505380743314553
100
AcDbArc
 50
181.4383544916701
 51
207.1088832608261
  0
LINE
  5
3E1
330
1F
100
AcDbEntity
  8
0
  6
Continuous
 62
     0
370
     0
100
AcDbLine
 10
32.27244081502104
 20
91.88400744832933
 30
0.0
 11
32.3033398628726
 21
91.82671814598024
 31
0.0
  0
LINE
  5
3E2
330
1F
100
AcDbEntity
  8
0
  6
Continuous
 62
     0
370
     0
100
AcDbLine
 10
32.3033398628726
 20
91.82671814598024
 30
0.0
 11
32.3033398628726
 21
91.80063902772844
 31
0.0
  0
LINE
  5
3E3
330
1F
100
AcDbEntity
  8
0
  6
Continuous
 62
     0
370
     0
100
AcDbLine
 10
32.3033398628726
 20
91.80063902772844
 30
0.0
 11
32.22310962681911
 21
91.67870044149339
 31
0.0
  0
LWPOLYLINE
  5
3E4
330
1F
100
AcDbEntity
  8
0
  6
Continuous
 62
     0
370
     0
100
AcDbPolyline
 90
        9
 70
   128
 43
0.0
 10
32.20770301823757
 20
91.69658004678666
 10
32.20826091771269
 20
91.69147580303132
 10
32.20948400502346
 20
91.68655663169801
 10
32.21130790715358
 20
91.68222754634797
 10
32.21358242039824
 20
91.67884259857118
 10
32.21609296803618
 20
91.67667805589616
 10
32.21866788869048
 20
91.6759109441179
 10
32.22107114796779
 20
91.67660295404374
 10
32.22310962681911
 20
91.67870044149339
  0
LINE
  5
3E5
330
1F
100
AcDbEntity
  8
0
  6
Continuous
 62
     0
370
     0
100
AcDbLine
 10
32.20770301823757
 20
91.69658004678666
 30
0.0
 11
32.17540922169826
 21
92.61017262376726
 31
0.0
  0
LWPOLYLINE
  5
3E6
330
1F
100
AcDbEntity
  8
0
  6
Continuous
 62
     0
370
     0
100
AcDbPolyline
 90
        9
 70
   128
 43
0.0
 10
32.18439998631621
 20
92.62473701871812
 10
32.18255462651393
 20
92.62519567645967
 10
32.18079509740019
 20
92.62490599788606
 10
32.17920722966338
 20
92.62388139404237
 10
32.17781248097563
 20
92.62216209806382
 10
32.17669668202541
 20
92.61982589401185
 10
32.175902748157
 20
92.61696397699296
 10
32.17547359471462
 20
92.61370241083085
 10
32.17540922169826
 20
92.61017262376726
  0
LINE
  5
3E7
330
1F
100
AcDbEntity
  8
0
  6
Continuous
 62
     0
370
     0
100
AcDbLine
 10
32.18439998631621
 20
92.62473701871812
 30
0.0
 11
32.25834312443874
 21
92.59158759750306
 31
0.0
  0
LINE
  5
3E8
330
1F
100
AcDbEntity
  8
0
  6
Continuous
 62
     0
370
     0
100
AcDbLine
 10
32.25834312443874
 20
92.59158759750306
 30
0.0
 11
32.25834312443874
 21
92.76545375026643
 31
0.0
  0
LINE
  5
3E9
330
1F
100
AcDbEntity
  8
0
  6
Continuous
 62
     0
370
     0
100
AcDbLine
 10
32.33483972554347
 20
92.73115902580201
 30
0.0
 11
32.25834312443874
 21
92.76545375026643
 31
0.0
  0
LWPOLYLINE
  5
3EA
330
1F
100
AcDbEntity
  8
0
  6
Continuous
 62
     0
370
     0
100
AcDbPolyline
 90
        9
 70
   128
 43
0.0
 10
32.32584896092558
 20
92.71780698932588
 10
32.32602062230254
 20
92.72112219966829
 10
32.32653560643337
 20
92.72415309585512
 10
32.32735099797392
 20
92.72678702510774
 10
32.32846679692409
 20
92.72891938127458
 10
32.32984008793974
 20
92.7304723802942
 10
32.33140649800441
 20
92.73138164915025
 10
32.33308019642971
 20
92.73161231912553
 10
32.33483972554347
 20
92.73115902580201
  0
LINE
  5
3EB
330
1F
100
AcDbEntity
  8
0
  6
Continuous
 62
     0
370
     0
100
AcDbLine
 10
32.88188161854887
 20
92.85862832702577
 30
0.0
 11
32.88188161854887
 21
93.03249447978914
 31
0.0
  0
LINE
  5
3EC
330
1F
100
AcDbEntity
  8
0
  6
Continuous
 62
     0
370
     0
100
AcDbLine
 10
32.88188161854887
 20
93.03249447978914
 30
0.0
 11
33.12776508336208
 21
93.01544367708146
 31
0.0
  0
LINE
  5
3ED
330
1F
100
AcDbEntity
  8
0
  6
Continuous
 62
     0
370
     0
100
AcDbLine
 10
33.12776508336208
 20
92.8415775243181
 30
0.0
 11
32.88188161854887
 21
92.85862832702577
 31
0.0
  0
LINE
  5
3EE
330
1F
100
AcDbEntity
  8
0
  6
Continuous
 62
     0
370
     0
100
AcDbLine
 10
32.81238021855495
 20
92.51708119548738
 30
0.0
 11
32.75335016255522
 21
92.54355191625535
 31
0.0
  0
LINE
  5
3EF
330
1F
100
AcDbEntity
  8
0
  6
Continuous
 62
     0
370
     0
100
AcDbLine
 10
32.75335016255522
 20
92.54355191625535
 30
0.0
 11
32.67683210377834
 21
92.57784664071977
 31
0.0
  0
LINE
  5
3F0
330
1F
100
AcDbEntity
  8
0
  6
Continuous
 62
     0
370
     0
100
AcDbLine
 10
30.86383047108794
 20
92.22590863145768
 30
0.0
 11
30.39978685383937
 21
92.43393539823472
 31
0.0
  0
LINE
  5
3F1
330
1F
100
AcDbEntity
  8
0
  6
Continuous
 62
     0
370
     0
100
AcDbLine
 10
30.46566190724513
 20
92.49757617153108
 30
0.0
 11
30.39978685383937
 21
92.43393539823472
 31
0.0
  0
LINE
  5
3F2
330
1F
100
AcDbEntity
  8
0
  6
Continuous
 62
     0
370
     0
100
AcDbLine
 10
30.46566190724513
 20
92.49757617153108
 30
0.0
 11
31.08920040135527
 21
92.59075074829042
 31
0.0
  0
LINE
  5
3F3
330
1F
100
AcDbEntity
  8
0
  6
Continuous
 62
     0
370
     0
100
AcDbLine
 10
32.88188161854887
 20
92.85862832702577
 30
0.0
 11
32.25834312443874
 21
92.76545375026643
 31
0.0
  0
LWPOLYLINE
  5
3F4
330
1F
100
AcDbEntity
  8
0
  6
Continuous
 62
     0
370
     0
100
AcDbPolyline
 90
        3
 70
   128
 43
0.0
 10
30.90661706929347
 20
92.33484118617952
 10
30.95871629719875
 20
92.31946676410615
 10
31.01064386372707
 20
92.31199681199968
  0
LINE
  5
3F5
330
1F
100
AcDbEntity
  8
0
  6
Continuous
 62
     0
370
     0
100
AcDbLine
 10
31.08920040135527
 20
92.46263503469407
 30
0.0
 11
31.03235902791164
 21
92.48811602033555
 31
0.0
  0
LWPOLYLINE
  5
3F6
330
1F
100
AcDbEntity
  8
0
  6
Continuous
 62
     0
370
     0
100
AcDbPolyline
 90
        9
 70
   128
 43
0.0
 10
31.03235902791164
 20
92.48811602033555
 10
30.98025980000639
 20
92.50349312461793
 10
30.90940656666896
 20
92.51253753341615
 10
30.83057107930327
 20
92.51387327350557
 10
30.75574817662383
 20
92.50730186141908
 10
30.6963318825259
 20
92.49381839670122
 10
30.66139879231596
 20
92.47547745145738
 10
30.65622749333525
 20
92.45507120527208
 10
30.68163337712429
 20
92.43570565618455
  0
LINE
  5
3F7
330
1F
100
AcDbEntity
  8
0
  6
Continuous
 62
     0
370
     0
100
AcDbLine
 10
30.68163337712429
 20
92.43570565618455
 30
0.0
 11
30.90661706929347
 21
92.33484118617952
 31
0.0
  0
LWPOLYLINE
  5
3F8
330
1F
100
AcDbEntity
  8
0
  6
Continuous
 62
     0
370
     0
100
AcDbPolyline
 90
       17
 70
   128
 43
0.0
 10
32.71727981572292
 20
92.69581019319475
 10
32.74268569951201
 20
92.67644464410722
 10
32.79478492741725
 20
92.66107022203386
 10
32.86563816075468
 20
92.65202581323564
 10
32.94447364812041
 20
92.65068739093721
 10
33.01929655079982
 20
92.65726148523271
 10
33.07871284489775
 20
92.67074494995057
 10
33.11364593510768
 20
92.68908589519441
 10
33.11881723408843
 20
92.70949214137971
 10
33.09341135029936
 20
92.72885500825822
 10
33.04133358006618
 20
92.7442321125406
 10
32.97045888905669
 20
92.75327652133882
 10
32.89162340169094
 20
92.75461226142824
 10
32.81680049901152
 20
92.74804084934175
 10
32.75740566258571
 20
92.73455738462388
 10
32.72245111470366
 20
92.71621643938005
 10
32.71727981572292
 20
92.69581019319475
  0
LINE
  5
3F9
330
1F
100
AcDbEntity
  8
0
  6
Continuous
 62
     0
370
     0
100
AcDbLine
 10
31.03858175282619
 20
91.52187704481065
 30
0.0
 11
32.20770301823757
 21
91.69658004678666
 31
0.0
  0
LINE
  5
3FA
330
1F
100
AcDbEntity
  8
0
  6
Continuous
 62
     0
370
     0
100
AcDbLine
 10
31.03858175282619
 20
91.52187704481065
 30
0.0
 11
31.00626649861479
 21
92.43546962179124
 31
0.0
  0
LINE
  5
3FB
330
1F
100
AcDbEntity
  8
0
  6
Continuous
 62
     0
370
     0
100
AcDbLine
 10
32.17540922169826
 20
92.61017262376726
 30
0.0
 11
31.00626649861479
 21
92.43546962179124
 31
0.0
  0
LINE
  5
3FC
330
1F
100
AcDbEntity
  8
0
  6
Continuous
 62
     0
370
     0
100
AcDbLine
 10
31.08920040135527
 20
92.461900109424
 30
0.0
 11
31.08920040135527
 21
92.59075074829042
 31
0.0
  0
LINE
  5
3FD
330
1F
100
AcDbEntity
  8
0
  6
Continuous
 62
     0
370
     0
100
AcDbLine
 10
30.46566190724513
 20
92.67144232429445
 30
0.0
 11
30.46566190724513
 21
92.49757617153108
 31
0.0
  0
LINE
  5
3FE
330
1F
100
AcDbEntity
  8
0
  6
Continuous
 62
     0
370
     0
100
AcDbLine
 10
30.46566190724513
 20
92.67144232429445
 30
0.0
 11
32.88188161854887
 21
93.03249447978914
 31
0.0
  0
LWPOLYLINE
  5
3FF
330
1F
100
AcDbEntity
  8
0
  6
Continuous
 62
     0
370
     0
100
AcDbPolyline
 90
        8
 70
   128
 43
0.0
 10
31.05021181111479
 20
91.50125353969514
 10
31.04952516560695
 20
91.50120794214189
 10
31.04695024495265
 20
91.50197505392015
 10
31.04443969731471
 20
91.50413959659517
 10
31.04218664174221
 20
91.50752454437196
 10
31.04036273961208
 20
91.511853629722
 10
31.03911819462917
 20
91.51677280105531
 10
31.03858175282619
 20
91.52187704481065
  0
LWPOLYLINE
  5
400
330
1F
100
AcDbEntity
  8
0
  6
Continuous
 62
     0
370
     0
100
AcDbPolyline
 90
        8
 70
   128
 43
0.0
 10
31.00626649861479
 20
92.43546962179124
 10
31.00633087163115
 20
92.43899940885484
 10
31.00678148274562
 20
92.44226097501695
 10
31.00755395894194
 20
92.44512289203584
 10
31.00866975789214
 20
92.44745909608781
 10
31.01006450657988
 20
92.44917839206636
 10
31.01167383198882
 20
92.45020299591005
 10
31.01259651188994
 20
92.45045244134843
  0
LINE
  5
401
330
1F
100
AcDbEntity
  8
0
  6
Continuous
 62
     0
370
     0
100
AcDbLine
 10
32.68584432606838
 20
92.49817162193239
 30
0.0
 11
32.68584432606838
 21
92.55642383731782
 31
0.0
  0
ARC
  5
402
330
1F
100
AcDbEntity
  8
0
  6
Continuous
 62
     0
370
     0
100
AcDbCircle
 10
32.66124437981853
 20
92.5586820919107
 30
0.0
 40
0.0247033817381572
100
AcDbArc
 50
354.7549955302791
 51
50.8763893003798
  0
LINE
  5
403
330
1F
100
AcDbEntity
  8
0
  6
Continuous
 62
     0
370
     0
100
AcDbLine
 10
32.75335016255522
 20
92.54355191625535
 30
0.0
 11
32.75335016255522
 21
92.50825672782838
 31
0.0
  0
LINE
  5
404
330
1F
100
AcDbEntity
  8
0
  6
Continuous
 62
     0
370
     0
100
AcDbLine
 10
30.39978685383937
 20
92.43393539823472
 30
0.0
 11
30.39978685383937
 21
92.6078042332071
 31
0.0
  0
LINE
  5
405
330
1F
100
AcDbEntity
  8
0
  6
Continuous
 62
     0
370
     0
100
AcDbLine
 10
30.39978685383937
 20
92.6078042332071
 30
0.0
 11
30.46566190724513
 21
92.67144232429445
 31
0.0
  0
LINE
  5
406
330
1F
100
AcDbEntity
  8
0
  6
Continuous
 62
     0
370
     0
100
AcDbLine
 10
30.90661706929347
 20
92.50870733894288
 30
0.0
 11
30.90661706929347
 21
92.33484118617952
 31
0.0
  0
LINE
  5
407
330
1F
100
AcDbEntity
  8
0
  6
Continuous
 62
     0
370
     0
100
AcDbLine
 10
30.89631738667629
 20
92.51332342065751
 30
0.0
 11
30.90661706929347
 21
92.50870733894288
 31
0.0
  0
ARC
  5
408
330
1F
100
AcDbEntity
  8
0
  6
Continuous
 62
     0
370
     0
100
AcDbCircle
 10
31.05741151237862
 20
92.94282401881523
 30
0.0
 40
0.4595609380797726
100
AcDbArc
 50
250.84485658757
 51
268.1603777433254
  0
LWPOLYLINE
  5
409
330
1F
100
AcDbEntity
  8
0
  6
Continuous
 62
     0
370
     0
100
AcDbPolyline
 90
        6
 70
   128
 43
0.0
 10
22.79962959294457
 20
89.64986413158357
 10
22.76304426198143
 20
89.6555799189943
 10
22.71570863728667
 20
89.69498156942308
 10
22.67558279042387
 20
89.7647565547365
 10
22.6487392426028
 20
89.85428600944459
 10
22.6436966896548
 20
89.88495438732087
  0
LWPOLYLINE
  5
40A
330
1F
100
AcDbEntity
  8
0
  6
Continuous
 62
     0
370
     0
100
AcDbPolyline
 90
        6
 70
   128
 43
0.0
 10
100.7419198990359
 20
101.2967210952181
 10
100.7053345680728
 20
101.3024368826288
 10
100.6579774857059
 20
101.3418626729387
 10
100.6178301811709
 20
101.4116832558054
 10
100.591008091022
 20
101.5012690369028
 10
100.5859869957461
 20
101.5318113509554
  0
LWPOLYLINE
  5
40B
330
1F
100
AcDbEntity
  8
0
  6
Continuous
 62
     0
370
     0
100
AcDbPolyline
 90
        3
 70
   128
 43
0.0
 10
100.5428785324588
 20
101.5274017993349
 10
100.5463761330142
 20
101.5263611022371
 10
100.5495304108157
 20
101.5263611022371
  0
LINE
  5
40C
330
1F
100
AcDbEntity
  8
0
  6
Continuous
 62
     0
370
     0
100
AcDbLine
 10
100.5428785324588
 20
101.5274017993349
 30
0.0
 11
100.5253476143374
 21
101.5352606717485
 31
0.0
  0
LINE
  5
40D
330
1F
100
AcDbEntity
  8
0
  6
Continuous
 62
     0
370
     0
100
AcDbLine
 10
100.5253476143374
 20
101.5352606717485
 30
0.0
 11
100.5253476143374
 21
102.0742478910822
 31
0.0
  0
ARC
  5
40E
330
1F
100
AcDbEntity
  8
0
  6
Continuous
 62
     0
370
     0
100
AcDbCircle
 10
100.4883225899511
 20
102.0775971458449
 30
0.0
 40
0.0371762012351259
100
AcDbArc
 50
354.8311366535086
 51
50.73692714501246
  0
LINE
  5
40F
330
1F
100
AcDbEntity
  8
0
  6
Continuous
 62
     0
370
     0
100
AcDbLine
 10
100.5118507385745
 20
102.1063807550806
 30
0.0
 11
100.4668325424686
 21
102.1265536490816
 31
0.0
  0
ARC
  5
410
330
1F
100
AcDbEntity
  8
0
  6
Continuous
 62
     0
370
     0
100
AcDbCircle
 10
100.4825112677731
 20
102.1457314793651
 30
0.0
 40
0.0247711849042071
100
AcDbArc
 50
174.8064694410784
 51
230.7324810194419
  0
LINE
  5
411
330
1F
100
AcDbEntity
  8
0
  6
Continuous
 62
     0
370
     0
100
AcDbLine
 10
100.4578417778506
 20
102.1479737702745
 30
0.0
 11
100.4578417778506
 21
102.5652530733484
 31
0.0
  0
LINE
  5
412
330
1F
100
AcDbEntity
  8
0
  6
Continuous
 62
     0
370
     0
100
AcDbLine
 10
100.5028385162845
 20
102.6320132557291
 30
0.0
 11
100.4578417778506
 21
102.5652530733484
 31
0.0
  0
LWPOLYLINE
  5
413
330
1F
100
AcDbEntity
  8
0
  6
Continuous
 62
     0
370
     0
100
AcDbPolyline
 90
        2
 70
   128
 43
0.0
 10
22.58305730824614
 20
89.88840370811403
 10
100.5253476143374
 20
101.5352606717485
  0
LWPOLYLINE
  5
414
330
1F
100
AcDbEntity
  8
0
  6
Continuous
 62
     0
370
     0
100
AcDbPolyline
 90
        2
 70
   128
 43
0.0
 10
22.60058822636748
 20
89.88054483570039
 10
100.5428785324588
 20
101.5274017993349
  0
LINE
  5
415
330
1F
100
AcDbEntity
  8
0
  6
Continuous
 62
     0
370
     0
100
AcDbLine
 10
22.60058822636748
 20
89.88054483570039
 30
0.0
 11
22.58305730824614
 21
89.88840370811403
 31
0.0
  0
LINE
  5
416
330
1F
100
AcDbEntity
  8
0
  6
Continuous
 62
     0
370
     0
100
AcDbLine
 10
22.58305730824614
 20
89.88840370811403
 30
0.0
 11
22.58305730824614
 21
90.42739092744768
 31
0.0
  0
LWPOLYLINE
  5
417
330
1F
100
AcDbEntity
  8
0
  6
Continuous
 62
     0
370
     0
100
AcDbPolyline
 90
        3
 70
   128
 43
0.0
 10
22.60724010472441
 20
89.87950413860261
 10
22.6040858269229
 20
89.87950413860261
 10
22.60058822636748
 20
89.88054483570039
  0
ARC
  5
418
330
1F
100
AcDbEntity
  8
0
  6
Continuous
 62
     0
370
     0
100
AcDbCircle
 10
22.5401449420234
 20
90.49885822696521
 30
0.0
 40
0.02469696260234
100
AcDbArc
 50
174.7528710994551
 51
230.8836423876397
  0
LINE
  5
419
330
1F
100
AcDbEntity
  8
0
  6
Continuous
 62
     0
370
     0
100
AcDbLine
 10
100.4578417778506
 20
102.5652530733484
 30
0.0
 11
91.87623205189848
 21
101.2829104010004
 31
0.0
  0
LINE
  5
41A
330
1F
100
AcDbEntity
  8
0
  6
Continuous
 62
     0
370
     0
100
AcDbLine
 10
90.6408494949832
 20
101.0983100477594
 30
0.0
 11
32.25038232808257
 21
92.37306534685075
 31
0.0
  0
LINE
  5
41B
330
1F
100
AcDbEntity
  8
0
  6
Continuous
 62
     0
370
     0
100
AcDbLine
 10
31.01499977116728
 20
92.18846499360978
 30
0.0
 11
22.5155514717593
 21
90.91839610971391
 31
0.0
  0
LINE
  5
41C
330
1F
100
AcDbEntity
  8
0
  6
Continuous
 62
     0
370
     0
100
AcDbLine
 10
22.5155514717593
 20
90.50111680664003
 30
0.0
 11
22.5155514717593
 21
90.91839610971391
 31
0.0
  0
LINE
  5
41D
330
1F
100
AcDbEntity
  8
0
  6
Continuous
 62
     0
370
     0
100
AcDbLine
 10
22.56956043248317
 20
90.45952379144609
 30
0.0
 11
22.52456369404933
 21
90.4796966854471
 31
0.0
  0
ARC
  5
41E
330
1F
100
AcDbEntity
  8
0
  6
Continuous
 62
     0
370
     0
100
AcDbCircle
 10
22.54608523020485
 20
90.43076242144315
 30
0.0
 40
0.0371254835180955
100
AcDbArc
 50
354.789592842178
 51
50.7784709564711
  0
LINE
  5
41F
330
1F
100
AcDbEntity
  8
0
  6
Continuous
 62
     0
370
     0
100
AcDbLine
 10
22.56054821019313
 20
90.98515629209459
 30
0.0
 11
31.01289691929958
 21
92.24818437732637
 31
0.0
  0
LINE
  5
420
330
1F
100
AcDbEntity
  8
0
  6
Continuous
 62
     0
370
     0
100
AcDbLine
 10
32.24827947621489
 20
92.43278473056733
 30
0.0
 11
90.63874664311552
 21
101.158029431476
 31
0.0
  0
LWPOLYLINE
  5
421
330
1F
100
AcDbEntity
  8
0
  6
Continuous
 62
     0
370
     0
100
AcDbPolyline
 90
        2
 70
   128
 43
0.0
 10
91.87412920003081
 20
101.342632466926
 10
100.5028385162845
 20
102.6320132557291
  0
LINE
  5
422
330
1F
100
AcDbEntity
  8
0
  6
Continuous
 62
     0
370
     0
100
AcDbLine
 10
22.5155514717593
 20
90.91839610971391
 30
0.0
 11
22.56054821019313
 21
90.98515629209459
 31
0.0
  0
LWPOLYLINE
  5
423
330
1F
100
AcDbEntity
  8
0
  6
Continuous
 62
     0
370
     0
100
AcDbPolyline
 90
        3
 70
   128
 43
0.0
 10
100.5495304108157
 20
101.5263611022371
 10
100.5463761330142
 20
101.5263611022371
 10
100.5428785324588
 20
101.5274017993349
  0
LWPOLYLINE
  5
424
330
1F
100
AcDbEntity
  8
0
  6
Continuous
 62
     0
370
     0
100
AcDbPolyline
 90
        6
 70
   128
 43
0.0
 10
100.7420057297244
 20
101.2967318240541
 10
100.7054203987613
 20
101.3024476114649
 10
100.6580847740665
 20
101.3418492618936
 10
100.6179374695315
 20
101.411624247207
 10
100.5911153793826
 20
101.5011537019151
 10
100.5860728264346
 20
101.5318220797914
  0
LINE
  5
425
330
1F
100
AcDbEntity
  8
0
  6
Continuous
 62
     0
370
     0
100
AcDbLine
 10
91.9516986847415
 20
101.4352410975832
 30
0.0
 11
92.30268182759428
 21
101.4876916948694
 31
0.0
  0
LINE
  5
426
330
1F
100
AcDbEntity
  8
0
  6
Continuous
 62
     0
370
     0
100
AcDbLine
 10
91.96068944935942
 20
101.6410067621607
 30
0.0
 11
91.95560398106718
 21
101.6402450148004
 31
0.0
  0
LINE
  5
427
330
1F
100
AcDbEntity
  8
0
  6
Continuous
 62
     0
370
     0
100
AcDbLine
 10
91.88258352284575
 20
101.3717532102007
 30
0.0
 11
91.87749805455351
 21
101.3709914628404
 31
0.0
  0
LINE
  5
428
330
1F
100
AcDbEntity
  8
0
  6
Continuous
 62
     0
370
     0
100
AcDbLine
 10
92.31169404988432
 20
101.4662688914675
 30
0.0
 11
91.9516986847415
 21
101.4124745074648
 31
0.0
  0
LINE
  5
429
330
1F
100
AcDbEntity
  8
0
  6
Continuous
 62
     0
370
     0
100
AcDbLine
 10
90.30748310094023
 20
101.3979637566942
 30
0.0
 11
90.30748310094023
 21
101.3455507103342
 31
0.0
  0
LINE
  5
42A
330
1F
100
AcDbEntity
  8
0
  6
Continuous
 62
     0
370
     0
100
AcDbLine
 10
32.32584896092558
 20
92.52539604343355
 30
0.0
 11
32.67683210377834
 21
92.57784664071977
 31
0.0
  0
LINE
  5
42B
330
1F
100
AcDbEntity
  8
0
  6
Continuous
 62
     0
370
     0
100
AcDbLine
 10
32.33483972554347
 20
92.73115902580201
 30
0.0
 11
32.32975425725124
 21
92.7303999606508
 31
0.0
  0
LINE
  5
42C
330
1F
100
AcDbEntity
  8
0
  6
Continuous
 62
     0
370
     0
100
AcDbLine
 10
32.2567337990298
 20
92.46190547384202
 30
0.0
 11
32.25164833073757
 21
92.46114640869081
 31
0.0
  0
LINE
  5
42D
330
1F
100
AcDbEntity
  8
0
  6
Continuous
 62
     0
370
     0
100
AcDbLine
 10
32.68584432606838
 20
92.55642383731782
 30
0.0
 11
32.32584896092558
 21
92.50262945331514
 31
0.0
  0
LINE
  5
42E
330
1F
100
AcDbEntity
  8
0
  6
Continuous
 62
     0
370
     0
100
AcDbLine
 10
30.68163337712429
 20
92.48811602033555
 30
0.0
 11
30.68163337712429
 21
92.43570565618455
 31
0.0
  0
LINE
  5
42F
330
1F
100
AcDbEntity
  8
0
  6
Continuous
 62
     0
370
     0
100
AcDbLine
 10
100.5253476143374
 20
102.0742478910822
 30
0.0
 11
91.90264644627715
 21
100.7857656422991
 31
0.0
  0
LINE
  5
430
330
1F
100
AcDbEntity
  8
0
  6
Continuous
 62
     0
370
     0
100
AcDbLine
 10
90.65848770146513
 20
100.5998510066408
 30
0.0
 11
32.2767967224612
 21
91.87591790594041
 31
0.0
  0
LINE
  5
431
330
1F
100
AcDbEntity
  8
0
  6
Continuous
 62
     0
370
     0
100
AcDbLine
 10
31.03263797764919
 20
91.69000595249116
 30
0.0
 11
22.58305730824614
 21
90.42739092744768
 31
0.0
  0
LINE
  5
432
330
1F
100
AcDbEntity
  8
0
  6
Continuous
 62
     0
370
     0
100
AcDbLine
 10
22.5155514717593
 20
90.50111680664003
 30
0.0
 11
31.02967681889675
 21
91.77337705530107
 31
0.0
  0
LINE
  5
433
330
1F
100
AcDbEntity
  8
0
  6
Continuous
 62
     0
370
     0
100
AcDbLine
 10
32.25834312443874
 20
91.95697426237047
 30
0.0
 11
90.65552654271269
 21
100.6832221094507
 31
0.0
  0
LWPOLYLINE
  5
434
330
1F
100
AcDbEntity
  8
0
  6
Continuous
 62
     0
370
     0
100
AcDbPolyline
 90
        2
 70
   128
 43
0.0
 10
91.88419284825468
 20
100.8668193165201
 10
100.4578417778506
 20
102.1479737702745
  0
LINE
  5
435
330
1F
100
AcDbEntity
  8
0
  6
Continuous
 62
     0
370
     0
100
AcDbLine
 10
100.4668325424686
 20
102.1265536490816
 30
0.0
 11
91.89170303349638
 21
100.8451765719789
 31
0.0
  0
LINE
  5
436
330
1F
100
AcDbEntity
  8
0
  6
Continuous
 62
     0
370
     0
100
AcDbLine
 10
90.65634193425322
 20
100.660576218738
 30
0.0
 11
32.26585330968044
 21
91.9353315178293
 31
0.0
  0
LINE
  5
437
330
1F
100
AcDbEntity
  8
0
  6
Continuous
 62
     0
370
     0
100
AcDbLine
 10
31.03049221043727
 20
91.75073116458833
 30
0.0
 11
22.52456369404933
 21
90.4796966854471
 31
0.0
  0
LINE
  5
438
330
1F
100
AcDbEntity
  8
0
  6
Continuous
 62
     0
370
     0
100
AcDbLine
 10
22.56956043248317
 20
90.45952379144609
 30
0.0
 11
31.03143634801054
 21
91.72397344745576
 31
0.0
  0
LINE
  5
439
330
1F
100
AcDbEntity
  8
0
  6
Continuous
 62
     0
370
     0
100
AcDbLine
 10
32.26679744725371
 20
91.90857648290574
 30
0.0
 11
90.65728607182643
 21
100.6338211838144
 31
0.0
  0
LWPOLYLINE
  5
43A
330
1F
100
AcDbEntity
  8
0
  6
Continuous
 62
     0
370
     0
100
AcDbPolyline
 90
        2
 70
   128
 43
0.0
 10
91.89264717106963
 20
100.8184215370554
 10
100.5118507385745
 20
102.1063807550806
  0
MTEXT
  5
458
330
1F
100
AcDbEntity
  8
0
 62
     7
100
AcDbMText
 10
192.7920173536411
 20
80.07726854791841
 30
0.0
 40
3.031684027777777
 41
0.0
 46
3.083222656249999
 71
     1
 72
     1
  1
{HAC-D/W73T}
  7
Arial
 73
     1
 44
0.9673603504928806
  0
MTEXT
  5
488
330
1F
100
AcDbEntity
  8
0
 62
     7
100
AcDbMText
 10
157.7920173536411
 20
80.07726854791838
 30
0.0
 40
3.031684027777777
 41
0.0
 46
3.083222656249999
 71
     1
 72
     1
  1
{HAC-D/W/B35T}
  7
Arial
 73
     1
 44
0.9673603504928806
  0
MTEXT
  5
489
330
1F
100
AcDbEntity
  8
0
 62
     7
100
AcDbMText
 10
192.7920173536411
 20
73.07726854791841
 30
0.0
 40
3.031684027777777
 41
0.0
 46
3.083222656249999
 71
     1
 72
     1
  1
{HAC-D/H/B107T}
  7
Arial
 73
     1
 44
0.9673603504928806
  0
MTEXT
  5
48A
330
1F
100
AcDbEntity
  8
0
 62
     7
100
AcDbMText
 10
157.7920173536411
 20
73.07726854791838
 30
0.0
 40
3.031684027777777
 41
0.0
 46
8.05420157191265
 71
     1
 72
     1
  1
{HAC-D/B51T\PHAC-H35T}
  7
Arial
 73
     1
 44
0.9673603504928806
  0
LINE
  5
49E
330
1F
100
AcDbEntity
  8
FORMAT
100
AcDbLine
 10
297.0000000000002
 20
-0.0000000000001887
 30
0.0
 11
297.0000000000001
 21
209.9999999999998
 31
0.0
  0
LINE
  5
49F
330
1F
100
AcDbEntity
  8
FORMAT
100
AcDbLine
 10
297.0000000000001
 20
209.9999999999998
 30
0.0
 11
0.0000000000000568
 21
210.0
 31
0.0
  0
LINE
  5
4A0
330
1F
100
AcDbEntity
  8
FORMAT
100
AcDbLine
 10
0.0000000000000568
 20
210.0
 30
0.0
 11
0.0
 21
0.0
 31
0.0
  0
LINE
  5
4A1
330
1F
100
AcDbEntity
  8
FORMAT
100
AcDbLine
 10
0.0
 20
0.0
 30
0.0
 11
297.0
 21
0.0000000000000671
 31
0.0
  0
ENDSEC
  0
SECTION
  2
OBJECTS
  0
DICTIONARY
  5
C
330
0
100
AcDbDictionary
281
     1
  3
ACAD_DETAILVIEWSTYLE
350
1B4
  3
ACAD_GROUP
350
D
  3
ACAD_LAYOUT
350
1A
  3
ACAD_MATERIAL
350
198
  3
ACAD_MLEADERSTYLE
350
19E
  3
ACAD_MLINESTYLE
350
17
  3
ACAD_PLOTSETTINGS
350
19
  3
ACAD_PLOTSTYLENAME
350
E
  3
ACAD_SCALELIST
350
47
  3
ACAD_SECTIONVIEWSTYLE
350
1B5
  3
ACAD_TABLESTYLE
350
19C
  3
ACAD_VISUALSTYLE
350
17F
  3
ACDB_RECOMPOSE_DATA
350
4A7
  3
AcDbVariableDictionary
350
1AF
  3
APPDATA
350
1A0
  0
SUN
  5
1B6
330
29
100
AcDbSun
 90
        1
290
     0
 63
     7
421
 16777215
 40
1.0
291
     1
 91
  2455826
 92
 54000000
292
     0
 70
     2
 71
   256
280
     1
  0
DICTIONARY
  5
47E
330
2
100
AcDbDictionary
280
     1
281
     1
  3
ACAD_LAYERSTATES
360
47F
  0
DICTIONARY
  5
1B4
102
{ACAD_REACTORS
330
C
102
}
330
C
100
AcDbDictionary
281
     1
  0
DICTIONARY
  5
D
102
{ACAD_REACTORS
330
C
102
}
330
C
100
AcDbDictionary
281
     1
  0
DICTIONARY
  5
1A
102
{ACAD_REACTORS
330
C
102
}
330
C
100
AcDbDictionary
281
     1
  3
Layout1
350
1E
  3
Layout2
350
26
  3
Model
350
22
  0
DICTIONARY
  5
198
102
{ACAD_REACTORS
330
C
102
}
330
C
100
AcDbDictionary
281
     1
  3
ByBlock
350
19A
  3
ByLayer
350
199
  3
Global
350
19B
  0
DICTIONARY
  5
19E
102
{ACAD_REACTORS
330
C
102
}
330
C
100
AcDbDictionary
281
     1
  3
Standard
350
19F
  0
DICTIONARY
  5
17
102
{ACAD_REACTORS
330
C
102
}
330
C
100
AcDbDictionary
281
     1
  3
Standard
350
18
  0
DICTIONARY
  5
19
102
{ACAD_REACTORS
330
C
102
}
330
C
100
AcDbDictionary
281
     1
  0
ACDBDICTIONARYWDFLT
  5
E
102
{ACAD_REACTORS
330
C
102
}
330
C
100
AcDbDictionary
281
     1
  3
Normal
350
F
100
AcDbDictionaryWithDefault
340
F
  0
DICTIONARY
  5
47
102
{ACAD_REACTORS
330
C
102
}
330
C
100
AcDbDictionary
281
     1
  3
A0
350
48
  3
A1
350
49
  3
A2
350
4A
  3
A3
350
4B
  3
A4
350
4C
  3
A5
350
4D
  3
A6
350
4E
  3
A7
350
4F
  3
A8
350
50
  3
A9
350
51
  3
B0
350
52
  3
B1
350
53
  3
B2
350
54
  3
B3
350
55
  3
B4
350
56
  3
B5
350
57
  3
B6
350
58
  3
B7
350
59
  3
B8
350
5A
  3
B9
350
5B
  3
C0
350
5C
  3
C1
350
5D
  3
C2
350
5E
  3
C3
350
5F
  3
C4
350
60
  3
C5
350
61
  3
C6
350
62
  3
C7
350
63
  3
C8
350
64
  3
C9
350
65
  3
D0
350
66
  3
D1
350
67
  3
D2
350
68
  0
DICTIONARY
  5
1B5
102
{ACAD_REACTORS
330
C
102
}
330
C
100
AcDbDictionary
281
     1
  0
DICTIONARY
  5
19C
102
{ACAD_REACTORS
330
C
102
}
330
C
100
AcDbDictionary
281
     1
  3
Standard
350
19D
  0
DICTIONARY
  5
17F
102
{ACAD_REACTORS
330
C
102
}
330
C
100
AcDbDictionary
281
     1
  3
2dWireframe
350
184
  3
Basic
350
187
  3
Brighten
350
18B
  3
ColorChange
350
18F
  3
Conceptual
350
189
  3
Dim
350
18A
  3
EdgeColorOff
350
192
  3
Facepattern
350
18E
  3
Flat
350
180
  3
FlatWithEdges
350
181
  3
Gouraud
350
182
  3
GouraudWithEdges
350
183
  3
Hidden
350
186
  3
JitterOff
350
190
  3
Linepattern
350
18D
  3
OverhangOff
350
191
  3
Realistic
350
188
  3
Shaded
350
197
  3
Shaded with edges
350
196
  3
Shades of Gray
350
193
  3
Sketchy
350
194
  3
Thicken
350
18C
  3
Wireframe
350
185
  3
X-Ray
350
195
  0
XRECORD
  5
4A7
102
{ACAD_REACTORS
330
C
102
}
330
C
100
AcDbXrecord
280
     1
 90
        1
330
19D
  0
DICTIONARY
  5
1AF
102
{ACAD_REACTORS
330
C
102
}
330
C
100
AcDbDictionary
281
     1
  3
CANNOSCALE
350
1B0
  3
CMLEADERSTYLE
350
1B2
  3
CTABLESTYLE
350
1B1
  3
MSLTSCALE
350
1B3
  0
DICTIONARY
  5
1A0
102
{ACAD_REACTORS
330
C
102
}
330
C
100
AcDbDictionary
281
     1
  0
DICTIONARY
  5
47F
102
{ACAD_REACTORS
330
47E
102
}
330
47E
100
AcDbDictionary
281
     1
  0
LAYOUT
  5
1E
102
{ACAD_REACTORS
330
1A
102
}
330
1A
100
AcDbPlotSettings
  1

  2
none_device
  4

  6

 40
0.0
 41
0.0
 42
0.0
 43
0.0
 44
0.0
 45
0.0
 46
0.0
 47
0.0
 48
0.0
 49
0.0
140
0.0
141
0.0
142
1.0
143
1.0
 70
   688
 72
     1
 73
     0
 74
     5
  7

 75
    16
 76
     0
 77
     2
 78
   300
147
1.0
148
0.0
149
0.0
100
AcDbLayout
  1
Layout1
 70
     1
 71
     1
 10
0.0
 20
0.0
 11
420.0
 21
297.0
 12
0.0
 22
0.0
 32
0.0
 14
1.000000000000000E+20
 24
1.000000000000000E+20
 34
1.000000000000000E+20
 15
-1.000000000000000E+20
 25
-1.000000000000000E+20
 35
-1.000000000000000E+20
146
0.0
 13
0.0
 23
0.0
 33
0.0
 16
1.0
 26
0.0
 36
0.0
 17
0.0
 27
1.0
 37
0.0
 76
     0
330
1B
  0
LAYOUT
  5
26
102
{ACAD_REACTORS
330
1A
102
}
330
1A
100
AcDbPlotSettings
  1

  2
none_device
  4

  6

 40
0.0
 41
0.0
 42
0.0
 43
0.0
 44
0.0
 45
0.0
 46
0.0
 47
0.0
 48
0.0
 49
0.0
140
0.0
141
0.0
142
1.0
143
1.0
 70
   688
 72
     1
 73
     0
 74
     5
  7

 75
    16
 76
     0
 77
     2
 78
   300
147
1.0
148
0.0
149
0.0
100
AcDbLayout
  1
Layout2
 70
     1
 71
     2
 10
0.0
 20
0.0
 11
0.0
 21
0.0
 12
0.0
 22
0.0
 32
0.0
 14
0.0
 24
0.0
 34
0.0
 15
0.0
 25
0.0
 35
0.0
146
0.0
 13
0.0
 23
0.0
 33
0.0
 16
1.0
 26
0.0
 36
0.0
 17
0.0
 27
1.0
 37
0.0
 76
     0
330
23
  0
LAYOUT
  5
22
102
{ACAD_REACTORS
330
1A
102
}
330
1A
100
AcDbPlotSettings
  1

  2
none_device
  4
Letter_(8.50_x_11.00_Inches)
  6

 40
6.35
 41
6.35
 42
6.35000508
 43
6.35000508
 44
215.9
 45
279.4
 46
0.0
 47
0.0
 48
0.0
 49
0.0
140
0.0
141
0.0
142
1.0
143
1.0
 70
  1712
 72
     1
 73
     0
 74
     0
  7

 75
     0
 76
     0
 77
     2
 78
   300
147
1.0
148
0.0
149
0.0
100
AcDbLayout
  1
Model
 70
     1
 71
     0
 10
0.0
 20
0.0
 11
210.0
 21
297.0
 12
0.0
 22
0.0
 32
0.0
 14
0.0
 24
-0.0000000000001705
 34
0.0
 15
297.0000000000002
 25
210.0
 35
0.0
146
0.0
 13
0.0
 23
0.0
 33
0.0
 16
1.0
 26
0.0
 36
0.0
 17
0.0
 27
1.0
 37
0.0
 76
     0
330
1F
331
29
  0
MATERIAL
  5
19A
102
{ACAD_REACTORS
330
198
102
}
330
198
100
AcDbMaterial
  1
ByBlock
 72
     1
 94
      127
  0
MATERIAL
  5
199
102
{ACAD_REACTORS
330
198
102
}
330
198
100
AcDbMaterial
  1
ByLayer
 72
     1
 94
      127
  0
MATERIAL
  5
19B
102
{ACAD_REACTORS
330
198
102
}
330
198
100
AcDbMaterial
  1
Global
 72
     1
 94
      127
  0
MLEADERSTYLE
  5
19F
102
{ACAD_REACTORS
330
19E
102
}
330
19E
100
AcDbMLeaderStyle
179
     2
170
     2
171
     1
172
     0
 90
        2
 40
0.0
 41
0.0
173
     1
 91
-1056964608
340
14
 92
       -2
290
     1
 42
2.0
291
     1
 43
8.0
  3
Standard
341
0
 44
4.0
300

342
11
174
     1
178
     1
175
     1
176
     0
 93
-1056964608
 45
4.0
292
     0
297
     0
 46
4.0
343
0
 94
-1056964608
 47
1.0
 49
1.0
140
1.0
293
     1
141
0.0
294
     1
177
     0
142
1.0
295
     0
296
     0
143
3.75
271
     0
272
     9
273
     9
298
     0
  0
MLINESTYLE
  5
18
102
{ACAD_REACTORS
330
17
102
}
330
17
100
AcDbMlineStyle
  2
Standard
 70
     0
  3

 62
   256
 51
90.0
 52
90.0
 71
     2
 49
0.5
 62
   256
  6
BYLAYER
 49
-0.5
 62
   256
  6
BYLAYER
  0
ACDBPLACEHOLDER
  5
F
102
{ACAD_REACTORS
330
E
102
}
330
E
  0
SCALE
  5
48
102
{ACAD_REACTORS
330
47
102
}
330
47
100
AcDbScale
 70
     0
300
1:1
140
1.0
141
1.0
290
     1
  0
SCALE
  5
49
102
{ACAD_REACTORS
330
47
102
}
330
47
100
AcDbScale
 70
     0
300
1:2
140
1.0
141
2.0
290
     0
  0
SCALE
  5
4A
102
{ACAD_REACTORS
330
47
102
}
330
47
100
AcDbScale
 70
     0
300
1:4
140
1.0
141
4.0
290
     0
  0
SCALE
  5
4B
102
{ACAD_REACTORS
330
47
102
}
330
47
100
AcDbScale
 70
     0
300
1:5
140
1.0
141
5.0
290
     0
  0
SCALE
  5
4C
102
{ACAD_REACTORS
330
47
102
}
330
47
100
AcDbScale
 70
     0
300
1:8
140
1.0
141
8.0
290
     0
  0
SCALE
  5
4D
102
{ACAD_REACTORS
330
47
102
}
330
47
100
AcDbScale
 70
     0
300
1:10
140
1.0
141
10.0
290
     0
  0
SCALE
  5
4E
102
{ACAD_REACTORS
330
47
102
}
330
47
100
AcDbScale
 70
     0
300
1:16
140
1.0
141
16.0
290
     0
  0
SCALE
  5
4F
102
{ACAD_REACTORS
330
47
102
}
330
47
100
AcDbScale
 70
     0
300
1:20
140
1.0
141
20.0
290
     0
  0
SCALE
  5
50
102
{ACAD_REACTORS
330
47
102
}
330
47
100
AcDbScale
 70
     0
300
1:30
140
1.0
141
30.0
290
     0
  0
SCALE
  5
51
102
{ACAD_REACTORS
330
47
102
}
330
47
100
AcDbScale
 70
     0
300
1:40
140
1.0
141
40.0
290
     0
  0
SCALE
  5
52
102
{ACAD_REACTORS
330
47
102
}
330
47
100
AcDbScale
 70
     0
300
1:50
140
1.0
141
50.0
290
     0
  0
SCALE
  5
53
102
{ACAD_REACTORS
330
47
102
}
330
47
100
AcDbScale
 70
     0
300
1:100
140
1.0
141
100.0
290
     0
  0
SCALE
  5
54
102
{ACAD_REACTORS
330
47
102
}
330
47
100
AcDbScale
 70
     0
300
2:1
140
2.0
141
1.0
290
     0
  0
SCALE
  5
55
102
{ACAD_REACTORS
330
47
102
}
330
47
100
AcDbScale
 70
     0
300
4:1
140
4.0
141
1.0
290
     0
  0
SCALE
  5
56
102
{ACAD_REACTORS
330
47
102
}
330
47
100
AcDbScale
 70
     0
300
8:1
140
8.0
141
1.0
290
     0
  0
SCALE
  5
57
102
{ACAD_REACTORS
330
47
102
}
330
47
100
AcDbScale
 70
     0
300
10:1
140
10.0
141
1.0
290
     0
  0
SCALE
  5
58
102
{ACAD_REACTORS
330
47
102
}
330
47
100
AcDbScale
 70
     0
300
100:1
140
100.0
141
1.0
290
     0
  0
SCALE
  5
59
102
{ACAD_REACTORS
330
47
102
}
330
47
100
AcDbScale
 70
     0
300
1/128" = 1'-0"
140
0.0078125
141
12.0
290
     0
  0
SCALE
  5
5A
102
{ACAD_REACTORS
330
47
102
}
330
47
100
AcDbScale
 70
     0
300
1/64" = 1'-0"
140
0.015625
141
12.0
290
     0
  0
SCALE
  5
5B
102
{ACAD_REACTORS
330
47
102
}
330
47
100
AcDbScale
 70
     0
300
1/32" = 1'-0"
140
0.03125
141
12.0
290
     0
  0
SCALE
  5
5C
102
{ACAD_REACTORS
330
47
102
}
330
47
100
AcDbScale
 70
     0
300
1/16" = 1'-0"
140
0.0625
141
12.0
290
     0
  0
SCALE
  5
5D
102
{ACAD_REACTORS
330
47
102
}
330
47
100
AcDbScale
 70
     0
300
3/32" = 1'-0"
140
0.09375
141
12.0
290
     0
  0
SCALE
  5
5E
102
{ACAD_REACTORS
330
47
102
}
330
47
100
AcDbScale
 70
     0
300
1/8" = 1'-0"
140
0.125
141
12.0
290
     0
  0
SCALE
  5
5F
102
{ACAD_REACTORS
330
47
102
}
330
47
100
AcDbScale
 70
     0
300
3/16" = 1'-0"
140
0.1875
141
12.0
290
     0
  0
SCALE
  5
60
102
{ACAD_REACTORS
330
47
102
}
330
47
100
AcDbScale
 70
     0
300
1/4" = 1'-0"
140
0.25
141
12.0
290
     0
  0
SCALE
  5
61
102
{ACAD_REACTORS
330
47
102
}
330
47
100
AcDbScale
 70
     0
300
3/8" = 1'-0"
140
0.375
141
12.0
290
     0
  0
SCALE
  5
62
102
{ACAD_REACTORS
330
47
102
}
330
47
100
AcDbScale
 70
     0
300
1/2" = 1'-0"
140
0.5
141
12.0
290
     0
  0
SCALE
  5
63
102
{ACAD_REACTORS
330
47
102
}
330
47
100
AcDbScale
 70
     0
300
3/4" = 1'-0"
140
0.75
141
12.0
290
     0
  0
SCALE
  5
64
102
{ACAD_REACTORS
330
47
102
}
330
47
100
AcDbScale
 70
     0
300
1" = 1'-0"
140
1.0
141
12.0
290
     0
  0
SCALE
  5
65
102
{ACAD_REACTORS
330
47
102
}
330
47
100
AcDbScale
 70
     0
300
1-1/2" = 1'-0"
140
1.5
141
12.0
290
     0
  0
SCALE
  5
66
102
{ACAD_REACTORS
330
47
102
}
330
47
100
AcDbScale
 70
     0
300
3" = 1'-0"
140
3.0
141
12.0
290
     0
  0
SCALE
  5
67
102
{ACAD_REACTORS
330
47
102
}
330
47
100
AcDbScale
 70
     0
300
6" = 1'-0"
140
6.0
141
12.0
290
     0
  0
SCALE
  5
68
102
{ACAD_REACTORS
330
47
102
}
330
47
100
AcDbScale
 70
     0
300
1'-0" = 1'-0"
140
12.0
141
12.0
290
     0
  0
TABLESTYLE
  5
19D
102
{ACAD_REACTORS
330
19C
102
}
102
{ACAD_XDICTIONARY
360
4A5
102
}
330
19C
100
AcDbTableStyle
  3
Standard
 70
     0
 71
     0
 40
1.5
 41
1.5
280
     0
281
     0
  7
Standard
140
4.5
170
     2
 62
     0
 63
   257
283
     0
 90
        4
 91
        0
  1

274
    -2
284
     1
 64
     0
275
    -2
285
     1
 65
     0
276
    -2
286
     1
 66
     0
277
    -2
287
     1
 67
     0
278
    -2
288
     1
 68
     0
279
    -2
289
     1
 69
     0
  7
Standard
140
6.0
170
     5
 62
     0
 63
   257
283
     0
 90
        4
 91
        0
  1

274
    -2
284
     1
 64
     0
275
    -2
285
     1
 65
     0
276
    -2
286
     1
 66
     0
277
    -2
287
     1
 67
     0
278
    -2
288
     1
 68
     0
279
    -2
289
     1
 69
     0
  7
Standard
140
4.5
170
     5
 62
     0
 63
   257
283
     0
 90
        4
 91
        0
  1

274
    -2
284
     1
 64
     0
275
    -2
285
     1
 65
     0
276
    -2
286
     1
 66
     0
277
    -2
287
     1
 67
     0
278
    -2
288
     1
 68
     0
279
    -2
289
     1
 69
     0
  0
VISUALSTYLE
  5
184
102
{ACAD_REACTORS
330
17F
102
}
330
17F
100
AcDbVisualStyle
  2
2dWireframe
 70
     4
177
     3
291
     0
 70
    58
 90
        0
176
     1
 90
        2
176
     1
 90
        0
176
     1
 90
        0
176
     1
 40
0.6
176
     1
 40
30.0
176
     1
 62
     7
420
 16777215
176
     1
 90
        1
176
     1
 90
        4
176
     1
 62
     7
176
     1
 62
   257
176
     1
 90
        1
176
     1
 90
        1
176
     1
 40
1.0
176
     1
 90
        0
176
     1
 62
   257
176
     1
 40
1.0
176
     1
 90
        1
176
     1
 90
        6
176
     1
 90
        2
176
     1
 62
     7
176
     1
 90
        5
176
     1
 90
        0
176
     1
 90
        0
176
     1
290
     0
176
     1
 90
        1
176
     1
 40
0.0
176
     1
 90
        0
176
     1
290
     1
176
     1
290
     1
176
     1
290
     0
176
     1
290
     0
176
     1
290
     0
176
     1
290
     0
176
     1
290
     0
176
     1
290
     0
176
     1
290
     0
176
     1
 90
       50
176
     1
 40
0.0
176
     1
 40
1.0
176
     1
 90
        0
176
     1
 62
    18
420
        0
176
     1
 90
       50
176
     1
 90
        3
176
     1
 62
     5
420
      255
176
     1
290
     0
176
     1
 90
       50
176
     1
 90
       50
176
     1
 90
       50
176
     1
290
     0
176
     1
 90
       50
176
     1
 62
   256
176
     0
 40
1.0
176
     0
 90
        2
176
     1
  1
strokes_ogs.tif
176
     1
290
     0
176
     1
 40
1.0
176
     1
 40
1.0
176
     1
  0
VISUALSTYLE
  5
187
102
{ACAD_REACTORS
330
17F
102
}
330
17F
100
AcDbVisualStyle
  2
Basic
 70
     7
177
     3
291
     1
 70
    58
 90
        1
176
     1
 90
        0
176
     1
 90
        1
176
     1
 90
        0
176
     1
 40
0.6
176
     1
 40
30.0
176
     1
 62
     7
420
 16777215
176
     1
 90
        0
176
     1
 90
        4
176
     1
 62
     7
176
     1
 62
   257
176
     1
 90
        1
176
     1
 90
        1
176
     1
 40
1.0
176
     1
 90
        8
176
     1
 62
     7
176
     1
 40
1.0
176
     1
 90
        1
176
     1
 90
        6
176
     1
 90
        2
176
     1
 62
     7
176
     1
 90
        5
176
     1
 90
        0
176
     1
 90
        0
176
     1
290
     0
176
     1
 90
        1
176
     1
 40
0.0
176
     1
 90
        0
176
     1
290
     0
176
     1
290
     1
176
     1
290
     1
176
     1
290
     0
176
     1
290
     0
176
     1
290
     0
176
     1
290
     0
176
     1
290
     0
176
     1
290
     0
176
     1
 90
       50
176
     1
 40
0.0
176
     1
 40
1.0
176
     1
 90
        0
176
     1
 62
    18
420
        0
176
     1
 90
       50
176
     1
 90
        3
176
     1
 62
     5
420
      255
176
     1
290
     0
176
     1
 90
       50
176
     1
 90
       50
176
     1
 90
       50
176
     1
290
     0
176
     1
 90
       50
176
     1
 62
   256
176
     0
 40
1.0
176
     0
 90
        2
176
     1
  1
strokes_ogs.tif
176
     1
290
     0
176
     1
 40
1.0
176
     1
 40
1.0
176
     1
  0
VISUALSTYLE
  5
18B
102
{ACAD_REACTORS
330
17F
102
}
330
17F
100
AcDbVisualStyle
  2
Brighten
 70
    12
177
     3
291
     1
 70
    58
 90
        2
176
     1
 90
        2
176
     1
 90
        0
176
     1
 90
        0
176
     1
 40
0.6
176
     1
 40
30.0
176
     1
 62
     7
420
 16777215
176
     1
 90
        1
176
     1
 90
        4
176
     1
 62
     7
176
     1
 62
   257
176
     1
 90
        1
176
     1
 90
        1
176
     1
 40
1.0
176
     1
 90
        8
176
     1
 62
     7
176
     1
 40
1.0
176
     1
 90
        1
176
     1
 90
        6
176
     1
 90
        2
176
     1
 62
     7
176
     1
 90
        5
176
     1
 90
        0
176
     1
 90
        0
176
     1
290
     0
176
     1
 90
        1
176
     1
 40
50.0
176
     1
 90
        0
176
     1
290
     0
176
     1
290
     1
176
     1
290
     1
176
     1
290
     0
176
     1
290
     0
176
     1
290
     0
176
     1
290
     0
176
     1
290
     0
176
     1
290
     0
176
     1
 90
       50
176
     1
 40
0.0
176
     1
 40
1.0
176
     1
 90
        0
176
     1
 62
    18
420
        0
176
     1
 90
       50
176
     1
 90
        3
176
     1
 62
     5
420
      255
176
     1
290
     0
176
     1
 90
       50
176
     1
 90
       50
176
     1
 90
       50
176
     1
290
     0
176
     1
 90
       50
176
     1
 62
   256
176
     0
 40
1.0
176
     0
 90
        2
176
     1
  1
strokes_ogs.tif
176
     1
290
     0
176
     1
 40
1.0
176
     1
 40
1.0
176
     1
  0
VISUALSTYLE
  5
18F
102
{ACAD_REACTORS
330
17F
102
}
330
17F
100
AcDbVisualStyle
  2
ColorChange
 70
    16
177
     3
291
     1
 70
    58
 90
        2
176
     1
 90
        2
176
     1
 90
        3
176
     1
 90
        0
176
     1
 40
0.6
176
     1
 40
30.0
176
     1
 62
     8
420
  8421504
176
     1
 90
        1
176
     1
 90
        4
176
     1
 62
     7
176
     1
 62
   257
176
     1
 90
        1
176
     1
 90
        1
176
     1
 40
1.0
176
     1
 90
        8
176
     1
 62
     8
420
  8421504
176
     1
 40
1.0
176
     1
 90
        1
176
     1
 90
        6
176
     1
 90
        2
176
     1
 62
     7
176
     1
 90
        5
176
     1
 90
        0
176
     1
 90
        0
176
     1
290
     0
176
     1
 90
        1
176
     1
 40
0.0
176
     1
 90
        0
176
     1
290
     0
176
     1
290
     1
176
     1
290
     1
176
     1
290
     0
176
     1
290
     0
176
     1
290
     0
176
     1
290
     0
176
     1
290
     0
176
     1
290
     0
176
     1
 90
       50
176
     1
 40
0.0
176
     1
 40
1.0
176
     1
 90
        0
176
     1
 62
    18
420
        0
176
     1
 90
       50
176
     1
 90
        3
176
     1
 62
     5
420
      255
176
     1
290
     0
176
     1
 90
       50
176
     1
 90
       50
176
     1
 90
       50
176
     1
290
     0
176
     1
 90
       50
176
     1
 62
   256
176
     0
 40
1.0
176
     0
 90
        2
176
     1
  1
strokes_ogs.tif
176
     1
290
     0
176
     1
 40
1.0
176
     1
 40
1.0
176
     1
  0
VISUALSTYLE
  5
189
102
{ACAD_REACTORS
330
17F
102
}
330
17F
100
AcDbVisualStyle
  2
Conceptual
 70
     9
177
     3
291
     0
 70
    58
 90
        3
176
     1
 90
        2
176
     1
 90
        0
176
     1
 90
        0
176
     1
 40
0.6
176
     1
 40
30.0
176
     1
 62
     7
420
 16777215
176
     1
 90
        2
176
     1
 90
        2
176
     1
 62
     7
176
     1
 62
   257
176
     1
 90
        1
176
     1
 90
        1
176
     1
 40
179.0
176
     1
 90
        8
176
     1
 62
     7
176
     1
 40
1.0
176
     1
 90
        1
176
     1
 90
        6
176
     1
 90
        2
176
     1
 62
     7
176
     1
 90
        3
176
     1
 90
        0
176
     1
 90
        0
176
     1
290
     0
176
     1
 90
        1
176
     1
 40
0.0
176
     1
 90
        0
176
     1
290
     0
176
     1
290
     1
176
     1
290
     1
176
     1
290
     0
176
     1
290
     0
176
     1
290
     0
176
     1
290
     0
176
     1
290
     0
176
     1
290
     0
176
     1
 90
       50
176
     1
 40
0.0
176
     1
 40
1.0
176
     1
 90
        0
176
     1
 62
    18
420
        0
176
     1
 90
       50
176
     1
 90
        3
176
     1
 62
     5
420
      255
176
     1
290
     0
176
     1
 90
       50
176
     1
 90
       50
176
     1
 90
       50
176
     1
290
     0
176
     1
 90
       50
176
     1
 62
   256
176
     0
 40
1.0
176
     0
 90
        2
176
     1
  1
strokes_ogs.tif
176
     1
290
     0
176
     1
 40
1.0
176
     1
 40
1.0
176
     1
  0
VISUALSTYLE
  5
18A
102
{ACAD_REACTORS
330
17F
102
}
330
17F
100
AcDbVisualStyle
  2
Dim
 70
    11
177
     3
291
     1
 70
    58
 90
        2
176
     1
 90
        2
176
     1
 90
        0
176
     1
 90
        0
176
     1
 40
0.6
176
     1
 40
30.0
176
     1
 62
     7
420
 16777215
176
     1
 90
        1
176
     1
 90
        4
176
     1
 62
     7
176
     1
 62
   257
176
     1
 90
        1
176
     1
 90
        1
176
     1
 40
1.0
176
     1
 90
        8
176
     1
 62
     7
176
     1
 40
1.0
176
     1
 90
        1
176
     1
 90
        6
176
     1
 90
        2
176
     1
 62
     7
176
     1
 90
        5
176
     1
 90
        0
176
     1
 90
        0
176
     1
290
     0
176
     1
 90
        1
176
     1
 40
-50.0
176
     1
 90
        0
176
     1
290
     0
176
     1
290
     1
176
     1
290
     1
176
     1
290
     0
176
     1
290
     0
176
     1
290
     0
176
     1
290
     0
176
     1
290
     0
176
     1
290
     0
176
     1
 90
       50
176
     1
 40
0.0
176
     1
 40
1.0
176
     1
 90
        0
176
     1
 62
    18
420
        0
176
     1
 90
       50
176
     1
 90
        3
176
     1
 62
     5
420
      255
176
     1
290
     0
176
     1
 90
       50
176
     1
 90
       50
176
     1
 90
       50
176
     1
290
     0
176
     1
 90
       50
176
     1
 62
   256
176
     0
 40
1.0
176
     0
 90
        2
176
     1
  1
strokes_ogs.tif
176
     1
290
     0
176
     1
 40
1.0
176
     1
 40
1.0
176
     1
  0
VISUALSTYLE
  5
192
102
{ACAD_REACTORS
330
17F
102
}
330
17F
100
AcDbVisualStyle
  2
EdgeColorOff
 70
    22
177
     3
291
     1
 70
    58
 90
        2
176
     0
 90
        2
176
     0
 90
        0
176
     0
 90
        0
176
     0
 40
0.6
176
     0
 40
30.0
176
     0
 62
     7
420
 16777215
176
     0
 90
        1
176
     0
 90
        4
176
     0
 62
     7
176
     0
 62
   257
176
     0
 90
        1
176
     0
 90
        1
176
     0
 40
1.0
176
     0
 90
        8
176
     2
 62
     7
176
     0
 40
1.0
176
     0
 90
        1
176
     0
 90
        6
176
     0
 90
        2
176
     0
 62
     7
176
     0
 90
        5
176
     0
 90
        0
176
     0
 90
        0
176
     0
290
     0
176
     0
 90
        1
176
     0
 40
0.0
176
     0
 90
        0
176
     0
290
     0
176
     0
290
     1
176
     0
290
     1
176
     0
290
     0
176
     0
290
     0
176
     0
290
     0
176
     0
290
     0
176
     0
290
     0
176
     0
290
     0
176
     0
 90
       50
176
     0
 40
0.0
176
     0
 40
1.0
176
     0
 90
        0
176
     0
 62
    18
420
        0
176
     0
 90
       50
176
     0
 90
        3
176
     0
 62
     5
420
      255
176
     0
290
     0
176
     0
 90
       50
176
     0
 90
       50
176
     0
 90
       50
176
     0
290
     0
176
     0
 90
       50
176
     0
 62
   256
176
     0
 40
1.0
176
     0
 90
        2
176
     0
  1
strokes_ogs.tif
176
     0
290
     0
176
     0
 40
1.0
176
     0
 40
1.0
176
     0
  0
VISUALSTYLE
  5
18E
102
{ACAD_REACTORS
330
17F
102
}
330
17F
100
AcDbVisualStyle
  2
Facepattern
 70
    15
177
     3
291
     1
 70
    58
 90
        2
176
     1
 90
        2
176
     1
 90
        0
176
     1
 90
        0
176
     1
 40
0.6
176
     1
 40
30.0
176
     1
 62
     7
420
 16777215
176
     1
 90
        1
176
     1
 90
        4
176
     1
 62
     7
176
     1
 62
   257
176
     1
 90
        1
176
     1
 90
        1
176
     1
 40
1.0
176
     1
 90
        8
176
     1
 62
     7
176
     1
 40
1.0
176
     1
 90
        1
176
     1
 90
        6
176
     1
 90
        2
176
     1
 62
     7
176
     1
 90
        5
176
     1
 90
        0
176
     1
 90
        0
176
     1
290
     0
176
     1
 90
        1
176
     1
 40
0.0
176
     1
 90
        0
176
     1
290
     0
176
     1
290
     1
176
     1
290
     1
176
     1
290
     0
176
     1
290
     0
176
     1
290
     0
176
     1
290
     0
176
     1
290
     0
176
     1
290
     0
176
     1
 90
       50
176
     1
 40
0.0
176
     1
 40
1.0
176
     1
 90
        0
176
     1
 62
    18
420
        0
176
     1
 90
       50
176
     1
 90
        3
176
     1
 62
     5
420
      255
176
     1
290
     0
176
     1
 90
       50
176
     1
 90
       50
176
     1
 90
       50
176
     1
290
     0
176
     1
 90
       50
176
     1
 62
   256
176
     0
 40
1.0
176
     0
 90
        2
176
     1
  1
strokes_ogs.tif
176
     1
290
     0
176
     1
 40
1.0
176
     1
 40
1.0
176
     1
  0
VISUALSTYLE
  5
180
102
{ACAD_REACTORS
330
17F
102
}
330
17F
100
AcDbVisualStyle
  2
Flat
 70
     0
177
     3
291
     1
 70
    58
 90
        2
176
     1
 90
        1
176
     1
 90
        1
176
     1
 90
        2
176
     1
 40
0.6
176
     1
 40
30.0
176
     1
 62
     7
420
 16777215
176
     1
 90
        0
176
     1
 90
        0
176
     1
 62
     7
176
     1
 62
   257
176
     1
 90
        1
176
     1
 90
        1
176
     1
 40
1.0
176
     1
 90
        8
176
     1
 62
     7
176
     1
 40
1.0
176
     1
 90
        1
176
     1
 90
        6
176
     1
 90
        2
176
     1
 62
     7
176
     1
 90
        5
176
     1
 90
        0
176
     1
 90
        0
176
     1
290
     0
176
     1
 90
       13
176
     1
 40
0.0
176
     1
 90
        0
176
     1
290
     0
176
     1
290
     1
176
     1
290
     1
176
     1
290
     0
176
     1
290
     0
176
     1
290
     0
176
     1
290
     0
176
     1
290
     0
176
     1
290
     0
176
     1
 90
       50
176
     1
 40
0.0
176
     1
 40
1.0
176
     1
 90
        0
176
     1
 62
    18
420
        0
176
     1
 90
       50
176
     1
 90
        3
176
     1
 62
     5
420
      255
176
     1
290
     0
176
     1
 90
       50
176
     1
 90
       50
176
     1
 90
       50
176
     1
290
     0
176
     1
 90
       50
176
     1
 62
   256
176
     0
 40
1.0
176
     0
 90
        2
176
     1
  1
strokes_ogs.tif
176
     1
290
     0
176
     1
 40
1.0
176
     1
 40
1.0
176
     1
  0
VISUALSTYLE
  5
181
102
{ACAD_REACTORS
330
17F
102
}
330
17F
100
AcDbVisualStyle
  2
FlatWithEdges
 70
     1
177
     3
291
     1
 70
    58
 90
        2
176
     1
 90
        1
176
     1
 90
        1
176
     1
 90
        2
176
     1
 40
0.6
176
     1
 40
30.0
176
     1
 62
     7
420
 16777215
176
     1
 90
        1
176
     1
 90
        0
176
     1
 62
     7
176
     1
 62
   257
176
     1
 90
        1
176
     1
 90
        1
176
     1
 40
1.0
176
     1
 90
        0
176
     1
 62
   257
176
     1
 40
1.0
176
     1
 90
        1
176
     1
 90
        6
176
     1
 90
        2
176
     1
 62
     7
176
     1
 90
        5
176
     1
 90
        0
176
     1
 90
        0
176
     1
290
     0
176
     1
 90
       13
176
     1
 40
0.0
176
     1
 90
        0
176
     1
290
     0
176
     1
290
     1
176
     1
290
     1
176
     1
290
     0
176
     1
290
     0
176
     1
290
     0
176
     1
290
     0
176
     1
290
     0
176
     1
290
     0
176
     1
 90
       50
176
     1
 40
0.0
176
     1
 40
1.0
176
     1
 90
        0
176
     1
 62
    18
420
        0
176
     1
 90
       50
176
     1
 90
        3
176
     1
 62
     5
420
      255
176
     1
290
     0
176
     1
 90
       50
176
     1
 90
       50
176
     1
 90
       50
176
     1
290
     0
176
     1
 90
       50
176
     1
 62
   256
176
     0
 40
1.0
176
     0
 90
        2
176
     1
  1
strokes_ogs.tif
176
     1
290
     0
176
     1
 40
1.0
176
     1
 40
1.0
176
     1
  0
VISUALSTYLE
  5
182
102
{ACAD_REACTORS
330
17F
102
}
330
17F
100
AcDbVisualStyle
  2
Gouraud
 70
     2
177
     3
291
     1
 70
    58
 90
        2
176
     1
 90
        2
176
     1
 90
        1
176
     1
 90
        2
176
     1
 40
0.6
176
     1
 40
30.0
176
     1
 62
     7
420
 16777215
176
     1
 90
        0
176
     1
 90
        0
176
     1
 62
     7
176
     1
 62
   257
176
     1
 90
        1
176
     1
 90
        1
176
     1
 40
1.0
176
     1
 90
        0
176
     1
 62
     7
176
     1
 40
1.0
176
     1
 90
        1
176
     1
 90
        6
176
     1
 90
        2
176
     1
 62
     7
176
     1
 90
        5
176
     1
 90
        0
176
     1
 90
        0
176
     1
290
     0
176
     1
 90
       13
176
     1
 40
0.0
176
     1
 90
        0
176
     1
290
     0
176
     1
290
     1
176
     1
290
     1
176
     1
290
     0
176
     1
290
     0
176
     1
290
     0
176
     1
290
     0
176
     1
290
     0
176
     1
290
     0
176
     1
 90
       50
176
     1
 40
0.0
176
     1
 40
1.0
176
     1
 90
        0
176
     1
 62
    18
420
        0
176
     1
 90
       50
176
     1
 90
        3
176
     1
 62
     5
420
      255
176
     1
290
     0
176
     1
 90
       50
176
     1
 90
       50
176
     1
 90
       50
176
     1
290
     0
176
     1
 90
       50
176
     1
 62
   256
176
     0
 40
1.0
176
     0
 90
        2
176
     1
  1
strokes_ogs.tif
176
     1
290
     0
176
     1
 40
1.0
176
     1
 40
1.0
176
     1
  0
VISUALSTYLE
  5
183
102
{ACAD_REACTORS
330
17F
102
}
330
17F
100
AcDbVisualStyle
  2
GouraudWithEdges
 70
     3
177
     3
291
     1
 70
    58
 90
        2
176
     1
 90
        2
176
     1
 90
        1
176
     1
 90
        2
176
     1
 40
0.6
176
     1
 40
30.0
176
     1
 62
     7
420
 16777215
176
     1
 90
        1
176
     1
 90
        0
176
     1
 62
     7
176
     1
 62
   257
176
     1
 90
        1
176
     1
 90
        1
176
     1
 40
1.0
176
     1
 90
        0
176
     1
 62
   257
176
     1
 40
1.0
176
     1
 90
        1
176
     1
 90
        6
176
     1
 90
        2
176
     1
 62
     7
176
     1
 90
        5
176
     1
 90
        0
176
     1
 90
        0
176
     1
290
     0
176
     1
 90
       13
176
     1
 40
0.0
176
     1
 90
        0
176
     1
290
     0
176
     1
290
     1
176
     1
290
     1
176
     1
290
     0
176
     1
290
     0
176
     1
290
     0
176
     1
290
     0
176
     1
290
     0
176
     1
290
     0
176
     1
 90
       50
176
     1
 40
0.0
176
     1
 40
1.0
176
     1
 90
        0
176
     1
 62
    18
420
        0
176
     1
 90
       50
176
     1
 90
        3
176
     1
 62
     5
420
      255
176
     1
290
     0
176
     1
 90
       50
176
     1
 90
       50
176
     1
 90
       50
176
     1
290
     0
176
     1
 90
       50
176
     1
 62
   256
176
     0
 40
1.0
176
     0
 90
        2
176
     1
  1
strokes_ogs.tif
176
     1
290
     0
176
     1
 40
1.0
176
     1
 40
1.0
176
     1
  0
VISUALSTYLE
  5
186
102
{ACAD_REACTORS
330
17F
102
}
330
17F
100
AcDbVisualStyle
  2
Hidden
 70
     6
177
     3
291
     0
 70
    58
 90
        1
176
     1
 90
        2
176
     1
 90
        2
176
     1
 90
        0
176
     1
 40
0.6
176
     1
 40
30.0
176
     1
 62
     7
420
 16777215
176
     1
 90
        2
176
     1
 90
        2
176
     1
 62
     7
176
     1
 62
   257
176
     1
 90
        2
176
     1
 90
        1
176
     1
 40
40.0
176
     1
 90
        0
176
     1
 62
   257
176
     1
 40
1.0
176
     1
 90
        1
176
     1
 90
        6
176
     1
 90
        2
176
     1
 62
     7
176
     1
 90
        3
176
     1
 90
        0
176
     1
 90
        0
176
     1
290
     0
176
     1
 90
        1
176
     1
 40
0.0
176
     1
 90
        0
176
     1
290
     0
176
     1
290
     1
176
     1
290
     1
176
     1
290
     0
176
     1
290
     0
176
     1
290
     0
176
     1
290
     0
176
     1
290
     0
176
     1
290
     0
176
     1
 90
       50
176
     1
 40
0.0
176
     1
 40
1.0
176
     1
 90
        0
176
     1
 62
    18
420
        0
176
     1
 90
       50
176
     1
 90
        3
176
     1
 62
     5
420
      255
176
     1
290
     0
176
     1
 90
       50
176
     1
 90
       50
176
     1
 90
       50
176
     1
290
     0
176
     1
 90
       50
176
     1
 62
   256
176
     0
 40
1.0
176
     0
 90
        2
176
     1
  1
strokes_ogs.tif
176
     1
290
     0
176
     1
 40
1.0
176
     1
 40
1.0
176
     1
  0
VISUALSTYLE
  5
190
102
{ACAD_REACTORS
330
17F
102
}
330
17F
100
AcDbVisualStyle
  2
JitterOff
 70
    20
177
     3
291
     1
 70
    58
 90
        2
176
     0
 90
        2
176
     0
 90
        0
176
     0
 90
        0
176
     0
 40
0.6
176
     0
 40
30.0
176
     0
 62
     7
420
 16777215
176
     0
 90
        1
176
     0
 90
        4
176
     0
 62
     7
176
     0
 62
   257
176
     0
 90
        1
176
     0
 90
        1
176
     0
 40
1.0
176
     0
 90
       10
176
     2
 62
     7
176
     0
 40
1.0
176
     0
 90
        1
176
     0
 90
        6
176
     0
 90
        2
176
     0
 62
     7
176
     0
 90
        5
176
     0
 90
        0
176
     0
 90
        0
176
     0
290
     0
176
     0
 90
        1
176
     0
 40
0.0
176
     0
 90
        0
176
     0
290
     0
176
     0
290
     1
176
     0
290
     1
176
     0
290
     0
176
     0
290
     0
176
     0
290
     0
176
     0
290
     0
176
     0
290
     0
176
     0
290
     0
176
     0
 90
       50
176
     0
 40
0.0
176
     0
 40
1.0
176
     0
 90
        0
176
     0
 62
    18
420
        0
176
     0
 90
       50
176
     0
 90
        3
176
     0
 62
     5
420
      255
176
     0
290
     0
176
     0
 90
       50
176
     0
 90
       50
176
     0
 90
       50
176
     0
290
     0
176
     0
 90
       50
176
     0
 62
   256
176
     0
 40
1.0
176
     0
 90
        2
176
     0
  1
strokes_ogs.tif
176
     0
290
     0
176
     0
 40
1.0
176
     0
 40
1.0
176
     0
  0
VISUALSTYLE
  5
18D
102
{ACAD_REACTORS
330
17F
102
}
330
17F
100
AcDbVisualStyle
  2
Linepattern
 70
    14
177
     3
291
     1
 70
    58
 90
        2
176
     1
 90
        2
176
     1
 90
        0
176
     1
 90
        0
176
     1
 40
0.6
176
     1
 40
30.0
176
     1
 62
     7
420
 16777215
176
     1
 90
        1
176
     1
 90
        4
176
     1
 62
     7
176
     1
 62
   257
176
     1
 90
        7
176
     1
 90
        7
176
     1
 40
1.0
176
     1
 90
        8
176
     1
 62
     7
176
     1
 40
1.0
176
     1
 90
        1
176
     1
 90
        6
176
     1
 90
        2
176
     1
 62
     7
176
     1
 90
        5
176
     1
 90
        0
176
     1
 90
        0
176
     1
290
     0
176
     1
 90
        1
176
     1
 40
0.0
176
     1
 90
        0
176
     1
290
     0
176
     1
290
     1
176
     1
290
     1
176
     1
290
     0
176
     1
290
     0
176
     1
290
     0
176
     1
290
     0
176
     1
290
     0
176
     1
290
     0
176
     1
 90
       50
176
     1
 40
0.0
176
     1
 40
1.0
176
     1
 90
        0
176
     1
 62
    18
420
        0
176
     1
 90
       50
176
     1
 90
        3
176
     1
 62
     5
420
      255
176
     1
290
     0
176
     1
 90
       50
176
     1
 90
       50
176
     1
 90
       50
176
     1
290
     0
176
     1
 90
       50
176
     1
 62
   256
176
     0
 40
1.0
176
     0
 90
        2
176
     1
  1
strokes_ogs.tif
176
     1
290
     0
176
     1
 40
1.0
176
     1
 40
1.0
176
     1
  0
VISUALSTYLE
  5
191
102
{ACAD_REACTORS
330
17F
102
}
330
17F
100
AcDbVisualStyle
  2
OverhangOff
 70
    21
177
     3
291
     1
 70
    58
 90
        2
176
     0
 90
        2
176
     0
 90
        0
176
     0
 90
        0
176
     0
 40
0.6
176
     0
 40
30.0
176
     0
 62
     7
420
 16777215
176
     0
 90
        1
176
     0
 90
        4
176
     0
 62
     7
176
     0
 62
   257
176
     0
 90
        1
176
     0
 90
        1
176
     0
 40
1.0
176
     0
 90
        9
176
     2
 62
     7
176
     0
 40
1.0
176
     0
 90
        1
176
     0
 90
        6
176
     0
 90
        2
176
     0
 62
     7
176
     0
 90
        5
176
     0
 90
        0
176
     0
 90
        0
176
     0
290
     0
176
     0
 90
        1
176
     0
 40
0.0
176
     0
 90
        0
176
     0
290
     0
176
     0
290
     1
176
     0
290
     1
176
     0
290
     0
176
     0
290
     0
176
     0
290
     0
176
     0
290
     0
176
     0
290
     0
176
     0
290
     0
176
     0
 90
       50
176
     0
 40
0.0
176
     0
 40
1.0
176
     0
 90
        0
176
     0
 62
    18
420
        0
176
     0
 90
       50
176
     0
 90
        3
176
     0
 62
     5
420
      255
176
     0
290
     0
176
     0
 90
       50
176
     0
 90
       50
176
     0
 90
       50
176
     0
290
     0
176
     0
 90
       50
176
     0
 62
   256
176
     0
 40
1.0
176
     0
 90
        2
176
     0
  1
strokes_ogs.tif
176
     0
290
     0
176
     0
 40
1.0
176
     0
 40
1.0
176
     0
  0
VISUALSTYLE
  5
188
102
{ACAD_REACTORS
330
17F
102
}
330
17F
100
AcDbVisualStyle
  2
Realistic
 70
     8
177
     3
291
     0
 70
    58
 90
        2
176
     1
 90
        3
176
     1
 90
        0
176
     1
 90
        2
176
     1
 40
0.6
176
     1
 40
30.0
176
     1
 62
     7
420
 16777215
176
     1
 90
        0
176
     1
 90
        0
176
     1
 62
     7
176
     1
 62
   257
176
     1
 90
        1
176
     1
 90
        1
176
     1
 40
1.0
176
     1
 90
        8
176
     1
 62
   257
176
     1
 40
1.0
176
     1
 90
        1
176
     1
 90
        6
176
     1
 90
        2
176
     1
 62
     7
176
     1
 90
        3
176
     1
 90
        0
176
     1
 90
        0
176
     1
290
     0
176
     1
 90
       13
176
     1
 40
0.0
176
     1
 90
        0
176
     1
290
     0
176
     1
290
     1
176
     1
290
     1
176
     1
290
     0
176
     1
290
     0
176
     1
290
     0
176
     1
290
     0
176
     1
290
     0
176
     1
290
     0
176
     1
 90
       50
176
     1
 40
0.0
176
     1
 40
1.0
176
     1
 90
        0
176
     1
 62
    18
420
        0
176
     1
 90
       50
176
     1
 90
        3
176
     1
 62
     5
420
      255
176
     1
290
     0
176
     1
 90
       50
176
     1
 90
       50
176
     1
 90
       50
176
     1
290
     0
176
     1
 90
       50
176
     1
 62
   256
176
     0
 40
1.0
176
     0
 90
        2
176
     1
  1
strokes_ogs.tif
176
     1
290
     0
176
     1
 40
1.0
176
     1
 40
1.0
176
     1
  0
VISUALSTYLE
  5
197
102
{ACAD_REACTORS
330
17F
102
}
330
17F
100
AcDbVisualStyle
  2
Shaded
 70
    27
177
     3
291
     0
 70
    58
 90
        2
176
     1
 90
        2
176
     1
 90
        1
176
     1
 90
        2
176
     1
 40
0.6
176
     1
 40
30.0
176
     1
 62
     7
420
 16777215
176
     1
 90
        0
176
     1
 90
        4
176
     1
 62
     7
176
     1
 62
   257
176
     1
 90
        1
176
     1
 90
        1
176
     1
 40
1.0
176
     1
 90
        8
176
     1
 62
   257
176
     1
 40
1.0
176
     1
 90
        1
176
     1
 90
        6
176
     1
 90
        2
176
     1
 62
     8
420
  7895160
176
     1
 90
        3
176
     1
 90
        0
176
     1
 90
        0
176
     1
290
     0
176
     1
 90
        5
176
     1
 40
0.0
176
     1
 90
        0
176
     1
290
     0
176
     1
290
     1
176
     1
290
     1
176
     1
290
     0
176
     1
290
     0
176
     1
290
     0
176
     1
290
     0
176
     1
290
     0
176
     1
290
     0
176
     1
 90
       50
176
     1
 40
0.0
176
     1
 40
1.0
176
     1
 90
        0
176
     1
 62
    18
420
        0
176
     1
 90
       50
176
     1
 90
        3
176
     1
 62
     5
420
      255
176
     1
290
     0
176
     1
 90
       50
176
     1
 90
       50
176
     1
 90
       50
176
     1
290
     0
176
     1
 90
       50
176
     1
 62
   256
176
     0
 40
1.0
176
     0
 90
        2
176
     1
  1
strokes_ogs.tif
176
     1
290
     0
176
     1
 40
1.0
176
     1
 40
1.0
176
     1
  0
VISUALSTYLE
  5
196
102
{ACAD_REACTORS
330
17F
102
}
330
17F
100
AcDbVisualStyle
  2
Shaded with edges
 70
    26
177
     3
291
     0
 70
    58
 90
        2
176
     1
 90
        2
176
     1
 90
        1
176
     1
 90
        2
176
     1
 40
0.6
176
     1
 40
30.0
176
     1
 62
     7
420
 16777215
176
     1
 90
        1
176
     1
 90
       10
176
     1
 62
     7
176
     1
 62
   257
176
     1
 90
        2
176
     1
 90
        1
176
     1
 40
1.0
176
     1
 90
        8
176
     1
 62
   257
176
     1
 40
1.0
176
     1
 90
        1
176
     1
 90
        6
176
     1
 90
        2
176
     1
 62
     7
176
     1
 90
        3
176
     1
 90
        0
176
     1
 90
        0
176
     1
290
     0
176
     1
 90
        5
176
     1
 40
0.0
176
     1
 90
        0
176
     1
290
     0
176
     1
290
     1
176
     1
290
     1
176
     1
290
     0
176
     1
290
     0
176
     1
290
     0
176
     1
290
     0
176
     1
290
     0
176
     1
290
     0
176
     1
 90
       50
176
     1
 40
0.0
176
     1
 40
1.0
176
     1
 90
        0
176
     1
 62
    18
420
        0
176
     1
 90
       50
176
     1
 90
        3
176
     1
 62
     5
420
      255
176
     1
290
     0
176
     1
 90
       50
176
     1
 90
       50
176
     1
 90
       50
176
     1
290
     0
176
     1
 90
       50
176
     1
 62
   256
176
     0
 40
1.0
176
     0
 90
        2
176
     1
  1
strokes_ogs.tif
176
     1
290
     0
176
     1
 40
1.0
176
     1
 40
1.0
176
     1
  0
VISUALSTYLE
  5
193
102
{ACAD_REACTORS
330
17F
102
}
330
17F
100
AcDbVisualStyle
  2
Shades of Gray
 70
    23
177
     3
291
     0
 70
    58
 90
        2
176
     1
 90
        2
176
     1
 90
        3
176
     1
 90
        0
176
     1
 40
0.6
176
     1
 40
30.0
176
     1
 62
     7
420
 16777215
176
     1
 90
        2
176
     1
 90
        2
176
     1
 62
     7
176
     1
 62
     7
176
     1
 90
        1
176
     1
 90
        1
176
     1
 40
40.0
176
     1
 90
        8
176
     1
 62
     7
176
     1
 40
1.0
176
     1
 90
        1
176
     1
 90
        6
176
     1
 90
        2
176
     1
 62
     7
176
     1
 90
        3
176
     1
 90
        0
176
     1
 90
        0
176
     1
290
     0
176
     1
 90
        1
176
     1
 40
0.0
176
     1
 90
        0
176
     1
290
     0
176
     1
290
     1
176
     1
290
     1
176
     1
290
     0
176
     1
290
     0
176
     1
290
     0
176
     1
290
     0
176
     1
290
     0
176
     1
290
     0
176
     1
 90
       50
176
     1
 40
0.0
176
     1
 40
1.0
176
     1
 90
        0
176
     1
 62
    18
420
        0
176
     1
 90
       50
176
     1
 90
        3
176
     1
 62
     5
420
      255
176
     1
290
     0
176
     1
 90
       50
176
     1
 90
       50
176
     1
 90
       50
176
     1
290
     0
176
     1
 90
       50
176
     1
 62
   256
176
     0
 40
1.0
176
     0
 90
        2
176
     1
  1
strokes_ogs.tif
176
     1
290
     0
176
     1
 40
1.0
176
     1
 40
1.0
176
     1
  0
VISUALSTYLE
  5
194
102
{ACAD_REACTORS
330
17F
102
}
330
17F
100
AcDbVisualStyle
  2
Sketchy
 70
    24
177
     3
291
     0
 70
    58
 90
        1
176
     1
 90
        2
176
     1
 90
        2
176
     1
 90
        0
176
     1
 40
0.6
176
     1
 40
30.0
176
     1
 62
     7
420
 16777215
176
     1
 90
        2
176
     1
 90
        2
176
     1
 62
     7
176
     1
 62
     7
176
     1
 90
        1
176
     1
 90
        1
176
     1
 40
40.0
176
     1
 90
       11
176
     1
 62
     7
176
     1
 40
1.0
176
     1
 90
        1
176
     1
 90
        6
176
     1
 90
        2
176
     1
 62
     7
176
     1
 90
        6
176
     1
 90
        0
176
     1
 90
        0
176
     1
290
     0
176
     1
 90
        1
176
     1
 40
0.0
176
     1
 90
        0
176
     1
290
     0
176
     1
290
     1
176
     1
290
     1
176
     1
290
     0
176
     1
290
     0
176
     1
290
     0
176
     1
290
     0
176
     1
290
     0
176
     1
290
     0
176
     1
 90
       50
176
     1
 40
0.0
176
     1
 40
1.0
176
     1
 90
        0
176
     1
 62
    18
420
        0
176
     1
 90
       50
176
     1
 90
        3
176
     1
 62
     5
420
      255
176
     1
290
     0
176
     1
 90
       50
176
     1
 90
       50
176
     1
 90
       50
176
     1
290
     0
176
     1
 90
       50
176
     1
 62
   256
176
     0
 40
1.0
176
     0
 90
        2
176
     1
  1
strokes_ogs.tif
176
     1
290
     0
176
     1
 40
1.0
176
     1
 40
1.0
176
     1
  0
VISUALSTYLE
  5
18C
102
{ACAD_REACTORS
330
17F
102
}
330
17F
100
AcDbVisualStyle
  2
Thicken
 70
    13
177
     3
291
     1
 70
    58
 90
        2
176
     1
 90
        2
176
     1
 90
        0
176
     1
 90
        0
176
     1
 40
0.6
176
     1
 40
30.0
176
     1
 62
     7
420
 16777215
176
     1
 90
        1
176
     1
 90
        4
176
     1
 62
     7
176
     1
 62
   257
176
     1
 90
        1
176
     1
 90
        1
176
     1
 40
1.0
176
     1
 90
       12
176
     1
 62
     7
176
     1
 40
1.0
176
     1
 90
        1
176
     1
 90
        6
176
     1
 90
        2
176
     1
 62
     7
176
     1
 90
        5
176
     1
 90
        0
176
     1
 90
        0
176
     1
290
     0
176
     1
 90
        1
176
     1
 40
0.0
176
     1
 90
        0
176
     1
290
     0
176
     1
290
     1
176
     1
290
     1
176
     1
290
     0
176
     1
290
     0
176
     1
290
     0
176
     1
290
     0
176
     1
290
     0
176
     1
290
     0
176
     1
 90
       50
176
     1
 40
0.0
176
     1
 40
1.0
176
     1
 90
        0
176
     1
 62
    18
420
        0
176
     1
 90
       50
176
     1
 90
        3
176
     1
 62
     5
420
      255
176
     1
290
     0
176
     1
 90
       50
176
     1
 90
       50
176
     1
 90
       50
176
     1
290
     0
176
     1
 90
       50
176
     1
 62
   256
176
     0
 40
1.0
176
     0
 90
        2
176
     1
  1
strokes_ogs.tif
176
     1
290
     0
176
     1
 40
1.0
176
     1
 40
1.0
176
     1
  0
VISUALSTYLE
  5
185
102
{ACAD_REACTORS
330
17F
102
}
330
17F
100
AcDbVisualStyle
  2
Wireframe
 70
     5
177
     3
291
     0
 70
    58
 90
        0
176
     1
 90
        2
176
     1
 90
        0
176
     1
 90
        0
176
     1
 40
0.6
176
     1
 40
30.0
176
     1
 62
     7
420
 16777215
176
     1
 90
        1
176
     1
 90
        4
176
     1
 62
     7
176
     1
 62
   257
176
     1
 90
        1
176
     1
 90
        1
176
     1
 40
1.0
176
     1
 90
        0
176
     1
 62
   257
176
     1
 40
1.0
176
     1
 90
        1
176
     1
 90
        6
176
     1
 90
        2
176
     1
 62
     7
176
     1
 90
        3
176
     1
 90
        0
176
     1
 90
        0
176
     1
290
     0
176
     1
 90
        1
176
     1
 40
0.0
176
     1
 90
        0
176
     1
290
     0
176
     1
290
     1
176
     1
290
     1
176
     1
290
     0
176
     1
290
     0
176
     1
290
     0
176
     1
290
     0
176
     1
290
     0
176
     1
290
     0
176
     1
 90
       50
176
     1
 40
0.0
176
     1
 40
1.0
176
     1
 90
        0
176
     1
 62
    18
420
        0
176
     1
 90
       50
176
     1
 90
        3
176
     1
 62
     5
420
      255
176
     1
290
     0
176
     1
 90
       50
176
     1
 90
       50
176
     1
 90
       50
176
     1
290
     0
176
     1
 90
       50
176
     1
 62
   256
176
     0
 40
1.0
176
     0
 90
        2
176
     1
  1
strokes_ogs.tif
176
     1
290
     0
176
     1
 40
1.0
176
     1
 40
1.0
176
     1
  0
VISUALSTYLE
  5
195
102
{ACAD_REACTORS
330
17F
102
}
330
17F
100
AcDbVisualStyle
  2
X-Ray
 70
    25
177
     3
291
     0
 70
    58
 90
        2
176
     1
 90
        2
176
     1
 90
        1
176
     1
 90
        1
176
     1
 40
0.5
176
     1
 40
30.0
176
     1
 62
     7
420
 16777215
176
     1
 90
        1
176
     1
 90
        0
176
     1
 62
     7
176
     1
 62
   257
176
     1
 90
        1
176
     1
 90
        1
176
     1
 40
1.0
176
     1
 90
        8
176
     1
 62
     7
176
     1
 40
1.0
176
     1
 90
        1
176
     1
 90
        6
176
     1
 90
        2
176
     1
 62
     7
176
     1
 90
        3
176
     1
 90
        0
176
     1
 90
        0
176
     1
290
     0
176
     1
 90
       13
176
     1
 40
0.0
176
     1
 90
        0
176
     1
290
     0
176
     1
290
     1
176
     1
290
     1
176
     1
290
     0
176
     1
290
     0
176
     1
290
     0
176
     1
290
     0
176
     1
290
     0
176
     1
290
     0
176
     1
 90
       50
176
     1
 40
0.0
176
     1
 40
1.0
176
     1
 90
        0
176
     1
 62
    18
420
        0
176
     1
 90
       50
176
     1
 90
        3
176
     1
 62
     5
420
      255
176
     1
290
     0
176
     1
 90
       50
176
     1
 90
       50
176
     1
 90
       50
176
     1
290
     0
176
     1
 90
       50
176
     1
 62
   256
176
     0
 40
1.0
176
     0
 90
        2
176
     1
  1
strokes_ogs.tif
176
     1
290
     0
176
     1
 40
1.0
176
     1
 40
1.0
176
     1
  0
DICTIONARYVAR
  5
1B0
102
{ACAD_REACTORS
330
1AF
102
}
330
1AF
100
DictionaryVariables
280
     0
  1
1:1
  0
DICTIONARYVAR
  5
1B2
102
{ACAD_REACTORS
330
1AF
102
}
330
1AF
100
DictionaryVariables
280
     0
  1
Standard
  0
DICTIONARYVAR
  5
1B1
102
{ACAD_REACTORS
330
1AF
102
}
330
1AF
100
DictionaryVariables
280
     0
  1
Standard
  0
DICTIONARYVAR
  5
1B3
102
{ACAD_REACTORS
330
1AF
102
}
330
1AF
100
DictionaryVariables
280
     0
  1
0
  0
DICTIONARY
  5
4A5
330
19D
100
AcDbDictionary
280
     1
281
     1
  3
ACAD_ROUNDTRIP_2008_TABLESTYLE_CELLSTYLEMAP
360
4A6
  0
CELLSTYLEMAP
  5
4A6
102
{ACAD_REACTORS
330
4A5
102
}
330
4A5
100
AcDbCellStyleMap
 90
        3
300
CELLSTYLE
  1
TABLEFORMAT_BEGIN
 90
        5
170
     1
 91
        0
 92
    32768
 62
   257
 93
        1
300
CONTENTFORMAT
  1
CONTENTFORMAT_BEGIN
 90
        0
 91
        0
 92
        4
 93
        0
300

 40
0.0
140
1.0
 94
        5
 62
     0
340
11
144
6.0
309
CONTENTFORMAT_END
171
     1
301
MARGIN
  1
CELLMARGIN_BEGIN
 40
1.5
 40
1.5
 40
1.5
 40
1.5
 40
1.5
 40
1.5
309
CELLMARGIN_END
 94
        6
 95
        1
302
GRIDFORMAT
  1
GRIDFORMAT_BEGIN
 90
        0
 91
        1
 62
     0
 92
       -2
340
14
 93
        0
 40
0.045
309
GRIDFORMAT_END
 95
        2
302
GRIDFORMAT
  1
GRIDFORMAT_BEGIN
 90
        0
 91
        1
 62
     0
 92
       -2
340
14
 93
        0
 40
0.045
309
GRIDFORMAT_END
 95
        4
302
GRIDFORMAT
  1
GRIDFORMAT_BEGIN
 90
        0
 91
        1
 62
     0
 92
       -2
340
14
 93
        0
 40
0.045
309
GRIDFORMAT_END
 95
        8
302
GRIDFORMAT
  1
GRIDFORMAT_BEGIN
 90
        0
 91
        1
 62
     0
 92
       -2
340
14
 93
        0
 40
0.045
309
GRIDFORMAT_END
 95
       16
302
GRIDFORMAT
  1
GRIDFORMAT_BEGIN
 90
        0
 91
        1
 62
     0
 92
       -2
340
14
 93
        0
 40
0.045
309
GRIDFORMAT_END
 95
       32
302
GRIDFORMAT
  1
GRIDFORMAT_BEGIN
 90
        0
 91
        1
 62
     0
 92
       -2
340
14
 93
        0
 40
0.045
309
GRIDFORMAT_END
309
TABLEFORMAT_END
  1
CELLSTYLE_BEGIN
 90
        1
 91
        1
300
_TITLE
309
CELLSTYLE_END
300
CELLSTYLE
  1
TABLEFORMAT_BEGIN
 90
        5
170
     1
 91
        0
 92
        0
 62
   257
 93
        1
300
CONTENTFORMAT
  1
CONTENTFORMAT_BEGIN
 90
        0
 91
        0
 92
        4
 93
        0
300

 40
0.0
140
1.0
 94
        5
 62
     0
340
11
144
4.5
309
CONTENTFORMAT_END
171
     1
301
MARGIN
  1
CELLMARGIN_BEGIN
 40
1.5
 40
1.5
 40
1.5
 40
1.5
 40
1.5
 40
1.5
309
CELLMARGIN_END
 94
        6
 95
        1
302
GRIDFORMAT
  1
GRIDFORMAT_BEGIN
 90
        0
 91
        1
 62
     0
 92
       -2
340
14
 93
        0
 40
0.045
309
GRIDFORMAT_END
 95
        2
302
GRIDFORMAT
  1
GRIDFORMAT_BEGIN
 90
        0
 91
        1
 62
     0
 92
       -2
340
14
 93
        0
 40
0.045
309
GRIDFORMAT_END
 95
        4
302
GRIDFORMAT
  1
GRIDFORMAT_BEGIN
 90
        0
 91
        1
 62
     0
 92
       -2
340
14
 93
        0
 40
0.045
309
GRIDFORMAT_END
 95
        8
302
GRIDFORMAT
  1
GRIDFORMAT_BEGIN
 90
        0
 91
        1
 62
     0
 92
       -2
340
14
 93
        0
 40
0.045
309
GRIDFORMAT_END
 95
       16
302
GRIDFORMAT
  1
GRIDFORMAT_BEGIN
 90
        0
 91
        1
 62
     0
 92
       -2
340
14
 93
        0
 40
0.045
309
GRIDFORMAT_END
 95
       32
302
GRIDFORMAT
  1
GRIDFORMAT_BEGIN
 90
        0
 91
        1
 62
     0
 92
       -2
340
14
 93
        0
 40
0.045
309
GRIDFORMAT_END
309
TABLEFORMAT_END
  1
CELLSTYLE_BEGIN
 90
        2
 91
        1
300
_HEADER
309
CELLSTYLE_END
300
CELLSTYLE
  1
TABLEFORMAT_BEGIN
 90
        5
170
     1
 91
        0
 92
        0
 62
   257
 93
        1
300
CONTENTFORMAT
  1
CONTENTFORMAT_BEGIN
 90
        0
 91
        0
 92
        4
 93
        0
300

 40
0.0
140
1.0
 94
        2
 62
     0
340
11
144
4.5
309
CONTENTFORMAT_END
171
     1
301
MARGIN
  1
CELLMARGIN_BEGIN
 40
1.5
 40
1.5
 40
1.5
 40
1.5
 40
1.5
 40
1.5
309
CELLMARGIN_END
 94
        6
 95
        1
302
GRIDFORMAT
  1
GRIDFORMAT_BEGIN
 90
        0
 91
        1
 62
     0
 92
       -2
340
14
 93
        0
 40
0.045
309
GRIDFORMAT_END
 95
        2
302
GRIDFORMAT
  1
GRIDFORMAT_BEGIN
 90
        0
 91
        1
 62
     0
 92
       -2
340
14
 93
        0
 40
0.045
309
GRIDFORMAT_END
 95
        4
302
GRIDFORMAT
  1
GRIDFORMAT_BEGIN
 90
        0
 91
        1
 62
     0
 92
       -2
340
14
 93
        0
 40
0.045
309
GRIDFORMAT_END
 95
        8
302
GRIDFORMAT
  1
GRIDFORMAT_BEGIN
 90
        0
 91
        1
 62
     0
 92
       -2
340
14
 93
        0
 40
0.045
309
GRIDFORMAT_END
 95
       16
302
GRIDFORMAT
  1
GRIDFORMAT_BEGIN
 90
        0
 91
        1
 62
     0
 92
       -2
340
14
 93
        0
 40
0.045
309
GRIDFORMAT_END
 95
       32
302
GRIDFORMAT
  1
GRIDFORMAT_BEGIN
 90
        0
 91
        1
 62
     0
 92
       -2
340
14
 93
        0
 40
0.045
309
GRIDFORMAT_END
309
TABLEFORMAT_END
  1
CELLSTYLE_BEGIN
 90
        3
 91
        2
300
_DATA
309
CELLSTYLE_END
  0
ENDSEC
  0
EOF
