  0
SECTION
  2
HEADER
  9
$ACADVER
  1
AC1032
  9
$ACADMAINTVER
 90
        4
  9
$DWGCODEPAGE
  3
ANSI_932
  9
$LASTSAVEDBY
  1
9128
  9
$REQUIREDVERSIONS
160
                 0
  9
$INSBASE
 10
0.0
 20
0.0
 30
0.0
  9
$EXTMIN
 10
0.0
 20
-0.0000000000001705
 30
0.0
  9
$EXTMAX
 10
297.0000000000002
 20
210.0
 30
0.0
  9
$LIMMIN
 10
0.0
 20
0.0
  9
$LIMMAX
 10
210.0
 20
297.0
  9
$ORTHOMODE
 70
     0
  9
$REGENMODE
 70
     1
  9
$FILLMODE
 70
     1
  9
$QTEXTMODE
 70
     0
  9
$MIRRTEXT
 70
     1
  9
$LTSCALE
 40
1.0
  9
$ATTMODE
 70
     1
  9
$TEXTSIZE
 40
3.5
  9
$TRACEWID
 40
1.0
  9
$TEXTSTYLE
  7
Standard
  9
$CLAYER
  8
0
  9
$CELTYPE
  6
ByLayer
  9
$CECOLOR
 62
   256
  9
$CELTSCALE
 40
1.0
  9
$DISPSILH
 70
     0
  9
$DIMSCALE
 40
1.0
  9
$DIMASZ
 40
3.302
  9
$DIMEXO
 40
1.0
  9
$DIMDLI
 40
3.75
  9
$DIMRND
 40
0.0
  9
$DIMDLE
 40
0.0
  9
$DIMEXE
 40
1.0
  9
$DIMTP
 40
0.0
  9
$DIMTM
 40
0.0
  9
$DIMTXT
 40
3.5
  9
$DIMCEN
 40
2.5
  9
$DIMTSZ
 40
0.0
  9
$DIMTOL
 70
     0
  9
$DIMLIM
 70
     0
  9
$DIMTIH
 70
     1
  9
$DIMTOH
 70
     1
  9
$DIMSE1
 70
     0
  9
$DIMSE2
 70
     0
  9
$DIMTAD
 70
     1
  9
$DIMZIN
 70
     1
  9
$DIMBLK
  1

  9
$DIMASO
 70
     1
  9
$DIMSHO
 70
     1
  9
$DIMPOST
  1

  9
$DIMAPOST
  1

  9
$DIMALT
 70
     0
  9
$DIMALTD
 70
     3
  9
$DIMALTF
 40
0.0393700787401575
  9
$DIMLFAC
 40
100.0
  9
$DIMTOFL
 70
     1
  9
$DIMTVP
 40
0.0
  9
$DIMTIX
 70
     0
  9
$DIMSOXD
 70
     0
  9
$DIMSAH
 70
     0
  9
$DIMBLK1
  1

  9
$DIMBLK2
  1

  9
$DIMSTYLE
  2
ISO-25
  9
$DIMCLRD
 70
     0
  9
$DIMCLRE
 70
     0
  9
$DIMCLRT
 70
     0
  9
$DIMTFAC
 40
1.0
  9
$DIMGAP
 40
1.524
  9
$DIMJUST
 70
     0
  9
$DIMSD1
 70
     0
  9
$DIMSD2
 70
     0
  9
$DIMTOLJ
 70
     0
  9
$DIMTZIN
 70
     1
  9
$DIMALTZ
 70
     0
  9
$DIMALTTZ
 70
     0
  9
$DIMUPT
 70
     0
  9
$DIMDEC
 70
     2
  9
$DIMTDEC
 70
     2
  9
$DIMALTU
 70
     2
  9
$DIMALTTD
 70
     3
  9
$DIMTXSTY
  7
Standard
  9
$DIMAUNIT
 70
     0
  9
$DIMADEC
 70
     2
  9
$DIMALTRND
 40
0.0
  9
$DIMAZIN
 70
     0
  9
$DIMDSEP
 70
    44
  9
$DIMATFIT
 70
     3
  9
$DIMFRAC
 70
     0
  9
$DIMLDRBLK
  1

  9
$DIMLUNIT
 70
     2
  9
$DIMLWD
 70
    -2
  9
$DIMLWE
 70
    -2
  9
$DIMTMOVE
 70
     0
  9
$DIMFXL
 40
1.0
  9
$DIMFXLON
 70
     0
  9
$DIMJOGANG
 40
0.7853981633974483
  9
$DIMTFILL
 70
     0
  9
$DIMTFILLCLR
 70
     0
  9
$DIMARCSYM
 70
     0
  9
$DIMLTYPE
  6

  9
$DIMLTEX1
  6

  9
$DIMLTEX2
  6

  9
$DIMTXTDIRECTION
 70
     0
  9
$LUNITS
 70
     2
  9
$LUPREC
 70
     2
  9
$SKETCHINC
 40
1.0
  9
$FILLETRAD
 40
10.0
  9
$AUNITS
 70
     0
  9
$AUPREC
 70
     2
  9
$MENU
  1
.
  9
$ELEVATION
 40
0.0
  9
$PELEVATION
 40
0.0
  9
$THICKNESS
 40
0.0
  9
$LIMCHECK
 70
     0
  9
$CHAMFERA
 40
0.0
  9
$CHAMFERB
 40
0.0
  9
$CHAMFERC
 40
0.0
  9
$CHAMFERD
 40
0.0
  9
$SKPOLY
 70
     0
  9
$TDCREATE
 40
2459629.486316933
  9
$TDUCREATE
 40
2459629.111316933
  9
$TDUPDATE
 40
2459635.72390647
  9
$TDUUPDATE
 40
2459635.34890647
  9
$TDINDWG
 40
0.0065778588
  9
$TDUSRTIMER
 40
0.0000726968
  9
$USRTIMER
 70
     1
  9
$ANGBASE
 50
0.0
  9
$ANGDIR
 70
     0
  9
$PDMODE
 70
     0
  9
$PDSIZE
 40
-1.0
  9
$PLINEWID
 40
0.0
  9
$SPLFRAME
 70
     0
  9
$SPLINETYPE
 70
     6
  9
$SPLINESEGS
 70
     8
  9
$HANDSEED
  5
70A
  9
$SURFTAB1
 70
     6
  9
$SURFTAB2
 70
     6
  9
$SURFTYPE
 70
     6
  9
$SURFU
 70
     6
  9
$SURFV
 70
     6
  9
$UCSBASE
  2

  9
$UCSNAME
  2

  9
$UCSORG
 10
0.0
 20
0.0
 30
0.0
  9
$UCSXDIR
 10
1.0
 20
0.0
 30
0.0
  9
$UCSYDIR
 10
0.0
 20
1.0
 30
0.0
  9
$UCSORTHOREF
  2

  9
$UCSORTHOVIEW
 70
     0
  9
$UCSORGTOP
 10
0.0
 20
0.0
 30
0.0
  9
$UCSORGBOTTOM
 10
0.0
 20
0.0
 30
0.0
  9
$UCSORGLEFT
 10
0.0
 20
0.0
 30
0.0
  9
$UCSORGRIGHT
 10
0.0
 20
0.0
 30
0.0
  9
$UCSORGFRONT
 10
0.0
 20
0.0
 30
0.0
  9
$UCSORGBACK
 10
0.0
 20
0.0
 30
0.0
  9
$PUCSBASE
  2

  9
$PUCSNAME
  2

  9
$PUCSORG
 10
0.0
 20
0.0
 30
0.0
  9
$PUCSXDIR
 10
1.0
 20
0.0
 30
0.0
  9
$PUCSYDIR
 10
0.0
 20
1.0
 30
0.0
  9
$PUCSORTHOREF
  2

  9
$PUCSORTHOVIEW
 70
     0
  9
$PUCSORGTOP
 10
0.0
 20
0.0
 30
0.0
  9
$PUCSORGBOTTOM
 10
0.0
 20
0.0
 30
0.0
  9
$PUCSORGLEFT
 10
0.0
 20
0.0
 30
0.0
  9
$PUCSORGRIGHT
 10
0.0
 20
0.0
 30
0.0
  9
$PUCSORGFRONT
 10
0.0
 20
0.0
 30
0.0
  9
$PUCSORGBACK
 10
0.0
 20
0.0
 30
0.0
  9
$USERI1
 70
     0
  9
$USERI2
 70
     0
  9
$USERI3
 70
     0
  9
$USERI4
 70
     0
  9
$USERI5
 70
     0
  9
$USERR1
 40
0.0
  9
$USERR2
 40
0.0
  9
$USERR3
 40
0.0
  9
$USERR4
 40
0.0
  9
$USERR5
 40
0.0
  9
$WORLDVIEW
 70
     1
  9
$SHADEDGE
 70
     3
  9
$SHADEDIF
 70
    70
  9
$TILEMODE
 70
     1
  9
$MAXACTVP
 70
    64
  9
$PINSBASE
 10
0.0
 20
0.0
 30
0.0
  9
$PLIMCHECK
 70
     0
  9
$PEXTMIN
 10
1.000000000000000E+20
 20
1.000000000000000E+20
 30
1.000000000000000E+20
  9
$PEXTMAX
 10
-1.000000000000000E+20
 20
-1.000000000000000E+20
 30
-1.000000000000000E+20
  9
$PLIMMIN
 10
0.0
 20
0.0
  9
$PLIMMAX
 10
0.0
 20
0.0
  9
$UNITMODE
 70
     0
  9
$VISRETAIN
 70
     1
  9
$PLINEGEN
 70
     0
  9
$PSLTSCALE
 70
     1
  9
$TREEDEPTH
 70
  3020
  9
$CMLSTYLE
  2
Standard
  9
$CMLJUST
 70
     0
  9
$CMLSCALE
 40
20.0
  9
$PROXYGRAPHICS
 70
     1
  9
$MEASUREMENT
 70
     1
  9
$CELWEIGHT
370
    -1
  9
$ENDCAPS
280
     0
  9
$JOINSTYLE
280
     0
  9
$LWDISPLAY
290
     1
  9
$INSUNITS
 70
     4
  9
$HYPERLINKBASE
  1

  9
$STYLESHEET
  1

  9
$XEDIT
290
     1
  9
$CEPSNTYPE
380
     0
  9
$PSTYLEMODE
290
     1
  9
$FINGERPRINTGUID
  2
{0d375390-5716-4af1-a86c-5130061aa51d}
  9
$VERSIONGUID
  2
{FAEB1C32-E019-11D5-929B-00C0DF256EC4}
  9
$EXTNAMES
290
     1
  9
$PSVPSCALE
 40
0.0
  9
$OLESTARTUP
290
     0
  9
$SORTENTS
280
   127
  9
$INDEXCTL
280
     0
  9
$HIDETEXT
280
     1
  9
$XCLIPFRAME
280
     2
  9
$HALOGAP
280
     0
  9
$OBSCOLOR
 70
   257
  9
$OBSLTYPE
280
     0
  9
$INTERSECTIONDISPLAY
280
     0
  9
$INTERSECTIONCOLOR
 70
   257
  9
$DIMASSOC
280
     2
  9
$PROJECTNAME
  1

  9
$CAMERADISPLAY
290
     0
  9
$LENSLENGTH
 40
50.0
  9
$CAMERAHEIGHT
 40
0.0
  9
$STEPSPERSEC
 40
2.0
  9
$STEPSIZE
 40
6.0
  9
$3DDWFPREC
 40
2.0
  9
$PSOLWIDTH
 40
0.25
  9
$PSOLHEIGHT
 40
4.0
  9
$LOFTANG1
 40
1.570796326794897
  9
$LOFTANG2
 40
1.570796326794897
  9
$LOFTMAG1
 40
0.0
  9
$LOFTMAG2
 40
0.0
  9
$LOFTPARAM
 70
     7
  9
$LOFTNORMALS
280
     1
  9
$LATITUDE
 40
37.795
  9
$LONGITUDE
 40
-122.394
  9
$NORTHDIRECTION
 40
0.0
  9
$TIMEZONE
 70
 -8000
  9
$LIGHTGLYPHDISPLAY
280
     1
  9
$TILEMODELIGHTSYNCH
280
     1
  9
$SOLIDHIST
280
     0
  9
$SHOWHIST
280
     1
  9
$DWFFRAME
280
     2
  9
$DGNFRAME
280
     2
  9
$REALWORLDSCALE
290
     1
  9
$INTERFERECOLOR
 62
   256
  9
$CSHADOW
280
     0
  9
$SHADOWPLANELOCATION
 40
0.0
  0
ENDSEC
  0
SECTION
  2
CLASSES
  0
CLASS
  1
ACDBDICTIONARYWDFLT
  2
AcDbDictionaryWithDefault
  3
ObjectDBX Classes
 90
        0
 91
        3
280
     0
281
     0
  0
CLASS
  1
VISUALSTYLE
  2
AcDbVisualStyle
  3
ObjectDBX Classes
 90
     4095
 91
        3
280
     0
281
     0
  0
CLASS
  1
MATERIAL
  2
AcDbMaterial
  3
ObjectDBX Classes
 90
     1153
 91
        3
280
     0
281
     0
  0
CLASS
  1
SCALE
  2
AcDbScale
  3
ObjectDBX Classes
 90
     1153
 91
        3
280
     0
281
     0
  0
CLASS
  1
TABLESTYLE
  2
AcDbTableStyle
  3
ObjectDBX Classes
 90
     4095
 91
        3
280
     0
281
     0
  0
CLASS
  1
MLEADERSTYLE
  2
AcDbMLeaderStyle
  3
ACDB_MLEADERSTYLE_CLASS
 90
     4095
 91
        3
280
     0
281
     0
  0
CLASS
  1
SUN
  2
AcDbSun
  3
SCENEOE
 90
     1153
 91
        3
280
     0
281
     0
  0
CLASS
  1
ACDBPLACEHOLDER
  2
AcDbPlaceHolder
  3
ObjectDBX Classes
 90
        0
 91
        1
280
     0
281
     0
  0
CLASS
  1
LAYOUT
  2
AcDbLayout
  3
ObjectDBX Classes
 90
        0
 91
        1
280
     0
281
     0
  0
CLASS
  1
DICTIONARYVAR
  2
AcDbDictionaryVar
  3
ObjectDBX Classes
 90
        0
 91
        3
280
     0
281
     0
  0
CLASS
  1
CELLSTYLEMAP
  2
AcDbCellStyleMap
  3
ObjectDBX Classes
 90
     1152
 91
        3
280
     0
281
     0
  0
ENDSEC
  0
SECTION
  2
TABLES
  0
TABLE
  2
VPORT
  5
8
330
0
100
AcDbSymbolTable
 70
     1
  0
VPORT
  5
29
330
8
100
AcDbSymbolTableRecord
100
AcDbViewportTableRecord
  2
*Active
 70
     0
 10
0.0
 20
0.0
 11
1.0
 21
1.0
 12
154.4008558452803
 22
129.2338812043629
 13
0.0
 23
0.0
 14
10.0
 24
10.0
 15
10.0
 25
10.0
 16
0.0
 26
0.0
 36
1.0
 17
0.0
 27
0.0
 37
0.0
 40
357.3683400563725
 41
2.260623229461757
 42
50.0
 43
0.0
 44
0.0
 50
0.0
 51
0.0
 71
    16
 72
  2000
 73
     1
 74
     3
 75
     0
 76
     0
 77
     0
 78
     0
281
     0
 65
     1
110
0.0
120
0.0
130
0.0
111
1.0
121
0.0
131
0.0
112
0.0
122
1.0
132
0.0
 79
     0
146
0.0
348
17B
 60
     3
 61
     5
292
     1
282
     1
141
0.0
142
0.0
 63
   256
361
4A8
  0
ENDTAB
  0
TABLE
  2
LTYPE
  5
5
330
0
100
AcDbSymbolTable
 70
     6
  0
LTYPE
  5
14
330
5
100
AcDbSymbolTableRecord
100
AcDbLinetypeTableRecord
  2
ByBlock
 70
     0
  3

 72
    65
 73
     0
 40
0.0
  0
LTYPE
  5
15
330
5
100
AcDbSymbolTableRecord
100
AcDbLinetypeTableRecord
  2
ByLayer
 70
     0
  3

 72
    65
 73
     0
 40
0.0
  0
LTYPE
  5
16
330
5
100
AcDbSymbolTableRecord
100
AcDbLinetypeTableRecord
  2
Continuous
 70
     0
  3
Solid line
 72
    65
 73
     0
 40
0.0
  0
LTYPE
  5
6E
330
5
100
AcDbSymbolTableRecord
100
AcDbLinetypeTableRecord
  2
HIDDEN
 70
     0
  3
Hidden __ __ __ __ __ __ __ __ __ __ __ __ __ __
 72
    65
 73
     2
 40
1.905
 49
1.27
 74
     0
 49
-0.635
 74
     0
  0
LTYPE
  5
6F
330
5
100
AcDbSymbolTableRecord
100
AcDbLinetypeTableRecord
  2
PHANTOM
 70
     0
  3
Phantom ______  __  __  ______  __  __  ______
 72
    65
 73
     6
 40
12.7
 49
6.35
 74
     0
 49
-1.27
 74
     0
 49
1.27
 74
     0
 49
-1.27
 74
     0
 49
1.27
 74
     0
 49
-1.27
 74
     0
  0
LTYPE
  5
70
330
5
100
AcDbSymbolTableRecord
100
AcDbLinetypeTableRecord
  2
CENTER
 70
     0
  3
Center ____ _ ____ _ ____ _ ____ _ ____ _ ____
 72
    65
 73
     4
 40
10.16
 49
6.35
 74
     0
 49
-1.27
 74
     0
 49
1.27
 74
     0
 49
-1.27
 74
     0
  0
LTYPE
  5
71
330
5
100
AcDbSymbolTableRecord
100
AcDbLinetypeTableRecord
  2
CENTERX2
 70
     0
  3
Center (2x) ________  __  ________  __  _____
 72
    65
 73
     4
 40
20.32
 49
12.7
 74
     0
 49
-2.54
 74
     0
 49
2.54
 74
     0
 49
-2.54
 74
     0
  0
LTYPE
  5
72
330
5
100
AcDbSymbolTableRecord
100
AcDbLinetypeTableRecord
  2
DOT2
 70
     0
  3
Dot (.5x) ........................................
 72
    65
 73
     2
 40
0.635
 49
0.0
 74
     0
 49
-0.635
 74
     0
  0
ENDTAB
  0
TABLE
  2
LAYER
  5
2
102
{ACAD_XDICTIONARY
360
6C3
102
}
330
0
100
AcDbSymbolTable
 70
     2
  0
LAYER
  5
10
330
2
100
AcDbSymbolTableRecord
100
AcDbLayerTableRecord
  2
0
 70
     0
 62
     7
  6
Continuous
370
    -3
390
F
347
192
348
0
  0
LAYER
  5
73
330
2
100
AcDbSymbolTableRecord
100
AcDbLayerTableRecord
  2
FORMAT
 70
     0
 62
    -7
  6
Continuous
370
    -3
390
F
347
192
348
0
  0
ENDTAB
  0
TABLE
  2
STYLE
  5
3
330
0
100
AcDbSymbolTable
 70
     2
  0
STYLE
  5
11
330
3
100
AcDbSymbolTableRecord
100
AcDbTextStyleTableRecord
  2
Standard
 70
     0
 40
0.0
 41
1.0
 50
0.0
 71
     0
 42
3.5
  3
txt
  4
bigfont
  0
STYLE
  5
6AE
330
3
100
AcDbSymbolTableRecord
100
AcDbTextStyleTableRecord
  2
Arial
 70
     0
 40
0.0
 41
1.0
 50
0.0
 71
     0
 42
3.5
  3
Arial
  4

1001
ACAD
1000
Arial
1071
        0
  0
ENDTAB
  0
TABLE
  2
VIEW
  5
6
330
0
100
AcDbSymbolTable
 70
     0
  0
ENDTAB
  0
TABLE
  2
UCS
  5
7
330
0
100
AcDbSymbolTable
 70
     0
  0
ENDTAB
  0
TABLE
  2
APPID
  5
9
330
0
100
AcDbSymbolTable
 70
     2
  0
APPID
  5
12
330
9
100
AcDbSymbolTableRecord
100
AcDbRegAppTableRecord
  2
ACAD
 70
     0
  0
APPID
  5
6C2
330
9
100
AcDbSymbolTableRecord
100
AcDbRegAppTableRecord
  2
PLOTTRANSPARENCY
 70
     0
  0
ENDTAB
  0
TABLE
  2
DIMSTYLE
  5
A
330
0
100
AcDbSymbolTable
 70
     2
100
AcDbDimStyleTable
  0
DIMSTYLE
105
27
330
A
100
AcDbSymbolTableRecord
100
AcDbDimStyleTableRecord
  2
ISO-25
 70
     0
 41
2.5
 42
0.625
 43
3.75
 44
1.25
 73
     0
 74
     0
 77
     1
 78
     8
140
2.5
141
2.5
143
0.03937007874016
147
0.625
171
     3
172
     1
178
     0
271
     2
272
     2
274
     3
278
    44
283
     0
284
     8
340
11
  0
DIMSTYLE
105
6AD
330
A
100
AcDbSymbolTableRecord
100
AcDbDimStyleTableRecord
  2
Standard
 70
     0
178
     0
340
11
  0
ENDTAB
  0
TABLE
  2
BLOCK_RECORD
  5
1
330
0
100
AcDbSymbolTable
 70
     2
  0
BLOCK_RECORD
  5
1F
330
1
100
AcDbSymbolTableRecord
100
AcDbBlockTableRecord
  2
*Model_Space
340
22
 70
     0
280
     1
281
     0
  0
BLOCK_RECORD
  5
1B
330
1
100
AcDbSymbolTableRecord
100
AcDbBlockTableRecord
  2
*Paper_Space
340
1E
 70
     0
280
     1
281
     0
  0
BLOCK_RECORD
  5
23
330
1
100
AcDbSymbolTableRecord
100
AcDbBlockTableRecord
  2
*Paper_Space0
340
26
 70
     0
280
     1
281
     0
  0
BLOCK_RECORD
  5
74
330
1
100
AcDbSymbolTableRecord
100
AcDbBlockTableRecord
  2
SW_BROKEN_VIEW_0
340
0
102
{BLKREFS
331
77
102
}
 70
     0
280
     1
281
     0
  0
ENDTAB
  0
ENDSEC
  0
SECTION
  2
BLOCKS
  0
BLOCK
  5
20
330
1F
100
AcDbEntity
  8
0
100
AcDbBlockBegin
  2
*Model_Space
 70
     0
 10
0.0
 20
0.0
 30
0.0
  3
*Model_Space
  1

  0
ENDBLK
  5
21
330
1F
100
AcDbEntity
  8
0
100
AcDbBlockEnd
  0
BLOCK
  5
1C
330
1B
100
AcDbEntity
 67
     1
  8
0
100
AcDbBlockBegin
  2
*Paper_Space
 70
     0
 10
0.0
 20
0.0
 30
0.0
  3
*Paper_Space
  1

  0
ENDBLK
  5
1D
330
1B
100
AcDbEntity
 67
     1
  8
0
100
AcDbBlockEnd
  0
BLOCK
  5
24
330
23
100
AcDbEntity
  8
0
100
AcDbBlockBegin
  2
*Paper_Space0
 70
     0
 10
0.0
 20
0.0
 30
0.0
  3
*Paper_Space0
  1

  0
ENDBLK
  5
25
330
23
100
AcDbEntity
  8
0
100
AcDbBlockEnd
  0
BLOCK
  5
75
330
74
100
AcDbEntity
  8
0
100
AcDbBlockBegin
  2
SW_BROKEN_VIEW_0
 70
     0
 10
0.0
 20
0.0
 30
0.0
  3
SW_BROKEN_VIEW_0
  1

  0
ENDBLK
  5
76
330
74
100
AcDbEntity
  8
0
100
AcDbBlockEnd
  0
ENDSEC
  0
SECTION
  2
ENTITIES
  0
INSERT
  5
77
330
1F
100
AcDbEntity
  8
0
  6
Continuous
 62
     7
100
AcDbBlockReference
  2
SW_BROKEN_VIEW_0
 10
0.0
 20
0.0
 30
0.0
  0
LINE
  5
78
330
1F
100
AcDbEntity
  8
0
  6
Continuous
 62
     0
370
     0
100
AcDbLine
 10
274.2485980642327
 20
115.0048770926495
 30
0.0
 11
276.1321596754083
 21
115.2572239361305
 31
0.0
  0
LINE
  5
79
330
1F
100
AcDbEntity
  8
0
  6
Continuous
 62
     0
370
     0
100
AcDbLine
 10
276.1062638414392
 20
115.4504973612327
 30
0.0
 11
274.2227022302636
 21
115.1981485806007
 31
0.0
  0
LINE
  5
7A
330
1F
100
AcDbEntity
  8
0
  6
Continuous
 62
     0
370
     0
100
AcDbLine
 10
276.1229078424462
 20
115.4304904661674
 30
0.0
 11
276.1321596754083
 21
115.4317283056278
 31
0.0
  0
LINE
  5
7B
330
1F
100
AcDbEntity
  8
0
  6
Continuous
 62
     0
370
     0
100
AcDbLine
 10
276.1062638414392
 20
115.62500173073
 30
0.0
 11
274.2227022302636
 21
115.372652950098
 31
0.0
  0
LINE
  5
7C
330
1F
100
AcDbEntity
  8
0
  6
Continuous
 62
     0
370
     0
100
AcDbLine
 10
272.0224861753472
 20
114.6463298223514
 30
0.0
 11
274.2680160654077
 21
114.9471732399959
 31
0.0
  0
LINE
  5
7D
330
1F
100
AcDbEntity
  8
0
  6
Continuous
 62
     0
370
     0
100
AcDbLine
 10
274.2032842290887
 20
115.4303568027515
 30
0.0
 11
271.8496923101434
 21
115.1150351188679
 31
0.0
  0
LWPOLYLINE
  5
7E
330
1F
100
AcDbEntity
  8
0
  6
Continuous
 62
     0
370
     0
100
AcDbPolyline
 90
       17
 70
   128
 43
0.0
 10
276.0958962095269
 20
115.4296787999172
 10
276.0939745557794
 20
115.4009508512516
 10
276.0958962095269
 20
115.3650535069008
 10
276.1013667238244
 20
115.3274514697094
 10
276.1095492494592
 20
115.293870957901
 10
276.1192040098199
 20
115.2694241128464
 10
276.1288587701806
 20
115.2578322015304
 10
276.137056793023
 20
115.2608580313225
 10
276.1425273073205
 20
115.278044434597
 10
276.1444489610681
 20
115.3067723832626
 10
276.1425273073205
 20
115.3426697276134
 10
276.137056793023
 20
115.3802717648048
 10
276.1288587701806
 20
115.4138522766132
 10
276.1192040098199
 20
115.4382991216679
 10
276.1095492494592
 20
115.4498910329838
 10
276.1013667238244
 20
115.4468652031917
 10
276.0958962095269
 20
115.4296787999172
  0
ARC
  5
7F
330
1F
100
AcDbEntity
  8
0
  6
Continuous
 62
     0
370
     0
100
AcDbCircle
 10
274.3819108258187
 20
115.1172309110607
 30
0.0
 40
0.1743435485278732
100
AcDbArc
 50
169.6338080240757
 51
220.1236422582092
  0
LWPOLYLINE
  5
80
330
1F
100
AcDbEntity
  8
0
  6
Continuous
 62
     0
370
     0
100
AcDbPolyline
 90
        4
 70
   128
 43
0.0
 10
274.2227022302636
 20
115.1981485806007
 10
274.2178051126489
 20
115.1945164225597
 10
274.2123345983514
 20
115.1773300192852
 10
274.2104129446038
 20
115.1486020706196
  0
ARC
  5
81
330
1F
100
AcDbEntity
  8
0
  6
Continuous
 62
     0
370
     0
100
AcDbCircle
 10
274.5633491936615
 20
115.3208234245622
 30
0.0
 40
0.3529436329768384
100
AcDbArc
 50
179.6293797200566
 51
200.1246467112844
  0
LWPOLYLINE
  5
82
330
1F
100
AcDbEntity
  8
0
  6
Continuous
 62
     0
370
     0
100
AcDbPolyline
 90
        4
 70
   128
 43
0.0
 10
274.2227022302636
 20
115.372652950098
 10
274.2178051126489
 20
115.369020792057
 10
274.2123345983514
 20
115.3518343887825
 10
274.2104129446038
 20
115.3231064401169
  0
LWPOLYLINE
  5
83
330
1F
100
AcDbEntity
  8
0
  6
Continuous
 62
     0
370
     0
100
AcDbPolyline
 90
       17
 70
   128
 43
0.0
 10
276.0958962095269
 20
115.6041831694145
 10
276.0939745557794
 20
115.5754552207489
 10
276.0958962095269
 20
115.5395578763981
 10
276.1013667238244
 20
115.5019558392067
 10
276.1095492494592
 20
115.4683753273983
 10
276.1192040098199
 20
115.4439284823437
 10
276.1288587701806
 20
115.4323346338768
 10
276.137056793023
 20
115.4353624008198
 10
276.1425273073205
 20
115.4525488040944
 10
276.1444489610681
 20
115.48127675276
 10
276.1425273073205
 20
115.5171740971107
 10
276.137056793023
 20
115.5547741971512
 10
276.1288587701806
 20
115.5883547089596
 10
276.1192040098199
 20
115.6128034911652
 10
276.1095492494592
 20
115.6243954024811
 10
276.1013667238244
 20
115.621369572689
 10
276.0958962095269
 20
115.6041831694145
  0
LWPOLYLINE
  5
84
330
1F
100
AcDbEntity
  8
0
  6
Continuous
 62
     0
370
     0
100
AcDbPolyline
 90
       10
 70
   128
 43
0.0
 10
274.172568763543
 20
115.3064876220723
 10
274.1756527078637
 20
115.2354929767151
 10
274.1846100938806
 20
115.1599266551037
 10
274.1985730779656
 20
115.0871827624341
 10
274.2161624086389
 20
115.0243803284665
 10
274.235657895852
 20
114.9776717446346
 10
274.2551533830651
 20
114.951624812891
 10
274.2727427137384
 20
114.9487907610435
 10
274.2866902006158
 20
114.9694485388298
 10
274.2956010950097
 20
115.0111728332539
  0
LWPOLYLINE
  5
85
330
1F
100
AcDbEntity
  8
0
  6
Continuous
 62
     0
370
     0
100
AcDbPolyline
 90
        7
 70
   128
 43
0.0
 10
274.2467383993157
 20
115.3758744321365
 10
274.235657895852
 20
115.3998582981129
 10
274.2161624086389
 20
115.4259052298565
 10
274.1985730779656
 20
115.4287392817039
 10
274.1846100938806
 20
115.4080815039177
 10
274.1756527078637
 20
115.3659562192459
 10
274.172568763543
 20
115.3064876220723
  0
LINE
  5
86
330
1F
100
AcDbEntity
  8
0
  6
Continuous
 62
     0
370
     0
100
AcDbLine
 10
259.2137944037235
 20
113.2361739795292
 30
0.0
 11
260.1555752093112
 21
113.3623483698452
 31
0.0
  0
LINE
  5
87
330
1F
100
AcDbEntity
  8
0
  6
Continuous
 62
     0
370
     0
100
AcDbLine
 10
260.1400470072543
 20
113.9928503255928
 30
0.0
 11
259.1982662016666
 21
113.8666759352768
 31
0.0
  0
LINE
  5
88
330
1F
100
AcDbEntity
  8
0
  6
Continuous
 62
     0
370
     0
100
AcDbLine
 10
211.1830043131625
 20
106.8012684505069
 30
0.0
 11
212.1247851187503
 21
106.9274428408229
 31
0.0
  0
LINE
  5
89
330
1F
100
AcDbEntity
  8
0
  6
Continuous
 62
     0
370
     0
100
AcDbLine
 10
212.1092569166934
 20
107.5579447965706
 30
0.0
 11
211.1674761111056
 21
107.4317704062545
 31
0.0
  0
LINE
  5
8A
330
1F
100
AcDbEntity
  8
0
  6
Continuous
 62
     0
370
     0
100
AcDbLine
 10
204.3267142111575
 20
105.4610951166237
 30
0.0
 11
267.1118920380389
 21
113.8727140348041
 31
0.0
  0
LINE
  5
8B
330
1F
100
AcDbEntity
  8
0
  6
Continuous
 62
     0
370
     0
100
AcDbLine
 10
268.4563910300052
 20
114.1685615401352
 30
0.0
 11
271.6504895026004
 21
114.5964898090446
 31
0.0
  0
LINE
  5
8C
330
1F
100
AcDbEntity
  8
0
  6
Continuous
 62
     0
370
     0
100
AcDbLine
 10
271.4777033860004
 20
115.0651980112875
 30
0.0
 11
268.3916514450824
 21
114.6517451028907
 31
0.0
  0
LINE
  5
8D
330
1F
100
AcDbEntity
  8
0
  6
Continuous
 62
     0
370
     0
100
AcDbLine
 10
268.3684598738467
 20
114.413828096875
 30
0.0
 11
268.1432234579837
 21
114.3836530964458
 31
0.0
  0
LINE
  5
8E
330
1F
100
AcDbEntity
  8
0
  6
Continuous
 62
     0
370
     0
100
AcDbLine
 10
268.1691192919528
 20
114.1903796713436
 30
0.0
 11
268.4129291111743
 21
114.2230439107502
 31
0.0
  0
LINE
  5
8F
330
1F
100
AcDbEntity
  8
0
  6
Continuous
 62
     0
370
     0
100
AcDbLine
 10
268.0295204455173
 20
114.3534955303753
 30
0.0
 11
267.8038578564441
 21
114.2625637273872
 31
0.0
  0
LINE
  5
90
330
1F
100
AcDbEntity
  8
0
  6
Continuous
 62
     0
370
     0
100
AcDbLine
 10
267.8767412239825
 20
114.0816958170021
 30
0.0
 11
268.1024038130557
 21
114.1726256828392
 31
0.0
  0
SPLINE
  5
91
330
1F
100
AcDbEntity
  8
0
  6
Continuous
 62
     0
370
     0
100
AcDbSpline
210
0.0
220
0.0
230
1.0
 70
     8
 71
     3
 72
     9
 73
     5
 74
     0
 42
0.000000001
 43
0.00000001
 40
0.0
 40
0.0
 40
0.0
 40
0.0
 40
0.4557884769620172
 40
1.0
 40
1.0
 40
1.0
 40
1.0
 10
268.1024038130557
 20
114.1726256828392
 30
0.0
 10
268.1122747785254
 20
114.1762975104137
 30
0.0
 10
268.1339316785319
 20
114.1843535007692
 30
0.0
 10
268.1567184618812
 20
114.188255926366
 30
0.0
 10
268.1691192919528
 20
114.1903796713436
 30
0.0
  0
SPLINE
  5
92
330
1F
100
AcDbEntity
  8
0
  6
Continuous
 62
     0
370
     0
100
AcDbSpline
210
0.0
220
0.0
230
1.0
 70
     8
 71
     3
 72
     9
 73
     5
 74
     0
 42
0.000000001
 43
0.00000001
 40
0.0
 40
0.0
 40
0.0
 40
0.0
 40
0.4488556504486779
 40
1.0
 40
1.0
 40
1.0
 40
1.0
 10
268.1432234579837
 20
114.3836530964458
 30
0.0
 10
268.1257843386152
 20
114.3807936131956
 30
0.0
 10
268.0869319384036
 20
114.374423005524
 30
0.0
 10
268.0499195914206
 20
114.3609313693943
 30
0.0
 10
268.0295204455173
 20
114.3534955303753
 30
0.0
  0
LINE
  5
93
330
1F
100
AcDbEntity
  8
0
  6
Continuous
 62
     0
370
     0
100
AcDbLine
 10
204.4068812662875
 20
105.3716762285316
 30
0.0
 11
267.1920513445651
 21
113.7832951467121
 31
0.0
  0
SPLINE
  5
94
330
1F
100
AcDbEntity
  8
0
  6
Continuous
 62
     0
370
     0
100
AcDbSpline
210
0.0
220
0.0
230
1.0
 70
     8
 71
     3
 72
     9
 73
     5
 74
     0
 42
0.000000001
 43
0.00000001
 40
0.0
 40
0.0
 40
0.0
 40
0.0
 40
0.4488200692166397
 40
1.0
 40
1.0
 40
1.0
 40
1.0
 10
267.7630459601199
 20
114.0515382509315
 30
0.0
 10
267.7804824482876
 20
114.0543979485887
 30
0.0
 10
267.819332066127
 20
114.0607695390172
 30
0.0
 10
267.8563420587889
 20
114.0742600938972
 30
0.0
 10
267.8767412239825
 20
114.0816958170021
 30
0.0
  0
SPLINE
  5
95
330
1F
100
AcDbEntity
  8
0
  6
Continuous
 62
     0
370
     0
100
AcDbSpline
210
0.0
220
0.0
230
1.0
 70
     8
 71
     3
 72
     9
 73
     5
 74
     0
 42
0.000000001
 43
0.00000001
 40
0.0
 40
0.0
 40
0.0
 40
0.0
 40
0.4558335810209669
 40
0.9999999999999999
 40
0.9999999999999999
 40
0.9999999999999999
 40
0.9999999999999999
 10
267.8038578564441
 20
114.2625637273872
 30
0.0
 10
267.7939868321947
 20
114.2588927521922
 30
0.0
 10
267.7723319461568
 20
114.2508394289007
 30
0.0
 10
267.7495482490283
 20
114.2469358646262
 30
0.0
 10
267.7371501261508
 20
114.2448116760337
 30
0.0
  0
LINE
  5
96
330
1F
100
AcDbEntity
  8
0
  6
Continuous
 62
     0
370
     0
100
AcDbLine
 10
268.3640664154804
 20
114.5877435724819
 30
0.0
 11
268.1432234579837
 21
114.5581574659431
 31
0.0
  0
LINE
  5
97
330
1F
100
AcDbEntity
  8
0
  6
Continuous
 62
     0
370
     0
100
AcDbLine
 10
267.7371501261508
 20
114.2448116760337
 30
0.0
 11
267.1553694540775
 21
114.1668684702003
 31
0.0
  0
LINE
  5
98
330
1F
100
AcDbEntity
  8
0
  6
Continuous
 62
     0
370
     0
100
AcDbLine
 10
267.1812652880466
 20
113.9735950450981
 30
0.0
 11
267.7630459601199
 21
114.0515382509315
 31
0.0
  0
SPLINE
  5
99
330
1F
100
AcDbEntity
  8
0
  6
Continuous
 62
     0
370
     0
100
AcDbSpline
210
0.0
220
0.0
230
1.0
 70
     8
 71
     3
 72
     9
 73
     5
 74
     0
 42
0.000000001
 43
0.00000001
 40
0.0
 40
0.0
 40
0.0
 40
0.0
 40
0.461732305006084
 40
1.0
 40
1.0
 40
1.0
 40
1.0
 10
268.1432234579837
 20
114.5581574659431
 30
0.0
 10
268.1333492026995
 20
114.5571096410812
 30
0.0
 10
268.1119639645926
 20
114.5548403069876
 30
0.0
 10
268.0905416942172
 20
114.5568481338131
 30
0.0
 10
268.0790107781207
 20
114.5579288821304
 30
0.0
  0
LINE
  5
9A
330
1F
100
AcDbEntity
  8
0
  6
Continuous
 62
     0
370
     0
100
AcDbLine
 10
268.0790107781207
 20
114.5579288821304
 30
0.0
 11
267.8533481890476
 21
114.5883925180519
 31
0.0
  0
LINE
  5
9B
330
1F
100
AcDbEntity
  8
0
  6
Continuous
 62
     0
370
     0
100
AcDbLine
 10
267.8272586399829
 20
114.395146213063
 30
0.0
 11
268.0529212290561
 21
114.3646806399906
 31
0.0
  0
SPLINE
  5
9C
330
1F
100
AcDbEntity
  8
0
  6
Continuous
 62
     0
370
     0
100
AcDbSpline
210
0.0
220
0.0
230
1.0
 70
     8
 71
     3
 72
     9
 73
     5
 74
     0
 42
0.000000001
 43
0.00000001
 40
0.0
 40
0.0
 40
0.0
 40
0.0
 40
0.4617323050059549
 40
0.9999999999999999
 40
0.9999999999999999
 40
0.9999999999999999
 40
0.9999999999999999
 10
267.7630459601199
 20
114.3949176292503
 30
0.0
 10
267.772920215404
 20
114.3959654541121
 30
0.0
 10
267.7943054535109
 20
114.3982347882058
 30
0.0
 10
267.8157277238863
 20
114.3962269613803
 30
0.0
 10
267.8272586399829
 20
114.395146213063
 30
0.0
  0
SPLINE
  5
9D
330
1F
100
AcDbEntity
  8
0
  6
Continuous
 62
     0
370
     0
100
AcDbSpline
210
0.0
220
0.0
230
1.0
 70
     8
 71
     3
 72
     9
 73
     5
 74
     0
 42
0.000000001
 43
0.00000001
 40
0.0
 40
0.0
 40
0.0
 40
0.0
 40
0.4482252246700886
 40
0.9999999999999999
 40
0.9999999999999999
 40
0.9999999999999999
 40
0.9999999999999999
 10
267.8533481890476
 20
114.5883925180519
 30
0.0
 10
267.8359966117087
 20
114.5901671442756
 30
0.0
 10
267.7972848739843
 20
114.5941263730876
 30
0.0
 10
267.7585326344264
 20
114.5903015147193
 30
0.0
 10
267.7371501261508
 20
114.5881910543525
 30
0.0
  0
LINE
  5
9E
330
1F
100
AcDbEntity
  8
0
  6
Continuous
 62
     0
370
     0
100
AcDbLine
 10
267.7371501261508
 20
114.5881910543525
 30
0.0
 11
267.1553694540775
 21
114.5102478485191
 31
0.0
  0
LINE
  5
9F
330
1F
100
AcDbEntity
  8
0
  6
Continuous
 62
     0
370
     0
100
AcDbLine
 10
267.1812652880466
 20
114.3169744234169
 30
0.0
 11
267.7630459601199
 21
114.3949176292503
 31
0.0
  0
LINE
  5
A0
330
1F
100
AcDbEntity
  8
0
  6
Continuous
 62
     0
370
     0
100
AcDbLine
 10
260.1946591669833
 20
113.9938712041462
 30
0.0
 11
260.1946591669833
 21
113.8249322693432
 31
0.0
  0
LINE
  5
A1
330
1F
100
AcDbEntity
  8
0
  6
Continuous
 62
     0
370
     0
100
AcDbLine
 10
260.186244183234
 20
113.8238048474872
 30
0.0
 11
260.1688253218448
 21
113.8563160519683
 31
0.0
  0
LWPOLYLINE
  5
A2
330
1F
100
AcDbEntity
  8
0
  6
Continuous
 62
     0
370
     0
100
AcDbPolyline
 90
        9
 70
   128
 43
0.0
 10
260.1654624277866
 20
113.8505414049709
 10
260.1654934222018
 20
113.8528020601356
 10
260.1656483942783
 20
113.8547372739399
 10
260.1659428412235
 20
113.8562676231945
 10
260.1663612658298
 20
113.8573291819179
 10
260.166872673682
 20
113.8578754584873
 10
260.16747706478
 20
113.857887081393
 10
260.1681434447086
 20
113.8573582391822
 10
260.1688253218448
 20
113.8563160519683
  0
LINE
  5
A3
330
1F
100
AcDbEntity
  8
0
  6
Continuous
 62
     0
370
     0
100
AcDbLine
 10
260.1654624277866
 20
113.8505414049709
 30
0.0
 11
260.1694142157352
 21
113.652409605273
 31
0.0
  0
LINE
  5
A4
330
1F
100
AcDbEntity
  8
0
  6
Continuous
 62
     0
370
     0
100
AcDbLine
 10
260.1722192103183
 20
113.5123923342312
 30
0.0
 11
260.172622137717
 21
113.4920619349563
 31
0.0
  0
ARC
  5
A5
330
1F
100
AcDbEntity
  8
0
  6
Continuous
 62
     0
370
     0
100
AcDbCircle
 10
260.2563501966198
 20
113.4943191420266
 30
0.0
 40
0.0837584791612567
100
AcDbArc
 50
181.5442507925677
 51
192.8311372653825
  0
LINE
  5
A6
330
1F
100
AcDbEntity
  8
0
  6
Continuous
 62
     0
370
     0
100
AcDbLine
 10
260.1746832663333
 20
113.4757181923473
 30
0.0
 11
260.186244183234
 21
113.4260322074974
 31
0.0
  0
LINE
  5
A7
330
1F
100
AcDbEntity
  8
0
  6
Continuous
 62
     0
370
     0
100
AcDbLine
 10
260.186244183234
 20
113.4260322074974
 30
0.0
 11
260.186244183234
 21
113.4091441254699
 31
0.0
  0
LINE
  5
A8
330
1F
100
AcDbEntity
  8
0
  6
Continuous
 62
     0
370
     0
100
AcDbLine
 10
260.186244183234
 20
113.4091441254699
 30
0.0
 11
260.1562570864475
 21
113.3628655891502
 31
0.0
  0
LWPOLYLINE
  5
A9
330
1F
100
AcDbEntity
  8
0
  6
Continuous
 62
     0
370
     0
100
AcDbPolyline
 90
        9
 70
   128
 43
0.0
 10
260.1504921252048
 20
113.3807164352024
 10
260.1506935889041
 20
113.3771908204639
 10
260.1511585051334
 20
113.3735024850452
 10
260.1518403822696
 20
113.3699574987972
 10
260.1526772314822
 20
113.3668425600612
 10
260.1536225611484
 20
113.3644153099144
 10
260.1545833880222
 20
113.362873337754
 10
260.1554822260654
 20
113.3623425583923
 10
260.1562570864475
 20
113.3628655891502
  0
LINE
  5
AA
330
1F
100
AcDbEntity
  8
0
  6
Continuous
 62
     0
370
     0
100
AcDbLine
 10
260.1504921252048
 20
113.3807164352024
 30
0.0
 11
260.138419800452
 21
113.9854504089439
 31
0.0
  0
LWPOLYLINE
  5
AB
330
1F
100
AcDbEntity
  8
0
  6
Continuous
 62
     0
370
     0
100
AcDbPolyline
 90
        9
 70
   128
 43
0.0
 10
260.1417671973026
 20
113.9912250559414
 10
260.1410853201663
 20
113.9922672431553
 10
260.1404344374454
 20
113.9927941482151
 10
260.1398300463474
 20
113.9927844624603
 10
260.1393186384952
 20
113.99223624874
 10
260.1389002138889
 20
113.9911766271675
 10
260.1386057669437
 20
113.9896462779129
 10
260.1384352976596
 20
113.9877091269577
 10
260.138419800452
 20
113.9854504089439
  0
LINE
  5
AC
330
1F
100
AcDbEntity
  8
0
  6
Continuous
 62
     0
370
     0
100
AcDbLine
 10
260.1417671973026
 20
113.9912250559414
 30
0.0
 11
260.1694142157352
 21
113.9396348517025
 31
0.0
  0
LINE
  5
AD
330
1F
100
AcDbEntity
  8
0
  6
Continuous
 62
     0
370
     0
100
AcDbLine
 10
260.1694142157352
 20
113.9396348517025
 30
0.0
 11
260.1694142157352
 21
114.0522181909168
 31
0.0
  0
LINE
  5
AE
330
1F
100
AcDbEntity
  8
0
  6
Continuous
 62
     0
370
     0
100
AcDbLine
 10
260.1980220610416
 20
113.998851619252
 30
0.0
 11
260.1694142157352
 21
114.0522181909168
 31
0.0
  0
LWPOLYLINE
  5
AF
330
1F
100
AcDbEntity
  8
0
  6
Continuous
 62
     0
370
     0
100
AcDbPolyline
 90
        9
 70
   128
 43
0.0
 10
260.1946591669833
 20
113.9938712041462
 10
260.1947211558139
 20
113.9959478299701
 10
260.1949071223056
 20
113.9977009515846
 10
260.1952170664584
 20
113.999068580159
 10
260.1956354910648
 20
113.9999926011646
 10
260.1961468989169
 20
114.0004420201862
 10
260.1967357928073
 20
114.0003974657142
 10
260.1973711783206
 20
113.9998589377487
 10
260.1980220610416
 20
113.998851619252
  0
LINE
  5
B0
330
1F
100
AcDbEntity
  8
0
  6
Continuous
 62
     0
370
     0
100
AcDbLine
 10
259.208711319617
 20
113.2545420448864
 30
0.0
 11
260.1504921252048
 21
113.3807164352024
 31
0.0
  0
LINE
  5
B1
330
1F
100
AcDbEntity
  8
0
  6
Continuous
 62
     0
370
     0
100
AcDbLine
 10
259.208711319617
 20
113.2545420448864
 30
0.0
 11
259.1966389948642
 21
113.8592760186279
 31
0.0
  0
LINE
  5
B2
330
1F
100
AcDbEntity
  8
0
  6
Continuous
 62
     0
370
     0
100
AcDbLine
 10
260.138419800452
 20
113.9854504089439
 30
0.0
 11
259.1966389948642
 21
113.8592760186279
 31
0.0
  0
ARC
  5
B3
330
1F
100
AcDbEntity
  8
0
  6
Continuous
 62
     0
370
     0
100
AcDbCircle
 10
259.2313388667933
 20
113.2509165101452
 30
0.0
 40
0.0229161600923018
100
AcDbArc
 50
170.8970648940159
 51
220.0401792157169
  0
LINE
  5
B4
330
1F
100
AcDbEntity
  8
0
  6
Continuous
 62
     0
370
     0
100
AcDbLine
 10
260.9126138026035
 20
113.9211195628727
 30
0.0
 11
260.8309125239169
 21
114.0735500972355
 31
0.0
  0
LINE
  5
B5
330
1F
100
AcDbEntity
  8
0
  6
Continuous
 62
     0
370
     0
100
AcDbLine
 10
260.8309125239169
 20
114.1861334364498
 30
0.0
 11
260.8309125239169
 21
114.0735500972355
 31
0.0
  0
LINE
  5
B6
330
1F
100
AcDbEntity
  8
0
  6
Continuous
 62
     0
370
     0
100
AcDbLine
 10
260.8309125239169
 20
114.1861334364498
 30
0.0
 11
260.9688996607578
 21
113.9286608915413
 31
0.0
  0
LINE
  5
B7
330
1F
100
AcDbEntity
  8
0
  6
Continuous
 62
     0
370
     0
100
AcDbLine
 10
258.7253689104831
 20
113.858751050719
 30
0.0
 11
259.227648907355
 21
113.9260438006008
 31
0.0
  0
LINE
  5
B8
330
1F
100
AcDbEntity
  8
0
  6
Continuous
 62
     0
370
     0
100
AcDbLine
 10
258.7253689104831
 20
113.9713343899334
 30
0.0
 11
258.7253689104831
 21
113.858751050719
 31
0.0
  0
LINE
  5
B9
330
1F
100
AcDbEntity
  8
0
  6
Continuous
 62
     0
370
     0
100
AcDbLine
 10
258.7253689104831
 20
113.9713343899334
 30
0.0
 11
260.6717097098148
 21
114.2320942800129
 31
0.0
  0
LINE
  5
BA
330
1F
100
AcDbEntity
  8
0
  6
Continuous
 62
     0
370
     0
100
AcDbLine
 10
260.6717097098148
 20
114.1195109407985
 30
0.0
 11
260.6717097098148
 21
114.2320942800129
 31
0.0
  0
LINE
  5
BB
330
1F
100
AcDbEntity
  8
0
  6
Continuous
 62
     0
370
     0
100
AcDbLine
 10
260.6717097098148
 20
114.1195109407985
 30
0.0
 11
260.1694142157352
 21
114.0522181909168
 31
0.0
  0
LINE
  5
BC
330
1F
100
AcDbEntity
  8
0
  6
Continuous
 62
     0
370
     0
100
AcDbLine
 10
259.227648907355
 20
113.8706122260177
 30
0.0
 11
259.227648907355
 21
113.9260438006008
 31
0.0
  0
LWPOLYLINE
  5
BD
330
1F
100
AcDbEntity
  8
0
  6
Continuous
 62
     0
370
     0
100
AcDbPolyline
 90
        7
 70
   128
 43
0.0
 10
259.1966389948642
 20
113.8592760186279
 10
259.1966699892795
 20
113.8615347366417
 10
259.1968249613559
 20
113.8634718875969
 10
259.1971194083011
 20
113.8650022368515
 10
259.1975378329074
 20
113.866061858424
 10
259.1980492407596
 20
113.8666100721443
 10
259.1982662016666
 20
113.8666759352768
  0
LINE
  5
BE
330
1F
100
AcDbEntity
  8
0
  6
Continuous
 62
     0
370
     0
100
AcDbLine
 10
260.6717097098148
 20
114.2320942800129
 30
0.0
 11
260.8309125239169
 21
114.1861334364498
 31
0.0
  0
LINE
  5
BF
330
1F
100
AcDbEntity
  8
0
  6
Continuous
 62
     0
370
     0
100
AcDbLine
 10
260.8309125239169
 20
114.0735500972355
 30
0.0
 11
260.6717097098148
 21
114.1195109407985
 31
0.0
  0
LINE
  5
C0
330
1F
100
AcDbEntity
  8
0
  6
Continuous
 62
     0
370
     0
100
AcDbLine
 10
258.715125256232
 20
113.6267132978523
 30
0.0
 11
258.6334394747531
 21
113.7791438322151
 31
0.0
  0
LINE
  5
C1
330
1F
100
AcDbEntity
  8
0
  6
Continuous
 62
     0
370
     0
100
AcDbLine
 10
258.7253689104831
 20
113.858751050719
 30
0.0
 11
258.6334394747531
 21
113.7791438322151
 31
0.0
  0
LINE
  5
C2
330
1F
100
AcDbEntity
  8
0
  6
Continuous
 62
     0
370
     0
100
AcDbLine
 10
259.1703247362888
 20
113.6876967470729
 30
0.0
 11
259.1138684088504
 21
113.7930390160167
 31
0.0
  0
LWPOLYLINE
  5
C3
330
1F
100
AcDbEntity
  8
0
  6
Continuous
 62
     0
370
     0
100
AcDbPolyline
 90
        9
 70
   128
 43
0.0
 10
259.1138684088504
 20
113.7930390160167
 10
259.0886234576022
 20
113.8186287801349
 10
259.0457271868503
 20
113.8374404530609
 10
258.991688423804
 20
113.8466109256828
 10
258.9347516829288
 20
113.8447454493129
 10
258.8835644060886
 20
113.8321268479908
 10
258.8459371859348
 20
113.8106748383129
 10
258.8276039892947
 20
113.7836573939407
 10
258.8313388163364
 20
113.7551851492012
  0
LINE
  5
C4
330
1F
100
AcDbEntity
  8
0
  6
Continuous
 62
     0
370
     0
100
AcDbLine
 10
258.8313388163364
 20
113.7551851492012
 30
0.0
 11
258.8877796465671
 21
113.6498448174083
 31
0.0
  0
LINE
  5
C5
330
1F
100
AcDbEntity
  8
0
  6
Continuous
 62
     0
370
     0
100
AcDbLine
 10
260.4430174166476
 20
113.8869947116459
 30
0.0
 11
260.4680299097812
 21
113.8615560453022
 31
0.0
  0
LWPOLYLINE
  5
C6
330
1F
100
AcDbEntity
  8
0
  6
Continuous
 62
     0
370
     0
100
AcDbPolyline
 90
       10
 70
   128
 43
0.0
 10
260.7293283278262
 20
113.8965661745155
 10
260.7255470091617
 20
113.9248466413105
 10
260.7003175551212
 20
113.9504364054287
 10
260.6574057871616
 20
113.9692500155056
 10
260.6033825213229
 20
113.9784204881275
 10
260.5464302832401
 20
113.9765550117576
 10
260.4952585036075
 20
113.9639344732845
 10
260.4576312834537
 20
113.9424844007576
 10
260.439282589606
 20
113.9154650192344
 10
260.4430174166476
 20
113.8869947116459
  0
ARC
  5
C7
330
1F
100
AcDbEntity
  8
0
  6
Continuous
 62
     0
370
     0
100
AcDbCircle
 10
260.5842822129047
 20
114.1987792129687
 30
0.0
 40
0.254317960902156
100
AcDbArc
 50
248.4661967274149
 51
291.5338032725851
  0
LINE
  5
C8
330
1F
100
AcDbEntity
  8
0
  6
Continuous
 62
     0
370
     0
100
AcDbLine
 10
258.6334394747531
 20
113.7791438322151
 30
0.0
 11
258.6334394747531
 21
113.8917271714294
 31
0.0
  0
LINE
  5
C9
330
1F
100
AcDbEntity
  8
0
  6
Continuous
 62
     0
370
     0
100
AcDbLine
 10
258.6334394747531
 20
113.8917271714294
 30
0.0
 11
258.7253689104831
 21
113.9713343899334
 31
0.0
  0
LINE
  5
CA
330
1F
100
AcDbEntity
  8
0
  6
Continuous
 62
     0
370
     0
100
AcDbLine
 10
258.8573896223819
 20
113.8191537480438
 30
0.0
 11
258.9154421622073
 21
113.7108069579685
 31
0.0
  0
ARC
  5
CB
330
1F
100
AcDbEntity
  8
0
  6
Continuous
 62
     0
370
     0
100
AcDbCircle
 10
259.0170173315909
 20
113.7912274855343
 30
0.0
 40
0.1295568457831574
100
AcDbArc
 50
218.3698611780426
 51
259.2843596181521
  0
LINE
  5
CC
330
1F
100
AcDbEntity
  8
0
  6
Continuous
 62
     0
370
     0
100
AcDbLine
 10
212.1638690764224
 20
107.5589656751239
 30
0.0
 11
212.1638690764224
 21
107.3900267403209
 31
0.0
  0
LINE
  5
CD
330
1F
100
AcDbEntity
  8
0
  6
Continuous
 62
     0
370
     0
100
AcDbLine
 10
212.155454092673
 20
107.388899318465
 30
0.0
 11
212.1380352312839
 21
107.4214105229461
 31
0.0
  0
LWPOLYLINE
  5
CE
330
1F
100
AcDbEntity
  8
0
  6
Continuous
 62
     0
370
     0
100
AcDbPolyline
 90
        9
 70
   128
 43
0.0
 10
212.1346723372256
 20
107.4156378130996
 10
212.1347033316409
 20
107.4178965311134
 10
212.1348583037173
 20
107.4198336820686
 10
212.1351527506625
 20
107.4213640313232
 10
212.1355711752688
 20
107.4224236528957
 10
212.1360980803287
 20
107.4229699294651
 10
212.136686974219
 20
107.4229815523708
 10
212.1373533541476
 20
107.422454647311
 10
212.1380352312839
 20
107.4214105229461
  0
LINE
  5
CF
330
1F
100
AcDbEntity
  8
0
  6
Continuous
 62
     0
370
     0
100
AcDbLine
 10
212.1346723372256
 20
107.4156378130996
 30
0.0
 11
212.1386396223819
 21
107.2175040762508
 31
0.0
  0
LINE
  5
D0
330
1F
100
AcDbEntity
  8
0
  6
Continuous
 62
     0
370
     0
100
AcDbLine
 10
212.1414291197574
 20
107.0774868052089
 30
0.0
 11
212.141832047156
 21
107.0571564059341
 31
0.0
  0
ARC
  5
D1
330
1F
100
AcDbEntity
  8
0
  6
Continuous
 62
     0
370
     0
100
AcDbCircle
 10
212.2237005689474
 20
107.0592547709598
 30
0.0
 40
0.081895408882827
100
AcDbArc
 50
181.4682217296064
 51
193.0141089042545
  0
LINE
  5
D2
330
1F
100
AcDbEntity
  8
0
  6
Continuous
 62
     0
370
     0
100
AcDbLine
 10
212.14390867298
 20
107.0408126633251
 30
0.0
 11
212.155454092673
 21
106.9911266784752
 31
0.0
  0
LINE
  5
D3
330
1F
100
AcDbEntity
  8
0
  6
Continuous
 62
     0
370
     0
100
AcDbLine
 10
212.155454092673
 20
106.9911266784752
 30
0.0
 11
212.155454092673
 21
106.9742405335986
 31
0.0
  0
LINE
  5
D4
330
1F
100
AcDbEntity
  8
0
  6
Continuous
 62
     0
370
     0
100
AcDbLine
 10
212.155454092673
 20
106.9742405335986
 30
0.0
 11
212.1254669958865
 21
106.927960060128
 31
0.0
  0
LWPOLYLINE
  5
D5
330
1F
100
AcDbEntity
  8
0
  6
Continuous
 62
     0
370
     0
100
AcDbPolyline
 90
        9
 70
   128
 43
0.0
 10
212.1197020346438
 20
106.9458128433311
 10
212.1199034983432
 20
106.9422852914417
 10
212.1203684145724
 20
106.938596956023
 10
212.1210502917087
 20
106.9350519697749
 10
212.1219026381289
 20
106.93193896819
 10
212.1228324705874
 20
106.9295097808921
 10
212.1237932974612
 20
106.9279678087318
 10
212.1246921355044
 20
106.9274370293701
 10
212.1254669958865
 20
106.927960060128
  0
LINE
  5
D6
330
1F
100
AcDbEntity
  8
0
  6
Continuous
 62
     0
370
     0
100
AcDbLine
 10
212.1197020346438
 20
106.9458128433311
 30
0.0
 11
212.107629709891
 21
107.5505448799217
 31
0.0
  0
LWPOLYLINE
  5
D7
330
1F
100
AcDbEntity
  8
0
  6
Continuous
 62
     0
370
     0
100
AcDbPolyline
 90
        9
 70
   128
 43
0.0
 10
212.1109926039493
 20
107.5563195269191
 10
212.1102952296054
 20
107.557361714133
 10
212.1096443468844
 20
107.5578886191929
 10
212.1090399557864
 20
107.5578789334381
 10
212.1085285479342
 20
107.5573307197178
 10
212.1081101233279
 20
107.5562710981453
 10
212.1078156763827
 20
107.5547407488907
 10
212.1076607043063
 20
107.5528035979355
 10
212.107629709891
 20
107.5505448799217
  0
LINE
  5
D8
330
1F
100
AcDbEntity
  8
0
  6
Continuous
 62
     0
370
     0
100
AcDbLine
 10
212.1109926039493
 20
107.5563195269191
 30
0.0
 11
212.1386396223819
 21
107.5047293226802
 31
0.0
  0
LINE
  5
D9
330
1F
100
AcDbEntity
  8
0
  6
Continuous
 62
     0
370
     0
100
AcDbLine
 10
212.1386396223819
 20
107.5047293226802
 30
0.0
 11
212.1386396223819
 21
107.6173126618946
 31
0.0
  0
LINE
  5
DA
330
1F
100
AcDbEntity
  8
0
  6
Continuous
 62
     0
370
     0
100
AcDbLine
 10
212.1672319704806
 20
107.5639460902298
 30
0.0
 11
212.1386396223819
 21
107.6173126618946
 31
0.0
  0
LWPOLYLINE
  5
DB
330
1F
100
AcDbEntity
  8
0
  6
Continuous
 62
     0
370
     0
100
AcDbPolyline
 90
        9
 70
   128
 43
0.0
 10
212.1638690764224
 20
107.5589656751239
 10
212.163931065253
 20
107.5610423009479
 10
212.1641170317447
 20
107.5627973597133
 10
212.1644424731051
 20
107.5641630511367
 10
212.1648608977115
 20
107.5650870721424
 10
212.165356808356
 20
107.565536491164
 10
212.1659457022464
 20
107.565491936692
 10
212.1665810877597
 20
107.5649553458774
 10
212.1672319704806
 20
107.5639460902298
  0
LINE
  5
DC
330
1F
100
AcDbEntity
  8
0
  6
Continuous
 62
     0
370
     0
100
AcDbLine
 10
211.1779212290561
 20
106.8196384530151
 30
0.0
 11
212.1197020346438
 21
106.9458128433311
 31
0.0
  0
LINE
  5
DD
330
1F
100
AcDbEntity
  8
0
  6
Continuous
 62
     0
370
     0
100
AcDbLine
 10
211.1779212290561
 20
106.8196384530151
 30
0.0
 11
211.1658489043033
 21
107.4243704896057
 31
0.0
  0
LINE
  5
DE
330
1F
100
AcDbEntity
  8
0
  6
Continuous
 62
     0
370
     0
100
AcDbLine
 10
212.107629709891
 20
107.5505448799217
 30
0.0
 11
211.1658489043033
 21
107.4243704896057
 31
0.0
  0
ARC
  5
DF
330
1F
100
AcDbEntity
  8
0
  6
Continuous
 62
     0
370
     0
100
AcDbCircle
 10
211.2005890127671
 20
106.8160224972223
 30
0.0
 40
0.0229543798580217
100
AcDbArc
 50
170.9365629267193
 51
219.9975750013627
  0
LINE
  5
E0
330
1F
100
AcDbEntity
  8
0
  6
Continuous
 62
     0
370
     0
100
AcDbLine
 10
212.8818237120425
 20
107.4862140338504
 30
0.0
 11
212.8001379305636
 21
107.6386445682132
 31
0.0
  0
LINE
  5
E1
330
1F
100
AcDbEntity
  8
0
  6
Continuous
 62
     0
370
     0
100
AcDbLine
 10
212.8001379305636
 20
107.7512279074276
 30
0.0
 11
212.8001379305636
 21
107.6386445682132
 31
0.0
  0
LINE
  5
E2
330
1F
100
AcDbEntity
  8
0
  6
Continuous
 62
     0
370
     0
100
AcDbLine
 10
212.8001379305636
 20
107.7512279074276
 30
0.0
 11
212.9381095701968
 21
107.493755362519
 31
0.0
  0
LINE
  5
E3
330
1F
100
AcDbEntity
  8
0
  6
Continuous
 62
     0
370
     0
100
AcDbLine
 10
210.6945788199221
 20
107.4238455216968
 30
0.0
 11
211.1968588167941
 21
107.4911382715786
 31
0.0
  0
LINE
  5
E4
330
1F
100
AcDbEntity
  8
0
  6
Continuous
 62
     0
370
     0
100
AcDbLine
 10
210.6945788199221
 20
107.5364288609111
 30
0.0
 11
210.6945788199221
 21
107.4238455216968
 31
0.0
  0
LINE
  5
E5
330
1F
100
AcDbEntity
  8
0
  6
Continuous
 62
     0
370
     0
100
AcDbLine
 10
210.6945788199221
 20
107.5364288609111
 30
0.0
 11
212.6409196192538
 21
107.7971887509906
 31
0.0
  0
LINE
  5
E6
330
1F
100
AcDbEntity
  8
0
  6
Continuous
 62
     0
370
     0
100
AcDbLine
 10
212.6409196192538
 20
107.6846054117763
 30
0.0
 11
212.6409196192538
 21
107.7971887509906
 31
0.0
  0
LINE
  5
E7
330
1F
100
AcDbEntity
  8
0
  6
Continuous
 62
     0
370
     0
100
AcDbLine
 10
212.6409196192538
 20
107.6846054117763
 30
0.0
 11
212.1386396223819
 21
107.6173126618946
 31
0.0
  0
LINE
  5
E8
330
1F
100
AcDbEntity
  8
0
  6
Continuous
 62
     0
370
     0
100
AcDbLine
 10
211.1968588167941
 20
107.4357066969955
 30
0.0
 11
211.1968588167941
 21
107.4911382715786
 31
0.0
  0
LWPOLYLINE
  5
E9
330
1F
100
AcDbEntity
  8
0
  6
Continuous
 62
     0
370
     0
100
AcDbPolyline
 90
        7
 70
   128
 43
0.0
 10
211.1658489043033
 20
107.4243704896057
 10
211.1658798987185
 20
107.4266311447704
 10
211.166034870795
 20
107.4285663585746
 10
211.1663293177401
 20
107.4300967078293
 10
211.1667477423465
 20
107.4311563294017
 10
211.1672746474063
 20
107.4317045431221
 10
211.1674761111056
 20
107.4317704062545
  0
LINE
  5
EA
330
1F
100
AcDbEntity
  8
0
  6
Continuous
 62
     0
370
     0
100
AcDbLine
 10
212.6409196192538
 20
107.7971887509906
 30
0.0
 11
212.8001379305636
 21
107.7512279074276
 31
0.0
  0
LINE
  5
EB
330
1F
100
AcDbEntity
  8
0
  6
Continuous
 62
     0
370
     0
100
AcDbLine
 10
212.8001379305636
 20
107.6386445682132
 30
0.0
 11
212.6409196192538
 21
107.6846054117763
 31
0.0
  0
LINE
  5
EC
330
1F
100
AcDbEntity
  8
0
  6
Continuous
 62
     0
370
     0
100
AcDbLine
 10
210.684335165671
 20
107.1918077688301
 30
0.0
 11
210.6026493841921
 21
107.3442383031929
 31
0.0
  0
LINE
  5
ED
330
1F
100
AcDbEntity
  8
0
  6
Continuous
 62
     0
370
     0
100
AcDbLine
 10
210.6945788199221
 20
107.4238455216968
 30
0.0
 11
210.6026493841921
 21
107.3442383031929
 31
0.0
  0
LINE
  5
EE
330
1F
100
AcDbEntity
  8
0
  6
Continuous
 62
     0
370
     0
100
AcDbLine
 10
211.1395346457278
 20
107.2527912180507
 30
0.0
 11
211.0830783182895
 21
107.3581334869945
 31
0.0
  0
LWPOLYLINE
  5
EF
330
1F
100
AcDbEntity
  8
0
  6
Continuous
 62
     0
370
     0
100
AcDbPolyline
 90
        9
 70
   128
 43
0.0
 10
211.0830783182895
 20
107.3581334869945
 10
211.0578333670413
 20
107.3837232511127
 10
211.0149370962893
 20
107.4025349240386
 10
210.9608983332431
 20
107.4117053966606
 10
210.9039615923678
 20
107.4098399202907
 10
210.8527743155276
 20
107.3972213189685
 10
210.8151625925815
 20
107.3757693092907
 10
210.7968138987338
 20
107.3487518649185
 10
210.8005487257754
 20
107.3202815573299
  0
LINE
  5
F0
330
1F
100
AcDbEntity
  8
0
  6
Continuous
 62
     0
370
     0
100
AcDbLine
 10
210.8005487257754
 20
107.3202815573299
 30
0.0
 11
210.8569895560061
 21
107.2149392883861
 31
0.0
  0
LINE
  5
F1
330
1F
100
AcDbEntity
  8
0
  6
Continuous
 62
     0
370
     0
100
AcDbLine
 10
212.4122273260867
 20
107.4520891826236
 30
0.0
 11
212.4372398192203
 21
107.4266524534309
 31
0.0
  0
LWPOLYLINE
  5
F2
330
1F
100
AcDbEntity
  8
0
  6
Continuous
 62
     0
370
     0
100
AcDbPolyline
 90
       10
 70
   128
 43
0.0
 10
212.6985537344729
 20
107.4616606454933
 10
212.6947724158084
 20
107.4899411122882
 10
212.6695274645602
 20
107.5155308764064
 10
212.6266311938083
 20
107.5343444864833
 10
212.572592430762
 20
107.5435149591053
 10
212.5156401926791
 20
107.5416494827354
 10
212.4644684130465
 20
107.5290289442623
 10
212.4268411928927
 20
107.5075788717353
 10
212.4084924990451
 20
107.4805614273632
 10
212.4122273260867
 20
107.4520891826236
  0
ARC
  5
F3
330
1F
100
AcDbEntity
  8
0
  6
Continuous
 62
     0
370
     0
100
AcDbCircle
 10
212.5534998709475
 20
107.7641782839774
 30
0.0
 40
0.2546041658203683
100
AcDbArc
 50
248.4897348057453
 51
291.5102651942547
  0
LINE
  5
F4
330
1F
100
AcDbEntity
  8
0
  6
Continuous
 62
     0
370
     0
100
AcDbLine
 10
210.6026493841921
 20
107.3442383031929
 30
0.0
 11
210.6026493841921
 21
107.4568216424072
 31
0.0
  0
LINE
  5
F5
330
1F
100
AcDbEntity
  8
0
  6
Continuous
 62
     0
370
     0
100
AcDbLine
 10
210.6026493841921
 20
107.4568216424072
 30
0.0
 11
210.6945788199221
 21
107.5364288609111
 31
0.0
  0
LINE
  5
F6
330
1F
100
AcDbEntity
  8
0
  6
Continuous
 62
     0
370
     0
100
AcDbLine
 10
210.826599531821
 20
107.3842482190215
 30
0.0
 11
210.884667568854
 21
107.2759014289463
 31
0.0
  0
ARC
  5
F7
330
1F
100
AcDbEntity
  8
0
  6
Continuous
 62
     0
370
     0
100
AcDbCircle
 10
210.9862865656797
 20
107.3563864208298
 30
0.0
 40
0.1296312247660848
100
AcDbArc
 50
218.3801755023113
 51
259.2638936911754
  0
LINE
  5
F8
330
1F
100
AcDbEntity
  8
0
  6
Continuous
 62
     0
370
     0
100
AcDbLine
 10
267.2356139952457
 20
113.9808748583877
 30
0.0
 11
267.2356139952457
 21
113.6378712873542
 31
0.0
  0
LINE
  5
F9
330
1F
100
AcDbEntity
  8
0
  6
Continuous
 62
     0
370
     0
100
AcDbLine
 10
267.2356139952457
 20
113.6378712873542
 30
0.0
 11
267.2290586764133
 21
113.6501024584854
 31
0.0
  0
ARC
  5
FA
330
1F
100
AcDbEntity
  8
0
  6
Continuous
 62
     0
370
     0
100
AcDbCircle
 10
267.3213995884431
 20
113.689692857914
 30
0.0
 40
0.1004701137722967
100
AcDbArc
 50
183.1117768653705
 51
203.2068319118845
  0
LINE
  5
FB
330
1F
100
AcDbEntity
  8
0
  6
Continuous
 62
     0
370
     0
100
AcDbLine
 10
267.2210776144778
 20
113.6842389326179
 30
0.0
 11
267.2150104576862
 21
113.7564113657558
 31
0.0
  0
ARC
  5
FC
330
1F
100
AcDbEntity
  8
0
  6
Continuous
 62
     0
370
     0
100
AcDbCircle
 10
267.3314395215765
 20
113.7663859394992
 30
0.0
 40
0.1168555477491706
100
AcDbArc
 50
180.1321136746245
 51
184.8966203858484
  0
LINE
  5
FD
330
1F
100
AcDbEntity
  8
0
  6
Continuous
 62
     0
370
     0
100
AcDbLine
 10
267.214584284476
 20
113.7661164920414
 30
0.0
 11
267.214584284476
 21
113.8111978690708
 31
0.0
  0
ARC
  5
FE
330
1F
100
AcDbEntity
  8
0
  6
Continuous
 62
     0
370
     0
100
AcDbCircle
 10
267.2711469960127
 20
113.8121267344906
 30
0.0
 40
0.0565703378755247
100
AcDbArc
 50
169.8177032383598
 51
180.9408191992412
  0
LINE
  5
FF
330
1F
100
AcDbEntity
  8
0
  6
Continuous
 62
     0
370
     0
100
AcDbLine
 10
267.2154676253116
 20
113.82212727476
 30
0.0
 11
267.2169088656223
 21
113.8290622751796
 31
0.0
  0
ARC
  5
100
330
1F
100
AcDbEntity
  8
0
  6
Continuous
 62
     0
370
     0
100
AcDbCircle
 10
267.1296599806778
 20
113.8416489135111
 30
0.0
 40
0.0881520923660901
100
AcDbArc
 50
351.7910694665649
 51
8.208930533435119
  0
LINE
  5
101
330
1F
100
AcDbEntity
  8
0
  6
Continuous
 62
     0
370
     0
100
AcDbLine
 10
267.2169088656223
 20
113.8542355518425
 30
0.0
 11
267.2154676253116
 21
113.8665325861061
 31
0.0
  0
ARC
  5
102
330
1F
100
AcDbEntity
  8
0
  6
Continuous
 62
     0
370
     0
100
AcDbCircle
 10
267.3403424287277
 20
113.8814260858618
 30
0.0
 40
0.125759822134107
100
AcDbArc
 50
180.2959701466577
 51
186.80139380129
  0
LINE
  5
103
330
1F
100
AcDbEntity
  8
0
  6
Continuous
 62
     0
370
     0
100
AcDbLine
 10
267.214584284476
 20
113.8807764570797
 30
0.0
 11
267.214584284476
 21
113.9237812082851
 31
0.0
  0
ARC
  5
104
330
1F
100
AcDbEntity
  8
0
  6
Continuous
 62
     0
370
     0
100
AcDbCircle
 10
267.2711469960127
 20
113.9247100737049
 30
0.0
 40
0.0565703378755613
100
AcDbArc
 50
169.8177032383598
 51
180.9408191992412
  0
LINE
  5
105
330
1F
100
AcDbEntity
  8
0
  6
Continuous
 62
     0
370
     0
100
AcDbLine
 10
267.2154676253116
 20
113.9347106139743
 30
0.0
 11
267.2169088656223
 21
113.941645614394
 31
0.0
  0
ARC
  5
106
330
1F
100
AcDbEntity
  8
0
  6
Continuous
 62
     0
370
     0
100
AcDbCircle
 10
267.1296599806778
 20
113.9542322527254
 30
0.0
 40
0.0881520923660536
100
AcDbArc
 50
351.7910694665649
 51
8.208930533435119
  0
LINE
  5
107
330
1F
100
AcDbEntity
  8
0
  6
Continuous
 62
     0
370
     0
100
AcDbLine
 10
267.2169088656223
 20
113.9668188910568
 30
0.0
 11
267.2155761057651
 21
113.9781919043148
 31
0.0
  0
LINE
  5
108
330
1F
100
AcDbEntity
  8
0
  6
Continuous
 62
     0
370
     0
100
AcDbLine
 10
267.2187917763507
 20
114.1753648142898
 30
0.0
 11
267.2187917763507
 21
114.3220013301456
 31
0.0
  0
LINE
  5
109
330
1F
100
AcDbEntity
  8
0
  6
Continuous
 62
     0
370
     0
100
AcDbLine
 10
267.1740203434741
 20
114.5127448361004
 30
0.0
 11
267.1178507143771
 21
114.6175563256824
 31
0.0
  0
LINE
  5
10A
330
1F
100
AcDbEntity
  8
0
  6
Continuous
 62
     0
370
     0
100
AcDbLine
 10
267.1178507143771
 20
114.6175563256824
 30
0.0
 11
267.1178507143771
 21
114.2583058695877
 31
0.0
  0
ARC
  5
10B
330
1F
100
AcDbEntity
  8
0
  6
Continuous
 62
     0
370
     0
100
AcDbCircle
 10
267.2435696548031
 20
114.2589530671245
 30
0.0
 40
0.1257206062921987
100
AcDbArc
 50
180.2949544410338
 51
186.802409506629
  0
LINE
  5
10C
330
1F
100
AcDbEntity
  8
0
  6
Continuous
 62
     0
370
     0
100
AcDbLine
 10
267.1187340552127
 20
114.2440619986141
 30
0.0
 11
267.1211671168124
 21
114.22326668311
 31
0.0
  0
ARC
  5
10D
330
1F
100
AcDbEntity
  8
0
  6
Continuous
 62
     0
370
     0
100
AcDbCircle
 10
266.9955137922186
 20
114.2082560654684
 30
0.0
 40
0.1265467369135393
100
AcDbArc
 50
0.3471572472550028
 51
6.812303091079014
  0
LINE
  5
10E
330
1F
100
AcDbEntity
  8
0
  6
Continuous
 62
     0
370
     0
100
AcDbLine
 10
267.1220582062518
 20
114.2090228121364
 30
0.0
 11
267.1220582062518
 21
114.1660199980819
 31
0.0
  0
ARC
  5
10F
330
1F
100
AcDbEntity
  8
0
  6
Continuous
 62
     0
370
     0
100
AcDbCircle
 10
267.0651680894066
 20
114.1651572986364
 30
0.0
 40
0.0568966575906728
100
AcDbArc
 50
349.8090280438716
 51
0.8687844504726902
  0
LINE
  5
110
330
1F
100
AcDbEntity
  8
0
  6
Continuous
 62
     0
370
     0
100
AcDbLine
 10
267.1211671168124
 20
114.1550905923927
 30
0.0
 11
267.1197258765018
 21
114.1481555919731
 31
0.0
  0
ARC
  5
111
330
1F
100
AcDbEntity
  8
0
  6
Continuous
 62
     0
370
     0
100
AcDbCircle
 10
267.2069898833355
 20
114.1355679850662
 30
0.0
 40
0.0881671976209205
100
AcDbArc
 50
171.7918496161834
 51
188.2081503838166
  0
LINE
  5
112
330
1F
100
AcDbEntity
  8
0
  6
Continuous
 62
     0
370
     0
100
AcDbLine
 10
267.1197258765018
 20
114.1229803781593
 30
0.0
 11
267.1211671168124
 21
114.1106833438957
 31
0.0
  0
ARC
  5
113
330
1F
100
AcDbEntity
  8
0
  6
Continuous
 62
     0
370
     0
100
AcDbCircle
 10
266.9955137922187
 20
114.0956727262541
 30
0.0
 40
0.1265467369133536
100
AcDbArc
 50
0.3471572472424466
 51
6.812303091072343
  0
LINE
  5
114
330
1F
100
AcDbEntity
  8
0
  6
Continuous
 62
     0
370
     0
100
AcDbLine
 10
267.1220582062518
 20
114.0964394729221
 30
0.0
 11
267.1220582062518
 21
114.0534366588676
 31
0.0
  0
ARC
  5
115
330
1F
100
AcDbEntity
  8
0
  6
Continuous
 62
     0
370
     0
100
AcDbCircle
 10
267.0651680894064
 20
114.0525739594221
 30
0.0
 40
0.0568966575908943
100
AcDbArc
 50
349.8090280438839
 51
0.8687844504406007
  0
LINE
  5
116
330
1F
100
AcDbEntity
  8
0
  6
Continuous
 62
     0
370
     0
100
AcDbLine
 10
267.1211671168124
 20
114.0425072531784
 30
0.0
 11
267.1197258765018
 21
114.0355722527588
 31
0.0
  0
ARC
  5
117
330
1F
100
AcDbEntity
  8
0
  6
Continuous
 62
     0
370
     0
100
AcDbCircle
 10
267.2069898833355
 20
114.0229846458519
 30
0.0
 40
0.0881671976209022
100
AcDbArc
 50
171.7918496161834
 51
188.2081503838166
  0
LINE
  5
118
330
1F
100
AcDbEntity
  8
0
  6
Continuous
 62
     0
370
     0
100
AcDbLine
 10
267.1197258765018
 20
114.010397038945
 30
0.0
 11
267.1211671168124
 21
113.9981000046814
 31
0.0
  0
ARC
  5
119
330
1F
100
AcDbEntity
  8
0
  6
Continuous
 62
     0
370
     0
100
AcDbCircle
 10
266.9955137922183
 20
113.9830893870397
 30
0.0
 40
0.12654673691389
100
AcDbArc
 50
0.3471572472540672
 51
6.812303091060697
  0
LINE
  5
11A
330
1F
100
AcDbEntity
  8
0
  6
Continuous
 62
     0
370
     0
100
AcDbLine
 10
267.1220582062518
 20
113.9838561337078
 30
0.0
 11
267.1220582062518
 21
113.9387766938293
 31
0.0
  0
ARC
  5
11B
330
1F
100
AcDbEntity
  8
0
  6
Continuous
 62
     0
370
     0
100
AcDbCircle
 10
267.0515714956506
 20
113.9384955696559
 30
0.0
 40
0.0704872712067806
100
AcDbArc
 50
353.6350980185456
 51
0.2285131923003426
  0
LINE
  5
11C
330
1F
100
AcDbEntity
  8
0
  6
Continuous
 62
     0
370
     0
100
AcDbLine
 10
267.1216242844379
 20
113.9306813399875
 30
0.0
 11
267.1155571276462
 21
113.8811348300064
 31
0.0
  0
LWPOLYLINE
  5
11D
330
1F
100
AcDbEntity
  8
0
  6
Continuous
 62
     0
370
     0
100
AcDbPolyline
 90
        9
 70
   128
 43
0.0
 10
267.1075838143146
 20
113.8767801146591
 10
267.1088855797565
 20
113.8746821801746
 10
267.1101640993869
 20
113.8733203630531
 10
267.1113806301868
 20
113.8727256577099
 10
267.112496429137
 20
113.8729154985035
 10
267.1134959990299
 20
113.8738840739811
 10
267.114356094054
 20
113.8756081383312
 10
267.115045719794
 20
113.8780450742328
 10
267.1155571276462
 20
113.8811348300064
  0
LINE
  5
11E
330
1F
100
AcDbEntity
  8
0
  6
Continuous
 62
     0
370
     0
100
AcDbLine
 10
267.1075838143146
 20
113.8767801146591
 30
0.0
 11
267.1010284954822
 21
113.8890112857902
 31
0.0
  0
LINE
  5
11F
330
1F
100
AcDbEntity
  8
0
  6
Continuous
 62
     0
370
     0
100
AcDbLine
 10
267.1010284954822
 20
113.8890112857902
 30
0.0
 11
267.1010284954822
 21
114.3787501673782
 31
0.0
  0
ARC
  5
120
330
1F
100
AcDbEntity
  8
0
  6
Continuous
 62
     0
370
     0
100
AcDbCircle
 10
267.0347999710218
 20
114.3796676745828
 30
0.0
 40
0.0662348795701553
100
AcDbArc
 50
359.20629474669
 51
22.53752737994966
  0
LINE
  5
121
330
1F
100
AcDbEntity
  8
0
  6
Continuous
 62
     0
370
     0
100
AcDbLine
 10
267.095976405791
 20
114.4050547401989
 30
0.0
 11
267.0791541868961
 21
114.4364482085788
 31
0.0
  0
ARC
  5
122
330
1F
100
AcDbEntity
  8
0
  6
Continuous
 62
     0
370
     0
100
AcDbCircle
 10
267.1199821458979
 20
114.4533683106764
 30
0.0
 40
0.0441951591381429
100
AcDbArc
 50
179.200175400432
 51
202.5103098696525
  0
LINE
  5
123
330
1F
100
AcDbEntity
  8
0
  6
Continuous
 62
     0
370
     0
100
AcDbLine
 10
267.0757912928378
 20
114.4539852361763
 30
0.0
 11
267.0757912928378
 21
114.7241848628605
 31
0.0
  0
LINE
  5
124
330
1F
100
AcDbEntity
  8
0
  6
Continuous
 62
     0
370
     0
100
AcDbLine
 10
267.0926135117328
 20
114.7490830640876
 30
0.0
 11
267.0757912928378
 21
114.7241848628605
 31
0.0
  0
LINE
  5
125
330
1F
100
AcDbEntity
  8
0
  6
Continuous
 62
     0
370
     0
100
AcDbLine
 10
267.0926135117328
 20
114.7490830640876
 30
0.0
 11
267.2162347370898
 21
114.5184013168895
 31
0.0
  0
LINE
  5
126
330
1F
100
AcDbEntity
  8
0
  6
Continuous
 62
     0
370
     0
100
AcDbLine
 10
267.2608434492862
 20
114.3276365022743
 30
0.0
 11
267.2608434492862
 21
114.1809980492675
 31
0.0
  0
LINE
  5
127
330
1F
100
AcDbEntity
  8
0
  6
Continuous
 62
     0
370
     0
100
AcDbLine
 10
204.3158506686007
 20
105.4773923676098
 30
0.0
 11
267.1010284954822
 21
113.8890112857902
 31
0.0
  0
LINE
  5
128
330
1F
100
AcDbEntity
  8
0
  6
Continuous
 62
     0
370
     0
100
AcDbLine
 10
204.3224059874331
 20
105.4651611964786
 30
0.0
 11
267.1075838143146
 21
113.8767801146591
 31
0.0
  0
LINE
  5
129
330
1F
100
AcDbEntity
  8
0
  6
Continuous
 62
     0
370
     0
100
AcDbLine
 10
204.3224059874331
 20
105.4651611964786
 30
0.0
 11
204.3158506686007
 21
105.4773923676098
 31
0.0
  0
LINE
  5
12A
330
1F
100
AcDbEntity
  8
0
  6
Continuous
 62
     0
370
     0
100
AcDbLine
 10
204.3158506686007
 20
105.4773923676098
 30
0.0
 11
204.3158506686007
 21
105.9671312491977
 31
0.0
  0
LWPOLYLINE
  5
12B
330
1F
100
AcDbEntity
  8
0
  6
Continuous
 62
     0
370
     0
100
AcDbPolyline
 90
        5
 70
   128
 43
0.0
 10
204.3267142111575
 20
105.4610951166237
 10
204.3262028033053
 20
105.4611067395294
 10
204.3249785239016
 20
105.4617014448726
 10
204.323707752875
 20
105.4630632619941
 10
204.3224059874331
 20
105.4651611964786
  0
ARC
  5
12C
330
1F
100
AcDbEntity
  8
0
  6
Continuous
 62
     0
370
     0
100
AcDbCircle
 10
204.3346600357134
 20
106.0417591622041
 30
0.0
 40
0.0440585020670519
100
AcDbArc
 50
179.2104006287483
 51
202.5977399492613
  0
LINE
  5
12D
330
1F
100
AcDbEntity
  8
0
  6
Continuous
 62
     0
370
     0
100
AcDbLine
 10
267.0757912928378
 20
114.7241848628605
 30
0.0
 11
260.1665007406986
 21
113.7985153417671
 31
0.0
  0
LINE
  5
12E
330
1F
100
AcDbEntity
  8
0
  6
Continuous
 62
     0
370
     0
100
AcDbLine
 10
259.2004358107364
 20
113.6690865378463
 30
0.0
 11
212.1357106501376
 21
107.3636098127449
 31
0.0
  0
LINE
  5
12F
330
1F
100
AcDbEntity
  8
0
  6
Continuous
 62
     0
370
     0
100
AcDbLine
 10
211.1696457201755
 20
107.2341810088241
 30
0.0
 11
204.2906057173525
 21
106.31256594468
 31
0.0
  0
LINE
  5
130
330
1F
100
AcDbEntity
  8
0
  6
Continuous
 62
     0
370
     0
100
AcDbLine
 10
204.2906057173525
 20
106.0423663179958
 30
0.0
 11
204.2906057173525
 21
106.31256594468
 31
0.0
  0
LINE
  5
131
330
1F
100
AcDbEntity
  8
0
  6
Continuous
 62
     0
370
     0
100
AcDbLine
 10
204.3107985789096
 20
105.9934358220184
 30
0.0
 11
204.2939841086184
 21
106.0248292903984
 31
0.0
  0
ARC
  5
132
330
1F
100
AcDbEntity
  8
0
  6
Continuous
 62
     0
370
     0
100
AcDbCircle
 10
204.2494934952213
 20
105.9680240479274
 30
0.0
 40
0.0663631791619619
100
AcDbArc
 50
359.2291637776189
 51
22.51465834904728
  0
LINE
  5
133
330
1F
100
AcDbEntity
  8
0
  6
Continuous
 62
     0
370
     0
100
AcDbLine
 10
204.3074356848513
 20
106.3374641459072
 30
0.0
 11
211.1691963011538
 21
107.2567662518108
 31
0.0
  0
LINE
  5
134
330
1F
100
AcDbEntity
  8
0
  6
Continuous
 62
     0
370
     0
100
AcDbLine
 10
212.135261231116
 20
107.3861950557315
 30
0.0
 11
259.1999863917148
 21
113.691671780833
 31
0.0
  0
LINE
  5
135
330
1F
100
AcDbEntity
  8
0
  6
Continuous
 62
     0
370
     0
100
AcDbLine
 10
260.1660513216769
 20
113.8211005847538
 30
0.0
 11
267.0926135117328
 21
114.7490830640876
 31
0.0
  0
LINE
  5
136
330
1F
100
AcDbEntity
  8
0
  6
Continuous
 62
     0
370
     0
100
AcDbLine
 10
204.2906057173525
 20
106.31256594468
 30
0.0
 11
204.3074356848513
 21
106.3374641459072
 31
0.0
  0
LINE
  5
137
330
1F
100
AcDbEntity
  8
0
  6
Continuous
 62
     0
370
     0
100
AcDbLine
 10
204.4358920389926
 20
105.2726200144375
 30
0.0
 11
267.2210776144778
 21
113.6842389326179
 31
0.0
  0
LINE
  5
138
330
1F
100
AcDbEntity
  8
0
  6
Continuous
 62
     0
370
     0
100
AcDbLine
 10
204.4358920389926
 20
105.2726200144375
 30
0.0
 11
204.4298326308047
 21
105.3447924475753
 31
0.0
  0
LINE
  5
139
330
1F
100
AcDbEntity
  8
0
  6
Continuous
 62
     0
370
     0
100
AcDbLine
 10
267.2150104576862
 20
113.7564113657558
 30
0.0
 11
204.4298326308047
 21
105.3447924475753
 31
0.0
  0
LINE
  5
13A
330
1F
100
AcDbEntity
  8
0
  6
Continuous
 62
     0
370
     0
100
AcDbLine
 10
267.2290586764133
 20
113.6501024584854
 30
0.0
 11
204.443873100928
 21
105.2384835403049
 31
0.0
  0
ARC
  5
13B
330
1F
100
AcDbEntity
  8
0
  6
Continuous
 62
     0
370
     0
100
AcDbCircle
 10
204.5370053654834
 20
105.2782589568942
 30
0.0
 40
0.1012704422132808
100
AcDbArc
 50
183.1919954610042
 51
203.1266133162555
  0
LINE
  5
13C
330
1F
100
AcDbEntity
  8
0
  6
Continuous
 62
     0
370
     0
100
AcDbLine
 10
204.4293987089907
 20
105.3544975738609
 30
0.0
 11
267.214584284476
 21
113.7661164920414
 31
0.0
  0
ARC
  5
13D
330
1F
100
AcDbEntity
  8
0
  6
Continuous
 62
     0
370
     0
100
AcDbCircle
 10
204.5488839561905
 20
105.3549775648359
 30
0.0
 40
0.1194862112953945
100
AcDbArc
 50
180.2301648930001
 51
184.8898801405027
  0
LINE
  5
13E
330
1F
100
AcDbEntity
  8
0
  6
Continuous
 62
     0
370
     0
100
AcDbLine
 10
204.4504284197604
 20
105.2262523691737
 30
0.0
 11
267.2356139952457
 21
113.6378712873542
 31
0.0
  0
LINE
  5
13F
330
1F
100
AcDbEntity
  8
0
  6
Continuous
 62
     0
370
     0
100
AcDbLine
 10
204.4504284197604
 20
105.2262523691737
 30
0.0
 11
204.443873100928
 21
105.2384835403049
 31
0.0
  0
LINE
  5
140
330
1F
100
AcDbEntity
  8
0
  6
Continuous
 62
     0
370
     0
100
AcDbLine
 10
204.4293987089907
 20
105.3544975738609
 30
0.0
 11
204.4293987089907
 21
105.3746943097198
 31
0.0
  0
LWPOLYLINE
  5
141
330
1F
100
AcDbEntity
  8
0
  6
Continuous
 62
     0
370
     0
100
AcDbPolyline
 90
        8
 70
   128
 43
0.0
 10
268.3609359795367
 20
114.5278759222114
 10
268.3640199238574
 20
114.4568832140052
 10
268.3729850584781
 20
114.3813149552429
 10
268.3869402939594
 20
114.3085710625732
 10
268.4045296246326
 20
114.2457686286056
 10
268.4240251118457
 20
114.1990600447738
 10
268.4435205990588
 20
114.1730131130302
 10
268.4563910300052
 20
114.1685615401352
  0
LWPOLYLINE
  5
142
330
1F
100
AcDbEntity
  8
0
  6
Continuous
 62
     0
370
     0
100
AcDbPolyline
 90
        5
 70
   128
 43
0.0
 10
268.3916514450824
 20
114.6517451028907
 10
268.3869402939594
 20
114.6501275818432
 10
268.3729850584781
 20
114.6294698040569
 10
268.3640199238574
 20
114.5873445193851
 10
268.3609359795367
 20
114.5278759222114
  0
LWPOLYLINE
  5
143
330
1F
100
AcDbEntity
  8
0
  6
Continuous
 62
     0
370
     0
100
AcDbPolyline
 90
        5
 70
   128
 43
0.0
 10
204.4068812662875
 20
105.3716762285316
 10
204.4008373553073
 20
105.3727920274818
 10
204.3831395441806
 20
105.3940425734604
 10
204.3654417330538
 20
105.4388372521484
 10
204.358127051047
 20
105.4653026084983
  0
LWPOLYLINE
  5
144
330
1F
100
AcDbEntity
  8
0
  6
Continuous
 62
     0
370
     0
100
AcDbPolyline
 90
        9
 70
   128
 43
0.0
 10
267.214584284476
 20
113.8741339664543
 10
267.2110586697376
 20
113.8214647691333
 10
267.2010319763934
 20
113.789957008847
 10
267.1860229307925
 20
113.7844070713604
 10
267.168317371062
 20
113.8056614916408
 10
267.1506118113315
 20
113.8504813532913
 10
267.1356027657306
 20
113.9120459477985
 10
267.1255760723865
 20
113.9809814016903
 10
267.1220582062518
 20
114.0467922310913
  0
LINE
  5
145
330
1F
100
AcDbEntity
  8
0
  6
Continuous
 62
     0
370
     0
100
AcDbLine
 10
267.1220582062518
 20
114.6097089271629
 30
0.0
 11
267.1740203434741
 21
114.5127448361004
 31
0.0
  0
LINE
  5
146
330
1F
100
AcDbEntity
  8
0
  6
Continuous
 62
     0
370
     0
100
AcDbLine
 10
267.214584284476
 20
114.3214376192176
 30
0.0
 11
267.214584284476
 21
114.1748011033619
 31
0.0
  0
LINE
  5
147
330
1F
100
AcDbEntity
  8
0
  6
Continuous
 62
     0
370
     0
100
AcDbLine
 10
267.214584284476
 20
113.9780582408989
 30
0.0
 11
267.214584284476
 21
113.8741339664543
 31
0.0
  0
LINE
  5
148
330
1F
100
AcDbEntity
  8
0
  6
Continuous
 62
     0
370
     0
100
AcDbLine
 10
267.1220582062518
 20
114.0467922310913
 30
0.0
 11
267.1220582062518
 21
114.6097089271629
 31
0.0
  0
LWPOLYLINE
  5
149
330
1F
100
AcDbEntity
  8
0
  6
Continuous
 62
     0
370
     0
100
AcDbPolyline
 90
       10
 70
   128
 43
0.0
 10
267.1553694540775
 20
114.5102478485191
 10
267.1504723364627
 20
114.5066137533271
 10
267.1450018221652
 20
114.4894273500526
 10
267.1430801684177
 20
114.460699401387
 10
267.1450018221652
 20
114.4248020570362
 10
267.1504723364627
 20
114.3872019569957
 10
267.1586626107013
 20
114.3536214451873
 10
267.168317371062
 20
114.3291726629818
 10
267.1779721314227
 20
114.3175807516658
 10
267.1812652880466
 20
114.3169744234169
  0
LWPOLYLINE
  5
14A
330
1F
100
AcDbEntity
  8
0
  6
Continuous
 62
     0
370
     0
100
AcDbPolyline
 90
       10
 70
   128
 43
0.0
 10
267.1553694540775
 20
114.1668684702003
 10
267.1504723364627
 20
114.1632343750084
 10
267.1450018221652
 20
114.1460479717338
 10
267.1430801684177
 20
114.1173200230682
 10
267.1450018221652
 20
114.0814226787174
 10
267.1504723364627
 20
114.043822578677
 10
267.1586626107013
 20
114.0102420668686
 10
267.168317371062
 20
113.985793284663
 10
267.1779721314227
 20
113.9742013733471
 10
267.1812652880466
 20
113.9735950450981
  0
LINE
  5
14B
330
1F
100
AcDbEntity
  8
0
  6
Continuous
 62
     0
370
     0
100
AcDbLine
 10
267.1178507143771
 20
114.6091452162349
 30
0.0
 11
267.1220582062518
 21
114.6097089271629
 31
0.0
  0
LINE
  5
14C
330
1F
100
AcDbEntity
  8
0
  6
Continuous
 62
     0
370
     0
100
AcDbLine
 10
260.1980220610416
 20
113.998851619252
 30
0.0
 11
260.195062094382
 21
113.9984545033062
 31
0.0
  0
LINE
  5
14D
330
1F
100
AcDbEntity
  8
0
  6
Continuous
 62
     0
370
     0
100
AcDbLine
 10
260.1688253218448
 20
113.8563160519683
 30
0.0
 11
260.1658653551852
 21
113.8559189360225
 31
0.0
  0
LINE
  5
14E
330
1F
100
AcDbEntity
  8
0
  6
Continuous
 62
     0
370
     0
100
AcDbLine
 10
258.8313388163364
 20
113.7930390160167
 30
0.0
 11
258.8313388163364
 21
113.7551851492012
 31
0.0
  0
LINE
  5
14F
330
1F
100
AcDbEntity
  8
0
  6
Continuous
 62
     0
370
     0
100
AcDbLine
 10
258.9154421622073
 20
113.7108069579685
 30
0.0
 11
258.9154421622073
 21
113.6535505871856
 31
0.0
  0
LINE
  5
150
330
1F
100
AcDbEntity
  8
0
  6
Continuous
 62
     0
370
     0
100
AcDbLine
 10
212.1672319704806
 20
107.5639460902298
 30
0.0
 11
212.1642720038211
 21
107.5635489742839
 31
0.0
  0
LINE
  5
151
330
1F
100
AcDbEntity
  8
0
  6
Continuous
 62
     0
370
     0
100
AcDbLine
 10
212.1380352312839
 20
107.4214105229461
 30
0.0
 11
212.1350752646243
 21
107.4210134070003
 31
0.0
  0
LINE
  5
152
330
1F
100
AcDbEntity
  8
0
  6
Continuous
 62
     0
370
     0
100
AcDbLine
 10
210.8005487257754
 20
107.3581334869945
 30
0.0
 11
210.8005487257754
 21
107.3202815573299
 31
0.0
  0
LINE
  5
153
330
1F
100
AcDbEntity
  8
0
  6
Continuous
 62
     0
370
     0
100
AcDbLine
 10
210.884667568854
 20
107.2759014289463
 30
0.0
 11
210.884667568854
 21
107.2186450581634
 31
0.0
  0
LINE
  5
154
330
1F
100
AcDbEntity
  8
0
  6
Continuous
 62
     0
370
     0
100
AcDbLine
 10
267.1010284954822
 20
114.3787501673782
 30
0.0
 11
260.1803087527072
 21
113.4515502970302
 31
0.0
  0
LINE
  5
155
330
1F
100
AcDbEntity
  8
0
  6
Continuous
 62
     0
370
     0
100
AcDbLine
 10
259.2073785597598
 20
113.3212013464058
 30
0.0
 11
212.1495186621463
 21
107.016644768008
 31
0.0
  0
LINE
  5
156
330
1F
100
AcDbEntity
  8
0
  6
Continuous
 62
     0
370
     0
100
AcDbLine
 10
211.1766039664065
 20
106.8862977545345
 30
0.0
 11
204.3158506686007
 21
105.9671312491977
 31
0.0
  0
LINE
  5
157
330
1F
100
AcDbEntity
  8
0
  6
Continuous
 62
     0
370
     0
100
AcDbLine
 10
204.2906057173525
 20
106.0423663179958
 30
0.0
 11
211.1750387484347
 21
106.9647020022953
 31
0.0
  0
LINE
  5
158
330
1F
100
AcDbEntity
  8
0
  6
Continuous
 62
     0
370
     0
100
AcDbLine
 10
212.1386396223819
 20
107.0938014905536
 30
0.0
 11
259.205813341788
 21
113.3996075313175
 31
0.0
  0
LINE
  5
159
330
1F
100
AcDbEntity
  8
0
  6
Continuous
 62
     0
370
     0
100
AcDbLine
 10
260.1694142157352
 20
113.5287070195758
 30
0.0
 11
267.0757912928378
 21
114.4539852361763
 31
0.0
  0
LINE
  5
15A
330
1F
100
AcDbEntity
  8
0
  6
Continuous
 62
     0
370
     0
100
AcDbLine
 10
267.0791541868961
 20
114.4364482085788
 30
0.0
 11
260.1722347075259
 21
113.5110963802421
 31
0.0
  0
LINE
  5
15B
330
1F
100
AcDbEntity
  8
0
  6
Continuous
 62
     0
370
     0
100
AcDbLine
 10
259.2061697775638
 20
113.3816675763214
 30
0.0
 11
212.1414601141726
 21
107.0761908512199
 31
0.0
  0
LINE
  5
15C
330
1F
100
AcDbEntity
  8
0
  6
Continuous
 62
     0
370
     0
100
AcDbLine
 10
211.1753951842105
 20
106.9467639844501
 30
0.0
 11
204.2939841086184
 21
106.0248292903984
 31
0.0
  0
LINE
  5
15D
330
1F
100
AcDbEntity
  8
0
  6
Continuous
 62
     0
370
     0
100
AcDbLine
 10
204.3107985789096
 20
105.9934358220184
 30
0.0
 11
211.1760615641391
 21
106.9132067184532
 31
0.0
  0
LINE
  5
15E
330
1F
100
AcDbEntity
  8
0
  6
Continuous
 62
     0
370
     0
100
AcDbLine
 10
212.1434592539584
 20
107.0428137402618
 30
0.0
 11
259.2068516547
 21
113.3481122474754
 31
0.0
  0
LINE
  5
15F
330
1F
100
AcDbEntity
  8
0
  6
Continuous
 62
     0
370
     0
100
AcDbLine
 10
260.1742493445194
 20
113.477719269284
 30
0.0
 11
267.095976405791
 21
114.4050547401989
 31
0.0
  0
LINE
  5
160
330
1F
100
AcDbEntity
  8
0
  6
Continuous
 62
     0
370
     0
100
AcDbLine
 10
267.214584284476
 20
113.8111978690708
 30
0.0
 11
267.2089045578754
 21
113.8104365687454
 31
0.0
  0
LINE
  5
161
330
1F
100
AcDbEntity
  8
0
  6
Continuous
 62
     0
370
     0
100
AcDbLine
 10
267.2110741669452
 20
113.8215383808696
 30
0.0
 11
267.2154676253116
 21
113.82212727476
 31
0.0
  0
LINE
  5
162
330
1F
100
AcDbEntity
  8
0
  6
Continuous
 62
     0
370
     0
100
AcDbLine
 10
267.2169088656223
 20
113.8290622751796
 30
0.0
 11
267.2120582396304
 21
113.8284113924587
 31
0.0
  0
LINE
  5
163
330
1F
100
AcDbEntity
  8
0
  6
Continuous
 62
     0
370
     0
100
AcDbLine
 10
267.2141503626621
 20
113.853867493161
 30
0.0
 11
267.2169088656223
 21
113.8542355518425
 31
0.0
  0
LINE
  5
164
330
1F
100
AcDbEntity
  8
0
  6
Continuous
 62
     0
370
     0
100
AcDbLine
 10
267.2154676253116
 20
113.8665325861061
 30
0.0
 11
267.2145222956455
 21
113.866406671294
 31
0.0
  0
LINE
  5
165
330
1F
100
AcDbEntity
  8
0
  6
Continuous
 62
     0
370
     0
100
AcDbLine
 10
267.214584284476
 20
113.9345924477661
 30
0.0
 11
267.2154676253116
 21
113.9347106139743
 31
0.0
  0
LINE
  5
166
330
1F
100
AcDbEntity
  8
0
  6
Continuous
 62
     0
370
     0
100
AcDbLine
 10
267.2169088656223
 20
113.941645614394
 30
0.0
 11
267.214584284476
 21
113.9413337330902
 31
0.0
  0
LINE
  5
167
330
1F
100
AcDbEntity
  8
0
  6
Continuous
 62
     0
370
     0
100
AcDbLine
 10
267.214584284476
 20
113.966507009753
 30
0.0
 11
267.2169088656223
 21
113.9668188910568
 31
0.0
  0
LINE
  5
16B
330
1F
100
AcDbEntity
  8
0
  6
Continuous
 62
     0
370
     0
100
AcDbLine
 10
267.1217715079105
 20
114.0467554252231
 30
0.0
 11
267.1220582062518
 21
114.0467922310913
 31
0.0
  0
ARC
  5
171
330
1F
100
AcDbEntity
  8
0
  6
ByBlock
 62
     0
370
     0
100
AcDbCircle
 10
274.3357136452034
 20
115.985682962113
 30
0.0
 40
3.002581177341244
100
AcDbArc
 50
157.3801350519594
 51
202.6198649480401
  0
ARC
  5
172
330
1F
100
AcDbEntity
  8
0
  6
ByBlock
 62
     0
370
     0
100
AcDbCircle
 10
268.7924868562658
 20
113.676005133389
 30
0.0
 40
3.002581177341265
100
AcDbArc
 50
337.3801350519599
 51
22.61986494803959
  0
ARC
  5
173
330
1F
100
AcDbEntity
  8
0
  6
ByBlock
 62
     0
370
     0
100
AcDbCircle
 10
274.7077041423903
 20
116.0355208182604
 30
0.0
 40
3.002581177341281
100
AcDbArc
 50
157.3801350519594
 51
202.6198649480411
  0
ARC
  5
174
330
1F
100
AcDbEntity
  8
0
  6
ByBlock
 62
     0
370
     0
100
AcDbCircle
 10
269.1644773534525
 20
113.7258429895363
 30
0.0
 40
3.002581177341247
100
AcDbArc
 50
337.380135051961
 51
22.6198649480406
  0
LINE
  5
4A9
330
1F
100
AcDbEntity
  8
0
  6
Continuous
 62
     0
370
     0
100
AcDbLine
 10
148.397958212546
 20
98.38966696668507
 30
0.0
 11
149.3397390181338
 21
98.51584135700108
 31
0.0
  0
LINE
  5
4AA
330
1F
100
AcDbEntity
  8
0
  6
Continuous
 62
     0
370
     0
100
AcDbLine
 10
149.3242108160769
 20
99.14634331274868
 30
0.0
 11
148.3824300104891
 21
99.02016892243267
 31
0.0
  0
LINE
  5
4AB
330
1F
100
AcDbEntity
  8
0
  6
Continuous
 62
     0
370
     0
100
AcDbLine
 10
196.4287483031069
 20
104.8245724957073
 30
0.0
 11
197.3705291086947
 21
104.9507468860233
 31
0.0
  0
LINE
  5
4AC
330
1F
100
AcDbEntity
  8
0
  6
Continuous
 62
     0
370
     0
100
AcDbLine
 10
197.3550009066378
 20
105.5812488417709
 30
0.0
 11
196.4132201010501
 21
105.4550744514549
 31
0.0
  0
LINE
  5
4AD
330
1F
100
AcDbEntity
  8
0
  6
Continuous
 62
     0
370
     0
100
AcDbLine
 10
141.6216956908023
 20
96.96005731035115
 30
0.0
 11
204.4068812662875
 21
105.3716762285316
 31
0.0
  0
LINE
  5
4AE
330
1F
100
AcDbEntity
  8
0
  6
Continuous
 62
     0
370
     0
100
AcDbLine
 10
141.5415441328799
 20
97.04947619844319
 30
0.0
 11
204.3267142111575
 21
105.4610951166237
 31
0.0
  0
LINE
  5
4AF
330
1F
100
AcDbEntity
  8
0
  6
Continuous
 62
     0
370
     0
100
AcDbLine
 10
149.3788229758059
 20
99.14736419130207
 30
0.0
 11
149.3788229758059
 21
98.97842525649907
 31
0.0
  0
LINE
  5
4B0
330
1F
100
AcDbEntity
  8
0
  6
Continuous
 62
     0
370
     0
100
AcDbLine
 10
149.3704079920565
 20
98.97729783464314
 30
0.0
 11
149.3529891306673
 21
99.00980903912426
 31
0.0
  0
LWPOLYLINE
  5
4B1
330
1F
100
AcDbEntity
  8
0
  6
Continuous
 62
     0
370
     0
100
AcDbPolyline
 90
        9
 70
   128
 43
0.0
 10
149.3496262366091
 20
99.00403439212681
 10
149.3496572310244
 20
99.00629504729153
 10
149.3498122031008
 20
99.00823026109578
 10
149.350106650046
 20
99.00976061035038
 10
149.3505250746524
 20
99.01082216907383
 10
149.3510364825045
 20
99.0113684456432
 10
149.3516408736025
 20
99.01138006854893
 10
149.3522917563235
 20
99.01085122633816
 10
149.3529891306673
 20
99.00980903912426
  0
LINE
  5
4B2
330
1F
100
AcDbEntity
  8
0
  6
Continuous
 62
     0
370
     0
100
AcDbLine
 10
149.3496262366091
 20
99.00403439212681
 30
0.0
 11
149.3535780245577
 21
98.80590259242894
 31
0.0
  0
LINE
  5
4B3
330
1F
100
AcDbEntity
  8
0
  6
Continuous
 62
     0
370
     0
100
AcDbLine
 10
149.3563830191409
 20
98.66588532138707
 30
0.0
 11
149.3567859465395
 21
98.64555492211224
 31
0.0
  0
ARC
  5
4B4
330
1F
100
AcDbEntity
  8
0
  6
Continuous
 62
     0
370
     0
100
AcDbCircle
 10
149.4405140054433
 20
98.64781212918271
 30
0.0
 40
0.0837584791621345
100
AcDbArc
 50
181.5442507926854
 51
192.831137265364
  0
LINE
  5
4B5
330
1F
100
AcDbEntity
  8
0
  6
Continuous
 62
     0
370
     0
100
AcDbLine
 10
149.3588470751559
 20
98.62921117950322
 30
0.0
 11
149.3704079920565
 21
98.57952519465329
 31
0.0
  0
LINE
  5
4B6
330
1F
100
AcDbEntity
  8
0
  6
Continuous
 62
     0
370
     0
100
AcDbLine
 10
149.3704079920565
 20
98.57952519465329
 30
0.0
 11
149.3704079920565
 21
98.56263711262585
 31
0.0
  0
LINE
  5
4B7
330
1F
100
AcDbEntity
  8
0
  6
Continuous
 62
     0
370
     0
100
AcDbLine
 10
149.3704079920565
 20
98.56263711262585
 30
0.0
 11
149.34042089527
 21
98.51635857630612
 31
0.0
  0
LWPOLYLINE
  5
4B8
330
1F
100
AcDbEntity
  8
0
  6
Continuous
 62
     0
370
     0
100
AcDbPolyline
 90
        9
 70
   128
 43
0.0
 10
149.3346559340274
 20
98.53420942235829
 10
149.3348573977267
 20
98.53068380761982
 10
149.3353223139559
 20
98.52699547220112
 10
149.3360041910922
 20
98.5234504859531
 10
149.3368410403048
 20
98.52033554721714
 10
149.337786369971
 20
98.51790829707028
 10
149.3387471968447
 20
98.51636632490994
 10
149.3396460348879
 20
98.51583554554821
 10
149.34042089527
 20
98.51635857630612
  0
LINE
  5
4B9
330
1F
100
AcDbEntity
  8
0
  6
Continuous
 62
     0
370
     0
100
AcDbLine
 10
149.3346559340274
 20
98.53420942235829
 30
0.0
 11
149.3225836092745
 21
99.13894339609982
 31
0.0
  0
LWPOLYLINE
  5
4BA
330
1F
100
AcDbEntity
  8
0
  6
Continuous
 62
     0
370
     0
100
AcDbPolyline
 90
        9
 70
   128
 43
0.0
 10
149.3259310061251
 20
99.14471610594632
 10
149.3252491289889
 20
99.14576023031117
 10
149.3245982462679
 20
99.14628713537098
 10
149.3239938551699
 20
99.1462774496162
 10
149.3234824473178
 20
99.14572923589589
 10
149.3230640227114
 20
99.14466961432339
 10
149.3227695757662
 20
99.14313926506878
 10
149.3225991064822
 20
99.14120211411358
 10
149.3225836092745
 20
99.13894339609982
  0
LINE
  5
4BB
330
1F
100
AcDbEntity
  8
0
  6
Continuous
 62
     0
370
     0
100
AcDbLine
 10
149.3259310061251
 20
99.14471610594632
 30
0.0
 11
149.3535780245577
 21
99.09312783885838
 31
0.0
  0
LINE
  5
4BC
330
1F
100
AcDbEntity
  8
0
  6
Continuous
 62
     0
370
     0
100
AcDbLine
 10
149.3535780245577
 20
99.09312783885838
 30
0.0
 11
149.3535780245577
 21
99.2057111780727
 31
0.0
  0
LINE
  5
4BD
330
1F
100
AcDbEntity
  8
0
  6
Continuous
 62
     0
370
     0
100
AcDbLine
 10
149.3821858698641
 20
99.1523446064079
 30
0.0
 11
149.3535780245577
 21
99.2057111780727
 31
0.0
  0
LWPOLYLINE
  5
4BE
330
1F
100
AcDbEntity
  8
0
  6
Continuous
 62
     0
370
     0
100
AcDbPolyline
 90
        9
 70
   128
 43
0.0
 10
149.3788229758059
 20
99.14736419130207
 10
149.3788849646365
 20
99.14944081712605
 10
149.3790709311282
 20
99.1511939387405
 10
149.379380875281
 20
99.15256156731488
 10
149.3797992998873
 20
99.1534855883205
 10
149.3803107077395
 20
99.15393500734211
 10
149.3808996016299
 20
99.15389045287014
 10
149.3815194899356
 20
99.1533519249046
 10
149.3821858698641
 20
99.1523446064079
  0
LINE
  5
4BF
330
1F
100
AcDbEntity
  8
0
  6
Continuous
 62
     0
370
     0
100
AcDbLine
 10
148.3928751284396
 20
98.40803503204228
 30
0.0
 11
149.3346559340274
 21
98.53420942235829
 31
0.0
  0
LINE
  5
4C0
330
1F
100
AcDbEntity
  8
0
  6
Continuous
 62
     0
370
     0
100
AcDbLine
 10
148.3928751284396
 20
98.40803503204228
 30
0.0
 11
148.3808028036868
 21
99.01276900578381
 31
0.0
  0
LINE
  5
4C1
330
1F
100
AcDbEntity
  8
0
  6
Continuous
 62
     0
370
     0
100
AcDbLine
 10
149.3225836092745
 20
99.13894339609982
 30
0.0
 11
148.3808028036868
 21
99.01276900578381
 31
0.0
  0
ARC
  5
4C2
330
1F
100
AcDbEntity
  8
0
  6
Continuous
 62
     0
370
     0
100
AcDbCircle
 10
148.4154985413563
 20
98.40440835320734
 30
0.0
 40
0.0229122589757695
100
AcDbArc
 50
170.8926043151143
 51
220.0446397945375
  0
LINE
  5
4C3
330
1F
100
AcDbEntity
  8
0
  6
Continuous
 62
     0
370
     0
100
AcDbLine
 10
150.0967621142184
 20
99.07461255002858
 30
0.0
 11
150.0150763327395
 21
99.22704308439137
 31
0.0
  0
LINE
  5
4C4
330
1F
100
AcDbEntity
  8
0
  6
Continuous
 62
     0
370
     0
100
AcDbLine
 10
150.0150763327395
 20
99.3396264236057
 30
0.0
 11
150.0150763327395
 21
99.22704308439137
 31
0.0
  0
LINE
  5
4C5
330
1F
100
AcDbEntity
  8
0
  6
Continuous
 62
     0
370
     0
100
AcDbLine
 10
150.0150763327395
 20
99.3396264236057
 30
0.0
 11
150.1530634695803
 21
99.08215387869717
 31
0.0
  0
LINE
  5
4C6
330
1F
100
AcDbEntity
  8
0
  6
Continuous
 62
     0
370
     0
100
AcDbLine
 10
147.909517222098
 20
99.01224403787495
 30
0.0
 11
148.4118127161776
 21
99.0795367877567
 31
0.0
  0
LINE
  5
4C7
330
1F
100
AcDbEntity
  8
0
  6
Continuous
 62
     0
370
     0
100
AcDbLine
 10
147.909517222098
 20
99.12482737708928
 30
0.0
 11
147.909517222098
 21
99.01224403787495
 31
0.0
  0
LINE
  5
4C8
330
1F
100
AcDbEntity
  8
0
  6
Continuous
 62
     0
370
     0
100
AcDbLine
 10
147.909517222098
 20
99.12482737708928
 30
0.0
 11
149.8558580214297
 21
99.38558726716877
 31
0.0
  0
LINE
  5
4C9
330
1F
100
AcDbEntity
  8
0
  6
Continuous
 62
     0
370
     0
100
AcDbLine
 10
149.8558580214297
 20
99.27300392795445
 30
0.0
 11
149.8558580214297
 21
99.38558726716877
 31
0.0
  0
LINE
  5
4CA
330
1F
100
AcDbEntity
  8
0
  6
Continuous
 62
     0
370
     0
100
AcDbLine
 10
149.8558580214297
 20
99.27300392795445
 30
0.0
 11
149.3535780245577
 21
99.2057111780727
 31
0.0
  0
LINE
  5
4CB
330
1F
100
AcDbEntity
  8
0
  6
Continuous
 62
     0
370
     0
100
AcDbLine
 10
148.4118127161776
 20
99.02410521317364
 30
0.0
 11
148.4118127161776
 21
99.0795367877567
 31
0.0
  0
LWPOLYLINE
  5
4CC
330
1F
100
AcDbEntity
  8
0
  6
Continuous
 62
     0
370
     0
100
AcDbPolyline
 90
        7
 70
   128
 43
0.0
 10
148.3808028036868
 20
99.01276900578381
 10
148.3808337981021
 20
99.01502772379757
 10
148.3809887701785
 20
99.01696487475277
 10
148.3812832171236
 20
99.01849522400738
 10
148.38170164173
 20
99.01955484557988
 10
148.3822130495821
 20
99.0201030593002
 10
148.3824300104891
 20
99.02016892243267
  0
LINE
  5
4CD
330
1F
100
AcDbEntity
  8
0
  6
Continuous
 62
     0
370
     0
100
AcDbLine
 10
147.8992890650546
 20
98.7802062850082
 30
0.0
 11
147.8176032835757
 21
98.93263488222004
 31
0.0
  0
LINE
  5
4CE
330
1F
100
AcDbEntity
  8
0
  6
Continuous
 62
     0
370
     0
100
AcDbLine
 10
147.909517222098
 20
99.01224403787495
 30
0.0
 11
147.8176032835757
 21
98.93263488222004
 31
0.0
  0
LINE
  5
4CF
330
1F
100
AcDbEntity
  8
0
  6
Continuous
 62
     0
370
     0
100
AcDbLine
 10
150.0150763327395
 20
99.22704308439137
 30
0.0
 11
149.8558580214297
 21
99.27300392795445
 31
0.0
  0
LINE
  5
4D0
330
1F
100
AcDbEntity
  8
0
  6
Continuous
 62
     0
370
     0
100
AcDbLine
 10
148.3544730479037
 20
98.84118973422886
 30
0.0
 11
148.298032217673
 21
98.94653200317265
 31
0.0
  0
LWPOLYLINE
  5
4D1
330
1F
100
AcDbEntity
  8
0
  6
Continuous
 62
     0
370
     0
100
AcDbPolyline
 90
        9
 70
   128
 43
0.0
 10
148.298032217673
 20
98.94653200317265
 10
148.2727872664248
 20
98.97211983013989
 10
148.2298909956729
 20
98.99093344021679
 10
148.1758522326266
 20
99.00010391283871
 10
148.1189154917513
 20
98.99823843646885
 10
148.0677282149111
 20
98.98561983514668
 10
148.0301009947573
 20
98.96416782546879
 10
148.0117677981173
 20
98.93715038109661
 10
148.0155026251589
 20
98.90867813635708
  0
LINE
  5
4D2
330
1F
100
AcDbEntity
  8
0
  6
Continuous
 62
     0
370
     0
100
AcDbLine
 10
148.0155026251589
 20
98.90867813635708
 30
0.0
 11
148.0719434553897
 21
98.80333780456425
 31
0.0
  0
LINE
  5
4D3
330
1F
100
AcDbEntity
  8
0
  6
Continuous
 62
     0
370
     0
100
AcDbLine
 10
149.6271812254702
 20
99.04048769880177
 30
0.0
 11
149.6521937186038
 21
99.01504903245808
 31
0.0
  0
LWPOLYLINE
  5
4D4
330
1F
100
AcDbEntity
  8
0
  6
Continuous
 62
     0
370
     0
100
AcDbPolyline
 90
       10
 70
   128
 43
0.0
 10
149.9134921366488
 20
99.05005916167141
 10
149.9097108179843
 20
99.07833962846638
 10
149.8844813639437
 20
99.10392939258458
 10
149.8415695959841
 20
99.12274300266148
 10
149.7875463301455
 20
99.1319134752834
 10
149.7305940920626
 20
99.13004799891354
 10
149.6794223124301
 20
99.11742746044041
 10
149.6417950922763
 20
99.09597738791348
 10
149.6234463984286
 20
99.06895800639035
 10
149.6271812254702
 20
99.04048769880177
  0
LINE
  5
4D5
330
1F
100
AcDbEntity
  8
0
  6
Continuous
 62
     0
370
     0
100
AcDbLine
 10
149.8558580214297
 20
99.38558726716877
 30
0.0
 11
150.0150763327395
 21
99.3396264236057
 31
0.0
  0
ARC
  5
4D6
330
1F
100
AcDbEntity
  8
0
  6
Continuous
 62
     0
370
     0
100
AcDbCircle
 10
149.7684460217272
 20
99.35227220012547
 30
0.0
 40
0.2543179609029352
100
AcDbArc
 50
248.4661967274771
 51
291.5338032725146
  0
LINE
  5
4D7
330
1F
100
AcDbEntity
  8
0
  6
Continuous
 62
     0
370
     0
100
AcDbLine
 10
147.8176032835757
 20
98.93263488222004
 30
0.0
 11
147.8176032835757
 21
99.04521822143437
 31
0.0
  0
LINE
  5
4D8
330
1F
100
AcDbEntity
  8
0
  6
Continuous
 62
     0
370
     0
100
AcDbLine
 10
147.8176032835757
 20
99.04521822143437
 30
0.0
 11
147.909517222098
 21
99.12482737708928
 31
0.0
  0
LINE
  5
4D9
330
1F
100
AcDbEntity
  8
0
  6
Continuous
 62
     0
370
     0
100
AcDbLine
 10
148.0415534312045
 20
98.9726467351997
 30
0.0
 11
148.0996059710299
 21
98.8642999451244
 31
0.0
  0
ARC
  5
4DA
330
1F
100
AcDbEntity
  8
0
  6
Continuous
 62
     0
370
     0
100
AcDbCircle
 10
148.2011811404133
 20
98.94472047268997
 30
0.0
 40
0.1295568457827967
100
AcDbArc
 50
218.3698611780065
 51
259.2843596181758
  0
LINE
  5
4DB
330
1F
100
AcDbEntity
  8
0
  6
Continuous
 62
     0
370
     0
100
AcDbLine
 10
197.4096130663668
 20
105.5822697203243
 30
0.0
 11
197.4096130663668
 21
105.4133307855213
 31
0.0
  0
LINE
  5
4DC
330
1F
100
AcDbEntity
  8
0
  6
Continuous
 62
     0
370
     0
100
AcDbLine
 10
197.4011980826174
 20
105.4122033636654
 30
0.0
 11
197.3837792212283
 21
105.4447145681465
 31
0.0
  0
LWPOLYLINE
  5
4DD
330
1F
100
AcDbEntity
  8
0
  6
Continuous
 62
     0
370
     0
100
AcDbPolyline
 90
        9
 70
   128
 43
0.0
 10
197.3804163271701
 20
105.438939921149
 10
197.3804318243777
 20
105.4412005763137
 10
197.3806022936618
 20
105.443135790118
 10
197.3808967406069
 20
105.4446661393726
 10
197.3813151652133
 20
105.4457276980961
 10
197.3818265730654
 20
105.4462739746654
 10
197.3824309641635
 20
105.4462836604202
 10
197.3830818468844
 20
105.4457567553604
 10
197.3837792212283
 20
105.4447145681465
  0
LINE
  5
4DE
330
1F
100
AcDbEntity
  8
0
  6
Continuous
 62
     0
370
     0
100
AcDbLine
 10
197.3804163271701
 20
105.438939921149
 30
0.0
 11
197.3843681151187
 21
105.2408081214512
 31
0.0
  0
LINE
  5
4DF
330
1F
100
AcDbEntity
  8
0
  6
Continuous
 62
     0
370
     0
100
AcDbLine
 10
197.3871731097018
 20
105.1007908504093
 30
0.0
 11
197.3875760371005
 21
105.0804604511345
 31
0.0
  0
ARC
  5
4E0
330
1F
100
AcDbEntity
  8
0
  6
Continuous
 62
     0
370
     0
100
AcDbCircle
 10
197.4699438462198
 20
105.0825461155037
 30
0.0
 40
0.0823942108098743
100
AcDbArc
 50
181.4504967051085
 51
192.9248913530108
  0
LINE
  5
4E1
330
1F
100
AcDbEntity
  8
0
  6
Continuous
 62
     0
370
     0
100
AcDbLine
 10
197.3896371657168
 20
105.0641167085254
 30
0.0
 11
197.4011980826174
 21
105.0144307236755
 31
0.0
  0
LINE
  5
4E2
330
1F
100
AcDbEntity
  8
0
  6
Continuous
 62
     0
370
     0
100
AcDbLine
 10
197.4011980826174
 20
105.0144307236755
 30
0.0
 11
197.4011980826174
 21
104.9975426416481
 31
0.0
  0
LINE
  5
4E3
330
1F
100
AcDbEntity
  8
0
  6
Continuous
 62
     0
370
     0
100
AcDbLine
 10
197.4011980826174
 20
104.9975426416481
 30
0.0
 11
197.3711954886233
 21
104.9512641053283
 31
0.0
  0
LWPOLYLINE
  5
4E4
330
1F
100
AcDbEntity
  8
0
  6
Continuous
 62
     0
370
     0
100
AcDbPolyline
 90
        9
 70
   128
 43
0.0
 10
197.3654460245883
 20
104.9691149513805
 10
197.3656474882876
 20
104.965589336642
 10
197.3661124045169
 20
104.9619010012233
 10
197.3667942816531
 20
104.9583560149753
 10
197.3676311308657
 20
104.9552410762394
 10
197.3685764605319
 20
104.9528138260925
 10
197.3695372874056
 20
104.9512718539322
 10
197.3704361254489
 20
104.9507410745704
 10
197.3711954886233
 20
104.9512641053283
  0
LINE
  5
4E5
330
1F
100
AcDbEntity
  8
0
  6
Continuous
 62
     0
370
     0
100
AcDbLine
 10
197.3654460245883
 20
104.9691149513805
 30
0.0
 11
197.3533736998355
 21
105.573848925122
 31
0.0
  0
LWPOLYLINE
  5
4E6
330
1F
100
AcDbEntity
  8
0
  6
Continuous
 62
     0
370
     0
100
AcDbPolyline
 90
        9
 70
   128
 43
0.0
 10
197.356721096686
 20
105.5796216349685
 10
197.3560392195498
 20
105.5806638221824
 10
197.3553883368289
 20
105.5811926643932
 10
197.3547839457308
 20
105.5811810414875
 10
197.354257040671
 20
105.5806347649181
 10
197.3538541132723
 20
105.5795732061947
 10
197.3535596663272
 20
105.57804285694
 10
197.3533891970431
 20
105.5761076431358
 10
197.3533736998355
 20
105.573848925122
  0
LINE
  5
4E7
330
1F
100
AcDbEntity
  8
0
  6
Continuous
 62
     0
370
     0
100
AcDbLine
 10
197.356721096686
 20
105.5796216349685
 30
0.0
 11
197.3843681151187
 21
105.5280333678806
 31
0.0
  0
LINE
  5
4E8
330
1F
100
AcDbEntity
  8
0
  6
Continuous
 62
     0
370
     0
100
AcDbLine
 10
197.3843681151187
 20
105.5280333678806
 30
0.0
 11
197.3843681151187
 21
105.6406167070949
 31
0.0
  0
LINE
  5
4E9
330
1F
100
AcDbEntity
  8
0
  6
Continuous
 62
     0
370
     0
100
AcDbLine
 10
197.4129759604251
 20
105.5872501354301
 30
0.0
 11
197.3843681151187
 21
105.6406167070949
 31
0.0
  0
LWPOLYLINE
  5
4EA
330
1F
100
AcDbEntity
  8
0
  6
Continuous
 62
     0
370
     0
100
AcDbPolyline
 90
        9
 70
   128
 43
0.0
 10
197.4096130663668
 20
105.5822697203243
 10
197.4096750551974
 20
105.5843444089973
 10
197.4098610216891
 20
105.5860994677627
 10
197.4101709658419
 20
105.5874670963371
 10
197.4105893904483
 20
105.5883911173427
 10
197.4111007983004
 20
105.5888405363643
 10
197.4116896921908
 20
105.5887959818924
 10
197.4123095804965
 20
105.5882574539268
 10
197.4129759604251
 20
105.5872501354301
  0
LINE
  5
4EB
330
1F
100
AcDbEntity
  8
0
  6
Continuous
 62
     0
370
     0
100
AcDbLine
 10
196.4236652190005
 20
104.8429405610645
 30
0.0
 11
197.3654460245883
 21
104.9691149513805
 31
0.0
  0
LINE
  5
4EC
330
1F
100
AcDbEntity
  8
0
  6
Continuous
 62
     0
370
     0
100
AcDbLine
 10
196.4236652190005
 20
104.8429405610645
 30
0.0
 11
196.4115928942477
 21
105.447674534806
 31
0.0
  0
LINE
  5
4ED
330
1F
100
AcDbEntity
  8
0
  6
Continuous
 62
     0
370
     0
100
AcDbLine
 10
197.3533736998355
 20
105.573848925122
 30
0.0
 11
196.4115928942477
 21
105.447674534806
 31
0.0
  0
ARC
  5
4EE
330
1F
100
AcDbEntity
  8
0
  6
Continuous
 62
     0
370
     0
100
AcDbCircle
 10
196.4462220948754
 20
104.8392954691102
 30
0.0
 40
0.0228494933114597
100
AcDbArc
 50
170.8206059952013
 51
220.1166381143412
  0
LINE
  5
4EF
330
1F
100
AcDbEntity
  8
0
  6
Continuous
 62
     0
370
     0
100
AcDbLine
 10
198.1275522047793
 20
105.5095180790508
 30
0.0
 11
198.0458664233004
 21
105.6619486134136
 31
0.0
  0
LINE
  5
4F0
330
1F
100
AcDbEntity
  8
0
  6
Continuous
 62
     0
370
     0
100
AcDbLine
 10
198.0458664233004
 20
105.7745319526279
 30
0.0
 11
198.0458664233004
 21
105.6619486134136
 31
0.0
  0
LINE
  5
4F1
330
1F
100
AcDbEntity
  8
0
  6
Continuous
 62
     0
370
     0
100
AcDbLine
 10
198.0458664233004
 20
105.7745319526279
 30
0.0
 11
198.1838535601412
 21
105.5170594077194
 31
0.0
  0
LINE
  5
4F2
330
1F
100
AcDbEntity
  8
0
  6
Continuous
 62
     0
370
     0
100
AcDbLine
 10
195.9403073126589
 20
105.4471495668972
 30
0.0
 11
196.4425873095309
 21
105.5144423167789
 31
0.0
  0
LINE
  5
4F3
330
1F
100
AcDbEntity
  8
0
  6
Continuous
 62
     0
370
     0
100
AcDbLine
 10
195.9403073126589
 20
105.5597329061115
 30
0.0
 11
195.9403073126589
 21
105.4471495668972
 31
0.0
  0
LINE
  5
4F4
330
1F
100
AcDbEntity
  8
0
  6
Continuous
 62
     0
370
     0
100
AcDbLine
 10
195.9403073126589
 20
105.5597329061115
 30
0.0
 11
197.8866481119906
 21
105.820492796191
 31
0.0
  0
LINE
  5
4F5
330
1F
100
AcDbEntity
  8
0
  6
Continuous
 62
     0
370
     0
100
AcDbLine
 10
197.8866481119906
 20
105.7079094569767
 30
0.0
 11
197.8866481119906
 21
105.820492796191
 31
0.0
  0
LINE
  5
4F6
330
1F
100
AcDbEntity
  8
0
  6
Continuous
 62
     0
370
     0
100
AcDbLine
 10
197.8866481119906
 20
105.7079094569767
 30
0.0
 11
197.3843681151187
 21
105.6406167070949
 31
0.0
  0
LINE
  5
4F7
330
1F
100
AcDbEntity
  8
0
  6
Continuous
 62
     0
370
     0
100
AcDbLine
 10
196.4425873095309
 20
105.4590088050449
 30
0.0
 11
196.4425873095309
 21
105.5144423167789
 31
0.0
  0
LWPOLYLINE
  5
4F8
330
1F
100
AcDbEntity
  8
0
  6
Continuous
 62
     0
370
     0
100
AcDbPolyline
 90
        7
 70
   128
 43
0.0
 10
196.4115928942477
 20
105.447674534806
 10
196.4116083914553
 20
105.4499332528198
 10
196.4117788607394
 20
105.451870403775
 10
196.4120733076846
 20
105.4534007530296
 10
196.4124917322909
 20
105.4544603746021
 10
196.4130031401431
 20
105.4550066511715
 10
196.4132201010501
 20
105.4550744514549
  0
LINE
  5
4F9
330
1F
100
AcDbEntity
  8
0
  6
Continuous
 62
     0
370
     0
100
AcDbLine
 10
195.9300791556155
 20
105.2151098768795
 30
0.0
 11
195.8483933741366
 21
105.3675404112423
 31
0.0
  0
LINE
  5
4FA
330
1F
100
AcDbEntity
  8
0
  6
Continuous
 62
     0
370
     0
100
AcDbLine
 10
195.9403073126589
 20
105.4471495668972
 30
0.0
 11
195.8483933741366
 21
105.3675404112423
 31
0.0
  0
LINE
  5
4FB
330
1F
100
AcDbEntity
  8
0
  6
Continuous
 62
     0
370
     0
100
AcDbLine
 10
198.0458664233004
 20
105.6619486134136
 30
0.0
 11
197.8866481119906
 21
105.7079094569767
 31
0.0
  0
LINE
  5
4FC
330
1F
100
AcDbEntity
  8
0
  6
Continuous
 62
     0
370
     0
100
AcDbLine
 10
196.3852631384646
 20
105.2760952632511
 30
0.0
 11
196.3288223082339
 21
105.3814355950439
 31
0.0
  0
LWPOLYLINE
  5
4FD
330
1F
100
AcDbEntity
  8
0
  6
Continuous
 62
     0
370
     0
100
AcDbPolyline
 90
        9
 70
   128
 43
0.0
 10
196.3288223082339
 20
105.3814355950439
 10
196.3035773569857
 20
105.4070253591621
 10
196.2606810862338
 20
105.425838969239
 10
196.2066423231875
 20
105.4350094418609
 10
196.1496900851046
 20
105.4331439654911
 10
196.0985183054721
 20
105.4205234270179
 10
196.0608910853182
 20
105.399073354491
 10
196.0425423914706
 20
105.3720559101188
 10
196.0462772185122
 20
105.3435836653793
  0
LINE
  5
4FE
330
1F
100
AcDbEntity
  8
0
  6
Continuous
 62
     0
370
     0
100
AcDbLine
 10
196.0462772185122
 20
105.3435836653793
 30
0.0
 11
196.1027335459506
 21
105.2382433335865
 31
0.0
  0
LINE
  5
4FF
330
1F
100
AcDbEntity
  8
0
  6
Continuous
 62
     0
370
     0
100
AcDbLine
 10
197.6579713160311
 20
105.475393227824
 30
0.0
 11
197.6829838091647
 21
105.4499545614803
 31
0.0
  0
LWPOLYLINE
  5
500
330
1F
100
AcDbEntity
  8
0
  6
Continuous
 62
     0
370
     0
100
AcDbPolyline
 90
       10
 70
   128
 43
0.0
 10
197.9442822272097
 20
105.4849627535427
 10
197.9405009085452
 20
105.5132451574886
 10
197.9152714545046
 20
105.5388349216068
 10
197.8723596865451
 20
105.5576465945327
 10
197.8183209234988
 20
105.5668190043056
 10
197.7613841826235
 20
105.5649535279358
 10
197.710212402991
 20
105.5523329894626
 10
197.6725851828372
 20
105.5308809797847
 10
197.6542364889895
 20
105.5038635354126
 10
197.6579713160311
 20
105.475393227824
  0
LINE
  5
501
330
1F
100
AcDbEntity
  8
0
  6
Continuous
 62
     0
370
     0
100
AcDbLine
 10
197.8866481119906
 20
105.820492796191
 30
0.0
 11
198.0458664233004
 21
105.7745319526279
 31
0.0
  0
ARC
  5
502
330
1F
100
AcDbEntity
  8
0
  6
Continuous
 62
     0
370
     0
100
AcDbCircle
 10
197.7992361122882
 20
105.7871777291475
 30
0.0
 40
0.2543179609027488
100
AcDbArc
 50
248.4661967274666
 51
291.5338032725334
  0
LINE
  5
503
330
1F
100
AcDbEntity
  8
0
  6
Continuous
 62
     0
370
     0
100
AcDbLine
 10
195.8483933741366
 20
105.3675404112423
 30
0.0
 11
195.8483933741366
 21
105.4801237504566
 31
0.0
  0
LINE
  5
504
330
1F
100
AcDbEntity
  8
0
  6
Continuous
 62
     0
370
     0
100
AcDbLine
 10
195.8483933741366
 20
105.4801237504566
 30
0.0
 11
195.9403073126589
 21
105.5597329061115
 31
0.0
  0
LINE
  5
505
330
1F
100
AcDbEntity
  8
0
  6
Continuous
 62
     0
370
     0
100
AcDbLine
 10
196.0723280245577
 20
105.4075522642219
 30
0.0
 11
196.1303960615908
 21
105.2992054741466
 31
0.0
  0
ARC
  5
506
330
1F
100
AcDbEntity
  8
0
  6
Continuous
 62
     0
370
     0
100
AcDbCircle
 10
196.2320203985066
 20
105.3796992912248
 30
0.0
 40
0.1296408903139704
100
AcDbArc
 50
218.3817677017631
 51
259.2623014916996
  0
LWPOLYLINE
  5
507
330
1F
100
AcDbEntity
  8
0
  6
Continuous
 62
     0
370
     0
100
AcDbPolyline
 90
        5
 70
   128
 43
0.0
 10
204.4068812662875
 20
105.3716762285316
 10
204.4008528525149
 20
105.3727881531799
 10
204.3831395441806
 20
105.3940425734604
 10
204.3654417330538
 20
105.4388624351108
 10
204.358127051047
 20
105.4653045456493
  0
LWPOLYLINE
  5
508
330
1F
100
AcDbEntity
  8
0
  6
Continuous
 62
     0
370
     0
100
AcDbPolyline
 90
        5
 70
   128
 43
0.0
 10
141.6216956908023
 20
96.96005731035115
 10
141.6156672770296
 20
96.96117310930134
 10
141.597969465903
 20
96.98242365527989
 10
141.5802716547763
 20
97.02722027111889
 10
141.5729414755618
 20
97.05368562746884
  0
LINE
  5
509
330
1F
100
AcDbEntity
  8
0
  6
Continuous
 62
     0
370
     0
100
AcDbLine
 10
204.4504284197604
 20
105.226504198798
 30
0.0
 11
204.4504284197604
 21
105.2262523691738
 31
0.0
  0
LINE
  5
50A
330
1F
100
AcDbEntity
  8
0
  6
Continuous
 62
     0
370
     0
100
AcDbLine
 10
204.4504284197604
 20
105.2262523691738
 30
0.0
 11
204.4438885981356
 21
105.2384835403049
 31
0.0
  0
ARC
  5
50B
330
1F
100
AcDbEntity
  8
0
  6
Continuous
 62
     0
370
     0
100
AcDbCircle
 10
204.5358222187839
 20
105.277978715554
 30
0.0
 40
0.1000582803842983
100
AcDbArc
 50
183.0699899945559
 51
203.2486187826997
  0
LINE
  5
50C
330
1F
100
AcDbEntity
  8
0
  6
Continuous
 62
     0
370
     0
100
AcDbLine
 10
204.4359075362002
 20
105.2726200144375
 30
0.0
 11
204.4298326308047
 21
105.3447924475753
 31
0.0
  0
ARC
  5
50D
330
1F
100
AcDbEntity
  8
0
  6
Continuous
 62
     0
370
     0
100
AcDbCircle
 10
204.5443306766675
 20
105.3545904549997
 30
0.0
 40
0.1149165064553004
100
AcDbArc
 50
180.0453434182721
 51
184.8910891816028
  0
LINE
  5
50E
330
1F
100
AcDbEntity
  8
0
  6
Continuous
 62
     0
370
     0
100
AcDbLine
 10
204.4294142061984
 20
105.3544995110119
 30
0.0
 11
204.4294142061984
 21
105.3746943097198
 31
0.0
  0
LWPOLYLINE
  5
50F
330
1F
100
AcDbEntity
  8
0
  6
Continuous
 62
     0
370
     0
100
AcDbPolyline
 90
        5
 70
   128
 43
0.0
 10
204.3224059874331
 20
105.4651631336296
 10
204.323707752875
 20
105.4630632619941
 10
204.3249940211093
 20
105.4617014448726
 10
204.3262028033053
 20
105.4611086766803
 10
204.3267142111575
 20
105.4610951166237
  0
LINE
  5
510
330
1F
100
AcDbEntity
  8
0
  6
Continuous
 62
     0
370
     0
100
AcDbLine
 10
204.3224059874331
 20
105.4651631336296
 30
0.0
 11
204.3158506686007
 21
105.4773943047607
 31
0.0
  0
LINE
  5
511
330
1F
100
AcDbEntity
  8
0
  6
Continuous
 62
     0
370
     0
100
AcDbLine
 10
204.3158506686007
 20
105.4773943047607
 30
0.0
 11
204.3158506686007
 21
105.9671312491977
 31
0.0
  0
ARC
  5
512
330
1F
100
AcDbEntity
  8
0
  6
Continuous
 62
     0
370
     0
100
AcDbCircle
 10
204.2497493320368
 20
105.9680731842713
 30
0.0
 40
0.0661080474466945
100
AcDbArc
 50
359.1835981752844
 51
22.5602239514032
  0
LINE
  5
513
330
1F
100
AcDbEntity
  8
0
  6
Continuous
 62
     0
370
     0
100
AcDbLine
 10
204.3107985789096
 20
105.9934358220184
 30
0.0
 11
204.2939841086184
 21
106.0248292903984
 31
0.0
  0
ARC
  5
514
330
1F
100
AcDbEntity
  8
0
  6
Continuous
 62
     0
370
     0
100
AcDbCircle
 10
204.3344996831501
 20
106.0416894897631
 30
0.0
 40
0.0438836883391673
100
AcDbArc
 50
179.1162789576173
 51
202.594206312439
  0
LINE
  5
515
330
1F
100
AcDbEntity
  8
0
  6
Continuous
 62
     0
370
     0
100
AcDbLine
 10
204.2906212145602
 20
106.0423663179958
 30
0.0
 11
204.2906212145602
 21
106.31256594468
 31
0.0
  0
LINE
  5
516
330
1F
100
AcDbEntity
  8
0
  6
Continuous
 62
     0
370
     0
100
AcDbLine
 10
204.3074356848513
 20
106.3374641459072
 30
0.0
 11
204.2906212145602
 21
106.31256594468
 31
0.0
  0
LINE
  5
517
330
1F
100
AcDbEntity
  8
0
  6
Continuous
 62
     0
370
     0
100
AcDbLine
 10
204.3074356848513
 20
106.3374641459072
 30
0.0
 11
204.3074821764743
 21
106.3373711626613
 31
0.0
  0
LINE
  5
518
330
1F
100
AcDbEntity
  8
0
  6
Continuous
 62
     0
370
     0
100
AcDbLine
 10
141.5306650931155
 20
97.06577538658024
 30
0.0
 11
204.3158506686007
 21
105.4773943047607
 31
0.0
  0
LINE
  5
519
330
1F
100
AcDbEntity
  8
0
  6
Continuous
 62
     0
370
     0
100
AcDbLine
 10
141.5306650931155
 20
97.06577538658024
 30
0.0
 11
141.5306650931155
 21
97.55551233101727
 31
0.0
  0
LINE
  5
51A
330
1F
100
AcDbEntity
  8
0
  6
Continuous
 62
     0
370
     0
100
AcDbLine
 10
141.5372204119479
 20
97.05354421544911
 30
0.0
 11
204.3224059874331
 21
105.4651631336296
 31
0.0
  0
LINE
  5
51B
330
1F
100
AcDbEntity
  8
0
  6
Continuous
 62
     0
370
     0
100
AcDbLine
 10
141.5372204119479
 20
97.05354421544911
 30
0.0
 11
141.5306650931155
 21
97.06577538658024
 31
0.0
  0
LWPOLYLINE
  5
51C
330
1F
100
AcDbEntity
  8
0
  6
Continuous
 62
     0
370
     0
100
AcDbPolyline
 90
        5
 70
   128
 43
0.0
 10
141.5415441328799
 20
97.04947619844319
 10
141.5410172278201
 20
97.04948782134892
 10
141.539808445624
 20
97.05008252669217
 10
141.5385376745974
 20
97.05144434381367
 10
141.5372204119479
 20
97.05354421544911
  0
ARC
  5
51D
330
1F
100
AcDbEntity
  8
0
  6
Continuous
 62
     0
370
     0
100
AcDbCircle
 10
141.5499454318446
 20
97.63019163407873
 30
0.0
 40
0.0445132623827684
100
AcDbArc
 50
179.2846208799762
 51
202.425864390384
  0
LINE
  5
51E
330
1F
100
AcDbEntity
  8
0
  6
Continuous
 62
     0
370
     0
100
AcDbLine
 10
204.2906212145602
 20
106.31256594468
 30
0.0
 11
197.381454640082
 21
105.3869138579452
 31
0.0
  0
LINE
  5
51F
330
1F
100
AcDbEntity
  8
0
  6
Continuous
 62
     0
370
     0
100
AcDbLine
 10
196.4153897101199
 20
105.2574850540245
 30
0.0
 11
149.3506645495211
 21
98.952008328923
 31
0.0
  0
LINE
  5
520
330
1F
100
AcDbEntity
  8
0
  6
Continuous
 62
     0
370
     0
100
AcDbLine
 10
148.384599619559
 20
98.82257952500225
 30
0.0
 11
141.5054356390749
 21
97.90094702649952
 31
0.0
  0
LINE
  5
521
330
1F
100
AcDbEntity
  8
0
  6
Continuous
 62
     0
370
     0
100
AcDbLine
 10
141.5054356390749
 20
97.63074739981533
 30
0.0
 11
141.5054356390749
 21
97.90094702649952
 31
0.0
  0
LINE
  5
522
330
1F
100
AcDbEntity
  8
0
  6
Continuous
 62
     0
370
     0
100
AcDbLine
 10
141.5256285006319
 20
97.58181690383793
 30
0.0
 11
141.5087985331332
 21
97.6132103722179
 31
0.0
  0
ARC
  5
523
330
1F
100
AcDbEntity
  8
0
  6
Continuous
 62
     0
370
     0
100
AcDbCircle
 10
141.4644805979454
 20
97.55647431495952
 30
0.0
 40
0.0661914859632327
100
AcDbArc
 50
359.1672711446184
 51
22.51143456100182
  0
LINE
  5
524
330
1F
100
AcDbEntity
  8
0
  6
Continuous
 62
     0
370
     0
100
AcDbLine
 10
141.5222656065737
 20
97.92584522772671
 30
0.0
 11
148.3841502005373
 21
98.84516476798893
 31
0.0
  0
LINE
  5
525
330
1F
100
AcDbEntity
  8
0
  6
Continuous
 62
     0
370
     0
100
AcDbLine
 10
149.3502151304995
 20
98.97459357190968
 30
0.0
 11
196.4149402910983
 21
105.2800702970112
 31
0.0
  0
LINE
  5
526
330
1F
100
AcDbEntity
  8
0
  6
Continuous
 62
     0
370
     0
100
AcDbLine
 10
197.3810052210604
 20
105.4094991009319
 30
0.0
 11
204.3074356848513
 21
106.3374641459072
 31
0.0
  0
LINE
  5
527
330
1F
100
AcDbEntity
  8
0
  6
Continuous
 62
     0
370
     0
100
AcDbLine
 10
141.5054356390749
 20
97.90094702649952
 30
0.0
 11
141.5222656065737
 21
97.92584522772671
 31
0.0
  0
LINE
  5
528
330
1F
100
AcDbEntity
  8
0
  6
Continuous
 62
     0
370
     0
100
AcDbLine
 10
141.6507219607149
 20
96.86100109625698
 30
0.0
 11
204.4359075362002
 21
105.2726200144375
 31
0.0
  0
LINE
  5
529
330
1F
100
AcDbEntity
  8
0
  6
Continuous
 62
     0
370
     0
100
AcDbLine
 10
141.6507219607149
 20
96.86100109625698
 30
0.0
 11
141.6446625525271
 21
96.93317352939488
 31
0.0
  0
LINE
  5
52A
330
1F
100
AcDbEntity
  8
0
  6
Continuous
 62
     0
370
     0
100
AcDbLine
 10
204.4298326308047
 20
105.3447924475753
 30
0.0
 11
141.6446625525271
 21
96.93317352939488
 31
0.0
  0
LINE
  5
52B
330
1F
100
AcDbEntity
  8
0
  6
Continuous
 62
     0
370
     0
100
AcDbLine
 10
204.4438885981356
 20
105.2384835403049
 30
0.0
 11
141.6587030226504
 21
96.82686462212445
 31
0.0
  0
ARC
  5
52C
330
1F
100
AcDbEntity
  8
0
  6
Continuous
 62
     0
370
     0
100
AcDbCircle
 10
141.7514777723665
 20
96.86655645222312
 30
0.0
 40
0.1009088477859165
100
AcDbArc
 50
183.1559121261752
 51
203.1626966510676
  0
LINE
  5
52D
330
1F
100
AcDbEntity
  8
0
  6
Continuous
 62
     0
370
     0
100
AcDbLine
 10
141.6442286307131
 20
96.94287865568043
 30
0.0
 11
204.4294142061984
 21
105.3544995110119
 31
0.0
  0
ARC
  5
52E
330
1F
100
AcDbEntity
  8
0
  6
Continuous
 62
     0
370
     0
100
AcDbCircle
 10
141.7637138778805
 20
96.94335864665386
 30
0.0
 40
0.1194862112630084
100
AcDbArc
 50
180.2301648923197
 51
184.8898801410859
  0
LINE
  5
52F
330
1F
100
AcDbEntity
  8
0
  6
Continuous
 62
     0
370
     0
100
AcDbLine
 10
141.6652583414828
 20
96.81463345099331
 30
0.0
 11
204.4504284197604
 21
105.2262523691738
 31
0.0
  0
LINE
  5
530
330
1F
100
AcDbEntity
  8
0
  6
Continuous
 62
     0
370
     0
100
AcDbLine
 10
141.6652583414828
 20
96.81463345099331
 30
0.0
 11
141.6587030226504
 21
96.82686462212445
 31
0.0
  0
LINE
  5
531
330
1F
100
AcDbEntity
  8
0
  6
Continuous
 62
     0
370
     0
100
AcDbLine
 10
141.6442286307131
 20
96.94287865568043
 30
0.0
 11
141.6442286307131
 21
96.96307539153935
 31
0.0
  0
LINE
  5
532
330
1F
100
AcDbEntity
  8
0
  6
Continuous
 62
     0
370
     0
100
AcDbLine
 10
204.3225299650942
 20
105.4651786308372
 30
0.0
 11
204.3159746462619
 21
105.4774098019683
 31
0.0
  0
LINE
  5
533
330
1F
100
AcDbEntity
  8
0
  6
Continuous
 62
     0
370
     0
100
AcDbLine
 10
204.3159746462619
 20
105.4774098019683
 30
0.0
 11
204.3159746462619
 21
105.9671486835563
 31
0.0
  0
LWPOLYLINE
  5
534
330
1F
100
AcDbEntity
  8
0
  6
Continuous
 62
     0
370
     0
100
AcDbPolyline
 90
        5
 70
   128
 43
0.0
 10
204.3268536860263
 20
105.4611125509823
 10
204.3263267809664
 20
105.461124173888
 10
204.3251179987704
 20
105.4617188792312
 10
204.3238317305361
 20
105.4630806963527
 10
204.3225299650942
 20
105.4651786308372
  0
ARC
  5
535
330
1F
100
AcDbEntity
  8
0
  6
Continuous
 62
     0
370
     0
100
AcDbCircle
 10
204.3346473709075
 20
106.0417095336103
 30
0.0
 40
0.0439073257661994
100
AcDbArc
 50
179.1226884700724
 51
202.5877968001344
  0
LINE
  5
536
330
1F
100
AcDbEntity
  8
0
  6
Continuous
 62
     0
370
     0
100
AcDbLine
 10
204.2907451922213
 20
106.0423818152034
 30
0.0
 11
204.2907451922213
 21
106.3125833790386
 31
0.0
  0
LINE
  5
537
330
1F
100
AcDbEntity
  8
0
  6
Continuous
 62
     0
370
     0
100
AcDbLine
 10
204.3109225565707
 20
105.993453256377
 30
0.0
 11
204.2941080862796
 21
106.024844787606
 31
0.0
  0
ARC
  5
538
330
1F
100
AcDbEntity
  8
0
  6
Continuous
 62
     0
370
     0
100
AcDbCircle
 10
204.2498733096981
 20
105.96809061863
 30
0.0
 40
0.0661080474465649
100
AcDbArc
 50
359.1835981752334
 51
22.56022395141825
  0
LINE
  5
539
330
1F
100
AcDbEntity
  8
0
  6
Continuous
 62
     0
370
     0
100
AcDbLine
 10
204.2907451922213
 20
106.3125833790386
 30
0.0
 11
204.3075596625125
 21
106.3374815802658
 31
0.0
  0
LINE
  5
53A
330
1F
100
AcDbEntity
  8
0
  6
Continuous
 62
     0
370
     0
100
AcDbLine
 10
204.4360315138613
 20
105.272637448796
 30
0.0
 11
204.4299566084658
 21
105.3448098819339
 31
0.0
  0
ARC
  5
53B
330
1F
100
AcDbEntity
  8
0
  6
Continuous
 62
     0
370
     0
100
AcDbCircle
 10
204.5359355781803
 20
105.2779936673765
 30
0.0
 40
0.1000475444223078
100
AcDbArc
 50
183.0688959913343
 51
203.2497127859187
  0
ARC
  5
53C
330
1F
100
AcDbEntity
  8
0
  6
Continuous
 62
     0
370
     0
100
AcDbCircle
 10
204.5443564837693
 20
105.3546036752011
 30
0.0
 40
0.1148183341457424
100
AcDbArc
 50
180.0442459331329
 51
184.8931707639059
  0
LINE
  5
53D
330
1F
100
AcDbEntity
  8
0
  6
Continuous
 62
     0
370
     0
100
AcDbLine
 10
204.4505678946292
 20
105.2262698035324
 30
0.0
 11
204.4440125757968
 21
105.2385009746635
 31
0.0
  0
LINE
  5
53E
330
1F
100
AcDbEntity
  8
0
  6
Continuous
 62
     0
370
     0
100
AcDbLine
 10
204.4295381838595
 20
105.3545150082195
 30
0.0
 11
204.4295381838595
 21
105.3747117440784
 31
0.0
  0
LWPOLYLINE
  5
53F
330
1F
100
AcDbEntity
  8
0
  6
Continuous
 62
     0
370
     0
100
AcDbPolyline
 90
        5
 70
   128
 43
0.0
 10
204.4070052439486
 20
105.3716936628902
 10
204.4009613329684
 20
105.3728094618404
 10
204.3832635218417
 20
105.394058070668
 10
204.365565710715
 20
105.438854686507
 10
204.3582510287081
 20
105.4653200428569
  0
LINE
  5
540
330
1F
100
AcDbEntity
  8
0
  6
Continuous
 62
     0
370
     0
100
AcDbLine
 10
149.3821858698641
 20
99.1523446064079
 30
0.0
 11
149.3792259032046
 21
99.15194749046208
 31
0.0
  0
LINE
  5
541
330
1F
100
AcDbEntity
  8
0
  6
Continuous
 62
     0
370
     0
100
AcDbLine
 10
149.3529891306673
 20
99.00980903912426
 30
0.0
 11
149.3500136668002
 21
99.00941192317845
 31
0.0
  0
LINE
  5
542
330
1F
100
AcDbEntity
  8
0
  6
Continuous
 62
     0
370
     0
100
AcDbLine
 10
148.0155026251589
 20
98.94653200317265
 30
0.0
 11
148.0155026251589
 21
98.90867813635708
 31
0.0
  0
LINE
  5
543
330
1F
100
AcDbEntity
  8
0
  6
Continuous
 62
     0
370
     0
100
AcDbLine
 10
148.0996059710299
 20
98.8642999451244
 30
0.0
 11
148.0996059710299
 21
98.80704357434155
 31
0.0
  0
LINE
  5
544
330
1F
100
AcDbEntity
  8
0
  6
Continuous
 62
     0
370
     0
100
AcDbLine
 10
197.4129759604251
 20
105.5872501354301
 30
0.0
 11
197.4100004965579
 21
105.5868530194843
 31
0.0
  0
LINE
  5
545
330
1F
100
AcDbEntity
  8
0
  6
Continuous
 62
     0
370
     0
100
AcDbLine
 10
197.3837792212283
 20
105.4447145681465
 30
0.0
 11
197.3808037573611
 21
105.4443174522007
 31
0.0
  0
LINE
  5
546
330
1F
100
AcDbEntity
  8
0
  6
Continuous
 62
     0
370
     0
100
AcDbLine
 10
196.0462772185122
 20
105.3814355950439
 30
0.0
 11
196.0462772185122
 21
105.3435836653793
 31
0.0
  0
LINE
  5
547
330
1F
100
AcDbEntity
  8
0
  6
Continuous
 62
     0
370
     0
100
AcDbLine
 10
196.1303960615908
 20
105.2992054741466
 30
0.0
 11
196.1303960615908
 21
105.2419491033638
 31
0.0
  0
LINE
  5
548
330
1F
100
AcDbEntity
  8
0
  6
Continuous
 62
     0
370
     0
100
AcDbLine
 10
204.3158506686007
 20
105.9671312491977
 30
0.0
 11
197.3952626520907
 21
105.0399468760574
 31
0.0
  0
LINE
  5
549
330
1F
100
AcDbEntity
  8
0
  6
Continuous
 62
     0
370
     0
100
AcDbLine
 10
196.4223324591433
 20
104.9095998625839
 30
0.0
 11
149.3644725615298
 21
98.60504328418614
 31
0.0
  0
LINE
  5
54A
330
1F
100
AcDbEntity
  8
0
  6
Continuous
 62
     0
370
     0
100
AcDbLine
 10
148.3915423685824
 20
98.47469433356167
 30
0.0
 11
141.5306650931155
 21
97.55551233101727
 31
0.0
  0
LINE
  5
54B
330
1F
100
AcDbEntity
  8
0
  6
Continuous
 62
     0
370
     0
100
AcDbLine
 10
141.5054356390749
 20
97.63074739981533
 30
0.0
 11
148.3899771506106
 21
98.5531005184734
 31
0.0
  0
LINE
  5
54C
330
1F
100
AcDbEntity
  8
0
  6
Continuous
 62
     0
370
     0
100
AcDbLine
 10
149.3535780245577
 20
98.68220000673176
 30
0.0
 11
196.4207672411715
 21
104.9880060474956
 31
0.0
  0
LINE
  5
54D
330
1F
100
AcDbEntity
  8
0
  6
Continuous
 62
     0
370
     0
100
AcDbLine
 10
197.3843681151187
 20
105.117103598603
 30
0.0
 11
204.2906212145602
 21
106.0423663179958
 31
0.0
  0
LINE
  5
54E
330
1F
100
AcDbEntity
  8
0
  6
Continuous
 62
     0
370
     0
100
AcDbLine
 10
204.2939841086184
 20
106.0248292903984
 30
0.0
 11
197.3871886069094
 21
105.0994948964203
 31
0.0
  0
LINE
  5
54F
330
1F
100
AcDbEntity
  8
0
  6
Continuous
 62
     0
370
     0
100
AcDbLine
 10
196.4211236769473
 20
104.9700660924995
 30
0.0
 11
149.3563985163485
 21
98.66458936739804
 31
0.0
  0
LINE
  5
550
330
1F
100
AcDbEntity
  8
0
  6
Continuous
 62
     0
370
     0
100
AcDbLine
 10
148.3903335863864
 20
98.53516056347729
 30
0.0
 11
141.5087985331332
 21
97.6132103722179
 31
0.0
  0
LINE
  5
551
330
1F
100
AcDbEntity
  8
0
  6
Continuous
 62
     0
370
     0
100
AcDbLine
 10
141.5256285006319
 20
97.58181690383793
 30
0.0
 11
148.3910154635226
 21
98.50160523463131
 31
0.0
  0
LINE
  5
552
330
1F
100
AcDbEntity
  8
0
  6
Continuous
 62
     0
370
     0
100
AcDbLine
 10
149.3584131533419
 20
98.63121225643994
 30
0.0
 11
196.4217900568759
 21
104.9365107636535
 31
0.0
  0
LINE
  5
553
330
1F
100
AcDbEntity
  8
0
  6
Continuous
 62
     0
370
     0
100
AcDbLine
 10
197.3892032439028
 20
105.0661177854622
 30
0.0
 11
204.3107985789096
 21
105.9934358220184
 31
0.0
  0
LINE
  5
554
330
1F
100
AcDbEntity
  8
0
  6
Continuous
 62
     0
370
     0
100
AcDbLine
 10
85.61278813426841
 20
89.9780480485046
 30
0.0
 11
86.55456893985618
 21
90.10422243882061
 31
0.0
  0
LINE
  5
555
330
1F
100
AcDbEntity
  8
0
  6
Continuous
 62
     0
370
     0
100
AcDbLine
 10
86.5390407377993
 20
90.73472439456822
 30
0.0
 11
85.59725993221156
 21
90.60855000425221
 31
0.0
  0
LINE
  5
556
330
1F
100
AcDbEntity
  8
0
  6
Continuous
 62
     0
370
     0
100
AcDbLine
 10
133.6435782248293
 20
96.41295357752682
 30
0.0
 11
134.5853590304171
 21
96.53912796784283
 31
0.0
  0
LINE
  5
557
330
1F
100
AcDbEntity
  8
0
  6
Continuous
 62
     0
370
     0
100
AcDbLine
 10
134.5698308283602
 20
97.16962992359043
 30
0.0
 11
133.6280500227724
 21
97.04345553327443
 31
0.0
  0
LINE
  5
558
330
1F
100
AcDbEntity
  8
0
  6
Continuous
 62
     0
370
     0
100
AcDbLine
 10
78.83652561252465
 20
88.54843839217068
 30
0.0
 11
141.6217111880099
 21
96.96005731035115
 31
0.0
  0
LINE
  5
559
330
1F
100
AcDbEntity
  8
0
  6
Continuous
 62
     0
370
     0
100
AcDbLine
 10
78.75637405460228
 20
88.63785728026272
 30
0.0
 11
141.5415441328799
 21
97.04947619844319
 31
0.0
  0
LINE
  5
55A
330
1F
100
AcDbEntity
  8
0
  6
Continuous
 62
     0
370
     0
100
AcDbLine
 10
86.59365289752833
 20
90.73574527312161
 30
0.0
 11
86.59365289752833
 21
90.5668063383186
 31
0.0
  0
LINE
  5
55B
330
1F
100
AcDbEntity
  8
0
  6
Continuous
 62
     0
370
     0
100
AcDbLine
 10
86.58523791377891
 20
90.56567891646267
 30
0.0
 11
86.56781905238975
 21
90.5981901209438
 31
0.0
  0
LWPOLYLINE
  5
55C
330
1F
100
AcDbEntity
  8
0
  6
Continuous
 62
     0
370
     0
100
AcDbPolyline
 90
        9
 70
   128
 43
0.0
 10
86.56445615833152
 20
90.59241547394635
 10
86.5644871527468
 20
90.59467612911106
 10
86.56464212482322
 20
90.59661134291531
 10
86.56493657176841
 20
90.59814169216992
 10
86.56535499637474
 20
90.59920325089337
 10
86.56586640422691
 20
90.59974952746273
 10
86.56647079532493
 20
90.59976115036847
 10
86.56712167804588
 20
90.5992323081577
 10
86.56781905238975
 20
90.5981901209438
  0
LINE
  5
55D
330
1F
100
AcDbEntity
  8
0
  6
Continuous
 62
     0
370
     0
100
AcDbLine
 10
86.56445615833152
 20
90.59241547394635
 30
0.0
 11
86.56840794628013
 21
90.39428367424847
 31
0.0
  0
LINE
  5
55E
330
1F
100
AcDbEntity
  8
0
  6
Continuous
 62
     0
370
     0
100
AcDbLine
 10
86.57121294086326
 20
90.2542664032066
 30
0.0
 11
86.57161586826194
 21
90.23393600393177
 31
0.0
  0
ARC
  5
55F
330
1F
100
AcDbEntity
  8
0
  6
Continuous
 62
     0
370
     0
100
AcDbCircle
 10
86.65534392716572
 20
90.23619321100223
 30
0.0
 40
0.0837584791621345
100
AcDbArc
 50
181.5442507926763
 51
192.8311372653589
  0
LINE
  5
560
330
1F
100
AcDbEntity
  8
0
  6
Continuous
 62
     0
370
     0
100
AcDbLine
 10
86.57367699687828
 20
90.21759226132275
 30
0.0
 11
86.58523791377891
 21
90.16790627647282
 31
0.0
  0
LINE
  5
561
330
1F
100
AcDbEntity
  8
0
  6
Continuous
 62
     0
370
     0
100
AcDbLine
 10
86.58523791377891
 20
90.16790627647282
 30
0.0
 11
86.58523791377891
 21
90.15101819444538
 31
0.0
  0
LINE
  5
562
330
1F
100
AcDbEntity
  8
0
  6
Continuous
 62
     0
370
     0
100
AcDbLine
 10
86.58523791377891
 20
90.15101819444538
 30
0.0
 11
86.55525081699241
 21
90.10473965812565
 31
0.0
  0
LWPOLYLINE
  5
563
330
1F
100
AcDbEntity
  8
0
  6
Continuous
 62
     0
370
     0
100
AcDbPolyline
 90
        9
 70
   128
 43
0.0
 10
86.54948585574977
 20
90.12259050417782
 10
86.54968731944908
 20
90.11906488943936
 10
86.55015223567833
 20
90.11537655402066
 10
86.55083411281456
 20
90.11183156777264
 10
86.5516709620272
 20
90.10871662903668
 10
86.55261629169334
 20
90.10628937888981
 10
86.55357711856712
 20
90.10474740672947
 10
86.55447595661033
 20
90.10421662736775
 10
86.55525081699241
 20
90.10473965812565
  0
LINE
  5
564
330
1F
100
AcDbEntity
  8
0
  6
Continuous
 62
     0
370
     0
100
AcDbLine
 10
86.54948585574977
 20
90.12259050417782
 30
0.0
 11
86.53741353099693
 21
90.72732447791935
 31
0.0
  0
LWPOLYLINE
  5
565
330
1F
100
AcDbEntity
  8
0
  6
Continuous
 62
     0
370
     0
100
AcDbPolyline
 90
        9
 70
   128
 43
0.0
 10
86.54076092784751
 20
90.73309718776585
 10
86.54007905071128
 20
90.7341413121307
 10
86.53942816799034
 20
90.73466821719052
 10
86.53882377689231
 20
90.73465853143574
 10
86.53831236904014
 20
90.73411031771542
 10
86.53789394443382
 20
90.73305069614293
 10
86.53759949748863
 20
90.73152034688832
 10
86.53742902820457
 20
90.72958319593312
 10
86.53741353099693
 20
90.72732447791935
  0
LINE
  5
566
330
1F
100
AcDbEntity
  8
0
  6
Continuous
 62
     0
370
     0
100
AcDbLine
 10
86.54076092784751
 20
90.73309718776585
 30
0.0
 11
86.56840794628013
 21
90.68150892067791
 31
0.0
  0
LINE
  5
567
330
1F
100
AcDbEntity
  8
0
  6
Continuous
 62
     0
370
     0
100
AcDbLine
 10
86.56840794628013
 20
90.68150892067791
 30
0.0
 11
86.56840794628013
 21
90.79409225989224
 31
0.0
  0
LINE
  5
568
330
1F
100
AcDbEntity
  8
0
  6
Continuous
 62
     0
370
     0
100
AcDbLine
 10
86.59701579158653
 20
90.74072568822743
 30
0.0
 11
86.56840794628013
 21
90.79409225989224
 31
0.0
  0
LWPOLYLINE
  5
569
330
1F
100
AcDbEntity
  8
0
  6
Continuous
 62
     0
370
     0
100
AcDbPolyline
 90
        9
 70
   128
 43
0.0
 10
86.59365289752833
 20
90.73574527312161
 10
86.59371488635887
 20
90.73782189894558
 10
86.59390085285057
 20
90.73957502056004
 10
86.5942107970034
 20
90.74094264913441
 10
86.59462922160972
 20
90.74186667014004
 10
86.5951406294619
 20
90.74231608916165
 10
86.59572952335228
 20
90.74227153468968
 10
86.59634941165794
 20
90.74173300672413
 10
86.59701579158653
 20
90.74072568822743
  0
LINE
  5
56A
330
1F
100
AcDbEntity
  8
0
  6
Continuous
 62
     0
370
     0
100
AcDbLine
 10
85.60770505016197
 20
89.99641611386181
 30
0.0
 11
86.54948585574977
 21
90.12259050417782
 31
0.0
  0
LINE
  5
56B
330
1F
100
AcDbEntity
  8
0
  6
Continuous
 62
     0
370
     0
100
AcDbLine
 10
85.60770505016197
 20
89.99641611386181
 30
0.0
 11
85.59563272540919
 21
90.60115008760334
 31
0.0
  0
LINE
  5
56C
330
1F
100
AcDbEntity
  8
0
  6
Continuous
 62
     0
370
     0
100
AcDbLine
 10
86.53741353099693
 20
90.72732447791935
 30
0.0
 11
85.59563272540919
 21
90.60115008760334
 31
0.0
  0
ARC
  5
56D
330
1F
100
AcDbEntity
  8
0
  6
Continuous
 62
     0
370
     0
100
AcDbCircle
 10
85.63032846307871
 20
89.99278943502688
 30
0.0
 40
0.0229122589757695
100
AcDbArc
 50
170.8926043151031
 51
220.0446397945103
  0
LINE
  5
56E
330
1F
100
AcDbEntity
  8
0
  6
Continuous
 62
     0
370
     0
100
AcDbLine
 10
87.31159203594078
 20
90.66299363184811
 30
0.0
 11
87.2299062544619
 21
90.8154241662109
 31
0.0
  0
LINE
  5
56F
330
1F
100
AcDbEntity
  8
0
  6
Continuous
 62
     0
370
     0
100
AcDbLine
 10
87.2299062544619
 20
90.92800750542523
 30
0.0
 11
87.2299062544619
 21
90.8154241662109
 31
0.0
  0
LINE
  5
570
330
1F
100
AcDbEntity
  8
0
  6
Continuous
 62
     0
370
     0
100
AcDbLine
 10
87.2299062544619
 20
90.92800750542523
 30
0.0
 11
87.36789339130274
 21
90.6705349605167
 31
0.0
  0
LINE
  5
571
330
1F
100
AcDbEntity
  8
0
  6
Continuous
 62
     0
370
     0
100
AcDbLine
 10
85.12434714382042
 20
90.60062511969448
 30
0.0
 11
85.6266426379
 21
90.66791786957623
 31
0.0
  0
LINE
  5
572
330
1F
100
AcDbEntity
  8
0
  6
Continuous
 62
     0
370
     0
100
AcDbLine
 10
85.12434714382042
 20
90.71320845890881
 30
0.0
 11
85.12434714382042
 21
90.60062511969448
 31
0.0
  0
LINE
  5
573
330
1F
100
AcDbEntity
  8
0
  6
Continuous
 62
     0
370
     0
100
AcDbLine
 10
85.12434714382042
 20
90.71320845890881
 30
0.0
 11
87.07068794315208
 21
90.97396834898831
 31
0.0
  0
LINE
  5
574
330
1F
100
AcDbEntity
  8
0
  6
Continuous
 62
     0
370
     0
100
AcDbLine
 10
87.07068794315208
 20
90.86138500977398
 30
0.0
 11
87.07068794315208
 21
90.97396834898831
 31
0.0
  0
LINE
  5
575
330
1F
100
AcDbEntity
  8
0
  6
Continuous
 62
     0
370
     0
100
AcDbLine
 10
87.07068794315208
 20
90.86138500977398
 30
0.0
 11
86.56840794628013
 21
90.79409225989224
 31
0.0
  0
LINE
  5
576
330
1F
100
AcDbEntity
  8
0
  6
Continuous
 62
     0
370
     0
100
AcDbLine
 10
85.6266426379
 20
90.61248629499318
 30
0.0
 11
85.6266426379
 21
90.66791786957623
 31
0.0
  0
LWPOLYLINE
  5
577
330
1F
100
AcDbEntity
  8
0
  6
Continuous
 62
     0
370
     0
100
AcDbPolyline
 90
        7
 70
   128
 43
0.0
 10
85.59563272540919
 20
90.60115008760334
 10
85.59566371982444
 20
90.60340880561711
 10
85.59581869190086
 20
90.60534595657231
 10
85.59611313884605
 20
90.60687630582692
 10
85.59653156345237
 20
90.60793592739941
 10
85.59704297130455
 20
90.60848414111973
 10
85.59725993221156
 20
90.60855000425221
  0
LINE
  5
578
330
1F
100
AcDbEntity
  8
0
  6
Continuous
 62
     0
370
     0
100
AcDbLine
 10
85.11411898677696
 20
90.36858736682774
 30
0.0
 11
85.03243320529808
 21
90.52101596403958
 31
0.0
  0
LINE
  5
579
330
1F
100
AcDbEntity
  8
0
  6
Continuous
 62
     0
370
     0
100
AcDbLine
 10
85.12434714382042
 20
90.60062511969448
 30
0.0
 11
85.03243320529808
 21
90.52101596403958
 31
0.0
  0
LINE
  5
57A
330
1F
100
AcDbEntity
  8
0
  6
Continuous
 62
     0
370
     0
100
AcDbLine
 10
87.2299062544619
 20
90.8154241662109
 30
0.0
 11
87.07068794315208
 21
90.86138500977398
 31
0.0
  0
LINE
  5
57B
330
1F
100
AcDbEntity
  8
0
  6
Continuous
 62
     0
370
     0
100
AcDbLine
 10
85.56930296962608
 20
90.4295708160484
 30
0.0
 11
85.51286213939537
 21
90.53491308499218
 31
0.0
  0
LWPOLYLINE
  5
57C
330
1F
100
AcDbEntity
  8
0
  6
Continuous
 62
     0
370
     0
100
AcDbPolyline
 90
        9
 70
   128
 43
0.0
 10
85.51286213939537
 20
90.53491308499218
 10
85.48761718814723
 20
90.56050091195942
 10
85.44472091739524
 20
90.57931452203633
 10
85.39068215434901
 20
90.58848499465824
 10
85.33374541347374
 20
90.58661951828839
 10
85.28255813663353
 20
90.57400091696621
 10
85.24493091647975
 20
90.55254890728833
 10
85.2265977198397
 20
90.52553146291615
 10
85.23033254688133
 20
90.49705921817662
  0
LINE
  5
57D
330
1F
100
AcDbEntity
  8
0
  6
Continuous
 62
     0
370
     0
100
AcDbLine
 10
85.23033254688133
 20
90.49705921817662
 30
0.0
 11
85.28677337711207
 21
90.39171888638379
 31
0.0
  0
LINE
  5
57E
330
1F
100
AcDbEntity
  8
0
  6
Continuous
 62
     0
370
     0
100
AcDbLine
 10
86.84201114719261
 20
90.6288687806213
 30
0.0
 11
86.86702364032618
 21
90.60343011427761
 31
0.0
  0
LWPOLYLINE
  5
57F
330
1F
100
AcDbEntity
  8
0
  6
Continuous
 62
     0
370
     0
100
AcDbPolyline
 90
       10
 70
   128
 43
0.0
 10
87.1283220583712
 20
90.63844024349095
 10
87.12454073970665
 20
90.66672071028592
 10
87.09931128566612
 20
90.69231047440411
 10
87.05639951770655
 20
90.71112408448101
 10
87.0023762518679
 20
90.72029455710293
 10
86.94542401378501
 20
90.71842908073307
 10
86.89425223415245
 20
90.70580854225994
 10
86.85662501399864
 20
90.68435846973301
 10
86.83827632015101
 20
90.65733908820988
 10
86.84201114719261
 20
90.6288687806213
  0
LINE
  5
580
330
1F
100
AcDbEntity
  8
0
  6
Continuous
 62
     0
370
     0
100
AcDbLine
 10
87.07068794315208
 20
90.97396834898831
 30
0.0
 11
87.2299062544619
 21
90.92800750542523
 31
0.0
  0
ARC
  5
581
330
1F
100
AcDbEntity
  8
0
  6
Continuous
 62
     0
370
     0
100
AcDbCircle
 10
86.98327594344963
 20
90.940653281945
 30
0.0
 40
0.2543179609029352
100
AcDbArc
 50
248.4661967274854
 51
291.5338032725217
  0
LINE
  5
582
330
1F
100
AcDbEntity
  8
0
  6
Continuous
 62
     0
370
     0
100
AcDbLine
 10
85.03243320529808
 20
90.52101596403958
 30
0.0
 11
85.03243320529808
 21
90.6335993032539
 31
0.0
  0
LINE
  5
583
330
1F
100
AcDbEntity
  8
0
  6
Continuous
 62
     0
370
     0
100
AcDbLine
 10
85.03243320529808
 20
90.6335993032539
 30
0.0
 11
85.12434714382042
 21
90.71320845890881
 31
0.0
  0
LINE
  5
584
330
1F
100
AcDbEntity
  8
0
  6
Continuous
 62
     0
370
     0
100
AcDbLine
 10
85.25638335292686
 20
90.56102781701924
 30
0.0
 11
85.31443589275233
 21
90.45268102694394
 31
0.0
  0
ARC
  5
585
330
1F
100
AcDbEntity
  8
0
  6
Continuous
 62
     0
370
     0
100
AcDbCircle
 10
85.41601106213571
 20
90.53310155450949
 30
0.0
 40
0.1295568457827967
100
AcDbArc
 50
218.3698611780192
 51
259.284359618187
  0
LINE
  5
586
330
1F
100
AcDbEntity
  8
0
  6
Continuous
 62
     0
370
     0
100
AcDbLine
 10
134.6244429880892
 20
97.17065080214383
 30
0.0
 11
134.6244429880892
 21
97.00171186734082
 31
0.0
  0
LINE
  5
587
330
1F
100
AcDbEntity
  8
0
  6
Continuous
 62
     0
370
     0
100
AcDbLine
 10
134.6160280043398
 20
97.00058444548489
 30
0.0
 11
134.5986091429507
 21
97.03309564996601
 31
0.0
  0
LWPOLYLINE
  5
588
330
1F
100
AcDbEntity
  8
0
  6
Continuous
 62
     0
370
     0
100
AcDbPolyline
 90
        9
 70
   128
 43
0.0
 10
134.5952462488925
 20
97.02732100296856
 10
134.5952617461001
 20
97.02958165813328
 10
134.5954322153841
 20
97.03151687193753
 10
134.5957266623293
 20
97.03304722119213
 10
134.5961450869357
 20
97.03410877991558
 10
134.5966564947878
 20
97.03465505648495
 10
134.5972608858859
 20
97.03466474223973
 10
134.5979117686068
 20
97.03413783717991
 10
134.5986091429507
 20
97.03309564996601
  0
LINE
  5
589
330
1F
100
AcDbEntity
  8
0
  6
Continuous
 62
     0
370
     0
100
AcDbLine
 10
134.5952462488925
 20
97.02732100296856
 30
0.0
 11
134.5991980368411
 21
96.82918920327069
 31
0.0
  0
LINE
  5
58A
330
1F
100
AcDbEntity
  8
0
  6
Continuous
 62
     0
370
     0
100
AcDbLine
 10
134.6020030314242
 20
96.68917193222882
 30
0.0
 11
134.6024059588229
 21
96.66884153295399
 31
0.0
  0
ARC
  5
58B
330
1F
100
AcDbEntity
  8
0
  6
Continuous
 62
     0
370
     0
100
AcDbCircle
 10
134.6847737679422
 20
96.67092719732322
 30
0.0
 40
0.0823942108098743
100
AcDbArc
 50
181.4504967050986
 51
192.9248913530012
  0
LINE
  5
58C
330
1F
100
AcDbEntity
  8
0
  6
Continuous
 62
     0
370
     0
100
AcDbLine
 10
134.6044670874392
 20
96.65249779034497
 30
0.0
 11
134.6160280043398
 21
96.60281180549504
 31
0.0
  0
LINE
  5
58D
330
1F
100
AcDbEntity
  8
0
  6
Continuous
 62
     0
370
     0
100
AcDbLine
 10
134.6160280043398
 20
96.60281180549504
 30
0.0
 11
134.6160280043398
 21
96.5859237234676
 31
0.0
  0
LINE
  5
58E
330
1F
100
AcDbEntity
  8
0
  6
Continuous
 62
     0
370
     0
100
AcDbLine
 10
134.6160280043398
 20
96.5859237234676
 30
0.0
 11
134.5860254103457
 21
96.53964518714787
 31
0.0
  0
LWPOLYLINE
  5
58F
330
1F
100
AcDbEntity
  8
0
  6
Continuous
 62
     0
370
     0
100
AcDbPolyline
 90
        9
 70
   128
 43
0.0
 10
134.5802759463106
 20
96.55749603320004
 10
134.58047741001
 20
96.55397041846157
 10
134.5809423262392
 20
96.55028208304287
 10
134.5816242033755
 20
96.54673709679486
 10
134.5824610525881
 20
96.5436221580589
 10
134.5834063822543
 20
96.54119490791203
 10
134.5843672091281
 20
96.53965293575169
 10
134.5852660471712
 20
96.53912215638996
 10
134.5860254103457
 20
96.53964518714787
  0
LINE
  5
590
330
1F
100
AcDbEntity
  8
0
  6
Continuous
 62
     0
370
     0
100
AcDbLine
 10
134.5802759463106
 20
96.55749603320004
 30
0.0
 11
134.5682036215579
 21
97.16223000694157
 31
0.0
  0
LWPOLYLINE
  5
591
330
1F
100
AcDbEntity
  8
0
  6
Continuous
 62
     0
370
     0
100
AcDbPolyline
 90
        9
 70
   128
 43
0.0
 10
134.5715510184084
 20
97.16800271678807
 10
134.5708691412722
 20
97.16904490400196
 10
134.5702182585513
 20
97.16957374621273
 10
134.5696138674532
 20
97.169562123307
 10
134.5690869623934
 20
97.16901584673764
 10
134.5686840349947
 20
97.16795428801419
 10
134.5683895880495
 20
97.16642393875958
 10
134.5682191187655
 20
97.16448872495533
 10
134.5682036215579
 20
97.16223000694157
  0
LINE
  5
592
330
1F
100
AcDbEntity
  8
0
  6
Continuous
 62
     0
370
     0
100
AcDbLine
 10
134.5715510184084
 20
97.16800271678807
 30
0.0
 11
134.5991980368411
 21
97.11641444970013
 31
0.0
  0
LINE
  5
593
330
1F
100
AcDbEntity
  8
0
  6
Continuous
 62
     0
370
     0
100
AcDbLine
 10
134.5991980368411
 20
97.11641444970013
 30
0.0
 11
134.5991980368411
 21
97.22899778891446
 31
0.0
  0
LINE
  5
594
330
1F
100
AcDbEntity
  8
0
  6
Continuous
 62
     0
370
     0
100
AcDbLine
 10
134.6278058821474
 20
97.17563121724965
 30
0.0
 11
134.5991980368411
 21
97.22899778891446
 31
0.0
  0
LWPOLYLINE
  5
595
330
1F
100
AcDbEntity
  8
0
  6
Continuous
 62
     0
370
     0
100
AcDbPolyline
 90
        9
 70
   128
 43
0.0
 10
134.6244429880892
 20
97.17065080214383
 10
134.6245049769198
 20
97.17272549081684
 10
134.6246909434115
 20
97.17448054958226
 10
134.6250008875643
 20
97.17584817815663
 10
134.6254193121706
 20
97.17677219916226
 10
134.6259307200228
 20
97.17722161818386
 10
134.6265196139132
 20
97.1771770637119
 10
134.6271395022189
 20
97.17663853574635
 10
134.6278058821474
 20
97.17563121724965
  0
LINE
  5
596
330
1F
100
AcDbEntity
  8
0
  6
Continuous
 62
     0
370
     0
100
AcDbLine
 10
133.6384951407229
 20
96.43132164288403
 30
0.0
 11
134.5802759463106
 21
96.55749603320004
 31
0.0
  0
LINE
  5
597
330
1F
100
AcDbEntity
  8
0
  6
Continuous
 62
     0
370
     0
100
AcDbLine
 10
133.6384951407229
 20
96.43132164288403
 30
0.0
 11
133.6264228159701
 21
97.03605561662556
 31
0.0
  0
LINE
  5
598
330
1F
100
AcDbEntity
  8
0
  6
Continuous
 62
     0
370
     0
100
AcDbLine
 10
134.5682036215579
 20
97.16223000694157
 30
0.0
 11
133.6264228159701
 21
97.03605561662556
 31
0.0
  0
ARC
  5
599
330
1F
100
AcDbEntity
  8
0
  6
Continuous
 62
     0
370
     0
100
AcDbCircle
 10
133.6610520165978
 20
96.42767655092969
 30
0.0
 40
0.0228494933114597
100
AcDbArc
 50
170.8206059951661
 51
220.1166381142408
  0
LINE
  5
59A
330
1F
100
AcDbEntity
  8
0
  6
Continuous
 62
     0
370
     0
100
AcDbLine
 10
135.3423821265017
 20
97.09789916087033
 30
0.0
 11
135.2606963450228
 21
97.25032969523312
 31
0.0
  0
LINE
  5
59B
330
1F
100
AcDbEntity
  8
0
  6
Continuous
 62
     0
370
     0
100
AcDbLine
 10
135.2606963450228
 20
97.36291303444744
 30
0.0
 11
135.2606963450228
 21
97.25032969523312
 31
0.0
  0
LINE
  5
59C
330
1F
100
AcDbEntity
  8
0
  6
Continuous
 62
     0
370
     0
100
AcDbLine
 10
135.2606963450228
 20
97.36291303444744
 30
0.0
 11
135.3986834818636
 21
97.10544048953892
 31
0.0
  0
LINE
  5
59D
330
1F
100
AcDbEntity
  8
0
  6
Continuous
 62
     0
370
     0
100
AcDbLine
 10
133.1551372343814
 20
97.0355306487167
 30
0.0
 11
133.6574172312533
 21
97.10282339859845
 31
0.0
  0
LINE
  5
59E
330
1F
100
AcDbEntity
  8
0
  6
Continuous
 62
     0
370
     0
100
AcDbLine
 10
133.1551372343814
 20
97.14811398793103
 30
0.0
 11
133.1551372343814
 21
97.0355306487167
 31
0.0
  0
LINE
  5
59F
330
1F
100
AcDbEntity
  8
0
  6
Continuous
 62
     0
370
     0
100
AcDbLine
 10
133.1551372343814
 20
97.14811398793103
 30
0.0
 11
135.101478033713
 21
97.40887387801052
 31
0.0
  0
LINE
  5
5A0
330
1F
100
AcDbEntity
  8
0
  6
Continuous
 62
     0
370
     0
100
AcDbLine
 10
135.101478033713
 20
97.2962905387962
 30
0.0
 11
135.101478033713
 21
97.40887387801052
 31
0.0
  0
LINE
  5
5A1
330
1F
100
AcDbEntity
  8
0
  6
Continuous
 62
     0
370
     0
100
AcDbLine
 10
135.101478033713
 20
97.2962905387962
 30
0.0
 11
134.5991980368411
 21
97.22899778891446
 31
0.0
  0
LINE
  5
5A2
330
1F
100
AcDbEntity
  8
0
  6
Continuous
 62
     0
370
     0
100
AcDbLine
 10
133.6574172312533
 20
97.04738988686444
 30
0.0
 11
133.6574172312533
 21
97.10282339859845
 31
0.0
  0
LWPOLYLINE
  5
5A3
330
1F
100
AcDbEntity
  8
0
  6
Continuous
 62
     0
370
     0
100
AcDbPolyline
 90
        7
 70
   128
 43
0.0
 10
133.6264228159701
 20
97.03605561662556
 10
133.6264383131777
 20
97.03831433463932
 10
133.6266087824618
 20
97.04025148559452
 10
133.626903229407
 20
97.04178183484913
 10
133.6273216540133
 20
97.04284145642163
 10
133.6278330618655
 20
97.043387732991
 10
133.6280500227724
 20
97.04345553327443
  0
LINE
  5
5A4
330
1F
100
AcDbEntity
  8
0
  6
Continuous
 62
     0
370
     0
100
AcDbLine
 10
133.1449090773379
 20
96.803490958699
 30
0.0
 11
133.063223295859
 21
96.9559214930618
 31
0.0
  0
LINE
  5
5A5
330
1F
100
AcDbEntity
  8
0
  6
Continuous
 62
     0
370
     0
100
AcDbLine
 10
133.1551372343814
 20
97.0355306487167
 30
0.0
 11
133.063223295859
 21
96.9559214930618
 31
0.0
  0
LINE
  5
5A6
330
1F
100
AcDbEntity
  8
0
  6
Continuous
 62
     0
370
     0
100
AcDbLine
 10
135.2606963450228
 20
97.25032969523312
 30
0.0
 11
135.101478033713
 21
97.2962905387962
 31
0.0
  0
LINE
  5
5A7
330
1F
100
AcDbEntity
  8
0
  6
Continuous
 62
     0
370
     0
100
AcDbLine
 10
133.600093060187
 20
96.86447634507061
 30
0.0
 11
133.5436522299563
 21
96.96981667686345
 31
0.0
  0
LWPOLYLINE
  5
5A8
330
1F
100
AcDbEntity
  8
0
  6
Continuous
 62
     0
370
     0
100
AcDbPolyline
 90
        9
 70
   128
 43
0.0
 10
133.5436522299563
 20
96.96981667686345
 10
133.5184072787081
 20
96.99540644098164
 10
133.4755110079562
 20
97.01422005105854
 10
133.4214722449099
 20
97.02339052368046
 10
133.364520006827
 20
97.0215250473106
 10
133.3133482271944
 20
97.00890450883747
 10
133.2757210070406
 20
96.98745443631054
 10
133.257372313193
 20
96.96043699193837
 10
133.2611071402346
 20
96.93196474719883
  0
LINE
  5
5A9
330
1F
100
AcDbEntity
  8
0
  6
Continuous
 62
     0
370
     0
100
AcDbLine
 10
133.2611071402346
 20
96.93196474719883
 30
0.0
 11
133.317563467673
 21
96.826624415406
 31
0.0
  0
LINE
  5
5AA
330
1F
100
AcDbEntity
  8
0
  6
Continuous
 62
     0
370
     0
100
AcDbLine
 10
134.8728012377535
 20
97.06377430964352
 30
0.0
 11
134.8978137308871
 21
97.03833564329983
 31
0.0
  0
LWPOLYLINE
  5
5AB
330
1F
100
AcDbEntity
  8
0
  6
Continuous
 62
     0
370
     0
100
AcDbPolyline
 90
       10
 70
   128
 43
0.0
 10
135.1591121489321
 20
97.07334383536221
 10
135.1553308302676
 20
97.10162623930813
 10
135.1301013762271
 20
97.12721600342633
 10
135.0871896082674
 20
97.14602767635228
 10
135.0331508452212
 20
97.15520008612515
 10
134.976214104346
 20
97.15333460975529
 10
134.9250423247134
 20
97.14071407128216
 10
134.8874151045596
 20
97.11926206160427
 10
134.8690664107119
 20
97.0922446172321
 10
134.8728012377535
 20
97.06377430964352
  0
LINE
  5
5AC
330
1F
100
AcDbEntity
  8
0
  6
Continuous
 62
     0
370
     0
100
AcDbLine
 10
135.101478033713
 20
97.40887387801052
 30
0.0
 11
135.2606963450228
 21
97.36291303444744
 31
0.0
  0
ARC
  5
5AD
330
1F
100
AcDbEntity
  8
0
  6
Continuous
 62
     0
370
     0
100
AcDbCircle
 10
135.0140660340105
 20
97.37555881096704
 30
0.0
 40
0.2543179609027488
100
AcDbArc
 50
248.466196727469
 51
291.5338032725381
  0
LINE
  5
5AE
330
1F
100
AcDbEntity
  8
0
  6
Continuous
 62
     0
370
     0
100
AcDbLine
 10
133.063223295859
 20
96.9559214930618
 30
0.0
 11
133.063223295859
 21
97.06850483227612
 31
0.0
  0
LINE
  5
5AF
330
1F
100
AcDbEntity
  8
0
  6
Continuous
 62
     0
370
     0
100
AcDbLine
 10
133.063223295859
 20
97.06850483227612
 30
0.0
 11
133.1551372343814
 21
97.14811398793103
 31
0.0
  0
LINE
  5
5B0
330
1F
100
AcDbEntity
  8
0
  6
Continuous
 62
     0
370
     0
100
AcDbLine
 10
133.2871579462801
 20
96.99593334604145
 30
0.0
 11
133.3452259833132
 21
96.88758655596615
 31
0.0
  0
ARC
  5
5B1
330
1F
100
AcDbEntity
  8
0
  6
Continuous
 62
     0
370
     0
100
AcDbCircle
 10
133.446850320229
 20
96.96808037304433
 30
0.0
 40
0.1296408903139704
100
AcDbArc
 50
218.3817677017631
 51
259.262301491712
  0
LWPOLYLINE
  5
5B2
330
1F
100
AcDbEntity
  8
0
  6
Continuous
 62
     0
370
     0
100
AcDbPolyline
 90
        5
 70
   128
 43
0.0
 10
141.6217111880099
 20
96.96005731035115
 10
141.6156827742373
 20
96.96116923499943
 10
141.597969465903
 20
96.98242365527989
 10
141.5802716547762
 20
97.02724351693035
 10
141.5729569727694
 20
97.05368562746884
  0
LWPOLYLINE
  5
5B3
330
1F
100
AcDbEntity
  8
0
  6
Continuous
 62
     0
370
     0
100
AcDbPolyline
 90
        5
 70
   128
 43
0.0
 10
78.83652561252465
 20
88.54843839217068
 10
78.83049719875206
 20
88.54955419112088
 10
78.81279938762535
 20
88.57080473709942
 10
78.79510157649864
 20
88.61560135293843
 10
78.78777139728416
 20
88.64206670928837
  0
LINE
  5
5B4
330
1F
100
AcDbEntity
  8
0
  6
Continuous
 62
     0
370
     0
100
AcDbLine
 10
141.6652583414828
 20
96.81488528061749
 30
0.0
 11
141.6652583414828
 21
96.81463345099331
 31
0.0
  0
LINE
  5
5B5
330
1F
100
AcDbEntity
  8
0
  6
Continuous
 62
     0
370
     0
100
AcDbLine
 10
141.6652583414828
 20
96.81463345099331
 30
0.0
 11
141.658718519858
 21
96.82686462212445
 31
0.0
  0
ARC
  5
5B6
330
1F
100
AcDbEntity
  8
0
  6
Continuous
 62
     0
370
     0
100
AcDbCircle
 10
141.7506521405063
 20
96.86635979737355
 30
0.0
 40
0.1000582803842983
100
AcDbArc
 50
183.0699899945559
 51
203.2486187826997
  0
LINE
  5
5B7
330
1F
100
AcDbEntity
  8
0
  6
Continuous
 62
     0
370
     0
100
AcDbLine
 10
141.6507374579226
 20
96.86100109625698
 30
0.0
 11
141.6446625525271
 21
96.93317352939488
 31
0.0
  0
ARC
  5
5B8
330
1F
100
AcDbEntity
  8
0
  6
Continuous
 62
     0
370
     0
100
AcDbCircle
 10
141.7591605983899
 20
96.94297153681921
 30
0.0
 40
0.1149165064553004
100
AcDbArc
 50
180.0453434182721
 51
184.8910891816028
  0
LINE
  5
5B9
330
1F
100
AcDbEntity
  8
0
  6
Continuous
 62
     0
370
     0
100
AcDbLine
 10
141.6442441279208
 20
96.94288059283139
 30
0.0
 11
141.6442441279208
 21
96.96307539153935
 31
0.0
  0
LWPOLYLINE
  5
5BA
330
1F
100
AcDbEntity
  8
0
  6
Continuous
 62
     0
370
     0
100
AcDbPolyline
 90
        5
 70
   128
 43
0.0
 10
141.5372359091555
 20
97.05354421544911
 10
141.5385376745974
 20
97.05144434381367
 10
141.5398239428316
 20
97.05008252669217
 10
141.5410327250277
 20
97.04948975849987
 10
141.5415441328799
 20
97.04947619844319
  0
LINE
  5
5BB
330
1F
100
AcDbEntity
  8
0
  6
Continuous
 62
     0
370
     0
100
AcDbLine
 10
141.5372359091555
 20
97.05354421544911
 30
0.0
 11
141.5306805903231
 21
97.06577538658024
 31
0.0
  0
LINE
  5
5BC
330
1F
100
AcDbEntity
  8
0
  6
Continuous
 62
     0
370
     0
100
AcDbLine
 10
141.5306805903231
 20
97.06577538658024
 30
0.0
 11
141.5306805903231
 21
97.55551233101727
 31
0.0
  0
ARC
  5
5BD
330
1F
100
AcDbEntity
  8
0
  6
Continuous
 62
     0
370
     0
100
AcDbCircle
 10
141.4645792537592
 20
97.55645426609088
 30
0.0
 40
0.0661080474466945
100
AcDbArc
 50
359.1835981752721
 51
22.56022395141457
  0
LINE
  5
5BE
330
1F
100
AcDbEntity
  8
0
  6
Continuous
 62
     0
370
     0
100
AcDbLine
 10
141.5256285006319
 20
97.58181690383793
 30
0.0
 11
141.5088140303408
 21
97.6132103722179
 31
0.0
  0
ARC
  5
5BF
330
1F
100
AcDbEntity
  8
0
  6
Continuous
 62
     0
370
     0
100
AcDbCircle
 10
141.5493296048725
 20
97.63007057158264
 30
0.0
 40
0.0438836883391673
100
AcDbArc
 50
179.1162789576358
 51
202.5942063124561
  0
LINE
  5
5C0
330
1F
100
AcDbEntity
  8
0
  6
Continuous
 62
     0
370
     0
100
AcDbLine
 10
141.5054511362826
 20
97.63074739981533
 30
0.0
 11
141.5054511362826
 21
97.90094702649952
 31
0.0
  0
LINE
  5
5C1
330
1F
100
AcDbEntity
  8
0
  6
Continuous
 62
     0
370
     0
100
AcDbLine
 10
141.5222656065737
 20
97.92584522772671
 30
0.0
 11
141.5054511362826
 21
97.90094702649952
 31
0.0
  0
LINE
  5
5C2
330
1F
100
AcDbEntity
  8
0
  6
Continuous
 62
     0
370
     0
100
AcDbLine
 10
141.5222656065737
 20
97.92584522772671
 30
0.0
 11
141.5223120981966
 21
97.92575224448086
 31
0.0
  0
LINE
  5
5C3
330
1F
100
AcDbEntity
  8
0
  6
Continuous
 62
     0
370
     0
100
AcDbLine
 10
78.74549501483787
 20
88.65415646839978
 30
0.0
 11
141.5306805903231
 21
97.06577538658024
 31
0.0
  0
LINE
  5
5C4
330
1F
100
AcDbEntity
  8
0
  6
Continuous
 62
     0
370
     0
100
AcDbLine
 10
78.74549501483787
 20
88.65415646839978
 30
0.0
 11
78.74549501483787
 21
89.1438934128368
 31
0.0
  0
LINE
  5
5C5
330
1F
100
AcDbEntity
  8
0
  6
Continuous
 62
     0
370
     0
100
AcDbLine
 10
78.75205033367027
 20
88.64192529726864
 30
0.0
 11
141.5372359091555
 21
97.05354421544911
 31
0.0
  0
LINE
  5
5C6
330
1F
100
AcDbEntity
  8
0
  6
Continuous
 62
     0
370
     0
100
AcDbLine
 10
78.75205033367027
 20
88.64192529726864
 30
0.0
 11
78.74549501483787
 21
88.65415646839978
 31
0.0
  0
LWPOLYLINE
  5
5C7
330
1F
100
AcDbEntity
  8
0
  6
Continuous
 62
     0
370
     0
100
AcDbPolyline
 90
        5
 70
   128
 43
0.0
 10
78.75637405460228
 20
88.63785728026272
 10
78.75584714954246
 20
88.63786890316845
 10
78.75463836734642
 20
88.6384636085117
 10
78.7533675963198
 20
88.6398254256332
 10
78.75205033367027
 20
88.64192529726864
  0
ARC
  5
5C8
330
1F
100
AcDbEntity
  8
0
  6
Continuous
 62
     0
370
     0
100
AcDbCircle
 10
78.76477535356705
 20
89.21857271589825
 30
0.0
 40
0.0445132623827684
100
AcDbArc
 50
179.2846208799579
 51
202.4258643903741
  0
LINE
  5
5C9
330
1F
100
AcDbEntity
  8
0
  6
Continuous
 62
     0
370
     0
100
AcDbLine
 10
141.5054511362826
 20
97.90094702649952
 30
0.0
 11
134.5962845618044
 21
96.97529493976475
 31
0.0
  0
LINE
  5
5CA
330
1F
100
AcDbEntity
  8
0
  6
Continuous
 62
     0
370
     0
100
AcDbLine
 10
133.6302196318423
 20
96.845866135844
 30
0.0
 11
86.56549447124351
 21
90.54038941074253
 31
0.0
  0
LINE
  5
5CB
330
1F
100
AcDbEntity
  8
0
  6
Continuous
 62
     0
370
     0
100
AcDbLine
 10
85.59942954128138
 20
90.41096060682179
 30
0.0
 11
78.72026556079734
 21
89.48932810831906
 31
0.0
  0
LINE
  5
5CC
330
1F
100
AcDbEntity
  8
0
  6
Continuous
 62
     0
370
     0
100
AcDbLine
 10
78.72026556079734
 20
89.21912848163487
 30
0.0
 11
78.72026556079734
 21
89.48932810831906
 31
0.0
  0
LINE
  5
5CD
330
1F
100
AcDbEntity
  8
0
  6
Continuous
 62
     0
370
     0
100
AcDbLine
 10
78.74045842235435
 20
89.17019798565747
 30
0.0
 11
78.72362845485559
 21
89.20159145403744
 31
0.0
  0
ARC
  5
5CE
330
1F
100
AcDbEntity
  8
0
  6
Continuous
 62
     0
370
     0
100
AcDbCircle
 10
78.67931051966781
 20
89.14485539677905
 30
0.0
 40
0.0661914859632327
100
AcDbArc
 50
359.1672711446184
 51
22.51143456100182
  0
LINE
  5
5CF
330
1F
100
AcDbEntity
  8
0
  6
Continuous
 62
     0
370
     0
100
AcDbLine
 10
78.73709552829612
 20
89.51422630954625
 30
0.0
 11
85.59898012225975
 21
90.43354584980847
 31
0.0
  0
LINE
  5
5D0
330
1F
100
AcDbEntity
  8
0
  6
Continuous
 62
     0
370
     0
100
AcDbLine
 10
86.5650450522219
 20
90.56297465372921
 30
0.0
 11
133.6297702128207
 21
96.86845137883068
 31
0.0
  0
LINE
  5
5D1
330
1F
100
AcDbEntity
  8
0
  6
Continuous
 62
     0
370
     0
100
AcDbLine
 10
134.5958351427828
 20
96.99788018275143
 30
0.0
 11
141.5222656065737
 21
97.92584522772671
 31
0.0
  0
LINE
  5
5D2
330
1F
100
AcDbEntity
  8
0
  6
Continuous
 62
     0
370
     0
100
AcDbLine
 10
78.72026556079734
 20
89.48932810831906
 30
0.0
 11
78.73709552829612
 21
89.51422630954625
 31
0.0
  0
LINE
  5
5D3
330
1F
100
AcDbEntity
  8
0
  6
Continuous
 62
     0
370
     0
100
AcDbLine
 10
78.86555188243736
 20
88.44938217807652
 30
0.0
 11
141.6507374579226
 21
96.86100109625698
 31
0.0
  0
LINE
  5
5D4
330
1F
100
AcDbEntity
  8
0
  6
Continuous
 62
     0
370
     0
100
AcDbLine
 10
78.86555188243736
 20
88.44938217807652
 30
0.0
 11
78.85949247424949
 21
88.52155461121441
 31
0.0
  0
LINE
  5
5D5
330
1F
100
AcDbEntity
  8
0
  6
Continuous
 62
     0
370
     0
100
AcDbLine
 10
141.6446625525271
 20
96.93317352939488
 30
0.0
 11
78.85949247424949
 21
88.52155461121441
 31
0.0
  0
LINE
  5
5D6
330
1F
100
AcDbEntity
  8
0
  6
Continuous
 62
     0
370
     0
100
AcDbLine
 10
141.658718519858
 20
96.82686462212445
 30
0.0
 11
78.87353294437278
 21
88.41524570394398
 31
0.0
  0
ARC
  5
5D7
330
1F
100
AcDbEntity
  8
0
  6
Continuous
 62
     0
370
     0
100
AcDbCircle
 10
78.96630769408893
 20
88.45493753404266
 30
0.0
 40
0.1009088477859165
100
AcDbArc
 50
183.1559121261752
 51
203.1626966510676
  0
LINE
  5
5D8
330
1F
100
AcDbEntity
  8
0
  6
Continuous
 62
     0
370
     0
100
AcDbLine
 10
78.85905855243553
 20
88.53125973749997
 30
0.0
 11
141.6442441279208
 21
96.94288059283139
 31
0.0
  0
ARC
  5
5D9
330
1F
100
AcDbEntity
  8
0
  6
Continuous
 62
     0
370
     0
100
AcDbCircle
 10
78.97854379960292
 20
88.5317397284734
 30
0.0
 40
0.1194862112630084
100
AcDbArc
 50
180.2301648923197
 51
184.8898801410864
  0
LINE
  5
5DA
330
1F
100
AcDbEntity
  8
0
  6
Continuous
 62
     0
370
     0
100
AcDbLine
 10
78.88008826320518
 20
88.40301453281285
 30
0.0
 11
141.6652583414828
 21
96.81463345099331
 31
0.0
  0
LINE
  5
5DB
330
1F
100
AcDbEntity
  8
0
  6
Continuous
 62
     0
370
     0
100
AcDbLine
 10
78.88008826320518
 20
88.40301453281285
 30
0.0
 11
78.87353294437278
 21
88.41524570394398
 31
0.0
  0
LINE
  5
5DC
330
1F
100
AcDbEntity
  8
0
  6
Continuous
 62
     0
370
     0
100
AcDbLine
 10
78.85905855243553
 20
88.53125973749997
 30
0.0
 11
78.85905855243553
 21
88.55145647335888
 31
0.0
  0
LINE
  5
5DD
330
1F
100
AcDbEntity
  8
0
  6
Continuous
 62
     0
370
     0
100
AcDbLine
 10
141.5373598868166
 20
97.05355971265675
 30
0.0
 11
141.5308045679843
 21
97.06579088378788
 31
0.0
  0
LINE
  5
5DE
330
1F
100
AcDbEntity
  8
0
  6
Continuous
 62
     0
370
     0
100
AcDbLine
 10
141.5308045679843
 20
97.06579088378788
 30
0.0
 11
141.5308045679843
 21
97.55552976537587
 31
0.0
  0
LWPOLYLINE
  5
5DF
330
1F
100
AcDbEntity
  8
0
  6
Continuous
 62
     0
370
     0
100
AcDbPolyline
 90
        5
 70
   128
 43
0.0
 10
141.5416836077486
 20
97.04949363280178
 10
141.5411567026888
 20
97.04950525570752
 10
141.5399479204928
 20
97.05009996105076
 10
141.5386616522585
 20
97.05146177817227
 10
141.5373598868166
 20
97.05355971265675
  0
ARC
  5
5E0
330
1F
100
AcDbEntity
  8
0
  6
Continuous
 62
     0
370
     0
100
AcDbCircle
 10
141.5494772926299
 20
97.63009061542978
 30
0.0
 40
0.0439073257661994
100
AcDbArc
 50
179.1226884700538
 51
202.587796800083
  0
LINE
  5
5E1
330
1F
100
AcDbEntity
  8
0
  6
Continuous
 62
     0
370
     0
100
AcDbLine
 10
141.5055751139437
 20
97.63076289702298
 30
0.0
 11
141.5055751139437
 21
97.90096446085812
 31
0.0
  0
LINE
  5
5E2
330
1F
100
AcDbEntity
  8
0
  6
Continuous
 62
     0
370
     0
100
AcDbLine
 10
141.5257524782931
 20
97.58183433819653
 30
0.0
 11
141.508938008002
 21
97.61322586942555
 31
0.0
  0
ARC
  5
5E3
330
1F
100
AcDbEntity
  8
0
  6
Continuous
 62
     0
370
     0
100
AcDbCircle
 10
141.4647032314205
 20
97.5564717004495
 30
0.0
 40
0.0661080474465649
100
AcDbArc
 50
359.1835981752457
 51
22.56022395142963
  0
LINE
  5
5E4
330
1F
100
AcDbEntity
  8
0
  6
Continuous
 62
     0
370
     0
100
AcDbLine
 10
141.5055751139437
 20
97.90096446085812
 30
0.0
 11
141.5223895842348
 21
97.92586266208531
 31
0.0
  0
LINE
  5
5E5
330
1F
100
AcDbEntity
  8
0
  6
Continuous
 62
     0
370
     0
100
AcDbLine
 10
141.6508614355837
 20
96.86101853061558
 30
0.0
 11
141.6447865301882
 21
96.93319096375347
 31
0.0
  0
ARC
  5
5E6
330
1F
100
AcDbEntity
  8
0
  6
Continuous
 62
     0
370
     0
100
AcDbCircle
 10
141.7507654999027
 20
96.86637474919605
 30
0.0
 40
0.1000475444223078
100
AcDbArc
 50
183.0688959913261
 51
203.2497127859112
  0
ARC
  5
5E7
330
1F
100
AcDbEntity
  8
0
  6
Continuous
 62
     0
370
     0
100
AcDbCircle
 10
141.7591864054916
 20
96.94298475702068
 30
0.0
 40
0.1148183341457424
100
AcDbArc
 50
180.04424593314
 51
184.893170763913
  0
LINE
  5
5E8
330
1F
100
AcDbEntity
  8
0
  6
Continuous
 62
     0
370
     0
100
AcDbLine
 10
141.6653978163516
 20
96.81465088535191
 30
0.0
 11
141.6588424975191
 21
96.82688205648304
 31
0.0
  0
LINE
  5
5E9
330
1F
100
AcDbEntity
  8
0
  6
Continuous
 62
     0
370
     0
100
AcDbLine
 10
141.6443681055819
 20
96.94289609003903
 30
0.0
 11
141.6443681055819
 21
96.96309282589795
 31
0.0
  0
LWPOLYLINE
  5
5EA
330
1F
100
AcDbEntity
  8
0
  6
Continuous
 62
     0
370
     0
100
AcDbPolyline
 90
        5
 70
   128
 43
0.0
 10
141.621835165671
 20
96.96007474470974
 10
141.6157912546908
 20
96.96119054365994
 10
141.5980934435641
 20
96.98243915248753
 10
141.5803956324374
 20
97.02723576832653
 10
141.5730809504305
 20
97.05370112467648
  0
LINE
  5
5EB
330
1F
100
AcDbEntity
  8
0
  6
Continuous
 62
     0
370
     0
100
AcDbLine
 10
86.59701579158653
 20
90.74072568822743
 30
0.0
 11
86.59405582492698
 21
90.74032857228161
 31
0.0
  0
LINE
  5
5EC
330
1F
100
AcDbEntity
  8
0
  6
Continuous
 62
     0
370
     0
100
AcDbLine
 10
86.56781905238975
 20
90.5981901209438
 30
0.0
 11
86.56484358852256
 21
90.59779300499798
 31
0.0
  0
LINE
  5
5ED
330
1F
100
AcDbEntity
  8
0
  6
Continuous
 62
     0
370
     0
100
AcDbLine
 10
85.23033254688133
 20
90.53491308499218
 30
0.0
 11
85.23033254688133
 21
90.49705921817662
 31
0.0
  0
LINE
  5
5EE
330
1F
100
AcDbEntity
  8
0
  6
Continuous
 62
     0
370
     0
100
AcDbLine
 10
85.31443589275233
 20
90.45268102694394
 30
0.0
 11
85.31443589275233
 21
90.39542465616108
 31
0.0
  0
LINE
  5
5EF
330
1F
100
AcDbEntity
  8
0
  6
Continuous
 62
     0
370
     0
100
AcDbLine
 10
134.6278058821474
 20
97.17563121724965
 30
0.0
 11
134.6248304182803
 21
97.17523410130383
 31
0.0
  0
LINE
  5
5F0
330
1F
100
AcDbEntity
  8
0
  6
Continuous
 62
     0
370
     0
100
AcDbLine
 10
134.5986091429507
 20
97.03309564996601
 30
0.0
 11
134.5956336790835
 21
97.0326985340202
 31
0.0
  0
LINE
  5
5F1
330
1F
100
AcDbEntity
  8
0
  6
Continuous
 62
     0
370
     0
100
AcDbLine
 10
133.2611071402346
 20
96.96981667686345
 30
0.0
 11
133.2611071402346
 21
96.93196474719883
 31
0.0
  0
LINE
  5
5F2
330
1F
100
AcDbEntity
  8
0
  6
Continuous
 62
     0
370
     0
100
AcDbLine
 10
133.3452259833132
 20
96.88758655596615
 30
0.0
 11
133.3452259833132
 21
96.8303301851833
 31
0.0
  0
LINE
  5
5F3
330
1F
100
AcDbEntity
  8
0
  6
Continuous
 62
     0
370
     0
100
AcDbLine
 10
141.5306805903231
 20
97.55551233101727
 30
0.0
 11
134.6100925738131
 21
96.62832795787693
 31
0.0
  0
LINE
  5
5F4
330
1F
100
AcDbEntity
  8
0
  6
Continuous
 62
     0
370
     0
100
AcDbLine
 10
133.6371623808657
 20
96.49798094440342
 30
0.0
 11
86.57930248325218
 21
90.19342436600567
 31
0.0
  0
LINE
  5
5F5
330
1F
100
AcDbEntity
  8
0
  6
Continuous
 62
     0
370
     0
100
AcDbLine
 10
85.60637229030479
 20
90.0630754153812
 30
0.0
 11
78.74549501483787
 21
89.1438934128368
 31
0.0
  0
LINE
  5
5F6
330
1F
100
AcDbEntity
  8
0
  6
Continuous
 62
     0
370
     0
100
AcDbLine
 10
78.72026556079734
 20
89.21912848163487
 30
0.0
 11
85.60480707233299
 21
90.14148160029293
 31
0.0
  0
LINE
  5
5F7
330
1F
100
AcDbEntity
  8
0
  6
Continuous
 62
     0
370
     0
100
AcDbLine
 10
86.56840794628013
 20
90.2705810885513
 30
0.0
 11
133.6355971628939
 21
96.57638712931515
 31
0.0
  0
LINE
  5
5F8
330
1F
100
AcDbEntity
  8
0
  6
Continuous
 62
     0
370
     0
100
AcDbLine
 10
134.5991980368411
 20
96.70548468042256
 30
0.0
 11
141.5054511362826
 21
97.63074739981533
 31
0.0
  0
LINE
  5
5F9
330
1F
100
AcDbEntity
  8
0
  6
Continuous
 62
     0
370
     0
100
AcDbLine
 10
141.5088140303408
 20
97.6132103722179
 30
0.0
 11
134.6020185286318
 21
96.68787597823979
 31
0.0
  0
LINE
  5
5FA
330
1F
100
AcDbEntity
  8
0
  6
Continuous
 62
     0
370
     0
100
AcDbLine
 10
133.6359535986697
 20
96.55844717431904
 30
0.0
 11
86.5712284380709
 21
90.25297044921757
 31
0.0
  0
LINE
  5
5FB
330
1F
100
AcDbEntity
  8
0
  6
Continuous
 62
     0
370
     0
100
AcDbLine
 10
85.60516350810877
 20
90.12354164529683
 30
0.0
 11
78.72362845485559
 21
89.20159145403744
 31
0.0
  0
LINE
  5
5FC
330
1F
100
AcDbEntity
  8
0
  6
Continuous
 62
     0
370
     0
100
AcDbLine
 10
78.74045842235435
 20
89.17019798565747
 30
0.0
 11
85.60584538524498
 21
90.08998631645085
 31
0.0
  0
LINE
  5
5FD
330
1F
100
AcDbEntity
  8
0
  6
Continuous
 62
     0
370
     0
100
AcDbLine
 10
86.57324307506431
 20
90.21959333825947
 30
0.0
 11
133.6366199785982
 21
96.52489184547306
 31
0.0
  0
LINE
  5
5FE
330
1F
100
AcDbEntity
  8
0
  6
Continuous
 62
     0
370
     0
100
AcDbLine
 10
134.6040331656252
 20
96.65449886728169
 30
0.0
 11
141.5256285006319
 21
97.58181690383793
 31
0.0
  0
LINE
  5
5FF
330
1F
100
AcDbEntity
  8
0
  6
Continuous
 62
     0
370
     0
100
AcDbLine
 10
22.8276180559908
 20
81.56642913032412
 30
0.0
 11
23.76939886157855
 21
81.69260352064013
 31
0.0
  0
LINE
  5
600
330
1F
100
AcDbEntity
  8
0
  6
Continuous
 62
     0
370
     0
100
AcDbLine
 10
23.75387065952167
 20
82.32310547638774
 30
0.0
 11
22.81208985393394
 21
82.19693108607173
 31
0.0
  0
LINE
  5
601
330
1F
100
AcDbEntity
  8
0
  6
Continuous
 62
     0
370
     0
100
AcDbLine
 10
70.85840814655171
 20
88.00133465934636
 30
0.0
 11
71.80018895213951
 21
88.12750904966236
 31
0.0
  0
LINE
  5
602
330
1F
100
AcDbEntity
  8
0
  6
Continuous
 62
     0
370
     0
100
AcDbLine
 10
71.78466075008262
 20
88.75801100540997
 30
0.0
 11
70.84287994449485
 21
88.63183661509396
 31
0.0
  0
LINE
  5
603
330
1F
100
AcDbEntity
  8
0
  6
Continuous
 62
     0
370
     0
100
AcDbLine
 10
16.05135553424704
 20
80.1368194739902
 30
0.0
 11
78.83654110973228
 21
88.54843839217068
 31
0.0
  0
LINE
  5
604
330
1F
100
AcDbEntity
  8
0
  6
Continuous
 62
     0
370
     0
100
AcDbLine
 10
15.97120397632466
 20
80.22623836208224
 30
0.0
 11
78.75637405460228
 21
88.63785728026272
 31
0.0
  0
LINE
  5
605
330
1F
100
AcDbEntity
  8
0
  6
Continuous
 62
     0
370
     0
100
AcDbLine
 10
23.80848281925071
 20
82.32412635494113
 30
0.0
 11
23.80848281925071
 21
82.15518742013812
 31
0.0
  0
LINE
  5
606
330
1F
100
AcDbEntity
  8
0
  6
Continuous
 62
     0
370
     0
100
AcDbLine
 10
23.8000678355013
 20
82.1540599982822
 30
0.0
 11
23.78264897411212
 21
82.18657120276332
 31
0.0
  0
LWPOLYLINE
  5
607
330
1F
100
AcDbEntity
  8
0
  6
Continuous
 62
     0
370
     0
100
AcDbPolyline
 90
        9
 70
   128
 43
0.0
 10
23.77928608005389
 20
82.18079655576587
 10
23.77931707446918
 20
82.18305721093058
 10
23.77947204654559
 20
82.18499242473483
 10
23.7797664934908
 20
82.18652277398944
 10
23.78018491809712
 20
82.18758433271289
 10
23.78069632594929
 20
82.18813060928225
 10
23.7813007170473
 20
82.18814223218799
 10
23.78195159976825
 20
82.18761338997722
 10
23.78264897411212
 20
82.18657120276332
  0
LINE
  5
608
330
1F
100
AcDbEntity
  8
0
  6
Continuous
 62
     0
370
     0
100
AcDbLine
 10
23.77928608005389
 20
82.18079655576587
 30
0.0
 11
23.7832378680025
 21
81.98266475606799
 31
0.0
  0
LINE
  5
609
330
1F
100
AcDbEntity
  8
0
  6
Continuous
 62
     0
370
     0
100
AcDbLine
 10
23.78604286258565
 20
81.84264748502612
 30
0.0
 11
23.78644578998431
 21
81.8223170857513
 31
0.0
  0
ARC
  5
60A
330
1F
100
AcDbEntity
  8
0
  6
Continuous
 62
     0
370
     0
100
AcDbCircle
 10
23.8701738488881
 20
81.82457429282177
 30
0.0
 40
0.0837584791621345
100
AcDbArc
 50
181.544250792686
 51
192.8311372653684
  0
LINE
  5
60B
330
1F
100
AcDbEntity
  8
0
  6
Continuous
 62
     0
370
     0
100
AcDbLine
 10
23.78850691860065
 20
81.80597334314227
 30
0.0
 11
23.8000678355013
 21
81.75628735829234
 31
0.0
  0
LINE
  5
60C
330
1F
100
AcDbEntity
  8
0
  6
Continuous
 62
     0
370
     0
100
AcDbLine
 10
23.8000678355013
 20
81.75628735829234
 30
0.0
 11
23.8000678355013
 21
81.7393992762649
 31
0.0
  0
LINE
  5
60D
330
1F
100
AcDbEntity
  8
0
  6
Continuous
 62
     0
370
     0
100
AcDbLine
 10
23.8000678355013
 20
81.7393992762649
 30
0.0
 11
23.7700807387148
 21
81.69312073994517
 31
0.0
  0
LWPOLYLINE
  5
60E
330
1F
100
AcDbEntity
  8
0
  6
Continuous
 62
     0
370
     0
100
AcDbPolyline
 90
        9
 70
   128
 43
0.0
 10
23.76431577747215
 20
81.71097158599734
 10
23.76451724117145
 20
81.70744597125888
 10
23.76498215740069
 20
81.70375763584018
 10
23.76566403453694
 20
81.70021264959216
 10
23.76650088374957
 20
81.6970977108562
 10
23.76744621341572
 20
81.69467046070933
 10
23.7684070402895
 20
81.693128488549
 10
23.76930587833272
 20
81.69259770918727
 10
23.7700807387148
 20
81.69312073994517
  0
LINE
  5
60F
330
1F
100
AcDbEntity
  8
0
  6
Continuous
 62
     0
370
     0
100
AcDbLine
 10
23.76431577747215
 20
81.71097158599734
 30
0.0
 11
23.7522434527193
 21
82.31570555973887
 31
0.0
  0
LWPOLYLINE
  5
610
330
1F
100
AcDbEntity
  8
0
  6
Continuous
 62
     0
370
     0
100
AcDbPolyline
 90
        9
 70
   128
 43
0.0
 10
23.7555908495699
 20
82.32147826958537
 10
23.75490897243365
 20
82.32252239395022
 10
23.75425808971271
 20
82.32304929901004
 10
23.7536536986147
 20
82.32303961325526
 10
23.75314229076253
 20
82.32249139953494
 10
23.7527238661562
 20
82.32143177796245
 10
23.752429419211
 20
82.31990142870784
 10
23.75225894992695
 20
82.31796427775264
 10
23.7522434527193
 20
82.31570555973887
  0
LINE
  5
611
330
1F
100
AcDbEntity
  8
0
  6
Continuous
 62
     0
370
     0
100
AcDbLine
 10
23.7555908495699
 20
82.32147826958537
 30
0.0
 11
23.7832378680025
 21
82.26989000249743
 31
0.0
  0
LINE
  5
612
330
1F
100
AcDbEntity
  8
0
  6
Continuous
 62
     0
370
     0
100
AcDbLine
 10
23.7832378680025
 20
82.26989000249743
 30
0.0
 11
23.7832378680025
 21
82.38247334171176
 31
0.0
  0
LINE
  5
613
330
1F
100
AcDbEntity
  8
0
  6
Continuous
 62
     0
370
     0
100
AcDbLine
 10
23.81184571330891
 20
82.32910677004695
 30
0.0
 11
23.7832378680025
 21
82.38247334171176
 31
0.0
  0
LWPOLYLINE
  5
614
330
1F
100
AcDbEntity
  8
0
  6
Continuous
 62
     0
370
     0
100
AcDbPolyline
 90
        9
 70
   128
 43
0.0
 10
23.80848281925071
 20
82.32412635494113
 10
23.80854480808125
 20
82.3262029807651
 10
23.80873077457294
 20
82.32795610237956
 10
23.80904071872577
 20
82.32932373095393
 10
23.80945914333209
 20
82.33024775195956
 10
23.80997055118426
 20
82.33069717098117
 10
23.81055944507466
 20
82.3306526165092
 10
23.81117933338032
 20
82.33011408854365
 10
23.81184571330891
 20
82.32910677004695
  0
LINE
  5
615
330
1F
100
AcDbEntity
  8
0
  6
Continuous
 62
     0
370
     0
100
AcDbLine
 10
22.82253497188435
 20
81.58479719568133
 30
0.0
 11
23.76431577747215
 21
81.71097158599734
 31
0.0
  0
LINE
  5
616
330
1F
100
AcDbEntity
  8
0
  6
Continuous
 62
     0
370
     0
100
AcDbLine
 10
22.82253497188435
 20
81.58479719568133
 30
0.0
 11
22.81046264713157
 21
82.18953116942286
 31
0.0
  0
LINE
  5
617
330
1F
100
AcDbEntity
  8
0
  6
Continuous
 62
     0
370
     0
100
AcDbLine
 10
23.7522434527193
 20
82.31570555973887
 30
0.0
 11
22.81046264713157
 21
82.18953116942286
 31
0.0
  0
ARC
  5
618
330
1F
100
AcDbEntity
  8
0
  6
Continuous
 62
     0
370
     0
100
AcDbCircle
 10
22.8451583848011
 20
81.58117051684641
 30
0.0
 40
0.0229122589757695
100
AcDbArc
 50
170.8926043151438
 51
220.0446397945375
  0
LINE
  5
619
330
1F
100
AcDbEntity
  8
0
  6
Continuous
 62
     0
370
     0
100
AcDbLine
 10
24.52642195766316
 20
82.25137471366763
 30
0.0
 11
24.44473617618426
 21
82.40380524803042
 31
0.0
  0
LINE
  5
61A
330
1F
100
AcDbEntity
  8
0
  6
Continuous
 62
     0
370
     0
100
AcDbLine
 10
24.44473617618426
 20
82.51638858724475
 30
0.0
 11
24.44473617618426
 21
82.40380524803042
 31
0.0
  0
LINE
  5
61B
330
1F
100
AcDbEntity
  8
0
  6
Continuous
 62
     0
370
     0
100
AcDbLine
 10
24.44473617618426
 20
82.51638858724475
 30
0.0
 11
24.58272331302513
 21
82.25891604233622
 31
0.0
  0
LINE
  5
61C
330
1F
100
AcDbEntity
  8
0
  6
Continuous
 62
     0
370
     0
100
AcDbLine
 10
22.3391770655428
 20
82.189006201514
 30
0.0
 11
22.84147255962237
 21
82.25629895139575
 31
0.0
  0
LINE
  5
61D
330
1F
100
AcDbEntity
  8
0
  6
Continuous
 62
     0
370
     0
100
AcDbLine
 10
22.3391770655428
 20
82.30158954072833
 30
0.0
 11
22.3391770655428
 21
82.189006201514
 31
0.0
  0
LINE
  5
61E
330
1F
100
AcDbEntity
  8
0
  6
Continuous
 62
     0
370
     0
100
AcDbLine
 10
22.3391770655428
 20
82.30158954072833
 30
0.0
 11
24.28551786487446
 21
82.56234943080783
 31
0.0
  0
LINE
  5
61F
330
1F
100
AcDbEntity
  8
0
  6
Continuous
 62
     0
370
     0
100
AcDbLine
 10
24.28551786487446
 20
82.4497660915935
 30
0.0
 11
24.28551786487446
 21
82.56234943080783
 31
0.0
  0
LINE
  5
620
330
1F
100
AcDbEntity
  8
0
  6
Continuous
 62
     0
370
     0
100
AcDbLine
 10
24.28551786487446
 20
82.4497660915935
 30
0.0
 11
23.7832378680025
 21
82.38247334171176
 31
0.0
  0
LINE
  5
621
330
1F
100
AcDbEntity
  8
0
  6
Continuous
 62
     0
370
     0
100
AcDbLine
 10
22.84147255962237
 20
82.2008673768127
 30
0.0
 11
22.84147255962237
 21
82.25629895139575
 31
0.0
  0
LWPOLYLINE
  5
622
330
1F
100
AcDbEntity
  8
0
  6
Continuous
 62
     0
370
     0
100
AcDbPolyline
 90
        7
 70
   128
 43
0.0
 10
22.81046264713157
 20
82.18953116942286
 10
22.81049364154683
 20
82.19178988743663
 10
22.81064861362324
 20
82.19372703839183
 10
22.81094306056842
 20
82.19525738764644
 10
22.81136148517474
 20
82.19631700921893
 10
22.81187289302692
 20
82.19686522293925
 10
22.81208985393394
 20
82.19693108607173
  0
LINE
  5
623
330
1F
100
AcDbEntity
  8
0
  6
Continuous
 62
     0
370
     0
100
AcDbLine
 10
22.32894890849934
 20
81.95696844864726
 30
0.0
 11
22.24726312702045
 21
82.1093970458591
 31
0.0
  0
LINE
  5
624
330
1F
100
AcDbEntity
  8
0
  6
Continuous
 62
     0
370
     0
100
AcDbLine
 10
22.3391770655428
 20
82.189006201514
 30
0.0
 11
22.24726312702045
 21
82.1093970458591
 31
0.0
  0
LINE
  5
625
330
1F
100
AcDbEntity
  8
0
  6
Continuous
 62
     0
370
     0
100
AcDbLine
 10
24.44473617618426
 20
82.40380524803042
 30
0.0
 11
24.28551786487446
 21
82.4497660915935
 31
0.0
  0
LINE
  5
626
330
1F
100
AcDbEntity
  8
0
  6
Continuous
 62
     0
370
     0
100
AcDbLine
 10
22.78413289134845
 20
82.01795189786792
 30
0.0
 11
22.72769206111775
 21
82.1232941668117
 31
0.0
  0
LWPOLYLINE
  5
627
330
1F
100
AcDbEntity
  8
0
  6
Continuous
 62
     0
370
     0
100
AcDbPolyline
 90
        9
 70
   128
 43
0.0
 10
22.72769206111775
 20
82.1232941668117
 10
22.70244710986961
 20
82.14888199377894
 10
22.65955083911763
 20
82.16769560385585
 10
22.60551207607139
 20
82.17686607647776
 10
22.54857533519611
 20
82.17500060010791
 10
22.4973880583559
 20
82.16238199878573
 10
22.45976083820213
 20
82.14092998910785
 10
22.44142764156209
 20
82.11391254473567
 10
22.4451624686037
 20
82.08544029999614
  0
LINE
  5
628
330
1F
100
AcDbEntity
  8
0
  6
Continuous
 62
     0
370
     0
100
AcDbLine
 10
22.4451624686037
 20
82.08544029999614
 30
0.0
 11
22.50160329883445
 21
81.9800999682033
 31
0.0
  0
LINE
  5
629
330
1F
100
AcDbEntity
  8
0
  6
Continuous
 62
     0
370
     0
100
AcDbLine
 10
24.05684106891498
 20
82.21724986244082
 30
0.0
 11
24.08185356204856
 21
82.19181119609713
 31
0.0
  0
LWPOLYLINE
  5
62A
330
1F
100
AcDbEntity
  8
0
  6
Continuous
 62
     0
370
     0
100
AcDbPolyline
 90
       10
 70
   128
 43
0.0
 10
24.34315198009357
 20
82.22682132531047
 10
24.33937066142903
 20
82.25510179210544
 10
24.3141412073885
 20
82.28069155622363
 10
24.27122943942894
 20
82.29950516630053
 10
24.21720617359028
 20
82.30867563892245
 10
24.1602539355074
 20
82.3068101625526
 10
24.10908215587483
 20
82.29418962407946
 10
24.07145493572102
 20
82.27273955155253
 10
24.05310624187339
 20
82.2457201700294
 10
24.05684106891498
 20
82.21724986244082
  0
LINE
  5
62B
330
1F
100
AcDbEntity
  8
0
  6
Continuous
 62
     0
370
     0
100
AcDbLine
 10
24.28551786487446
 20
82.56234943080783
 30
0.0
 11
24.44473617618426
 21
82.51638858724475
 31
0.0
  0
ARC
  5
62C
330
1F
100
AcDbEntity
  8
0
  6
Continuous
 62
     0
370
     0
100
AcDbCircle
 10
24.19810586517201
 20
82.52903436376454
 30
0.0
 40
0.2543179609029352
100
AcDbArc
 50
248.4661967274854
 51
291.5338032725176
  0
LINE
  5
62D
330
1F
100
AcDbEntity
  8
0
  6
Continuous
 62
     0
370
     0
100
AcDbLine
 10
22.24726312702045
 20
82.1093970458591
 30
0.0
 11
22.24726312702045
 21
82.22198038507342
 31
0.0
  0
LINE
  5
62E
330
1F
100
AcDbEntity
  8
0
  6
Continuous
 62
     0
370
     0
100
AcDbLine
 10
22.24726312702045
 20
82.22198038507342
 30
0.0
 11
22.3391770655428
 21
82.30158954072833
 31
0.0
  0
LINE
  5
62F
330
1F
100
AcDbEntity
  8
0
  6
Continuous
 62
     0
370
     0
100
AcDbLine
 10
22.47121327464924
 20
82.14940889883876
 30
0.0
 11
22.52926581447471
 21
82.04106210876346
 31
0.0
  0
ARC
  5
630
330
1F
100
AcDbEntity
  8
0
  6
Continuous
 62
     0
370
     0
100
AcDbCircle
 10
22.63084098385811
 20
82.121482636329
 30
0.0
 40
0.1295568457827967
100
AcDbArc
 50
218.3698611780104
 51
259.2843596181808
  0
LINE
  5
631
330
1F
100
AcDbEntity
  8
0
  6
Continuous
 62
     0
370
     0
100
AcDbLine
 10
71.83927290981163
 20
88.75903188396336
 30
0.0
 11
71.83927290981163
 21
88.59009294916035
 31
0.0
  0
LINE
  5
632
330
1F
100
AcDbEntity
  8
0
  6
Continuous
 62
     0
370
     0
100
AcDbLine
 10
71.83085792606221
 20
88.58896552730442
 30
0.0
 11
71.81343906467308
 21
88.62147673178555
 31
0.0
  0
LWPOLYLINE
  5
633
330
1F
100
AcDbEntity
  8
0
  6
Continuous
 62
     0
370
     0
100
AcDbPolyline
 90
        9
 70
   128
 43
0.0
 10
71.81007617061485
 20
88.6157020847881
 10
71.81009166782246
 20
88.61796273995282
 10
71.81026213710655
 20
88.61989795375706
 10
71.81055658405171
 20
88.62142830301167
 10
71.81097500865806
 20
88.62248986173512
 10
71.8114864165102
 20
88.62303613830449
 10
71.81209080760826
 20
88.62304582405926
 10
71.8127416903292
 20
88.62251891899945
 10
71.81343906467308
 20
88.62147673178555
  0
LINE
  5
634
330
1F
100
AcDbEntity
  8
0
  6
Continuous
 62
     0
370
     0
100
AcDbLine
 10
71.81007617061485
 20
88.6157020847881
 30
0.0
 11
71.81402795856346
 21
88.41757028509022
 31
0.0
  0
LINE
  5
635
330
1F
100
AcDbEntity
  8
0
  6
Continuous
 62
     0
370
     0
100
AcDbLine
 10
71.81683295314656
 20
88.27755301404835
 30
0.0
 11
71.81723588054527
 21
88.25722261477353
 31
0.0
  0
ARC
  5
636
330
1F
100
AcDbEntity
  8
0
  6
Continuous
 62
     0
370
     0
100
AcDbCircle
 10
71.8996036896646
 20
88.25930827914276
 30
0.0
 40
0.0823942108098743
100
AcDbArc
 50
181.4504967050984
 51
192.9248913530034
  0
LINE
  5
637
330
1F
100
AcDbEntity
  8
0
  6
Continuous
 62
     0
370
     0
100
AcDbLine
 10
71.8192970091616
 20
88.2408788721645
 30
0.0
 11
71.83085792606221
 21
88.19119288731457
 31
0.0
  0
LINE
  5
638
330
1F
100
AcDbEntity
  8
0
  6
Continuous
 62
     0
370
     0
100
AcDbLine
 10
71.83085792606221
 20
88.19119288731457
 30
0.0
 11
71.83085792606221
 21
88.17430480528714
 31
0.0
  0
LINE
  5
639
330
1F
100
AcDbEntity
  8
0
  6
Continuous
 62
     0
370
     0
100
AcDbLine
 10
71.83085792606221
 20
88.17430480528714
 30
0.0
 11
71.8008553320681
 21
88.1280262689674
 31
0.0
  0
LWPOLYLINE
  5
63A
330
1F
100
AcDbEntity
  8
0
  6
Continuous
 62
     0
370
     0
100
AcDbPolyline
 90
        9
 70
   128
 43
0.0
 10
71.79510586803306
 20
88.14587711501957
 10
71.7953073317324
 20
88.14235150028111
 10
71.79577224796165
 20
88.13866316486241
 10
71.79645412509785
 20
88.13511817861439
 10
71.79729097431053
 20
88.13200323987843
 10
71.79823630397664
 20
88.12957598973156
 10
71.79919713085044
 20
88.12803401757122
 10
71.80009596889363
 20
88.1275032382095
 10
71.8008553320681
 20
88.1280262689674
  0
LINE
  5
63B
330
1F
100
AcDbEntity
  8
0
  6
Continuous
 62
     0
370
     0
100
AcDbLine
 10
71.79510586803306
 20
88.14587711501957
 30
0.0
 11
71.78303354328025
 21
88.7506110887611
 31
0.0
  0
LWPOLYLINE
  5
63C
330
1F
100
AcDbEntity
  8
0
  6
Continuous
 62
     0
370
     0
100
AcDbPolyline
 90
        9
 70
   128
 43
0.0
 10
71.78638094013081
 20
88.7563837986076
 10
71.78569906299461
 20
88.7574259858215
 10
71.78504818027366
 20
88.75795482803227
 10
71.78444378917561
 20
88.75794320512654
 10
71.78391688411583
 20
88.75739692855717
 10
71.78351395671712
 20
88.75633536983372
 10
71.78321950977195
 20
88.75480502057911
 10
71.78304904048787
 20
88.75286980677487
 10
71.78303354328025
 20
88.7506110887611
  0
LINE
  5
63D
330
1F
100
AcDbEntity
  8
0
  6
Continuous
 62
     0
370
     0
100
AcDbLine
 10
71.78638094013081
 20
88.7563837986076
 30
0.0
 11
71.81402795856346
 21
88.70479553151966
 31
0.0
  0
LINE
  5
63E
330
1F
100
AcDbEntity
  8
0
  6
Continuous
 62
     0
370
     0
100
AcDbLine
 10
71.81402795856346
 20
88.70479553151966
 30
0.0
 11
71.81402795856346
 21
88.81737887073399
 31
0.0
  0
LINE
  5
63F
330
1F
100
AcDbEntity
  8
0
  6
Continuous
 62
     0
370
     0
100
AcDbLine
 10
71.84263580386983
 20
88.76401229906918
 30
0.0
 11
71.81402795856346
 21
88.81737887073399
 31
0.0
  0
LWPOLYLINE
  5
640
330
1F
100
AcDbEntity
  8
0
  6
Continuous
 62
     0
370
     0
100
AcDbPolyline
 90
        9
 70
   128
 43
0.0
 10
71.83927290981163
 20
88.75903188396336
 10
71.83933489864219
 20
88.76110657263638
 10
71.83952086513389
 20
88.76286163140179
 10
71.83983080928672
 20
88.76422925997616
 10
71.84024923389305
 20
88.76515328098179
 10
71.84076064174522
 20
88.7656027000034
 10
71.8413495356356
 20
88.76555814553143
 10
71.84196942394126
 20
88.76501961756588
 10
71.84263580386983
 20
88.76401229906918
  0
LINE
  5
641
330
1F
100
AcDbEntity
  8
0
  6
Continuous
 62
     0
370
     0
100
AcDbLine
 10
70.8533250624453
 20
88.01970272470356
 30
0.0
 11
71.79510586803306
 21
88.14587711501957
 31
0.0
  0
LINE
  5
642
330
1F
100
AcDbEntity
  8
0
  6
Continuous
 62
     0
370
     0
100
AcDbLine
 10
70.8533250624453
 20
88.01970272470356
 30
0.0
 11
70.84125273769249
 21
88.6244366984451
 31
0.0
  0
LINE
  5
643
330
1F
100
AcDbEntity
  8
0
  6
Continuous
 62
     0
370
     0
100
AcDbLine
 10
71.78303354328025
 20
88.7506110887611
 30
0.0
 11
70.84125273769249
 21
88.6244366984451
 31
0.0
  0
ARC
  5
644
330
1F
100
AcDbEntity
  8
0
  6
Continuous
 62
     0
370
     0
100
AcDbCircle
 10
70.87588193832019
 20
88.01605763274922
 30
0.0
 40
0.0228494933114597
100
AcDbArc
 50
170.8206059951718
 51
220.1166381141906
  0
LINE
  5
645
330
1F
100
AcDbEntity
  8
0
  6
Continuous
 62
     0
370
     0
100
AcDbLine
 10
72.55721204822407
 20
88.68628024268986
 30
0.0
 11
72.47552626674522
 21
88.83871077705265
 31
0.0
  0
LINE
  5
646
330
1F
100
AcDbEntity
  8
0
  6
Continuous
 62
     0
370
     0
100
AcDbLine
 10
72.47552626674522
 20
88.95129411626698
 30
0.0
 11
72.47552626674522
 21
88.83871077705265
 31
0.0
  0
LINE
  5
647
330
1F
100
AcDbEntity
  8
0
  6
Continuous
 62
     0
370
     0
100
AcDbLine
 10
72.47552626674522
 20
88.95129411626698
 30
0.0
 11
72.61351340358604
 21
88.69382157135846
 31
0.0
  0
LINE
  5
648
330
1F
100
AcDbEntity
  8
0
  6
Continuous
 62
     0
370
     0
100
AcDbLine
 10
70.36996715610374
 20
88.62391173053624
 30
0.0
 11
70.87224715297569
 21
88.69120448041798
 31
0.0
  0
LINE
  5
649
330
1F
100
AcDbEntity
  8
0
  6
Continuous
 62
     0
370
     0
100
AcDbLine
 10
70.36996715610374
 20
88.73649506975056
 30
0.0
 11
70.36996715610374
 21
88.62391173053624
 31
0.0
  0
LINE
  5
64A
330
1F
100
AcDbEntity
  8
0
  6
Continuous
 62
     0
370
     0
100
AcDbLine
 10
70.36996715610374
 20
88.73649506975056
 30
0.0
 11
72.31630795543538
 21
88.99725495983006
 31
0.0
  0
LINE
  5
64B
330
1F
100
AcDbEntity
  8
0
  6
Continuous
 62
     0
370
     0
100
AcDbLine
 10
72.31630795543538
 20
88.88467162061573
 30
0.0
 11
72.31630795543538
 21
88.99725495983006
 31
0.0
  0
LINE
  5
64C
330
1F
100
AcDbEntity
  8
0
  6
Continuous
 62
     0
370
     0
100
AcDbLine
 10
72.31630795543538
 20
88.88467162061573
 30
0.0
 11
71.81402795856346
 21
88.81737887073399
 31
0.0
  0
LINE
  5
64D
330
1F
100
AcDbEntity
  8
0
  6
Continuous
 62
     0
370
     0
100
AcDbLine
 10
70.87224715297569
 20
88.63577096868397
 30
0.0
 11
70.87224715297569
 21
88.69120448041798
 31
0.0
  0
LWPOLYLINE
  5
64E
330
1F
100
AcDbEntity
  8
0
  6
Continuous
 62
     0
370
     0
100
AcDbPolyline
 90
        7
 70
   128
 43
0.0
 10
70.84125273769249
 20
88.6244366984451
 10
70.84126823490013
 20
88.62669541645886
 10
70.84143870418416
 20
88.62863256741406
 10
70.84173315112938
 20
88.63016291666867
 10
70.8421515757357
 20
88.63122253824116
 10
70.84266298358787
 20
88.63176881481053
 10
70.84287994449485
 20
88.63183661509396
  0
LINE
  5
64F
330
1F
100
AcDbEntity
  8
0
  6
Continuous
 62
     0
370
     0
100
AcDbLine
 10
70.35973899906028
 20
88.39187204051854
 30
0.0
 11
70.2780532175814
 21
88.54430257488133
 31
0.0
  0
LINE
  5
650
330
1F
100
AcDbEntity
  8
0
  6
Continuous
 62
     0
370
     0
100
AcDbLine
 10
70.36996715610374
 20
88.62391173053624
 30
0.0
 11
70.2780532175814
 21
88.54430257488133
 31
0.0
  0
LINE
  5
651
330
1F
100
AcDbEntity
  8
0
  6
Continuous
 62
     0
370
     0
100
AcDbLine
 10
72.47552626674522
 20
88.83871077705265
 30
0.0
 11
72.31630795543538
 21
88.88467162061573
 31
0.0
  0
LINE
  5
652
330
1F
100
AcDbEntity
  8
0
  6
Continuous
 62
     0
370
     0
100
AcDbLine
 10
70.8149229819094
 20
88.45285742689015
 30
0.0
 11
70.75848215167869
 21
88.55819775868298
 31
0.0
  0
LWPOLYLINE
  5
653
330
1F
100
AcDbEntity
  8
0
  6
Continuous
 62
     0
370
     0
100
AcDbPolyline
 90
        9
 70
   128
 43
0.0
 10
70.75848215167869
 20
88.55819775868298
 10
70.73323720043052
 20
88.58378752280117
 10
70.69034092967854
 20
88.60260113287808
 10
70.6363021666323
 20
88.6117716055
 10
70.57934992854942
 20
88.60990612913014
 10
70.52817814891685
 20
88.59728559065701
 10
70.49055092876304
 20
88.57583551813008
 10
70.47220223491539
 20
88.5488180737579
 10
70.47593706195698
 20
88.52034582901837
  0
LINE
  5
654
330
1F
100
AcDbEntity
  8
0
  6
Continuous
 62
     0
370
     0
100
AcDbLine
 10
70.47593706195698
 20
88.52034582901837
 30
0.0
 11
70.53239338939537
 21
88.41500549722554
 31
0.0
  0
LINE
  5
655
330
1F
100
AcDbEntity
  8
0
  6
Continuous
 62
     0
370
     0
100
AcDbLine
 10
72.08763115947593
 20
88.65215539146305
 30
0.0
 11
72.11264365260948
 21
88.62671672511937
 31
0.0
  0
LWPOLYLINE
  5
656
330
1F
100
AcDbEntity
  8
0
  6
Continuous
 62
     0
370
     0
100
AcDbPolyline
 90
       10
 70
   128
 43
0.0
 10
72.37394207065452
 20
88.66172491718174
 10
72.37016075198994
 20
88.69000732112767
 10
72.34493129794944
 20
88.71559708524586
 10
72.30201952998985
 20
88.73440875817181
 10
72.24798076694358
 20
88.74358116794468
 10
72.19104402606834
 20
88.74171569157483
 10
72.13987224643574
 20
88.7290951531017
 10
72.10224502628196
 20
88.70764314342381
 10
72.0838963324343
 20
88.68062569905163
 10
72.08763115947593
 20
88.65215539146305
  0
LINE
  5
657
330
1F
100
AcDbEntity
  8
0
  6
Continuous
 62
     0
370
     0
100
AcDbLine
 10
72.31630795543538
 20
88.99725495983006
 30
0.0
 11
72.47552626674522
 21
88.95129411626698
 31
0.0
  0
ARC
  5
658
330
1F
100
AcDbEntity
  8
0
  6
Continuous
 62
     0
370
     0
100
AcDbCircle
 10
72.22889595573295
 20
88.96393989278657
 30
0.0
 40
0.2543179609027488
100
AcDbArc
 50
248.466196727469
 51
291.533803272531
  0
LINE
  5
659
330
1F
100
AcDbEntity
  8
0
  6
Continuous
 62
     0
370
     0
100
AcDbLine
 10
70.2780532175814
 20
88.54430257488133
 30
0.0
 11
70.2780532175814
 21
88.65688591409565
 31
0.0
  0
LINE
  5
65A
330
1F
100
AcDbEntity
  8
0
  6
Continuous
 62
     0
370
     0
100
AcDbLine
 10
70.2780532175814
 20
88.65688591409565
 30
0.0
 11
70.36996715610374
 21
88.73649506975056
 31
0.0
  0
LINE
  5
65B
330
1F
100
AcDbEntity
  8
0
  6
Continuous
 62
     0
370
     0
100
AcDbLine
 10
70.50198786800254
 20
88.58431442786099
 30
0.0
 11
70.56005590503563
 21
88.47596763778569
 31
0.0
  0
ARC
  5
65C
330
1F
100
AcDbEntity
  8
0
  6
Continuous
 62
     0
370
     0
100
AcDbCircle
 10
70.66168024195142
 20
88.55646145486386
 30
0.0
 40
0.1296408903139704
100
AcDbArc
 50
218.3817677017631
 51
259.262301491712
  0
LWPOLYLINE
  5
65D
330
1F
100
AcDbEntity
  8
0
  6
Continuous
 62
     0
370
     0
100
AcDbPolyline
 90
        5
 70
   128
 43
0.0
 10
78.83654110973228
 20
88.54843839217068
 10
78.8305126959597
 20
88.54955031681897
 10
78.81279938762535
 20
88.57080473709942
 10
78.79510157649864
 20
88.61562459874989
 10
78.7877868944918
 20
88.64206670928837
  0
LWPOLYLINE
  5
65E
330
1F
100
AcDbEntity
  8
0
  6
Continuous
 62
     0
370
     0
100
AcDbPolyline
 90
        5
 70
   128
 43
0.0
 10
16.05135553424704
 20
80.1368194739902
 10
16.04532712047443
 20
80.1379352729404
 10
16.02762930934773
 20
80.15918581891894
 10
16.00993149822102
 20
80.20398243475795
 10
16.00260131900654
 20
80.23044779110789
  0
LINE
  5
65F
330
1F
100
AcDbEntity
  8
0
  6
Continuous
 62
     0
370
     0
100
AcDbLine
 10
78.88008826320518
 20
88.40326636243702
 30
0.0
 11
78.88008826320518
 21
88.40301453281285
 31
0.0
  0
LINE
  5
660
330
1F
100
AcDbEntity
  8
0
  6
Continuous
 62
     0
370
     0
100
AcDbLine
 10
78.88008826320518
 20
88.40301453281285
 30
0.0
 11
78.87354844158043
 21
88.41524570394398
 31
0.0
  0
ARC
  5
661
330
1F
100
AcDbEntity
  8
0
  6
Continuous
 62
     0
370
     0
100
AcDbCircle
 10
78.96548206222872
 20
88.45474087919308
 30
0.0
 40
0.1000582803842983
100
AcDbArc
 50
183.0699899945568
 51
203.2486187826997
  0
LINE
  5
662
330
1F
100
AcDbEntity
  8
0
  6
Continuous
 62
     0
370
     0
100
AcDbLine
 10
78.865567379645
 20
88.44938217807652
 30
0.0
 11
78.85949247424949
 21
88.52155461121441
 31
0.0
  0
ARC
  5
663
330
1F
100
AcDbEntity
  8
0
  6
Continuous
 62
     0
370
     0
100
AcDbCircle
 10
78.9739905201123
 20
88.53135261863873
 30
0.0
 40
0.1149165064553004
100
AcDbArc
 50
180.045343418265
 51
184.8910891815945
  0
LINE
  5
664
330
1F
100
AcDbEntity
  8
0
  6
Continuous
 62
     0
370
     0
100
AcDbLine
 10
78.85907404964317
 20
88.53126167465092
 30
0.0
 11
78.85907404964317
 21
88.55145647335888
 31
0.0
  0
LWPOLYLINE
  5
665
330
1F
100
AcDbEntity
  8
0
  6
Continuous
 62
     0
370
     0
100
AcDbPolyline
 90
        5
 70
   128
 43
0.0
 10
78.75206583087791
 20
88.64192529726864
 10
78.7533675963198
 20
88.6398254256332
 10
78.75465386455406
 20
88.6384636085117
 10
78.7558626467501
 20
88.63787084031941
 10
78.75637405460228
 20
88.63785728026272
  0
LINE
  5
666
330
1F
100
AcDbEntity
  8
0
  6
Continuous
 62
     0
370
     0
100
AcDbLine
 10
78.75206583087791
 20
88.64192529726864
 30
0.0
 11
78.74551051204551
 21
88.65415646839978
 31
0.0
  0
LINE
  5
667
330
1F
100
AcDbEntity
  8
0
  6
Continuous
 62
     0
370
     0
100
AcDbLine
 10
78.74551051204551
 20
88.65415646839978
 30
0.0
 11
78.74551051204551
 21
89.1438934128368
 31
0.0
  0
ARC
  5
668
330
1F
100
AcDbEntity
  8
0
  6
Continuous
 62
     0
370
     0
100
AcDbCircle
 10
78.67940917548162
 20
89.1448353479104
 30
0.0
 40
0.0661080474466945
100
AcDbArc
 50
359.1835981752844
 51
22.56022395142595
  0
LINE
  5
669
330
1F
100
AcDbEntity
  8
0
  6
Continuous
 62
     0
370
     0
100
AcDbLine
 10
78.74045842235435
 20
89.17019798565747
 30
0.0
 11
78.72364395206321
 21
89.20159145403744
 31
0.0
  0
ARC
  5
66A
330
1F
100
AcDbEntity
  8
0
  6
Continuous
 62
     0
370
     0
100
AcDbCircle
 10
78.76415952659487
 20
89.21845165340216
 30
0.0
 40
0.0438836883391673
100
AcDbArc
 50
179.1162789576167
 51
202.5942063124318
  0
LINE
  5
66B
330
1F
100
AcDbEntity
  8
0
  6
Continuous
 62
     0
370
     0
100
AcDbLine
 10
78.72028105800499
 20
89.21912848163487
 30
0.0
 11
78.72028105800499
 21
89.48932810831906
 31
0.0
  0
LINE
  5
66C
330
1F
100
AcDbEntity
  8
0
  6
Continuous
 62
     0
370
     0
100
AcDbLine
 10
78.73709552829612
 20
89.51422630954625
 30
0.0
 11
78.72028105800499
 21
89.48932810831906
 31
0.0
  0
LINE
  5
66D
330
1F
100
AcDbEntity
  8
0
  6
Continuous
 62
     0
370
     0
100
AcDbLine
 10
78.73709552829612
 20
89.51422630954625
 30
0.0
 11
78.73714201991905
 21
89.5141333263004
 31
0.0
  0
LINE
  5
66E
330
1F
100
AcDbEntity
  8
0
  6
Continuous
 62
     0
370
     0
100
AcDbLine
 10
15.96032493656024
 20
80.2425375502193
 30
0.0
 11
78.74551051204551
 21
88.65415646839978
 31
0.0
  0
LINE
  5
66F
330
1F
100
AcDbEntity
  8
0
  6
Continuous
 62
     0
370
     0
100
AcDbLine
 10
15.96032493656024
 20
80.2425375502193
 30
0.0
 11
15.96032493656024
 21
80.73227449465632
 31
0.0
  0
LINE
  5
670
330
1F
100
AcDbEntity
  8
0
  6
Continuous
 62
     0
370
     0
100
AcDbLine
 10
15.96688025539265
 20
80.23030637908816
 30
0.0
 11
78.75206583087791
 21
88.64192529726864
 31
0.0
  0
LINE
  5
671
330
1F
100
AcDbEntity
  8
0
  6
Continuous
 62
     0
370
     0
100
AcDbLine
 10
15.96688025539265
 20
80.23030637908816
 30
0.0
 11
15.96032493656024
 21
80.2425375502193
 31
0.0
  0
LWPOLYLINE
  5
672
330
1F
100
AcDbEntity
  8
0
  6
Continuous
 62
     0
370
     0
100
AcDbPolyline
 90
        5
 70
   128
 43
0.0
 10
15.97120397632466
 20
80.22623836208224
 10
15.97067707126484
 20
80.22624998498797
 10
15.96946828906879
 20
80.22684469033122
 10
15.96819751804219
 20
80.22820650745273
 10
15.96688025539265
 20
80.23030637908816
  0
ARC
  5
673
330
1F
100
AcDbEntity
  8
0
  6
Continuous
 62
     0
370
     0
100
AcDbCircle
 10
15.97960527528944
 20
80.80695379771777
 30
0.0
 40
0.0445132623827684
100
AcDbArc
 50
179.2846208799583
 51
202.4258643903705
  0
LINE
  5
674
330
1F
100
AcDbEntity
  8
0
  6
Continuous
 62
     0
370
     0
100
AcDbLine
 10
78.72028105800499
 20
89.48932810831906
 30
0.0
 11
71.81111448352684
 21
88.56367602158429
 31
0.0
  0
LINE
  5
675
330
1F
100
AcDbEntity
  8
0
  6
Continuous
 62
     0
370
     0
100
AcDbLine
 10
70.84504955356468
 20
88.43424721766354
 30
0.0
 11
23.78032439296588
 21
82.12877049256205
 31
0.0
  0
LINE
  5
676
330
1F
100
AcDbEntity
  8
0
  6
Continuous
 62
     0
370
     0
100
AcDbLine
 10
22.81425946300376
 20
81.99934168864131
 30
0.0
 11
15.93509548251973
 21
81.07770919013858
 31
0.0
  0
LINE
  5
677
330
1F
100
AcDbEntity
  8
0
  6
Continuous
 62
     0
370
     0
100
AcDbLine
 10
15.93509548251973
 20
80.80750956345439
 30
0.0
 11
15.93509548251973
 21
81.07770919013858
 31
0.0
  0
LINE
  5
678
330
1F
100
AcDbEntity
  8
0
  6
Continuous
 62
     0
370
     0
100
AcDbLine
 10
15.95528834407672
 20
80.75857906747699
 30
0.0
 11
15.93845837657798
 21
80.78997253585696
 31
0.0
  0
ARC
  5
679
330
1F
100
AcDbEntity
  8
0
  6
Continuous
 62
     0
370
     0
100
AcDbCircle
 10
15.8941404413902
 20
80.7332364785986
 30
0.0
 40
0.0661914859632327
100
AcDbArc
 50
359.1672711445938
 51
22.51143456097439
  0
LINE
  5
67A
330
1F
100
AcDbEntity
  8
0
  6
Continuous
 62
     0
370
     0
100
AcDbLine
 10
15.95192545001851
 20
81.10260739136577
 30
0.0
 11
22.81381004398212
 21
82.02192693162799
 31
0.0
  0
LINE
  5
67B
330
1F
100
AcDbEntity
  8
0
  6
Continuous
 62
     0
370
     0
100
AcDbLine
 10
23.77987497394429
 20
82.15135573554873
 30
0.0
 11
70.84460013454307
 21
88.45683246065022
 31
0.0
  0
LINE
  5
67C
330
1F
100
AcDbEntity
  8
0
  6
Continuous
 62
     0
370
     0
100
AcDbLine
 10
71.81066506450523
 20
88.58626126457096
 30
0.0
 11
78.73709552829612
 21
89.51422630954625
 31
0.0
  0
LINE
  5
67D
330
1F
100
AcDbEntity
  8
0
  6
Continuous
 62
     0
370
     0
100
AcDbLine
 10
15.93509548251973
 20
81.07770919013858
 30
0.0
 11
15.95192545001851
 21
81.10260739136577
 31
0.0
  0
LINE
  5
67E
330
1F
100
AcDbEntity
  8
0
  6
Continuous
 62
     0
370
     0
100
AcDbLine
 10
16.08038180415974
 20
80.03776325989604
 30
0.0
 11
78.865567379645
 21
88.44938217807652
 31
0.0
  0
LINE
  5
67F
330
1F
100
AcDbEntity
  8
0
  6
Continuous
 62
     0
370
     0
100
AcDbLine
 10
16.08038180415974
 20
80.03776325989604
 30
0.0
 11
16.07432239597188
 21
80.10993569303393
 31
0.0
  0
LINE
  5
680
330
1F
100
AcDbEntity
  8
0
  6
Continuous
 62
     0
370
     0
100
AcDbLine
 10
78.85949247424949
 20
88.52155461121441
 30
0.0
 11
16.07432239597188
 21
80.10993569303393
 31
0.0
  0
LINE
  5
681
330
1F
100
AcDbEntity
  8
0
  6
Continuous
 62
     0
370
     0
100
AcDbLine
 10
78.87354844158043
 20
88.41524570394398
 30
0.0
 11
16.08836286609517
 21
80.0036267857635
 31
0.0
  0
ARC
  5
682
330
1F
100
AcDbEntity
  8
0
  6
Continuous
 62
     0
370
     0
100
AcDbCircle
 10
16.18113761581132
 20
80.0433186158622
 30
0.0
 40
0.1009088477859165
100
AcDbArc
 50
183.1559121261915
 51
203.1626966510782
  0
LINE
  5
683
330
1F
100
AcDbEntity
  8
0
  6
Continuous
 62
     0
370
     0
100
AcDbLine
 10
16.07388847415791
 20
80.11964081931949
 30
0.0
 11
78.85907404964317
 21
88.53126167465092
 31
0.0
  0
ARC
  5
684
330
1F
100
AcDbEntity
  8
0
  6
Continuous
 62
     0
370
     0
100
AcDbCircle
 10
16.19337372132531
 20
80.12012081029292
 30
0.0
 40
0.1194862112630084
100
AcDbArc
 50
180.2301648923197
 51
184.8898801410861
  0
LINE
  5
685
330
1F
100
AcDbEntity
  8
0
  6
Continuous
 62
     0
370
     0
100
AcDbLine
 10
16.09491818492755
 20
79.99139561463237
 30
0.0
 11
78.88008826320518
 21
88.40301453281285
 31
0.0
  0
LINE
  5
686
330
1F
100
AcDbEntity
  8
0
  6
Continuous
 62
     0
370
     0
100
AcDbLine
 10
16.09491818492755
 20
79.99139561463237
 30
0.0
 11
16.08836286609517
 21
80.0036267857635
 31
0.0
  0
LINE
  5
687
330
1F
100
AcDbEntity
  8
0
  6
Continuous
 62
     0
370
     0
100
AcDbLine
 10
16.07388847415791
 20
80.11964081931949
 30
0.0
 11
16.07388847415791
 21
80.1398375551784
 31
0.0
  0
LINE
  5
688
330
1F
100
AcDbEntity
  8
0
  6
Continuous
 62
     0
370
     0
100
AcDbLine
 10
78.75218980853904
 20
88.64194079447628
 30
0.0
 11
78.74563448970665
 21
88.65417196560742
 31
0.0
  0
LINE
  5
689
330
1F
100
AcDbEntity
  8
0
  6
Continuous
 62
     0
370
     0
100
AcDbLine
 10
78.74563448970665
 20
88.65417196560742
 30
0.0
 11
78.74563448970665
 21
89.1439108471954
 31
0.0
  0
LWPOLYLINE
  5
68A
330
1F
100
AcDbEntity
  8
0
  6
Continuous
 62
     0
370
     0
100
AcDbPolyline
 90
        5
 70
   128
 43
0.0
 10
78.75651352947105
 20
88.63787471462132
 10
78.75598662441124
 20
88.63788633752705
 10
78.75477784221519
 20
88.6384810428703
 10
78.75349157398094
 20
88.6398428599918
 10
78.75218980853904
 20
88.64194079447628
  0
ARC
  5
68B
330
1F
100
AcDbEntity
  8
0
  6
Continuous
 62
     0
370
     0
100
AcDbCircle
 10
78.76430721435236
 20
89.21847169724931
 30
0.0
 40
0.0439073257661994
100
AcDbArc
 50
179.1226884700538
 51
202.5877968000688
  0
LINE
  5
68C
330
1F
100
AcDbEntity
  8
0
  6
Continuous
 62
     0
370
     0
100
AcDbLine
 10
78.72040503566612
 20
89.21914397884251
 30
0.0
 11
78.72040503566612
 21
89.48934554267765
 31
0.0
  0
LINE
  5
68D
330
1F
100
AcDbEntity
  8
0
  6
Continuous
 62
     0
370
     0
100
AcDbLine
 10
78.74058240001548
 20
89.17021542001606
 30
0.0
 11
78.72376792972435
 21
89.20160695124508
 31
0.0
  0
ARC
  5
68E
330
1F
100
AcDbEntity
  8
0
  6
Continuous
 62
     0
370
     0
100
AcDbCircle
 10
78.67953315314288
 20
89.14485278226904
 30
0.0
 40
0.0661080474465649
100
AcDbArc
 50
359.1835981752459
 51
22.56022395143435
  0
LINE
  5
68F
330
1F
100
AcDbEntity
  8
0
  6
Continuous
 62
     0
370
     0
100
AcDbLine
 10
78.72040503566612
 20
89.48934554267765
 30
0.0
 11
78.73721950595726
 21
89.51424374390484
 31
0.0
  0
LINE
  5
690
330
1F
100
AcDbEntity
  8
0
  6
Continuous
 62
     0
370
     0
100
AcDbLine
 10
78.86569135730613
 20
88.44939961243512
 30
0.0
 11
78.85961645191063
 21
88.52157204557301
 31
0.0
  0
ARC
  5
691
330
1F
100
AcDbEntity
  8
0
  6
Continuous
 62
     0
370
     0
100
AcDbCircle
 10
78.96559542162511
 20
88.45475583101559
 30
0.0
 40
0.1000475444223078
100
AcDbArc
 50
183.0688959913266
 51
203.249712785908
  0
ARC
  5
692
330
1F
100
AcDbEntity
  8
0
  6
Continuous
 62
     0
370
     0
100
AcDbCircle
 10
78.97401632721406
 20
88.53136583884022
 30
0.0
 40
0.1148183341457424
100
AcDbArc
 50
180.04424593314
 51
184.893170763913
  0
LINE
  5
693
330
1F
100
AcDbEntity
  8
0
  6
Continuous
 62
     0
370
     0
100
AcDbLine
 10
78.88022773807396
 20
88.40303196717144
 30
0.0
 11
78.87367241924156
 21
88.41526313830258
 31
0.0
  0
LINE
  5
694
330
1F
100
AcDbEntity
  8
0
  6
Continuous
 62
     0
370
     0
100
AcDbLine
 10
78.8591980273043
 20
88.53127717185856
 30
0.0
 11
78.8591980273043
 21
88.55147390771748
 31
0.0
  0
LWPOLYLINE
  5
695
330
1F
100
AcDbEntity
  8
0
  6
Continuous
 62
     0
370
     0
100
AcDbPolyline
 90
        5
 70
   128
 43
0.0
 10
78.83666508739341
 20
88.54845582652928
 10
78.83062117641319
 20
88.54957162547947
 10
78.81292336528648
 20
88.57082023430706
 10
78.79522555415977
 20
88.61561685014607
 10
78.78791087215293
 20
88.64208220649601
  0
LINE
  5
696
330
1F
100
AcDbEntity
  8
0
  6
Continuous
 62
     0
370
     0
100
AcDbLine
 10
23.81184571330891
 20
82.32910677004695
 30
0.0
 11
23.80888574664935
 21
82.32870965410113
 31
0.0
  0
LINE
  5
697
330
1F
100
AcDbEntity
  8
0
  6
Continuous
 62
     0
370
     0
100
AcDbLine
 10
23.78264897411212
 20
82.18657120276332
 30
0.0
 11
23.77967351024493
 21
82.1861740868175
 31
0.0
  0
LINE
  5
698
330
1F
100
AcDbEntity
  8
0
  6
Continuous
 62
     0
370
     0
100
AcDbLine
 10
22.4451624686037
 20
82.1232941668117
 30
0.0
 11
22.4451624686037
 21
82.08544029999614
 31
0.0
  0
LINE
  5
699
330
1F
100
AcDbEntity
  8
0
  6
Continuous
 62
     0
370
     0
100
AcDbLine
 10
22.52926581447471
 20
82.04106210876346
 30
0.0
 11
22.52926581447471
 21
81.9838057379806
 31
0.0
  0
LINE
  5
69A
330
1F
100
AcDbEntity
  8
0
  6
Continuous
 62
     0
370
     0
100
AcDbLine
 10
71.84263580386983
 20
88.76401229906918
 30
0.0
 11
71.83966034000267
 21
88.76361518312336
 31
0.0
  0
LINE
  5
69B
330
1F
100
AcDbEntity
  8
0
  6
Continuous
 62
     0
370
     0
100
AcDbLine
 10
71.81343906467308
 20
88.62147673178555
 30
0.0
 11
71.81046360080589
 21
88.62107961583973
 31
0.0
  0
LINE
  5
69C
330
1F
100
AcDbEntity
  8
0
  6
Continuous
 62
     0
370
     0
100
AcDbLine
 10
70.47593706195698
 20
88.55819775868298
 30
0.0
 11
70.47593706195698
 21
88.52034582901837
 31
0.0
  0
LINE
  5
69D
330
1F
100
AcDbEntity
  8
0
  6
Continuous
 62
     0
370
     0
100
AcDbLine
 10
70.56005590503563
 20
88.47596763778569
 30
0.0
 11
70.56005590503563
 21
88.41871126700283
 31
0.0
  0
LINE
  5
69E
330
1F
100
AcDbEntity
  8
0
  6
Continuous
 62
     0
370
     0
100
AcDbLine
 10
78.74551051204551
 20
89.1438934128368
 30
0.0
 11
71.8249224955355
 21
88.21670903969647
 31
0.0
  0
LINE
  5
69F
330
1F
100
AcDbEntity
  8
0
  6
Continuous
 62
     0
370
     0
100
AcDbLine
 10
70.85199230258812
 20
88.08636202622296
 30
0.0
 11
23.79413240497456
 21
81.78180544782519
 31
0.0
  0
LINE
  5
6A0
330
1F
100
AcDbEntity
  8
0
  6
Continuous
 62
     0
370
     0
100
AcDbLine
 10
22.82120221202716
 20
81.65145649720073
 30
0.0
 11
15.96032493656024
 21
80.73227449465632
 31
0.0
  0
LINE
  5
6A1
330
1F
100
AcDbEntity
  8
0
  6
Continuous
 62
     0
370
     0
100
AcDbLine
 10
15.93509548251973
 20
80.80750956345439
 30
0.0
 11
22.81963699405537
 21
81.72986268211245
 31
0.0
  0
LINE
  5
6A2
330
1F
100
AcDbEntity
  8
0
  6
Continuous
 62
     0
370
     0
100
AcDbLine
 10
23.7832378680025
 20
81.85896217037082
 30
0.0
 11
70.85042708461629
 21
88.16476821113469
 31
0.0
  0
LINE
  5
6A3
330
1F
100
AcDbEntity
  8
0
  6
Continuous
 62
     0
370
     0
100
AcDbLine
 10
71.81402795856346
 20
88.29386576224209
 30
0.0
 11
78.72028105800499
 21
89.21912848163487
 31
0.0
  0
LINE
  5
6A4
330
1F
100
AcDbEntity
  8
0
  6
Continuous
 62
     0
370
     0
100
AcDbLine
 10
78.72364395206321
 20
89.20159145403744
 30
0.0
 11
71.81684845035423
 21
88.27625706005932
 31
0.0
  0
LINE
  5
6A5
330
1F
100
AcDbEntity
  8
0
  6
Continuous
 62
     0
370
     0
100
AcDbLine
 10
70.85078352039207
 20
88.14682825613858
 30
0.0
 11
23.78605835979327
 21
81.84135153103709
 31
0.0
  0
LINE
  5
6A6
330
1F
100
AcDbEntity
  8
0
  6
Continuous
 62
     0
370
     0
100
AcDbLine
 10
22.81999342983116
 20
81.71192272711635
 30
0.0
 11
15.93845837657798
 21
80.78997253585696
 31
0.0
  0
LINE
  5
6A7
330
1F
100
AcDbEntity
  8
0
  6
Continuous
 62
     0
370
     0
100
AcDbLine
 10
15.95528834407672
 20
80.75857906747699
 30
0.0
 11
22.82067530696736
 21
81.67836739827037
 31
0.0
  0
LINE
  5
6A8
330
1F
100
AcDbEntity
  8
0
  6
Continuous
 62
     0
370
     0
100
AcDbLine
 10
23.78807299678668
 20
81.80797442007899
 30
0.0
 11
70.85144990032066
 21
88.1132729272926
 31
0.0
  0
LINE
  5
6A9
330
1F
100
AcDbEntity
  8
0
  6
Continuous
 62
     0
370
     0
100
AcDbLine
 10
71.81886308734764
 20
88.24287994910122
 30
0.0
 11
78.74045842235435
 21
89.17019798565747
 31
0.0
  0
MTEXT
  5
6BD
330
1F
100
AcDbEntity
  8
0
 62
     7
100
AcDbMText
 10
193.0304273759513
 20
79.30993478119949
 30
0.0
 40
3.031684027777777
 41
0.0
 46
3.083222656249999
 71
     1
 72
     1
  1
{HAC-D/W84T}
  7
Arial
 73
     1
 44
0.9673603504928806
  0
MTEXT
  5
6EA
330
1F
100
AcDbEntity
  8
0
 62
     7
100
AcDbMText
 10
158.0304273759513
 20
79.30993478119952
 30
0.0
 40
3.031684027777777
 41
0.0
 46
3.083222656249999
 71
     1
 72
     1
  1
{HAC-D/W44T}
  7
Arial
 73
     1
 44
0.9673603504928806
  0
MTEXT
  5
6EB
330
1F
100
AcDbEntity
  8
0
 62
     7
100
AcDbMText
 10
193.0304273759513
 20
72.30993478119949
 30
0.0
 40
3.031684027777777
 41
0.0
 46
3.083222656249999
 71
     1
 72
     1
  1
{HAC-D/H/B118T}
  7
Arial
 73
     1
 44
0.9673603504928806
  0
MTEXT
  5
6EC
330
1F
100
AcDbEntity
  8
0
 62
     7
100
AcDbMText
 10
158.0304273759513
 20
72.30993478119952
 30
0.0
 40
3.031684027777777
 41
0.0
 46
3.083222656249999
 71
     1
 72
     1
  1
{HAC-D/H/B56T}
  7
Arial
 73
     1
 44
0.9673603504928806
  0
LINE
  5
700
330
1F
100
AcDbEntity
  8
FORMAT
100
AcDbLine
 10
297.0000000000002
 20
-0.0000000000001887
 30
0.0
 11
297.0000000000001
 21
209.9999999999998
 31
0.0
  0
LINE
  5
701
330
1F
100
AcDbEntity
  8
FORMAT
100
AcDbLine
 10
297.0000000000001
 20
209.9999999999998
 30
0.0
 11
0.0000000000000568
 21
210.0
 31
0.0
  0
LINE
  5
702
330
1F
100
AcDbEntity
  8
FORMAT
100
AcDbLine
 10
0.0000000000000568
 20
210.0
 30
0.0
 11
0.0
 21
0.0
 31
0.0
  0
LINE
  5
703
330
1F
100
AcDbEntity
  8
FORMAT
100
AcDbLine
 10
0.0
 20
0.0
 30
0.0
 11
297.0
 21
0.0000000000000671
 31
0.0
  0
ENDSEC
  0
SECTION
  2
OBJECTS
  0
DICTIONARY
  5
C
330
0
100
AcDbDictionary
281
     1
  3
ACAD_DETAILVIEWSTYLE
350
1AB
  3
ACAD_GROUP
350
D
  3
ACAD_LAYOUT
350
1A
  3
ACAD_MATERIAL
350
18F
  3
ACAD_MLEADERSTYLE
350
195
  3
ACAD_MLINESTYLE
350
17
  3
ACAD_PLOTSETTINGS
350
19
  3
ACAD_PLOTSTYLENAME
350
E
  3
ACAD_SCALELIST
350
47
  3
ACAD_SECTIONVIEWSTYLE
350
1AC
  3
ACAD_TABLESTYLE
350
193
  3
ACAD_VISUALSTYLE
350
176
  3
ACDB_RECOMPOSE_DATA
350
709
  3
AcDbVariableDictionary
350
1A6
  3
APPDATA
350
197
  0
SUN
  5
4A8
330
29
100
AcDbSun
 90
        1
290
     0
 63
     7
421
 16777215
 40
1.0
291
     1
 91
  2455826
 92
 54000000
292
     0
 70
     2
 71
   256
280
     1
  0
DICTIONARY
  5
6C3
330
2
100
AcDbDictionary
280
     1
281
     1
  3
ACAD_LAYERSTATES
360
6C4
  0
DICTIONARY
  5
1AB
102
{ACAD_REACTORS
330
C
102
}
330
C
100
AcDbDictionary
281
     1
  0
DICTIONARY
  5
D
102
{ACAD_REACTORS
330
C
102
}
330
C
100
AcDbDictionary
281
     1
  0
DICTIONARY
  5
1A
102
{ACAD_REACTORS
330
C
102
}
330
C
100
AcDbDictionary
281
     1
  3
Layout1
350
1E
  3
Layout2
350
26
  3
Model
350
22
  0
DICTIONARY
  5
18F
102
{ACAD_REACTORS
330
C
102
}
330
C
100
AcDbDictionary
281
     1
  3
ByBlock
350
191
  3
ByLayer
350
190
  3
Global
350
192
  0
DICTIONARY
  5
195
102
{ACAD_REACTORS
330
C
102
}
330
C
100
AcDbDictionary
281
     1
  3
Standard
350
196
  0
DICTIONARY
  5
17
102
{ACAD_REACTORS
330
C
102
}
330
C
100
AcDbDictionary
281
     1
  3
Standard
350
18
  0
DICTIONARY
  5
19
102
{ACAD_REACTORS
330
C
102
}
330
C
100
AcDbDictionary
281
     1
  0
ACDBDICTIONARYWDFLT
  5
E
102
{ACAD_REACTORS
330
C
102
}
330
C
100
AcDbDictionary
281
     1
  3
Normal
350
F
100
AcDbDictionaryWithDefault
340
F
  0
DICTIONARY
  5
47
102
{ACAD_REACTORS
330
C
102
}
330
C
100
AcDbDictionary
281
     1
  3
A0
350
48
  3
A1
350
49
  3
A2
350
4A
  3
A3
350
4B
  3
A4
350
4C
  3
A5
350
4D
  3
A6
350
4E
  3
A7
350
4F
  3
A8
350
50
  3
A9
350
51
  3
B0
350
52
  3
B1
350
53
  3
B2
350
54
  3
B3
350
55
  3
B4
350
56
  3
B5
350
57
  3
B6
350
58
  3
B7
350
59
  3
B8
350
5A
  3
B9
350
5B
  3
C0
350
5C
  3
C1
350
5D
  3
C2
350
5E
  3
C3
350
5F
  3
C4
350
60
  3
C5
350
61
  3
C6
350
62
  3
C7
350
63
  3
C8
350
64
  3
C9
350
65
  3
D0
350
66
  3
D1
350
67
  3
D2
350
68
  0
DICTIONARY
  5
1AC
102
{ACAD_REACTORS
330
C
102
}
330
C
100
AcDbDictionary
281
     1
  0
DICTIONARY
  5
193
102
{ACAD_REACTORS
330
C
102
}
330
C
100
AcDbDictionary
281
     1
  3
Standard
350
194
  0
DICTIONARY
  5
176
102
{ACAD_REACTORS
330
C
102
}
330
C
100
AcDbDictionary
281
     1
  3
2dWireframe
350
17B
  3
Basic
350
17E
  3
Brighten
350
182
  3
ColorChange
350
186
  3
Conceptual
350
180
  3
Dim
350
181
  3
EdgeColorOff
350
189
  3
Facepattern
350
185
  3
Flat
350
177
  3
FlatWithEdges
350
178
  3
Gouraud
350
179
  3
GouraudWithEdges
350
17A
  3
Hidden
350
17D
  3
JitterOff
350
187
  3
Linepattern
350
184
  3
OverhangOff
350
188
  3
Realistic
350
17F
  3
Shaded
350
18E
  3
Shaded with edges
350
18D
  3
Shades of Gray
350
18A
  3
Sketchy
350
18B
  3
Thicken
350
183
  3
Wireframe
350
17C
  3
X-Ray
350
18C
  0
XRECORD
  5
709
102
{ACAD_REACTORS
330
C
102
}
330
C
100
AcDbXrecord
280
     1
 90
        1
330
194
  0
DICTIONARY
  5
1A6
102
{ACAD_REACTORS
330
C
102
}
330
C
100
AcDbDictionary
281
     1
  3
CANNOSCALE
350
1A7
  3
CMLEADERSTYLE
350
1A9
  3
CTABLESTYLE
350
1A8
  3
MSLTSCALE
350
1AA
  0
DICTIONARY
  5
197
102
{ACAD_REACTORS
330
C
102
}
330
C
100
AcDbDictionary
281
     1
  0
DICTIONARY
  5
6C4
102
{ACAD_REACTORS
330
6C3
102
}
330
6C3
100
AcDbDictionary
281
     1
  0
LAYOUT
  5
1E
102
{ACAD_REACTORS
330
1A
102
}
330
1A
100
AcDbPlotSettings
  1

  2
none_device
  4

  6

 40
0.0
 41
0.0
 42
0.0
 43
0.0
 44
0.0
 45
0.0
 46
0.0
 47
0.0
 48
0.0
 49
0.0
140
0.0
141
0.0
142
1.0
143
1.0
 70
   688
 72
     1
 73
     0
 74
     5
  7

 75
    16
 76
     0
 77
     2
 78
   300
147
1.0
148
0.0
149
0.0
100
AcDbLayout
  1
Layout1
 70
     1
 71
     1
 10
0.0
 20
0.0
 11
420.0
 21
297.0
 12
0.0
 22
0.0
 32
0.0
 14
1.000000000000000E+20
 24
1.000000000000000E+20
 34
1.000000000000000E+20
 15
-1.000000000000000E+20
 25
-1.000000000000000E+20
 35
-1.000000000000000E+20
146
0.0
 13
0.0
 23
0.0
 33
0.0
 16
1.0
 26
0.0
 36
0.0
 17
0.0
 27
1.0
 37
0.0
 76
     0
330
1B
  0
LAYOUT
  5
26
102
{ACAD_REACTORS
330
1A
102
}
330
1A
100
AcDbPlotSettings
  1

  2
none_device
  4

  6

 40
0.0
 41
0.0
 42
0.0
 43
0.0
 44
0.0
 45
0.0
 46
0.0
 47
0.0
 48
0.0
 49
0.0
140
0.0
141
0.0
142
1.0
143
1.0
 70
   688
 72
     1
 73
     0
 74
     5
  7

 75
    16
 76
     0
 77
     2
 78
   300
147
1.0
148
0.0
149
0.0
100
AcDbLayout
  1
Layout2
 70
     1
 71
     2
 10
0.0
 20
0.0
 11
0.0
 21
0.0
 12
0.0
 22
0.0
 32
0.0
 14
0.0
 24
0.0
 34
0.0
 15
0.0
 25
0.0
 35
0.0
146
0.0
 13
0.0
 23
0.0
 33
0.0
 16
1.0
 26
0.0
 36
0.0
 17
0.0
 27
1.0
 37
0.0
 76
     0
330
23
  0
LAYOUT
  5
22
102
{ACAD_REACTORS
330
1A
102
}
330
1A
100
AcDbPlotSettings
  1

  2
none_device
  4
Letter_(8.50_x_11.00_Inches)
  6

 40
6.35
 41
6.35
 42
6.35000508
 43
6.35000508
 44
215.9
 45
279.4
 46
0.0
 47
0.0
 48
0.0
 49
0.0
140
0.0
141
0.0
142
1.0
143
1.0
 70
  1712
 72
     1
 73
     0
 74
     0
  7

 75
     0
 76
     0
 77
     2
 78
   300
147
1.0
148
0.0
149
0.0
100
AcDbLayout
  1
Model
 70
     1
 71
     0
 10
0.0
 20
0.0
 11
210.0
 21
297.0
 12
0.0
 22
0.0
 32
0.0
 14
0.0
 24
-0.0000000000001705
 34
0.0
 15
297.0000000000002
 25
210.0
 35
0.0
146
0.0
 13
0.0
 23
0.0
 33
0.0
 16
1.0
 26
0.0
 36
0.0
 17
0.0
 27
1.0
 37
0.0
 76
     0
330
1F
331
29
  0
MATERIAL
  5
191
102
{ACAD_REACTORS
330
18F
102
}
330
18F
100
AcDbMaterial
  1
ByBlock
 72
     1
 94
      127
  0
MATERIAL
  5
190
102
{ACAD_REACTORS
330
18F
102
}
330
18F
100
AcDbMaterial
  1
ByLayer
 72
     1
 94
      127
  0
MATERIAL
  5
192
102
{ACAD_REACTORS
330
18F
102
}
330
18F
100
AcDbMaterial
  1
Global
 72
     1
 94
      127
  0
MLEADERSTYLE
  5
196
102
{ACAD_REACTORS
330
195
102
}
330
195
100
AcDbMLeaderStyle
179
     2
170
     2
171
     1
172
     0
 90
        2
 40
0.0
 41
0.0
173
     1
 91
-1056964608
340
14
 92
       -2
290
     1
 42
2.0
291
     1
 43
8.0
  3
Standard
341
0
 44
4.0
300

342
11
174
     1
178
     1
175
     1
176
     0
 93
-1056964608
 45
4.0
292
     0
297
     0
 46
4.0
343
0
 94
-1056964608
 47
1.0
 49
1.0
140
1.0
293
     1
141
0.0
294
     1
177
     0
142
1.0
295
     0
296
     0
143
3.75
271
     0
272
     9
273
     9
298
     0
  0
MLINESTYLE
  5
18
102
{ACAD_REACTORS
330
17
102
}
330
17
100
AcDbMlineStyle
  2
Standard
 70
     0
  3

 62
   256
 51
90.0
 52
90.0
 71
     2
 49
0.5
 62
   256
  6
BYLAYER
 49
-0.5
 62
   256
  6
BYLAYER
  0
ACDBPLACEHOLDER
  5
F
102
{ACAD_REACTORS
330
E
102
}
330
E
  0
SCALE
  5
48
102
{ACAD_REACTORS
330
47
102
}
330
47
100
AcDbScale
 70
     0
300
1:1
140
1.0
141
1.0
290
     1
  0
SCALE
  5
49
102
{ACAD_REACTORS
330
47
102
}
330
47
100
AcDbScale
 70
     0
300
1:2
140
1.0
141
2.0
290
     0
  0
SCALE
  5
4A
102
{ACAD_REACTORS
330
47
102
}
330
47
100
AcDbScale
 70
     0
300
1:4
140
1.0
141
4.0
290
     0
  0
SCALE
  5
4B
102
{ACAD_REACTORS
330
47
102
}
330
47
100
AcDbScale
 70
     0
300
1:5
140
1.0
141
5.0
290
     0
  0
SCALE
  5
4C
102
{ACAD_REACTORS
330
47
102
}
330
47
100
AcDbScale
 70
     0
300
1:8
140
1.0
141
8.0
290
     0
  0
SCALE
  5
4D
102
{ACAD_REACTORS
330
47
102
}
330
47
100
AcDbScale
 70
     0
300
1:10
140
1.0
141
10.0
290
     0
  0
SCALE
  5
4E
102
{ACAD_REACTORS
330
47
102
}
330
47
100
AcDbScale
 70
     0
300
1:16
140
1.0
141
16.0
290
     0
  0
SCALE
  5
4F
102
{ACAD_REACTORS
330
47
102
}
330
47
100
AcDbScale
 70
     0
300
1:20
140
1.0
141
20.0
290
     0
  0
SCALE
  5
50
102
{ACAD_REACTORS
330
47
102
}
330
47
100
AcDbScale
 70
     0
300
1:30
140
1.0
141
30.0
290
     0
  0
SCALE
  5
51
102
{ACAD_REACTORS
330
47
102
}
330
47
100
AcDbScale
 70
     0
300
1:40
140
1.0
141
40.0
290
     0
  0
SCALE
  5
52
102
{ACAD_REACTORS
330
47
102
}
330
47
100
AcDbScale
 70
     0
300
1:50
140
1.0
141
50.0
290
     0
  0
SCALE
  5
53
102
{ACAD_REACTORS
330
47
102
}
330
47
100
AcDbScale
 70
     0
300
1:100
140
1.0
141
100.0
290
     0
  0
SCALE
  5
54
102
{ACAD_REACTORS
330
47
102
}
330
47
100
AcDbScale
 70
     0
300
2:1
140
2.0
141
1.0
290
     0
  0
SCALE
  5
55
102
{ACAD_REACTORS
330
47
102
}
330
47
100
AcDbScale
 70
     0
300
4:1
140
4.0
141
1.0
290
     0
  0
SCALE
  5
56
102
{ACAD_REACTORS
330
47
102
}
330
47
100
AcDbScale
 70
     0
300
8:1
140
8.0
141
1.0
290
     0
  0
SCALE
  5
57
102
{ACAD_REACTORS
330
47
102
}
330
47
100
AcDbScale
 70
     0
300
10:1
140
10.0
141
1.0
290
     0
  0
SCALE
  5
58
102
{ACAD_REACTORS
330
47
102
}
330
47
100
AcDbScale
 70
     0
300
100:1
140
100.0
141
1.0
290
     0
  0
SCALE
  5
59
102
{ACAD_REACTORS
330
47
102
}
330
47
100
AcDbScale
 70
     0
300
1/128" = 1'-0"
140
0.0078125
141
12.0
290
     0
  0
SCALE
  5
5A
102
{ACAD_REACTORS
330
47
102
}
330
47
100
AcDbScale
 70
     0
300
1/64" = 1'-0"
140
0.015625
141
12.0
290
     0
  0
SCALE
  5
5B
102
{ACAD_REACTORS
330
47
102
}
330
47
100
AcDbScale
 70
     0
300
1/32" = 1'-0"
140
0.03125
141
12.0
290
     0
  0
SCALE
  5
5C
102
{ACAD_REACTORS
330
47
102
}
330
47
100
AcDbScale
 70
     0
300
1/16" = 1'-0"
140
0.0625
141
12.0
290
     0
  0
SCALE
  5
5D
102
{ACAD_REACTORS
330
47
102
}
330
47
100
AcDbScale
 70
     0
300
3/32" = 1'-0"
140
0.09375
141
12.0
290
     0
  0
SCALE
  5
5E
102
{ACAD_REACTORS
330
47
102
}
330
47
100
AcDbScale
 70
     0
300
1/8" = 1'-0"
140
0.125
141
12.0
290
     0
  0
SCALE
  5
5F
102
{ACAD_REACTORS
330
47
102
}
330
47
100
AcDbScale
 70
     0
300
3/16" = 1'-0"
140
0.1875
141
12.0
290
     0
  0
SCALE
  5
60
102
{ACAD_REACTORS
330
47
102
}
330
47
100
AcDbScale
 70
     0
300
1/4" = 1'-0"
140
0.25
141
12.0
290
     0
  0
SCALE
  5
61
102
{ACAD_REACTORS
330
47
102
}
330
47
100
AcDbScale
 70
     0
300
3/8" = 1'-0"
140
0.375
141
12.0
290
     0
  0
SCALE
  5
62
102
{ACAD_REACTORS
330
47
102
}
330
47
100
AcDbScale
 70
     0
300
1/2" = 1'-0"
140
0.5
141
12.0
290
     0
  0
SCALE
  5
63
102
{ACAD_REACTORS
330
47
102
}
330
47
100
AcDbScale
 70
     0
300
3/4" = 1'-0"
140
0.75
141
12.0
290
     0
  0
SCALE
  5
64
102
{ACAD_REACTORS
330
47
102
}
330
47
100
AcDbScale
 70
     0
300
1" = 1'-0"
140
1.0
141
12.0
290
     0
  0
SCALE
  5
65
102
{ACAD_REACTORS
330
47
102
}
330
47
100
AcDbScale
 70
     0
300
1-1/2" = 1'-0"
140
1.5
141
12.0
290
     0
  0
SCALE
  5
66
102
{ACAD_REACTORS
330
47
102
}
330
47
100
AcDbScale
 70
     0
300
3" = 1'-0"
140
3.0
141
12.0
290
     0
  0
SCALE
  5
67
102
{ACAD_REACTORS
330
47
102
}
330
47
100
AcDbScale
 70
     0
300
6" = 1'-0"
140
6.0
141
12.0
290
     0
  0
SCALE
  5
68
102
{ACAD_REACTORS
330
47
102
}
330
47
100
AcDbScale
 70
     0
300
1'-0" = 1'-0"
140
12.0
141
12.0
290
     0
  0
TABLESTYLE
  5
194
102
{ACAD_REACTORS
330
193
102
}
102
{ACAD_XDICTIONARY
360
707
102
}
330
193
100
AcDbTableStyle
  3
Standard
 70
     0
 71
     0
 40
1.5
 41
1.5
280
     0
281
     0
  7
Standard
140
4.5
170
     2
 62
     0
 63
   257
283
     0
 90
        4
 91
        0
  1

274
    -2
284
     1
 64
     0
275
    -2
285
     1
 65
     0
276
    -2
286
     1
 66
     0
277
    -2
287
     1
 67
     0
278
    -2
288
     1
 68
     0
279
    -2
289
     1
 69
     0
  7
Standard
140
6.0
170
     5
 62
     0
 63
   257
283
     0
 90
        4
 91
        0
  1

274
    -2
284
     1
 64
     0
275
    -2
285
     1
 65
     0
276
    -2
286
     1
 66
     0
277
    -2
287
     1
 67
     0
278
    -2
288
     1
 68
     0
279
    -2
289
     1
 69
     0
  7
Standard
140
4.5
170
     5
 62
     0
 63
   257
283
     0
 90
        4
 91
        0
  1

274
    -2
284
     1
 64
     0
275
    -2
285
     1
 65
     0
276
    -2
286
     1
 66
     0
277
    -2
287
     1
 67
     0
278
    -2
288
     1
 68
     0
279
    -2
289
     1
 69
     0
  0
VISUALSTYLE
  5
17B
102
{ACAD_REACTORS
330
176
102
}
330
176
100
AcDbVisualStyle
  2
2dWireframe
 70
     4
177
     3
291
     0
 70
    58
 90
        0
176
     1
 90
        2
176
     1
 90
        0
176
     1
 90
        0
176
     1
 40
0.6
176
     1
 40
30.0
176
     1
 62
     7
420
 16777215
176
     1
 90
        1
176
     1
 90
        4
176
     1
 62
     7
176
     1
 62
   257
176
     1
 90
        1
176
     1
 90
        1
176
     1
 40
1.0
176
     1
 90
        0
176
     1
 62
   257
176
     1
 40
1.0
176
     1
 90
        1
176
     1
 90
        6
176
     1
 90
        2
176
     1
 62
     7
176
     1
 90
        5
176
     1
 90
        0
176
     1
 90
        0
176
     1
290
     0
176
     1
 90
        1
176
     1
 40
0.0
176
     1
 90
        0
176
     1
290
     1
176
     1
290
     1
176
     1
290
     0
176
     1
290
     0
176
     1
290
     0
176
     1
290
     0
176
     1
290
     0
176
     1
290
     0
176
     1
290
     0
176
     1
 90
       50
176
     1
 40
0.0
176
     1
 40
1.0
176
     1
 90
        0
176
     1
 62
    18
420
        0
176
     1
 90
       50
176
     1
 90
        3
176
     1
 62
     5
420
      255
176
     1
290
     0
176
     1
 90
       50
176
     1
 90
       50
176
     1
 90
       50
176
     1
290
     0
176
     1
 90
       50
176
     1
 62
   256
176
     0
 40
1.0
176
     0
 90
        2
176
     1
  1
strokes_ogs.tif
176
     1
290
     0
176
     1
 40
1.0
176
     1
 40
1.0
176
     1
  0
VISUALSTYLE
  5
17E
102
{ACAD_REACTORS
330
176
102
}
330
176
100
AcDbVisualStyle
  2
Basic
 70
     7
177
     3
291
     1
 70
    58
 90
        1
176
     1
 90
        0
176
     1
 90
        1
176
     1
 90
        0
176
     1
 40
0.6
176
     1
 40
30.0
176
     1
 62
     7
420
 16777215
176
     1
 90
        0
176
     1
 90
        4
176
     1
 62
     7
176
     1
 62
   257
176
     1
 90
        1
176
     1
 90
        1
176
     1
 40
1.0
176
     1
 90
        8
176
     1
 62
     7
176
     1
 40
1.0
176
     1
 90
        1
176
     1
 90
        6
176
     1
 90
        2
176
     1
 62
     7
176
     1
 90
        5
176
     1
 90
        0
176
     1
 90
        0
176
     1
290
     0
176
     1
 90
        1
176
     1
 40
0.0
176
     1
 90
        0
176
     1
290
     0
176
     1
290
     1
176
     1
290
     1
176
     1
290
     0
176
     1
290
     0
176
     1
290
     0
176
     1
290
     0
176
     1
290
     0
176
     1
290
     0
176
     1
 90
       50
176
     1
 40
0.0
176
     1
 40
1.0
176
     1
 90
        0
176
     1
 62
    18
420
        0
176
     1
 90
       50
176
     1
 90
        3
176
     1
 62
     5
420
      255
176
     1
290
     0
176
     1
 90
       50
176
     1
 90
       50
176
     1
 90
       50
176
     1
290
     0
176
     1
 90
       50
176
     1
 62
   256
176
     0
 40
1.0
176
     0
 90
        2
176
     1
  1
strokes_ogs.tif
176
     1
290
     0
176
     1
 40
1.0
176
     1
 40
1.0
176
     1
  0
VISUALSTYLE
  5
182
102
{ACAD_REACTORS
330
176
102
}
330
176
100
AcDbVisualStyle
  2
Brighten
 70
    12
177
     3
291
     1
 70
    58
 90
        2
176
     1
 90
        2
176
     1
 90
        0
176
     1
 90
        0
176
     1
 40
0.6
176
     1
 40
30.0
176
     1
 62
     7
420
 16777215
176
     1
 90
        1
176
     1
 90
        4
176
     1
 62
     7
176
     1
 62
   257
176
     1
 90
        1
176
     1
 90
        1
176
     1
 40
1.0
176
     1
 90
        8
176
     1
 62
     7
176
     1
 40
1.0
176
     1
 90
        1
176
     1
 90
        6
176
     1
 90
        2
176
     1
 62
     7
176
     1
 90
        5
176
     1
 90
        0
176
     1
 90
        0
176
     1
290
     0
176
     1
 90
        1
176
     1
 40
50.0
176
     1
 90
        0
176
     1
290
     0
176
     1
290
     1
176
     1
290
     1
176
     1
290
     0
176
     1
290
     0
176
     1
290
     0
176
     1
290
     0
176
     1
290
     0
176
     1
290
     0
176
     1
 90
       50
176
     1
 40
0.0
176
     1
 40
1.0
176
     1
 90
        0
176
     1
 62
    18
420
        0
176
     1
 90
       50
176
     1
 90
        3
176
     1
 62
     5
420
      255
176
     1
290
     0
176
     1
 90
       50
176
     1
 90
       50
176
     1
 90
       50
176
     1
290
     0
176
     1
 90
       50
176
     1
 62
   256
176
     0
 40
1.0
176
     0
 90
        2
176
     1
  1
strokes_ogs.tif
176
     1
290
     0
176
     1
 40
1.0
176
     1
 40
1.0
176
     1
  0
VISUALSTYLE
  5
186
102
{ACAD_REACTORS
330
176
102
}
330
176
100
AcDbVisualStyle
  2
ColorChange
 70
    16
177
     3
291
     1
 70
    58
 90
        2
176
     1
 90
        2
176
     1
 90
        3
176
     1
 90
        0
176
     1
 40
0.6
176
     1
 40
30.0
176
     1
 62
     8
420
  8421504
176
     1
 90
        1
176
     1
 90
        4
176
     1
 62
     7
176
     1
 62
   257
176
     1
 90
        1
176
     1
 90
        1
176
     1
 40
1.0
176
     1
 90
        8
176
     1
 62
     8
420
  8421504
176
     1
 40
1.0
176
     1
 90
        1
176
     1
 90
        6
176
     1
 90
        2
176
     1
 62
     7
176
     1
 90
        5
176
     1
 90
        0
176
     1
 90
        0
176
     1
290
     0
176
     1
 90
        1
176
     1
 40
0.0
176
     1
 90
        0
176
     1
290
     0
176
     1
290
     1
176
     1
290
     1
176
     1
290
     0
176
     1
290
     0
176
     1
290
     0
176
     1
290
     0
176
     1
290
     0
176
     1
290
     0
176
     1
 90
       50
176
     1
 40
0.0
176
     1
 40
1.0
176
     1
 90
        0
176
     1
 62
    18
420
        0
176
     1
 90
       50
176
     1
 90
        3
176
     1
 62
     5
420
      255
176
     1
290
     0
176
     1
 90
       50
176
     1
 90
       50
176
     1
 90
       50
176
     1
290
     0
176
     1
 90
       50
176
     1
 62
   256
176
     0
 40
1.0
176
     0
 90
        2
176
     1
  1
strokes_ogs.tif
176
     1
290
     0
176
     1
 40
1.0
176
     1
 40
1.0
176
     1
  0
VISUALSTYLE
  5
180
102
{ACAD_REACTORS
330
176
102
}
330
176
100
AcDbVisualStyle
  2
Conceptual
 70
     9
177
     3
291
     0
 70
    58
 90
        3
176
     1
 90
        2
176
     1
 90
        0
176
     1
 90
        0
176
     1
 40
0.6
176
     1
 40
30.0
176
     1
 62
     7
420
 16777215
176
     1
 90
        2
176
     1
 90
        2
176
     1
 62
     7
176
     1
 62
   257
176
     1
 90
        1
176
     1
 90
        1
176
     1
 40
179.0
176
     1
 90
        8
176
     1
 62
     7
176
     1
 40
1.0
176
     1
 90
        1
176
     1
 90
        6
176
     1
 90
        2
176
     1
 62
     7
176
     1
 90
        3
176
     1
 90
        0
176
     1
 90
        0
176
     1
290
     0
176
     1
 90
        1
176
     1
 40
0.0
176
     1
 90
        0
176
     1
290
     0
176
     1
290
     1
176
     1
290
     1
176
     1
290
     0
176
     1
290
     0
176
     1
290
     0
176
     1
290
     0
176
     1
290
     0
176
     1
290
     0
176
     1
 90
       50
176
     1
 40
0.0
176
     1
 40
1.0
176
     1
 90
        0
176
     1
 62
    18
420
        0
176
     1
 90
       50
176
     1
 90
        3
176
     1
 62
     5
420
      255
176
     1
290
     0
176
     1
 90
       50
176
     1
 90
       50
176
     1
 90
       50
176
     1
290
     0
176
     1
 90
       50
176
     1
 62
   256
176
     0
 40
1.0
176
     0
 90
        2
176
     1
  1
strokes_ogs.tif
176
     1
290
     0
176
     1
 40
1.0
176
     1
 40
1.0
176
     1
  0
VISUALSTYLE
  5
181
102
{ACAD_REACTORS
330
176
102
}
330
176
100
AcDbVisualStyle
  2
Dim
 70
    11
177
     3
291
     1
 70
    58
 90
        2
176
     1
 90
        2
176
     1
 90
        0
176
     1
 90
        0
176
     1
 40
0.6
176
     1
 40
30.0
176
     1
 62
     7
420
 16777215
176
     1
 90
        1
176
     1
 90
        4
176
     1
 62
     7
176
     1
 62
   257
176
     1
 90
        1
176
     1
 90
        1
176
     1
 40
1.0
176
     1
 90
        8
176
     1
 62
     7
176
     1
 40
1.0
176
     1
 90
        1
176
     1
 90
        6
176
     1
 90
        2
176
     1
 62
     7
176
     1
 90
        5
176
     1
 90
        0
176
     1
 90
        0
176
     1
290
     0
176
     1
 90
        1
176
     1
 40
-50.0
176
     1
 90
        0
176
     1
290
     0
176
     1
290
     1
176
     1
290
     1
176
     1
290
     0
176
     1
290
     0
176
     1
290
     0
176
     1
290
     0
176
     1
290
     0
176
     1
290
     0
176
     1
 90
       50
176
     1
 40
0.0
176
     1
 40
1.0
176
     1
 90
        0
176
     1
 62
    18
420
        0
176
     1
 90
       50
176
     1
 90
        3
176
     1
 62
     5
420
      255
176
     1
290
     0
176
     1
 90
       50
176
     1
 90
       50
176
     1
 90
       50
176
     1
290
     0
176
     1
 90
       50
176
     1
 62
   256
176
     0
 40
1.0
176
     0
 90
        2
176
     1
  1
strokes_ogs.tif
176
     1
290
     0
176
     1
 40
1.0
176
     1
 40
1.0
176
     1
  0
VISUALSTYLE
  5
189
102
{ACAD_REACTORS
330
176
102
}
330
176
100
AcDbVisualStyle
  2
EdgeColorOff
 70
    22
177
     3
291
     1
 70
    58
 90
        2
176
     0
 90
        2
176
     0
 90
        0
176
     0
 90
        0
176
     0
 40
0.6
176
     0
 40
30.0
176
     0
 62
     7
420
 16777215
176
     0
 90
        1
176
     0
 90
        4
176
     0
 62
     7
176
     0
 62
   257
176
     0
 90
        1
176
     0
 90
        1
176
     0
 40
1.0
176
     0
 90
        8
176
     2
 62
     7
176
     0
 40
1.0
176
     0
 90
        1
176
     0
 90
        6
176
     0
 90
        2
176
     0
 62
     7
176
     0
 90
        5
176
     0
 90
        0
176
     0
 90
        0
176
     0
290
     0
176
     0
 90
        1
176
     0
 40
0.0
176
     0
 90
        0
176
     0
290
     0
176
     0
290
     1
176
     0
290
     1
176
     0
290
     0
176
     0
290
     0
176
     0
290
     0
176
     0
290
     0
176
     0
290
     0
176
     0
290
     0
176
     0
 90
       50
176
     0
 40
0.0
176
     0
 40
1.0
176
     0
 90
        0
176
     0
 62
    18
420
        0
176
     0
 90
       50
176
     0
 90
        3
176
     0
 62
     5
420
      255
176
     0
290
     0
176
     0
 90
       50
176
     0
 90
       50
176
     0
 90
       50
176
     0
290
     0
176
     0
 90
       50
176
     0
 62
   256
176
     0
 40
1.0
176
     0
 90
        2
176
     0
  1
strokes_ogs.tif
176
     0
290
     0
176
     0
 40
1.0
176
     0
 40
1.0
176
     0
  0
VISUALSTYLE
  5
185
102
{ACAD_REACTORS
330
176
102
}
330
176
100
AcDbVisualStyle
  2
Facepattern
 70
    15
177
     3
291
     1
 70
    58
 90
        2
176
     1
 90
        2
176
     1
 90
        0
176
     1
 90
        0
176
     1
 40
0.6
176
     1
 40
30.0
176
     1
 62
     7
420
 16777215
176
     1
 90
        1
176
     1
 90
        4
176
     1
 62
     7
176
     1
 62
   257
176
     1
 90
        1
176
     1
 90
        1
176
     1
 40
1.0
176
     1
 90
        8
176
     1
 62
     7
176
     1
 40
1.0
176
     1
 90
        1
176
     1
 90
        6
176
     1
 90
        2
176
     1
 62
     7
176
     1
 90
        5
176
     1
 90
        0
176
     1
 90
        0
176
     1
290
     0
176
     1
 90
        1
176
     1
 40
0.0
176
     1
 90
        0
176
     1
290
     0
176
     1
290
     1
176
     1
290
     1
176
     1
290
     0
176
     1
290
     0
176
     1
290
     0
176
     1
290
     0
176
     1
290
     0
176
     1
290
     0
176
     1
 90
       50
176
     1
 40
0.0
176
     1
 40
1.0
176
     1
 90
        0
176
     1
 62
    18
420
        0
176
     1
 90
       50
176
     1
 90
        3
176
     1
 62
     5
420
      255
176
     1
290
     0
176
     1
 90
       50
176
     1
 90
       50
176
     1
 90
       50
176
     1
290
     0
176
     1
 90
       50
176
     1
 62
   256
176
     0
 40
1.0
176
     0
 90
        2
176
     1
  1
strokes_ogs.tif
176
     1
290
     0
176
     1
 40
1.0
176
     1
 40
1.0
176
     1
  0
VISUALSTYLE
  5
177
102
{ACAD_REACTORS
330
176
102
}
330
176
100
AcDbVisualStyle
  2
Flat
 70
     0
177
     3
291
     1
 70
    58
 90
        2
176
     1
 90
        1
176
     1
 90
        1
176
     1
 90
        2
176
     1
 40
0.6
176
     1
 40
30.0
176
     1
 62
     7
420
 16777215
176
     1
 90
        0
176
     1
 90
        0
176
     1
 62
     7
176
     1
 62
   257
176
     1
 90
        1
176
     1
 90
        1
176
     1
 40
1.0
176
     1
 90
        8
176
     1
 62
     7
176
     1
 40
1.0
176
     1
 90
        1
176
     1
 90
        6
176
     1
 90
        2
176
     1
 62
     7
176
     1
 90
        5
176
     1
 90
        0
176
     1
 90
        0
176
     1
290
     0
176
     1
 90
       13
176
     1
 40
0.0
176
     1
 90
        0
176
     1
290
     0
176
     1
290
     1
176
     1
290
     1
176
     1
290
     0
176
     1
290
     0
176
     1
290
     0
176
     1
290
     0
176
     1
290
     0
176
     1
290
     0
176
     1
 90
       50
176
     1
 40
0.0
176
     1
 40
1.0
176
     1
 90
        0
176
     1
 62
    18
420
        0
176
     1
 90
       50
176
     1
 90
        3
176
     1
 62
     5
420
      255
176
     1
290
     0
176
     1
 90
       50
176
     1
 90
       50
176
     1
 90
       50
176
     1
290
     0
176
     1
 90
       50
176
     1
 62
   256
176
     0
 40
1.0
176
     0
 90
        2
176
     1
  1
strokes_ogs.tif
176
     1
290
     0
176
     1
 40
1.0
176
     1
 40
1.0
176
     1
  0
VISUALSTYLE
  5
178
102
{ACAD_REACTORS
330
176
102
}
330
176
100
AcDbVisualStyle
  2
FlatWithEdges
 70
     1
177
     3
291
     1
 70
    58
 90
        2
176
     1
 90
        1
176
     1
 90
        1
176
     1
 90
        2
176
     1
 40
0.6
176
     1
 40
30.0
176
     1
 62
     7
420
 16777215
176
     1
 90
        1
176
     1
 90
        0
176
     1
 62
     7
176
     1
 62
   257
176
     1
 90
        1
176
     1
 90
        1
176
     1
 40
1.0
176
     1
 90
        0
176
     1
 62
   257
176
     1
 40
1.0
176
     1
 90
        1
176
     1
 90
        6
176
     1
 90
        2
176
     1
 62
     7
176
     1
 90
        5
176
     1
 90
        0
176
     1
 90
        0
176
     1
290
     0
176
     1
 90
       13
176
     1
 40
0.0
176
     1
 90
        0
176
     1
290
     0
176
     1
290
     1
176
     1
290
     1
176
     1
290
     0
176
     1
290
     0
176
     1
290
     0
176
     1
290
     0
176
     1
290
     0
176
     1
290
     0
176
     1
 90
       50
176
     1
 40
0.0
176
     1
 40
1.0
176
     1
 90
        0
176
     1
 62
    18
420
        0
176
     1
 90
       50
176
     1
 90
        3
176
     1
 62
     5
420
      255
176
     1
290
     0
176
     1
 90
       50
176
     1
 90
       50
176
     1
 90
       50
176
     1
290
     0
176
     1
 90
       50
176
     1
 62
   256
176
     0
 40
1.0
176
     0
 90
        2
176
     1
  1
strokes_ogs.tif
176
     1
290
     0
176
     1
 40
1.0
176
     1
 40
1.0
176
     1
  0
VISUALSTYLE
  5
179
102
{ACAD_REACTORS
330
176
102
}
330
176
100
AcDbVisualStyle
  2
Gouraud
 70
     2
177
     3
291
     1
 70
    58
 90
        2
176
     1
 90
        2
176
     1
 90
        1
176
     1
 90
        2
176
     1
 40
0.6
176
     1
 40
30.0
176
     1
 62
     7
420
 16777215
176
     1
 90
        0
176
     1
 90
        0
176
     1
 62
     7
176
     1
 62
   257
176
     1
 90
        1
176
     1
 90
        1
176
     1
 40
1.0
176
     1
 90
        0
176
     1
 62
     7
176
     1
 40
1.0
176
     1
 90
        1
176
     1
 90
        6
176
     1
 90
        2
176
     1
 62
     7
176
     1
 90
        5
176
     1
 90
        0
176
     1
 90
        0
176
     1
290
     0
176
     1
 90
       13
176
     1
 40
0.0
176
     1
 90
        0
176
     1
290
     0
176
     1
290
     1
176
     1
290
     1
176
     1
290
     0
176
     1
290
     0
176
     1
290
     0
176
     1
290
     0
176
     1
290
     0
176
     1
290
     0
176
     1
 90
       50
176
     1
 40
0.0
176
     1
 40
1.0
176
     1
 90
        0
176
     1
 62
    18
420
        0
176
     1
 90
       50
176
     1
 90
        3
176
     1
 62
     5
420
      255
176
     1
290
     0
176
     1
 90
       50
176
     1
 90
       50
176
     1
 90
       50
176
     1
290
     0
176
     1
 90
       50
176
     1
 62
   256
176
     0
 40
1.0
176
     0
 90
        2
176
     1
  1
strokes_ogs.tif
176
     1
290
     0
176
     1
 40
1.0
176
     1
 40
1.0
176
     1
  0
VISUALSTYLE
  5
17A
102
{ACAD_REACTORS
330
176
102
}
330
176
100
AcDbVisualStyle
  2
GouraudWithEdges
 70
     3
177
     3
291
     1
 70
    58
 90
        2
176
     1
 90
        2
176
     1
 90
        1
176
     1
 90
        2
176
     1
 40
0.6
176
     1
 40
30.0
176
     1
 62
     7
420
 16777215
176
     1
 90
        1
176
     1
 90
        0
176
     1
 62
     7
176
     1
 62
   257
176
     1
 90
        1
176
     1
 90
        1
176
     1
 40
1.0
176
     1
 90
        0
176
     1
 62
   257
176
     1
 40
1.0
176
     1
 90
        1
176
     1
 90
        6
176
     1
 90
        2
176
     1
 62
     7
176
     1
 90
        5
176
     1
 90
        0
176
     1
 90
        0
176
     1
290
     0
176
     1
 90
       13
176
     1
 40
0.0
176
     1
 90
        0
176
     1
290
     0
176
     1
290
     1
176
     1
290
     1
176
     1
290
     0
176
     1
290
     0
176
     1
290
     0
176
     1
290
     0
176
     1
290
     0
176
     1
290
     0
176
     1
 90
       50
176
     1
 40
0.0
176
     1
 40
1.0
176
     1
 90
        0
176
     1
 62
    18
420
        0
176
     1
 90
       50
176
     1
 90
        3
176
     1
 62
     5
420
      255
176
     1
290
     0
176
     1
 90
       50
176
     1
 90
       50
176
     1
 90
       50
176
     1
290
     0
176
     1
 90
       50
176
     1
 62
   256
176
     0
 40
1.0
176
     0
 90
        2
176
     1
  1
strokes_ogs.tif
176
     1
290
     0
176
     1
 40
1.0
176
     1
 40
1.0
176
     1
  0
VISUALSTYLE
  5
17D
102
{ACAD_REACTORS
330
176
102
}
330
176
100
AcDbVisualStyle
  2
Hidden
 70
     6
177
     3
291
     0
 70
    58
 90
        1
176
     1
 90
        2
176
     1
 90
        2
176
     1
 90
        0
176
     1
 40
0.6
176
     1
 40
30.0
176
     1
 62
     7
420
 16777215
176
     1
 90
        2
176
     1
 90
        2
176
     1
 62
     7
176
     1
 62
   257
176
     1
 90
        2
176
     1
 90
        1
176
     1
 40
40.0
176
     1
 90
        0
176
     1
 62
   257
176
     1
 40
1.0
176
     1
 90
        1
176
     1
 90
        6
176
     1
 90
        2
176
     1
 62
     7
176
     1
 90
        3
176
     1
 90
        0
176
     1
 90
        0
176
     1
290
     0
176
     1
 90
        1
176
     1
 40
0.0
176
     1
 90
        0
176
     1
290
     0
176
     1
290
     1
176
     1
290
     1
176
     1
290
     0
176
     1
290
     0
176
     1
290
     0
176
     1
290
     0
176
     1
290
     0
176
     1
290
     0
176
     1
 90
       50
176
     1
 40
0.0
176
     1
 40
1.0
176
     1
 90
        0
176
     1
 62
    18
420
        0
176
     1
 90
       50
176
     1
 90
        3
176
     1
 62
     5
420
      255
176
     1
290
     0
176
     1
 90
       50
176
     1
 90
       50
176
     1
 90
       50
176
     1
290
     0
176
     1
 90
       50
176
     1
 62
   256
176
     0
 40
1.0
176
     0
 90
        2
176
     1
  1
strokes_ogs.tif
176
     1
290
     0
176
     1
 40
1.0
176
     1
 40
1.0
176
     1
  0
VISUALSTYLE
  5
187
102
{ACAD_REACTORS
330
176
102
}
330
176
100
AcDbVisualStyle
  2
JitterOff
 70
    20
177
     3
291
     1
 70
    58
 90
        2
176
     0
 90
        2
176
     0
 90
        0
176
     0
 90
        0
176
     0
 40
0.6
176
     0
 40
30.0
176
     0
 62
     7
420
 16777215
176
     0
 90
        1
176
     0
 90
        4
176
     0
 62
     7
176
     0
 62
   257
176
     0
 90
        1
176
     0
 90
        1
176
     0
 40
1.0
176
     0
 90
       10
176
     2
 62
     7
176
     0
 40
1.0
176
     0
 90
        1
176
     0
 90
        6
176
     0
 90
        2
176
     0
 62
     7
176
     0
 90
        5
176
     0
 90
        0
176
     0
 90
        0
176
     0
290
     0
176
     0
 90
        1
176
     0
 40
0.0
176
     0
 90
        0
176
     0
290
     0
176
     0
290
     1
176
     0
290
     1
176
     0
290
     0
176
     0
290
     0
176
     0
290
     0
176
     0
290
     0
176
     0
290
     0
176
     0
290
     0
176
     0
 90
       50
176
     0
 40
0.0
176
     0
 40
1.0
176
     0
 90
        0
176
     0
 62
    18
420
        0
176
     0
 90
       50
176
     0
 90
        3
176
     0
 62
     5
420
      255
176
     0
290
     0
176
     0
 90
       50
176
     0
 90
       50
176
     0
 90
       50
176
     0
290
     0
176
     0
 90
       50
176
     0
 62
   256
176
     0
 40
1.0
176
     0
 90
        2
176
     0
  1
strokes_ogs.tif
176
     0
290
     0
176
     0
 40
1.0
176
     0
 40
1.0
176
     0
  0
VISUALSTYLE
  5
184
102
{ACAD_REACTORS
330
176
102
}
330
176
100
AcDbVisualStyle
  2
Linepattern
 70
    14
177
     3
291
     1
 70
    58
 90
        2
176
     1
 90
        2
176
     1
 90
        0
176
     1
 90
        0
176
     1
 40
0.6
176
     1
 40
30.0
176
     1
 62
     7
420
 16777215
176
     1
 90
        1
176
     1
 90
        4
176
     1
 62
     7
176
     1
 62
   257
176
     1
 90
        7
176
     1
 90
        7
176
     1
 40
1.0
176
     1
 90
        8
176
     1
 62
     7
176
     1
 40
1.0
176
     1
 90
        1
176
     1
 90
        6
176
     1
 90
        2
176
     1
 62
     7
176
     1
 90
        5
176
     1
 90
        0
176
     1
 90
        0
176
     1
290
     0
176
     1
 90
        1
176
     1
 40
0.0
176
     1
 90
        0
176
     1
290
     0
176
     1
290
     1
176
     1
290
     1
176
     1
290
     0
176
     1
290
     0
176
     1
290
     0
176
     1
290
     0
176
     1
290
     0
176
     1
290
     0
176
     1
 90
       50
176
     1
 40
0.0
176
     1
 40
1.0
176
     1
 90
        0
176
     1
 62
    18
420
        0
176
     1
 90
       50
176
     1
 90
        3
176
     1
 62
     5
420
      255
176
     1
290
     0
176
     1
 90
       50
176
     1
 90
       50
176
     1
 90
       50
176
     1
290
     0
176
     1
 90
       50
176
     1
 62
   256
176
     0
 40
1.0
176
     0
 90
        2
176
     1
  1
strokes_ogs.tif
176
     1
290
     0
176
     1
 40
1.0
176
     1
 40
1.0
176
     1
  0
VISUALSTYLE
  5
188
102
{ACAD_REACTORS
330
176
102
}
330
176
100
AcDbVisualStyle
  2
OverhangOff
 70
    21
177
     3
291
     1
 70
    58
 90
        2
176
     0
 90
        2
176
     0
 90
        0
176
     0
 90
        0
176
     0
 40
0.6
176
     0
 40
30.0
176
     0
 62
     7
420
 16777215
176
     0
 90
        1
176
     0
 90
        4
176
     0
 62
     7
176
     0
 62
   257
176
     0
 90
        1
176
     0
 90
        1
176
     0
 40
1.0
176
     0
 90
        9
176
     2
 62
     7
176
     0
 40
1.0
176
     0
 90
        1
176
     0
 90
        6
176
     0
 90
        2
176
     0
 62
     7
176
     0
 90
        5
176
     0
 90
        0
176
     0
 90
        0
176
     0
290
     0
176
     0
 90
        1
176
     0
 40
0.0
176
     0
 90
        0
176
     0
290
     0
176
     0
290
     1
176
     0
290
     1
176
     0
290
     0
176
     0
290
     0
176
     0
290
     0
176
     0
290
     0
176
     0
290
     0
176
     0
290
     0
176
     0
 90
       50
176
     0
 40
0.0
176
     0
 40
1.0
176
     0
 90
        0
176
     0
 62
    18
420
        0
176
     0
 90
       50
176
     0
 90
        3
176
     0
 62
     5
420
      255
176
     0
290
     0
176
     0
 90
       50
176
     0
 90
       50
176
     0
 90
       50
176
     0
290
     0
176
     0
 90
       50
176
     0
 62
   256
176
     0
 40
1.0
176
     0
 90
        2
176
     0
  1
strokes_ogs.tif
176
     0
290
     0
176
     0
 40
1.0
176
     0
 40
1.0
176
     0
  0
VISUALSTYLE
  5
17F
102
{ACAD_REACTORS
330
176
102
}
330
176
100
AcDbVisualStyle
  2
Realistic
 70
     8
177
     3
291
     0
 70
    58
 90
        2
176
     1
 90
        3
176
     1
 90
        0
176
     1
 90
        2
176
     1
 40
0.6
176
     1
 40
30.0
176
     1
 62
     7
420
 16777215
176
     1
 90
        0
176
     1
 90
        0
176
     1
 62
     7
176
     1
 62
   257
176
     1
 90
        1
176
     1
 90
        1
176
     1
 40
1.0
176
     1
 90
        8
176
     1
 62
   257
176
     1
 40
1.0
176
     1
 90
        1
176
     1
 90
        6
176
     1
 90
        2
176
     1
 62
     7
176
     1
 90
        3
176
     1
 90
        0
176
     1
 90
        0
176
     1
290
     0
176
     1
 90
       13
176
     1
 40
0.0
176
     1
 90
        0
176
     1
290
     0
176
     1
290
     1
176
     1
290
     1
176
     1
290
     0
176
     1
290
     0
176
     1
290
     0
176
     1
290
     0
176
     1
290
     0
176
     1
290
     0
176
     1
 90
       50
176
     1
 40
0.0
176
     1
 40
1.0
176
     1
 90
        0
176
     1
 62
    18
420
        0
176
     1
 90
       50
176
     1
 90
        3
176
     1
 62
     5
420
      255
176
     1
290
     0
176
     1
 90
       50
176
     1
 90
       50
176
     1
 90
       50
176
     1
290
     0
176
     1
 90
       50
176
     1
 62
   256
176
     0
 40
1.0
176
     0
 90
        2
176
     1
  1
strokes_ogs.tif
176
     1
290
     0
176
     1
 40
1.0
176
     1
 40
1.0
176
     1
  0
VISUALSTYLE
  5
18E
102
{ACAD_REACTORS
330
176
102
}
330
176
100
AcDbVisualStyle
  2
Shaded
 70
    27
177
     3
291
     0
 70
    58
 90
        2
176
     1
 90
        2
176
     1
 90
        1
176
     1
 90
        2
176
     1
 40
0.6
176
     1
 40
30.0
176
     1
 62
     7
420
 16777215
176
     1
 90
        0
176
     1
 90
        4
176
     1
 62
     7
176
     1
 62
   257
176
     1
 90
        1
176
     1
 90
        1
176
     1
 40
1.0
176
     1
 90
        8
176
     1
 62
   257
176
     1
 40
1.0
176
     1
 90
        1
176
     1
 90
        6
176
     1
 90
        2
176
     1
 62
     8
420
  7895160
176
     1
 90
        3
176
     1
 90
        0
176
     1
 90
        0
176
     1
290
     0
176
     1
 90
        5
176
     1
 40
0.0
176
     1
 90
        0
176
     1
290
     0
176
     1
290
     1
176
     1
290
     1
176
     1
290
     0
176
     1
290
     0
176
     1
290
     0
176
     1
290
     0
176
     1
290
     0
176
     1
290
     0
176
     1
 90
       50
176
     1
 40
0.0
176
     1
 40
1.0
176
     1
 90
        0
176
     1
 62
    18
420
        0
176
     1
 90
       50
176
     1
 90
        3
176
     1
 62
     5
420
      255
176
     1
290
     0
176
     1
 90
       50
176
     1
 90
       50
176
     1
 90
       50
176
     1
290
     0
176
     1
 90
       50
176
     1
 62
   256
176
     0
 40
1.0
176
     0
 90
        2
176
     1
  1
strokes_ogs.tif
176
     1
290
     0
176
     1
 40
1.0
176
     1
 40
1.0
176
     1
  0
VISUALSTYLE
  5
18D
102
{ACAD_REACTORS
330
176
102
}
330
176
100
AcDbVisualStyle
  2
Shaded with edges
 70
    26
177
     3
291
     0
 70
    58
 90
        2
176
     1
 90
        2
176
     1
 90
        1
176
     1
 90
        2
176
     1
 40
0.6
176
     1
 40
30.0
176
     1
 62
     7
420
 16777215
176
     1
 90
        1
176
     1
 90
       10
176
     1
 62
     7
176
     1
 62
   257
176
     1
 90
        2
176
     1
 90
        1
176
     1
 40
1.0
176
     1
 90
        8
176
     1
 62
   257
176
     1
 40
1.0
176
     1
 90
        1
176
     1
 90
        6
176
     1
 90
        2
176
     1
 62
     7
176
     1
 90
        3
176
     1
 90
        0
176
     1
 90
        0
176
     1
290
     0
176
     1
 90
        5
176
     1
 40
0.0
176
     1
 90
        0
176
     1
290
     0
176
     1
290
     1
176
     1
290
     1
176
     1
290
     0
176
     1
290
     0
176
     1
290
     0
176
     1
290
     0
176
     1
290
     0
176
     1
290
     0
176
     1
 90
       50
176
     1
 40
0.0
176
     1
 40
1.0
176
     1
 90
        0
176
     1
 62
    18
420
        0
176
     1
 90
       50
176
     1
 90
        3
176
     1
 62
     5
420
      255
176
     1
290
     0
176
     1
 90
       50
176
     1
 90
       50
176
     1
 90
       50
176
     1
290
     0
176
     1
 90
       50
176
     1
 62
   256
176
     0
 40
1.0
176
     0
 90
        2
176
     1
  1
strokes_ogs.tif
176
     1
290
     0
176
     1
 40
1.0
176
     1
 40
1.0
176
     1
  0
VISUALSTYLE
  5
18A
102
{ACAD_REACTORS
330
176
102
}
330
176
100
AcDbVisualStyle
  2
Shades of Gray
 70
    23
177
     3
291
     0
 70
    58
 90
        2
176
     1
 90
        2
176
     1
 90
        3
176
     1
 90
        0
176
     1
 40
0.6
176
     1
 40
30.0
176
     1
 62
     7
420
 16777215
176
     1
 90
        2
176
     1
 90
        2
176
     1
 62
     7
176
     1
 62
     7
176
     1
 90
        1
176
     1
 90
        1
176
     1
 40
40.0
176
     1
 90
        8
176
     1
 62
     7
176
     1
 40
1.0
176
     1
 90
        1
176
     1
 90
        6
176
     1
 90
        2
176
     1
 62
     7
176
     1
 90
        3
176
     1
 90
        0
176
     1
 90
        0
176
     1
290
     0
176
     1
 90
        1
176
     1
 40
0.0
176
     1
 90
        0
176
     1
290
     0
176
     1
290
     1
176
     1
290
     1
176
     1
290
     0
176
     1
290
     0
176
     1
290
     0
176
     1
290
     0
176
     1
290
     0
176
     1
290
     0
176
     1
 90
       50
176
     1
 40
0.0
176
     1
 40
1.0
176
     1
 90
        0
176
     1
 62
    18
420
        0
176
     1
 90
       50
176
     1
 90
        3
176
     1
 62
     5
420
      255
176
     1
290
     0
176
     1
 90
       50
176
     1
 90
       50
176
     1
 90
       50
176
     1
290
     0
176
     1
 90
       50
176
     1
 62
   256
176
     0
 40
1.0
176
     0
 90
        2
176
     1
  1
strokes_ogs.tif
176
     1
290
     0
176
     1
 40
1.0
176
     1
 40
1.0
176
     1
  0
VISUALSTYLE
  5
18B
102
{ACAD_REACTORS
330
176
102
}
330
176
100
AcDbVisualStyle
  2
Sketchy
 70
    24
177
     3
291
     0
 70
    58
 90
        1
176
     1
 90
        2
176
     1
 90
        2
176
     1
 90
        0
176
     1
 40
0.6
176
     1
 40
30.0
176
     1
 62
     7
420
 16777215
176
     1
 90
        2
176
     1
 90
        2
176
     1
 62
     7
176
     1
 62
     7
176
     1
 90
        1
176
     1
 90
        1
176
     1
 40
40.0
176
     1
 90
       11
176
     1
 62
     7
176
     1
 40
1.0
176
     1
 90
        1
176
     1
 90
        6
176
     1
 90
        2
176
     1
 62
     7
176
     1
 90
        6
176
     1
 90
        0
176
     1
 90
        0
176
     1
290
     0
176
     1
 90
        1
176
     1
 40
0.0
176
     1
 90
        0
176
     1
290
     0
176
     1
290
     1
176
     1
290
     1
176
     1
290
     0
176
     1
290
     0
176
     1
290
     0
176
     1
290
     0
176
     1
290
     0
176
     1
290
     0
176
     1
 90
       50
176
     1
 40
0.0
176
     1
 40
1.0
176
     1
 90
        0
176
     1
 62
    18
420
        0
176
     1
 90
       50
176
     1
 90
        3
176
     1
 62
     5
420
      255
176
     1
290
     0
176
     1
 90
       50
176
     1
 90
       50
176
     1
 90
       50
176
     1
290
     0
176
     1
 90
       50
176
     1
 62
   256
176
     0
 40
1.0
176
     0
 90
        2
176
     1
  1
strokes_ogs.tif
176
     1
290
     0
176
     1
 40
1.0
176
     1
 40
1.0
176
     1
  0
VISUALSTYLE
  5
183
102
{ACAD_REACTORS
330
176
102
}
330
176
100
AcDbVisualStyle
  2
Thicken
 70
    13
177
     3
291
     1
 70
    58
 90
        2
176
     1
 90
        2
176
     1
 90
        0
176
     1
 90
        0
176
     1
 40
0.6
176
     1
 40
30.0
176
     1
 62
     7
420
 16777215
176
     1
 90
        1
176
     1
 90
        4
176
     1
 62
     7
176
     1
 62
   257
176
     1
 90
        1
176
     1
 90
        1
176
     1
 40
1.0
176
     1
 90
       12
176
     1
 62
     7
176
     1
 40
1.0
176
     1
 90
        1
176
     1
 90
        6
176
     1
 90
        2
176
     1
 62
     7
176
     1
 90
        5
176
     1
 90
        0
176
     1
 90
        0
176
     1
290
     0
176
     1
 90
        1
176
     1
 40
0.0
176
     1
 90
        0
176
     1
290
     0
176
     1
290
     1
176
     1
290
     1
176
     1
290
     0
176
     1
290
     0
176
     1
290
     0
176
     1
290
     0
176
     1
290
     0
176
     1
290
     0
176
     1
 90
       50
176
     1
 40
0.0
176
     1
 40
1.0
176
     1
 90
        0
176
     1
 62
    18
420
        0
176
     1
 90
       50
176
     1
 90
        3
176
     1
 62
     5
420
      255
176
     1
290
     0
176
     1
 90
       50
176
     1
 90
       50
176
     1
 90
       50
176
     1
290
     0
176
     1
 90
       50
176
     1
 62
   256
176
     0
 40
1.0
176
     0
 90
        2
176
     1
  1
strokes_ogs.tif
176
     1
290
     0
176
     1
 40
1.0
176
     1
 40
1.0
176
     1
  0
VISUALSTYLE
  5
17C
102
{ACAD_REACTORS
330
176
102
}
330
176
100
AcDbVisualStyle
  2
Wireframe
 70
     5
177
     3
291
     0
 70
    58
 90
        0
176
     1
 90
        2
176
     1
 90
        0
176
     1
 90
        0
176
     1
 40
0.6
176
     1
 40
30.0
176
     1
 62
     7
420
 16777215
176
     1
 90
        1
176
     1
 90
        4
176
     1
 62
     7
176
     1
 62
   257
176
     1
 90
        1
176
     1
 90
        1
176
     1
 40
1.0
176
     1
 90
        0
176
     1
 62
   257
176
     1
 40
1.0
176
     1
 90
        1
176
     1
 90
        6
176
     1
 90
        2
176
     1
 62
     7
176
     1
 90
        3
176
     1
 90
        0
176
     1
 90
        0
176
     1
290
     0
176
     1
 90
        1
176
     1
 40
0.0
176
     1
 90
        0
176
     1
290
     0
176
     1
290
     1
176
     1
290
     1
176
     1
290
     0
176
     1
290
     0
176
     1
290
     0
176
     1
290
     0
176
     1
290
     0
176
     1
290
     0
176
     1
 90
       50
176
     1
 40
0.0
176
     1
 40
1.0
176
     1
 90
        0
176
     1
 62
    18
420
        0
176
     1
 90
       50
176
     1
 90
        3
176
     1
 62
     5
420
      255
176
     1
290
     0
176
     1
 90
       50
176
     1
 90
       50
176
     1
 90
       50
176
     1
290
     0
176
     1
 90
       50
176
     1
 62
   256
176
     0
 40
1.0
176
     0
 90
        2
176
     1
  1
strokes_ogs.tif
176
     1
290
     0
176
     1
 40
1.0
176
     1
 40
1.0
176
     1
  0
VISUALSTYLE
  5
18C
102
{ACAD_REACTORS
330
176
102
}
330
176
100
AcDbVisualStyle
  2
X-Ray
 70
    25
177
     3
291
     0
 70
    58
 90
        2
176
     1
 90
        2
176
     1
 90
        1
176
     1
 90
        1
176
     1
 40
0.5
176
     1
 40
30.0
176
     1
 62
     7
420
 16777215
176
     1
 90
        1
176
     1
 90
        0
176
     1
 62
     7
176
     1
 62
   257
176
     1
 90
        1
176
     1
 90
        1
176
     1
 40
1.0
176
     1
 90
        8
176
     1
 62
     7
176
     1
 40
1.0
176
     1
 90
        1
176
     1
 90
        6
176
     1
 90
        2
176
     1
 62
     7
176
     1
 90
        3
176
     1
 90
        0
176
     1
 90
        0
176
     1
290
     0
176
     1
 90
       13
176
     1
 40
0.0
176
     1
 90
        0
176
     1
290
     0
176
     1
290
     1
176
     1
290
     1
176
     1
290
     0
176
     1
290
     0
176
     1
290
     0
176
     1
290
     0
176
     1
290
     0
176
     1
290
     0
176
     1
 90
       50
176
     1
 40
0.0
176
     1
 40
1.0
176
     1
 90
        0
176
     1
 62
    18
420
        0
176
     1
 90
       50
176
     1
 90
        3
176
     1
 62
     5
420
      255
176
     1
290
     0
176
     1
 90
       50
176
     1
 90
       50
176
     1
 90
       50
176
     1
290
     0
176
     1
 90
       50
176
     1
 62
   256
176
     0
 40
1.0
176
     0
 90
        2
176
     1
  1
strokes_ogs.tif
176
     1
290
     0
176
     1
 40
1.0
176
     1
 40
1.0
176
     1
  0
DICTIONARYVAR
  5
1A7
102
{ACAD_REACTORS
330
1A6
102
}
330
1A6
100
DictionaryVariables
280
     0
  1
1:1
  0
DICTIONARYVAR
  5
1A9
102
{ACAD_REACTORS
330
1A6
102
}
330
1A6
100
DictionaryVariables
280
     0
  1
Standard
  0
DICTIONARYVAR
  5
1A8
102
{ACAD_REACTORS
330
1A6
102
}
330
1A6
100
DictionaryVariables
280
     0
  1
Standard
  0
DICTIONARYVAR
  5
1AA
102
{ACAD_REACTORS
330
1A6
102
}
330
1A6
100
DictionaryVariables
280
     0
  1
0
  0
DICTIONARY
  5
707
330
194
100
AcDbDictionary
280
     1
281
     1
  3
ACAD_ROUNDTRIP_2008_TABLESTYLE_CELLSTYLEMAP
360
708
  0
CELLSTYLEMAP
  5
708
102
{ACAD_REACTORS
330
707
102
}
330
707
100
AcDbCellStyleMap
 90
        3
300
CELLSTYLE
  1
TABLEFORMAT_BEGIN
 90
        5
170
     1
 91
        0
 92
    32768
 62
   257
 93
        1
300
CONTENTFORMAT
  1
CONTENTFORMAT_BEGIN
 90
        0
 91
        0
 92
        4
 93
        0
300

 40
0.0
140
1.0
 94
        5
 62
     0
340
11
144
6.0
309
CONTENTFORMAT_END
171
     1
301
MARGIN
  1
CELLMARGIN_BEGIN
 40
1.5
 40
1.5
 40
1.5
 40
1.5
 40
1.5
 40
1.5
309
CELLMARGIN_END
 94
        6
 95
        1
302
GRIDFORMAT
  1
GRIDFORMAT_BEGIN
 90
        0
 91
        1
 62
     0
 92
       -2
340
14
 93
        0
 40
0.045
309
GRIDFORMAT_END
 95
        2
302
GRIDFORMAT
  1
GRIDFORMAT_BEGIN
 90
        0
 91
        1
 62
     0
 92
       -2
340
14
 93
        0
 40
0.045
309
GRIDFORMAT_END
 95
        4
302
GRIDFORMAT
  1
GRIDFORMAT_BEGIN
 90
        0
 91
        1
 62
     0
 92
       -2
340
14
 93
        0
 40
0.045
309
GRIDFORMAT_END
 95
        8
302
GRIDFORMAT
  1
GRIDFORMAT_BEGIN
 90
        0
 91
        1
 62
     0
 92
       -2
340
14
 93
        0
 40
0.045
309
GRIDFORMAT_END
 95
       16
302
GRIDFORMAT
  1
GRIDFORMAT_BEGIN
 90
        0
 91
        1
 62
     0
 92
       -2
340
14
 93
        0
 40
0.045
309
GRIDFORMAT_END
 95
       32
302
GRIDFORMAT
  1
GRIDFORMAT_BEGIN
 90
        0
 91
        1
 62
     0
 92
       -2
340
14
 93
        0
 40
0.045
309
GRIDFORMAT_END
309
TABLEFORMAT_END
  1
CELLSTYLE_BEGIN
 90
        1
 91
        1
300
_TITLE
309
CELLSTYLE_END
300
CELLSTYLE
  1
TABLEFORMAT_BEGIN
 90
        5
170
     1
 91
        0
 92
        0
 62
   257
 93
        1
300
CONTENTFORMAT
  1
CONTENTFORMAT_BEGIN
 90
        0
 91
        0
 92
        4
 93
        0
300

 40
0.0
140
1.0
 94
        5
 62
     0
340
11
144
4.5
309
CONTENTFORMAT_END
171
     1
301
MARGIN
  1
CELLMARGIN_BEGIN
 40
1.5
 40
1.5
 40
1.5
 40
1.5
 40
1.5
 40
1.5
309
CELLMARGIN_END
 94
        6
 95
        1
302
GRIDFORMAT
  1
GRIDFORMAT_BEGIN
 90
        0
 91
        1
 62
     0
 92
       -2
340
14
 93
        0
 40
0.045
309
GRIDFORMAT_END
 95
        2
302
GRIDFORMAT
  1
GRIDFORMAT_BEGIN
 90
        0
 91
        1
 62
     0
 92
       -2
340
14
 93
        0
 40
0.045
309
GRIDFORMAT_END
 95
        4
302
GRIDFORMAT
  1
GRIDFORMAT_BEGIN
 90
        0
 91
        1
 62
     0
 92
       -2
340
14
 93
        0
 40
0.045
309
GRIDFORMAT_END
 95
        8
302
GRIDFORMAT
  1
GRIDFORMAT_BEGIN
 90
        0
 91
        1
 62
     0
 92
       -2
340
14
 93
        0
 40
0.045
309
GRIDFORMAT_END
 95
       16
302
GRIDFORMAT
  1
GRIDFORMAT_BEGIN
 90
        0
 91
        1
 62
     0
 92
       -2
340
14
 93
        0
 40
0.045
309
GRIDFORMAT_END
 95
       32
302
GRIDFORMAT
  1
GRIDFORMAT_BEGIN
 90
        0
 91
        1
 62
     0
 92
       -2
340
14
 93
        0
 40
0.045
309
GRIDFORMAT_END
309
TABLEFORMAT_END
  1
CELLSTYLE_BEGIN
 90
        2
 91
        1
300
_HEADER
309
CELLSTYLE_END
300
CELLSTYLE
  1
TABLEFORMAT_BEGIN
 90
        5
170
     1
 91
        0
 92
        0
 62
   257
 93
        1
300
CONTENTFORMAT
  1
CONTENTFORMAT_BEGIN
 90
        0
 91
        0
 92
        4
 93
        0
300

 40
0.0
140
1.0
 94
        2
 62
     0
340
11
144
4.5
309
CONTENTFORMAT_END
171
     1
301
MARGIN
  1
CELLMARGIN_BEGIN
 40
1.5
 40
1.5
 40
1.5
 40
1.5
 40
1.5
 40
1.5
309
CELLMARGIN_END
 94
        6
 95
        1
302
GRIDFORMAT
  1
GRIDFORMAT_BEGIN
 90
        0
 91
        1
 62
     0
 92
       -2
340
14
 93
        0
 40
0.045
309
GRIDFORMAT_END
 95
        2
302
GRIDFORMAT
  1
GRIDFORMAT_BEGIN
 90
        0
 91
        1
 62
     0
 92
       -2
340
14
 93
        0
 40
0.045
309
GRIDFORMAT_END
 95
        4
302
GRIDFORMAT
  1
GRIDFORMAT_BEGIN
 90
        0
 91
        1
 62
     0
 92
       -2
340
14
 93
        0
 40
0.045
309
GRIDFORMAT_END
 95
        8
302
GRIDFORMAT
  1
GRIDFORMAT_BEGIN
 90
        0
 91
        1
 62
     0
 92
       -2
340
14
 93
        0
 40
0.045
309
GRIDFORMAT_END
 95
       16
302
GRIDFORMAT
  1
GRIDFORMAT_BEGIN
 90
        0
 91
        1
 62
     0
 92
       -2
340
14
 93
        0
 40
0.045
309
GRIDFORMAT_END
 95
       32
302
GRIDFORMAT
  1
GRIDFORMAT_BEGIN
 90
        0
 91
        1
 62
     0
 92
       -2
340
14
 93
        0
 40
0.045
309
GRIDFORMAT_END
309
TABLEFORMAT_END
  1
CELLSTYLE_BEGIN
 90
        3
 91
        2
300
_DATA
309
CELLSTYLE_END
  0
ENDSEC
  0
EOF
