  0
SECTION
  2
HEADER
  9
$ACADVER
  1
AC1027
  9
$ACADMAINTVER
 70
   105
  9
$DWGCODEPAGE
  3
ANSI_932
  9
$REQUIREDVERSIONS
160
                 0
  9
$LASTSAVEDBY
  1
9176
  9
$INSBASE
 10
0.0
 20
0.0
 30
0.0
  9
$EXTMIN
 10
192.1928447333046
 20
75.64276805555556
 30
0.0
  9
$EXTMAX
 10
332.723418112304
 20
255.989131302107
 30
0.0
  9
$LIMMIN
 10
0.0
 20
0.0
  9
$LIMMAX
 10
0.0
 20
0.0
  9
$ORTHOMODE
 70
     0
  9
$REGENMODE
 70
     1
  9
$FILLMODE
 70
     1
  9
$QTEXTMODE
 70
     0
  9
$MIRRTEXT
 70
     1
  9
$LTSCALE
 40
12.7
  9
$ATTMODE
 70
     1
  9
$TEXTSIZE
 40
0.0
  9
$TRACEWID
 40
1.0
  9
$TEXTSTYLE
  7
STANDARD
  9
$CLAYER
  8
0
  9
$CELTYPE
  6
CONTINUOUS
  9
$CECOLOR
 62
     4
  9
$CELTSCALE
 40
1.0
  9
$DISPSILH
 70
     0
  9
$DIMSCALE
 40
1.0
  9
$DIMASZ
 40
0.18
  9
$DIMEXO
 40
0.0625
  9
$DIMDLI
 40
0.38
  9
$DIMRND
 40
0.0
  9
$DIMDLE
 40
0.0
  9
$DIMEXE
 40
0.18
  9
$DIMTP
 40
0.0
  9
$DIMTM
 40
0.0
  9
$DIMTXT
 40
0.18
  9
$DIMCEN
 40
0.09
  9
$DIMTSZ
 40
0.0
  9
$DIMTOL
 70
     0
  9
$DIMLIM
 70
     0
  9
$DIMTIH
 70
     1
  9
$DIMTOH
 70
     1
  9
$DIMSE1
 70
     0
  9
$DIMSE2
 70
     0
  9
$DIMTAD
 70
     0
  9
$DIMZIN
 70
     0
  9
$DIMBLK
  1

  9
$DIMASO
 70
     1
  9
$DIMSHO
 70
     1
  9
$DIMPOST
  1

  9
$DIMAPOST
  1

  9
$DIMALT
 70
     0
  9
$DIMALTD
 70
     2
  9
$DIMALTF
 40
25.4
  9
$DIMLFAC
 40
1.0
  9
$DIMTOFL
 70
     0
  9
$DIMTVP
 40
0.0
  9
$DIMTIX
 70
     0
  9
$DIMSOXD
 70
     0
  9
$DIMSAH
 70
     0
  9
$DIMBLK1
  1

  9
$DIMBLK2
  1

  9
$DIMSTYLE
  2
STANDARD
  9
$DIMCLRD
 70
     0
  9
$DIMCLRE
 70
     0
  9
$DIMCLRT
 70
     0
  9
$DIMTFAC
 40
1.0
  9
$DIMGAP
 40
0.09
  9
$DIMJUST
 70
     0
  9
$DIMSD1
 70
     0
  9
$DIMSD2
 70
     0
  9
$DIMTOLJ
 70
     1
  9
$DIMTZIN
 70
     0
  9
$DIMALTZ
 70
     0
  9
$DIMALTTZ
 70
     0
  9
$DIMUPT
 70
     0
  9
$DIMDEC
 70
     4
  9
$DIMTDEC
 70
     4
  9
$DIMALTU
 70
     2
  9
$DIMALTTD
 70
     2
  9
$DIMTXSTY
  7
STANDARD
  9
$DIMAUNIT
 70
     0
  9
$DIMADEC
 70
     0
  9
$DIMALTRND
 40
0.0
  9
$DIMAZIN
 70
     0
  9
$DIMDSEP
 70
    46
  9
$DIMATFIT
 70
     3
  9
$DIMFRAC
 70
     0
  9
$DIMLDRBLK
  1

  9
$DIMLUNIT
 70
     2
  9
$DIMLWD
 70
    -2
  9
$DIMLWE
 70
    -2
  9
$DIMTMOVE
 70
     2
  9
$DIMFXL
 40
1.0
  9
$DIMFXLON
 70
     0
  9
$DIMJOGANG
 40
0.7853981633974483
  9
$DIMTFILL
 70
     0
  9
$DIMTFILLCLR
 70
     0
  9
$DIMARCSYM
 70
     0
  9
$DIMLTYPE
  6

  9
$DIMLTEX1
  6

  9
$DIMLTEX2
  6

  9
$DIMTXTDIRECTION
 70
     0
  9
$LUNITS
 70
     2
  9
$LUPREC
 70
     4
  9
$SKETCHINC
 40
0.1
  9
$FILLETRAD
 40
0.0
  9
$AUNITS
 70
     0
  9
$AUPREC
 70
     0
  9
$MENU
  1
acad
  9
$ELEVATION
 40
0.0
  9
$PELEVATION
 40
0.0
  9
$THICKNESS
 40
0.0
  9
$LIMCHECK
 70
     0
  9
$CHAMFERA
 40
0.0
  9
$CHAMFERB
 40
0.0
  9
$CHAMFERC
 40
0.0
  9
$CHAMFERD
 40
0.0
  9
$SKPOLY
 70
     0
  9
$TDCREATE
 40
2458461.649537037
  9
$TDUCREATE
 40
2458461.274537037
  9
$TDUPDATE
 40
2458688.777634213
  9
$TDUUPDATE
 40
2458688.402634213
  9
$TDINDWG
 40
0.0182356481
  9
$TDUSRTIMER
 40
0.0002926389
  9
$USRTIMER
 70
     1
  9
$ANGBASE
 50
0.0
  9
$ANGDIR
 70
     0
  9
$PDMODE
 70
     1
  9
$PDSIZE
 40
-2.0
  9
$PLINEWID
 40
0.0
  9
$SPLFRAME
 70
     0
  9
$SPLINETYPE
 70
     6
  9
$SPLINESEGS
 70
     8
  9
$HANDSEED
  5
1616
  9
$SURFTAB1
 70
     6
  9
$SURFTAB2
 70
     6
  9
$SURFTYPE
 70
     6
  9
$SURFU
 70
     6
  9
$SURFV
 70
     6
  9
$UCSBASE
  2

  9
$UCSNAME
  2

  9
$UCSORG
 10
0.0
 20
0.0
 30
0.0
  9
$UCSXDIR
 10
1.0
 20
0.0
 30
0.0
  9
$UCSYDIR
 10
0.0
 20
1.0
 30
0.0
  9
$UCSORTHOREF
  2

  9
$UCSORTHOVIEW
 70
     0
  9
$UCSORGTOP
 10
0.0
 20
0.0
 30
0.0
  9
$UCSORGBOTTOM
 10
0.0
 20
0.0
 30
0.0
  9
$UCSORGLEFT
 10
0.0
 20
0.0
 30
0.0
  9
$UCSORGRIGHT
 10
0.0
 20
0.0
 30
0.0
  9
$UCSORGFRONT
 10
0.0
 20
0.0
 30
0.0
  9
$UCSORGBACK
 10
0.0
 20
0.0
 30
0.0
  9
$PUCSBASE
  2

  9
$PUCSNAME
  2

  9
$PUCSORG
 10
0.0
 20
0.0
 30
0.0
  9
$PUCSXDIR
 10
1.0
 20
0.0
 30
0.0
  9
$PUCSYDIR
 10
0.0
 20
1.0
 30
0.0
  9
$PUCSORTHOREF
  2

  9
$PUCSORTHOVIEW
 70
     0
  9
$PUCSORGTOP
 10
0.0
 20
0.0
 30
0.0
  9
$PUCSORGBOTTOM
 10
0.0
 20
0.0
 30
0.0
  9
$PUCSORGLEFT
 10
0.0
 20
0.0
 30
0.0
  9
$PUCSORGRIGHT
 10
0.0
 20
0.0
 30
0.0
  9
$PUCSORGFRONT
 10
0.0
 20
0.0
 30
0.0
  9
$PUCSORGBACK
 10
0.0
 20
0.0
 30
0.0
  9
$USERI1
 70
     0
  9
$USERI2
 70
     0
  9
$USERI3
 70
     0
  9
$USERI4
 70
     0
  9
$USERI5
 70
     0
  9
$USERR1
 40
0.0
  9
$USERR2
 40
0.0
  9
$USERR3
 40
0.0
  9
$USERR4
 40
0.0
  9
$USERR5
 40
0.0
  9
$WORLDVIEW
 70
     1
  9
$SHADEDGE
 70
     3
  9
$SHADEDIF
 70
    70
  9
$TILEMODE
 70
     1
  9
$MAXACTVP
 70
    16
  9
$PINSBASE
 10
0.0
 20
0.0
 30
0.0
  9
$PLIMCHECK
 70
     0
  9
$PEXTMIN
 10
1.000000000000000E+20
 20
1.000000000000000E+20
 30
1.000000000000000E+20
  9
$PEXTMAX
 10
-1.000000000000000E+20
 20
-1.000000000000000E+20
 30
-1.000000000000000E+20
  9
$PLIMMIN
 10
0.0
 20
0.0
  9
$PLIMMAX
 10
0.0
 20
0.0
  9
$UNITMODE
 70
     0
  9
$VISRETAIN
 70
     0
  9
$PLINEGEN
 70
     1
  9
$PSLTSCALE
 70
     0
  9
$TREEDEPTH
 70
  3020
  9
$CMLSTYLE
  2
STANDARD
  9
$CMLJUST
 70
     0
  9
$CMLSCALE
 40
1.0
  9
$PROXYGRAPHICS
 70
     0
  9
$MEASUREMENT
 70
     1
  9
$CELWEIGHT
370
    -1
  9
$ENDCAPS
280
     0
  9
$JOINSTYLE
280
     0
  9
$LWDISPLAY
290
     0
  9
$INSUNITS
 70
     0
  9
$HYPERLINKBASE
  1

  9
$STYLESHEET
  1

  9
$XEDIT
290
     1
  9
$CEPSNTYPE
380
     0
  9
$PSTYLEMODE
290
     1
  9
$FINGERPRINTGUID
  2
{BD605A27-879C-401A-8274-48C532388CDC}
  9
$VERSIONGUID
  2
{FAEB1C32-E019-11D5-929B-00C0DF256EC4}
  9
$EXTNAMES
290
     1
  9
$PSVPSCALE
 40
0.0
  9
$OLESTARTUP
290
     0
  9
$SORTENTS
280
   127
  9
$INDEXCTL
280
     0
  9
$HIDETEXT
280
     1
  9
$XCLIPFRAME
280
     2
  9
$HALOGAP
280
     0
  9
$OBSCOLOR
 70
   257
  9
$OBSLTYPE
280
     0
  9
$INTERSECTIONDISPLAY
280
     0
  9
$INTERSECTIONCOLOR
 70
   257
  9
$DIMASSOC
280
     2
  9
$PROJECTNAME
  1

  9
$CAMERADISPLAY
290
     0
  9
$LENSLENGTH
 40
50.0
  9
$CAMERAHEIGHT
 40
0.0
  9
$STEPSPERSEC
 40
2.0
  9
$STEPSIZE
 40
6.0
  9
$3DDWFPREC
 40
2.0
  9
$PSOLWIDTH
 40
0.25
  9
$PSOLHEIGHT
 40
4.0
  9
$LOFTANG1
 40
1.570796326794897
  9
$LOFTANG2
 40
1.570796326794897
  9
$LOFTMAG1
 40
0.0
  9
$LOFTMAG2
 40
0.0
  9
$LOFTPARAM
 70
     7
  9
$LOFTNORMALS
280
     1
  9
$LATITUDE
 40
37.795
  9
$LONGITUDE
 40
-122.394
  9
$NORTHDIRECTION
 40
0.0
  9
$TIMEZONE
 70
 -8000
  9
$LIGHTGLYPHDISPLAY
280
     1
  9
$TILEMODELIGHTSYNCH
280
     1
  9
$SOLIDHIST
280
     0
  9
$SHOWHIST
280
     1
  9
$DWFFRAME
280
     2
  9
$DGNFRAME
280
     2
  9
$REALWORLDSCALE
290
     1
  9
$INTERFERECOLOR
 62
   256
  9
$CSHADOW
280
     0
  9
$SHADOWPLANELOCATION
 40
0.0
  0
ENDSEC
  0
SECTION
  2
CLASSES
  0
CLASS
  1
LWPOLYLINE
  2
AcDbPolyline
  3
ObjectDBX Classes
 90
        0
 91
        1
280
     0
281
     1
  0
CLASS
  1
IMAGE
  2
AcDbRasterImage
  3
ISM
 90
      127
 91
        5
280
     0
281
     1
  0
CLASS
  1
OLE2FRAME
  2
AcDbOle2Frame
  3
ObjectDBX Classes
 90
        0
 91
        1
280
     0
281
     1
  0
CLASS
  1
HATCH
  2
AcDbHatch
  3
ObjectDBX Classes
 90
        0
 91
        1
280
     0
281
     1
  0
CLASS
  1
DICTIONARYVAR
  2
AcDbDictionaryVar
  3
ObjectDBX Classes
 90
        0
 91
        4
280
     0
281
     0
  0
CLASS
  1
RASTERVARIABLES
  2
AcDbRasterVariables
  3
ISM
 90
        0
 91
        4
280
     0
281
     0
  0
CLASS
  1
IMAGEDEF
  2
AcDbRasterImageDef
  3
ISM
 90
        0
 91
        4
280
     0
281
     0
  0
CLASS
  1
IMAGEDEF_REACTOR
  2
AcDbRasterImageDefReactor
  3
ISM
 90
        1
 91
        4
280
     0
281
     0
  0
CLASS
  1
IDBUFFER
  2
AcDbIdBuffer
  3
ObjectDBX Classes
 90
        0
 91
        4
280
     0
281
     0
  0
CLASS
  1
SPATIAL_FILTER
  2
AcDbSpatialFilter
  3
ObjectDBX Classes
 90
        0
 91
        4
280
     0
281
     0
  0
CLASS
  1
XRECORD
  2
AcDbXrecord
  3
ObjectDBX Classes
 90
        0
 91
        1
280
     0
281
     0
  0
CLASS
  1
SORTENTSTABLE
  2
AcDbSortentsTable
  3
ObjectDBX Classes
 90
        0
 91
        4
280
     0
281
     0
  0
CLASS
  1
LAYER_INDEX
  2
AcDbLayerIndex
  3
ObjectDBX Classes
 90
        0
 91
        4
280
     0
281
     0
  0
CLASS
  1
SPATIAL_INDEX
  2
AcDbSpatialIndex
  3
AutoCAD 2000
 90
        0
 91
        4
280
     0
281
     0
  0
CLASS
  1
OBJECT_PTR
  2
CAseDLPNTableRecord
  3
ASE-LPNTableRecord
 90
        1
 91
        4
280
     0
281
     0
  0
CLASS
  1
LAYOUT
  2
AcDbLayout
  3
ObjectDBX Classes
 90
        0
 91
        1
280
     0
281
     0
  0
CLASS
  1
PLOTSETTINGS
  2
AcDbPlotSettings
  3
ObjectDBX Classes
 90
        0
 91
        4
280
     0
281
     0
  0
CLASS
  1
ACDBDICTIONARYWDFLT
  2
AcDbDictionaryWithDefault
  3
ObjectDBX Classes
 90
        0
 91
        4
280
     0
281
     0
  0
CLASS
  1
ACDBPLACEHOLDER
  2
AcDbPlaceHolder
  3
ObjectDBX Classes
 90
        0
 91
        1
280
     0
281
     0
  0
CLASS
  1
SCALE
  2
AcDbScale
  3
ObjectDBX Classes
 90
     1153
 91
        4
280
     0
281
     0
  0
CLASS
  1
VISUALSTYLE
  2
AcDbVisualStyle
  3
ObjectDBX Classes
 90
     4095
 91
        4
280
     0
281
     0
  0
CLASS
  1
MATERIAL
  2
AcDbMaterial
  3
ObjectDBX Classes
 90
     1153
 91
        4
280
     0
281
     0
  0
CLASS
  1
TABLESTYLE
  2
AcDbTableStyle
  3
ObjectDBX Classes
 90
     4095
 91
        4
280
     0
281
     0
  0
CLASS
  1
MLEADERSTYLE
  2
AcDbMLeaderStyle
  3
ACDB_MLEADERSTYLE_CLASS
 90
     4095
 91
        4
280
     0
281
     0
  0
CLASS
  1
SUN
  2
AcDbSun
  3
SCENEOE
 90
     1153
 91
        4
280
     0
281
     0
  0
CLASS
  1
CELLSTYLEMAP
  2
AcDbCellStyleMap
  3
ObjectDBX Classes
 90
     1152
 91
        4
280
     0
281
     0
  0
ENDSEC
  0
SECTION
  2
TABLES
  0
TABLE
  2
VPORT
  5
7
330
0
100
AcDbSymbolTable
 70
     1
  0
VPORT
  5
15
330
7
100
AcDbSymbolTableRecord
100
AcDbViewportTableRecord
  2
*ACTIVE
 70
     0
 10
0.0
 20
0.0
 11
1.0
 21
1.0
 12
262.4581314228043
 22
165.8013975954979
 13
0.0
 23
0.0
 14
1.0
 24
1.0
 15
0.0
 25
0.0
 16
0.0
 26
0.0
 36
1.0
 17
0.0
 27
0.0
 37
0.0
 40
183.9829767614825
 41
1.755622188905547
 42
50.0
 43
0.0
 44
0.0
 50
0.0
 51
0.0
 71
    16
 72
   100
 73
     1
 74
     1
 75
     0
 76
     0
 77
     0
 78
     0
281
     0
 65
     1
110
0.0
120
0.0
130
0.0
111
1.0
121
0.0
131
0.0
112
0.0
122
1.0
132
0.0
 79
     0
146
0.0
348
4A9
 60
     3
 61
     5
292
     1
282
     1
141
0.0
142
0.0
 63
   256
361
4C6
  0
ENDTAB
  0
TABLE
  2
LTYPE
  5
4
330
0
100
AcDbSymbolTable
 70
    11
  0
LTYPE
  5
11
330
4
100
AcDbSymbolTableRecord
100
AcDbLinetypeTableRecord
  2
BYBLOCK
 70
     0
  3

 72
    65
 73
     0
 40
0.0
  0
LTYPE
  5
12
330
4
100
AcDbSymbolTableRecord
100
AcDbLinetypeTableRecord
  2
BYLAYER
 70
     0
  3

 72
    65
 73
     0
 40
0.0
  0
LTYPE
  5
13
330
4
100
AcDbSymbolTableRecord
100
AcDbLinetypeTableRecord
  2
CONTINUOUS
 70
     0
  3
Solid line
 72
    65
 73
     0
 40
0.0
  0
LTYPE
  5
21
330
4
100
AcDbSymbolTableRecord
100
AcDbLinetypeTableRecord
  2
STYLE_01
 70
     0
  3

 72
    65
 73
     2
 40
0.15
 49
0.1
 74
     0
 49
-0.05
 74
     0
  0
LTYPE
  5
22
330
4
100
AcDbSymbolTableRecord
100
AcDbLinetypeTableRecord
  2
STYLE_02
 70
     0
  3

 72
    65
 73
     6
 40
0.9999999999999999
 49
0.4999999999999999
 74
     0
 49
-0.1
 74
     0
 49
0.1
 74
     0
 49
-0.1
 74
     0
 49
0.1
 74
     0
 49
-0.1
 74
     0
  0
LTYPE
  5
23
330
4
100
AcDbSymbolTableRecord
100
AcDbLinetypeTableRecord
  2
STYLE_03
 70
     0
  3

 72
    65
 73
     4
 40
0.7999999999999999
 49
0.4999999999999999
 74
     0
 49
-0.1
 74
     0
 49
0.1
 74
     0
 49
-0.1
 74
     0
  0
LTYPE
  5
24
330
4
100
AcDbSymbolTableRecord
100
AcDbLinetypeTableRecord
  2
STYLE_04
 70
     0
  3

 72
    65
 73
     4
 40
1.6
 49
0.9999999999999999
 74
     0
 49
-0.2000000000000001
 74
     0
 49
0.2
 74
     0
 49
-0.2
 74
     0
  0
LTYPE
  5
25
330
4
100
AcDbSymbolTableRecord
100
AcDbLinetypeTableRecord
  2
STYLE_05
 70
     0
  3

 72
    65
 73
     2
 40
0.05
 49
0.0002
 74
     0
 49
-0.0498
 74
     0
  0
LTYPE
  5
26
330
4
100
AcDbSymbolTableRecord
100
AcDbLinetypeTableRecord
  2
STYLE_06
 70
     0
  3

 72
    65
 73
     4
 40
0.416656
 49
0.25
 74
     0
 49
-0.083312
 74
     0
 49
0.027772
 74
     0
 49
-0.055572
 74
     0
  0
LTYPE
  5
27
330
4
100
AcDbSymbolTableRecord
100
AcDbLinetypeTableRecord
  2
STYLE_07
 70
     0
  3

 72
    65
 73
     6
 40
0.75
 49
0.25
 74
     0
 49
-0.083312
 74
     0
 49
0.2500000000000001
 74
     0
 49
-0.083344
 74
     0
 49
0.027772
 74
     0
 49
-0.055572
 74
     0
  0
LTYPE
  5
28
330
4
100
AcDbSymbolTableRecord
100
AcDbLinetypeTableRecord
  2
STYLE_08
 70
     0
  3

 72
    65
 73
     6
 40
0.5
 49
0.25
 74
     0
 49
-0.083312
 74
     0
 49
0.027772
 74
     0
 49
-0.055572
 74
     0
 49
0.027772
 74
     0
 49
-0.055572
 74
     0
  0
LTYPE
  5
29
330
4
100
AcDbSymbolTableRecord
100
AcDbLinetypeTableRecord
  2
STYLE_09
 70
     0
  3

 72
    65
 73
     4
 40
2.0
 49
1.5
 74
     0
 49
-0.1111139999999999
 74
     0
 49
0.2777720000000001
 74
     0
 49
-0.1111139999999999
 74
     0
  0
LTYPE
  5
2A
330
4
100
AcDbSymbolTableRecord
100
AcDbLinetypeTableRecord
  2
STYLE_10
 70
     0
  3

 72
    65
 73
     6
 40
2.375
 49
1.5
 74
     0
 49
-0.1111139999999999
 74
     0
 49
0.2777720000000001
 74
     0
 49
-0.1111139999999999
 74
     0
 49
0.25
 74
     0
 49
-0.125
 74
     0
  0
ENDTAB
  0
TABLE
  2
LAYER
  5
2
102
{ACAD_XDICTIONARY
360
8B2
102
}
330
0
100
AcDbSymbolTable
 70
    15
  0
LAYER
  5
14
330
2
100
AcDbSymbolTableRecord
100
AcDbLayerTableRecord
  2
0
 70
     0
 62
     7
  6
CONTINUOUS
370
    -3
390
47E
347
4C0
348
0
  0
LAYER
  5
2B
330
2
100
AcDbSymbolTableRecord
100
AcDbLayerTableRecord
  2
DEFPOINTS
 70
     0
 62
     7
  6
CONTINUOUS
290
     0
370
    -3
390
47E
347
4C0
348
0
  0
LAYER
  5
2C
330
2
100
AcDbSymbolTableRecord
100
AcDbLayerTableRecord
  2
__
 70
     0
 62
     7
  6
CONTINUOUS
370
    -3
390
47E
347
4C0
348
0
  0
LAYER
  5
2D
330
2
100
AcDbSymbolTableRecord
100
AcDbLayerTableRecord
  2
__-1
 70
     0
 62
     7
  6
CONTINUOUS
370
    -3
390
47E
347
4C0
348
0
  0
LAYER
  5
2E
330
2
100
AcDbSymbolTableRecord
100
AcDbLayerTableRecord
  2
_____1
 70
     0
 62
    19
  6
CONTINUOUS
370
    -3
390
47E
347
4C0
348
0
  0
LAYER
  5
2F
330
2
100
AcDbSymbolTableRecord
100
AcDbLayerTableRecord
  2
FORMAT
 70
     0
 62
     7
  6
CONTINUOUS
370
    -3
390
47E
347
4C0
348
0
  0
LAYER
  5
4D0
330
2
100
AcDbSymbolTableRecord
100
AcDbLayerTableRecord
  2
999-OFF
 70
     0
 62
     7
  6
CONTINUOUS
370
    -3
390
47E
347
4C0
348
0
1001
ACAECLAYERSTANDARD
1000

1000

  0
LAYER
  5
4D3
330
2
100
AcDbSymbolTableRecord
100
AcDbLayerTableRecord
  2
998-図枠
 70
     0
 62
     7
  6
CONTINUOUS
370
    -3
390
47E
347
4C0
348
0
1001
ACAECLAYERSTANDARD
1000

1000

  0
LAYER
  5
4D4
330
2
100
AcDbSymbolTableRecord
100
AcDbLayerTableRecord
  2
997-図枠_文字
 70
     0
 62
     7
  6
CONTINUOUS
370
    -3
390
47E
347
4C0
348
0
1001
ACAECLAYERSTANDARD
1000

1000

  0
LAYER
  5
4D5
330
2
100
AcDbSymbolTableRecord
100
AcDbLayerTableRecord
  2
1
 70
     0
 62
     7
  6
CONTINUOUS
370
    -3
390
47E
347
4C0
348
0
  0
LAYER
  5
4D6
330
2
100
AcDbSymbolTableRecord
100
AcDbLayerTableRecord
  2
_U+30EC_U+30A4_U+30E4_U+30FC 1
 70
     0
 62
     7
  6
CONTINUOUS
370
    -3
390
47E
347
4C0
348
0
  0
LAYER
  5
4D7
330
2
100
AcDbSymbolTableRecord
100
AcDbLayerTableRecord
  2
AM_0
 70
     0
 62
     7
  6
CONTINUOUS
370
    -3
390
47E
347
4C0
348
0
  0
LAYER
  5
4D8
330
2
100
AcDbSymbolTableRecord
100
AcDbLayerTableRecord
  2
AM_5
 70
     0
 62
     3
  6
CONTINUOUS
370
    -3
390
47E
347
4C0
348
0
  0
LAYER
  5
4D9
330
2
100
AcDbSymbolTableRecord
100
AcDbLayerTableRecord
  2
AM_2
 70
     0
 62
   121
  6
CONTINUOUS
370
    -3
390
47E
347
4C0
348
0
  0
LAYER
  5
4DA
330
2
100
AcDbSymbolTableRecord
100
AcDbLayerTableRecord
  2
CONT_M_3
 70
     0
 62
     3
  6
CONTINUOUS
370
    -3
390
47E
347
4C0
348
0
  0
ENDTAB
  0
TABLE
  2
STYLE
  5
3
330
0
100
AcDbSymbolTable
 70
     4
  0
STYLE
  5
17
330
3
100
AcDbSymbolTableRecord
100
AcDbTextStyleTableRecord
  2
STANDARD
 70
     0
 40
0.0
 41
1.0
 50
0.0
 71
     0
 42
0.0
  3
txt
  4
BIGFONT.SHX
  0
STYLE
  5
20
330
3
100
AcDbSymbolTableRecord
100
AcDbTextStyleTableRecord
  2
________
 70
     0
 40
0.0
 41
1.0
 50
0.0
 71
     0
 42
0.0
  3
ＭＳ Ｐゴシック
  4

1001
ACAD
1000
ＭＳ Ｐゴシック
1071
        0
  0
STYLE
  5
4EA
330
3
100
AcDbSymbolTableRecord
100
AcDbTextStyleTableRecord
  2
SLDTEXTSTYLE0
 70
     0
 40
0.0
 41
0.75
 50
0.0
 71
     0
 42
0.0
  3
TXT
  4
bigfont
  0
STYLE
  5
4EB
330
3
100
AcDbSymbolTableRecord
100
AcDbTextStyleTableRecord
  2
ＭＳ_Ｐゴシック
 70
     0
 40
0.0
 41
1.0
 50
0.0
 71
     0
 42
0.0
  3
msgothic.ttc
  4
ＭＳ Ｐゴシック
1001
ACAD
1000
ＭＳ Ｐゴシック
1071
        0
  0
ENDTAB
  0
TABLE
  2
VIEW
  5
5
330
0
100
AcDbSymbolTable
 70
     0
  0
ENDTAB
  0
TABLE
  2
UCS
  5
6
330
0
100
AcDbSymbolTable
 70
     0
  0
ENDTAB
  0
TABLE
  2
APPID
  5
8
330
0
100
AcDbSymbolTable
 70
     7
  0
APPID
  5
16
330
8
100
AcDbSymbolTableRecord
100
AcDbRegAppTableRecord
  2
ACAD
 70
     0
  0
APPID
  5
4D2
330
8
100
AcDbSymbolTableRecord
100
AcDbRegAppTableRecord
  2
ACAECLAYERSTANDARD
 70
     0
  0
APPID
  5
4E5
330
8
100
AcDbSymbolTableRecord
100
AcDbRegAppTableRecord
  2
GENIUS_GENODEF_13
 70
     0
  0
APPID
  5
4E6
330
8
100
AcDbSymbolTableRecord
100
AcDbRegAppTableRecord
  2
GENIUS_GENOBJ-N-FIL_13
 70
     0
  0
APPID
  5
4E7
330
8
100
AcDbSymbolTableRecord
100
AcDbRegAppTableRecord
  2
ACAD_DSTYLE_DIMINSPECT
 70
     0
  0
APPID
  5
4E8
330
8
100
AcDbSymbolTableRecord
100
AcDbRegAppTableRecord
  2
GENIUS_GENREC_14
 70
     0
  0
APPID
  5
4E9
330
8
100
AcDbSymbolTableRecord
100
AcDbRegAppTableRecord
  2
GENIUS_GENOBJ-N-REC_13
 70
     0
  0
ENDTAB
  0
TABLE
  2
DIMSTYLE
  5
9
330
0
100
AcDbSymbolTable
 70
     4
100
AcDbDimStyleTable
  0
DIMSTYLE
105
18
330
9
100
AcDbSymbolTableRecord
100
AcDbDimStyleTableRecord
  2
STANDARD
 70
     0
178
     0
289
     0
340
17
  0
DIMSTYLE
105
4DB
330
9
100
AcDbSymbolTableRecord
100
AcDbDimStyleTableRecord
  2
ISO-25
 70
     0
 41
2.5
 42
0.625
 43
3.75
 44
1.25
 73
     0
 74
     0
 77
     1
 78
     8
140
2.5
141
2.5
143
0.0393700787
147
0.625
171
     3
172
     1
178
     0
271
     2
272
     2
274
     3
283
     0
284
     8
340
17
  0
DIMSTYLE
105
4DD
330
9
100
AcDbSymbolTableRecord
100
AcDbDimStyleTableRecord
  2
ISO-2
 70
     0
 41
2.5
 42
0.625
 43
3.75
 44
1.25
 73
     0
 74
     0
 77
     1
 78
     8
140
2.5
141
2.5
143
0.0393700787
147
0.625
171
     3
172
     1
178
     0
271
     1
272
     2
274
     3
283
     0
284
     8
340
17
341
4DE
342
4DE
  0
DIMSTYLE
105
4E4
330
9
100
AcDbSymbolTableRecord
100
AcDbDimStyleTableRecord
  2
JIS-1
 70
     0
 41
2.5
 42
0.625
 43
3.75
 44
1.25
 73
     0
 74
     0
 77
     1
 78
     8
140
2.5
141
2.5
143
0.03937007874016
147
0.625
171
     3
172
     1
178
     0
271
     2
272
     2
274
     3
283
     0
284
     8
340
17
341
4DE
342
4DE
  0
ENDTAB
  0
TABLE
  2
BLOCK_RECORD
  5
1
330
0
100
AcDbSymbolTable
 70
     2
  0
BLOCK_RECORD
  5
A
330
1
100
AcDbSymbolTableRecord
100
AcDbBlockTableRecord
  2
*MODEL_SPACE
340
4A2
 70
     0
280
     1
281
     0
  0
BLOCK_RECORD
  5
B
330
1
100
AcDbSymbolTableRecord
100
AcDbBlockTableRecord
  2
*PAPER_SPACE
340
4A3
 70
     0
280
     1
281
     0
  0
BLOCK_RECORD
  5
4DE
330
1
100
AcDbSymbolTableRecord
100
AcDbBlockTableRecord
  2
_OPEN
340
0
 70
     0
280
     1
281
     0
  0
BLOCK_RECORD
  5
8B6
330
1
100
AcDbSymbolTableRecord
100
AcDbBlockTableRecord
  2
_Dot
340
0
 70
     0
280
     1
281
     0
  0
ENDTAB
  0
ENDSEC
  0
SECTION
  2
BLOCKS
  0
BLOCK
  5
D
330
A
100
AcDbEntity
  8
0
100
AcDbBlockBegin
  2
*MODEL_SPACE
 70
     0
 10
0.0
 20
0.0
 30
0.0
  3
*MODEL_SPACE
  1

  0
ENDBLK
  5
E
330
A
100
AcDbEntity
  8
0
100
AcDbBlockEnd
  0
BLOCK
  5
F
330
B
100
AcDbEntity
 67
     1
  8
0
100
AcDbBlockBegin
  2
*PAPER_SPACE
 70
     0
 10
0.0
 20
0.0
 30
0.0
  3
*PAPER_SPACE
  1

  0
ENDBLK
  5
10
330
B
100
AcDbEntity
 67
     1
  8
0
100
AcDbBlockEnd
  0
BLOCK
  5
4DF
330
4DE
100
AcDbEntity
  8
0
100
AcDbBlockBegin
  2
_OPEN
 70
     0
 10
0.0
 20
0.0
 30
0.0
  3
_OPEN
  1

  0
LINE
  5
4E0
330
4DE
100
AcDbEntity
  8
0
  6
ByBlock
 62
     0
100
AcDbLine
 10
-1.0
 20
0.166667
 30
0.0
 11
0.0
 21
0.0
 31
0.0
  0
LINE
  5
4E1
330
4DE
100
AcDbEntity
  8
0
  6
ByBlock
 62
     0
100
AcDbLine
 10
-1.0
 20
-0.166667
 30
0.0
 11
0.0
 21
0.0
 31
0.0
  0
LINE
  5
4E2
330
4DE
100
AcDbEntity
  8
0
  6
ByBlock
 62
     0
100
AcDbLine
 10
0.0
 20
0.0
 30
0.0
 11
-1.0
 21
0.0
 31
0.0
  0
ENDBLK
  5
4E3
330
4DE
100
AcDbEntity
  8
0
100
AcDbBlockEnd
  0
BLOCK
  5
8B7
330
8B6
100
AcDbEntity
  8
0
100
AcDbBlockBegin
  2
_Dot
 70
     0
 10
0.0
 20
0.0
 30
0.0
  3
_Dot
  1

  0
LWPOLYLINE
  5
8B9
330
8B6
100
AcDbEntity
  8
0
  6
ByBlock
 62
     0
100
AcDbPolyline
 90
        2
 70
     1
 43
0.5
 10
-0.25
 20
0.0
 42
1.0
 10
0.25
 20
0.0
 42
1.0
  0
LINE
  5
8BA
330
8B6
100
AcDbEntity
  8
0
  6
ByBlock
 62
     0
370
    -2
100
AcDbLine
 10
-0.5
 20
0.0
 30
0.0
 11
-1.0
 21
0.0
 31
0.0
  0
ENDBLK
  5
8B8
330
8B6
100
AcDbEntity
  8
0
100
AcDbBlockEnd
  0
ENDSEC
  0
SECTION
  2
ENTITIES
  0
MTEXT
  5
47B
330
A
100
AcDbEntity
  8
0
 62
     7
100
AcDbMText
 10
262.4552231384998
 20
83.38641666666668
 30
0.0
 40
2.910416666666666
 41
0.0
 46
7.761111111111109
 71
     1
 72
     1
  1
{HAC-D22T\PHAC-W22T}
  7
________
 73
     1
 44
1.0
1001
ACAD
1000
ACAD_MTEXT_DEFINED_HEIGHT_BEGIN
1070
    46
1040
7.761111111111109
1000
ACAD_MTEXT_DEFINED_HEIGHT_END
  0
LINE
  5
97B
330
A
100
AcDbEntity
  8
AM_2
  6
ByBlock
 62
     0
370
    15
100
AcDbLine
 10
294.3986660892478
 20
204.66816815459
 30
0.0
 11
295.0076296953754
 21
204.1868904658763
 31
0.0
  0
LINE
  5
97C
330
A
100
AcDbEntity
  8
AM_2
  6
ByBlock
 62
     0
370
    15
100
AcDbLine
 10
260.7154321266085
 20
169.6965515972109
 30
0.0
 11
265.0449049803049
 21
166.2748714386443
 31
0.0
  0
LINE
  5
97D
330
A
100
AcDbEntity
  8
AM_2
  6
ByBlock
 62
     0
370
    15
100
AcDbLine
 10
282.0177892655266
 20
193.1565999964498
 30
0.0
 11
282.2675048420883
 21
193.4725666443442
 31
0.0
  0
LINE
  5
97E
330
A
100
AcDbEntity
  8
AM_2
  6
ByBlock
 62
     0
370
    15
100
AcDbLine
 10
282.2675048420883
 20
193.4725666443442
 30
0.0
 11
283.0080939055873
 21
192.8872623844821
 31
0.0
  0
LINE
  5
97F
330
A
100
AcDbEntity
  8
AM_2
  6
ByBlock
 62
     0
370
    15
100
AcDbLine
 10
283.0080939055873
 20
192.8872623844821
 30
0.0
 11
282.7583783290256
 21
192.5712957365877
 31
0.0
  0
LINE
  5
980
330
A
100
AcDbEntity
  8
AM_2
  6
ByBlock
 62
     0
370
    15
100
AcDbLine
 10
282.7583783290256
 20
192.5712957365877
 30
0.0
 11
282.0177892655266
 21
193.1565999964498
 31
0.0
  0
SOLID
  5
981
330
A
100
AcDbEntity
  8
AM_2
  6
ByBlock
 62
     0
370
    15
100
AcDbTrace
 10
282.7583783290256
 20
192.5712957365877
 30
0.0
 11
282.0177892655266
 21
193.1565999964498
 31
0.0
 12
283.0080939055873
 22
192.8872623844821
 32
0.0
 13
283.0080939055873
 23
192.8872623844821
 33
0.0
  0
SOLID
  5
982
330
A
100
AcDbEntity
  8
AM_2
  6
ByBlock
 62
     0
370
    15
100
AcDbTrace
 10
283.0080939055873
 20
192.8872623844821
 30
0.0
 11
282.0177892655266
 21
193.1565999964498
 31
0.0
 12
282.2675048420883
 22
193.4725666443442
 32
0.0
 13
282.2675048420883
 23
193.4725666443442
 33
0.0
  0
LINE
  5
983
330
A
100
AcDbEntity
  8
AM_2
  6
ByBlock
 62
     0
370
    15
100
AcDbLine
 10
282.0177892655266
 20
193.1565999964498
 30
0.0
 11
282.2675048420883
 21
193.4725666443442
 31
0.0
  0
LINE
  5
984
330
A
100
AcDbEntity
  8
AM_2
  6
ByBlock
 62
     0
370
    15
100
AcDbLine
 10
282.2675048420883
 20
193.4725666443442
 30
0.0
 11
283.0080939055873
 21
192.8872623844821
 31
0.0
  0
LINE
  5
985
330
A
100
AcDbEntity
  8
AM_2
  6
ByBlock
 62
     0
370
    15
100
AcDbLine
 10
283.0080939055873
 20
192.8872623844821
 30
0.0
 11
282.7583783290256
 21
192.5712957365877
 31
0.0
  0
LINE
  5
986
330
A
100
AcDbEntity
  8
AM_2
  6
ByBlock
 62
     0
370
    15
100
AcDbLine
 10
282.7583783290256
 20
192.5712957365877
 30
0.0
 11
282.0177892655266
 21
193.1565999964498
 31
0.0
  0
LINE
  5
987
330
A
100
AcDbEntity
  8
AM_2
  6
ByBlock
 62
     0
370
    15
100
AcDbLine
 10
281.9202262036795
 20
193.3226265675253
 30
0.0
 11
282.0833744257488
 21
193.5290590117762
 31
0.0
  0
LINE
  5
988
330
A
100
AcDbEntity
  8
AM_2
  6
ByBlock
 62
     0
370
    15
100
AcDbLine
 10
282.0833744257488
 20
193.5290590117762
 30
0.0
 11
283.1054684197713
 21
192.7212750487584
 31
0.0
  0
LINE
  5
989
330
A
100
AcDbEntity
  8
AM_2
  6
ByBlock
 62
     0
370
    15
100
AcDbLine
 10
283.1054684197713
 20
192.7212750487584
 30
0.0
 11
282.942320197702
 21
192.5148426045075
 31
0.0
  0
LINE
  5
98A
330
A
100
AcDbEntity
  8
AM_2
  6
ByBlock
 62
     0
370
    15
100
AcDbLine
 10
282.942320197702
 20
192.5148426045075
 30
0.0
 11
281.9202262036795
 21
193.3226265675253
 31
0.0
  0
LINE
  5
98B
330
A
100
AcDbEntity
  8
AM_2
  6
ByBlock
 62
     0
370
    15
100
AcDbLine
 10
281.4173183624344
 20
192.3968204864149
 30
0.0
 11
281.6669271316494
 21
192.7126519903195
 31
0.0
  0
LINE
  5
98C
330
A
100
AcDbEntity
  8
AM_2
  6
ByBlock
 62
     0
370
    15
100
AcDbLine
 10
281.6669271316494
 20
192.7126519903195
 30
0.0
 11
282.4075161951484
 21
192.1273477304574
 31
0.0
  0
LINE
  5
98D
330
A
100
AcDbEntity
  8
AM_2
  6
ByBlock
 62
     0
370
    15
100
AcDbLine
 10
282.4075161951484
 20
192.1273477304574
 30
0.0
 11
282.1579074259334
 21
191.8115162265527
 31
0.0
  0
LINE
  5
98E
330
A
100
AcDbEntity
  8
AM_2
  6
ByBlock
 62
     0
370
    15
100
AcDbLine
 10
282.1579074259334
 20
191.8115162265527
 30
0.0
 11
281.4173183624344
 21
192.3968204864149
 31
0.0
  0
SOLID
  5
98F
330
A
100
AcDbEntity
  8
AM_2
  6
ByBlock
 62
     0
370
    15
100
AcDbTrace
 10
282.1579074259334
 20
191.8115162265527
 30
0.0
 11
281.4173183624344
 21
192.3968204864149
 31
0.0
 12
282.4075161951484
 22
192.1273477304574
 32
0.0
 13
282.4075161951484
 23
192.1273477304574
 33
0.0
  0
SOLID
  5
990
330
A
100
AcDbEntity
  8
AM_2
  6
ByBlock
 62
     0
370
    15
100
AcDbTrace
 10
282.4075161951484
 20
192.1273477304574
 30
0.0
 11
281.4173183624344
 21
192.3968204864149
 31
0.0
 12
281.6669271316494
 22
192.7126519903195
 32
0.0
 13
281.6669271316494
 23
192.7126519903195
 33
0.0
  0
LINE
  5
991
330
A
100
AcDbEntity
  8
AM_2
  6
ByBlock
 62
     0
370
    15
100
AcDbLine
 10
281.4173183624344
 20
192.3968204864149
 30
0.0
 11
281.6669271316494
 21
192.7126519903195
 31
0.0
  0
LINE
  5
992
330
A
100
AcDbEntity
  8
AM_2
  6
ByBlock
 62
     0
370
    15
100
AcDbLine
 10
281.6669271316494
 20
192.7126519903195
 30
0.0
 11
282.4075161951484
 21
192.1273477304574
 31
0.0
  0
LINE
  5
993
330
A
100
AcDbEntity
  8
AM_2
  6
ByBlock
 62
     0
370
    15
100
AcDbLine
 10
282.4075161951484
 20
192.1273477304574
 30
0.0
 11
282.1579074259334
 21
191.8115162265527
 31
0.0
  0
LINE
  5
994
330
A
100
AcDbEntity
  8
AM_2
  6
ByBlock
 62
     0
370
    15
100
AcDbLine
 10
282.1579074259334
 20
191.8115162265527
 30
0.0
 11
281.4173183624344
 21
192.3968204864149
 31
0.0
  0
LINE
  5
995
330
A
100
AcDbEntity
  8
AM_2
  6
ByBlock
 62
     0
370
    15
100
AcDbLine
 10
281.3197553005874
 20
192.5628470574903
 30
0.0
 11
281.4827433116365
 21
192.7690767857566
 31
0.0
  0
LINE
  5
996
330
A
100
AcDbEntity
  8
AM_2
  6
ByBlock
 62
     0
370
    15
100
AcDbLine
 10
281.4827433116365
 20
192.7690767857566
 30
0.0
 11
282.504837305659
 21
191.9612928227388
 31
0.0
  0
LINE
  5
997
330
A
100
AcDbEntity
  8
AM_2
  6
ByBlock
 62
     0
370
    15
100
AcDbLine
 10
282.504837305659
 20
191.9612928227388
 30
0.0
 11
282.3418492946099
 21
191.7550630944725
 31
0.0
  0
LINE
  5
998
330
A
100
AcDbEntity
  8
AM_2
  6
ByBlock
 62
     0
370
    15
100
AcDbLine
 10
282.3418492946099
 20
191.7550630944725
 30
0.0
 11
281.3197553005874
 21
192.5628470574903
 31
0.0
  0
LINE
  5
999
330
A
100
AcDbEntity
  8
AM_2
  6
ByBlock
 62
     0
370
    15
100
AcDbLine
 10
287.7234981234892
 20
197.5635617776072
 30
0.0
 11
288.9286895163743
 21
199.0884978257475
 31
0.0
  0
ARC
  5
99A
330
A
100
AcDbEntity
  8
AM_2
  6
ByBlock
 62
     0
370
    15
100
AcDbCircle
 10
287.4881304996862
 20
197.7495781254514
 30
0.0
 40
0.3
100
AcDbArc
 50
231.6798860632212
 51
321.6798860632179
1001
GENIUS_GENOBJ-N-FIL_13
1002
{
1000
OWNER
1000
GEN
1002
}
1001
GENIUS_GENODEF_13
1002
{
1000
HIER
1070
     0
1002
}
1002
{
1000
MANEDIT
1070
     0
1002
}
1002
{
1000
NOSEL
1070
     0
1002
}
1002
{
1000
BEHIND
1070
     0
1002
}
1002
{
1000
OTHER
1070
     0
1002
}
1002
{
1000
REACTOR
1002
}
  0
LINE
  5
99B
330
A
100
AcDbEntity
  8
AM_2
  6
ByBlock
 62
     0
370
    15
100
AcDbLine
 10
285.7276916837529
 20
199.1408926735277
 30
0.0
 11
286.932883076638
 21
200.6658287216682
 31
0.0
  0
ARC
  5
99C
330
A
100
AcDbEntity
  8
AM_2
  6
ByBlock
 62
     0
370
    15
100
AcDbCircle
 10
287.1682507004411
 20
200.4798123738238
 30
0.0
 40
0.3
100
AcDbArc
 50
51.67988606322125
 51
141.6798860632179
1001
GENIUS_GENOBJ-N-FIL_13
1002
{
1000
OWNER
1000
GEN
1002
}
1001
GENIUS_GENODEF_13
1002
{
1000
HIER
1070
     0
1002
}
1002
{
1000
MANEDIT
1070
     0
1002
}
1002
{
1000
NOSEL
1070
     0
1002
}
1002
{
1000
BEHIND
1070
     0
1002
}
1002
{
1000
OTHER
1070
     0
1002
}
1002
{
1000
REACTOR
1002
}
  0
LINE
  5
99D
330
A
100
AcDbEntity
  8
AM_2
  6
ByBlock
 62
     0
370
    15
100
AcDbLine
 10
288.8793382404156
 20
199.5098817973948
 30
0.0
 11
287.3542670482854
 21
200.7151799976268
 31
0.0
  0
ARC
  5
99E
330
A
100
AcDbEntity
  8
AM_2
  6
ByBlock
 62
     0
370
    15
100
AcDbCircle
 10
288.6933218925713
 20
199.2745141735919
 30
0.0
 40
0.3
100
AcDbArc
 50
321.6798860632222
 51
51.67988606322125
1001
GENIUS_GENOBJ-N-FIL_13
1002
{
1000
OWNER
1000
GEN
1002
}
1001
GENIUS_GENODEF_13
1002
{
1000
HIER
1070
     0
1002
}
1002
{
1000
MANEDIT
1070
     0
1002
}
1002
{
1000
NOSEL
1070
     0
1002
}
1002
{
1000
BEHIND
1070
     0
1002
}
1002
{
1000
OTHER
1070
     0
1002
}
1002
{
1000
REACTOR
1002
}
  0
LINE
  5
99F
330
A
100
AcDbEntity
  8
AM_2
  6
ByBlock
 62
     0
370
    15
100
AcDbLine
 10
285.7770429597115
 20
198.7195087018803
 30
0.0
 11
287.3021141518417
 21
197.5142105016483
 31
0.0
  0
ARC
  5
9A0
330
A
100
AcDbEntity
  8
AM_2
  6
ByBlock
 62
     0
370
    15
100
AcDbCircle
 10
285.963059307556
 20
198.9548763256834
 30
0.0
 40
0.3
100
AcDbArc
 50
141.6798860632398
 51
231.6798860632212
1001
GENIUS_GENOBJ-N-FIL_13
1002
{
1000
OWNER
1000
GEN
1002
}
1001
GENIUS_GENODEF_13
1002
{
1000
HIER
1070
     0
1002
}
1002
{
1000
MANEDIT
1070
     0
1002
}
1002
{
1000
NOSEL
1070
     0
1002
}
1002
{
1000
BEHIND
1070
     0
1002
}
1002
{
1000
OTHER
1070
     0
1002
}
1002
{
1000
REACTOR
1002
}
  0
LINE
  5
9A1
330
A
100
AcDbEntity
  8
AM_2
  6
ByBlock
 62
     0
370
    15
100
AcDbLine
 10
288.3374480948074
 20
199.4919017425372
 30
0.0
 11
288.3972449507615
 21
198.9802814734407
 31
0.0
  0
LINE
  5
9A2
330
A
100
AcDbEntity
  8
AM_2
  6
ByBlock
 62
     0
370
    15
100
AcDbLine
 10
288.3972449507615
 20
198.9802814734407
 30
0.0
 11
287.7055605735958
 21
198.1050889962107
 31
0.0
  0
LINE
  5
9A3
330
A
100
AcDbEntity
  8
AM_2
  6
ByBlock
 62
     0
370
    15
100
AcDbLine
 10
287.7055605735958
 20
198.1050889962107
 30
0.0
 11
287.1935850065909
 21
198.0462316089591
 31
0.0
  0
LINE
  5
9A4
330
A
100
AcDbEntity
  8
AM_2
  6
ByBlock
 62
     0
370
    15
100
AcDbLine
 10
287.1935850065909
 20
198.0462316089591
 30
0.0
 11
286.3185276733507
 21
198.737809178778
 31
0.0
  0
LINE
  5
9A5
330
A
100
AcDbEntity
  8
AM_2
  6
ByBlock
 62
     0
370
    15
100
AcDbLine
 10
286.3185276733507
 20
198.737809178778
 30
0.0
 11
286.2589793079582
 21
199.2483548351823
 31
0.0
  0
LINE
  5
9A6
330
A
100
AcDbEntity
  8
AM_2
  6
ByBlock
 62
     0
370
    15
100
AcDbLine
 10
286.2589793079582
 20
199.2483548351823
 30
0.0
 11
286.9508772998173
 21
200.1238176003917
 31
0.0
  0
LINE
  5
9A7
330
A
100
AcDbEntity
  8
AM_2
  6
ByBlock
 62
     0
370
    15
100
AcDbLine
 10
286.9508772998173
 20
200.1238176003917
 30
0.0
 11
287.4625259055568
 21
200.1833725050095
 31
0.0
  0
LINE
  5
9A8
330
A
100
AcDbEntity
  8
AM_2
  6
ByBlock
 62
     0
370
    15
100
AcDbLine
 10
287.4625259055568
 20
200.1833725050095
 30
0.0
 11
288.3374480948074
 21
199.4919017425372
 31
0.0
  0
LINE
  5
9A9
330
A
100
AcDbEntity
  8
AM_2
  6
ByBlock
 62
     0
370
    15
100
AcDbLine
 10
277.4922872400473
 20
184.6182258125858
 30
0.0
 11
278.6974786329325
 21
186.1431618607262
 31
0.0
  0
ARC
  5
9AA
330
A
100
AcDbEntity
  8
AM_2
  6
ByBlock
 62
     0
370
    15
100
AcDbCircle
 10
277.2569196162443
 20
184.8042421604301
 30
0.0
 40
0.3
100
AcDbArc
 50
231.6798860632212
 51
321.6798860632398
1001
GENIUS_GENOBJ-N-FIL_13
1002
{
1000
OWNER
1000
GEN
1002
}
1001
GENIUS_GENODEF_13
1002
{
1000
HIER
1070
     0
1002
}
1002
{
1000
MANEDIT
1070
     0
1002
}
1002
{
1000
NOSEL
1070
     0
1002
}
1002
{
1000
BEHIND
1070
     0
1002
}
1002
{
1000
OTHER
1070
     0
1002
}
1002
{
1000
REACTOR
1002
}
  0
LINE
  5
9AB
330
A
100
AcDbEntity
  8
AM_2
  6
ByBlock
 62
     0
370
    15
100
AcDbLine
 10
275.4964808003111
 20
186.1955567085063
 30
0.0
 11
276.7016721931963
 21
187.7204927566468
 31
0.0
  0
ARC
  5
9AC
330
A
100
AcDbEntity
  8
AM_2
  6
ByBlock
 62
     0
370
    15
100
AcDbCircle
 10
276.9370398169993
 20
187.5344764088024
 30
0.0
 40
0.3
100
AcDbArc
 50
51.67988606322125
 51
141.6798860632179
1001
GENIUS_GENOBJ-N-FIL_13
1002
{
1000
OWNER
1000
GEN
1002
}
1001
GENIUS_GENODEF_13
1002
{
1000
HIER
1070
     0
1002
}
1002
{
1000
MANEDIT
1070
     0
1002
}
1002
{
1000
NOSEL
1070
     0
1002
}
1002
{
1000
BEHIND
1070
     0
1002
}
1002
{
1000
OTHER
1070
     0
1002
}
1002
{
1000
REACTOR
1002
}
  0
LINE
  5
9AD
330
A
100
AcDbEntity
  8
AM_2
  6
ByBlock
 62
     0
370
    15
100
AcDbLine
 10
278.6481273569738
 20
186.5645458323735
 30
0.0
 11
277.1230561648435
 21
187.7698440326054
 31
0.0
  0
ARC
  5
9AE
330
A
100
AcDbEntity
  8
AM_2
  6
ByBlock
 62
     0
370
    15
100
AcDbCircle
 10
278.4621110091295
 20
186.3291782085705
 30
0.0
 40
0.3
100
AcDbArc
 50
321.6798860632179
 51
51.67988606322125
1001
GENIUS_GENOBJ-N-FIL_13
1002
{
1000
OWNER
1000
GEN
1002
}
1001
GENIUS_GENODEF_13
1002
{
1000
HIER
1070
     0
1002
}
1002
{
1000
MANEDIT
1070
     0
1002
}
1002
{
1000
NOSEL
1070
     0
1002
}
1002
{
1000
BEHIND
1070
     0
1002
}
1002
{
1000
OTHER
1070
     0
1002
}
1002
{
1000
REACTOR
1002
}
  0
LINE
  5
9AF
330
A
100
AcDbEntity
  8
AM_2
  6
ByBlock
 62
     0
370
    15
100
AcDbLine
 10
275.5458320762697
 20
185.774172736859
 30
0.0
 11
277.0709032683999
 21
184.568874536627
 31
0.0
  0
ARC
  5
9B0
330
A
100
AcDbEntity
  8
AM_2
  6
ByBlock
 62
     0
370
    15
100
AcDbCircle
 10
275.731848424114
 20
186.009540360662
 30
0.0
 40
0.3
100
AcDbArc
 50
141.6798860632179
 51
231.6798860632212
1001
GENIUS_GENOBJ-N-FIL_13
1002
{
1000
OWNER
1000
GEN
1002
}
1001
GENIUS_GENODEF_13
1002
{
1000
HIER
1070
     0
1002
}
1002
{
1000
MANEDIT
1070
     0
1002
}
1002
{
1000
NOSEL
1070
     0
1002
}
1002
{
1000
BEHIND
1070
     0
1002
}
1002
{
1000
OTHER
1070
     0
1002
}
1002
{
1000
REACTOR
1002
}
  0
LINE
  5
9B1
330
A
100
AcDbEntity
  8
AM_2
  6
ByBlock
 62
     0
370
    15
100
AcDbLine
 10
278.1062372113656
 20
186.5465657775159
 30
0.0
 11
278.1660340673197
 21
186.0349455084193
 31
0.0
  0
LINE
  5
9B2
330
A
100
AcDbEntity
  8
AM_2
  6
ByBlock
 62
     0
370
    15
100
AcDbLine
 10
278.1660340673197
 20
186.0349455084193
 30
0.0
 11
277.474349690154
 21
185.1597530311893
 31
0.0
  0
LINE
  5
9B3
330
A
100
AcDbEntity
  8
AM_2
  6
ByBlock
 62
     0
370
    15
100
AcDbLine
 10
277.474349690154
 20
185.1597530311893
 30
0.0
 11
276.9623741231491
 21
185.1008956439378
 31
0.0
  0
LINE
  5
9B4
330
A
100
AcDbEntity
  8
AM_2
  6
ByBlock
 62
     0
370
    15
100
AcDbLine
 10
276.9623741231491
 20
185.1008956439378
 30
0.0
 11
276.0873167899089
 21
185.7924732137566
 31
0.0
  0
LINE
  5
9B5
330
A
100
AcDbEntity
  8
AM_2
  6
ByBlock
 62
     0
370
    15
100
AcDbLine
 10
276.0873167899089
 20
185.7924732137566
 30
0.0
 11
276.0277684245164
 21
186.303018870161
 31
0.0
  0
LINE
  5
9B6
330
A
100
AcDbEntity
  8
AM_2
  6
ByBlock
 62
     0
370
    15
100
AcDbLine
 10
276.0277684245164
 20
186.303018870161
 30
0.0
 11
276.7196664163754
 21
187.1784816353704
 31
0.0
  0
LINE
  5
9B7
330
A
100
AcDbEntity
  8
AM_2
  6
ByBlock
 62
     0
370
    15
100
AcDbLine
 10
276.7196664163754
 20
187.1784816353704
 30
0.0
 11
277.231315022115
 21
187.2380365399881
 31
0.0
  0
LINE
  5
9B8
330
A
100
AcDbEntity
  8
AM_2
  6
ByBlock
 62
     0
370
    15
100
AcDbLine
 10
277.231315022115
 20
187.2380365399881
 30
0.0
 11
278.1062372113656
 21
186.5465657775159
 31
0.0
  0
LINE
  5
9B9
330
A
100
AcDbEntity
  8
AM_2
  6
ByBlock
 62
     0
370
    15
100
AcDbLine
 10
268.3016669922715
 20
172.9889999381072
 30
0.0
 11
269.5068583851566
 21
174.5139359862476
 31
0.0
  0
ARC
  5
9BA
330
A
100
AcDbEntity
  8
AM_2
  6
ByBlock
 62
     0
370
    15
100
AcDbCircle
 10
268.0662993684684
 20
173.1750162859515
 30
0.0
 40
0.3
100
AcDbArc
 50
231.6798860632212
 51
321.6798860632179
1001
GENIUS_GENOBJ-N-FIL_13
1002
{
1000
OWNER
1000
GEN
1002
}
1001
GENIUS_GENODEF_13
1002
{
1000
HIER
1070
     0
1002
}
1002
{
1000
MANEDIT
1070
     0
1002
}
1002
{
1000
NOSEL
1070
     0
1002
}
1002
{
1000
BEHIND
1070
     0
1002
}
1002
{
1000
OTHER
1070
     0
1002
}
1002
{
1000
REACTOR
1002
}
  0
LINE
  5
9BB
330
A
100
AcDbEntity
  8
AM_2
  6
ByBlock
 62
     0
370
    15
100
AcDbLine
 10
266.3058605525352
 20
174.5663308340277
 30
0.0
 11
267.5110519454203
 21
176.0912668821682
 31
0.0
  0
ARC
  5
9BC
330
A
100
AcDbEntity
  8
AM_2
  6
ByBlock
 62
     0
370
    15
100
AcDbCircle
 10
267.7464195692234
 20
175.9052505343238
 30
0.0
 40
0.3
100
AcDbArc
 50
51.67988606322125
 51
141.6798860632179
1001
GENIUS_GENOBJ-N-FIL_13
1002
{
1000
OWNER
1000
GEN
1002
}
1001
GENIUS_GENODEF_13
1002
{
1000
HIER
1070
     0
1002
}
1002
{
1000
MANEDIT
1070
     0
1002
}
1002
{
1000
NOSEL
1070
     0
1002
}
1002
{
1000
BEHIND
1070
     0
1002
}
1002
{
1000
OTHER
1070
     0
1002
}
1002
{
1000
REACTOR
1002
}
  0
LINE
  5
9BD
330
A
100
AcDbEntity
  8
AM_2
  6
ByBlock
 62
     0
370
    15
100
AcDbLine
 10
269.4575071091979
 20
174.9353199578949
 30
0.0
 11
267.9324359170677
 21
176.1406181581268
 31
0.0
  0
ARC
  5
9BE
330
A
100
AcDbEntity
  8
AM_2
  6
ByBlock
 62
     0
370
    15
100
AcDbCircle
 10
269.2714907613536
 20
174.6999523340919
 30
0.0
 40
0.3
100
AcDbArc
 50
321.6798860632179
 51
51.67988606322125
1001
GENIUS_GENOBJ-N-FIL_13
1002
{
1000
OWNER
1000
GEN
1002
}
1001
GENIUS_GENODEF_13
1002
{
1000
HIER
1070
     0
1002
}
1002
{
1000
MANEDIT
1070
     0
1002
}
1002
{
1000
NOSEL
1070
     0
1002
}
1002
{
1000
BEHIND
1070
     0
1002
}
1002
{
1000
OTHER
1070
     0
1002
}
1002
{
1000
REACTOR
1002
}
  0
LINE
  5
9BF
330
A
100
AcDbEntity
  8
AM_2
  6
ByBlock
 62
     0
370
    15
100
AcDbLine
 10
266.3552118284939
 20
174.1449468623803
 30
0.0
 11
267.8802830206241
 21
172.9396486621484
 31
0.0
  0
ARC
  5
9C0
330
A
100
AcDbEntity
  8
AM_2
  6
ByBlock
 62
     0
370
    15
100
AcDbCircle
 10
266.5412281763382
 20
174.3803144861834
 30
0.0
 40
0.3
100
AcDbArc
 50
141.6798860632179
 51
231.6798860632212
1001
GENIUS_GENOBJ-N-FIL_13
1002
{
1000
OWNER
1000
GEN
1002
}
1001
GENIUS_GENODEF_13
1002
{
1000
HIER
1070
     0
1002
}
1002
{
1000
MANEDIT
1070
     0
1002
}
1002
{
1000
NOSEL
1070
     0
1002
}
1002
{
1000
BEHIND
1070
     0
1002
}
1002
{
1000
OTHER
1070
     0
1002
}
1002
{
1000
REACTOR
1002
}
  0
LINE
  5
9C1
330
A
100
AcDbEntity
  8
AM_2
  6
ByBlock
 62
     0
370
    15
100
AcDbLine
 10
268.9156169635897
 20
174.9173399030373
 30
0.0
 11
268.9754138195437
 21
174.4057196339407
 31
0.0
  0
LINE
  5
9C2
330
A
100
AcDbEntity
  8
AM_2
  6
ByBlock
 62
     0
370
    15
100
AcDbLine
 10
268.9754138195437
 20
174.4057196339407
 30
0.0
 11
268.2837294423782
 21
173.5305271567108
 31
0.0
  0
LINE
  5
9C3
330
A
100
AcDbEntity
  8
AM_2
  6
ByBlock
 62
     0
370
    15
100
AcDbLine
 10
268.2837294423782
 20
173.5305271567108
 30
0.0
 11
267.7717538753732
 21
173.4716697694591
 31
0.0
  0
LINE
  5
9C4
330
A
100
AcDbEntity
  8
AM_2
  6
ByBlock
 62
     0
370
    15
100
AcDbLine
 10
267.7717538753732
 20
173.4716697694591
 30
0.0
 11
266.8966965421329
 21
174.163247339278
 31
0.0
  0
LINE
  5
9C5
330
A
100
AcDbEntity
  8
AM_2
  6
ByBlock
 62
     0
370
    15
100
AcDbLine
 10
266.8966965421329
 20
174.163247339278
 30
0.0
 11
266.8371481767405
 21
174.6737929956824
 31
0.0
  0
LINE
  5
9C6
330
A
100
AcDbEntity
  8
AM_2
  6
ByBlock
 62
     0
370
    15
100
AcDbLine
 10
266.8371481767405
 20
174.6737929956824
 30
0.0
 11
267.5290461685996
 21
175.5492557608917
 31
0.0
  0
LINE
  5
9C7
330
A
100
AcDbEntity
  8
AM_2
  6
ByBlock
 62
     0
370
    15
100
AcDbLine
 10
267.5290461685996
 20
175.5492557608917
 30
0.0
 11
268.0406947743391
 21
175.6088106655095
 31
0.0
  0
LINE
  5
9C8
330
A
100
AcDbEntity
  8
AM_2
  6
ByBlock
 62
     0
370
    15
100
AcDbLine
 10
268.0406947743391
 20
175.6088106655095
 30
0.0
 11
268.9156169635897
 21
174.9173399030373
 31
0.0
  0
LINE
  5
9C9
330
A
100
AcDbEntity
  8
AM_2
  6
ByBlock
 62
     0
370
    15
100
AcDbLine
 10
252.0550645504562
 20
155.2445809692179
 30
0.0
 11
252.3047801270179
 21
155.5605476171123
 31
0.0
  0
LINE
  5
9CA
330
A
100
AcDbEntity
  8
AM_2
  6
ByBlock
 62
     0
370
    15
100
AcDbLine
 10
252.3047801270179
 20
155.5605476171123
 30
0.0
 11
253.0453691905169
 21
154.9752433572501
 31
0.0
  0
LINE
  5
9CB
330
A
100
AcDbEntity
  8
AM_2
  6
ByBlock
 62
     0
370
    15
100
AcDbLine
 10
253.0453691905169
 20
154.9752433572501
 30
0.0
 11
252.7956536139552
 21
154.6592767093558
 31
0.0
  0
LINE
  5
9CC
330
A
100
AcDbEntity
  8
AM_2
  6
ByBlock
 62
     0
370
    15
100
AcDbLine
 10
252.7956536139552
 20
154.6592767093558
 30
0.0
 11
252.0550645504562
 21
155.2445809692179
 31
0.0
  0
SOLID
  5
9CD
330
A
100
AcDbEntity
  8
AM_2
  6
ByBlock
 62
     0
370
    15
100
AcDbTrace
 10
252.7956536139552
 20
154.6592767093558
 30
0.0
 11
252.0550645504562
 21
155.2445809692179
 31
0.0
 12
253.0453691905169
 22
154.9752433572501
 32
0.0
 13
253.0453691905169
 23
154.9752433572501
 33
0.0
  0
SOLID
  5
9CE
330
A
100
AcDbEntity
  8
AM_2
  6
ByBlock
 62
     0
370
    15
100
AcDbTrace
 10
253.0453691905169
 20
154.9752433572501
 30
0.0
 11
252.0550645504562
 21
155.2445809692179
 31
0.0
 12
252.3047801270179
 22
155.5605476171123
 32
0.0
 13
252.3047801270179
 23
155.5605476171123
 33
0.0
  0
LINE
  5
9CF
330
A
100
AcDbEntity
  8
AM_2
  6
ByBlock
 62
     0
370
    15
100
AcDbLine
 10
252.0550645504562
 20
155.2445809692179
 30
0.0
 11
252.3047801270179
 21
155.5605476171123
 31
0.0
  0
LINE
  5
9D0
330
A
100
AcDbEntity
  8
AM_2
  6
ByBlock
 62
     0
370
    15
100
AcDbLine
 10
252.3047801270179
 20
155.5605476171123
 30
0.0
 11
253.0453691905169
 21
154.9752433572501
 31
0.0
  0
LINE
  5
9D1
330
A
100
AcDbEntity
  8
AM_2
  6
ByBlock
 62
     0
370
    15
100
AcDbLine
 10
253.0453691905169
 20
154.9752433572501
 30
0.0
 11
252.7956536139552
 21
154.6592767093558
 31
0.0
  0
LINE
  5
9D2
330
A
100
AcDbEntity
  8
AM_2
  6
ByBlock
 62
     0
370
    15
100
AcDbLine
 10
252.7956536139552
 20
154.6592767093558
 30
0.0
 11
252.0550645504562
 21
155.2445809692179
 31
0.0
  0
LINE
  5
9D3
330
A
100
AcDbEntity
  8
AM_2
  6
ByBlock
 62
     0
370
    15
100
AcDbLine
 10
251.957501488609
 20
155.4106075402933
 30
0.0
 11
252.1206497106784
 21
155.6170399845442
 31
0.0
  0
LINE
  5
9D4
330
A
100
AcDbEntity
  8
AM_2
  6
ByBlock
 62
     0
370
    15
100
AcDbLine
 10
252.1206497106784
 20
155.6170399845442
 30
0.0
 11
253.1427437047009
 21
154.8092560215264
 31
0.0
  0
LINE
  5
9D5
330
A
100
AcDbEntity
  8
AM_2
  6
ByBlock
 62
     0
370
    15
100
AcDbLine
 10
253.1427437047009
 20
154.8092560215264
 30
0.0
 11
252.9795954826316
 21
154.6028235772755
 31
0.0
  0
LINE
  5
9D6
330
A
100
AcDbEntity
  8
AM_2
  6
ByBlock
 62
     0
370
    15
100
AcDbLine
 10
252.9795954826316
 20
154.6028235772755
 30
0.0
 11
251.957501488609
 21
155.4106075402933
 31
0.0
  0
LINE
  5
9D7
330
A
100
AcDbEntity
  8
AM_2
  6
ByBlock
 62
     0
370
    15
100
AcDbLine
 10
251.454593647364
 20
154.4848014591828
 30
0.0
 11
251.7042024165789
 21
154.8006329630875
 31
0.0
  0
LINE
  5
9D8
330
A
100
AcDbEntity
  8
AM_2
  6
ByBlock
 62
     0
370
    15
100
AcDbLine
 10
251.7042024165789
 20
154.8006329630875
 30
0.0
 11
252.4447914800779
 21
154.2153287032253
 31
0.0
  0
LINE
  5
9D9
330
A
100
AcDbEntity
  8
AM_2
  6
ByBlock
 62
     0
370
    15
100
AcDbLine
 10
252.4447914800779
 20
154.2153287032253
 30
0.0
 11
252.195182710863
 21
153.8994971993207
 31
0.0
  0
LINE
  5
9DA
330
A
100
AcDbEntity
  8
AM_2
  6
ByBlock
 62
     0
370
    15
100
AcDbLine
 10
252.195182710863
 20
153.8994971993207
 30
0.0
 11
251.454593647364
 21
154.4848014591828
 31
0.0
  0
SOLID
  5
9DB
330
A
100
AcDbEntity
  8
AM_2
  6
ByBlock
 62
     0
370
    15
100
AcDbTrace
 10
252.195182710863
 20
153.8994971993207
 30
0.0
 11
251.454593647364
 21
154.4848014591828
 31
0.0
 12
252.4447914800779
 22
154.2153287032253
 32
0.0
 13
252.4447914800779
 23
154.2153287032253
 33
0.0
  0
SOLID
  5
9DC
330
A
100
AcDbEntity
  8
AM_2
  6
ByBlock
 62
     0
370
    15
100
AcDbTrace
 10
252.4447914800779
 20
154.2153287032253
 30
0.0
 11
251.454593647364
 21
154.4848014591828
 31
0.0
 12
251.7042024165789
 22
154.8006329630875
 32
0.0
 13
251.7042024165789
 23
154.8006329630875
 33
0.0
  0
LINE
  5
9DD
330
A
100
AcDbEntity
  8
AM_2
  6
ByBlock
 62
     0
370
    15
100
AcDbLine
 10
251.454593647364
 20
154.4848014591828
 30
0.0
 11
251.7042024165789
 21
154.8006329630875
 31
0.0
  0
LINE
  5
9DE
330
A
100
AcDbEntity
  8
AM_2
  6
ByBlock
 62
     0
370
    15
100
AcDbLine
 10
251.7042024165789
 20
154.8006329630875
 30
0.0
 11
252.4447914800779
 21
154.2153287032253
 31
0.0
  0
LINE
  5
9DF
330
A
100
AcDbEntity
  8
AM_2
  6
ByBlock
 62
     0
370
    15
100
AcDbLine
 10
252.4447914800779
 20
154.2153287032253
 30
0.0
 11
252.195182710863
 21
153.8994971993207
 31
0.0
  0
LINE
  5
9E0
330
A
100
AcDbEntity
  8
AM_2
  6
ByBlock
 62
     0
370
    15
100
AcDbLine
 10
252.195182710863
 20
153.8994971993207
 30
0.0
 11
251.454593647364
 21
154.4848014591828
 31
0.0
  0
LINE
  5
9E1
330
A
100
AcDbEntity
  8
AM_2
  6
ByBlock
 62
     0
370
    15
100
AcDbLine
 10
251.357030585517
 20
154.6508280302583
 30
0.0
 11
251.5200185965661
 21
154.8570577585246
 31
0.0
  0
LINE
  5
9E2
330
A
100
AcDbEntity
  8
AM_2
  6
ByBlock
 62
     0
370
    15
100
AcDbLine
 10
251.5200185965661
 20
154.8570577585246
 30
0.0
 11
252.5421125905886
 21
154.0492737955068
 31
0.0
  0
LINE
  5
9E3
330
A
100
AcDbEntity
  8
AM_2
  6
ByBlock
 62
     0
370
    15
100
AcDbLine
 10
252.5421125905886
 20
154.0492737955068
 30
0.0
 11
252.3791245795395
 21
153.8430440672406
 31
0.0
  0
LINE
  5
9E4
330
A
100
AcDbEntity
  8
AM_2
  6
ByBlock
 62
     0
370
    15
100
AcDbLine
 10
252.3791245795395
 20
153.8430440672406
 30
0.0
 11
251.357030585517
 21
154.6508280302583
 31
0.0
  0
LINE
  5
9E5
330
A
100
AcDbEntity
  8
AM_2
  6
ByBlock
 62
     0
370
    15
100
AcDbLine
 10
257.7607734084186
 20
159.6515427503751
 30
0.0
 11
258.9659648013039
 21
161.1764787985156
 31
0.0
  0
ARC
  5
9E6
330
A
100
AcDbEntity
  8
AM_2
  6
ByBlock
 62
     0
370
    15
100
AcDbCircle
 10
257.5254057846157
 20
159.8375590982194
 30
0.0
 40
0.3
100
AcDbArc
 50
231.6798860632179
 51
321.6798860632222
1001
GENIUS_GENOBJ-N-FIL_13
1002
{
1000
OWNER
1000
GEN
1002
}
1001
GENIUS_GENODEF_13
1002
{
1000
HIER
1070
     0
1002
}
1002
{
1000
MANEDIT
1070
     0
1002
}
1002
{
1000
NOSEL
1070
     0
1002
}
1002
{
1000
BEHIND
1070
     0
1002
}
1002
{
1000
OTHER
1070
     0
1002
}
1002
{
1000
REACTOR
1002
}
  0
LINE
  5
9E7
330
A
100
AcDbEntity
  8
AM_2
  6
ByBlock
 62
     0
370
    15
100
AcDbLine
 10
255.7649669686824
 20
161.2288736462957
 30
0.0
 11
256.9701583615676
 21
162.7538096944361
 31
0.0
  0
ARC
  5
9E8
330
A
100
AcDbEntity
  8
AM_2
  6
ByBlock
 62
     0
370
    15
100
AcDbCircle
 10
257.2055259853707
 20
162.5677933465918
 30
0.0
 40
0.3
100
AcDbArc
 50
51.67988606321788
 51
141.6798860632398
1001
GENIUS_GENOBJ-N-FIL_13
1002
{
1000
OWNER
1000
GEN
1002
}
1001
GENIUS_GENODEF_13
1002
{
1000
HIER
1070
     0
1002
}
1002
{
1000
MANEDIT
1070
     0
1002
}
1002
{
1000
NOSEL
1070
     0
1002
}
1002
{
1000
BEHIND
1070
     0
1002
}
1002
{
1000
OTHER
1070
     0
1002
}
1002
{
1000
REACTOR
1002
}
  0
LINE
  5
9E9
330
A
100
AcDbEntity
  8
AM_2
  6
ByBlock
 62
     0
370
    15
100
AcDbLine
 10
258.9166135253451
 20
161.5978627701628
 30
0.0
 11
257.3915423332149
 21
162.8031609703947
 31
0.0
  0
ARC
  5
9EA
330
A
100
AcDbEntity
  8
AM_2
  6
ByBlock
 62
     0
370
    15
100
AcDbCircle
 10
258.7305971775009
 20
161.3624951463599
 30
0.0
 40
0.3
100
AcDbArc
 50
321.6798860632179
 51
51.67988606321788
1001
GENIUS_GENOBJ-N-FIL_13
1002
{
1000
OWNER
1000
GEN
1002
}
1001
GENIUS_GENODEF_13
1002
{
1000
HIER
1070
     0
1002
}
1002
{
1000
MANEDIT
1070
     0
1002
}
1002
{
1000
NOSEL
1070
     0
1002
}
1002
{
1000
BEHIND
1070
     0
1002
}
1002
{
1000
OTHER
1070
     0
1002
}
1002
{
1000
REACTOR
1002
}
  0
LINE
  5
9EB
330
A
100
AcDbEntity
  8
AM_2
  6
ByBlock
 62
     0
370
    15
100
AcDbLine
 10
255.8143182446411
 20
160.8074896746483
 30
0.0
 11
257.3393894367713
 21
159.6021914744164
 31
0.0
  0
ARC
  5
9EC
330
A
100
AcDbEntity
  8
AM_2
  6
ByBlock
 62
     0
370
    15
100
AcDbCircle
 10
256.0003345924854
 20
161.0428572984513
 30
0.0
 40
0.3
100
AcDbArc
 50
141.6798860632179
 51
231.6798860632179
1001
GENIUS_GENOBJ-N-FIL_13
1002
{
1000
OWNER
1000
GEN
1002
}
1001
GENIUS_GENODEF_13
1002
{
1000
HIER
1070
     0
1002
}
1002
{
1000
MANEDIT
1070
     0
1002
}
1002
{
1000
NOSEL
1070
     0
1002
}
1002
{
1000
BEHIND
1070
     0
1002
}
1002
{
1000
OTHER
1070
     0
1002
}
1002
{
1000
REACTOR
1002
}
  0
LINE
  5
9ED
330
A
100
AcDbEntity
  8
AM_2
  6
ByBlock
 62
     0
370
    15
100
AcDbLine
 10
258.374723379737
 20
161.5798827153052
 30
0.0
 11
258.434520235691
 21
161.0682624462087
 31
0.0
  0
LINE
  5
9EE
330
A
100
AcDbEntity
  8
AM_2
  6
ByBlock
 62
     0
370
    15
100
AcDbLine
 10
258.434520235691
 20
161.0682624462087
 30
0.0
 11
257.7428358585253
 21
160.1930699689787
 31
0.0
  0
LINE
  5
9EF
330
A
100
AcDbEntity
  8
AM_2
  6
ByBlock
 62
     0
370
    15
100
AcDbLine
 10
257.7428358585253
 20
160.1930699689787
 30
0.0
 11
257.2308602915204
 21
160.1342125817271
 31
0.0
  0
LINE
  5
9F0
330
A
100
AcDbEntity
  8
AM_2
  6
ByBlock
 62
     0
370
    15
100
AcDbLine
 10
257.2308602915204
 20
160.1342125817271
 30
0.0
 11
256.3558029582802
 21
160.825790151546
 31
0.0
  0
LINE
  5
9F1
330
A
100
AcDbEntity
  8
AM_2
  6
ByBlock
 62
     0
370
    15
100
AcDbLine
 10
256.3558029582802
 20
160.825790151546
 30
0.0
 11
256.2962545928878
 21
161.3363358079503
 31
0.0
  0
LINE
  5
9F2
330
A
100
AcDbEntity
  8
AM_2
  6
ByBlock
 62
     0
370
    15
100
AcDbLine
 10
256.2962545928878
 20
161.3363358079503
 30
0.0
 11
256.9881525847468
 21
162.2117985731597
 31
0.0
  0
LINE
  5
9F3
330
A
100
AcDbEntity
  8
AM_2
  6
ByBlock
 62
     0
370
    15
100
AcDbLine
 10
256.9881525847468
 20
162.2117985731597
 30
0.0
 11
257.4998011904864
 21
162.2713534777774
 31
0.0
  0
LINE
  5
9F4
330
A
100
AcDbEntity
  8
AM_2
  6
ByBlock
 62
     0
370
    15
100
AcDbLine
 10
257.4998011904864
 20
162.2713534777774
 30
0.0
 11
258.374723379737
 21
161.5798827153052
 31
0.0
  0
LINE
  5
9F5
330
A
100
AcDbEntity
  8
AM_2
  6
ByBlock
 62
     0
370
    15
100
AcDbLine
 10
247.5295625249768
 20
146.7062067853537
 30
0.0
 11
248.7347539178621
 21
148.2311428334942
 31
0.0
  0
ARC
  5
9F6
330
A
100
AcDbEntity
  8
AM_2
  6
ByBlock
 62
     0
370
    15
100
AcDbCircle
 10
247.2941949011739
 20
146.8922231331981
 30
0.0
 40
0.3
100
AcDbArc
 50
231.6798860632212
 51
321.6798860632179
1001
GENIUS_GENOBJ-N-FIL_13
1002
{
1000
OWNER
1000
GEN
1002
}
1001
GENIUS_GENODEF_13
1002
{
1000
HIER
1070
     0
1002
}
1002
{
1000
MANEDIT
1070
     0
1002
}
1002
{
1000
NOSEL
1070
     0
1002
}
1002
{
1000
BEHIND
1070
     0
1002
}
1002
{
1000
OTHER
1070
     0
1002
}
1002
{
1000
REACTOR
1002
}
  0
LINE
  5
9F7
330
A
100
AcDbEntity
  8
AM_2
  6
ByBlock
 62
     0
370
    15
100
AcDbLine
 10
245.5337560852406
 20
148.2835376812743
 30
0.0
 11
246.7389474781258
 21
149.8084737294148
 31
0.0
  0
ARC
  5
9F8
330
A
100
AcDbEntity
  8
AM_2
  6
ByBlock
 62
     0
370
    15
100
AcDbCircle
 10
246.9743151019288
 20
149.6224573815705
 30
0.0
 40
0.3
100
AcDbArc
 50
51.67988606321788
 51
141.6798860632179
1001
GENIUS_GENOBJ-N-FIL_13
1002
{
1000
OWNER
1000
GEN
1002
}
1001
GENIUS_GENODEF_13
1002
{
1000
HIER
1070
     0
1002
}
1002
{
1000
MANEDIT
1070
     0
1002
}
1002
{
1000
NOSEL
1070
     0
1002
}
1002
{
1000
BEHIND
1070
     0
1002
}
1002
{
1000
OTHER
1070
     0
1002
}
1002
{
1000
REACTOR
1002
}
  0
LINE
  5
9F9
330
A
100
AcDbEntity
  8
AM_2
  6
ByBlock
 62
     0
370
    15
100
AcDbLine
 10
248.6854026419033
 20
148.6525268051415
 30
0.0
 11
247.1603314497731
 21
149.8578250053735
 31
0.0
  0
ARC
  5
9FA
330
A
100
AcDbEntity
  8
AM_2
  6
ByBlock
 62
     0
370
    15
100
AcDbCircle
 10
248.4993862940591
 20
148.4171591813385
 30
0.0
 40
0.3
100
AcDbArc
 50
321.6798860632179
 51
51.67988606322125
1001
GENIUS_GENOBJ-N-FIL_13
1002
{
1000
OWNER
1000
GEN
1002
}
1001
GENIUS_GENODEF_13
1002
{
1000
HIER
1070
     0
1002
}
1002
{
1000
MANEDIT
1070
     0
1002
}
1002
{
1000
NOSEL
1070
     0
1002
}
1002
{
1000
BEHIND
1070
     0
1002
}
1002
{
1000
OTHER
1070
     0
1002
}
1002
{
1000
REACTOR
1002
}
  0
LINE
  5
9FB
330
A
100
AcDbEntity
  8
AM_2
  6
ByBlock
 62
     0
370
    15
100
AcDbLine
 10
245.5831073611992
 20
147.862153709627
 30
0.0
 11
247.1081785533295
 21
146.656855509395
 31
0.0
  0
ARC
  5
9FC
330
A
100
AcDbEntity
  8
AM_2
  6
ByBlock
 62
     0
370
    15
100
AcDbCircle
 10
245.7691237090436
 20
148.09752133343
 30
0.0
 40
0.3
100
AcDbArc
 50
141.6798860632398
 51
231.6798860632179
1001
GENIUS_GENOBJ-N-FIL_13
1002
{
1000
OWNER
1000
GEN
1002
}
1001
GENIUS_GENODEF_13
1002
{
1000
HIER
1070
     0
1002
}
1002
{
1000
MANEDIT
1070
     0
1002
}
1002
{
1000
NOSEL
1070
     0
1002
}
1002
{
1000
BEHIND
1070
     0
1002
}
1002
{
1000
OTHER
1070
     0
1002
}
1002
{
1000
REACTOR
1002
}
  0
LINE
  5
9FD
330
A
100
AcDbEntity
  8
AM_2
  6
ByBlock
 62
     0
370
    15
100
AcDbLine
 10
248.1435124962952
 20
148.634546750284
 30
0.0
 11
248.2033093522492
 21
148.1229264811873
 31
0.0
  0
LINE
  5
9FE
330
A
100
AcDbEntity
  8
AM_2
  6
ByBlock
 62
     0
370
    15
100
AcDbLine
 10
248.2033093522492
 20
148.1229264811873
 30
0.0
 11
247.5116249750835
 21
147.2477340039573
 31
0.0
  0
LINE
  5
9FF
330
A
100
AcDbEntity
  8
AM_2
  6
ByBlock
 62
     0
370
    15
100
AcDbLine
 10
247.5116249750835
 20
147.2477340039573
 30
0.0
 11
246.9996494080786
 21
147.1888766167058
 31
0.0
  0
LINE
  5
A00
330
A
100
AcDbEntity
  8
AM_2
  6
ByBlock
 62
     0
370
    15
100
AcDbLine
 10
246.9996494080786
 20
147.1888766167058
 30
0.0
 11
246.1245920748384
 21
147.8804541865247
 31
0.0
  0
LINE
  5
A01
330
A
100
AcDbEntity
  8
AM_2
  6
ByBlock
 62
     0
370
    15
100
AcDbLine
 10
246.1245920748384
 20
147.8804541865247
 30
0.0
 11
246.065043709446
 21
148.390999842929
 31
0.0
  0
LINE
  5
A02
330
A
100
AcDbEntity
  8
AM_2
  6
ByBlock
 62
     0
370
    15
100
AcDbLine
 10
246.065043709446
 20
148.390999842929
 30
0.0
 11
246.7569417013049
 21
149.2664626081383
 31
0.0
  0
LINE
  5
A03
330
A
100
AcDbEntity
  8
AM_2
  6
ByBlock
 62
     0
370
    15
100
AcDbLine
 10
246.7569417013049
 20
149.2664626081383
 30
0.0
 11
247.2685903070446
 21
149.3260175127562
 31
0.0
  0
LINE
  5
A04
330
A
100
AcDbEntity
  8
AM_2
  6
ByBlock
 62
     0
370
    15
100
AcDbLine
 10
247.2685903070446
 20
149.3260175127562
 30
0.0
 11
248.1435124962952
 21
148.634546750284
 31
0.0
  0
LINE
  5
A05
330
A
100
AcDbEntity
  8
AM_2
  6
ByBlock
 62
     0
370
    15
100
AcDbLine
 10
237.2989423515544
 20
133.7610626376082
 30
0.0
 11
238.5041337444397
 21
135.2859986857486
 31
0.0
  0
ARC
  5
A06
330
A
100
AcDbEntity
  8
AM_2
  6
ByBlock
 62
     0
370
    15
100
AcDbCircle
 10
237.0635747277515
 20
133.9470789854524
 30
0.0
 40
0.3
100
AcDbArc
 50
231.6798860632179
 51
321.6798860632179
1001
GENIUS_GENOBJ-N-FIL_13
1002
{
1000
OWNER
1000
GEN
1002
}
1001
GENIUS_GENODEF_13
1002
{
1000
HIER
1070
     0
1002
}
1002
{
1000
MANEDIT
1070
     0
1002
}
1002
{
1000
NOSEL
1070
     0
1002
}
1002
{
1000
BEHIND
1070
     0
1002
}
1002
{
1000
OTHER
1070
     0
1002
}
1002
{
1000
REACTOR
1002
}
  0
LINE
  5
A07
330
A
100
AcDbEntity
  8
AM_2
  6
ByBlock
 62
     0
370
    15
100
AcDbLine
 10
235.3031359118182
 20
135.3383935335287
 30
0.0
 11
236.5083273047034
 21
136.8633295816692
 31
0.0
  0
ARC
  5
A08
330
A
100
AcDbEntity
  8
AM_2
  6
ByBlock
 62
     0
370
    15
100
AcDbCircle
 10
236.7436949285064
 20
136.6773132338249
 30
0.0
 40
0.3
100
AcDbArc
 50
51.67988606321788
 51
141.6798860632179
1001
GENIUS_GENOBJ-N-FIL_13
1002
{
1000
OWNER
1000
GEN
1002
}
1001
GENIUS_GENODEF_13
1002
{
1000
HIER
1070
     0
1002
}
1002
{
1000
MANEDIT
1070
     0
1002
}
1002
{
1000
NOSEL
1070
     0
1002
}
1002
{
1000
BEHIND
1070
     0
1002
}
1002
{
1000
OTHER
1070
     0
1002
}
1002
{
1000
REACTOR
1002
}
  0
LINE
  5
A09
330
A
100
AcDbEntity
  8
AM_2
  6
ByBlock
 62
     0
370
    15
100
AcDbLine
 10
238.4547824684809
 20
135.7073826573958
 30
0.0
 11
236.9297112763507
 21
136.9126808576278
 31
0.0
  0
ARC
  5
A0A
330
A
100
AcDbEntity
  8
AM_2
  6
ByBlock
 62
     0
370
    15
100
AcDbCircle
 10
238.2687661206366
 20
135.4720150335929
 30
0.0
 40
0.3
100
AcDbArc
 50
321.6798860632179
 51
51.67988606321788
1001
GENIUS_GENOBJ-N-FIL_13
1002
{
1000
OWNER
1000
GEN
1002
}
1001
GENIUS_GENODEF_13
1002
{
1000
HIER
1070
     0
1002
}
1002
{
1000
MANEDIT
1070
     0
1002
}
1002
{
1000
NOSEL
1070
     0
1002
}
1002
{
1000
BEHIND
1070
     0
1002
}
1002
{
1000
OTHER
1070
     0
1002
}
1002
{
1000
REACTOR
1002
}
  0
LINE
  5
A0B
330
A
100
AcDbEntity
  8
AM_2
  6
ByBlock
 62
     0
370
    15
100
AcDbLine
 10
235.3524871877768
 20
134.9170095618813
 30
0.0
 11
236.877558379907
 21
133.7117113616494
 31
0.0
  0
ARC
  5
A0C
330
A
100
AcDbEntity
  8
AM_2
  6
ByBlock
 62
     0
370
    15
100
AcDbCircle
 10
235.5385035356213
 20
135.1523771856844
 30
0.0
 40
0.3
100
AcDbArc
 50
141.6798860632331
 51
231.6798860632179
1001
GENIUS_GENOBJ-N-FIL_13
1002
{
1000
OWNER
1000
GEN
1002
}
1001
GENIUS_GENODEF_13
1002
{
1000
HIER
1070
     0
1002
}
1002
{
1000
MANEDIT
1070
     0
1002
}
1002
{
1000
NOSEL
1070
     0
1002
}
1002
{
1000
BEHIND
1070
     0
1002
}
1002
{
1000
OTHER
1070
     0
1002
}
1002
{
1000
REACTOR
1002
}
  0
LINE
  5
A0D
330
A
100
AcDbEntity
  8
AM_2
  6
ByBlock
 62
     0
370
    15
100
AcDbLine
 10
237.9128923228728
 20
135.6894026025383
 30
0.0
 11
237.9726891788268
 21
135.1777823334417
 31
0.0
  0
LINE
  5
A0E
330
A
100
AcDbEntity
  8
AM_2
  6
ByBlock
 62
     0
370
    15
100
AcDbLine
 10
237.9726891788268
 20
135.1777823334417
 30
0.0
 11
237.2810048016611
 21
134.3025898562117
 31
0.0
  0
LINE
  5
A0F
330
A
100
AcDbEntity
  8
AM_2
  6
ByBlock
 62
     0
370
    15
100
AcDbLine
 10
237.2810048016611
 20
134.3025898562117
 30
0.0
 11
236.7690292346562
 21
134.2437324689602
 31
0.0
  0
LINE
  5
A10
330
A
100
AcDbEntity
  8
AM_2
  6
ByBlock
 62
     0
370
    15
100
AcDbLine
 10
236.7690292346562
 20
134.2437324689602
 30
0.0
 11
235.893971901416
 21
134.9353100387791
 31
0.0
  0
LINE
  5
A11
330
A
100
AcDbEntity
  8
AM_2
  6
ByBlock
 62
     0
370
    15
100
AcDbLine
 10
235.893971901416
 20
134.9353100387791
 30
0.0
 11
235.8344235360236
 21
135.4458556951834
 31
0.0
  0
LINE
  5
A12
330
A
100
AcDbEntity
  8
AM_2
  6
ByBlock
 62
     0
370
    15
100
AcDbLine
 10
235.8344235360236
 20
135.4458556951834
 30
0.0
 11
236.5263215278827
 21
136.3213184603928
 31
0.0
  0
LINE
  5
A13
330
A
100
AcDbEntity
  8
AM_2
  6
ByBlock
 62
     0
370
    15
100
AcDbLine
 10
236.5263215278827
 20
136.3213184603928
 30
0.0
 11
237.0379701336222
 21
136.3808733650106
 31
0.0
  0
LINE
  5
A14
330
A
100
AcDbEntity
  8
AM_2
  6
ByBlock
 62
     0
370
    15
100
AcDbLine
 10
237.0379701336222
 20
136.3808733650106
 30
0.0
 11
237.9128923228728
 21
135.6894026025383
 31
0.0
  0
CIRCLE
  5
A15
330
A
100
AcDbEntity
  8
AM_2
  6
ByBlock
 62
     0
370
    15
100
AcDbCircle
 10
293.1065020900367
 20
203.3636352106851
 30
0.0
 40
0.5625
  0
CIRCLE
  5
A16
330
A
100
AcDbEntity
  8
AM_2
  6
ByBlock
 62
     0
370
    15
100
AcDbCircle
 10
262.074324816717
 20
169.6967750903311
 30
0.0
 40
0.5625
  0
CIRCLE
  5
A17
330
A
100
AcDbEntity
  8
AM_2
  6
ByBlock
 62
     0
370
    15
100
AcDbCircle
 10
264.797746496942
 20
167.5443934398306
 30
0.0
 40
0.5625
  0
CIRCLE
  5
A18
330
A
100
AcDbEntity
  8
AM_2
  6
ByBlock
 62
     0
370
    15
100
AcDbCircle
 10
261.0620047847875
 20
168.4158803560529
 30
0.0
 40
0.5625
  0
CIRCLE
  5
A19
330
A
100
AcDbEntity
  8
AM_2
  6
ByBlock
 62
     0
370
    15
100
AcDbCircle
 10
263.7854264650124
 20
166.2634987055524
 30
0.0
 40
0.5625
  0
CIRCLE
  5
A1A
330
A
100
AcDbEntity
  8
AM_2
  6
ByBlock
 62
     0
370
    15
100
AcDbCircle
 10
293.1065020900367
 20
203.3636352106851
 30
0.0
 40
0.5625
  0
LINE
  5
A1B
330
A
100
AcDbEntity
  8
AM_2
  6
ByBlock
 62
     0
370
    15
100
AcDbLine
 10
290.678156841679
 20
207.608570624443
 30
0.0
 11
272.5172227599198
 21
184.6294295414007
 31
0.0
  0
LINE
  5
A1C
330
A
100
AcDbEntity
  8
AM_2
  6
ByBlock
 62
     0
370
    15
100
AcDbLine
 10
271.3814897172574
 20
183.1923795690522
 30
0.0
 11
229.7127074858915
 21
130.4686142967118
 31
0.0
  0
LINE
  5
A1D
330
A
100
AcDbEntity
  8
AM_2
  6
ByBlock
 62
     0
370
    15
100
AcDbLine
 10
295.0076296953754
 20
204.1868904658763
 30
0.0
 11
277.829655407767
 21
182.4514944284943
 31
0.0
  0
LINE
  5
A1E
330
A
100
AcDbEntity
  8
AM_2
  6
ByBlock
 62
     0
370
    15
100
AcDbLine
 10
276.6939077218703
 20
181.0144259279718
 30
0.0
 11
234.042180339588
 21
127.0469341381453
 31
0.0
  0
POINT
  5
A1F
330
A
100
AcDbEntity
  8
AM_0
  6
ByBlock
 62
     0
370
    15
100
AcDbPoint
 10
508.5378964819121
 20
208.4929025390921
 30
0.0
  0
CIRCLE
  5
A20
330
A
100
AcDbEntity
  8
AM_2
  6
ByBlock
 62
     0
370
    15
100
AcDbCircle
 10
234.4038731812164
 20
129.0868394485043
 30
0.0
 40
0.5625
  0
CIRCLE
  5
A21
330
A
100
AcDbEntity
  8
AM_2
  6
ByBlock
 62
     0
370
    15
100
AcDbCircle
 10
234.4038731812164
 20
129.0868394485043
 30
0.0
 40
0.5625
  0
LINE
  5
A22
330
A
100
AcDbEntity
  8
AM_2
  6
ByBlock
 62
     0
370
    15
100
AcDbLine
 10
294.039318220666
 20
204.9521688894427
 30
0.0
 11
291.6098347180993
 21
206.8722445609978
 31
0.0
  0
LINE
  5
A23
330
A
100
AcDbEntity
  8
AM_2
  6
ByBlock
 62
     0
370
    15
100
AcDbLine
 10
291.2502165614489
 20
207.1564589104311
 30
0.0
 11
290.678156841679
 21
207.608570624443
 31
0.0
  0
CIRCLE
  5
A48
330
A
100
AcDbEntity
  8
AM_0
  6
ByBlock
 62
     0
370
    15
100
AcDbCircle
 10
290.2866788629593
 20
205.5922051804721
 30
0.0
 40
0.5638760035482445
  0
CIRCLE
  5
A49
330
A
100
AcDbEntity
  8
AM_0
  6
ByBlock
 62
     0
370
    15
100
AcDbCircle
 10
293.1065020900367
 20
203.3636352106851
 30
0.0
 40
0.5638760035482445
  0
LINE
  5
A4A
330
A
100
AcDbEntity
  8
AM_0
  6
ByBlock
 62
     0
370
    15
100
AcDbLine
 10
304.434176788377
 20
215.8559046344367
 30
0.0
 11
299.9143089586993
 21
219.4280582417626
 31
0.0
  0
LINE
  5
A4B
330
A
100
AcDbEntity
  8
AM_0
  6
ByBlock
 62
     0
370
    15
100
AcDbLine
 10
301.3339043243053
 20
211.9331109043868
 30
0.0
 11
296.8140364946277
 21
215.5052645117127
 31
0.0
  0
LINE
  5
A90
330
A
100
AcDbEntity
  8
AM_0
  6
ByBlock
 62
     0
370
    15
100
AcDbLine
 10
303.1940678027483
 20
214.2867871424167
 30
0.0
 11
298.6741999730706
 21
217.8589407497425
 31
0.0
  0
CIRCLE
  5
A9A
330
A
100
AcDbEntity
  8
AM_2
  6
ByBlock
 62
     0
370
    15
100
AcDbCircle
 10
234.4038731812164
 20
129.0868394485043
 30
0.0
 40
0.5625
  0
CIRCLE
  5
A9B
330
A
100
AcDbEntity
  8
AM_2
  6
ByBlock
 62
     0
370
    15
100
AcDbCircle
 10
234.4038731812164
 20
129.0868394485043
 30
0.0
 40
0.5625
  0
CIRCLE
  5
AA0
330
A
100
AcDbEntity
  8
AM_0
  6
ByBlock
 62
     0
370
    15
100
AcDbCircle
 10
231.5840499541389
 20
131.3154094182913
 30
0.0
 40
0.5638760035482445
  0
CIRCLE
  5
AA1
330
A
100
AcDbEntity
  8
AM_0
  6
ByBlock
 62
     0
370
    15
100
AcDbCircle
 10
234.4038731812164
 20
129.0868394485043
 30
0.0
 40
0.5638760035482445
  0
LINE
  5
AE3
330
A
100
AcDbEntity
  8
AM_0
  6
ByBlock
 62
     0
370
    15
100
AcDbLine
 10
224.8670926481484
 20
115.1791859263923
 30
0.0
 11
220.3472248184707
 21
118.7513395337183
 31
0.0
  0
LINE
  5
AE4
330
A
100
AcDbEntity
  8
AM_0
  6
ByBlock
 62
     0
370
    15
100
AcDbLine
 10
227.9673651122201
 20
119.1019796564423
 30
0.0
 11
223.4474972825425
 21
122.6741332637682
 31
0.0
  0
LINE
  5
AEE
330
A
100
AcDbEntity
  8
AM_0
  6
ByBlock
 62
     0
370
    15
100
AcDbLine
 10
226.1072016337771
 20
116.7483034184123
 30
0.0
 11
221.5873338040994
 21
120.3204570257382
 31
0.0
  0
LINE
  5
B08
330
A
100
AcDbEntity
  8
AM_2
  6
ByBlock
 62
     0
370
    15
100
AcDbLine
 10
234.042180339588
 20
127.0469341381453
 30
0.0
 11
233.4332167334604
 21
127.528211826859
 31
0.0
  0
LINE
  5
B09
330
A
100
AcDbEntity
  8
AM_2
  6
ByBlock
 62
     0
370
    15
100
AcDbLine
 10
230.2847672056615
 20
130.0165025827001
 30
0.0
 11
229.7127074858915
 21
130.4686142967118
 31
0.0
  0
LINE
  5
B0A
330
A
100
AcDbEntity
  8
AM_2
  6
ByBlock
 62
     0
370
    15
100
AcDbLine
 10
233.0738688648757
 20
127.8122125617082
 30
0.0
 11
230.6443853622255
 21
129.7322882331576
 31
0.0
  0
LINE
  5
CB3
330
A
100
AcDbEntity
  8
0
  6
Continuous
 62
     7
370
    25
100
AcDbLine
 10
305.9843130204128
 20
217.8173014994616
 30
0.0
 11
277.955095298074
 21
182.3517607079309
 31
0.0
  0
LINE
  5
CB4
330
A
100
AcDbEntity
  8
0
  6
Continuous
 62
     7
370
    25
100
AcDbLine
 10
218.7970885864349
 20
116.7899426686933
 30
0.0
 11
271.3139315341468
 21
183.2398255821247
 31
0.0
  0
LINE
  5
CB5
330
A
100
AcDbEntity
  8
0
  6
Continuous
 62
     7
370
    25
100
AcDbLine
 10
300.7822838080365
 20
221.9285826511783
 30
0.0
 11
271.7933439164437
 21
185.2486995230404
 31
0.0
  0
LINE
  5
CB7
330
A
100
AcDbEntity
  8
0
  6
Continuous
 62
     7
370
    25
100
AcDbLine
 10
218.1149272037363
 20
117.3290702130842
 30
0.0
 11
217.9972433918348
 21
117.4220783870063
 31
0.0
  0
LINE
  5
CB9
330
A
100
AcDbEntity
  8
0
  6
Continuous
 62
     7
370
    25
100
AcDbLine
 10
217.9972433918348
 20
117.4220783870063
 30
0.0
 11
217.5265081442288
 21
117.7941110826949
 31
0.0
  0
LINE
  5
CBA
330
A
100
AcDbEntity
  8
0
  6
Continuous
 62
     7
370
    25
100
AcDbLine
 10
217.4088243323274
 20
117.887119256617
 30
0.0
 11
270.0667571055025
 21
184.5155239900224
 31
0.0
  0
LINE
  5
CBC
330
A
100
AcDbEntity
  8
0
  6
Continuous
 62
     7
370
    25
100
AcDbLine
 10
217.5265081442288
 20
117.7941110826949
 30
0.0
 11
217.4088243323274
 21
117.887119256617
 31
0.0
  0
LINE
  5
CBD
330
A
100
AcDbEntity
  8
0
  6
Continuous
 62
     7
370
    25
100
AcDbLine
 10
307.3725772745204
 20
216.7201249115378
 30
0.0
 11
279.1536706247579
 21
181.0145695587771
 31
0.0
  0
LINE
  5
CBF
330
A
100
AcDbEntity
  8
0
  6
Continuous
 62
     7
370
    25
100
AcDbLine
 10
224.7052206702202
 20
112.1206124734437
 30
0.0
 11
224.5875368583186
 21
112.2136206473658
 31
0.0
  0
LINE
  5
CC1
330
A
100
AcDbEntity
  8
0
  6
Continuous
 62
     7
370
    25
100
AcDbLine
 10
224.5875368583186
 20
112.2136206473658
 30
0.0
 11
224.0099833084213
 21
112.6700742593814
 31
0.0
  0
LINE
  5
CC3
330
A
100
AcDbEntity
  8
0
  6
Continuous
 62
     7
370
    25
100
AcDbLine
 10
224.0099833084213
 20
112.6700742593814
 30
0.0
 11
223.9898007011861
 21
112.6860250296157
 31
0.0
  0
LINE
  5
CC5
330
A
100
AcDbEntity
  8
0
  6
Continuous
 62
     7
370
    25
100
AcDbLine
 10
218.7780432563697
 20
116.8049946230997
 30
0.0
 11
218.1149272037363
 21
117.3290702130842
 31
0.0
  0
LINE
  5
CC7
330
A
100
AcDbEntity
  8
0
  6
Continuous
 62
     7
370
    25
100
AcDbLine
 10
223.9898007011861
 20
112.6860250296157
 30
0.0
 11
223.3360017461778
 21
113.202737106961
 31
0.0
  0
LINE
  5
CC9
330
A
100
AcDbEntity
  8
0
  6
Continuous
 62
     7
370
    25
100
AcDbLine
 10
223.3360017461778
 20
113.202737106961
 30
0.0
 11
223.3169564161125
 21
113.2177890613674
 31
0.0
  0
LINE
  5
CCB
330
A
100
AcDbEntity
  8
0
  6
Continuous
 62
     7
370
    25
100
AcDbLine
 10
218.7970885864349
 20
116.7899426686933
 30
0.0
 11
218.7780432563697
 21
116.8049946230997
 31
0.0
  0
LINE
  5
CCD
330
A
100
AcDbEntity
  8
0
  6
Continuous
 62
     7
370
    25
100
AcDbLine
 10
223.3169564161125
 20
113.2177890613674
 30
0.0
 11
222.7438238051952
 21
113.6707487054795
 31
0.0
  0
LINE
  5
CD0
330
A
100
AcDbEntity
  8
0
  6
Continuous
 62
     7
370
    25
100
AcDbLine
 10
222.7438238051952
 20
113.6707487054795
 30
0.0
 11
222.6261399932937
 21
113.7637568794017
 31
0.0
  0
LINE
  5
CD3
330
A
100
AcDbEntity
  8
0
  6
Continuous
 62
     7
370
    25
100
AcDbLine
 10
219.4879050092538
 20
116.243974850659
 30
0.0
 11
219.3702211973522
 21
116.3369830245812
 31
0.0
  0
LINE
  5
CD5
330
A
100
AcDbEntity
  8
0
  6
Continuous
 62
     7
370
    25
100
AcDbLine
 10
219.3702211973522
 20
116.3369830245812
 30
0.0
 11
218.7970885864349
 21
116.7899426686934
 31
0.0
  0
LINE
  5
CD8
330
A
100
AcDbEntity
  8
0
  6
Continuous
 62
     7
370
    25
100
AcDbLine
 10
222.6261399932937
 20
113.7637568794017
 30
0.0
 11
221.5126897339601
 21
114.6437417617782
 31
0.0
  0
LINE
  5
CDB
330
A
100
AcDbEntity
  8
0
  6
Continuous
 62
     7
370
    25
100
AcDbLine
 10
221.1747063131752
 20
114.9108576911082
 30
0.0
 11
221.0655184019778
 21
114.997151362861
 31
0.0
  0
LINE
  5
CDD
330
A
100
AcDbEntity
  8
0
  6
Continuous
 62
     7
370
    25
100
AcDbLine
 10
220.7111840604484
 20
115.2771897940697
 30
0.0
 11
219.4879050092538
 21
116.243974850659
 31
0.0
  0
LINE
  5
D1A
330
A
100
AcDbEntity
  8
0
  6
Continuous
 62
     7
370
    25
100
AcDbLine
 10
300.7822838080365
 20
221.9285826511783
 30
0.0
 11
300.6645999961351
 21
222.0215908251005
 31
0.0
  0
LINE
  5
D1B
330
A
100
AcDbEntity
  8
0
  6
Continuous
 62
     7
370
    25
100
AcDbLine
 10
300.6645999961351
 20
222.0215908251005
 30
0.0
 11
300.1938647485291
 21
222.393623520789
 31
0.0
  0
LINE
  5
D1C
330
A
100
AcDbEntity
  8
0
  6
Continuous
 62
     7
370
    25
100
AcDbLine
 10
300.1938647485291
 20
222.393623520789
 30
0.0
 11
300.0761809366276
 21
222.4866316947112
 31
0.0
  0
LINE
  5
D1D
330
A
100
AcDbEntity
  8
0
  6
Continuous
 62
     7
370
    25
100
AcDbLine
 10
307.3725772745204
 20
216.7201249115378
 30
0.0
 11
307.2548934626189
 21
216.81313308546
 31
0.0
  0
LINE
  5
D1E
330
A
100
AcDbEntity
  8
0
  6
Continuous
 62
     7
370
    25
100
AcDbLine
 10
307.2548934626189
 20
216.81313308546
 30
0.0
 11
306.6773399127216
 21
217.2695866974756
 31
0.0
  0
LINE
  5
D1F
330
A
100
AcDbEntity
  8
0
  6
Continuous
 62
     7
370
    25
100
AcDbLine
 10
306.6773399127216
 20
217.2695866974756
 30
0.0
 11
306.6571573054864
 21
217.2855374677099
 31
0.0
  0
LINE
  5
D20
330
A
100
AcDbEntity
  8
0
  6
Continuous
 62
     7
370
    25
100
AcDbLine
 10
301.44539986067
 20
221.4045070611938
 30
0.0
 11
300.7822838080365
 21
221.9285826511783
 31
0.0
  0
LINE
  5
D21
330
A
100
AcDbEntity
  8
0
  6
Continuous
 62
     7
370
    25
100
AcDbLine
 10
306.6571573054864
 20
217.2855374677099
 30
0.0
 11
306.0033583504781
 21
217.8022495450552
 31
0.0
  0
LINE
  5
D22
330
A
100
AcDbEntity
  8
0
  6
Continuous
 62
     7
370
    25
100
AcDbLine
 10
306.0033583504781
 20
217.8022495450552
 30
0.0
 11
305.9843130204128
 21
217.8173014994616
 31
0.0
  0
LINE
  5
D23
330
A
100
AcDbEntity
  8
0
  6
Continuous
 62
     7
370
    25
100
AcDbLine
 10
301.4644451907351
 20
221.3894551067875
 30
0.0
 11
301.44539986067
 21
221.4045070611938
 31
0.0
  0
LINE
  5
D24
330
A
100
AcDbEntity
  8
0
  6
Continuous
 62
     7
370
    25
100
AcDbLine
 10
305.9843130204128
 20
217.8173014994616
 30
0.0
 11
305.4111804094954
 21
218.2702611435737
 31
0.0
  0
LINE
  5
D25
330
A
100
AcDbEntity
  8
0
  6
Continuous
 62
     7
370
    25
100
AcDbLine
 10
305.4111804094954
 20
218.2702611435737
 30
0.0
 11
305.293496597594
 21
218.3632693174958
 31
0.0
  0
LINE
  5
D26
330
A
100
AcDbEntity
  8
0
  6
Continuous
 62
     7
370
    25
100
AcDbLine
 10
302.155261613554
 20
220.8434872887532
 30
0.0
 11
302.0375778016525
 21
220.9364954626753
 31
0.0
  0
LINE
  5
D27
330
A
100
AcDbEntity
  8
0
  6
Continuous
 62
     7
370
    25
100
AcDbLine
 10
302.0375778016525
 20
220.9364954626753
 30
0.0
 11
301.4644451907351
 21
221.3894551067875
 31
0.0
  0
LINE
  5
D28
330
A
100
AcDbEntity
  8
0
  6
Continuous
 62
     7
370
    25
100
AcDbLine
 10
305.293496597594
 20
218.3632693174958
 30
0.0
 11
304.1800463382604
 21
219.2432541998724
 31
0.0
  0
LINE
  5
D29
330
A
100
AcDbEntity
  8
0
  6
Continuous
 62
     7
370
    25
100
AcDbLine
 10
303.8420629174755
 20
219.5103701292024
 30
0.0
 11
303.7328750062781
 21
219.5966638009552
 31
0.0
  0
LINE
  5
D2A
330
A
100
AcDbEntity
  8
0
  6
Continuous
 62
     7
370
    25
100
AcDbLine
 10
303.3785406647486
 20
219.8767022321639
 30
0.0
 11
302.155261613554
 21
220.8434872887532
 31
0.0
  0
ARC
  5
D2E
330
A
100
AcDbEntity
  8
0
  6
ByBlock
 62
     0
370
     9
100
AcDbCircle
 10
274.7521370529369
 20
187.8486478623349
 30
0.0
 40
5.75
100
AcDbArc
 50
201.1696486571226
 51
262.1901234693224
  0
ARC
  5
D2F
330
A
100
AcDbEntity
  8
0
  6
ByBlock
 62
     0
370
     9
100
AcDbCircle
 10
273.1839658892296
 20
176.4510086905799
 30
0.0
 40
5.756742341960332
100
AcDbArc
 50
23.53155910440046
 51
83.1585985977521
  0
ARC
  5
D30
330
A
100
AcDbEntity
  8
0
  6
ByBlock
 62
     0
370
     9
100
AcDbCircle
 10
275.8878700955995
 20
189.2856978346833
 30
0.0
 40
5.75
100
AcDbArc
 50
201.1696486571226
 51
262.1901234693224
  0
ARC
  5
D31
330
A
100
AcDbEntity
  8
0
  6
ByBlock
 62
     0
370
     9
100
AcDbCircle
 10
274.3251770300325
 20
177.8923668738612
 30
0.0
 40
5.75
100
AcDbArc
 50
23.51399383164556
 51
82.19012346932244
  0
LINE
  5
D32
330
A
100
AcDbEntity
  8
0
  6
Continuous
 62
     7
370
    25
100
AcDbLine
 10
278.0178084370457
 20
179.5773561784067
 30
0.0
 11
224.7052206702201
 21
112.1206124734437
 31
0.0
  0
LINE
  5
D33
330
A
100
AcDbEntity
  8
0
  6
Continuous
 62
     7
370
    25
100
AcDbLine
 10
276.8193266918665
 20
180.9146657368111
 30
0.0
 11
223.3169564161125
 21
113.2177890613673
 31
0.0
  0
LINE
  5
D38
330
A
100
AcDbEntity
  8
0
  6
Continuous
 62
     7
370
    25
100
AcDbLine
 10
272.4496645768093
 20
184.6768755544732
 30
0.0
 11
301.4644451907351
 21
221.3894551067875
 31
0.0
  0
LINE
  5
D39
330
A
100
AcDbEntity
  8
0
  6
Continuous
 62
     7
370
    25
100
AcDbLine
 10
270.6576108737812
 20
183.8116495506919
 30
0.0
 11
218.1149272037363
 21
117.3290702130841
 31
0.0
  0
LINE
  5
D3A
330
A
100
AcDbEntity
  8
0
  6
Continuous
 62
     7
370
    25
100
AcDbLine
 10
271.2024901481651
 20
185.9525739623708
 30
0.0
 11
300.0761809366276
 21
222.4866316947112
 31
0.0
  0
TEXT
  5
100C
330
A
100
AcDbEntity
  8
1
370
     9
100
AcDbText
 10
235.3988698700665
 20
129.3378389272467
 30
0.0
 40
1.25
  1
-
 50
51.67988606322186
  7
ＭＳ_Ｐゴシック
 11
234.9085206538103
 21
129.7253729852557
 31
0.0
100
AcDbText
 73
     2
  0
TEXT
  5
100D
330
A
100
AcDbEntity
  8
1
370
     9
100
AcDbText
 10
232.579046642989
 20
131.5664088970338
 30
0.0
 40
1.25
  1
+
 50
51.67988606322186
  7
ＭＳ_Ｐゴシック
 11
232.0886974267328
 21
131.9539429550428
 31
0.0
100
AcDbText
 73
     2
  0
TEXT
  5
103D
330
A
100
AcDbEntity
  8
1
370
     9
100
AcDbText
 10
293.171946247257
 20
202.3149286631858
 30
0.0
 40
1.25
  1
-
 50
54.49809105731432
  7
ＭＳ_Ｐゴシック
 71
     2
 11
292.6631361407385
 21
202.6778849629034
 31
0.0
100
AcDbText
 73
     2
  0
TEXT
  5
103E
330
A
100
AcDbEntity
  8
1
370
     9
100
AcDbText
 10
290.2459610331138
 20
204.4021607223535
 30
0.0
 40
1.25
  1
+
 50
54.49809105731432
  7
ＭＳ_Ｐゴシック
 71
     2
 11
289.7371509265953
 21
204.7651170220711
 31
0.0
100
AcDbText
 73
     2
  0
ARC
  5
15A3
330
A
100
AcDbEntity
  8
0
  6
ByBlock
 62
     0
370
     9
100
AcDbCircle
 10
319.1997870678436
 20
243.7615443090065
 30
0.0
 40
5.75
100
AcDbArc
 50
201.1696486571226
 51
262.1901234693224
  0
ARC
  5
15A4
102
{ACAD_REACTORS
330
15B5
102
}
330
A
100
AcDbEntity
  8
0
  6
ByBlock
 62
     0
370
     9
100
AcDbCircle
 10
317.6316159041361
 20
232.3639051372514
 30
0.0
 40
5.756742341960332
100
AcDbArc
 50
23.53155910440046
 51
83.1585985977521
  0
ARC
  5
15A5
330
A
100
AcDbEntity
  8
0
  6
ByBlock
 62
     0
370
     9
100
AcDbCircle
 10
320.335520110506
 20
245.198594281355
 30
0.0
 40
5.75
100
AcDbArc
 50
201.1696486571226
 51
262.1901234693224
  0
ARC
  5
15A6
102
{ACAD_REACTORS
330
15B5
102
}
330
A
100
AcDbEntity
  8
0
  6
ByBlock
 62
     0
370
     9
100
AcDbCircle
 10
318.7728270449391
 20
233.8052633205328
 30
0.0
 40
5.75
100
AcDbArc
 50
23.51399383164429
 51
82.1901234693224
  0
LINE
  5
15A7
330
A
100
AcDbEntity
  8
AM_5
  6
ByBlock
 62
     0
370
    15
100
AcDbLine
 10
305.5251399888879
 20
222.4716306220405
 30
0.0
 11
308.7079524265109
 21
226.4988626859717
 31
0.0
  0
LINE
  5
15A8
102
{ACAD_REACTORS
330
15B5
102
}
330
A
100
AcDbEntity
  8
AM_5
  6
ByBlock
 62
     0
370
    15
100
AcDbLine
 10
305.880724174085
 20
222.1906044111589
 30
0.0
 11
309.063536611708
 21
226.2178364750901
 31
0.0
  0
LINE
  5
15A9
102
{ACAD_REACTORS
330
15B5
102
}
330
A
100
AcDbEntity
  8
AM_0
  6
ByBlock
 62
     0
370
    15
100
AcDbLine
 10
306.2337804780581
 20
221.9115760418899
 30
0.0
 11
309.4165929156811
 21
225.9388081058211
 31
0.0
  0
LINE
  5
15AA
330
A
100
AcDbEntity
  8
AM_0
  6
ByBlock
 62
     0
370
    15
100
AcDbLine
 10
305.8757499565377
 20
222.1945356476076
 30
0.0
 11
309.0585623941607
 21
226.2217677115389
 31
0.0
  0
LINE
  5
15AB
330
A
100
AcDbEntity
  8
AM_5
  6
ByBlock
 62
     0
370
    15
100
AcDbLine
 10
332.0147776231337
 20
255.989131302107
 30
0.0
 11
319.0563038428195
 21
239.5926950902807
 31
0.0
  0
LINE
  5
15AC
102
{ACAD_REACTORS
330
15B5
102
}
330
A
100
AcDbEntity
  8
AM_5
  6
ByBlock
 62
     0
370
    15
100
AcDbLine
 10
332.3703618083309
 20
255.7081050912254
 30
0.0
 11
319.5614610300275
 21
239.5009245145966
 31
0.0
  0
LINE
  5
15AD
102
{ACAD_REACTORS
330
15B5
102
}
330
A
100
AcDbEntity
  8
AM_0
  6
ByBlock
 62
     0
370
    15
100
AcDbLine
 10
332.723418112304
 20
255.4290767219563
 30
0.0
 11
320.0622503107949
 21
239.4088235853528
 31
0.0
  0
LINE
  5
15AE
330
A
100
AcDbEntity
  8
AM_0
  6
ByBlock
 62
     0
370
    15
100
AcDbLine
 10
332.3653875907835
 20
255.7120363276741
 30
0.0
 11
319.5541735777226
 21
239.5019288009438
 31
0.0
  0
LINE
  5
15AF
102
{ACAD_REACTORS
330
15B5
102
}
330
A
100
AcDbEntity
  8
0
  6
ByBlock
 62
     0
370
    15
100
AcDbLine
 10
332.723418112304
 20
255.4290767219563
 30
0.0
 11
332.3703618083309
 21
255.7081050912254
 31
0.0
  0
LINE
  5
15B0
330
A
100
AcDbEntity
  8
0
  6
ByBlock
 62
     0
370
    15
100
AcDbLine
 10
332.3653875907835
 20
255.7120363276741
 30
0.0
 11
332.0147776231337
 21
255.989131302107
 31
0.0
  0
LINE
  5
15B1
102
{ACAD_REACTORS
330
15B5
102
}
330
A
100
AcDbEntity
  8
AM_0
  6
ByBlock
 62
     0
370
    15
100
AcDbLine
 10
318.9274183924177
 20
237.9729138110798
 30
0.0
 11
309.4165929156811
 21
225.9388081058211
 31
0.0
  0
LINE
  5
15B2
102
{ACAD_REACTORS
330
15B5
102
}
330
A
100
AcDbEntity
  8
AM_5
  6
ByBlock
 62
     0
370
    15
100
AcDbLine
 10
318.4269653345589
 20
238.0654401652281
 30
0.0
 11
309.063536611708
 21
226.2178364750901
 31
0.0
  0
LINE
  5
15B3
330
A
100
AcDbEntity
  8
AM_0
  6
ByBlock
 62
     0
370
    15
100
AcDbLine
 10
318.4196832598178
 20
238.0664512558398
 30
0.0
 11
309.0585623941607
 21
226.2217677115389
 31
0.0
  0
LINE
  5
15B4
330
A
100
AcDbEntity
  8
AM_5
  6
ByBlock
 62
     0
370
    15
100
AcDbLine
 10
317.9205708001571
 20
238.1556451179323
 30
0.0
 11
308.7079524265109
 21
226.4988626859717
 31
0.0
  0
HATCH
  5
15B5
330
A
100
AcDbEntity
  8
0
  6
Continuous
 62
     0
100
AcDbHatch
 10
0.0
 20
0.0
 30
0.0
210
0.0
220
0.0
230
1.0
  2
SOLID
 70
     1
 71
     0
 91
        5
 92
        7
 72
     1
 73
     1
 93
        4
 10
320.0622503107949
 20
239.4088235853528
 42
0.0
 10
332.723418112304
 20
255.4290767219563
 42
0.0
 10
332.3703618083309
 20
255.7081050912254
 42
0.0
 10
319.5614610300274
 20
239.5009245145965
 42
-0.0221494726782269
 97
        0
 92
        5
 93
       10
 72
     1
 10
309.4165929156811
 20
225.9388081058211
 11
318.9274183924177
 21
237.9729138110798
 72
     2
 10
317.6316159041478
 20
232.3639051373131
 40
5.756742341897654
 50
76.99165218307522
 51
82.05863367967876
 73
     1
 72
     1
 10
318.4269653345589
 20
238.0654401652281
 11
309.063536611708
 21
226.2178364750901
 72
     1
 10
309.063536611708
 20
226.2178364750901
 11
305.8815628178779
 21
222.1916655522846
 72
     4
 94
        3
 73
     0
 74
     0
 95
        8
 96
        4
 40
3.999999999999999
 40
3.999999999999999
 40
3.999999999999999
 40
3.999999999999999
 40
4.351579291385935
 40
4.351579291385935
 40
4.351579291385935
 40
4.351579291385935
 10
305.8815628178766
 20
222.1916655522828
 10
304.2308842445538
 20
220.0627883999769
 10
302.8307323923281
 20
218.2396289604366
 10
302.4174557252325
 20
217.6777368185248
 97
        0
 72
     4
 94
        3
 73
     0
 74
     0
 95
        8
 96
        4
 40
2.893781532640951
 40
2.893781532640951
 40
2.893781532640951
 40
2.893781532640951
 40
3.0
 40
3.0
 40
3.0
 40
3.0
 10
302.4174557252325
 20
217.6777368185248
 10
302.3838863601763
 20
217.6284744293739
 10
302.3524811472174
 20
217.5773084471198
 10
302.3230045528161
 20
217.5244116003635
 97
        0
 72
     1
 10
302.3230050823385
 20
217.5244113053381
 11
302.6878317563818
 21
217.23608054682
 72
     4
 94
        3
 73
     0
 74
     0
 95
        8
 96
        4
 40
8.0
 40
8.0
 40
8.0
 40
8.0
 40
8.147586193682969
 40
8.147586193682969
 40
8.147586193682969
 40
8.147586193682969
 10
302.6878312777228
 20
217.2360807884631
 10
302.7207528598538
 20
217.3013314806626
 10
302.7564177382862
 20
217.3628067346565
 10
302.7953183204046
 20
217.4199409392248
 97
        0
 72
     4
 94
        3
 73
     0
 74
     0
 95
        8
 96
        4
 40
6.64967202101233
 40
6.64967202101233
 40
6.64967202101233
 40
6.64967202101233
 40
7.0
 40
7.0
 40
7.0
 40
7.0
 10
302.7953183204046
 20
217.4199409392248
 10
303.2068027430741
 20
217.9798159348121
 10
304.5984836084016
 20
219.7921455106631
 10
306.2337804780597
 20
221.9115760418919
 97
        0
 72
     1
 10
306.2337804780585
 20
221.9115760418904
 11
309.4165929156811
 21
225.9388081058211
 97
        0
 92
        5
 93
        6
 72
     4
 94
        3
 73
     0
 74
     0
 95
        8
 96
        4
 40
8.147586193682969
 40
8.147586193682969
 40
8.147586193682969
 40
8.147586193682969
 40
9.0
 40
9.0
 40
9.0
 40
9.0
 10
302.297062048095
 20
215.8366201129225
 10
302.3990536883657
 20
216.3563999241732
 10
302.4976860450695
 20
216.8592122649613
 10
302.6878312777228
 20
217.2360807884631
 97
        0
 72
     1
 10
302.6878317563818
 20
217.23608054682
 11
302.3230050823385
 21
217.5244113053381
 72
     4
 94
        3
 73
     0
 74
     0
 95
        8
 96
        4
 40
2.0
 40
2.0
 40
2.0
 40
2.0
 40
2.893781532640951
 40
2.893781532640951
 40
2.893781532640951
 40
2.893781532640951
 10
302.3230045528161
 20
217.5244116003635
 10
302.0749720178335
 20
217.0793079762834
 10
301.963494931698
 20
216.511650839456
 10
301.8482444988522
 20
215.9243503596487
 97
        0
 72
     4
 94
        3
 73
     0
 74
     0
 95
        8
 96
        4
 40
1.768890347185207
 40
1.768890347185207
 40
1.768890347185207
 40
1.768890347185207
 40
2.0
 40
2.0
 40
2.0
 40
2.0
 10
301.8482444988522
 20
215.9243503596487
 10
301.815998358235
 20
215.7602139725542
 10
301.7834161025356
 20
215.5943613844114
 10
301.7474313177003
 20
215.4300968638807
 97
        0
 72
     1
 10
301.7474308953886
 20
215.4300969562977
 11
302.1446752345021
 21
215.1161457850629
 72
     4
 94
        3
 73
     0
 74
     0
 95
        8
 96
        4
 40
9.0
 40
9.0
 40
9.0
 40
9.0
 40
9.312842593308279
 40
9.312842593308279
 40
9.312842593308279
 40
9.312842593308279
 10
302.1446754098239
 20
215.1161457425782
 10
302.2023491701798
 20
215.3547007790131
 10
302.2500459809673
 20
215.5973146253282
 10
302.297062048095
 20
215.8366201129225
 97
        0
 97
        0
 92
        5
 93
        6
 72
     4
 94
        3
 73
     0
 74
     0
 95
        8
 96
        4
 40
9.312842593308279
 40
9.312842593308279
 40
9.312842593308279
 40
9.312842593308279
 40
10.0
 40
10.0
 40
10.0
 40
10.0
 10
301.5217170020862
 20
213.6810080851201
 10
301.8431803541147
 20
214.0877576325848
 10
302.0179952439897
 20
214.5921606341045
 10
302.1446754098239
 20
215.1161457425782
 97
        0
 72
     1
 10
302.1446752345021
 20
215.1161457850629
 11
301.7474308953886
 21
215.4300969562977
 72
     4
 94
        3
 73
     0
 74
     0
 95
        8
 96
        4
 40
1.0
 40
1.0
 40
1.0
 40
1.0
 40
1.768890347185207
 40
1.768890347185207
 40
1.768890347185207
 40
1.768890347185207
 10
301.7474313177003
 20
215.4300968638807
 10
301.6277117241286
 20
214.8835969549296
 10
301.470330900546
 20
214.354674729291
 10
301.1623691335015
 20
213.9650088199693
 97
        0
 72
     1
 10
301.1623691334978
 20
213.9650088199646
 11
300.2398631488066
 21
212.797756349539
 72
     1
 10
300.2398631488066
 20
212.797756349539
 11
300.5992110173913
 21
212.5137556146898
 72
     1
 10
300.5992110173913
 20
212.5137556146898
 11
301.5217170020862
 21
213.6810080851201
 97
        0
 92
        7
 72
     1
 73
     1
 93
        4
 10
293.5929901168343
 20
203.648741413985
 42
0.0
 10
300.5992110173913
 20
212.5137556146898
 42
0.0
 10
300.2398631488066
 20
212.797756349539
 42
0.0
 10
293.2203331244164
 20
203.9159020329635
 42
-0.2124703587665819
 97
        0
 75
     0
 76
     1
 47
0.0
 98
        5
 10
327.3478226432879
 20
248.8131821781465
 10
313.0878759730878
 20
230.8120252088482
 10
302.2243477519386
 20
216.4317791907366
 10
301.6389572060685
 20
214.5738005016709
 10
300.1627549599615
 20
212.1304312667351
1001
ACAD
1010
0.0
1020
0.0
1030
0.0
  0
SPLINE
  5
15B6
330
A
100
AcDbEntity
  8
CONT_M_3
  6
ByBlock
 62
     0
370
    15
100
AcDbSpline
210
0.0
220
0.0
230
1.0
 70
     8
 71
     3
 72
     8
 73
     4
 74
     0
 42
0.000000001
 43
0.0000000001
 40
4.0
 40
4.0
 40
4.0
 40
4.0
 40
4.363594220573855
 40
4.363594220573855
 40
4.363594220573855
 40
4.363594220573855
 10
301.6614646063908
 20
218.0657570103393
 30
0.0
 10
302.1675277216115
 20
218.4090154561124
 30
0.0
 10
303.7346402995426
 20
220.2571925730556
 30
0.0
 10
305.5251399888879
 20
222.4716306220405
 30
0.0
  0
SPLINE
  5
15B7
330
A
100
AcDbEntity
  8
AM_0
  6
ByBlock
 62
     0
370
    15
100
AcDbSpline
210
0.0
220
0.0
230
1.0
 70
     8
 71
     3
 72
     8
 73
     4
 74
     0
 42
0.000000001
 43
0.0000000001
 40
6.63465952055413
 40
6.63465952055413
 40
6.63465952055413
 40
6.63465952055413
 40
7.0
 40
7.0
 40
7.0
 40
7.0
 10
305.8757499565377
 20
222.1945356476076
 30
0.0
 10
304.0646032237728
 20
219.9469664811956
 30
0.0
 10
302.4644031509937
 20
218.0630058519813
 30
0.0
 10
301.9284960515669
 20
217.6935617437672
 30
0.0
  0
SPLINE
  5
15B8
330
A
100
AcDbEntity
  8
CONT_M_3
  6
ByBlock
 62
     0
370
    15
100
AcDbSpline
210
0.0
220
0.0
230
1.0
 70
     8
 71
     3
 72
     8
 73
     4
 74
     0
 42
0.000000001
 43
0.0000000001
 40
4.0
 40
4.0
 40
4.0
 40
4.0
 40
4.363594220573855
 40
4.363594220573855
 40
4.363594220573855
 40
4.363594220573855
 10
301.6614646063908
 20
218.0657570103393
 30
0.0
 10
302.1675277216115
 20
218.4090154561124
 30
0.0
 10
303.7346402995426
 20
220.2571925730556
 30
0.0
 10
305.5251399888879
 20
222.4716306220405
 30
0.0
  0
SPLINE
  5
15B9
330
A
100
AcDbEntity
  8
CONT_M_3
  6
ByBlock
 62
     0
370
    15
100
AcDbSpline
210
0.0
220
0.0
230
1.0
 70
     8
 71
     3
 72
     8
 73
     4
 74
     0
 42
0.000000001
 43
0.0000000001
 40
6.63465952055413
 40
6.63465952055413
 40
6.63465952055413
 40
6.63465952055413
 40
7.0
 40
7.0
 40
7.0
 40
7.0
 10
305.8757499565377
 20
222.1945356476076
 30
0.0
 10
304.0646032237728
 20
219.9469664811956
 30
0.0
 10
302.4644031509937
 20
218.0630058519813
 30
0.0
 10
301.9284960515669
 20
217.6935617437672
 30
0.0
  0
SPLINE
  5
15BA
330
A
100
AcDbEntity
  8
CONT_M_3
  6
ByBlock
 62
     0
370
    15
100
AcDbSpline
210
0.0
220
0.0
230
1.0
 70
     8
 71
     3
 72
     8
 73
     4
 74
     0
 42
0.000000001
 43
0.0000000001
 40
4.0
 40
4.0
 40
4.0
 40
4.0
 40
4.351579291385936
 40
4.351579291385936
 40
4.351579291385936
 40
4.351579291385936
 10
302.4174557252325
 20
217.6777368185248
 30
0.0
 10
302.8307323923281
 20
218.2396289604366
 30
0.0
 10
304.2308842445538
 20
220.0627883999769
 30
0.0
 10
305.8815628178766
 20
222.1916655522828
 30
0.0
  0
SPLINE
  5
15BB
330
A
100
AcDbEntity
  8
AM_0
  6
ByBlock
 62
     0
370
    15
100
AcDbSpline
210
0.0
220
0.0
230
1.0
 70
     8
 71
     3
 72
     8
 73
     4
 74
     0
 42
0.000000001
 43
0.0000000001
 40
6.64967202101233
 40
6.64967202101233
 40
6.64967202101233
 40
6.64967202101233
 40
7.0
 40
7.0
 40
7.0
 40
7.0
 10
306.2337804780597
 20
221.9115760418919
 30
0.0
 10
304.5984836084016
 20
219.7921455106631
 30
0.0
 10
303.2068027430741
 20
217.9798159348121
 30
0.0
 10
302.7953183204046
 20
217.4199409392248
 30
0.0
  0
SPLINE
  5
15BC
102
{ACAD_REACTORS
330
15B5
102
}
330
A
100
AcDbEntity
  8
AM_0
  6
ByBlock
 62
     0
370
    15
100
AcDbSpline
210
0.0
220
0.0
230
1.0
 70
     8
 71
     3
 72
     8
 73
     4
 74
     0
 42
0.000000001
 43
0.0000000001
 40
4.0
 40
4.0
 40
4.0
 40
4.0
 40
4.351579291385936
 40
4.351579291385936
 40
4.351579291385936
 40
4.351579291385936
 10
302.4174557252325
 20
217.6777368185248
 30
0.0
 10
302.8307323923281
 20
218.2396289604366
 30
0.0
 10
304.2308842445538
 20
220.0627883999769
 30
0.0
 10
305.8815628178766
 20
222.1916655522828
 30
0.0
  0
SPLINE
  5
15BD
102
{ACAD_REACTORS
330
15B5
102
}
330
A
100
AcDbEntity
  8
AM_0
  6
ByBlock
 62
     0
370
    15
100
AcDbSpline
210
0.0
220
0.0
230
1.0
 70
     8
 71
     3
 72
     8
 73
     4
 74
     0
 42
0.000000001
 43
0.0000000001
 40
6.64967202101233
 40
6.64967202101233
 40
6.64967202101233
 40
6.64967202101233
 40
7.0
 40
7.0
 40
7.0
 40
7.0
 10
306.2337804780597
 20
221.9115760418919
 30
0.0
 10
304.5984836084016
 20
219.7921455106631
 30
0.0
 10
303.2068027430741
 20
217.9798159348121
 30
0.0
 10
302.7953183204046
 20
217.4199409392248
 30
0.0
  0
LINE
  5
15BE
102
{ACAD_REACTORS
330
15B5
102
}
330
A
100
AcDbEntity
  8
AM_0
  6
ByBlock
 62
     0
370
    15
100
AcDbLine
 10
301.5217170020862
 20
213.6810080851201
 30
0.0
 11
293.2672558657588
 21
203.2365878718078
 31
0.0
  0
LINE
  5
15BF
102
{ACAD_REACTORS
330
15B5
102
}
330
A
100
AcDbEntity
  8
AM_0
  6
ByBlock
 62
     0
370
    15
100
AcDbLine
 10
292.9079079971742
 20
203.520588606657
 30
0.0
 11
301.1623691335009
 21
213.9650088199686
 31
0.0
  0
LINE
  5
15C0
330
A
100
AcDbEntity
  8
AM_0
  6
ByBlock
 62
     0
370
    15
100
AcDbLine
 10
293.2672558657588
 20
203.2365878718078
 30
0.0
 11
292.9079079971742
 21
203.520588606657
 31
0.0
  0
LINE
  5
15C1
330
A
100
AcDbEntity
  8
AM_0
  6
ByBlock
 62
     0
370
    15
100
AcDbLine
 10
293.2672558657588
 20
203.2365878718078
 30
0.0
 11
292.9079079971742
 21
203.520588606657
 31
0.0
  0
LINE
  5
15C2
330
A
100
AcDbEntity
  8
CONT_M_3
  6
ByBlock
 62
     0
370
    15
100
AcDbLine
 10
298.7328856308499
 20
215.8850844914167
 30
0.0
 11
290.4784244945239
 21
205.4406642781065
 31
0.0
  0
LINE
  5
15C3
330
A
100
AcDbEntity
  8
CONT_M_3
  6
ByBlock
 62
     0
370
    15
100
AcDbLine
 10
290.1188063379599
 20
205.7248786276489
 30
0.0
 11
298.3732674742858
 21
216.1692988409593
 31
0.0
  0
LINE
  5
15C4
330
A
100
AcDbEntity
  8
CONT_M_3
  6
ByBlock
 62
     0
370
    15
100
AcDbLine
 10
290.4784244945239
 20
205.4406642781065
 30
0.0
 11
290.1188063379599
 21
205.7248786276489
 31
0.0
  0
SOLID
  5
15C5
330
A
100
AcDbEntity
  8
AM_0
  6
ByBlock
 62
     0
370
    15
100
AcDbTrace
 10
290.3950169630943
 20
205.5065831335911
 30
0.0
 11
290.1188063379599
 21
205.7248786276491
 31
0.0
 12
290.5038823945831
 22
205.4728763149159
 32
0.0
 13
290.5038823945831
 23
205.4728763149159
 33
0.0
  0
SOLID
  5
15C6
330
A
100
AcDbEntity
  8
AM_0
  6
ByBlock
 62
     0
370
    15
100
AcDbTrace
 10
290.5038823945831
 20
205.4728763149159
 30
0.0
 11
290.1188063379599
 21
205.7248786276491
 31
0.0
 12
290.144264238019
 22
205.7570906644586
 32
0.0
 13
290.144264238019
 23
205.7570906644586
 33
0.0
  0
LINE
  5
15C7
330
A
100
AcDbEntity
  8
CONT_M_3
  6
ByBlock
 62
     0
370
    15
100
AcDbLine
 10
290.4784244945239
 20
205.4406642781065
 30
0.0
 11
290.1188063379599
 21
205.7248786276489
 31
0.0
  0
SOLID
  5
15C8
330
A
100
AcDbEntity
  8
AM_0
  6
ByBlock
 62
     0
370
    15
100
AcDbTrace
 10
290.3950169630943
 20
205.5065831335911
 30
0.0
 11
290.1188063379599
 21
205.7248786276491
 31
0.0
 12
290.5038823945831
 22
205.4728763149159
 32
0.0
 13
290.5038823945831
 23
205.4728763149159
 33
0.0
  0
SOLID
  5
15C9
330
A
100
AcDbEntity
  8
AM_0
  6
ByBlock
 62
     0
370
    15
100
AcDbTrace
 10
290.5038823945831
 20
205.4728763149159
 30
0.0
 11
290.1188063379599
 21
205.7248786276491
 31
0.0
 12
290.144264238019
 22
205.7570906644586
 32
0.0
 13
290.144264238019
 23
205.7570906644586
 33
0.0
  0
SPLINE
  5
15CA
102
{ACAD_REACTORS
330
15B5
102
}
330
A
100
AcDbEntity
  8
AM_0
  6
ByBlock
 62
     0
370
    15
100
AcDbSpline
210
0.0
220
0.0
230
1.0
 70
     8
 71
     3
 72
     8
 73
     4
 74
     0
 42
0.000000001
 43
0.0000000001
 40
1.0
 40
1.0
 40
1.0
 40
1.0
 40
2.0
 40
2.0
 40
2.0
 40
2.0
 10
301.1623691335015
 20
213.9650088199693
 30
0.0
 10
301.5628966835897
 20
214.4717987813054
 30
0.0
 10
301.7087170484648
 20
215.2141403571869
 30
0.0
 10
301.8482444988522
 20
215.9243503596487
 30
0.0
  0
SPLINE
  5
15CB
102
{ACAD_REACTORS
330
15B5
102
}
330
A
100
AcDbEntity
  8
AM_0
  6
ByBlock
 62
     0
370
    15
100
AcDbSpline
210
0.0
220
0.0
230
1.0
 70
     8
 71
     3
 72
     8
 73
     4
 74
     0
 42
0.000000001
 43
0.0000000001
 40
9.0
 40
9.0
 40
9.0
 40
9.0
 40
10.0
 40
10.0
 40
10.0
 40
10.0
 10
302.297062048095
 20
215.8366201129225
 30
0.0
 10
302.1467753923348
 20
215.0716811541199
 30
0.0
 10
301.9895331805892
 20
214.2729387599606
 30
0.0
 10
301.5217170020862
 20
213.6810080851201
 30
0.0
  0
SPLINE
  5
15CC
102
{ACAD_REACTORS
330
15B5
102
}
330
A
100
AcDbEntity
  8
AM_0
  6
ByBlock
 62
     0
370
    15
100
AcDbSpline
210
0.0
220
0.0
230
1.0
 70
     8
 71
     3
 72
     8
 73
     4
 74
     0
 42
0.000000001
 43
0.0000000001
 40
9.0
 40
9.0
 40
9.0
 40
9.0
 40
10.0
 40
10.0
 40
10.0
 40
10.0
 10
302.297062048095
 20
215.8366201129225
 30
0.0
 10
302.1467753923348
 20
215.0716811541199
 30
0.0
 10
301.9895331805892
 20
214.2729387599606
 30
0.0
 10
301.5217170020862
 20
213.6810080851201
 30
0.0
  0
SPLINE
  5
15CD
330
A
100
AcDbEntity
  8
CONT_M_3
  6
ByBlock
 62
     0
370
    15
100
AcDbSpline
210
0.0
220
0.0
230
1.0
 70
     8
 71
     3
 72
     8
 73
     4
 74
     0
 42
0.000000001
 43
0.0000000001
 40
1.0
 40
1.0
 40
1.0
 40
1.0
 40
2.0
 40
2.0
 40
2.0
 40
2.0
 10
298.3732674742857
 20
216.1692988409593
 30
0.0
 10
298.9404144852106
 20
216.8869134262111
 30
0.0
 10
299.8346709839539
 20
217.2450101230202
 30
0.0
 10
300.6042898483349
 20
217.5531907333151
 30
0.0
  0
SPLINE
  5
15CE
330
A
100
AcDbEntity
  8
CONT_M_3
  6
ByBlock
 62
     0
370
    15
100
AcDbSpline
210
0.0
220
0.0
230
1.0
 70
     8
 71
     3
 72
     8
 73
     4
 74
     0
 42
0.000000001
 43
0.0000000001
 40
8.0
 40
8.0
 40
8.0
 40
8.0
 40
9.0
 40
9.0
 40
9.0
 40
9.0
 10
300.7752164789076
 20
217.1282893107638
 30
0.0
 10
300.0578525639592
 20
216.8409448520407
 30
0.0
 10
299.2246266550113
 20
216.5072874199477
 30
0.0
 10
298.7328856308498
 20
215.8850844914168
 30
0.0
  0
SPLINE
  5
15CF
330
A
100
AcDbEntity
  8
CONT_M_3
  6
ByBlock
 62
     0
370
    15
100
AcDbSpline
210
0.0
220
0.0
230
1.0
 70
     8
 71
     3
 72
     8
 73
     4
 74
     0
 42
0.000000001
 43
0.0000000001
 40
1.0
 40
1.0
 40
1.0
 40
1.0
 40
2.0
 40
2.0
 40
2.0
 40
2.0
 10
298.3732674742857
 20
216.1692988409593
 30
0.0
 10
298.9404144852106
 20
216.8869134262111
 30
0.0
 10
299.8346709839539
 20
217.2450101230202
 30
0.0
 10
300.6042898483349
 20
217.5531907333151
 30
0.0
  0
SPLINE
  5
15D0
330
A
100
AcDbEntity
  8
CONT_M_3
  6
ByBlock
 62
     0
370
    15
100
AcDbSpline
210
0.0
220
0.0
230
1.0
 70
     8
 71
     3
 72
     8
 73
     4
 74
     0
 42
0.000000001
 43
0.0000000001
 40
8.0
 40
8.0
 40
8.0
 40
8.0
 40
9.0
 40
9.0
 40
9.0
 40
9.0
 10
300.7752164789076
 20
217.1282893107638
 30
0.0
 10
300.0578525639592
 20
216.8409448520407
 30
0.0
 10
299.2246266550113
 20
216.5072874199477
 30
0.0
 10
298.7328856308498
 20
215.8850844914168
 30
0.0
  0
SPLINE
  5
15D1
330
A
100
AcDbEntity
  8
AM_0
  6
ByBlock
 62
     0
370
    15
100
AcDbSpline
210
0.0
220
0.0
230
1.0
 70
     8
 71
     3
 72
     8
 73
     4
 74
     0
 42
0.000000001
 43
0.0000000001
 40
2.0
 40
2.0
 40
2.0
 40
2.0
 40
3.0
 40
3.0
 40
3.0
 40
3.0
 10
301.8482444988522
 20
215.9243503596487
 30
0.0
 10
301.977191482692
 20
216.5814465944209
 30
0.0
 10
302.101414966118
 20
217.2139531622949
 30
0.0
 10
302.4174557252325
 20
217.6777368185248
 30
0.0
  0
SPLINE
  5
15D2
330
A
100
AcDbEntity
  8
AM_0
  6
ByBlock
 62
     0
370
    15
100
AcDbSpline
210
0.0
220
0.0
230
1.0
 70
     8
 71
     3
 72
     8
 73
     4
 74
     0
 42
0.000000001
 43
0.0000000001
 40
8.0
 40
8.0
 40
8.0
 40
8.0
 40
9.0
 40
9.0
 40
9.0
 40
9.0
 10
302.7953183204046
 20
217.4199409392248
 30
0.0
 10
302.531739586191
 20
217.0328166212754
 30
0.0
 10
302.4167124332891
 20
216.4463941538857
 30
0.0
 10
302.297062048095
 20
215.8366201129225
 30
0.0
  0
SPLINE
  5
15D3
102
{ACAD_REACTORS
330
15B5
102
}
330
A
100
AcDbEntity
  8
AM_0
  6
ByBlock
 62
     0
370
    15
100
AcDbSpline
210
0.0
220
0.0
230
1.0
 70
     8
 71
     3
 72
     8
 73
     4
 74
     0
 42
0.000000001
 43
0.0000000001
 40
2.0
 40
2.0
 40
2.0
 40
2.0
 40
3.0
 40
3.0
 40
3.0
 40
3.0
 10
301.8482444988522
 20
215.9243503596487
 30
0.0
 10
301.977191482692
 20
216.5814465944209
 30
0.0
 10
302.101414966118
 20
217.2139531622949
 30
0.0
 10
302.4174557252325
 20
217.6777368185248
 30
0.0
  0
SPLINE
  5
15D4
102
{ACAD_REACTORS
330
15B5
102
}
330
A
100
AcDbEntity
  8
AM_0
  6
ByBlock
 62
     0
370
    15
100
AcDbSpline
210
0.0
220
0.0
230
1.0
 70
     8
 71
     3
 72
     8
 73
     4
 74
     0
 42
0.000000001
 43
0.0000000001
 40
8.0
 40
8.0
 40
8.0
 40
8.0
 40
9.0
 40
9.0
 40
9.0
 40
9.0
 10
302.7953183204046
 20
217.4199409392248
 30
0.0
 10
302.531739586191
 20
217.0328166212754
 30
0.0
 10
302.4167124332891
 20
216.4463941538857
 30
0.0
 10
302.297062048095
 20
215.8366201129225
 30
0.0
  0
SPLINE
  5
15D5
330
A
100
AcDbEntity
  8
CONT_M_3
  6
ByBlock
 62
     0
370
    15
100
AcDbSpline
210
0.0
220
0.0
230
1.0
 70
     8
 71
     3
 72
     8
 73
     4
 74
     0
 42
0.000000001
 43
0.0000000001
 40
2.0
 40
2.0
 40
2.0
 40
2.0
 40
3.0
 40
3.0
 40
3.0
 40
3.0
 10
300.6042898483349
 20
217.5531907333151
 30
0.0
 10
301.0291694734685
 20
217.7232563658888
 30
0.0
 10
301.4135233396293
 20
217.8770480464138
 30
0.0
 10
301.650829646299
 20
218.0581344533726
 30
0.0
  0
SPLINE
  5
15D6
330
A
100
AcDbEntity
  8
CONT_M_3
  6
ByBlock
 62
     0
370
    15
100
AcDbSpline
210
0.0
220
0.0
230
1.0
 70
     8
 71
     3
 72
     8
 73
     4
 74
     0
 42
0.000000001
 43
0.0000000001
 40
7.0
 40
7.0
 40
7.0
 40
7.0
 40
8.0
 40
8.0
 40
8.0
 40
8.0
 10
301.9284960515669
 20
217.6935617437672
 30
0.0
 10
301.6420997805134
 20
217.4750862262415
 30
0.0
 10
301.2301808999394
 20
217.3105854744045
 30
0.0
 10
300.7752164789076
 20
217.1282893107638
 30
0.0
  0
SPLINE
  5
15D7
330
A
100
AcDbEntity
  8
CONT_M_3
  6
ByBlock
 62
     0
370
    15
100
AcDbSpline
210
0.0
220
0.0
230
1.0
 70
     8
 71
     3
 72
     8
 73
     4
 74
     0
 42
0.000000001
 43
0.0000000001
 40
2.0
 40
2.0
 40
2.0
 40
2.0
 40
3.0
 40
3.0
 40
3.0
 40
3.0
 10
300.6042898483349
 20
217.5531907333151
 30
0.0
 10
301.0291694734685
 20
217.7232563658888
 30
0.0
 10
301.4135233396293
 20
217.8770480464138
 30
0.0
 10
301.650829646299
 20
218.0581344533726
 30
0.0
  0
SPLINE
  5
15D8
330
A
100
AcDbEntity
  8
CONT_M_3
  6
ByBlock
 62
     0
370
    15
100
AcDbSpline
210
0.0
220
0.0
230
1.0
 70
     8
 71
     3
 72
     8
 73
     4
 74
     0
 42
0.000000001
 43
0.0000000001
 40
7.0
 40
7.0
 40
7.0
 40
7.0
 40
8.0
 40
8.0
 40
8.0
 40
8.0
 10
301.9284960515669
 20
217.6935617437672
 30
0.0
 10
301.6420997805134
 20
217.4750862262415
 30
0.0
 10
301.2301808999394
 20
217.3105854744045
 30
0.0
 10
300.7752164789076
 20
217.1282893107638
 30
0.0
  0
LINE
  5
15DA
330
A
100
AcDbEntity
  8
AM_5
  6
ByBlock
 62
     0
370
    15
100
AcDbLine
 10
218.6824823675489
 20
112.5890842440198
 30
0.0
 11
215.4996699299258
 21
108.5618521800887
 31
0.0
  0
LINE
  5
15DB
102
{ACAD_REACTORS
330
15EC
102
}
330
A
100
AcDbEntity
  8
AM_5
  6
ByBlock
 62
     0
370
    15
100
AcDbLine
 10
219.038066552746
 20
112.3080580331383
 30
0.0
 11
215.8552541151229
 21
108.2808259692072
 31
0.0
  0
LINE
  5
15DC
102
{ACAD_REACTORS
330
15EC
102
}
330
A
100
AcDbEntity
  8
AM_0
  6
ByBlock
 62
     0
370
    15
100
AcDbLine
 10
219.3911228567191
 20
112.0290296638692
 30
0.0
 11
216.208310419096
 21
108.0017975999381
 31
0.0
  0
LINE
  5
15DD
330
A
100
AcDbEntity
  8
AM_0
  6
ByBlock
 62
     0
370
    15
100
AcDbLine
 10
219.0330923351987
 20
112.3119892695869
 30
0.0
 11
215.8502798975756
 21
108.2847572056558
 31
0.0
  0
ARC
  5
15DE
330
A
100
AcDbEntity
  8
0
  6
ByBlock
 62
     0
370
     9
100
AcDbCircle
 10
201.1284391606519
 20
94.36514491623346
 30
0.0
 40
5.75
100
AcDbArc
 50
21.16964865712232
 51
82.19012346932242
  0
ARC
  5
15DF
102
{ACAD_REACTORS
330
15EC
102
}
330
A
100
AcDbEntity
  8
0
  6
ByBlock
 62
     0
370
     9
100
AcDbCircle
 10
211.8552901804043
 20
98.5244725888561
 30
0.0
 40
5.756742341960332
100
AcDbArc
 50
200.2011735286922
 51
259.8282130220447
  0
ARC
  5
15E0
330
A
100
AcDbEntity
  8
0
  6
ByBlock
 62
     0
370
     9
100
AcDbCircle
 10
199.9927061179894
 20
92.92809494388497
 30
0.0
 40
5.75
100
AcDbArc
 50
21.16964865712232
 51
82.19012346932298
  0
ARC
  5
15E1
102
{ACAD_REACTORS
330
15EC
102
}
330
A
100
AcDbEntity
  8
0
  6
ByBlock
 62
     0
370
     9
100
AcDbCircle
 10
210.7166313100378
 20
97.0810972886169
 30
0.0
 40
5.75
100
AcDbArc
 50
201.1696486571233
 51
259.8457782948
  0
LINE
  5
15E2
330
A
100
AcDbEntity
  8
AM_5
  6
ByBlock
 62
     0
370
    15
100
AcDbLine
 10
192.1928447333046
 20
79.07158356395219
 30
0.0
 11
205.1513185136176
 21
95.46801977577884
 31
0.0
  0
LINE
  5
15E3
102
{ACAD_REACTORS
330
15EC
102
}
330
A
100
AcDbEntity
  8
AM_5
  6
ByBlock
 62
     0
370
    15
100
AcDbLine
 10
192.5484289185017
 20
78.79055735307058
 30
0.0
 11
205.3573296968038
 21
94.99773792969977
 31
0.0
  0
LINE
  5
15E4
102
{ACAD_REACTORS
330
15EC
102
}
330
A
100
AcDbEntity
  8
AM_0
  6
ByBlock
 62
     0
370
    15
100
AcDbLine
 10
192.9014852224748
 20
78.51152898380154
 30
0.0
 11
205.5626530239828
 21
94.53178212040541
 31
0.0
  0
LINE
  5
15E5
330
A
100
AcDbEntity
  8
AM_0
  6
ByBlock
 62
     0
370
    15
100
AcDbLine
 10
192.5434547009544
 20
78.79448858951928
 30
0.0
 11
205.3546687140145
 21
95.00459611625026
 31
0.0
  0
LINE
  5
15E6
102
{ACAD_REACTORS
330
15EC
102
}
330
A
100
AcDbEntity
  8
0
  6
ByBlock
 62
     0
370
    15
100
AcDbLine
 10
192.9014852224748
 20
78.51152898380154
 30
0.0
 11
192.5484289185017
 21
78.79055735307058
 31
0.0
  0
LINE
  5
15E7
330
A
100
AcDbEntity
  8
0
  6
ByBlock
 62
     0
370
    15
100
AcDbLine
 10
192.5434547009544
 20
78.79448858951928
 30
0.0
 11
192.1928447333046
 21
79.07158356395219
 31
0.0
  0
LINE
  5
15E8
102
{ACAD_REACTORS
330
15EC
102
}
330
A
100
AcDbEntity
  8
AM_0
  6
ByBlock
 62
     0
370
    15
100
AcDbLine
 10
206.6974849423598
 20
95.96769189467851
 30
0.0
 11
216.208310419096
 21
108.0017975999381
 31
0.0
  0
LINE
  5
15E9
102
{ACAD_REACTORS
330
15EC
102
}
330
A
100
AcDbEntity
  8
AM_5
  6
ByBlock
 62
     0
370
    15
100
AcDbLine
 10
206.4918253922724
 20
96.43322227906829
 30
0.0
 11
215.8552541151229
 21
108.2808259692072
 31
0.0
  0
LINE
  5
15EA
330
A
100
AcDbEntity
  8
AM_0
  6
ByBlock
 62
     0
370
    15
100
AcDbLine
 10
206.4891590319188
 20
96.44007366135392
 30
0.0
 11
215.8502798975756
 21
108.2847572056558
 31
0.0
  0
LINE
  5
15EB
330
A
100
AcDbEntity
  8
AM_5
  6
ByBlock
 62
     0
370
    15
100
AcDbLine
 10
206.2870515562801
 20
96.9050697481274
 30
0.0
 11
215.4996699299258
 21
108.5618521800887
 31
0.0
  0
HATCH
  5
15EC
330
A
100
AcDbEntity
  8
0
  6
Continuous
 62
     0
100
AcDbHatch
 10
0.0
 20
0.0
 30
0.0
210
0.0
220
0.0
230
1.0
  2
SOLID
 70
     1
 71
     0
 91
        5
 92
        7
 72
     1
 73
     1
 93
        4
 10
192.9014852224748
 20
78.51152898380153
 42
0.0
 10
205.5626530239828
 20
94.53178212040544
 42
-0.0221494726780301
 10
205.3573296968038
 20
94.9977379296998
 42
0.0
 10
192.5484289185017
 20
78.79055735307058
 42
0.0
 97
        0
 92
        5
 93
       10
 72
     4
 94
        3
 73
     0
 74
     0
 95
        8
 96
        4
 40
6.64967202101233
 40
6.64967202101233
 40
6.64967202101233
 40
6.64967202101233
 40
7.0
 40
7.0
 40
7.0
 40
7.0
 10
219.3911228567175
 20
112.0290296638673
 10
221.0753384731834
 20
114.109798604877
 10
222.5170548885881
 20
115.8825839556669
 10
222.9666991562065
 20
116.4123003641171
 97
        0
 72
     4
 94
        3
 73
     0
 74
     0
 95
        8
 96
        4
 40
8.0
 40
8.0
 40
8.0
 40
8.0
 40
8.147586193828293
 40
8.147586193828293
 40
8.147586193828293
 40
8.147586193828293
 10
222.9666991562065
 20
116.4123003641171
 10
223.0132986577672
 20
116.4633499388901
 10
223.0648693901991
 20
116.5122544373939
 10
223.120747270613
 20
116.5593622487854
 97
        0
 72
     1
 10
223.1207476161532
 20
116.5593618387757
 11
222.7559209421099
 21
116.8476925972938
 72
     4
 94
        3
 73
     0
 74
     0
 95
        8
 96
        4
 40
2.893781532561406
 40
2.893781532561406
 40
2.893781532561406
 40
2.893781532561406
 40
3.0
 40
3.0
 40
3.0
 40
3.0
 10
222.7559205328147
 20
116.8476930444083
 10
222.711266166858
 20
116.8067915331787
 10
222.6687414613198
 20
116.7644135369382
 10
222.6285688940031
 20
116.7203698075816
 97
        0
 72
     4
 94
        3
 73
     0
 74
     0
 95
        8
 96
        4
 40
4.0
 40
4.0
 40
4.0
 40
4.0
 40
4.351579291385936
 40
4.351579291385936
 40
4.351579291385936
 40
4.351579291385936
 10
222.6285688940031
 20
116.7203698075816
 10
222.1773761920596
 20
116.1884435641787
 10
220.7270803342718
 20
114.4049140645182
 10
219.0372279089545
 20
112.3069968920143
 97
        0
 72
     1
 10
219.0372279089531
 20
112.3069968920126
 11
215.8552541151229
 21
108.2808259692072
 72
     1
 10
215.8552541151229
 20
108.2808259692072
 11
206.4918253922723
 21
96.43322227906825
 72
     2
 10
211.8552901804451
 20
98.52447258887383
 40
5.756742342004766
 50
201.3011384468238
 51
206.3681199433325
 73
     1
 72
     1
 10
206.6974849423597
 20
95.9676918946785
 11
216.208310419096
 21
108.0017975999381
 72
     1
 10
216.208310419096
 20
108.0017975999381
 11
219.3911228567192
 21
112.0290296638694
 97
        0
 92
        5
 93
        6
 72
     4
 94
        3
 73
     0
 74
     0
 95
        8
 96
        4
 40
8.147586193828293
 40
8.147586193828293
 40
8.147586193828293
 40
8.147586193828293
 40
9.0
 40
9.0
 40
9.0
 40
9.0
 10
223.120747270613
 20
116.5593622487854
 10
223.4434812302673
 20
116.8314429073277
 10
223.9098961688461
 20
117.0435883687963
 10
224.3920431977869
 20
117.2629227921248
 97
        0
 72
     4
 94
        3
 73
     0
 74
     0
 95
        8
 96
        4
 40
9.0
 40
9.0
 40
9.0
 40
9.0
 40
9.31284259330857
 40
9.31284259330857
 40
9.31284259330857
 40
9.31284259330857
 10
224.3920431977869
 20
117.2629227921248
 10
224.614008923609
 20
117.3639616139769
 10
224.8390361825756
 20
117.4664272028606
 10
225.0578091473772
 20
117.5776619002983
 97
        0
 72
     1
 10
225.0578090655308
 20
117.5776620610586
 11
224.6605647264174
 21
117.8916132322934
 72
     4
 94
        3
 73
     0
 74
     0
 95
        8
 96
        4
 40
1.768890347176806
 40
1.768890347176806
 40
1.768890347176806
 40
1.768890347176806
 40
2.0
 40
2.0
 40
2.0
 40
2.0
 10
224.6605649139313
 20
117.8916128427725
 10
224.5090604812236
 20
117.8186461084564
 10
224.3552247517412
 20
117.7486228786189
 10
224.2029811156947
 20
117.6793232217761
 97
        0
 72
     4
 94
        3
 73
     0
 74
     0
 95
        8
 96
        4
 40
2.0
 40
2.0
 40
2.0
 40
2.0
 40
2.893781532561406
 40
2.893781532561406
 40
2.893781532561406
 40
2.893781532561406
 10
224.2029811156947
 20
117.6793232217761
 10
223.6582042797605
 20
117.4314871573734
 10
223.1316673177449
 20
117.1918612128301
 10
222.7559205328147
 20
116.8476930444083
 97
        0
 72
     1
 10
222.7559209421099
 20
116.8476925972938
 11
223.1207476161532
 21
116.5593618387757
 97
        0
 92
        5
 93
        6
 72
     1
 10
226.3101658206111
 20
118.515371896315
 11
227.232671805306
 21
119.6826243667453
 72
     1
 10
227.232671805306
 20
119.6826243667453
 11
226.8733239367214
 21
119.9666251015945
 72
     1
 10
226.8733239367214
 20
119.9666251015945
 11
225.9508179520228
 21
118.7993726311596
 72
     4
 94
        3
 73
     0
 74
     0
 95
        8
 96
        4
 40
1.0
 40
1.0
 40
1.0
 40
1.0
 40
1.768890347176806
 40
1.768890347176806
 40
1.768890347176806
 40
1.768890347176806
 10
225.9508179520264
 20
118.7993726311642
 10
225.6428561849852
 20
118.4097067218468
 10
225.1646126438313
 20
118.1343695471994
 10
224.6605649139313
 20
117.8916128427725
 97
        0
 72
     1
 10
224.6605647264174
 20
117.8916132322934
 11
225.0578090655308
 21
117.5776620610586
 72
     4
 94
        3
 73
     0
 74
     0
 95
        8
 96
        4
 40
9.31284259330857
 40
9.31284259330857
 40
9.31284259330857
 40
9.31284259330857
 40
10.0
 40
10.0
 40
10.0
 40
10.0
 10
225.0578091473772
 20
117.5776619002983
 10
225.5383430208417
 20
117.8219884333865
 10
225.9887024685827
 20
118.1086223488505
 10
226.3101658206111
 20
118.515371896315
 97
        0
 97
        0
 92
        7
 72
     1
 73
     1
 93
        4
 10
227.232671805306
 20
119.6826243667453
 42
0.0
 10
234.238892705863
 20
128.54763856745
 42
-0.2124703587664771
 10
233.8928539611117
 20
128.8484794181699
 42
0.0
 10
226.8733239367214
 20
119.9666251015945
 42
0.0
 97
        0
 75
     0
 76
     1
 47
0.0
 98
        5
 10
202.6724930395607
 20
91.34738345672562
 10
221.5880244739347
 20
115.0041010920932
 10
223.6178025623319
 20
116.8938944847388
 10
226.1629788487234
 20
118.5482590708933
 10
227.2764934740196
 20
120.2344383606276
1001
ACAD
1010
0.0
1020
0.0
1030
0.0
  0
SPLINE
  5
15ED
330
A
100
AcDbEntity
  8
CONT_M_3
  6
ByBlock
 62
     0
370
    15
100
AcDbSpline
210
0.0
220
0.0
230
1.0
 70
     8
 71
     3
 72
     8
 73
     4
 74
     0
 42
0.000000001
 43
0.0000000001
 40
4.0
 40
4.0
 40
4.0
 40
4.0
 40
4.363594220573855
 40
4.363594220573855
 40
4.363594220573855
 40
4.363594220573855
 10
222.0763661926495
 20
117.3662447317279
 30
0.0
 10
221.859330285323
 20
116.7945615571353
 30
0.0
 10
220.4232725251
 20
114.842808858455
 30
0.0
 10
218.6824823675489
 20
112.5890842440198
 30
0.0
  0
SPLINE
  5
15EE
330
A
100
AcDbEntity
  8
AM_0
  6
ByBlock
 62
     0
370
    15
100
AcDbSpline
210
0.0
220
0.0
230
1.0
 70
     8
 71
     3
 72
     8
 73
     4
 74
     0
 42
0.000000001
 43
0.0000000001
 40
6.63465952055413
 40
6.63465952055413
 40
6.63465952055413
 40
6.63465952055413
 40
7.0
 40
7.0
 40
7.0
 40
7.0
 10
219.0330923351987
 20
112.3119892695869
 30
0.0
 10
220.801346221466
 20
114.5934576211342
 30
0.0
 10
222.2645737760034
 20
116.5856707244427
 30
0.0
 10
222.5001908227666
 20
117.1924408420201
 30
0.0
  0
SPLINE
  5
15EF
330
A
100
AcDbEntity
  8
CONT_M_3
  6
ByBlock
 62
     0
370
    15
100
AcDbSpline
210
0.0
220
0.0
230
1.0
 70
     8
 71
     3
 72
     8
 73
     4
 74
     0
 42
0.000000001
 43
0.0000000001
 40
4.0
 40
4.0
 40
4.0
 40
4.0
 40
4.363594220573855
 40
4.363594220573855
 40
4.363594220573855
 40
4.363594220573855
 10
222.0763661926495
 20
117.3662447317279
 30
0.0
 10
221.859330285323
 20
116.7945615571353
 30
0.0
 10
220.4232725251
 20
114.842808858455
 30
0.0
 10
218.6824823675489
 20
112.5890842440198
 30
0.0
  0
SPLINE
  5
15F0
330
A
100
AcDbEntity
  8
CONT_M_3
  6
ByBlock
 62
     0
370
    15
100
AcDbSpline
210
0.0
220
0.0
230
1.0
 70
     8
 71
     3
 72
     8
 73
     4
 74
     0
 42
0.000000001
 43
0.0000000001
 40
6.63465952055413
 40
6.63465952055413
 40
6.63465952055413
 40
6.63465952055413
 40
7.0
 40
7.0
 40
7.0
 40
7.0
 10
219.0330923351987
 20
112.3119892695869
 30
0.0
 10
220.801346221466
 20
114.5934576211342
 30
0.0
 10
222.2645737760034
 20
116.5856707244427
 30
0.0
 10
222.5001908227666
 20
117.1924408420201
 30
0.0
  0
SPLINE
  5
15F1
330
A
100
AcDbEntity
  8
CONT_M_3
  6
ByBlock
 62
     0
370
    15
100
AcDbSpline
210
0.0
220
0.0
230
1.0
 70
     8
 71
     3
 72
     8
 73
     4
 74
     0
 42
0.000000001
 43
0.0000000001
 40
4.0
 40
4.0
 40
4.0
 40
4.0
 40
4.351579291385936
 40
4.351579291385936
 40
4.351579291385936
 40
4.351579291385936
 10
222.6285688940031
 20
116.7203698075816
 30
0.0
 10
222.1773761920596
 20
116.1884435641787
 30
0.0
 10
220.7270803342718
 20
114.4049140645182
 30
0.0
 10
219.0372279089545
 20
112.3069968920143
 30
0.0
  0
SPLINE
  5
15F2
102
{ACAD_REACTORS
330
15EC
102
}
330
A
100
AcDbEntity
  8
AM_0
  6
ByBlock
 62
     0
370
    15
100
AcDbSpline
210
0.0
220
0.0
230
1.0
 70
     8
 71
     3
 72
     8
 73
     4
 74
     0
 42
0.000000001
 43
0.0000000001
 40
6.64967202101233
 40
6.64967202101233
 40
6.64967202101233
 40
6.64967202101233
 40
7.0
 40
7.0
 40
7.0
 40
7.0
 10
219.3911228567175
 20
112.0290296638673
 30
0.0
 10
221.0753384731834
 20
114.109798604877
 30
0.0
 10
222.5170548885881
 20
115.8825839556669
 30
0.0
 10
222.9666991562065
 20
116.4123003641171
 30
0.0
  0
SPLINE
  5
15F3
102
{ACAD_REACTORS
330
15EC
102
}
330
A
100
AcDbEntity
  8
AM_0
  6
ByBlock
 62
     0
370
    15
100
AcDbSpline
210
0.0
220
0.0
230
1.0
 70
     8
 71
     3
 72
     8
 73
     4
 74
     0
 42
0.000000001
 43
0.0000000001
 40
4.0
 40
4.0
 40
4.0
 40
4.0
 40
4.351579291385936
 40
4.351579291385936
 40
4.351579291385936
 40
4.351579291385936
 10
222.6285688940031
 20
116.7203698075816
 30
0.0
 10
222.1773761920596
 20
116.1884435641787
 30
0.0
 10
220.7270803342718
 20
114.4049140645182
 30
0.0
 10
219.0372279089545
 20
112.3069968920143
 30
0.0
  0
SPLINE
  5
15F4
330
A
100
AcDbEntity
  8
AM_0
  6
ByBlock
 62
     0
370
    15
100
AcDbSpline
210
0.0
220
0.0
230
1.0
 70
     8
 71
     3
 72
     8
 73
     4
 74
     0
 42
0.000000001
 43
0.0000000001
 40
6.64967202101233
 40
6.64967202101233
 40
6.64967202101233
 40
6.64967202101233
 40
7.0
 40
7.0
 40
7.0
 40
7.0
 10
219.3911228567175
 20
112.0290296638673
 30
0.0
 10
221.0753384731834
 20
114.109798604877
 30
0.0
 10
222.5170548885881
 20
115.8825839556669
 30
0.0
 10
222.9666991562065
 20
116.4123003641171
 30
0.0
  0
LINE
  5
15F5
330
A
100
AcDbEntity
  8
AM_0
  6
ByBlock
 62
     0
370
    15
100
AcDbLine
 10
234.5646269569385
 20
128.9597921096272
 30
0.0
 11
234.2052790883538
 21
129.2437928444763
 31
0.0
  0
LINE
  5
15F6
102
{ACAD_REACTORS
330
15EC
102
}
330
A
100
AcDbEntity
  8
AM_0
  6
ByBlock
 62
     0
370
    15
100
AcDbLine
 10
226.3101658206111
 20
118.515371896315
 30
0.0
 11
234.5646269569385
 21
128.9597921096272
 31
0.0
  0
LINE
  5
15F7
330
A
100
AcDbEntity
  8
AM_0
  6
ByBlock
 62
     0
370
    15
100
AcDbLine
 10
234.5646269569385
 20
128.9597921096272
 30
0.0
 11
234.2052790883538
 21
129.2437928444763
 31
0.0
  0
LINE
  5
15F8
102
{ACAD_REACTORS
330
15EC
102
}
330
A
100
AcDbEntity
  8
AM_0
  6
ByBlock
 62
     0
370
    15
100
AcDbLine
 10
234.2052790883538
 20
129.2437928444763
 30
0.0
 11
225.950817952027
 21
118.7993726311649
 31
0.0
  0
LINE
  5
15F9
330
A
100
AcDbEntity
  8
CONT_M_3
  6
ByBlock
 62
     0
370
    15
100
AcDbLine
 10
231.7757955857035
 20
131.1638685159257
 30
0.0
 11
231.4161774291396
 21
131.4480828654683
 31
0.0
  0
SOLID
  5
15FA
330
A
100
AcDbEntity
  8
AM_0
  6
ByBlock
 62
     0
370
    15
100
AcDbTrace
 10
231.692388054274
 20
131.2297873714104
 30
0.0
 11
231.4161774291395
 21
131.4480828654683
 31
0.0
 12
231.7503376856445
 22
131.1316564791162
 32
0.0
 13
231.7503376856445
 23
131.1316564791162
 33
0.0
  0
SOLID
  5
15FB
330
A
100
AcDbEntity
  8
AM_0
  6
ByBlock
 62
     0
370
    15
100
AcDbTrace
 10
231.7503376856445
 20
131.1316564791162
 30
0.0
 11
231.4161774291395
 21
131.4480828654683
 31
0.0
 12
231.3907195290804
 22
131.4158708286587
 32
0.0
 13
231.3907195290804
 23
131.4158708286587
 33
0.0
  0
LINE
  5
15FC
330
A
100
AcDbEntity
  8
CONT_M_3
  6
ByBlock
 62
     0
370
    15
100
AcDbLine
 10
223.5213344493778
 20
120.7194483026154
 30
0.0
 11
231.7757955857035
 21
131.1638685159257
 31
0.0
  0
LINE
  5
15FD
330
A
100
AcDbEntity
  8
CONT_M_3
  6
ByBlock
 62
     0
370
    15
100
AcDbLine
 10
231.7757955857035
 20
131.1638685159257
 30
0.0
 11
231.4161774291396
 21
131.4480828654683
 31
0.0
  0
LINE
  5
15FE
330
A
100
AcDbEntity
  8
CONT_M_3
  6
ByBlock
 62
     0
370
    15
100
AcDbLine
 10
231.4161774291396
 20
131.4480828654683
 30
0.0
 11
223.1617162928137
 21
121.003662652158
 31
0.0
  0
SOLID
  5
15FF
330
A
100
AcDbEntity
  8
AM_0
  6
ByBlock
 62
     0
370
    15
100
AcDbTrace
 10
231.692388054274
 20
131.2297873714104
 30
0.0
 11
231.4161774291395
 21
131.4480828654683
 31
0.0
 12
231.7503376856445
 22
131.1316564791162
 32
0.0
 13
231.7503376856445
 23
131.1316564791162
 33
0.0
  0
SOLID
  5
1600
330
A
100
AcDbEntity
  8
AM_0
  6
ByBlock
 62
     0
370
    15
100
AcDbTrace
 10
231.7503376856445
 20
131.1316564791162
 30
0.0
 11
231.4161774291395
 21
131.4480828654683
 31
0.0
 12
231.3907195290804
 22
131.4158708286587
 32
0.0
 13
231.3907195290804
 23
131.4158708286587
 33
0.0
  0
SPLINE
  5
1601
330
A
100
AcDbEntity
  8
CONT_M_3
  6
ByBlock
 62
     0
370
    15
100
AcDbSpline
210
0.0
220
0.0
230
1.0
 70
     8
 71
     3
 72
     8
 73
     4
 74
     0
 42
0.000000001
 43
0.0000000001
 40
1.0
 40
1.0
 40
1.0
 40
1.0
 40
2.0
 40
2.0
 40
2.0
 40
2.0
 10
223.1617162928137
 20
121.003662652158
 30
0.0
 10
222.5945692818888
 20
120.2860480669062
 30
0.0
 10
222.4527945177375
 20
119.3332480637261
 30
0.0
 10
222.3307856519488
 20
118.513246648092
 30
0.0
  0
SPLINE
  5
1602
330
A
100
AcDbEntity
  8
CONT_M_3
  6
ByBlock
 62
     0
370
    15
100
AcDbSpline
210
0.0
220
0.0
230
1.0
 70
     8
 71
     3
 72
     8
 73
     4
 74
     0
 42
0.000000001
 43
0.0000000001
 40
2.0
 40
2.0
 40
2.0
 40
2.0
 40
3.0
 40
3.0
 40
3.0
 40
3.0
 10
222.3307856519488
 20
118.513246648092
 30
0.0
 10
222.2634970235341
 20
118.060568776176
 30
0.0
 10
222.2026778686903
 20
117.6510803076748
 30
0.0
 10
222.0813251051742
 20
117.3783531972558
 30
0.0
  0
SPLINE
  5
1603
330
A
100
AcDbEntity
  8
CONT_M_3
  6
ByBlock
 62
     0
370
    15
100
AcDbSpline
210
0.0
220
0.0
230
1.0
 70
     8
 71
     3
 72
     8
 73
     4
 74
     0
 42
0.000000001
 43
0.0000000001
 40
7.0
 40
7.0
 40
7.0
 40
7.0
 40
8.0
 40
8.0
 40
8.0
 40
8.0
 10
222.5001908227666
 20
117.1924408420201
 30
0.0
 10
222.6465779205017
 20
117.5215687707167
 30
0.0
 10
222.7114470355527
 20
117.9603507888541
 30
0.0
 10
222.7836836777836
 20
118.4451253583214
 30
0.0
  0
SPLINE
  5
1604
330
A
100
AcDbEntity
  8
CONT_M_3
  6
ByBlock
 62
     0
370
    15
100
AcDbSpline
210
0.0
220
0.0
230
1.0
 70
     8
 71
     3
 72
     8
 73
     4
 74
     0
 42
0.000000001
 43
0.0000000001
 40
8.0
 40
8.0
 40
8.0
 40
8.0
 40
9.0
 40
9.0
 40
9.0
 40
9.0
 10
222.7836836777836
 20
118.4451253583214
 30
0.0
 10
222.8974945347781
 20
119.2094714273628
 30
0.0
 10
223.0295934252161
 20
120.0972453740845
 30
0.0
 10
223.5213344493777
 20
120.7194483026155
 30
0.0
  0
SPLINE
  5
1605
330
A
100
AcDbEntity
  8
CONT_M_3
  6
ByBlock
 62
     0
370
    15
100
AcDbSpline
210
0.0
220
0.0
230
1.0
 70
     8
 71
     3
 72
     8
 73
     4
 74
     0
 42
0.000000001
 43
0.0000000001
 40
1.0
 40
1.0
 40
1.0
 40
1.0
 40
2.0
 40
2.0
 40
2.0
 40
2.0
 10
223.1617162928137
 20
121.003662652158
 30
0.0
 10
222.5945692818888
 20
120.2860480669062
 30
0.0
 10
222.4527945177375
 20
119.3332480637261
 30
0.0
 10
222.3307856519488
 20
118.513246648092
 30
0.0
  0
SPLINE
  5
1606
330
A
100
AcDbEntity
  8
CONT_M_3
  6
ByBlock
 62
     0
370
    15
100
AcDbSpline
210
0.0
220
0.0
230
1.0
 70
     8
 71
     3
 72
     8
 73
     4
 74
     0
 42
0.000000001
 43
0.0000000001
 40
2.0
 40
2.0
 40
2.0
 40
2.0
 40
3.0
 40
3.0
 40
3.0
 40
3.0
 10
222.3307856519488
 20
118.513246648092
 30
0.0
 10
222.2634970235341
 20
118.060568776176
 30
0.0
 10
222.2026778686903
 20
117.6510803076748
 30
0.0
 10
222.0813251051742
 20
117.3783531972558
 30
0.0
  0
SPLINE
  5
1607
330
A
100
AcDbEntity
  8
CONT_M_3
  6
ByBlock
 62
     0
370
    15
100
AcDbSpline
210
0.0
220
0.0
230
1.0
 70
     8
 71
     3
 72
     8
 73
     4
 74
     0
 42
0.000000001
 43
0.0000000001
 40
7.0
 40
7.0
 40
7.0
 40
7.0
 40
8.0
 40
8.0
 40
8.0
 40
8.0
 10
222.5001908227666
 20
117.1924408420201
 30
0.0
 10
222.6465779205017
 20
117.5215687707167
 30
0.0
 10
222.7114470355527
 20
117.9603507888541
 30
0.0
 10
222.7836836777836
 20
118.4451253583214
 30
0.0
  0
SPLINE
  5
1608
330
A
100
AcDbEntity
  8
CONT_M_3
  6
ByBlock
 62
     0
370
    15
100
AcDbSpline
210
0.0
220
0.0
230
1.0
 70
     8
 71
     3
 72
     8
 73
     4
 74
     0
 42
0.000000001
 43
0.0000000001
 40
8.0
 40
8.0
 40
8.0
 40
8.0
 40
9.0
 40
9.0
 40
9.0
 40
9.0
 10
222.7836836777836
 20
118.4451253583214
 30
0.0
 10
222.8974945347781
 20
119.2094714273628
 30
0.0
 10
223.0295934252161
 20
120.0972453740845
 30
0.0
 10
223.5213344493777
 20
120.7194483026155
 30
0.0
  0
SPLINE
  5
1609
102
{ACAD_REACTORS
330
15EC
102
}
330
A
100
AcDbEntity
  8
AM_0
  6
ByBlock
 62
     0
370
    15
100
AcDbSpline
210
0.0
220
0.0
230
1.0
 70
     8
 71
     3
 72
     8
 73
     4
 74
     0
 42
0.000000001
 43
0.0000000001
 40
2.0
 40
2.0
 40
2.0
 40
2.0
 40
3.0
 40
3.0
 40
3.0
 40
3.0
 10
224.2029811156947
 20
117.6793232217761
 30
0.0
 10
223.5934621045187
 20
117.4020339118343
 30
0.0
 10
223.0067758883748
 20
117.1350220843341
 30
0.0
 10
222.6285688940031
 20
116.7203698075816
 30
0.0
  0
SPLINE
  5
160A
102
{ACAD_REACTORS
330
15EC
102
}
330
A
100
AcDbEntity
  8
AM_0
  6
ByBlock
 62
     0
370
    15
100
AcDbSpline
210
0.0
220
0.0
230
1.0
 70
     8
 71
     3
 72
     8
 73
     4
 74
     0
 42
0.000000001
 43
0.0000000001
 40
8.0
 40
8.0
 40
8.0
 40
8.0
 40
9.0
 40
9.0
 40
9.0
 40
9.0
 10
222.9666991562065
 20
116.4123003641171
 30
0.0
 10
223.2824434704403
 20
116.7581970462442
 30
0.0
 10
223.8264176466169
 20
117.0056129952393
 30
0.0
 10
224.3920431977869
 20
117.2629227921248
 30
0.0
  0
SPLINE
  5
160B
102
{ACAD_REACTORS
330
15EC
102
}
330
A
100
AcDbEntity
  8
AM_0
  6
ByBlock
 62
     0
370
    15
100
AcDbSpline
210
0.0
220
0.0
230
1.0
 70
     8
 71
     3
 72
     8
 73
     4
 74
     0
 42
0.000000001
 43
0.0000000001
 40
2.0
 40
2.0
 40
2.0
 40
2.0
 40
3.0
 40
3.0
 40
3.0
 40
3.0
 10
224.2029811156947
 20
117.6793232217761
 30
0.0
 10
223.5934621045187
 20
117.4020339118343
 30
0.0
 10
223.0067758883748
 20
117.1350220843341
 30
0.0
 10
222.6285688940031
 20
116.7203698075816
 30
0.0
  0
SPLINE
  5
160C
102
{ACAD_REACTORS
330
15EC
102
}
330
A
100
AcDbEntity
  8
AM_0
  6
ByBlock
 62
     0
370
    15
100
AcDbSpline
210
0.0
220
0.0
230
1.0
 70
     8
 71
     3
 72
     8
 73
     4
 74
     0
 42
0.000000001
 43
0.0000000001
 40
8.0
 40
8.0
 40
8.0
 40
8.0
 40
9.0
 40
9.0
 40
9.0
 40
9.0
 10
222.9666991562065
 20
116.4123003641171
 30
0.0
 10
223.2824434704403
 20
116.7581970462442
 30
0.0
 10
223.8264176466169
 20
117.0056129952393
 30
0.0
 10
224.3920431977869
 20
117.2629227921248
 30
0.0
  0
SPLINE
  5
160D
102
{ACAD_REACTORS
330
15EC
102
}
330
A
100
AcDbEntity
  8
AM_0
  6
ByBlock
 62
     0
370
    15
100
AcDbSpline
210
0.0
220
0.0
230
1.0
 70
     8
 71
     3
 72
     8
 73
     4
 74
     0
 42
0.000000001
 43
0.0000000001
 40
1.0
 40
1.0
 40
1.0
 40
1.0
 40
2.0
 40
2.0
 40
2.0
 40
2.0
 10
225.9508179520264
 20
118.7993726311642
 30
0.0
 10
225.5502904019382
 20
118.2925826698282
 30
0.0
 10
224.8617317744697
 20
117.9791793982544
 30
0.0
 10
224.2029811156947
 20
117.6793232217761
 30
0.0
  0
SPLINE
  5
160E
102
{ACAD_REACTORS
330
15EC
102
}
330
A
100
AcDbEntity
  8
AM_0
  6
ByBlock
 62
     0
370
    15
100
AcDbSpline
210
0.0
220
0.0
230
1.0
 70
     8
 71
     3
 72
     8
 73
     4
 74
     0
 42
0.000000001
 43
0.0000000001
 40
9.0
 40
9.0
 40
9.0
 40
9.0
 40
10.0
 40
10.0
 40
10.0
 40
10.0
 10
224.3920431977869
 20
117.2629227921248
 30
0.0
 10
225.1015556828826
 20
117.5858929503235
 30
0.0
 10
225.8423496421081
 20
117.9234412214745
 30
0.0
 10
226.3101658206111
 20
118.515371896315
 30
0.0
  0
SPLINE
  5
160F
102
{ACAD_REACTORS
330
15EC
102
}
330
A
100
AcDbEntity
  8
AM_0
  6
ByBlock
 62
     0
370
    15
100
AcDbSpline
210
0.0
220
0.0
230
1.0
 70
     8
 71
     3
 72
     8
 73
     4
 74
     0
 42
0.000000001
 43
0.0000000001
 40
9.0
 40
9.0
 40
9.0
 40
9.0
 40
10.0
 40
10.0
 40
10.0
 40
10.0
 10
224.3920431977869
 20
117.2629227921248
 30
0.0
 10
225.1015556828826
 20
117.5858929503235
 30
0.0
 10
225.8423496421081
 20
117.9234412214745
 30
0.0
 10
226.3101658206111
 20
118.515371896315
 30
0.0
  0
ENDSEC
  0
SECTION
  2
OBJECTS
  0
DICTIONARY
  5
19
330
0
100
AcDbDictionary
281
     1
  3
ACAD_COLOR
350
4ED
  3
ACAD_DETAILVIEWSTYLE
350
4CD
  3
ACAD_GROUP
350
1A
  3
ACAD_IMAGE_VARS
350
4C7
  3
ACAD_LAYOUT
350
4A1
  3
ACAD_MATERIAL
350
4BD
  3
ACAD_MLEADERSTYLE
350
4C3
  3
ACAD_MLINESTYLE
350
1B
  3
ACAD_PLOTSETTINGS
350
47C
  3
ACAD_PLOTSTYLENAME
350
47D
  3
ACAD_SCALELIST
350
47F
  3
ACAD_SECTIONVIEWSTYLE
350
4CE
  3
ACAD_TABLESTYLE
350
4C1
  3
ACAD_VISUALSTYLE
350
4A4
  3
ACDB_RECOMPOSE_DATA
350
1615
  3
AcDbVariableDictionary
350
4C8
  3
APPDATA
350
4C5
  0
SUN
  5
4C6
330
15
100
AcDbSun
 90
        1
290
     0
 63
     7
421
 16777215
 40
1.0
291
     1
 91
  2455826
 92
 54000000
292
     0
 70
     2
 71
   256
280
     1
  0
DICTIONARY
  5
8B2
330
2
100
AcDbDictionary
280
     1
281
     1
  3
ACAD_LAYERSTATES
360
8B3
  0
DICTIONARY
  5
4ED
102
{ACAD_REACTORS
330
19
102
}
330
19
100
AcDbDictionary
281
     1
  0
DICTIONARY
  5
4CD
102
{ACAD_REACTORS
330
19
102
}
330
19
100
AcDbDictionary
281
     1
  0
DICTIONARY
  5
1A
102
{ACAD_REACTORS
330
19
102
}
330
19
100
AcDbDictionary
281
     1
  0
RASTERVARIABLES
  5
4C7
102
{ACAD_REACTORS
330
19
102
}
330
19
100
AcDbRasterVariables
 90
        0
 70
     1
 71
     1
 72
     0
  0
DICTIONARY
  5
4A1
102
{ACAD_REACTORS
330
19
102
}
330
19
100
AcDbDictionary
281
     1
  3
Model
350
4A2
  3
シート 1
350
4A3
  0
DICTIONARY
  5
4BD
102
{ACAD_REACTORS
330
19
102
}
330
19
100
AcDbDictionary
281
     1
  3
ByBlock
350
4BF
  3
ByLayer
350
4BE
  3
Global
350
4C0
  0
DICTIONARY
  5
4C3
102
{ACAD_REACTORS
330
19
102
}
330
19
100
AcDbDictionary
281
     1
  3
Standard
350
4C4
  0
DICTIONARY
  5
1B
102
{ACAD_REACTORS
330
19
102
}
330
19
100
AcDbDictionary
281
     1
  3
STANDARD
350
1C
  0
DICTIONARY
  5
47C
102
{ACAD_REACTORS
330
19
102
}
330
19
100
AcDbDictionary
281
     1
  0
ACDBDICTIONARYWDFLT
  5
47D
102
{ACAD_REACTORS
330
19
102
}
330
19
100
AcDbDictionary
281
     1
  3
Normal
350
47E
100
AcDbDictionaryWithDefault
340
47E
  0
DICTIONARY
  5
47F
102
{ACAD_REACTORS
330
19
102
}
330
19
100
AcDbDictionary
281
     1
  3
A0
350
480
  3
A1
350
481
  3
A2
350
482
  3
A3
350
483
  3
A4
350
484
  3
A5
350
485
  3
A6
350
486
  3
A7
350
487
  3
A8
350
488
  3
A9
350
489
  3
B0
350
48A
  3
B1
350
48B
  3
B2
350
48C
  3
B3
350
48D
  3
B4
350
48E
  3
B5
350
48F
  3
B6
350
490
  3
B7
350
491
  3
B8
350
492
  3
B9
350
493
  3
C0
350
494
  3
C1
350
495
  3
C2
350
496
  3
C3
350
497
  3
C4
350
498
  3
C5
350
499
  3
C6
350
49A
  3
C7
350
49B
  3
C8
350
49C
  3
C9
350
49D
  3
D0
350
49E
  3
D1
350
49F
  3
D2
350
4A0
  0
DICTIONARY
  5
4CE
102
{ACAD_REACTORS
330
19
102
}
330
19
100
AcDbDictionary
281
     1
  0
DICTIONARY
  5
4C1
102
{ACAD_REACTORS
330
19
102
}
330
19
100
AcDbDictionary
281
     1
  3
Standard
350
4C2
  0
DICTIONARY
  5
4A4
102
{ACAD_REACTORS
330
19
102
}
330
19
100
AcDbDictionary
281
     1
  3
2dWireframe
350
4A9
  3
Basic
350
4AC
  3
Brighten
350
4B0
  3
ColorChange
350
4B4
  3
Conceptual
350
4AE
  3
Dim
350
4AF
  3
EdgeColorOff
350
4B7
  3
Facepattern
350
4B3
  3
Flat
350
4A5
  3
FlatWithEdges
350
4A6
  3
Gouraud
350
4A7
  3
GouraudWithEdges
350
4A8
  3
Hidden
350
4AB
  3
JitterOff
350
4B5
  3
Linepattern
350
4B2
  3
OverhangOff
350
4B6
  3
Realistic
350
4AD
  3
Shaded
350
4BC
  3
Shaded with edges
350
4BB
  3
Shades of Gray
350
4B8
  3
Sketchy
350
4B9
  3
Thicken
350
4B1
  3
Wireframe
350
4AA
  3
X-Ray
350
4BA
  0
XRECORD
  5
1615
102
{ACAD_REACTORS
330
19
102
}
330
19
100
AcDbXrecord
280
     1
 90
        1
330
4C2
  0
DICTIONARY
  5
4C8
102
{ACAD_REACTORS
330
19
102
}
330
19
100
AcDbDictionary
281
     1
  3
CANNOSCALE
350
4C9
  3
CMLEADERSTYLE
350
4CB
  3
CTABLESTYLE
350
4CA
  3
MSLTSCALE
350
4CC
  0
DICTIONARY
  5
4C5
102
{ACAD_REACTORS
330
19
102
}
330
19
100
AcDbDictionary
281
     1
  0
DICTIONARY
  5
8B3
102
{ACAD_REACTORS
330
8B2
102
}
330
8B2
100
AcDbDictionary
281
     1
  0
LAYOUT
  5
4A2
102
{ACAD_REACTORS
330
4A1
102
}
330
4A1
100
AcDbPlotSettings
  1

  2
none_device
  4
Letter_(8.50_x_11.00_Inches)
  6

 40
6.35
 41
6.35
 42
6.35
 43
6.35
 44
215.9
 45
279.4
 46
0.0
 47
0.0
 48
0.0
 49
0.0
140
0.0
141
0.0
142
1.0
143
0.4031746031746047
 70
  1712
 72
     0
 73
     0
 74
     0
  7

 75
     0
 76
     0
 77
     2
 78
   300
147
2.480314960629912
148
-6852.461001779714
149
-2029.036666666666
100
AcDbLayout
  1
Model
 70
     1
 71
     0
 10
0.0
 20
0.0
 11
0.0
 21
0.0
 12
0.0
 22
0.0
 32
0.0
 14
192.1928447333046
 24
75.64276805555556
 34
0.0
 15
332.723418112304
 25
255.989131302107
 35
0.0
146
0.0
 13
0.0
 23
0.0
 33
0.0
 16
1.0
 26
0.0
 36
0.0
 17
0.0
 27
1.0
 37
0.0
 76
     0
330
A
331
15
  0
LAYOUT
  5
4A3
102
{ACAD_REACTORS
330
4A1
102
}
330
4A1
100
AcDbPlotSettings
  1

  2
none_device
  4

  6

 40
0.0
 41
0.0
 42
0.0
 43
0.0
 44
0.0
 45
0.0
 46
0.0
 47
0.0
 48
0.0
 49
0.0
140
0.0
141
0.0
142
1.0
143
1.0
 70
   688
 72
     1
 73
     0
 74
     5
  7

 75
    16
 76
     0
 77
     2
 78
   300
147
1.0
148
0.0
149
0.0
100
AcDbLayout
  1
シート 1
 70
     0
 71
     1
 10
0.0
 20
0.0
 11
0.0
 21
0.0
 12
0.0
 22
0.0
 32
0.0
 14
1.000000000000000E+20
 24
1.000000000000000E+20
 34
1.000000000000000E+20
 15
-1.000000000000000E+20
 25
-1.000000000000000E+20
 35
-1.000000000000000E+20
146
0.0
 13
0.0
 23
0.0
 33
0.0
 16
1.0
 26
0.0
 36
0.0
 17
0.0
 27
1.0
 37
0.0
 76
     0
330
B
  0
MATERIAL
  5
4BF
102
{ACAD_REACTORS
330
4BD
102
}
330
4BD
100
AcDbMaterial
  1
ByBlock
 72
     1
 94
      127
  0
MATERIAL
  5
4BE
102
{ACAD_REACTORS
330
4BD
102
}
330
4BD
100
AcDbMaterial
  1
ByLayer
 72
     1
 94
      127
  0
MATERIAL
  5
4C0
102
{ACAD_REACTORS
330
4BD
102
}
330
4BD
100
AcDbMaterial
  1
Global
 72
     1
 94
      127
  0
MLEADERSTYLE
  5
4C4
102
{ACAD_REACTORS
330
4C3
102
}
330
4C3
100
AcDbMLeaderStyle
179
     2
170
     2
171
     1
172
     0
 90
        2
 40
0.0
 41
0.0
173
     1
 91
-1056964608
340
11
 92
       -2
290
     1
 42
2.0
291
     1
 43
8.0
  3
Standard
341
0
 44
4.0
300

342
17
174
     1
178
     1
175
     1
176
     0
 93
-1056964608
 45
4.0
292
     0
297
     0
 46
4.0
343
0
 94
-1056964608
 47
1.0
 49
1.0
140
1.0
293
     1
141
0.0
294
     1
177
     0
142
1.0
295
     0
296
     0
143
3.75
271
     0
272
     9
273
     9
298
     0
  0
MLINESTYLE
  5
1C
102
{ACAD_REACTORS
330
1B
102
}
330
1B
100
AcDbMlineStyle
  2
STANDARD
 70
     0
  3

 62
     0
 51
90.0
 52
90.0
 71
     2
 49
0.5
 62
   256
  6
BYLAYER
 49
-0.5
 62
   256
  6
BYLAYER
  0
ACDBPLACEHOLDER
  5
47E
102
{ACAD_REACTORS
330
47D
102
}
330
47D
  0
SCALE
  5
480
102
{ACAD_REACTORS
330
47F
102
}
330
47F
100
AcDbScale
 70
     0
300
1:1
140
1.0
141
1.0
290
     1
  0
SCALE
  5
481
102
{ACAD_REACTORS
330
47F
102
}
330
47F
100
AcDbScale
 70
     0
300
1:2
140
1.0
141
2.0
290
     0
  0
SCALE
  5
482
102
{ACAD_REACTORS
330
47F
102
}
330
47F
100
AcDbScale
 70
     0
300
1:4
140
1.0
141
4.0
290
     0
  0
SCALE
  5
483
102
{ACAD_REACTORS
330
47F
102
}
330
47F
100
AcDbScale
 70
     0
300
1:5
140
1.0
141
5.0
290
     0
  0
SCALE
  5
484
102
{ACAD_REACTORS
330
47F
102
}
330
47F
100
AcDbScale
 70
     0
300
1:8
140
1.0
141
8.0
290
     0
  0
SCALE
  5
485
102
{ACAD_REACTORS
330
47F
102
}
330
47F
100
AcDbScale
 70
     0
300
1:10
140
1.0
141
10.0
290
     0
  0
SCALE
  5
486
102
{ACAD_REACTORS
330
47F
102
}
330
47F
100
AcDbScale
 70
     0
300
1:16
140
1.0
141
16.0
290
     0
  0
SCALE
  5
487
102
{ACAD_REACTORS
330
47F
102
}
330
47F
100
AcDbScale
 70
     0
300
1:20
140
1.0
141
20.0
290
     0
  0
SCALE
  5
488
102
{ACAD_REACTORS
330
47F
102
}
330
47F
100
AcDbScale
 70
     0
300
1:30
140
1.0
141
30.0
290
     0
  0
SCALE
  5
489
102
{ACAD_REACTORS
330
47F
102
}
330
47F
100
AcDbScale
 70
     0
300
1:40
140
1.0
141
40.0
290
     0
  0
SCALE
  5
48A
102
{ACAD_REACTORS
330
47F
102
}
330
47F
100
AcDbScale
 70
     0
300
1:50
140
1.0
141
50.0
290
     0
  0
SCALE
  5
48B
102
{ACAD_REACTORS
330
47F
102
}
330
47F
100
AcDbScale
 70
     0
300
1:100
140
1.0
141
100.0
290
     0
  0
SCALE
  5
48C
102
{ACAD_REACTORS
330
47F
102
}
330
47F
100
AcDbScale
 70
     0
300
2:1
140
2.0
141
1.0
290
     0
  0
SCALE
  5
48D
102
{ACAD_REACTORS
330
47F
102
}
330
47F
100
AcDbScale
 70
     0
300
4:1
140
4.0
141
1.0
290
     0
  0
SCALE
  5
48E
102
{ACAD_REACTORS
330
47F
102
}
330
47F
100
AcDbScale
 70
     0
300
8:1
140
8.0
141
1.0
290
     0
  0
SCALE
  5
48F
102
{ACAD_REACTORS
330
47F
102
}
330
47F
100
AcDbScale
 70
     0
300
10:1
140
10.0
141
1.0
290
     0
  0
SCALE
  5
490
102
{ACAD_REACTORS
330
47F
102
}
330
47F
100
AcDbScale
 70
     0
300
100:1
140
100.0
141
1.0
290
     0
  0
SCALE
  5
491
102
{ACAD_REACTORS
330
47F
102
}
330
47F
100
AcDbScale
 70
     0
300
1/128" = 1'-0"
140
0.0078125
141
12.0
290
     0
  0
SCALE
  5
492
102
{ACAD_REACTORS
330
47F
102
}
330
47F
100
AcDbScale
 70
     0
300
1/64" = 1'-0"
140
0.015625
141
12.0
290
     0
  0
SCALE
  5
493
102
{ACAD_REACTORS
330
47F
102
}
330
47F
100
AcDbScale
 70
     0
300
1/32" = 1'-0"
140
0.03125
141
12.0
290
     0
  0
SCALE
  5
494
102
{ACAD_REACTORS
330
47F
102
}
330
47F
100
AcDbScale
 70
     0
300
1/16" = 1'-0"
140
0.0625
141
12.0
290
     0
  0
SCALE
  5
495
102
{ACAD_REACTORS
330
47F
102
}
330
47F
100
AcDbScale
 70
     0
300
3/32" = 1'-0"
140
0.09375
141
12.0
290
     0
  0
SCALE
  5
496
102
{ACAD_REACTORS
330
47F
102
}
330
47F
100
AcDbScale
 70
     0
300
1/8" = 1'-0"
140
0.125
141
12.0
290
     0
  0
SCALE
  5
497
102
{ACAD_REACTORS
330
47F
102
}
330
47F
100
AcDbScale
 70
     0
300
3/16" = 1'-0"
140
0.1875
141
12.0
290
     0
  0
SCALE
  5
498
102
{ACAD_REACTORS
330
47F
102
}
330
47F
100
AcDbScale
 70
     0
300
1/4" = 1'-0"
140
0.25
141
12.0
290
     0
  0
SCALE
  5
499
102
{ACAD_REACTORS
330
47F
102
}
330
47F
100
AcDbScale
 70
     0
300
3/8" = 1'-0"
140
0.375
141
12.0
290
     0
  0
SCALE
  5
49A
102
{ACAD_REACTORS
330
47F
102
}
330
47F
100
AcDbScale
 70
     0
300
1/2" = 1'-0"
140
0.5
141
12.0
290
     0
  0
SCALE
  5
49B
102
{ACAD_REACTORS
330
47F
102
}
330
47F
100
AcDbScale
 70
     0
300
3/4" = 1'-0"
140
0.75
141
12.0
290
     0
  0
SCALE
  5
49C
102
{ACAD_REACTORS
330
47F
102
}
330
47F
100
AcDbScale
 70
     0
300
1" = 1'-0"
140
1.0
141
12.0
290
     0
  0
SCALE
  5
49D
102
{ACAD_REACTORS
330
47F
102
}
330
47F
100
AcDbScale
 70
     0
300
1-1/2" = 1'-0"
140
1.5
141
12.0
290
     0
  0
SCALE
  5
49E
102
{ACAD_REACTORS
330
47F
102
}
330
47F
100
AcDbScale
 70
     0
300
3" = 1'-0"
140
3.0
141
12.0
290
     0
  0
SCALE
  5
49F
102
{ACAD_REACTORS
330
47F
102
}
330
47F
100
AcDbScale
 70
     0
300
6" = 1'-0"
140
6.0
141
12.0
290
     0
  0
SCALE
  5
4A0
102
{ACAD_REACTORS
330
47F
102
}
330
47F
100
AcDbScale
 70
     0
300
1'-0" = 1'-0"
140
12.0
141
12.0
290
     0
  0
TABLESTYLE
  5
4C2
102
{ACAD_REACTORS
330
4C1
102
}
102
{ACAD_XDICTIONARY
360
1613
102
}
330
4C1
100
AcDbTableStyle
  3
Standard
 70
     0
 71
     0
 40
1.5
 41
1.5
280
     0
281
     0
  7
STANDARD
140
4.5
170
     2
 62
     0
 63
   257
283
     0
 90
        4
 91
        0
  1

274
    -2
284
     1
 64
     0
275
    -2
285
     1
 65
     0
276
    -2
286
     1
 66
     0
277
    -2
287
     1
 67
     0
278
    -2
288
     1
 68
     0
279
    -2
289
     1
 69
     0
  7
STANDARD
140
6.0
170
     5
 62
     0
 63
   257
283
     0
 90
        4
 91
        0
  1

274
    -2
284
     1
 64
     0
275
    -2
285
     1
 65
     0
276
    -2
286
     1
 66
     0
277
    -2
287
     1
 67
     0
278
    -2
288
     1
 68
     0
279
    -2
289
     1
 69
     0
  7
STANDARD
140
4.5
170
     5
 62
     0
 63
   257
283
     0
 90
        4
 91
        0
  1

274
    -2
284
     1
 64
     0
275
    -2
285
     1
 65
     0
276
    -2
286
     1
 66
     0
277
    -2
287
     1
 67
     0
278
    -2
288
     1
 68
     0
279
    -2
289
     1
 69
     0
  0
VISUALSTYLE
  5
4A9
102
{ACAD_REACTORS
330
4A4
102
}
330
4A4
100
AcDbVisualStyle
  2
2dWireframe
 70
     4
177
     3
291
     0
 70
    58
 90
        0
176
     1
 90
        2
176
     1
 90
        0
176
     1
 90
        0
176
     1
 40
0.6
176
     1
 40
30.0
176
     1
 62
     7
420
 16777215
176
     1
 90
        1
176
     1
 90
        4
176
     1
 62
     7
176
     1
 62
   257
176
     1
 90
        1
176
     1
 90
        1
176
     1
 40
1.0
176
     1
 90
        0
176
     1
 62
   257
176
     1
 40
1.0
176
     1
 90
        1
176
     1
 90
        6
176
     1
 90
        2
176
     1
 62
     7
176
     1
 90
        5
176
     1
 90
        0
176
     1
 90
        0
176
     1
290
     0
176
     1
 90
        1
176
     1
 40
0.0
176
     1
 90
        0
176
     1
290
     1
176
     1
290
     1
176
     1
290
     0
176
     1
290
     0
176
     1
290
     0
176
     1
290
     0
176
     1
290
     0
176
     1
290
     0
176
     1
290
     0
176
     1
 90
       50
176
     1
 40
0.0
176
     1
 40
1.0
176
     1
 90
        0
176
     1
 62
    18
420
        0
176
     1
 90
       50
176
     1
 90
        3
176
     1
 62
     5
420
      255
176
     1
290
     0
176
     1
 90
       50
176
     1
 90
       50
176
     1
 90
       50
176
     1
290
     0
176
     1
 90
       50
176
     1
 62
   256
176
     0
 40
1.0
176
     0
 90
        2
176
     1
  1
strokes_ogs.tif
176
     1
290
     0
176
     1
 40
1.0
176
     1
 40
1.0
176
     1
  0
VISUALSTYLE
  5
4AC
102
{ACAD_REACTORS
330
4A4
102
}
330
4A4
100
AcDbVisualStyle
  2
Basic
 70
     7
177
     3
291
     1
 70
    58
 90
        1
176
     1
 90
        0
176
     1
 90
        1
176
     1
 90
        0
176
     1
 40
0.6
176
     1
 40
30.0
176
     1
 62
     7
420
 16777215
176
     1
 90
        0
176
     1
 90
        4
176
     1
 62
     7
176
     1
 62
   257
176
     1
 90
        1
176
     1
 90
        1
176
     1
 40
1.0
176
     1
 90
        8
176
     1
 62
     7
176
     1
 40
1.0
176
     1
 90
        1
176
     1
 90
        6
176
     1
 90
        2
176
     1
 62
     7
176
     1
 90
        5
176
     1
 90
        0
176
     1
 90
        0
176
     1
290
     0
176
     1
 90
        1
176
     1
 40
0.0
176
     1
 90
        0
176
     1
290
     0
176
     1
290
     1
176
     1
290
     1
176
     1
290
     0
176
     1
290
     0
176
     1
290
     0
176
     1
290
     0
176
     1
290
     0
176
     1
290
     0
176
     1
 90
       50
176
     1
 40
0.0
176
     1
 40
1.0
176
     1
 90
        0
176
     1
 62
    18
420
        0
176
     1
 90
       50
176
     1
 90
        3
176
     1
 62
     5
420
      255
176
     1
290
     0
176
     1
 90
       50
176
     1
 90
       50
176
     1
 90
       50
176
     1
290
     0
176
     1
 90
       50
176
     1
 62
   256
176
     0
 40
1.0
176
     0
 90
        2
176
     1
  1
strokes_ogs.tif
176
     1
290
     0
176
     1
 40
1.0
176
     1
 40
1.0
176
     1
  0
VISUALSTYLE
  5
4B0
102
{ACAD_REACTORS
330
4A4
102
}
330
4A4
100
AcDbVisualStyle
  2
Brighten
 70
    12
177
     3
291
     1
 70
    58
 90
        2
176
     1
 90
        2
176
     1
 90
        0
176
     1
 90
        0
176
     1
 40
0.6
176
     1
 40
30.0
176
     1
 62
     7
420
 16777215
176
     1
 90
        1
176
     1
 90
        4
176
     1
 62
     7
176
     1
 62
   257
176
     1
 90
        1
176
     1
 90
        1
176
     1
 40
1.0
176
     1
 90
        8
176
     1
 62
     7
176
     1
 40
1.0
176
     1
 90
        1
176
     1
 90
        6
176
     1
 90
        2
176
     1
 62
     7
176
     1
 90
        5
176
     1
 90
        0
176
     1
 90
        0
176
     1
290
     0
176
     1
 90
        1
176
     1
 40
50.0
176
     1
 90
        0
176
     1
290
     0
176
     1
290
     1
176
     1
290
     1
176
     1
290
     0
176
     1
290
     0
176
     1
290
     0
176
     1
290
     0
176
     1
290
     0
176
     1
290
     0
176
     1
 90
       50
176
     1
 40
0.0
176
     1
 40
1.0
176
     1
 90
        0
176
     1
 62
    18
420
        0
176
     1
 90
       50
176
     1
 90
        3
176
     1
 62
     5
420
      255
176
     1
290
     0
176
     1
 90
       50
176
     1
 90
       50
176
     1
 90
       50
176
     1
290
     0
176
     1
 90
       50
176
     1
 62
   256
176
     0
 40
1.0
176
     0
 90
        2
176
     1
  1
strokes_ogs.tif
176
     1
290
     0
176
     1
 40
1.0
176
     1
 40
1.0
176
     1
  0
VISUALSTYLE
  5
4B4
102
{ACAD_REACTORS
330
4A4
102
}
330
4A4
100
AcDbVisualStyle
  2
ColorChange
 70
    16
177
     3
291
     1
 70
    58
 90
        2
176
     1
 90
        2
176
     1
 90
        3
176
     1
 90
        0
176
     1
 40
0.6
176
     1
 40
30.0
176
     1
 62
     8
420
  8421504
176
     1
 90
        1
176
     1
 90
        4
176
     1
 62
     7
176
     1
 62
   257
176
     1
 90
        1
176
     1
 90
        1
176
     1
 40
1.0
176
     1
 90
        8
176
     1
 62
     8
420
  8421504
176
     1
 40
1.0
176
     1
 90
        1
176
     1
 90
        6
176
     1
 90
        2
176
     1
 62
     7
176
     1
 90
        5
176
     1
 90
        0
176
     1
 90
        0
176
     1
290
     0
176
     1
 90
        1
176
     1
 40
0.0
176
     1
 90
        0
176
     1
290
     0
176
     1
290
     1
176
     1
290
     1
176
     1
290
     0
176
     1
290
     0
176
     1
290
     0
176
     1
290
     0
176
     1
290
     0
176
     1
290
     0
176
     1
 90
       50
176
     1
 40
0.0
176
     1
 40
1.0
176
     1
 90
        0
176
     1
 62
    18
420
        0
176
     1
 90
       50
176
     1
 90
        3
176
     1
 62
     5
420
      255
176
     1
290
     0
176
     1
 90
       50
176
     1
 90
       50
176
     1
 90
       50
176
     1
290
     0
176
     1
 90
       50
176
     1
 62
   256
176
     0
 40
1.0
176
     0
 90
        2
176
     1
  1
strokes_ogs.tif
176
     1
290
     0
176
     1
 40
1.0
176
     1
 40
1.0
176
     1
  0
VISUALSTYLE
  5
4AE
102
{ACAD_REACTORS
330
4A4
102
}
330
4A4
100
AcDbVisualStyle
  2
Conceptual
 70
     9
177
     3
291
     0
 70
    58
 90
        3
176
     1
 90
        2
176
     1
 90
        0
176
     1
 90
        0
176
     1
 40
0.6
176
     1
 40
30.0
176
     1
 62
     7
420
 16777215
176
     1
 90
        2
176
     1
 90
        2
176
     1
 62
     7
176
     1
 62
   257
176
     1
 90
        1
176
     1
 90
        1
176
     1
 40
179.0
176
     1
 90
        8
176
     1
 62
     7
176
     1
 40
1.0
176
     1
 90
        1
176
     1
 90
        6
176
     1
 90
        2
176
     1
 62
     7
176
     1
 90
        3
176
     1
 90
        0
176
     1
 90
        0
176
     1
290
     0
176
     1
 90
        1
176
     1
 40
0.0
176
     1
 90
        0
176
     1
290
     0
176
     1
290
     1
176
     1
290
     1
176
     1
290
     0
176
     1
290
     0
176
     1
290
     0
176
     1
290
     0
176
     1
290
     0
176
     1
290
     0
176
     1
 90
       50
176
     1
 40
0.0
176
     1
 40
1.0
176
     1
 90
        0
176
     1
 62
    18
420
        0
176
     1
 90
       50
176
     1
 90
        3
176
     1
 62
     5
420
      255
176
     1
290
     0
176
     1
 90
       50
176
     1
 90
       50
176
     1
 90
       50
176
     1
290
     0
176
     1
 90
       50
176
     1
 62
   256
176
     0
 40
1.0
176
     0
 90
        2
176
     1
  1
strokes_ogs.tif
176
     1
290
     0
176
     1
 40
1.0
176
     1
 40
1.0
176
     1
  0
VISUALSTYLE
  5
4AF
102
{ACAD_REACTORS
330
4A4
102
}
330
4A4
100
AcDbVisualStyle
  2
Dim
 70
    11
177
     3
291
     1
 70
    58
 90
        2
176
     1
 90
        2
176
     1
 90
        0
176
     1
 90
        0
176
     1
 40
0.6
176
     1
 40
30.0
176
     1
 62
     7
420
 16777215
176
     1
 90
        1
176
     1
 90
        4
176
     1
 62
     7
176
     1
 62
   257
176
     1
 90
        1
176
     1
 90
        1
176
     1
 40
1.0
176
     1
 90
        8
176
     1
 62
     7
176
     1
 40
1.0
176
     1
 90
        1
176
     1
 90
        6
176
     1
 90
        2
176
     1
 62
     7
176
     1
 90
        5
176
     1
 90
        0
176
     1
 90
        0
176
     1
290
     0
176
     1
 90
        1
176
     1
 40
-50.0
176
     1
 90
        0
176
     1
290
     0
176
     1
290
     1
176
     1
290
     1
176
     1
290
     0
176
     1
290
     0
176
     1
290
     0
176
     1
290
     0
176
     1
290
     0
176
     1
290
     0
176
     1
 90
       50
176
     1
 40
0.0
176
     1
 40
1.0
176
     1
 90
        0
176
     1
 62
    18
420
        0
176
     1
 90
       50
176
     1
 90
        3
176
     1
 62
     5
420
      255
176
     1
290
     0
176
     1
 90
       50
176
     1
 90
       50
176
     1
 90
       50
176
     1
290
     0
176
     1
 90
       50
176
     1
 62
   256
176
     0
 40
1.0
176
     0
 90
        2
176
     1
  1
strokes_ogs.tif
176
     1
290
     0
176
     1
 40
1.0
176
     1
 40
1.0
176
     1
  0
VISUALSTYLE
  5
4B7
102
{ACAD_REACTORS
330
4A4
102
}
330
4A4
100
AcDbVisualStyle
  2
EdgeColorOff
 70
    22
177
     3
291
     1
 70
    58
 90
        2
176
     0
 90
        2
176
     0
 90
        0
176
     0
 90
        0
176
     0
 40
0.6
176
     0
 40
30.0
176
     0
 62
     7
420
 16777215
176
     0
 90
        1
176
     0
 90
        4
176
     0
 62
     7
176
     0
 62
   257
176
     0
 90
        1
176
     0
 90
        1
176
     0
 40
1.0
176
     0
 90
        8
176
     2
 62
     7
176
     0
 40
1.0
176
     0
 90
        1
176
     0
 90
        6
176
     0
 90
        2
176
     0
 62
     7
176
     0
 90
        5
176
     0
 90
        0
176
     0
 90
        0
176
     0
290
     0
176
     0
 90
        1
176
     0
 40
0.0
176
     0
 90
        0
176
     0
290
     0
176
     0
290
     1
176
     0
290
     1
176
     0
290
     0
176
     0
290
     0
176
     0
290
     0
176
     0
290
     0
176
     0
290
     0
176
     0
290
     0
176
     0
 90
       50
176
     0
 40
0.0
176
     0
 40
1.0
176
     0
 90
        0
176
     0
 62
    18
420
        0
176
     0
 90
       50
176
     0
 90
        3
176
     0
 62
     5
420
      255
176
     0
290
     0
176
     0
 90
       50
176
     0
 90
       50
176
     0
 90
       50
176
     0
290
     0
176
     0
 90
       50
176
     0
 62
   256
176
     0
 40
1.0
176
     0
 90
        2
176
     0
  1
strokes_ogs.tif
176
     0
290
     0
176
     0
 40
1.0
176
     0
 40
1.0
176
     0
  0
VISUALSTYLE
  5
4B3
102
{ACAD_REACTORS
330
4A4
102
}
330
4A4
100
AcDbVisualStyle
  2
Facepattern
 70
    15
177
     3
291
     1
 70
    58
 90
        2
176
     1
 90
        2
176
     1
 90
        0
176
     1
 90
        0
176
     1
 40
0.6
176
     1
 40
30.0
176
     1
 62
     7
420
 16777215
176
     1
 90
        1
176
     1
 90
        4
176
     1
 62
     7
176
     1
 62
   257
176
     1
 90
        1
176
     1
 90
        1
176
     1
 40
1.0
176
     1
 90
        8
176
     1
 62
     7
176
     1
 40
1.0
176
     1
 90
        1
176
     1
 90
        6
176
     1
 90
        2
176
     1
 62
     7
176
     1
 90
        5
176
     1
 90
        0
176
     1
 90
        0
176
     1
290
     0
176
     1
 90
        1
176
     1
 40
0.0
176
     1
 90
        0
176
     1
290
     0
176
     1
290
     1
176
     1
290
     1
176
     1
290
     0
176
     1
290
     0
176
     1
290
     0
176
     1
290
     0
176
     1
290
     0
176
     1
290
     0
176
     1
 90
       50
176
     1
 40
0.0
176
     1
 40
1.0
176
     1
 90
        0
176
     1
 62
    18
420
        0
176
     1
 90
       50
176
     1
 90
        3
176
     1
 62
     5
420
      255
176
     1
290
     0
176
     1
 90
       50
176
     1
 90
       50
176
     1
 90
       50
176
     1
290
     0
176
     1
 90
       50
176
     1
 62
   256
176
     0
 40
1.0
176
     0
 90
        2
176
     1
  1
strokes_ogs.tif
176
     1
290
     0
176
     1
 40
1.0
176
     1
 40
1.0
176
     1
  0
VISUALSTYLE
  5
4A5
102
{ACAD_REACTORS
330
4A4
102
}
330
4A4
100
AcDbVisualStyle
  2
Flat
 70
     0
177
     3
291
     1
 70
    58
 90
        2
176
     1
 90
        1
176
     1
 90
        1
176
     1
 90
        2
176
     1
 40
0.6
176
     1
 40
30.0
176
     1
 62
     7
420
 16777215
176
     1
 90
        0
176
     1
 90
        0
176
     1
 62
     7
176
     1
 62
   257
176
     1
 90
        1
176
     1
 90
        1
176
     1
 40
1.0
176
     1
 90
        8
176
     1
 62
     7
176
     1
 40
1.0
176
     1
 90
        1
176
     1
 90
        6
176
     1
 90
        2
176
     1
 62
     7
176
     1
 90
        5
176
     1
 90
        0
176
     1
 90
        0
176
     1
290
     0
176
     1
 90
       13
176
     1
 40
0.0
176
     1
 90
        0
176
     1
290
     0
176
     1
290
     1
176
     1
290
     1
176
     1
290
     0
176
     1
290
     0
176
     1
290
     0
176
     1
290
     0
176
     1
290
     0
176
     1
290
     0
176
     1
 90
       50
176
     1
 40
0.0
176
     1
 40
1.0
176
     1
 90
        0
176
     1
 62
    18
420
        0
176
     1
 90
       50
176
     1
 90
        3
176
     1
 62
     5
420
      255
176
     1
290
     0
176
     1
 90
       50
176
     1
 90
       50
176
     1
 90
       50
176
     1
290
     0
176
     1
 90
       50
176
     1
 62
   256
176
     0
 40
1.0
176
     0
 90
        2
176
     1
  1
strokes_ogs.tif
176
     1
290
     0
176
     1
 40
1.0
176
     1
 40
1.0
176
     1
  0
VISUALSTYLE
  5
4A6
102
{ACAD_REACTORS
330
4A4
102
}
330
4A4
100
AcDbVisualStyle
  2
FlatWithEdges
 70
     1
177
     3
291
     1
 70
    58
 90
        2
176
     1
 90
        1
176
     1
 90
        1
176
     1
 90
        2
176
     1
 40
0.6
176
     1
 40
30.0
176
     1
 62
     7
420
 16777215
176
     1
 90
        1
176
     1
 90
        0
176
     1
 62
     7
176
     1
 62
   257
176
     1
 90
        1
176
     1
 90
        1
176
     1
 40
1.0
176
     1
 90
        0
176
     1
 62
   257
176
     1
 40
1.0
176
     1
 90
        1
176
     1
 90
        6
176
     1
 90
        2
176
     1
 62
     7
176
     1
 90
        5
176
     1
 90
        0
176
     1
 90
        0
176
     1
290
     0
176
     1
 90
       13
176
     1
 40
0.0
176
     1
 90
        0
176
     1
290
     0
176
     1
290
     1
176
     1
290
     1
176
     1
290
     0
176
     1
290
     0
176
     1
290
     0
176
     1
290
     0
176
     1
290
     0
176
     1
290
     0
176
     1
 90
       50
176
     1
 40
0.0
176
     1
 40
1.0
176
     1
 90
        0
176
     1
 62
    18
420
        0
176
     1
 90
       50
176
     1
 90
        3
176
     1
 62
     5
420
      255
176
     1
290
     0
176
     1
 90
       50
176
     1
 90
       50
176
     1
 90
       50
176
     1
290
     0
176
     1
 90
       50
176
     1
 62
   256
176
     0
 40
1.0
176
     0
 90
        2
176
     1
  1
strokes_ogs.tif
176
     1
290
     0
176
     1
 40
1.0
176
     1
 40
1.0
176
     1
  0
VISUALSTYLE
  5
4A7
102
{ACAD_REACTORS
330
4A4
102
}
330
4A4
100
AcDbVisualStyle
  2
Gouraud
 70
     2
177
     3
291
     1
 70
    58
 90
        2
176
     1
 90
        2
176
     1
 90
        1
176
     1
 90
        2
176
     1
 40
0.6
176
     1
 40
30.0
176
     1
 62
     7
420
 16777215
176
     1
 90
        0
176
     1
 90
        0
176
     1
 62
     7
176
     1
 62
   257
176
     1
 90
        1
176
     1
 90
        1
176
     1
 40
1.0
176
     1
 90
        0
176
     1
 62
     7
176
     1
 40
1.0
176
     1
 90
        1
176
     1
 90
        6
176
     1
 90
        2
176
     1
 62
     7
176
     1
 90
        5
176
     1
 90
        0
176
     1
 90
        0
176
     1
290
     0
176
     1
 90
       13
176
     1
 40
0.0
176
     1
 90
        0
176
     1
290
     0
176
     1
290
     1
176
     1
290
     1
176
     1
290
     0
176
     1
290
     0
176
     1
290
     0
176
     1
290
     0
176
     1
290
     0
176
     1
290
     0
176
     1
 90
       50
176
     1
 40
0.0
176
     1
 40
1.0
176
     1
 90
        0
176
     1
 62
    18
420
        0
176
     1
 90
       50
176
     1
 90
        3
176
     1
 62
     5
420
      255
176
     1
290
     0
176
     1
 90
       50
176
     1
 90
       50
176
     1
 90
       50
176
     1
290
     0
176
     1
 90
       50
176
     1
 62
   256
176
     0
 40
1.0
176
     0
 90
        2
176
     1
  1
strokes_ogs.tif
176
     1
290
     0
176
     1
 40
1.0
176
     1
 40
1.0
176
     1
  0
VISUALSTYLE
  5
4A8
102
{ACAD_REACTORS
330
4A4
102
}
330
4A4
100
AcDbVisualStyle
  2
GouraudWithEdges
 70
     3
177
     3
291
     1
 70
    58
 90
        2
176
     1
 90
        2
176
     1
 90
        1
176
     1
 90
        2
176
     1
 40
0.6
176
     1
 40
30.0
176
     1
 62
     7
420
 16777215
176
     1
 90
        1
176
     1
 90
        0
176
     1
 62
     7
176
     1
 62
   257
176
     1
 90
        1
176
     1
 90
        1
176
     1
 40
1.0
176
     1
 90
        0
176
     1
 62
   257
176
     1
 40
1.0
176
     1
 90
        1
176
     1
 90
        6
176
     1
 90
        2
176
     1
 62
     7
176
     1
 90
        5
176
     1
 90
        0
176
     1
 90
        0
176
     1
290
     0
176
     1
 90
       13
176
     1
 40
0.0
176
     1
 90
        0
176
     1
290
     0
176
     1
290
     1
176
     1
290
     1
176
     1
290
     0
176
     1
290
     0
176
     1
290
     0
176
     1
290
     0
176
     1
290
     0
176
     1
290
     0
176
     1
 90
       50
176
     1
 40
0.0
176
     1
 40
1.0
176
     1
 90
        0
176
     1
 62
    18
420
        0
176
     1
 90
       50
176
     1
 90
        3
176
     1
 62
     5
420
      255
176
     1
290
     0
176
     1
 90
       50
176
     1
 90
       50
176
     1
 90
       50
176
     1
290
     0
176
     1
 90
       50
176
     1
 62
   256
176
     0
 40
1.0
176
     0
 90
        2
176
     1
  1
strokes_ogs.tif
176
     1
290
     0
176
     1
 40
1.0
176
     1
 40
1.0
176
     1
  0
VISUALSTYLE
  5
4AB
102
{ACAD_REACTORS
330
4A4
102
}
330
4A4
100
AcDbVisualStyle
  2
Hidden
 70
     6
177
     3
291
     0
 70
    58
 90
        1
176
     1
 90
        2
176
     1
 90
        2
176
     1
 90
        0
176
     1
 40
0.6
176
     1
 40
30.0
176
     1
 62
     7
420
 16777215
176
     1
 90
        2
176
     1
 90
        2
176
     1
 62
     7
176
     1
 62
   257
176
     1
 90
        2
176
     1
 90
        1
176
     1
 40
40.0
176
     1
 90
        0
176
     1
 62
   257
176
     1
 40
1.0
176
     1
 90
        1
176
     1
 90
        6
176
     1
 90
        2
176
     1
 62
     7
176
     1
 90
        3
176
     1
 90
        0
176
     1
 90
        0
176
     1
290
     0
176
     1
 90
        1
176
     1
 40
0.0
176
     1
 90
        0
176
     1
290
     0
176
     1
290
     1
176
     1
290
     1
176
     1
290
     0
176
     1
290
     0
176
     1
290
     0
176
     1
290
     0
176
     1
290
     0
176
     1
290
     0
176
     1
 90
       50
176
     1
 40
0.0
176
     1
 40
1.0
176
     1
 90
        0
176
     1
 62
    18
420
        0
176
     1
 90
       50
176
     1
 90
        3
176
     1
 62
     5
420
      255
176
     1
290
     0
176
     1
 90
       50
176
     1
 90
       50
176
     1
 90
       50
176
     1
290
     0
176
     1
 90
       50
176
     1
 62
   256
176
     0
 40
1.0
176
     0
 90
        2
176
     1
  1
strokes_ogs.tif
176
     1
290
     0
176
     1
 40
1.0
176
     1
 40
1.0
176
     1
  0
VISUALSTYLE
  5
4B5
102
{ACAD_REACTORS
330
4A4
102
}
330
4A4
100
AcDbVisualStyle
  2
JitterOff
 70
    20
177
     3
291
     1
 70
    58
 90
        2
176
     0
 90
        2
176
     0
 90
        0
176
     0
 90
        0
176
     0
 40
0.6
176
     0
 40
30.0
176
     0
 62
     7
420
 16777215
176
     0
 90
        1
176
     0
 90
        4
176
     0
 62
     7
176
     0
 62
   257
176
     0
 90
        1
176
     0
 90
        1
176
     0
 40
1.0
176
     0
 90
       10
176
     2
 62
     7
176
     0
 40
1.0
176
     0
 90
        1
176
     0
 90
        6
176
     0
 90
        2
176
     0
 62
     7
176
     0
 90
        5
176
     0
 90
        0
176
     0
 90
        0
176
     0
290
     0
176
     0
 90
        1
176
     0
 40
0.0
176
     0
 90
        0
176
     0
290
     0
176
     0
290
     1
176
     0
290
     1
176
     0
290
     0
176
     0
290
     0
176
     0
290
     0
176
     0
290
     0
176
     0
290
     0
176
     0
290
     0
176
     0
 90
       50
176
     0
 40
0.0
176
     0
 40
1.0
176
     0
 90
        0
176
     0
 62
    18
420
        0
176
     0
 90
       50
176
     0
 90
        3
176
     0
 62
     5
420
      255
176
     0
290
     0
176
     0
 90
       50
176
     0
 90
       50
176
     0
 90
       50
176
     0
290
     0
176
     0
 90
       50
176
     0
 62
   256
176
     0
 40
1.0
176
     0
 90
        2
176
     0
  1
strokes_ogs.tif
176
     0
290
     0
176
     0
 40
1.0
176
     0
 40
1.0
176
     0
  0
VISUALSTYLE
  5
4B2
102
{ACAD_REACTORS
330
4A4
102
}
330
4A4
100
AcDbVisualStyle
  2
Linepattern
 70
    14
177
     3
291
     1
 70
    58
 90
        2
176
     1
 90
        2
176
     1
 90
        0
176
     1
 90
        0
176
     1
 40
0.6
176
     1
 40
30.0
176
     1
 62
     7
420
 16777215
176
     1
 90
        1
176
     1
 90
        4
176
     1
 62
     7
176
     1
 62
   257
176
     1
 90
        7
176
     1
 90
        7
176
     1
 40
1.0
176
     1
 90
        8
176
     1
 62
     7
176
     1
 40
1.0
176
     1
 90
        1
176
     1
 90
        6
176
     1
 90
        2
176
     1
 62
     7
176
     1
 90
        5
176
     1
 90
        0
176
     1
 90
        0
176
     1
290
     0
176
     1
 90
        1
176
     1
 40
0.0
176
     1
 90
        0
176
     1
290
     0
176
     1
290
     1
176
     1
290
     1
176
     1
290
     0
176
     1
290
     0
176
     1
290
     0
176
     1
290
     0
176
     1
290
     0
176
     1
290
     0
176
     1
 90
       50
176
     1
 40
0.0
176
     1
 40
1.0
176
     1
 90
        0
176
     1
 62
    18
420
        0
176
     1
 90
       50
176
     1
 90
        3
176
     1
 62
     5
420
      255
176
     1
290
     0
176
     1
 90
       50
176
     1
 90
       50
176
     1
 90
       50
176
     1
290
     0
176
     1
 90
       50
176
     1
 62
   256
176
     0
 40
1.0
176
     0
 90
        2
176
     1
  1
strokes_ogs.tif
176
     1
290
     0
176
     1
 40
1.0
176
     1
 40
1.0
176
     1
  0
VISUALSTYLE
  5
4B6
102
{ACAD_REACTORS
330
4A4
102
}
330
4A4
100
AcDbVisualStyle
  2
OverhangOff
 70
    21
177
     3
291
     1
 70
    58
 90
        2
176
     0
 90
        2
176
     0
 90
        0
176
     0
 90
        0
176
     0
 40
0.6
176
     0
 40
30.0
176
     0
 62
     7
420
 16777215
176
     0
 90
        1
176
     0
 90
        4
176
     0
 62
     7
176
     0
 62
   257
176
     0
 90
        1
176
     0
 90
        1
176
     0
 40
1.0
176
     0
 90
        9
176
     2
 62
     7
176
     0
 40
1.0
176
     0
 90
        1
176
     0
 90
        6
176
     0
 90
        2
176
     0
 62
     7
176
     0
 90
        5
176
     0
 90
        0
176
     0
 90
        0
176
     0
290
     0
176
     0
 90
        1
176
     0
 40
0.0
176
     0
 90
        0
176
     0
290
     0
176
     0
290
     1
176
     0
290
     1
176
     0
290
     0
176
     0
290
     0
176
     0
290
     0
176
     0
290
     0
176
     0
290
     0
176
     0
290
     0
176
     0
 90
       50
176
     0
 40
0.0
176
     0
 40
1.0
176
     0
 90
        0
176
     0
 62
    18
420
        0
176
     0
 90
       50
176
     0
 90
        3
176
     0
 62
     5
420
      255
176
     0
290
     0
176
     0
 90
       50
176
     0
 90
       50
176
     0
 90
       50
176
     0
290
     0
176
     0
 90
       50
176
     0
 62
   256
176
     0
 40
1.0
176
     0
 90
        2
176
     0
  1
strokes_ogs.tif
176
     0
290
     0
176
     0
 40
1.0
176
     0
 40
1.0
176
     0
  0
VISUALSTYLE
  5
4AD
102
{ACAD_REACTORS
330
4A4
102
}
330
4A4
100
AcDbVisualStyle
  2
Realistic
 70
     8
177
     3
291
     0
 70
    58
 90
        2
176
     1
 90
        3
176
     1
 90
        0
176
     1
 90
        2
176
     1
 40
0.6
176
     1
 40
30.0
176
     1
 62
     7
420
 16777215
176
     1
 90
        0
176
     1
 90
        0
176
     1
 62
     7
176
     1
 62
   257
176
     1
 90
        1
176
     1
 90
        1
176
     1
 40
1.0
176
     1
 90
        8
176
     1
 62
   257
176
     1
 40
1.0
176
     1
 90
        1
176
     1
 90
        6
176
     1
 90
        2
176
     1
 62
     7
176
     1
 90
        3
176
     1
 90
        0
176
     1
 90
        0
176
     1
290
     0
176
     1
 90
       13
176
     1
 40
0.0
176
     1
 90
        0
176
     1
290
     0
176
     1
290
     1
176
     1
290
     1
176
     1
290
     0
176
     1
290
     0
176
     1
290
     0
176
     1
290
     0
176
     1
290
     0
176
     1
290
     0
176
     1
 90
       50
176
     1
 40
0.0
176
     1
 40
1.0
176
     1
 90
        0
176
     1
 62
    18
420
        0
176
     1
 90
       50
176
     1
 90
        3
176
     1
 62
     5
420
      255
176
     1
290
     0
176
     1
 90
       50
176
     1
 90
       50
176
     1
 90
       50
176
     1
290
     0
176
     1
 90
       50
176
     1
 62
   256
176
     0
 40
1.0
176
     0
 90
        2
176
     1
  1
strokes_ogs.tif
176
     1
290
     0
176
     1
 40
1.0
176
     1
 40
1.0
176
     1
  0
VISUALSTYLE
  5
4BC
102
{ACAD_REACTORS
330
4A4
102
}
330
4A4
100
AcDbVisualStyle
  2
Shaded
 70
    27
177
     3
291
     0
 70
    58
 90
        2
176
     1
 90
        2
176
     1
 90
        1
176
     1
 90
        2
176
     1
 40
0.6
176
     1
 40
30.0
176
     1
 62
     7
420
 16777215
176
     1
 90
        0
176
     1
 90
        4
176
     1
 62
     7
176
     1
 62
   257
176
     1
 90
        1
176
     1
 90
        1
176
     1
 40
1.0
176
     1
 90
        8
176
     1
 62
   257
176
     1
 40
1.0
176
     1
 90
        1
176
     1
 90
        6
176
     1
 90
        2
176
     1
 62
     8
420
  7895160
176
     1
 90
        3
176
     1
 90
        0
176
     1
 90
        0
176
     1
290
     0
176
     1
 90
        5
176
     1
 40
0.0
176
     1
 90
        0
176
     1
290
     0
176
     1
290
     1
176
     1
290
     1
176
     1
290
     0
176
     1
290
     0
176
     1
290
     0
176
     1
290
     0
176
     1
290
     0
176
     1
290
     0
176
     1
 90
       50
176
     1
 40
0.0
176
     1
 40
1.0
176
     1
 90
        0
176
     1
 62
    18
420
        0
176
     1
 90
       50
176
     1
 90
        3
176
     1
 62
     5
420
      255
176
     1
290
     0
176
     1
 90
       50
176
     1
 90
       50
176
     1
 90
       50
176
     1
290
     0
176
     1
 90
       50
176
     1
 62
   256
176
     0
 40
1.0
176
     0
 90
        2
176
     1
  1
strokes_ogs.tif
176
     1
290
     0
176
     1
 40
1.0
176
     1
 40
1.0
176
     1
  0
VISUALSTYLE
  5
4BB
102
{ACAD_REACTORS
330
4A4
102
}
330
4A4
100
AcDbVisualStyle
  2
Shaded with edges
 70
    26
177
     3
291
     0
 70
    58
 90
        2
176
     1
 90
        2
176
     1
 90
        1
176
     1
 90
        2
176
     1
 40
0.6
176
     1
 40
30.0
176
     1
 62
     7
420
 16777215
176
     1
 90
        1
176
     1
 90
       10
176
     1
 62
     7
176
     1
 62
   257
176
     1
 90
        2
176
     1
 90
        1
176
     1
 40
1.0
176
     1
 90
        8
176
     1
 62
   257
176
     1
 40
1.0
176
     1
 90
        1
176
     1
 90
        6
176
     1
 90
        2
176
     1
 62
     7
176
     1
 90
        3
176
     1
 90
        0
176
     1
 90
        0
176
     1
290
     0
176
     1
 90
        5
176
     1
 40
0.0
176
     1
 90
        0
176
     1
290
     0
176
     1
290
     1
176
     1
290
     1
176
     1
290
     0
176
     1
290
     0
176
     1
290
     0
176
     1
290
     0
176
     1
290
     0
176
     1
290
     0
176
     1
 90
       50
176
     1
 40
0.0
176
     1
 40
1.0
176
     1
 90
        0
176
     1
 62
    18
420
        0
176
     1
 90
       50
176
     1
 90
        3
176
     1
 62
     5
420
      255
176
     1
290
     0
176
     1
 90
       50
176
     1
 90
       50
176
     1
 90
       50
176
     1
290
     0
176
     1
 90
       50
176
     1
 62
   256
176
     0
 40
1.0
176
     0
 90
        2
176
     1
  1
strokes_ogs.tif
176
     1
290
     0
176
     1
 40
1.0
176
     1
 40
1.0
176
     1
  0
VISUALSTYLE
  5
4B8
102
{ACAD_REACTORS
330
4A4
102
}
330
4A4
100
AcDbVisualStyle
  2
Shades of Gray
 70
    23
177
     3
291
     0
 70
    58
 90
        2
176
     1
 90
        2
176
     1
 90
        3
176
     1
 90
        0
176
     1
 40
0.6
176
     1
 40
30.0
176
     1
 62
     7
420
 16777215
176
     1
 90
        2
176
     1
 90
        2
176
     1
 62
     7
176
     1
 62
     7
176
     1
 90
        1
176
     1
 90
        1
176
     1
 40
40.0
176
     1
 90
        8
176
     1
 62
     7
176
     1
 40
1.0
176
     1
 90
        1
176
     1
 90
        6
176
     1
 90
        2
176
     1
 62
     7
176
     1
 90
        3
176
     1
 90
        0
176
     1
 90
        0
176
     1
290
     0
176
     1
 90
        1
176
     1
 40
0.0
176
     1
 90
        0
176
     1
290
     0
176
     1
290
     1
176
     1
290
     1
176
     1
290
     0
176
     1
290
     0
176
     1
290
     0
176
     1
290
     0
176
     1
290
     0
176
     1
290
     0
176
     1
 90
       50
176
     1
 40
0.0
176
     1
 40
1.0
176
     1
 90
        0
176
     1
 62
    18
420
        0
176
     1
 90
       50
176
     1
 90
        3
176
     1
 62
     5
420
      255
176
     1
290
     0
176
     1
 90
       50
176
     1
 90
       50
176
     1
 90
       50
176
     1
290
     0
176
     1
 90
       50
176
     1
 62
   256
176
     0
 40
1.0
176
     0
 90
        2
176
     1
  1
strokes_ogs.tif
176
     1
290
     0
176
     1
 40
1.0
176
     1
 40
1.0
176
     1
  0
VISUALSTYLE
  5
4B9
102
{ACAD_REACTORS
330
4A4
102
}
330
4A4
100
AcDbVisualStyle
  2
Sketchy
 70
    24
177
     3
291
     0
 70
    58
 90
        1
176
     1
 90
        2
176
     1
 90
        2
176
     1
 90
        0
176
     1
 40
0.6
176
     1
 40
30.0
176
     1
 62
     7
420
 16777215
176
     1
 90
        2
176
     1
 90
        2
176
     1
 62
     7
176
     1
 62
     7
176
     1
 90
        1
176
     1
 90
        1
176
     1
 40
40.0
176
     1
 90
       11
176
     1
 62
     7
176
     1
 40
1.0
176
     1
 90
        1
176
     1
 90
        6
176
     1
 90
        2
176
     1
 62
     7
176
     1
 90
        6
176
     1
 90
        0
176
     1
 90
        0
176
     1
290
     0
176
     1
 90
        1
176
     1
 40
0.0
176
     1
 90
        0
176
     1
290
     0
176
     1
290
     1
176
     1
290
     1
176
     1
290
     0
176
     1
290
     0
176
     1
290
     0
176
     1
290
     0
176
     1
290
     0
176
     1
290
     0
176
     1
 90
       50
176
     1
 40
0.0
176
     1
 40
1.0
176
     1
 90
        0
176
     1
 62
    18
420
        0
176
     1
 90
       50
176
     1
 90
        3
176
     1
 62
     5
420
      255
176
     1
290
     0
176
     1
 90
       50
176
     1
 90
       50
176
     1
 90
       50
176
     1
290
     0
176
     1
 90
       50
176
     1
 62
   256
176
     0
 40
1.0
176
     0
 90
        2
176
     1
  1
strokes_ogs.tif
176
     1
290
     0
176
     1
 40
1.0
176
     1
 40
1.0
176
     1
  0
VISUALSTYLE
  5
4B1
102
{ACAD_REACTORS
330
4A4
102
}
330
4A4
100
AcDbVisualStyle
  2
Thicken
 70
    13
177
     3
291
     1
 70
    58
 90
        2
176
     1
 90
        2
176
     1
 90
        0
176
     1
 90
        0
176
     1
 40
0.6
176
     1
 40
30.0
176
     1
 62
     7
420
 16777215
176
     1
 90
        1
176
     1
 90
        4
176
     1
 62
     7
176
     1
 62
   257
176
     1
 90
        1
176
     1
 90
        1
176
     1
 40
1.0
176
     1
 90
       12
176
     1
 62
     7
176
     1
 40
1.0
176
     1
 90
        1
176
     1
 90
        6
176
     1
 90
        2
176
     1
 62
     7
176
     1
 90
        5
176
     1
 90
        0
176
     1
 90
        0
176
     1
290
     0
176
     1
 90
        1
176
     1
 40
0.0
176
     1
 90
        0
176
     1
290
     0
176
     1
290
     1
176
     1
290
     1
176
     1
290
     0
176
     1
290
     0
176
     1
290
     0
176
     1
290
     0
176
     1
290
     0
176
     1
290
     0
176
     1
 90
       50
176
     1
 40
0.0
176
     1
 40
1.0
176
     1
 90
        0
176
     1
 62
    18
420
        0
176
     1
 90
       50
176
     1
 90
        3
176
     1
 62
     5
420
      255
176
     1
290
     0
176
     1
 90
       50
176
     1
 90
       50
176
     1
 90
       50
176
     1
290
     0
176
     1
 90
       50
176
     1
 62
   256
176
     0
 40
1.0
176
     0
 90
        2
176
     1
  1
strokes_ogs.tif
176
     1
290
     0
176
     1
 40
1.0
176
     1
 40
1.0
176
     1
  0
VISUALSTYLE
  5
4AA
102
{ACAD_REACTORS
330
4A4
102
}
330
4A4
100
AcDbVisualStyle
  2
Wireframe
 70
     5
177
     3
291
     0
 70
    58
 90
        0
176
     1
 90
        2
176
     1
 90
        0
176
     1
 90
        0
176
     1
 40
0.6
176
     1
 40
30.0
176
     1
 62
     7
420
 16777215
176
     1
 90
        1
176
     1
 90
        4
176
     1
 62
     7
176
     1
 62
   257
176
     1
 90
        1
176
     1
 90
        1
176
     1
 40
1.0
176
     1
 90
        0
176
     1
 62
   257
176
     1
 40
1.0
176
     1
 90
        1
176
     1
 90
        6
176
     1
 90
        2
176
     1
 62
     7
176
     1
 90
        3
176
     1
 90
        0
176
     1
 90
        0
176
     1
290
     0
176
     1
 90
        1
176
     1
 40
0.0
176
     1
 90
        0
176
     1
290
     0
176
     1
290
     1
176
     1
290
     1
176
     1
290
     0
176
     1
290
     0
176
     1
290
     0
176
     1
290
     0
176
     1
290
     0
176
     1
290
     0
176
     1
 90
       50
176
     1
 40
0.0
176
     1
 40
1.0
176
     1
 90
        0
176
     1
 62
    18
420
        0
176
     1
 90
       50
176
     1
 90
        3
176
     1
 62
     5
420
      255
176
     1
290
     0
176
     1
 90
       50
176
     1
 90
       50
176
     1
 90
       50
176
     1
290
     0
176
     1
 90
       50
176
     1
 62
   256
176
     0
 40
1.0
176
     0
 90
        2
176
     1
  1
strokes_ogs.tif
176
     1
290
     0
176
     1
 40
1.0
176
     1
 40
1.0
176
     1
  0
VISUALSTYLE
  5
4BA
102
{ACAD_REACTORS
330
4A4
102
}
330
4A4
100
AcDbVisualStyle
  2
X-Ray
 70
    25
177
     3
291
     0
 70
    58
 90
        2
176
     1
 90
        2
176
     1
 90
        1
176
     1
 90
        1
176
     1
 40
0.5
176
     1
 40
30.0
176
     1
 62
     7
420
 16777215
176
     1
 90
        1
176
     1
 90
        0
176
     1
 62
     7
176
     1
 62
   257
176
     1
 90
        1
176
     1
 90
        1
176
     1
 40
1.0
176
     1
 90
        8
176
     1
 62
     7
176
     1
 40
1.0
176
     1
 90
        1
176
     1
 90
        6
176
     1
 90
        2
176
     1
 62
     7
176
     1
 90
        3
176
     1
 90
        0
176
     1
 90
        0
176
     1
290
     0
176
     1
 90
       13
176
     1
 40
0.0
176
     1
 90
        0
176
     1
290
     0
176
     1
290
     1
176
     1
290
     1
176
     1
290
     0
176
     1
290
     0
176
     1
290
     0
176
     1
290
     0
176
     1
290
     0
176
     1
290
     0
176
     1
 90
       50
176
     1
 40
0.0
176
     1
 40
1.0
176
     1
 90
        0
176
     1
 62
    18
420
        0
176
     1
 90
       50
176
     1
 90
        3
176
     1
 62
     5
420
      255
176
     1
290
     0
176
     1
 90
       50
176
     1
 90
       50
176
     1
 90
       50
176
     1
290
     0
176
     1
 90
       50
176
     1
 62
   256
176
     0
 40
1.0
176
     0
 90
        2
176
     1
  1
strokes_ogs.tif
176
     1
290
     0
176
     1
 40
1.0
176
     1
 40
1.0
176
     1
  0
DICTIONARYVAR
  5
4C9
102
{ACAD_REACTORS
330
4C8
102
}
330
4C8
100
DictionaryVariables
280
     0
  1
1:1
  0
DICTIONARYVAR
  5
4CB
102
{ACAD_REACTORS
330
4C8
102
}
330
4C8
100
DictionaryVariables
280
     0
  1
Standard
  0
DICTIONARYVAR
  5
4CA
102
{ACAD_REACTORS
330
4C8
102
}
330
4C8
100
DictionaryVariables
280
     0
  1
Standard
  0
DICTIONARYVAR
  5
4CC
102
{ACAD_REACTORS
330
4C8
102
}
330
4C8
100
DictionaryVariables
280
     0
  1
0
  0
DICTIONARY
  5
1613
330
4C2
100
AcDbDictionary
280
     1
281
     1
  3
ACAD_ROUNDTRIP_2008_TABLESTYLE_CELLSTYLEMAP
360
1614
  0
CELLSTYLEMAP
  5
1614
102
{ACAD_REACTORS
330
1613
102
}
330
1613
100
AcDbCellStyleMap
 90
        3
300
CELLSTYLE
  1
TABLEFORMAT_BEGIN
 90
        5
170
     1
 91
        0
 92
    32768
 62
   257
 93
        1
300
CONTENTFORMAT
  1
CONTENTFORMAT_BEGIN
 90
        0
 91
        0
 92
        4
 93
        0
300

 40
0.0
140
1.0
 94
        5
 62
     0
340
17
144
6.0
309
CONTENTFORMAT_END
171
     1
301
MARGIN
  1
CELLMARGIN_BEGIN
 40
1.5
 40
1.5
 40
1.5
 40
1.5
 40
1.5
 40
1.5
309
CELLMARGIN_END
 94
        6
 95
        1
302
GRIDFORMAT
  1
GRIDFORMAT_BEGIN
 90
        0
 91
        1
 62
     0
 92
       -2
340
11
 93
        0
 40
0.045
309
GRIDFORMAT_END
 95
        2
302
GRIDFORMAT
  1
GRIDFORMAT_BEGIN
 90
        0
 91
        1
 62
     0
 92
       -2
340
11
 93
        0
 40
0.045
309
GRIDFORMAT_END
 95
        4
302
GRIDFORMAT
  1
GRIDFORMAT_BEGIN
 90
        0
 91
        1
 62
     0
 92
       -2
340
11
 93
        0
 40
0.045
309
GRIDFORMAT_END
 95
        8
302
GRIDFORMAT
  1
GRIDFORMAT_BEGIN
 90
        0
 91
        1
 62
     0
 92
       -2
340
11
 93
        0
 40
0.045
309
GRIDFORMAT_END
 95
       16
302
GRIDFORMAT
  1
GRIDFORMAT_BEGIN
 90
        0
 91
        1
 62
     0
 92
       -2
340
11
 93
        0
 40
0.045
309
GRIDFORMAT_END
 95
       32
302
GRIDFORMAT
  1
GRIDFORMAT_BEGIN
 90
        0
 91
        1
 62
     0
 92
       -2
340
11
 93
        0
 40
0.045
309
GRIDFORMAT_END
309
TABLEFORMAT_END
  1
CELLSTYLE_BEGIN
 90
        1
 91
        1
300
_TITLE
309
CELLSTYLE_END
300
CELLSTYLE
  1
TABLEFORMAT_BEGIN
 90
        5
170
     1
 91
        0
 92
        0
 62
   257
 93
        1
300
CONTENTFORMAT
  1
CONTENTFORMAT_BEGIN
 90
        0
 91
        0
 92
        4
 93
        0
300

 40
0.0
140
1.0
 94
        5
 62
     0
340
17
144
4.5
309
CONTENTFORMAT_END
171
     1
301
MARGIN
  1
CELLMARGIN_BEGIN
 40
1.5
 40
1.5
 40
1.5
 40
1.5
 40
1.5
 40
1.5
309
CELLMARGIN_END
 94
        6
 95
        1
302
GRIDFORMAT
  1
GRIDFORMAT_BEGIN
 90
        0
 91
        1
 62
     0
 92
       -2
340
11
 93
        0
 40
0.045
309
GRIDFORMAT_END
 95
        2
302
GRIDFORMAT
  1
GRIDFORMAT_BEGIN
 90
        0
 91
        1
 62
     0
 92
       -2
340
11
 93
        0
 40
0.045
309
GRIDFORMAT_END
 95
        4
302
GRIDFORMAT
  1
GRIDFORMAT_BEGIN
 90
        0
 91
        1
 62
     0
 92
       -2
340
11
 93
        0
 40
0.045
309
GRIDFORMAT_END
 95
        8
302
GRIDFORMAT
  1
GRIDFORMAT_BEGIN
 90
        0
 91
        1
 62
     0
 92
       -2
340
11
 93
        0
 40
0.045
309
GRIDFORMAT_END
 95
       16
302
GRIDFORMAT
  1
GRIDFORMAT_BEGIN
 90
        0
 91
        1
 62
     0
 92
       -2
340
11
 93
        0
 40
0.045
309
GRIDFORMAT_END
 95
       32
302
GRIDFORMAT
  1
GRIDFORMAT_BEGIN
 90
        0
 91
        1
 62
     0
 92
       -2
340
11
 93
        0
 40
0.045
309
GRIDFORMAT_END
309
TABLEFORMAT_END
  1
CELLSTYLE_BEGIN
 90
        2
 91
        1
300
_HEADER
309
CELLSTYLE_END
300
CELLSTYLE
  1
TABLEFORMAT_BEGIN
 90
        5
170
     1
 91
        0
 92
        0
 62
   257
 93
        1
300
CONTENTFORMAT
  1
CONTENTFORMAT_BEGIN
 90
        0
 91
        0
 92
        4
 93
        0
300

 40
0.0
140
1.0
 94
        2
 62
     0
340
17
144
4.5
309
CONTENTFORMAT_END
171
     1
301
MARGIN
  1
CELLMARGIN_BEGIN
 40
1.5
 40
1.5
 40
1.5
 40
1.5
 40
1.5
 40
1.5
309
CELLMARGIN_END
 94
        6
 95
        1
302
GRIDFORMAT
  1
GRIDFORMAT_BEGIN
 90
        0
 91
        1
 62
     0
 92
       -2
340
11
 93
        0
 40
0.045
309
GRIDFORMAT_END
 95
        2
302
GRIDFORMAT
  1
GRIDFORMAT_BEGIN
 90
        0
 91
        1
 62
     0
 92
       -2
340
11
 93
        0
 40
0.045
309
GRIDFORMAT_END
 95
        4
302
GRIDFORMAT
  1
GRIDFORMAT_BEGIN
 90
        0
 91
        1
 62
     0
 92
       -2
340
11
 93
        0
 40
0.045
309
GRIDFORMAT_END
 95
        8
302
GRIDFORMAT
  1
GRIDFORMAT_BEGIN
 90
        0
 91
        1
 62
     0
 92
       -2
340
11
 93
        0
 40
0.045
309
GRIDFORMAT_END
 95
       16
302
GRIDFORMAT
  1
GRIDFORMAT_BEGIN
 90
        0
 91
        1
 62
     0
 92
       -2
340
11
 93
        0
 40
0.045
309
GRIDFORMAT_END
 95
       32
302
GRIDFORMAT
  1
GRIDFORMAT_BEGIN
 90
        0
 91
        1
 62
     0
 92
       -2
340
11
 93
        0
 40
0.045
309
GRIDFORMAT_END
309
TABLEFORMAT_END
  1
CELLSTYLE_BEGIN
 90
        3
 91
        2
300
_DATA
309
CELLSTYLE_END
  0
ENDSEC
  0
EOF
