  0
SECTION
  2
HEADER
  9
$ACADVER
  1
AC1015
  9
$ACADMAINTVER
 70
     6
  9
$DWGCODEPAGE
  3
DOS932
  9
$INSBASE
 10
0.0
 20
0.0
 30
0.0
  9
$EXTMIN
 10
0.0
 20
0.0
 30
0.0
  9
$EXTMAX
 10
210.0
 20
297.0
 30
0.0
  9
$LIMMIN
 10
0.0
 20
0.0
  9
$LIMMAX
 10
210.0
 20
297.0
  9
$ORTHOMODE
 70
     0
  9
$REGENMODE
 70
     1
  9
$FILLMODE
 70
     1
  9
$QTEXTMODE
 70
     0
  9
$MIRRTEXT
 70
     1
  9
$LTSCALE
 40
1.0
  9
$ATTMODE
 70
     1
  9
$TEXTSIZE
 40
3.5
  9
$TRACEWID
 40
1.0
  9
$TEXTSTYLE
  7
Standard
  9
$CLAYER
  8
0
  9
$CELTYPE
  6
ByLayer
  9
$CECOLOR
 62
   256
  9
$CELTSCALE
 40
1.0
  9
$DISPSILH
 70
     0
  9
$DIMSCALE
 40
1.0
  9
$DIMASZ
 40
3.5
  9
$DIMEXO
 40
1.0
  9
$DIMDLI
 40
3.75
  9
$DIMRND
 40
0.0
  9
$DIMDLE
 40
0.0
  9
$DIMEXE
 40
1.0
  9
$DIMTP
 40
0.0
  9
$DIMTM
 40
0.0
  9
$DIMTXT
 40
3.5
  9
$DIMCEN
 40
2.5
  9
$DIMTSZ
 40
0.0
  9
$DIMTOL
 70
     0
  9
$DIMLIM
 70
     0
  9
$DIMTIH
 70
     1
  9
$DIMTOH
 70
     1
  9
$DIMSE1
 70
     0
  9
$DIMSE2
 70
     0
  9
$DIMTAD
 70
     1
  9
$DIMZIN
 70
     1
  9
$DIMBLK
  1

  9
$DIMASO
 70
     1
  9
$DIMSHO
 70
     1
  9
$DIMPOST
  1

  9
$DIMAPOST
  1

  9
$DIMALT
 70
     0
  9
$DIMALTD
 70
     3
  9
$DIMALTF
 40
0.0393700787
  9
$DIMLFAC
 40
100.0
  9
$DIMTOFL
 70
     1
  9
$DIMTVP
 40
0.0
  9
$DIMTIX
 70
     0
  9
$DIMSOXD
 70
     0
  9
$DIMSAH
 70
     0
  9
$DIMBLK1
  1

  9
$DIMBLK2
  1

  9
$DIMSTYLE
  2
ISO-25
  9
$DIMCLRD
 70
     0
  9
$DIMCLRE
 70
     0
  9
$DIMCLRT
 70
     0
  9
$DIMTFAC
 40
1.0
  9
$DIMGAP
 40
1.524
  9
$DIMJUST
 70
     0
  9
$DIMSD1
 70
     0
  9
$DIMSD2
 70
     0
  9
$DIMTOLJ
 70
     0
  9
$DIMTZIN
 70
     1
  9
$DIMALTZ
 70
     0
  9
$DIMALTTZ
 70
     0
  9
$DIMUPT
 70
     0
  9
$DIMDEC
 70
     2
  9
$DIMTDEC
 70
     2
  9
$DIMALTU
 70
     2
  9
$DIMALTTD
 70
     3
  9
$DIMTXSTY
  7
Standard
  9
$DIMAUNIT
 70
     0
  9
$DIMADEC
 70
     2
  9
$DIMALTRND
 40
0.0
  9
$DIMAZIN
 70
     0
  9
$DIMDSEP
 70
    44
  9
$DIMATFIT
 70
     3
  9
$DIMFRAC
 70
     0
  9
$DIMLDRBLK
  1

  9
$DIMLUNIT
 70
     2
  9
$DIMLWD
 70
    -2
  9
$DIMLWE
 70
    -2
  9
$DIMTMOVE
 70
     0
  9
$LUNITS
 70
     2
  9
$LUPREC
 70
     2
  9
$SKETCHINC
 40
1.0
  9
$FILLETRAD
 40
10.0
  9
$AUNITS
 70
     0
  9
$AUPREC
 70
     2
  9
$MENU
  1
.
  9
$ELEVATION
 40
0.0
  9
$PELEVATION
 40
0.0
  9
$THICKNESS
 40
0.0
  9
$LIMCHECK
 70
     0
  9
$CHAMFERA
 40
0.0
  9
$CHAMFERB
 40
0.0
  9
$CHAMFERC
 40
0.0
  9
$CHAMFERD
 40
0.0
  9
$SKPOLY
 70
     0
  9
$TDCREATE
 40
2459242.79271441
  9
$TDUCREATE
 40
2459242.41771441
  9
$TDUPDATE
 40
2459242.792714653
  9
$TDUUPDATE
 40
2459242.417714653
  9
$TDINDWG
 40
0.0000000116
  9
$TDUSRTIMER
 40
0.0000000116
  9
$USRTIMER
 70
     1
  9
$ANGBASE
 50
0.0
  9
$ANGDIR
 70
     0
  9
$PDMODE
 70
     0
  9
$PDSIZE
 40
-1.0
  9
$PLINEWID
 40
0.0
  9
$SPLFRAME
 70
     0
  9
$SPLINETYPE
 70
     6
  9
$SPLINESEGS
 70
     8
  9
$HANDSEED
  5
23A
  9
$SURFTAB1
 70
     6
  9
$SURFTAB2
 70
     6
  9
$SURFTYPE
 70
     6
  9
$SURFU
 70
     6
  9
$SURFV
 70
     6
  9
$UCSBASE
  2

  9
$UCSNAME
  2

  9
$UCSORG
 10
0.0
 20
0.0
 30
0.0
  9
$UCSXDIR
 10
1.0
 20
0.0
 30
0.0
  9
$UCSYDIR
 10
0.0
 20
1.0
 30
0.0
  9
$UCSORTHOREF
  2

  9
$UCSORTHOVIEW
 70
     0
  9
$UCSORGTOP
 10
0.0
 20
0.0
 30
0.0
  9
$UCSORGBOTTOM
 10
0.0
 20
0.0
 30
0.0
  9
$UCSORGLEFT
 10
0.0
 20
0.0
 30
0.0
  9
$UCSORGRIGHT
 10
0.0
 20
0.0
 30
0.0
  9
$UCSORGFRONT
 10
0.0
 20
0.0
 30
0.0
  9
$UCSORGBACK
 10
0.0
 20
0.0
 30
0.0
  9
$PUCSBASE
  2

  9
$PUCSNAME
  2

  9
$PUCSORG
 10
0.0
 20
0.0
 30
0.0
  9
$PUCSXDIR
 10
1.0
 20
0.0
 30
0.0
  9
$PUCSYDIR
 10
0.0
 20
1.0
 30
0.0
  9
$PUCSORTHOREF
  2

  9
$PUCSORTHOVIEW
 70
     0
  9
$PUCSORGTOP
 10
0.0
 20
0.0
 30
0.0
  9
$PUCSORGBOTTOM
 10
0.0
 20
0.0
 30
0.0
  9
$PUCSORGLEFT
 10
0.0
 20
0.0
 30
0.0
  9
$PUCSORGRIGHT
 10
0.0
 20
0.0
 30
0.0
  9
$PUCSORGFRONT
 10
0.0
 20
0.0
 30
0.0
  9
$PUCSORGBACK
 10
0.0
 20
0.0
 30
0.0
  9
$USERI1
 70
     0
  9
$USERI2
 70
     0
  9
$USERI3
 70
     0
  9
$USERI4
 70
     0
  9
$USERI5
 70
     0
  9
$USERR1
 40
0.0
  9
$USERR2
 40
0.0
  9
$USERR3
 40
0.0
  9
$USERR4
 40
0.0
  9
$USERR5
 40
0.0
  9
$WORLDVIEW
 70
     1
  9
$SHADEDGE
 70
     3
  9
$SHADEDIF
 70
    70
  9
$TILEMODE
 70
     1
  9
$MAXACTVP
 70
    64
  9
$PINSBASE
 10
0.0
 20
0.0
 30
0.0
  9
$PLIMCHECK
 70
     0
  9
$PEXTMIN
 10
1.0000000000E+20
 20
1.0000000000E+20
 30
1.0000000000E+20
  9
$PEXTMAX
 10
-1.0000000000E+20
 20
-1.0000000000E+20
 30
-1.0000000000E+20
  9
$PLIMMIN
 10
0.0
 20
0.0
  9
$PLIMMAX
 10
420.0
 20
297.0
  9
$UNITMODE
 70
     0
  9
$VISRETAIN
 70
     1
  9
$PLINEGEN
 70
     0
  9
$PSLTSCALE
 70
     1
  9
$TREEDEPTH
 70
  3020
  9
$CMLSTYLE
  2
Standard
  9
$CMLJUST
 70
     0
  9
$CMLSCALE
 40
20.0
  9
$PROXYGRAPHICS
 70
     1
  9
$MEASUREMENT
 70
     1
  9
$CELWEIGHT
370
    -1
  9
$ENDCAPS
280
     0
  9
$JOINSTYLE
280
     0
  9
$LWDISPLAY
290
     1
  9
$INSUNITS
 70
     4
  9
$HYPERLINKBASE
  1

  9
$STYLESHEET
  1

  9
$XEDIT
290
     1
  9
$CEPSNTYPE
380
     0
  9
$PSTYLEMODE
290
     1
  9
$FINGERPRINTGUID
  2
{70caaaf1-91b5-4533-bdfd-39b8f6ff032f}
  9
$VERSIONGUID
  2
{FAEB1C32-E019-11D5-929B-00C0DF256EC4}
  9
$EXTNAMES
290
     1
  9
$PSVPSCALE
 40
0.0
  9
$OLESTARTUP
290
     0
  0
ENDSEC
  0
SECTION
  2
CLASSES
  0
CLASS
  1
ACDBDICTIONARYWDFLT
  2
AcDbDictionaryWithDefault
  3
ObjectDBX Classes
 90
        0
280
     0
281
     0
  0
CLASS
  1
VISUALSTYLE
  2
AcDbVisualStyle
  3
ObjectDBX Classes
 90
     4095
280
     0
281
     0
  0
CLASS
  1
MATERIAL
  2
AcDbMaterial
  3
ObjectDBX Classes
 90
     1153
280
     0
281
     0
  0
CLASS
  1
SCALE
  2
AcDbScale
  3
ObjectDBX Classes
 90
     1153
280
     0
281
     0
  0
CLASS
  1
TABLESTYLE
  2
AcDbTableStyle
  3
ObjectDBX Classes
 90
     4095
280
     0
281
     0
  0
CLASS
  1
MLEADERSTYLE
  2
AcDbMLeaderStyle
  3
ACDB_MLEADERSTYLE_CLASS
 90
     4095
280
     0
281
     0
  0
CLASS
  1
SUN
  2
AcDbSun
  3
SCENEOE
 90
     1153
280
     0
281
     0
  0
CLASS
  1
ACDBPLACEHOLDER
  2
AcDbPlaceHolder
  3
ObjectDBX Classes
 90
        0
280
     0
281
     0
  0
CLASS
  1
LAYOUT
  2
AcDbLayout
  3
ObjectDBX Classes
 90
        0
280
     0
281
     0
  0
ENDSEC
  0
SECTION
  2
TABLES
  0
TABLE
  2
VPORT
  5
8
330
0
100
AcDbSymbolTable
 70
     1
  0
VPORT
  5
29
330
8
100
AcDbSymbolTableRecord
100
AcDbViewportTableRecord
  2
*Active
 70
     0
 10
0.0
 20
0.0
 11
1.0
 21
1.0
 12
105.0
 22
148.5
 13
0.0
 23
0.0
 14
10.0
 24
10.0
 15
10.0
 25
10.0
 16
0.0
 26
0.0
 36
1.0
 17
0.0
 27
0.0
 37
0.0
 40
297.0
 41
0.7070707071
 42
50.0
 43
0.0
 44
0.0
 50
0.0
 51
0.0
 71
     0
 72
  2000
 73
     1
 74
     3
 75
     0
 76
     0
 77
     0
 78
     0
281
     0
 65
     1
110
0.0
120
0.0
130
0.0
111
1.0
121
0.0
131
0.0
112
0.0
122
1.0
132
0.0
 79
     0
146
0.0
  0
ENDTAB
  0
TABLE
  2
LTYPE
  5
5
330
0
100
AcDbSymbolTable
 70
     6
  0
LTYPE
  5
14
330
5
100
AcDbSymbolTableRecord
100
AcDbLinetypeTableRecord
  2
ByBlock
 70
     0
  3

 72
    65
 73
     0
 40
0.0
  0
LTYPE
  5
15
330
5
100
AcDbSymbolTableRecord
100
AcDbLinetypeTableRecord
  2
ByLayer
 70
     0
  3

 72
    65
 73
     0
 40
0.0
  0
LTYPE
  5
16
330
5
100
AcDbSymbolTableRecord
100
AcDbLinetypeTableRecord
  2
Continuous
 70
     0
  3
Solid line
 72
    65
 73
     0
 40
0.0
  0
LTYPE
  5
6E
330
5
100
AcDbSymbolTableRecord
100
AcDbLinetypeTableRecord
  2
HIDDEN
 70
     0
  3
Hidden __ __ __ __ __ __ __ __ __ __ __ __ __ __
 72
    65
 73
     2
 40
1.905
 49
1.27
 74
     0
 49
-0.635
 74
     0
  0
LTYPE
  5
6F
330
5
100
AcDbSymbolTableRecord
100
AcDbLinetypeTableRecord
  2
PHANTOM
 70
     0
  3
Phantom ______  __  __  ______  __  __  ______
 72
    65
 73
     6
 40
12.7
 49
6.35
 74
     0
 49
-1.27
 74
     0
 49
1.27
 74
     0
 49
-1.27
 74
     0
 49
1.27
 74
     0
 49
-1.27
 74
     0
  0
LTYPE
  5
70
330
5
100
AcDbSymbolTableRecord
100
AcDbLinetypeTableRecord
  2
CENTER
 70
     0
  3
Center ____ _ ____ _ ____ _ ____ _ ____ _ ____
 72
    65
 73
     4
 40
10.16
 49
6.35
 74
     0
 49
-1.27
 74
     0
 49
1.27
 74
     0
 49
-1.27
 74
     0
  0
LTYPE
  5
71
330
5
100
AcDbSymbolTableRecord
100
AcDbLinetypeTableRecord
  2
CENTERX2
 70
     0
  3
Center (2x) ________  __  ________  __  _____
 72
    65
 73
     4
 40
20.32
 49
12.7
 74
     0
 49
-2.54
 74
     0
 49
2.54
 74
     0
 49
-2.54
 74
     0
  0
LTYPE
  5
72
330
5
100
AcDbSymbolTableRecord
100
AcDbLinetypeTableRecord
  2
DOT2
 70
     0
  3
Dot (.5x) ........................................
 72
    65
 73
     2
 40
0.635
 49
0.0
 74
     0
 49
-0.635
 74
     0
  0
ENDTAB
  0
TABLE
  2
LAYER
  5
2
330
0
100
AcDbSymbolTable
 70
     2
  0
LAYER
  5
10
330
2
100
AcDbSymbolTableRecord
100
AcDbLayerTableRecord
  2
0
 70
     0
 62
     7
  6
Continuous
370
    -3
390
F
  0
LAYER
  5
73
330
2
100
AcDbSymbolTableRecord
100
AcDbLayerTableRecord
  2
SLD-0
 70
     0
 62
   179
  6
Continuous
370
    -3
390
F
  0
ENDTAB
  0
TABLE
  2
STYLE
  5
3
330
0
100
AcDbSymbolTable
 70
     2
  0
STYLE
  5
11
330
3
100
AcDbSymbolTableRecord
100
AcDbTextStyleTableRecord
  2
Standard
 70
     0
 40
0.0
 41
1.0
 50
0.0
 71
     0
 42
3.5
  3
txt
  4
bigfont
  0
STYLE
  5
7A
330
3
100
AcDbSymbolTableRecord
100
AcDbTextStyleTableRecord
  2
SLDTEXTSTYLE0
 70
     0
 40
0.0
 41
0.7
 50
0.0
 71
     0
 42
3.5
  3
TXT
  4
bigfont
  0
ENDTAB
  0
TABLE
  2
VIEW
  5
6
330
0
100
AcDbSymbolTable
 70
     0
  0
ENDTAB
  0
TABLE
  2
UCS
  5
7
330
0
100
AcDbSymbolTable
 70
     0
  0
ENDTAB
  0
TABLE
  2
APPID
  5
9
330
0
100
AcDbSymbolTable
 70
     1
  0
APPID
  5
12
330
9
100
AcDbSymbolTableRecord
100
AcDbRegAppTableRecord
  2
ACAD
 70
     0
  0
ENDTAB
  0
TABLE
  2
DIMSTYLE
  5
A
330
0
100
AcDbSymbolTable
 70
     1
100
AcDbDimStyleTable
  0
DIMSTYLE
105
27
330
A
100
AcDbSymbolTableRecord
100
AcDbDimStyleTableRecord
  2
ISO-25
 70
     0
 41
2.5
 42
0.625
 43
3.75
 44
1.25
 73
     0
 74
     0
 77
     1
 78
     8
140
2.5
141
2.5
143
0.0393700787
147
0.625
171
     3
172
     1
178
     0
271
     2
272
     2
274
     3
278
    44
283
     0
284
     8
340
11
  0
ENDTAB
  0
TABLE
  2
BLOCK_RECORD
  5
1
330
0
100
AcDbSymbolTable
 70
     6
  0
BLOCK_RECORD
  5
1F
330
1
100
AcDbSymbolTableRecord
100
AcDbBlockTableRecord
  2
*Model_Space
340
22
  0
BLOCK_RECORD
  5
1B
330
1
100
AcDbSymbolTableRecord
100
AcDbBlockTableRecord
  2
*Paper_Space
340
1E
  0
BLOCK_RECORD
  5
23
330
1
100
AcDbSymbolTableRecord
100
AcDbBlockTableRecord
  2
*Paper_Space0
340
26
  0
BLOCK_RECORD
  5
74
330
1
100
AcDbSymbolTableRecord
100
AcDbBlockTableRecord
  2
SW_NOTE_0
340
0
102
{BLKREFS
331
236
102
}
  0
BLOCK_RECORD
  5
77
330
1
100
AcDbSymbolTableRecord
100
AcDbBlockTableRecord
  2
SW_NOTE_0_1
340
0
102
{BLKREFS
331
7C
102
}
  0
BLOCK_RECORD
  5
7D
330
1
100
AcDbSymbolTableRecord
100
AcDbBlockTableRecord
  2
SW_NOTE_0_2
340
0
102
{BLKREFS
331
81
102
}
  0
BLOCK_RECORD
  5
82
330
1
100
AcDbSymbolTableRecord
100
AcDbBlockTableRecord
  2
SW_NOTE_0_3
340
0
102
{BLKREFS
331
86
102
}
  0
BLOCK_RECORD
  5
87
330
1
100
AcDbSymbolTableRecord
100
AcDbBlockTableRecord
  2
SW_NOTE_0_4
340
0
102
{BLKREFS
331
8B
102
}
  0
ENDTAB
  0
ENDSEC
  0
SECTION
  2
BLOCKS
  0
BLOCK
  5
20
330
1F
100
AcDbEntity
  8
0
100
AcDbBlockBegin
  2
*Model_Space
 70
     0
 10
0.0
 20
0.0
 30
0.0
  3
*Model_Space
  1

  0
ENDBLK
  5
21
330
1F
100
AcDbEntity
  8
0
100
AcDbBlockEnd
  0
BLOCK
  5
1C
330
1B
100
AcDbEntity
 67
     1
  8
0
100
AcDbBlockBegin
  2
*Paper_Space
 70
     0
 10
0.0
 20
0.0
 30
0.0
  3
*Paper_Space
  1

  0
ENDBLK
  5
1D
330
1B
100
AcDbEntity
 67
     1
  8
0
100
AcDbBlockEnd
  0
BLOCK
  5
24
330
23
100
AcDbEntity
  8
0
100
AcDbBlockBegin
  2
*Paper_Space0
 70
     0
 10
0.0
 20
0.0
 30
0.0
  3
*Paper_Space0
  1

  0
ENDBLK
  5
25
330
23
100
AcDbEntity
  8
0
100
AcDbBlockEnd
  0
BLOCK
  5
75
330
74
100
AcDbEntity
  8
0
100
AcDbBlockBegin
  2
SW_NOTE_0
 70
     0
 10
0.0
 20
0.0
 30
0.0
  3
SW_NOTE_0
  1

  0
INSERT
  5
7C
330
74
100
AcDbEntity
  8
SLD-0
 62
   179
100
AcDbBlockReference
  2
SW_NOTE_0_1
 10
0.0
 20
-42.7272757075
 30
0.0
  0
INSERT
  5
81
330
74
100
AcDbEntity
  8
SLD-0
 62
   179
100
AcDbBlockReference
  2
SW_NOTE_0_2
 10
0.0
 20
-492.727256336
 30
0.0
  0
INSERT
  5
86
330
74
100
AcDbEntity
  8
SLD-0
 62
   179
100
AcDbBlockReference
  2
SW_NOTE_0_3
 10
0.0
 20
-942.7272369645
 30
0.0
  0
INSERT
  5
8B
330
74
100
AcDbEntity
  8
SLD-0
 62
   179
100
AcDbBlockReference
  2
SW_NOTE_0_4
 10
0.0
 20
-1369.6451866451
 30
0.0
  0
ENDBLK
  5
76
330
74
100
AcDbEntity
  8
0
100
AcDbBlockEnd
  0
BLOCK
  5
78
330
77
100
AcDbEntity
  8
0
100
AcDbBlockBegin
  2
SW_NOTE_0_1
 70
     0
 10
0.0
 20
0.0
 30
0.0
  3
SW_NOTE_0_1
  1

  0
MTEXT
  5
7B
330
77
100
AcDbEntity
  8
SLD-0
 62
     0
100
AcDbMText
 10
0.0
 20
451.1737089202
 30
0.0
 40
350.0
 41
0.0
 71
     1
 72
     1
  1
HAC-D33T
  7
SLDTEXTSTYLE0
 73
     1
 44
1.0
  0
ENDBLK
  5
79
330
77
100
AcDbEntity
  8
0
100
AcDbBlockEnd
  0
BLOCK
  5
7E
330
7D
100
AcDbEntity
  8
0
100
AcDbBlockBegin
  2
SW_NOTE_0_2
 70
     0
 10
0.0
 20
0.0
 30
0.0
  3
SW_NOTE_0_2
  1

  0
MTEXT
  5
80
330
7D
100
AcDbEntity
  8
SLD-0
 62
     0
100
AcDbMText
 10
0.0
 20
451.1737089202
 30
0.0
 40
350.0
 41
0.0
 71
     1
 72
     1
  1
HAC-W33T
  7
SLDTEXTSTYLE0
 73
     1
 44
1.0
  0
ENDBLK
  5
7F
330
7D
100
AcDbEntity
  8
0
100
AcDbBlockEnd
  0
BLOCK
  5
83
330
82
100
AcDbEntity
  8
0
100
AcDbBlockBegin
  2
SW_NOTE_0_3
 70
     0
 10
0.0
 20
0.0
 30
0.0
  3
SW_NOTE_0_3
  1

  0
MTEXT
  5
85
330
82
100
AcDbEntity
  8
SLD-0
 62
     0
100
AcDbMText
 10
0.0
 20
451.1737089202
 30
0.0
 40
350.0
 41
0.0
 71
     1
 72
     1
  1
HAC-B33T
  7
SLDTEXTSTYLE0
 73
     1
 44
1.0
  0
ENDBLK
  5
84
330
82
100
AcDbEntity
  8
0
100
AcDbBlockEnd
  0
BLOCK
  5
88
330
87
100
AcDbEntity
  8
0
100
AcDbBlockBegin
  2
SW_NOTE_0_4
 70
     0
 10
0.0
 20
0.0
 30
0.0
  3
SW_NOTE_0_4
  1

  0
MTEXT
  5
8A
330
87
100
AcDbEntity
  8
SLD-0
 62
     0
100
AcDbMText
 10
0.0
 20
451.1737089202
 30
0.0
 40
350.0
 41
0.0
 71
     1
 72
     1
  1
HAC-H33T
  7
SLDTEXTSTYLE0
 73
     1
 44
1.0
  0
ENDBLK
  5
89
330
87
100
AcDbEntity
  8
0
100
AcDbBlockEnd
  0
ENDSEC
  0
SECTION
  2
ENTITIES
  0
LINE
  5
8C
330
1F
100
AcDbEntity
  8
SLD-0
  6
Continuous
 62
   179
370
    25
100
AcDbLine
 10
42.6288729344
 20
174.9775462712
 30
0.0
 11
35.4177599584
 21
176.8439226712
 31
0.0
  0
LINE
  5
8D
330
1F
100
AcDbEntity
  8
SLD-0
  6
Continuous
 62
   179
370
    25
100
AcDbLine
 10
35.9556799565
 20
175.1552634801
 30
0.0
 11
42.2530298863
 21
173.5253923501
 31
0.0
  0
LINE
  5
8E
330
1F
100
AcDbEntity
  8
SLD-0
  6
Continuous
 62
   179
370
    25
100
AcDbLine
 10
42.5994282399
 20
173.6011319722
 30
0.0
 11
42.9691200887
 21
173.505448636
 31
0.0
  0
LINE
  5
8F
330
1F
100
AcDbEntity
  8
SLD-0
  6
Continuous
 62
   179
370
    25
100
AcDbLine
 10
43.1194430028
 20
174.0863078202
 30
0.0
 11
42.9370125784
 21
174.133700709
 31
0.0
  0
LINE
  5
90
330
1F
100
AcDbEntity
  8
SLD-0
  6
Continuous
 62
   179
370
    25
100
AcDbLine
 10
43.1194430028
 20
174.6851854886
 30
0.0
 11
42.8906919166
 21
174.738227662
 31
0.0
  0
LINE
  5
91
330
1F
100
AcDbEntity
  8
SLD-0
  6
Continuous
 62
   179
370
    25
100
AcDbLine
 10
43.0807238255
 20
173.453169402
 30
0.0
 11
43.5890083943
 21
173.1133037175
 31
0.0
  0
LINE
  5
92
330
1F
100
AcDbEntity
  8
SLD-0
  6
Continuous
 62
   179
370
    25
100
AcDbLine
 10
43.9225083028
 20
173.6120813455
 30
0.0
 11
43.414223734
 21
173.95194703
 31
0.0
  0
LINE
  5
93
330
1F
100
AcDbEntity
  8
SLD-0
  6
Continuous
 62
   179
370
    25
100
AcDbLine
 10
43.1344872151
 20
174.0807824697
 30
0.0
 11
43.2922487889
 21
174.086266097
 31
0.0
  0
LINE
  5
94
330
1F
100
AcDbEntity
  8
SLD-0
  6
Continuous
 62
   179
370
    25
100
AcDbLine
 10
43.2922487889
 20
174.086266097
 30
0.0
 11
43.8005571996
 21
174.1630130376
 31
0.0
  0
LINE
  5
95
330
1F
100
AcDbEntity
  8
SLD-0
  6
Continuous
 62
   179
370
    25
100
AcDbLine
 10
43.7109833394
 20
174.7562878694
 30
0.0
 11
43.2026749287
 21
174.6795409287
 31
0.0
  0
LINE
  5
96
330
1F
100
AcDbEntity
  8
SLD-0
  6
Continuous
 62
   179
370
    25
100
AcDbLine
 10
43.8837891255
 20
172.9789369668
 30
0.0
 11
45.1942091618
 21
172.6397746171
 31
0.0
  0
LINE
  5
97
330
1F
100
AcDbEntity
  8
SLD-0
  6
Continuous
 62
   179
370
    25
100
AcDbLine
 10
45.3445559178
 20
173.2206338014
 30
0.0
 11
44.0341120397
 21
173.5598021115
 31
0.0
  0
LINE
  5
98
330
1F
100
AcDbEntity
  8
SLD-0
  6
Continuous
 62
   179
370
    25
100
AcDbLine
 10
43.8837891255
 20
174.1573684777
 30
0.0
 11
45.1942091618
 21
173.818206128
 31
0.0
  0
LINE
  5
99
330
1F
100
AcDbEntity
  8
SLD-0
  6
Continuous
 62
   179
370
    25
100
AcDbLine
 10
45.3445559178
 20
174.3990653123
 30
0.0
 11
44.0341120397
 21
174.738227662
 31
0.0
  0
LINE
  5
9A
330
1F
100
AcDbEntity
  8
SLD-0
  6
Continuous
 62
   179
370
    25
100
AcDbLine
 10
45.1315766011
 20
172.0210366811
 30
0.0
 11
186.5529184972
 21
135.4184918965
 31
0.0
  0
LINE
  5
9B
330
1F
100
AcDbEntity
  8
SLD-0
  6
Continuous
 62
   179
370
    25
100
AcDbLine
 10
45.7549219762
 20
172.4922412004
 30
0.0
 11
187.1762877141
 21
135.8897023763
 31
0.0
  0
LINE
  5
9C
330
1F
100
AcDbEntity
  8
SLD-0
  6
Continuous
 62
   179
370
    25
100
AcDbLine
 10
70.0594311391
 20
167.0411639775
 30
0.0
 11
72.1807604466
 21
166.4921277131
 31
0.0
  0
LINE
  5
9D
330
1F
100
AcDbEntity
  8
SLD-0
  6
Continuous
 62
   179
370
    25
100
AcDbLine
 10
72.3023062383
 20
168.5938768949
 30
0.0
 11
70.1809769307
 21
169.1429131593
 31
0.0
  0
LINE
  5
9E
330
1F
100
AcDbEntity
  8
SLD-0
  6
Continuous
 62
   179
370
    25
100
AcDbLine
 10
164.1046171819
 20
142.7004747952
 30
0.0
 11
166.2259703313
 21
142.1514325704
 31
0.0
  0
LINE
  5
9F
330
1F
100
AcDbEntity
  8
SLD-0
  6
Continuous
 62
   179
370
    25
100
AcDbLine
 10
166.3475161229
 20
144.2531877126
 30
0.0
 11
164.2261629735
 21
144.8022299375
 31
0.0
  0
LINE
  5
A0
330
1F
100
AcDbEntity
  8
SLD-0
  6
Continuous
 62
   179
370
    25
100
AcDbLine
 10
42.2530298863
 20
173.5253923501
 30
0.0
 11
42.277086321
 21
173.5200636949
 31
0.0
  0
LINE
  5
A1
330
1F
100
AcDbEntity
  8
SLD-0
  6
Continuous
 62
   179
370
    25
100
AcDbLine
 10
42.277086321
 20
173.5200636949
 30
0.0
 11
42.4409514104
 21
173.5270255174
 31
0.0
  0
LINE
  5
A2
330
1F
100
AcDbEntity
  8
SLD-0
  6
Continuous
 62
   179
370
    25
100
AcDbLine
 10
42.4409514104
 20
173.5270255174
 30
0.0
 11
42.6048403417
 21
173.6048989858
 31
0.0
  0
LINE
  5
A3
330
1F
100
AcDbEntity
  8
SLD-0
  6
Continuous
 62
   179
370
    25
100
AcDbLine
 10
42.6048403417
 20
173.6048989858
 30
0.0
 11
42.7526837026
 21
173.746060666
 31
0.0
  0
LINE
  5
A4
330
1F
100
AcDbEntity
  8
SLD-0
  6
Continuous
 62
   179
370
    25
100
AcDbLine
 10
42.7526837026
 20
173.746060666
 30
0.0
 11
42.8700094853
 21
173.9367001618
 31
0.0
  0
LINE
  5
A5
330
1F
100
AcDbEntity
  8
SLD-0
  6
Continuous
 62
   179
370
    25
100
AcDbLine
 10
42.8700094853
 20
173.9367001618
 30
0.0
 11
42.9453259145
 21
174.1581433381
 31
0.0
  0
LINE
  5
A6
330
1F
100
AcDbEntity
  8
SLD-0
  6
Continuous
 62
   179
370
    25
100
AcDbLine
 10
42.9453259145
 20
174.1581433381
 30
0.0
 11
42.9712896977
 21
174.3887298669
 31
0.0
  0
LINE
  5
A7
330
1F
100
AcDbEntity
  8
SLD-0
  6
Continuous
 62
   179
370
    25
100
AcDbLine
 10
42.9712896977
 20
174.3887298669
 30
0.0
 11
42.9453259145
 21
174.6058755483
 31
0.0
  0
LINE
  5
A8
330
1F
100
AcDbEntity
  8
SLD-0
  6
Continuous
 62
   179
370
    25
100
AcDbLine
 10
42.9453259145
 20
174.6058755483
 30
0.0
 11
42.8700094853
 21
174.7883313264
 31
0.0
  0
LINE
  5
A9
330
1F
100
AcDbEntity
  8
SLD-0
  6
Continuous
 62
   179
370
    25
100
AcDbLine
 10
42.8700094853
 20
174.7883313264
 30
0.0
 11
42.7526837026
 21
174.9182396497
 31
0.0
  0
LINE
  5
AA
330
1F
100
AcDbEntity
  8
SLD-0
  6
Continuous
 62
   179
370
    25
100
AcDbLine
 10
42.7526837026
 20
174.9182396497
 30
0.0
 11
42.6288729344
 21
174.9775462712
 31
0.0
  0
LINE
  5
AB
330
1F
100
AcDbEntity
  8
SLD-0
  6
Continuous
 62
   179
370
    25
100
AcDbLine
 10
45.1942091618
 20
172.6397746171
 30
0.0
 11
45.2693825398
 21
172.6404243077
 31
0.0
  0
LINE
  5
AC
330
1F
100
AcDbEntity
  8
SLD-0
  6
Continuous
 62
   179
370
    25
100
AcDbLine
 10
45.2693825398
 20
172.6404243077
 30
0.0
 11
45.350564066
 21
172.683494624
 31
0.0
  0
LINE
  5
AD
330
1F
100
AcDbEntity
  8
SLD-0
  6
Continuous
 62
   179
370
    25
100
AcDbLine
 10
45.350564066
 20
172.683494624
 30
0.0
 11
45.4193955098
 21
172.764121827
 31
0.0
  0
LINE
  5
AE
330
1F
100
AcDbEntity
  8
SLD-0
  6
Continuous
 62
   179
370
    25
100
AcDbLine
 10
45.4193955098
 20
172.764121827
 30
0.0
 11
45.4653626119
 21
172.8700333203
 31
0.0
  0
LINE
  5
AF
330
1F
100
AcDbEntity
  8
SLD-0
  6
Continuous
 62
   179
370
    25
100
AcDbLine
 10
45.4653626119
 20
172.8700333203
 30
0.0
 11
45.4815273915
 21
172.9851060475
 31
0.0
  0
LINE
  5
B0
330
1F
100
AcDbEntity
  8
SLD-0
  6
Continuous
 62
   179
370
    25
100
AcDbLine
 10
45.1942091618
 20
173.818206128
 30
0.0
 11
45.2693825398
 21
173.8188558187
 31
0.0
  0
LINE
  5
B1
330
1F
100
AcDbEntity
  8
SLD-0
  6
Continuous
 62
   179
370
    25
100
AcDbLine
 10
45.2693825398
 20
173.8188558187
 30
0.0
 11
45.350564066
 21
173.861926135
 31
0.0
  0
LINE
  5
B2
330
1F
100
AcDbEntity
  8
SLD-0
  6
Continuous
 62
   179
370
    25
100
AcDbLine
 10
45.350564066
 20
173.861926135
 30
0.0
 11
45.4193955098
 21
173.942553338
 31
0.0
  0
LINE
  5
B3
330
1F
100
AcDbEntity
  8
SLD-0
  6
Continuous
 62
   179
370
    25
100
AcDbLine
 10
45.4193955098
 20
173.942553338
 30
0.0
 11
45.4653626119
 21
174.0484648313
 31
0.0
  0
LINE
  5
B4
330
1F
100
AcDbEntity
  8
SLD-0
  6
Continuous
 62
   179
370
    25
100
AcDbLine
 10
45.4653626119
 20
174.0484648313
 30
0.0
 11
45.4815273915
 21
174.1635375585
 31
0.0
  0
LINE
  5
B5
330
1F
100
AcDbEntity
  8
SLD-0
  6
Continuous
 62
   179
370
    25
100
AcDbLine
 10
187.0677118932
 20
135.9178000058
 30
0.0
 11
187.0499735509
 21
135.8403735723
 31
0.0
  0
LINE
  5
B6
330
1F
100
AcDbEntity
  8
SLD-0
  6
Continuous
 62
   179
370
    25
100
AcDbLine
 10
187.0499735509
 20
135.8403735723
 30
0.0
 11
186.9656687413
 21
135.6463127698
 31
0.0
  0
LINE
  5
B7
330
1F
100
AcDbEntity
  8
SLD-0
  6
Continuous
 62
   179
370
    25
100
AcDbLine
 10
186.9656687413
 20
135.6463127698
 30
0.0
 11
186.8394976293
 21
135.4986005391
 31
0.0
  0
LINE
  5
B8
330
1F
100
AcDbEntity
  8
SLD-0
  6
Continuous
 62
   179
370
    25
100
AcDbLine
 10
186.8394976293
 20
135.4986005391
 30
0.0
 11
186.6907244359
 21
135.4196959104
 31
0.0
  0
LINE
  5
B9
330
1F
100
AcDbEntity
  8
SLD-0
  6
Continuous
 62
   179
370
    25
100
AcDbLine
 10
186.6907244359
 20
135.4196959104
 30
0.0
 11
186.5529184972
 21
135.4184918965
 31
0.0
  0
LINE
  5
BA
330
1F
100
AcDbEntity
  8
SLD-0
  6
Continuous
 62
   179
370
    25
100
AcDbLine
 10
45.6582909261
 20
172.6541512574
 30
0.0
 11
45.6286793385
 21
172.4431865777
 31
0.0
  0
LINE
  5
BB
330
1F
100
AcDbEntity
  8
SLD-0
  6
Continuous
 62
   179
370
    25
100
AcDbLine
 10
45.6286793385
 20
172.4431865777
 30
0.0
 11
45.544374529
 21
172.2490125264
 31
0.0
  0
LINE
  5
BC
330
1F
100
AcDbEntity
  8
SLD-0
  6
Continuous
 62
   179
370
    25
100
AcDbLine
 10
45.544374529
 20
172.2490125264
 30
0.0
 11
45.4182034169
 21
172.1011930074
 31
0.0
  0
LINE
  5
BD
330
1F
100
AcDbEntity
  8
SLD-0
  6
Continuous
 62
   179
370
    25
100
AcDbLine
 10
45.4182034169
 20
172.1011930074
 30
0.0
 11
45.2693825398
 21
172.0222347344
 31
0.0
  0
LINE
  5
BE
330
1F
100
AcDbEntity
  8
SLD-0
  6
Continuous
 62
   179
370
    25
100
AcDbLine
 10
45.2693825398
 20
172.0222347344
 30
0.0
 11
45.1205616628
 21
172.024154004
 31
0.0
  0
LINE
  5
BF
330
1F
100
AcDbEntity
  8
SLD-0
  6
Continuous
 62
   179
370
    25
100
AcDbLine
 10
45.1205616628
 20
172.024154004
 30
0.0
 11
44.9943905507
 21
172.1066587533
 31
0.0
  0
LINE
  5
C0
330
1F
100
AcDbEntity
  8
SLD-0
  6
Continuous
 62
   179
370
    25
100
AcDbLine
 10
44.9943905507
 20
172.1066587533
 30
0.0
 11
44.9100857411
 21
172.2571962441
 31
0.0
  0
LINE
  5
C1
330
1F
100
AcDbEntity
  8
SLD-0
  6
Continuous
 62
   179
370
    25
100
AcDbLine
 10
44.9100857411
 20
172.2571962441
 30
0.0
 11
44.8804741536
 21
172.4528365697
 31
0.0
  0
LINE
  5
C2
330
1F
100
AcDbEntity
  8
SLD-0
  6
Continuous
 62
   179
370
    25
100
AcDbLine
 10
45.1402788792
 20
174.4519346322
 30
0.0
 11
45.6582909261
 21
174.5860033597
 31
0.0
  0
LINE
  5
C3
330
1F
100
AcDbEntity
  8
SLD-0
  6
Continuous
 62
   179
370
    25
100
AcDbLine
 10
45.6582909261
 20
174.5860033597
 30
0.0
 11
45.6582909261
 21
172.6541512574
 31
0.0
  0
LINE
  5
C4
330
1F
100
AcDbEntity
  8
SLD-0
  6
Continuous
 62
   179
370
    25
100
AcDbLine
 10
44.8804741536
 20
172.4528365697
 30
0.0
 11
44.8804741536
 21
172.7209740247
 31
0.0
  0
LINE
  5
C5
330
1F
100
AcDbEntity
  8
SLD-0
  6
Continuous
 62
   179
370
    25
100
AcDbLine
 10
44.8804741536
 20
173.3407490815
 30
0.0
 11
44.8804741536
 21
173.8994055356
 31
0.0
  0
LINE
  5
C6
330
1F
100
AcDbEntity
  8
SLD-0
  6
Continuous
 62
   179
370
    25
100
AcDbLine
 10
45.6936484013
 20
174.5768540467
 30
0.0
 11
45.6582909261
 21
174.5860033597
 31
0.0
  0
LINE
  5
C7
330
1F
100
AcDbEntity
  8
SLD-0
  6
Continuous
 62
   179
370
    25
100
AcDbLine
 10
44.6329956685
 20
174.6104114617
 30
0.0
 11
44.6185713445
 21
174.5869629945
 31
0.0
  0
LINE
  5
C8
330
1F
100
AcDbEntity
  8
SLD-0
  6
Continuous
 62
   179
370
    25
100
AcDbLine
 10
45.905793253
 20
174.9398344125
 30
0.0
 11
44.6329956685
 21
174.6104114617
 31
0.0
  0
LINE
  5
C9
330
1F
100
AcDbEntity
  8
SLD-0
  6
Continuous
 62
   179
370
    25
100
AcDbLine
 10
46.0471993123
 20
174.7832530107
 30
0.0
 11
45.905793253
 21
174.9398344125
 31
0.0
  0
LINE
  5
CA
330
1F
100
AcDbEntity
  8
SLD-0
  6
Continuous
 62
   179
370
    25
100
AcDbLine
 10
46.0471993123
 20
173.8559656705
 30
0.0
 11
46.0471993123
 21
174.7832530107
 31
0.0
  0
LINE
  5
CB
330
1F
100
AcDbEntity
  8
SLD-0
  6
Continuous
 62
   179
370
    25
100
AcDbLine
 10
45.8774929677
 20
173.7734013165
 30
0.0
 11
46.0189228688
 21
173.8100045289
 31
0.0
  0
LINE
  5
CC
330
1F
100
AcDbEntity
  8
SLD-0
  6
Continuous
 62
   179
370
    25
100
AcDbLine
 10
45.8350783025
 20
172.5067191686
 30
0.0
 11
45.8350783025
 21
173.7044685449
 31
0.0
  0
LINE
  5
CD
330
1F
100
AcDbEntity
  8
SLD-0
  6
Continuous
 62
   179
370
    25
100
AcDbLine
 10
45.7799797688
 20
172.4924557771
 30
0.0
 11
45.8350783025
 21
172.5067191686
 31
0.0
  0
LINE
  5
CE
330
1F
100
AcDbEntity
  8
SLD-0
  6
Continuous
 62
   179
370
    25
100
AcDbLine
 10
45.6619148885
 20
172.7368109788
 30
0.0
 11
45.7128887807
 21
172.5411408509
 31
0.0
  0
LINE
  5
CF
330
1F
100
AcDbEntity
  8
SLD-0
  6
Continuous
 62
   179
370
    25
100
AcDbLine
 10
45.6582909261
 20
172.9211264218
 30
0.0
 11
45.6582909261
 21
172.7664166059
 31
0.0
  0
LINE
  5
D0
330
1F
100
AcDbEntity
  8
SLD-0
  6
Continuous
 62
   179
370
    25
100
AcDbLine
 10
45.6778412496
 20
173.0023794736
 30
0.0
 11
45.6657534276
 21
172.9662530984
 31
0.0
  0
LINE
  5
D1
330
1F
100
AcDbEntity
  8
SLD-0
  6
Continuous
 62
   179
370
    25
100
AcDbLine
 10
45.6657534276
 20
173.1186502542
 30
0.0
 11
45.6778412496
 21
173.0887764062
 31
0.0
  0
LINE
  5
D2
330
1F
100
AcDbEntity
  8
SLD-0
  6
Continuous
 62
   179
370
    25
100
AcDbLine
 10
45.6582909261
 20
173.3074956502
 30
0.0
 11
45.6582909261
 21
173.1599145497
 31
0.0
  0
LINE
  5
D3
330
1F
100
AcDbEntity
  8
SLD-0
  6
Continuous
 62
   179
370
    25
100
AcDbLine
 10
45.6778412496
 20
173.3887546624
 30
0.0
 11
45.6657534276
 21
173.3526282872
 31
0.0
  0
LINE
  5
D4
330
1F
100
AcDbEntity
  8
SLD-0
  6
Continuous
 62
   179
370
    25
100
AcDbLine
 10
45.6657534276
 20
173.5050194825
 30
0.0
 11
45.6778412496
 21
173.4751456346
 31
0.0
  0
LINE
  5
D5
330
1F
100
AcDbEntity
  8
SLD-0
  6
Continuous
 62
   179
370
    25
100
AcDbLine
 10
45.6582909261
 20
173.6938648786
 30
0.0
 11
45.6582909261
 21
173.5462837781
 31
0.0
  0
LINE
  5
D6
330
1F
100
AcDbEntity
  8
SLD-0
  6
Continuous
 62
   179
370
    25
100
AcDbLine
 10
45.6861858998
 20
173.800086316
 30
0.0
 11
45.6657534276
 21
173.7389975156
 31
0.0
  0
LINE
  5
D7
330
1F
100
AcDbEntity
  8
SLD-0
  6
Continuous
 62
   179
370
    25
100
AcDbLine
 10
45.6936484013
 20
174.5951526727
 30
0.0
 11
45.6936484013
 21
173.8452129926
 31
0.0
  0
LINE
  5
D8
330
1F
100
AcDbEntity
  8
SLD-0
  6
Continuous
 62
   179
370
    25
100
AcDbLine
 10
45.1402788792
 20
174.4519346322
 30
0.0
 11
45.6936484013
 21
174.5951526727
 31
0.0
  0
LINE
  5
D9
330
1F
100
AcDbEntity
  8
SLD-0
  6
Continuous
 62
   179
370
    25
100
AcDbLine
 10
44.8451166783
 20
173.6255996789
 30
0.0
 11
44.8451166783
 21
173.9085548486
 31
0.0
  0
LINE
  5
DA
330
1F
100
AcDbEntity
  8
SLD-0
  6
Continuous
 62
   179
370
    25
100
AcDbLine
 10
44.8730116521
 20
173.5338204469
 30
0.0
 11
44.8525791798
 21
173.5843353833
 31
0.0
  0
LINE
  5
DB
330
1F
100
AcDbEntity
  8
SLD-0
  6
Continuous
 62
   179
370
    25
100
AcDbLine
 10
44.8804741536
 20
173.3449750508
 30
0.0
 11
44.8804741536
 21
173.4925501908
 31
0.0
  0
LINE
  5
DC
330
1F
100
AcDbEntity
  8
SLD-0
  6
Continuous
 62
   179
370
    25
100
AcDbLine
 10
44.880402628
 20
173.3407610024
 30
0.0
 11
44.8804741536
 21
173.3449750508
 31
0.0
  0
LINE
  5
DD
330
1F
100
AcDbEntity
  8
SLD-0
  6
Continuous
 62
   179
370
    25
100
AcDbLine
 10
44.8804741536
 20
172.5651019181
 30
0.0
 11
44.8804741536
 21
172.7198117341
 31
0.0
  0
LINE
  5
DE
330
1F
100
AcDbEntity
  8
SLD-0
  6
Continuous
 62
   179
370
    25
100
AcDbLine
 10
44.825876299
 20
172.3115676011
 30
0.0
 11
44.8768501912
 21
172.5336187448
 31
0.0
  0
LINE
  5
DF
330
1F
100
AcDbEntity
  8
SLD-0
  6
Continuous
 62
   179
370
    25
100
AcDbLine
 10
44.7037106191
 20
172.2138994302
 30
0.0
 11
44.7588091527
 21
172.2281568612
 31
0.0
  0
LINE
  5
E0
330
1F
100
AcDbEntity
  8
SLD-0
  6
Continuous
 62
   179
370
    25
100
AcDbLine
 10
44.7037106191
 20
173.411642846
 30
0.0
 11
44.7037106191
 21
173.3865016068
 31
0.0
  0
LINE
  5
E1
330
1F
100
AcDbEntity
  8
SLD-0
  6
Continuous
 62
   179
370
    25
100
AcDbLine
 10
44.7037106191
 20
172.76672655
 30
0.0
 11
44.7037106191
 21
172.2138994302
 31
0.0
  0
LINE
  5
E2
330
1F
100
AcDbEntity
  8
SLD-0
  6
Continuous
 62
   179
370
    25
100
AcDbLine
 10
44.661272112
 20
173.458623227
 30
0.0
 11
44.6695452367
 21
173.4596484269
 31
0.0
  0
LINE
  5
E3
330
1F
100
AcDbEntity
  8
SLD-0
  6
Continuous
 62
   179
370
    25
100
AcDbLine
 10
44.6695452367
 20
173.4596484269
 30
0.0
 11
44.6775084172
 21
173.4584086503
 31
0.0
  0
LINE
  5
E4
330
1F
100
AcDbEntity
  8
SLD-0
  6
Continuous
 62
   179
370
    25
100
AcDbLine
 10
44.6775084172
 20
173.4584086503
 30
0.0
 11
44.6848517095
 21
173.4549515809
 31
0.0
  0
LINE
  5
E5
330
1F
100
AcDbEntity
  8
SLD-0
  6
Continuous
 62
   179
370
    25
100
AcDbLine
 10
44.6848517095
 20
173.4549515809
 30
0.0
 11
44.6912651692
 21
173.4494083489
 31
0.0
  0
LINE
  5
E6
330
1F
100
AcDbEntity
  8
SLD-0
  6
Continuous
 62
   179
370
    25
100
AcDbLine
 10
44.6912651692
 20
173.4494083489
 30
0.0
 11
44.6965580617
 21
173.4419935311
 31
0.0
  0
LINE
  5
E7
330
1F
100
AcDbEntity
  8
SLD-0
  6
Continuous
 62
   179
370
    25
100
AcDbLine
 10
44.6965580617
 20
173.4419935311
 30
0.0
 11
44.7004681264
 21
173.4329872693
 31
0.0
  0
LINE
  5
E8
330
1F
100
AcDbEntity
  8
SLD-0
  6
Continuous
 62
   179
370
    25
100
AcDbLine
 10
44.7004681264
 20
173.4329872693
 30
0.0
 11
44.702876154
 21
173.4227412309
 31
0.0
  0
LINE
  5
E9
330
1F
100
AcDbEntity
  8
SLD-0
  6
Continuous
 62
   179
370
    25
100
AcDbLine
 10
44.702876154
 20
173.4227412309
 30
0.0
 11
44.7037106191
 21
173.411642846
 31
0.0
  0
LINE
  5
EA
330
1F
100
AcDbEntity
  8
SLD-0
  6
Continuous
 62
   179
370
    25
100
AcDbLine
 10
44.5431595479
 20
173.4280520047
 30
0.0
 11
44.661272112
 21
173.458623227
 31
0.0
  0
LINE
  5
EB
330
1F
100
AcDbEntity
  8
SLD-0
  6
Continuous
 62
   179
370
    25
100
AcDbLine
 10
44.4915657674
 20
173.453336295
 30
0.0
 11
44.4921141301
 21
173.4459393586
 31
0.0
  0
LINE
  5
EC
330
1F
100
AcDbEntity
  8
SLD-0
  6
Continuous
 62
   179
370
    25
100
AcDbLine
 10
44.4921141301
 20
173.4459393586
 30
0.0
 11
44.4931631719
 21
173.4409921731
 31
0.0
  0
LINE
  5
ED
330
1F
100
AcDbEntity
  8
SLD-0
  6
Continuous
 62
   179
370
    25
100
AcDbLine
 10
44.4915657674
 20
174.0000598992
 30
0.0
 11
44.4915657674
 21
173.453336295
 31
0.0
  0
LINE
  5
EE
330
1F
100
AcDbEntity
  8
SLD-0
  6
Continuous
 62
   179
370
    25
100
AcDbLine
 10
45.8350783025
 20
172.5067191686
 30
0.0
 11
187.2564440404
 21
135.904174384
 31
0.0
  0
LINE
  5
EF
330
1F
100
AcDbEntity
  8
SLD-0
  6
Continuous
 62
   179
370
    25
100
AcDbLine
 10
187.2564440404
 20
135.904174384
 30
0.0
 11
187.2564440404
 21
137.1019297208
 31
0.0
  0
LINE
  5
F0
330
1F
100
AcDbEntity
  8
SLD-0
  6
Continuous
 62
   179
370
    25
100
AcDbLine
 10
187.2013216649
 20
135.889916953
 30
0.0
 11
187.2564440404
 21
135.904174384
 31
0.0
  0
LINE
  5
F1
330
1F
100
AcDbEntity
  8
SLD-0
  6
Continuous
 62
   179
370
    25
100
AcDbLine
 10
45.7799797688
 20
172.4924557771
 30
0.0
 11
187.2013216649
 21
135.889916953
 31
0.0
  0
LINE
  5
F2
330
1F
100
AcDbEntity
  8
SLD-0
  6
Continuous
 62
   179
370
    25
100
AcDbLine
 10
187.4685412084
 20
138.1807141866
 30
0.0
 11
166.3371687566
 21
143.6499171819
 31
0.0
  0
LINE
  5
F3
330
1F
100
AcDbEntity
  8
SLD-0
  6
Continuous
 62
   179
370
    25
100
AcDbLine
 10
164.0086298619
 20
144.2525797452
 30
0.0
 11
72.2919588719
 21
167.9906123246
 31
0.0
  0
LINE
  5
F4
330
1F
100
AcDbEntity
  8
SLD-0
  6
Continuous
 62
   179
370
    25
100
AcDbLine
 10
69.9634438191
 20
168.5932748879
 30
0.0
 11
46.0471993123
 21
174.7832530107
 31
0.0
  0
LINE
  5
F5
330
1F
100
AcDbEntity
  8
SLD-0
  6
Continuous
 62
   179
370
    25
100
AcDbLine
 10
187.4685412084
 20
137.2534208859
 30
0.0
 11
187.4685412084
 21
138.1807141866
 31
0.0
  0
LINE
  5
F6
330
1F
100
AcDbEntity
  8
SLD-0
  6
Continuous
 62
   179
370
    25
100
AcDbLine
 10
187.2988348637
 20
137.170856532
 30
0.0
 11
187.4402647649
 21
137.2074657048
 31
0.0
  0
LINE
  5
F7
330
1F
100
AcDbEntity
  8
SLD-0
  6
Continuous
 62
   179
370
    25
100
AcDbLine
 10
45.905793253
 20
174.9398344125
 30
0.0
 11
69.9693804417
 21
168.7117152776
 31
0.0
  0
LINE
  5
F8
330
1F
100
AcDbEntity
  8
SLD-0
  6
Continuous
 62
   179
370
    25
100
AcDbLine
 10
72.2978954945
 20
168.1090527143
 30
0.0
 11
164.0145903264
 21
144.3710260953
 31
0.0
  0
LINE
  5
F9
330
1F
100
AcDbEntity
  8
SLD-0
  6
Continuous
 62
   179
370
    25
100
AcDbLine
 10
166.3430815373
 20
143.768363532
 30
0.0
 11
187.3271589909
 21
138.3372955884
 31
0.0
  0
LINE
  5
FA
330
1F
100
AcDbEntity
  8
SLD-0
  6
Continuous
 62
   179
370
    25
100
AcDbLine
 10
187.3271589909
 20
138.3372955884
 30
0.0
 11
187.4685412084
 21
138.1807141866
 31
0.0
  0
LINE
  5
FB
330
1F
100
AcDbEntity
  8
SLD-0
  6
Continuous
 62
   179
370
    25
100
AcDbLine
 10
44.7037106191
 20
172.2138994302
 30
0.0
 11
44.9631577168
 21
172.1467428769
 31
0.0
  0
LINE
  5
FC
330
1F
100
AcDbEntity
  8
SLD-0
  6
Continuous
 62
   179
370
    25
100
AcDbLine
 10
68.2414894734
 20
170.1482408608
 30
0.0
 11
66.3303023015
 21
169.6535819139
 31
0.0
  0
LINE
  5
FD
330
1F
100
AcDbEntity
  8
SLD-0
  6
Continuous
 62
   179
370
    25
100
AcDbLine
 10
68.2414894734
 20
169.761865672
 30
0.0
 11
68.2414894734
 21
170.1482408608
 31
0.0
  0
LINE
  5
FE
330
1F
100
AcDbEntity
  8
SLD-0
  6
Continuous
 62
   179
370
    25
100
AcDbLine
 10
67.0766955052
 20
169.4603972997
 30
0.0
 11
68.2414894734
 21
169.761865672
 31
0.0
  0
LINE
  5
FF
330
1F
100
AcDbEntity
  8
SLD-0
  6
Continuous
 62
   179
370
    25
100
AcDbLine
 10
68.4909229909
 20
169.0943711366
 30
0.0
 11
68.6233406697
 21
169.1286438073
 31
0.0
  0
LINE
  5
100
330
1F
100
AcDbEntity
  8
SLD-0
  6
Continuous
 62
   179
370
    25
100
AcDbLine
 10
68.8071852361
 20
169.7618716325
 30
0.0
 11
68.2414894734
 21
169.761865672
 31
0.0
  0
LINE
  5
101
330
1F
100
AcDbEntity
  8
SLD-0
  6
Continuous
 62
   179
370
    25
100
AcDbLine
 10
68.8071852361
 20
169.7618716325
 30
0.0
 11
69.9385529195
 21
169.4690459336
 31
0.0
  0
LINE
  5
102
330
1F
100
AcDbEntity
  8
SLD-0
  6
Continuous
 62
   179
370
    25
100
AcDbLine
 10
69.6981316243
 20
169.4068246449
 30
0.0
 11
69.9385529195
 21
169.4690459336
 31
0.0
  0
LINE
  5
103
330
1F
100
AcDbEntity
  8
SLD-0
  6
Continuous
 62
   179
370
    25
100
AcDbLine
 10
73.1912499104
 20
168.6271899308
 30
0.0
 11
72.059882227
 21
168.9200096692
 31
0.0
  0
LINE
  5
104
330
1F
100
AcDbEntity
  8
SLD-0
  6
Continuous
 62
   179
370
    25
100
AcDbLine
 10
73.1912499104
 20
168.4807770814
 30
0.0
 11
73.1912499104
 21
168.6271899308
 31
0.0
  0
LINE
  5
105
330
1F
100
AcDbEntity
  8
SLD-0
  6
Continuous
 62
   179
370
    25
100
AcDbLine
 10
72.3050242101
 20
168.2514124478
 30
0.0
 11
73.1912499104
 21
168.4807770814
 31
0.0
  0
LINE
  5
106
330
1F
100
AcDbEntity
  8
SLD-0
  6
Continuous
 62
   179
370
    25
100
AcDbLine
 10
67.7111750279
 20
169.4232934083
 30
0.0
 11
67.6136141454
 21
169.385510024
 31
0.0
  0
LINE
  5
107
330
1F
100
AcDbEntity
  8
SLD-0
  6
Continuous
 62
   179
370
    25
100
AcDbLine
 10
67.6136141454
 20
169.385510024
 30
0.0
 11
67.5793772374
 21
169.3409376706
 31
0.0
  0
LINE
  5
108
330
1F
100
AcDbEntity
  8
SLD-0
  6
Continuous
 62
   179
370
    25
100
AcDbLine
 10
67.5793772374
 20
169.3409376706
 30
0.0
 11
67.581451479
 21
169.3297617997
 31
0.0
  0
LINE
  5
109
330
1F
100
AcDbEntity
  8
SLD-0
  6
Continuous
 62
   179
370
    25
100
AcDbLine
 10
68.3475618993
 20
169.2585819329
 30
0.0
 11
69.0546637212
 21
169.4415979947
 31
0.0
  0
LINE
  5
10A
330
1F
100
AcDbEntity
  8
SLD-0
  6
Continuous
 62
   179
370
    25
100
AcDbLine
 10
69.0546637212
 20
169.4415979947
 30
0.0
 11
69.1522246037
 21
169.479381379
 31
0.0
  0
LINE
  5
10B
330
1F
100
AcDbEntity
  8
SLD-0
  6
Continuous
 62
   179
370
    25
100
AcDbLine
 10
69.1522246037
 20
169.479381379
 30
0.0
 11
69.1864615117
 21
169.5239537324
 31
0.0
  0
LINE
  5
10C
330
1F
100
AcDbEntity
  8
SLD-0
  6
Continuous
 62
   179
370
    25
100
AcDbLine
 10
69.1864615117
 20
169.5239537324
 30
0.0
 11
69.1522246037
 21
169.5685201253
 31
0.0
  0
LINE
  5
10D
330
1F
100
AcDbEntity
  8
SLD-0
  6
Continuous
 62
   179
370
    25
100
AcDbLine
 10
69.1522246037
 20
169.5685201253
 30
0.0
 11
69.0546637212
 21
169.6063094701
 31
0.0
  0
LINE
  5
10E
330
1F
100
AcDbEntity
  8
SLD-0
  6
Continuous
 62
   179
370
    25
100
AcDbLine
 10
69.0546637212
 20
169.6063094701
 30
0.0
 11
68.9086800252
 21
169.6315579976
 31
0.0
  0
LINE
  5
10F
330
1F
100
AcDbEntity
  8
SLD-0
  6
Continuous
 62
   179
370
    25
100
AcDbLine
 10
68.9086800252
 20
169.6315579976
 30
0.0
 11
68.7364702855
 21
169.6404212083
 31
0.0
  0
LINE
  5
110
330
1F
100
AcDbEntity
  8
SLD-0
  6
Continuous
 62
   179
370
    25
100
AcDbLine
 10
68.7364702855
 20
169.6404212083
 30
0.0
 11
68.5642605458
 21
169.6315520371
 31
0.0
  0
LINE
  5
111
330
1F
100
AcDbEntity
  8
SLD-0
  6
Continuous
 62
   179
370
    25
100
AcDbLine
 10
68.5642605458
 20
169.6315520371
 30
0.0
 11
68.4182768498
 21
169.6063094701
 31
0.0
  0
LINE
  5
112
330
1F
100
AcDbEntity
  8
SLD-0
  6
Continuous
 62
   179
370
    25
100
AcDbLine
 10
68.4182768498
 20
169.6063094701
 30
0.0
 11
67.7111750279
 21
169.4232934083
 31
0.0
  0
LINE
  5
113
330
1F
100
AcDbEntity
  8
SLD-0
  6
Continuous
 62
   179
370
    25
100
AcDbLine
 10
72.315609995
 20
168.4626274671
 30
0.0
 11
72.3342066441
 21
168.4728139009
 31
0.0
  0
LINE
  5
114
330
1F
100
AcDbEntity
  8
SLD-0
  6
Continuous
 62
   179
370
    25
100
AcDbLine
 10
72.3342066441
 20
168.4728139009
 30
0.0
 11
72.3684435521
 21
168.5173802938
 31
0.0
  0
LINE
  5
115
330
1F
100
AcDbEntity
  8
SLD-0
  6
Continuous
 62
   179
370
    25
100
AcDbLine
 10
72.3684435521
 20
168.5173802938
 30
0.0
 11
72.3342066441
 21
168.5619526471
 31
0.0
  0
LINE
  5
116
330
1F
100
AcDbEntity
  8
SLD-0
  6
Continuous
 62
   179
370
    25
100
AcDbLine
 10
72.3342066441
 20
168.5619526471
 30
0.0
 11
72.3199968968
 21
168.5699515904
 31
0.0
  0
LINE
  5
117
330
1F
100
AcDbEntity
  8
SLD-0
  6
Continuous
 62
   179
370
    25
100
AcDbLine
 10
68.2414894734
 20
170.1482408608
 30
0.0
 11
68.8071852361
 21
170.1482408608
 31
0.0
  0
LINE
  5
118
330
1F
100
AcDbEntity
  8
SLD-0
  6
Continuous
 62
   179
370
    25
100
AcDbLine
 10
68.8071852361
 20
170.1482408608
 30
0.0
 11
68.8071852361
 21
169.7618716325
 31
0.0
  0
LINE
  5
119
330
1F
100
AcDbEntity
  8
SLD-0
  6
Continuous
 62
   179
370
    25
100
AcDbLine
 10
72.059882227
 20
168.6566227044
 30
0.0
 11
72.059882227
 21
168.9200096692
 31
0.0
  0
LINE
  5
11A
330
1F
100
AcDbEntity
  8
SLD-0
  6
Continuous
 62
   179
370
    25
100
AcDbLine
 10
69.9385529195
 20
169.0826767053
 30
0.0
 11
69.9385529195
 21
169.4690459336
 31
0.0
  0
LINE
  5
11B
330
1F
100
AcDbEntity
  8
SLD-0
  6
Continuous
 62
   179
370
    25
100
AcDbLine
 10
73.1912499104
 20
168.6271899308
 30
0.0
 11
73.1912499104
 21
169.0135591592
 31
0.0
  0
LINE
  5
11C
330
1F
100
AcDbEntity
  8
SLD-0
  6
Continuous
 62
   179
370
    25
100
AcDbLine
 10
68.8071852361
 20
170.1482408608
 30
0.0
 11
73.1912499104
 21
169.0135591592
 31
0.0
  0
LINE
  5
11D
330
1F
100
AcDbEntity
  8
SLD-0
  6
Continuous
 62
   179
370
    25
100
AcDbLine
 10
70.1709633504
 20
169.1428297128
 30
0.0
 11
69.9385529195
 21
169.0826767053
 31
0.0
  0
LINE
  5
11E
330
1F
100
AcDbEntity
  8
SLD-0
  6
Continuous
 62
   179
370
    25
100
AcDbLine
 10
70.1991682683
 20
169.1088193025
 30
0.0
 11
70.1989775334
 21
169.1166751946
 31
0.0
  0
LINE
  5
11F
330
1F
100
AcDbEntity
  8
SLD-0
  6
Continuous
 62
   179
370
    25
100
AcDbLine
 10
70.1989775334
 20
169.1166751946
 30
0.0
 11
70.1976185475
 21
169.1240006055
 31
0.0
  0
LINE
  5
120
330
1F
100
AcDbEntity
  8
SLD-0
  6
Continuous
 62
   179
370
    25
100
AcDbLine
 10
70.1976185475
 20
169.1240006055
 30
0.0
 11
70.1951389943
 21
169.1305034722
 31
0.0
  0
LINE
  5
121
330
1F
100
AcDbEntity
  8
SLD-0
  6
Continuous
 62
   179
370
    25
100
AcDbLine
 10
70.1951389943
 20
169.1305034722
 30
0.0
 11
70.1916342412
 21
169.135903653
 31
0.0
  0
LINE
  5
122
330
1F
100
AcDbEntity
  8
SLD-0
  6
Continuous
 62
   179
370
    25
100
AcDbLine
 10
70.1916342412
 20
169.135903653
 30
0.0
 11
70.1872711812
 21
169.1399746503
 31
0.0
  0
LINE
  5
123
330
1F
100
AcDbEntity
  8
SLD-0
  6
Continuous
 62
   179
370
    25
100
AcDbLine
 10
70.1872711812
 20
169.1399746503
 30
0.0
 11
70.1822405492
 21
169.1425436105
 31
0.0
  0
LINE
  5
124
330
1F
100
AcDbEntity
  8
SLD-0
  6
Continuous
 62
   179
370
    25
100
AcDbLine
 10
70.1822405492
 20
169.1425436105
 30
0.0
 11
70.1767092381
 21
169.1435092057
 31
0.0
  0
LINE
  5
125
330
1F
100
AcDbEntity
  8
SLD-0
  6
Continuous
 62
   179
370
    25
100
AcDbLine
 10
70.1767092381
 20
169.1435092057
 30
0.0
 11
70.1709633504
 21
169.1428297128
 31
0.0
  0
LINE
  5
126
330
1F
100
AcDbEntity
  8
SLD-0
  6
Continuous
 62
   179
370
    25
100
AcDbLine
 10
70.0976734792
 20
167.0845144357
 30
0.0
 11
70.1991682683
 21
169.1088193025
 31
0.0
  0
LINE
  5
127
330
1F
100
AcDbEntity
  8
SLD-0
  6
Continuous
 62
   179
370
    25
100
AcDbLine
 10
70.0492745076
 20
167.0476012792
 30
0.0
 11
70.0557118092
 21
167.0425646867
 31
0.0
  0
LINE
  5
128
330
1F
100
AcDbEntity
  8
SLD-0
  6
Continuous
 62
   179
370
    25
100
AcDbLine
 10
70.0557118092
 20
167.0425646867
 30
0.0
 11
70.0632696782
 21
167.0405858125
 31
0.0
  0
LINE
  5
129
330
1F
100
AcDbEntity
  8
SLD-0
  6
Continuous
 62
   179
370
    25
100
AcDbLine
 10
70.0632696782
 20
167.0405858125
 30
0.0
 11
70.0713282262
 21
167.0418196286
 31
0.0
  0
LINE
  5
12A
330
1F
100
AcDbEntity
  8
SLD-0
  6
Continuous
 62
   179
370
    25
100
AcDbLine
 10
70.0713282262
 20
167.0418196286
 30
0.0
 11
70.079243723
 21
167.0461707677
 31
0.0
  0
LINE
  5
12B
330
1F
100
AcDbEntity
  8
SLD-0
  6
Continuous
 62
   179
370
    25
100
AcDbLine
 10
70.079243723
 20
167.0461707677
 30
0.0
 11
70.0863485967
 21
167.0532816018
 31
0.0
  0
LINE
  5
12C
330
1F
100
AcDbEntity
  8
SLD-0
  6
Continuous
 62
   179
370
    25
100
AcDbLine
 10
70.0863485967
 20
167.0532816018
 30
0.0
 11
70.0920706426
 21
167.0625680055
 31
0.0
  0
LINE
  5
12D
330
1F
100
AcDbEntity
  8
SLD-0
  6
Continuous
 62
   179
370
    25
100
AcDbLine
 10
70.0920706426
 20
167.0625680055
 30
0.0
 11
70.0959568654
 21
167.0732729997
 31
0.0
  0
LINE
  5
12E
330
1F
100
AcDbEntity
  8
SLD-0
  6
Continuous
 62
   179
370
    25
100
AcDbLine
 10
70.0959568654
 20
167.0732729997
 30
0.0
 11
70.0976734792
 21
167.0845144357
 31
0.0
  0
LINE
  5
12F
330
1F
100
AcDbEntity
  8
SLD-0
  6
Continuous
 62
   179
370
    25
100
AcDbLine
 10
69.7971230183
 20
167.3332386579
 30
0.0
 11
70.0492745076
 21
167.0476012792
 31
0.0
  0
LINE
  5
130
330
1F
100
AcDbEntity
  8
SLD-0
  6
Continuous
 62
   179
370
    25
100
AcDbLine
 10
69.7971230183
 20
167.3911982144
 30
0.0
 11
69.7971230183
 21
167.3332386579
 31
0.0
  0
LINE
  5
131
330
1F
100
AcDbEntity
  8
SLD-0
  6
Continuous
 62
   179
370
    25
100
AcDbLine
 10
69.8942785893
 20
167.5128512944
 30
0.0
 11
69.7971230183
 21
167.3911982144
 31
0.0
  0
LINE
  5
132
330
1F
100
AcDbEntity
  8
SLD-0
  6
Continuous
 62
   179
370
    25
100
AcDbLine
 10
69.9718123113
 20
168.7601976956
 30
0.0
 11
69.9385529195
 21
168.0969589318
 31
0.0
  0
LINE
  5
133
330
1F
100
AcDbEntity
  8
SLD-0
  6
Continuous
 62
   179
370
    25
100
AcDbLine
 10
69.9150448476
 20
167.6282637681
 30
0.0
 11
69.9116354619
 21
167.5602012242
 31
0.0
  0
LINE
  5
134
330
1F
100
AcDbEntity
  8
SLD-0
  6
Continuous
 62
   179
370
    25
100
AcDbLine
 10
69.9435835515
 20
168.7942021455
 30
0.0
 11
69.9493532811
 21
168.7948875989
 31
0.0
  0
LINE
  5
135
330
1F
100
AcDbEntity
  8
SLD-0
  6
Continuous
 62
   179
370
    25
100
AcDbLine
 10
69.9493532811
 20
168.7948875989
 30
0.0
 11
69.9548607503
 21
168.7939220037
 31
0.0
  0
LINE
  5
136
330
1F
100
AcDbEntity
  8
SLD-0
  6
Continuous
 62
   179
370
    25
100
AcDbLine
 10
69.9548607503
 20
168.7939220037
 30
0.0
 11
69.9599152242
 21
168.791347083
 31
0.0
  0
LINE
  5
137
330
1F
100
AcDbEntity
  8
SLD-0
  6
Continuous
 62
   179
370
    25
100
AcDbLine
 10
69.9599152242
 20
168.791347083
 30
0.0
 11
69.9642782842
 21
168.7872760858
 31
0.0
  0
LINE
  5
138
330
1F
100
AcDbEntity
  8
SLD-0
  6
Continuous
 62
   179
370
    25
100
AcDbLine
 10
69.9642782842
 20
168.7872760858
 30
0.0
 11
69.9677591954
 21
168.7818818654
 31
0.0
  0
LINE
  5
139
330
1F
100
AcDbEntity
  8
SLD-0
  6
Continuous
 62
   179
370
    25
100
AcDbLine
 10
69.9677591954
 20
168.7818818654
 30
0.0
 11
69.9702625905
 21
168.7753789987
 31
0.0
  0
LINE
  5
13A
330
1F
100
AcDbEntity
  8
SLD-0
  6
Continuous
 62
   179
370
    25
100
AcDbLine
 10
69.9702625905
 20
168.7753789987
 30
0.0
 11
69.9716215764
 21
168.7680476274
 31
0.0
  0
LINE
  5
13B
330
1F
100
AcDbEntity
  8
SLD-0
  6
Continuous
 62
   179
370
    25
100
AcDbLine
 10
69.9716215764
 20
168.7680476274
 30
0.0
 11
69.9718123113
 21
168.7601976956
 31
0.0
  0
LINE
  5
13C
330
1F
100
AcDbEntity
  8
SLD-0
  6
Continuous
 62
   179
370
    25
100
AcDbLine
 10
69.7971230183
 20
168.7562995519
 30
0.0
 11
69.9435835515
 21
168.7942021455
 31
0.0
  0
LINE
  5
13D
330
1F
100
AcDbEntity
  8
SLD-0
  6
Continuous
 62
   179
370
    25
100
AcDbLine
 10
69.7264319096
 20
168.7766306962
 30
0.0
 11
69.7264557515
 21
168.7745862569
 31
0.0
  0
LINE
  5
13E
330
1F
100
AcDbEntity
  8
SLD-0
  6
Continuous
 62
   179
370
    25
100
AcDbLine
 10
69.7264319096
 20
169.3755083646
 30
0.0
 11
69.7264319096
 21
168.7766306962
 31
0.0
  0
LINE
  5
13F
330
1F
100
AcDbEntity
  8
SLD-0
  6
Continuous
 62
   179
370
    25
100
AcDbLine
 10
69.6981316243
 20
169.4068246449
 30
0.0
 11
69.7036629353
 21
169.4075100984
 31
0.0
  0
LINE
  5
140
330
1F
100
AcDbEntity
  8
SLD-0
  6
Continuous
 62
   179
370
    25
100
AcDbLine
 10
69.7036629353
 20
169.4075100984
 30
0.0
 11
69.7089558278
 21
169.4066815938
 31
0.0
  0
LINE
  5
141
330
1F
100
AcDbEntity
  8
SLD-0
  6
Continuous
 62
   179
370
    25
100
AcDbLine
 10
69.7089558278
 20
169.4066815938
 30
0.0
 11
69.7138434087
 21
169.4043808545
 31
0.0
  0
LINE
  5
142
330
1F
100
AcDbEntity
  8
SLD-0
  6
Continuous
 62
   179
370
    25
100
AcDbLine
 10
69.7138434087
 20
169.4043808545
 30
0.0
 11
69.7181349431
 21
169.4006853665
 31
0.0
  0
LINE
  5
143
330
1F
100
AcDbEntity
  8
SLD-0
  6
Continuous
 62
   179
370
    25
100
AcDbLine
 10
69.7181349431
 20
169.4006853665
 30
0.0
 11
69.7216635381
 21
169.395738181
 31
0.0
  0
LINE
  5
144
330
1F
100
AcDbEntity
  8
SLD-0
  6
Continuous
 62
   179
370
    25
100
AcDbLine
 10
69.7216635381
 20
169.395738181
 30
0.0
 11
69.7242623006
 21
169.3897359933
 31
0.0
  0
LINE
  5
145
330
1F
100
AcDbEntity
  8
SLD-0
  6
Continuous
 62
   179
370
    25
100
AcDbLine
 10
69.7242623006
 20
169.3897359933
 30
0.0
 11
69.7258835469
 21
169.382905301
 31
0.0
  0
LINE
  5
146
330
1F
100
AcDbEntity
  8
SLD-0
  6
Continuous
 62
   179
370
    25
100
AcDbLine
 10
69.7258835469
 20
169.382905301
 30
0.0
 11
69.7264319096
 21
169.3755083646
 31
0.0
  0
LINE
  5
147
330
1F
100
AcDbEntity
  8
SLD-0
  6
Continuous
 62
   179
370
    25
100
AcDbLine
 10
70.0976734792
 20
167.0845144357
 30
0.0
 11
72.2189789449
 21
166.5354781713
 31
0.0
  0
LINE
  5
148
330
1F
100
AcDbEntity
  8
SLD-0
  6
Continuous
 62
   179
370
    25
100
AcDbLine
 10
72.3204975758
 20
168.559783038
 30
0.0
 11
70.1991682683
 21
169.1088193025
 31
0.0
  0
LINE
  5
149
330
1F
100
AcDbEntity
  8
SLD-0
  6
Continuous
 62
   179
370
    25
100
AcDbLine
 10
72.2189789449
 20
166.5354781713
 30
0.0
 11
72.3204975758
 21
168.559783038
 31
0.0
  0
LINE
  5
14A
330
1F
100
AcDbEntity
  8
SLD-0
  6
Continuous
 62
   179
370
    25
100
AcDbLine
 10
72.2189789449
 20
166.5354781713
 30
0.0
 11
72.217286173
 21
166.5242307748
 31
0.0
  0
LINE
  5
14B
330
1F
100
AcDbEntity
  8
SLD-0
  6
Continuous
 62
   179
370
    25
100
AcDbLine
 10
72.217286173
 20
166.5242307748
 30
0.0
 11
72.2133999501
 21
166.513531741
 31
0.0
  0
LINE
  5
14C
330
1F
100
AcDbEntity
  8
SLD-0
  6
Continuous
 62
   179
370
    25
100
AcDbLine
 10
72.2133999501
 20
166.513531741
 30
0.0
 11
72.2076779042
 21
166.5042453374
 31
0.0
  0
LINE
  5
14D
330
1F
100
AcDbEntity
  8
SLD-0
  6
Continuous
 62
   179
370
    25
100
AcDbLine
 10
72.2076779042
 20
166.5042453374
 30
0.0
 11
72.2005730306
 21
166.4971345033
 31
0.0
  0
LINE
  5
14E
330
1F
100
AcDbEntity
  8
SLD-0
  6
Continuous
 62
   179
370
    25
100
AcDbLine
 10
72.2005730306
 20
166.4971345033
 30
0.0
 11
72.1926575337
 21
166.4927833642
 31
0.0
  0
LINE
  5
14F
330
1F
100
AcDbEntity
  8
SLD-0
  6
Continuous
 62
   179
370
    25
100
AcDbLine
 10
72.1926575337
 20
166.4927833642
 30
0.0
 11
72.1845751439
 21
166.4915495481
 31
0.0
  0
LINE
  5
150
330
1F
100
AcDbEntity
  8
SLD-0
  6
Continuous
 62
   179
370
    25
100
AcDbLine
 10
72.1845751439
 20
166.4915495481
 30
0.0
 11
72.1807604466
 21
166.4921277131
 31
0.0
  0
LINE
  5
151
330
1F
100
AcDbEntity
  8
SLD-0
  6
Continuous
 62
   179
370
    25
100
AcDbLine
 10
68.5950403844
 20
169.0674179162
 30
0.0
 11
68.5950403844
 21
169.0826886262
 31
0.0
  0
LINE
  5
152
330
1F
100
AcDbEntity
  8
SLD-0
  6
Continuous
 62
   179
370
    25
100
AcDbLine
 10
162.2866993581
 20
145.8075457181
 30
0.0
 11
160.3754883443
 21
145.3128867711
 31
0.0
  0
LINE
  5
153
330
1F
100
AcDbEntity
  8
SLD-0
  6
Continuous
 62
   179
370
    25
100
AcDbLine
 10
162.2866993581
 20
145.4211764897
 30
0.0
 11
162.2866993581
 21
145.8075457181
 31
0.0
  0
LINE
  5
154
330
1F
100
AcDbEntity
  8
SLD-0
  6
Continuous
 62
   179
370
    25
100
AcDbLine
 10
161.1219053899
 20
145.1197081174
 30
0.0
 11
162.2866993581
 21
145.4211764897
 31
0.0
  0
LINE
  5
155
330
1F
100
AcDbEntity
  8
SLD-0
  6
Continuous
 62
   179
370
    25
100
AcDbLine
 10
162.5361090337
 20
144.7536879148
 30
0.0
 11
162.6685267125
 21
144.7879605855
 31
0.0
  0
LINE
  5
156
330
1F
100
AcDbEntity
  8
SLD-0
  6
Continuous
 62
   179
370
    25
100
AcDbLine
 10
162.8523712788
 20
145.4211764897
 30
0.0
 11
162.2866993581
 21
145.4211764897
 31
0.0
  0
LINE
  5
157
330
1F
100
AcDbEntity
  8
SLD-0
  6
Continuous
 62
   179
370
    25
100
AcDbLine
 10
162.8523712788
 20
145.4211764897
 30
0.0
 11
163.9837389623
 21
145.1283627118
 31
0.0
  0
LINE
  5
158
330
1F
100
AcDbEntity
  8
SLD-0
  6
Continuous
 62
   179
370
    25
100
AcDbLine
 10
163.7433176671
 20
145.0661354627
 30
0.0
 11
163.9837389623
 21
145.1283627118
 31
0.0
  0
LINE
  5
159
330
1F
100
AcDbEntity
  8
SLD-0
  6
Continuous
 62
   179
370
    25
100
AcDbLine
 10
167.2364359532
 20
144.2864947881
 30
0.0
 11
166.1050921117
 21
144.5793204869
 31
0.0
  0
LINE
  5
15A
330
1F
100
AcDbEntity
  8
SLD-0
  6
Continuous
 62
   179
370
    25
100
AcDbLine
 10
167.2364359532
 20
144.1400938596
 30
0.0
 11
167.2364359532
 21
144.2864947881
 31
0.0
  0
LINE
  5
15B
330
1F
100
AcDbEntity
  8
SLD-0
  6
Continuous
 62
   179
370
    25
100
AcDbLine
 10
166.3502340947
 20
143.9107232656
 30
0.0
 11
167.2364359532
 21
144.1400938596
 31
0.0
  0
LINE
  5
15C
330
1F
100
AcDbEntity
  8
SLD-0
  6
Continuous
 62
   179
370
    25
100
AcDbLine
 10
161.7563610707
 20
145.0826101865
 30
0.0
 11
161.65882403
 21
145.0448208417
 31
0.0
  0
LINE
  5
15D
330
1F
100
AcDbEntity
  8
SLD-0
  6
Continuous
 62
   179
370
    25
100
AcDbLine
 10
161.65882403
 20
145.0448208417
 30
0.0
 11
161.6245632802
 21
145.0002484883
 31
0.0
  0
LINE
  5
15E
330
1F
100
AcDbEntity
  8
SLD-0
  6
Continuous
 62
   179
370
    25
100
AcDbLine
 10
161.6245632802
 20
145.0002484883
 30
0.0
 11
161.6266375218
 21
144.989066657
 31
0.0
  0
LINE
  5
15F
330
1F
100
AcDbEntity
  8
SLD-0
  6
Continuous
 62
   179
370
    25
100
AcDbLine
 10
162.3927717839
 20
144.9178987111
 30
0.0
 11
163.0998736058
 21
145.1009088124
 31
0.0
  0
LINE
  5
160
330
1F
100
AcDbEntity
  8
SLD-0
  6
Continuous
 62
   179
370
    25
100
AcDbLine
 10
163.0998736058
 20
145.1009088124
 30
0.0
 11
163.1974344884
 21
145.1386981572
 31
0.0
  0
LINE
  5
161
330
1F
100
AcDbEntity
  8
SLD-0
  6
Continuous
 62
   179
370
    25
100
AcDbLine
 10
163.1974344884
 20
145.1386981572
 30
0.0
 11
163.2316713963
 21
145.1832585896
 31
0.0
  0
LINE
  5
162
330
1F
100
AcDbEntity
  8
SLD-0
  6
Continuous
 62
   179
370
    25
100
AcDbLine
 10
163.2316713963
 20
145.1832585896
 30
0.0
 11
163.1974344884
 21
145.227830943
 31
0.0
  0
LINE
  5
163
330
1F
100
AcDbEntity
  8
SLD-0
  6
Continuous
 62
   179
370
    25
100
AcDbLine
 10
163.1974344884
 20
145.227830943
 30
0.0
 11
163.0998736058
 21
145.2656202878
 31
0.0
  0
LINE
  5
164
330
1F
100
AcDbEntity
  8
SLD-0
  6
Continuous
 62
   179
370
    25
100
AcDbLine
 10
163.0998736058
 20
145.2656202878
 30
0.0
 11
162.953866068
 21
145.2908688153
 31
0.0
  0
LINE
  5
165
330
1F
100
AcDbEntity
  8
SLD-0
  6
Continuous
 62
   179
370
    25
100
AcDbLine
 10
162.953866068
 20
145.2908688153
 30
0.0
 11
162.7816801701
 21
145.2997379865
 31
0.0
  0
LINE
  5
166
330
1F
100
AcDbEntity
  8
SLD-0
  6
Continuous
 62
   179
370
    25
100
AcDbLine
 10
162.7816801701
 20
145.2997379865
 30
0.0
 11
162.6094704305
 21
145.2908688153
 31
0.0
  0
LINE
  5
167
330
1F
100
AcDbEntity
  8
SLD-0
  6
Continuous
 62
   179
370
    25
100
AcDbLine
 10
162.6094704305
 20
145.2908688153
 30
0.0
 11
162.4634867345
 21
145.2656202878
 31
0.0
  0
LINE
  5
168
330
1F
100
AcDbEntity
  8
SLD-0
  6
Continuous
 62
   179
370
    25
100
AcDbLine
 10
162.4634867345
 20
145.2656202878
 30
0.0
 11
161.7563610707
 21
145.0826101865
 31
0.0
  0
LINE
  5
169
330
1F
100
AcDbEntity
  8
SLD-0
  6
Continuous
 62
   179
370
    25
100
AcDbLine
 10
166.3608198796
 20
144.1219382848
 30
0.0
 11
166.3794165288
 21
144.1321187581
 31
0.0
  0
LINE
  5
16A
330
1F
100
AcDbEntity
  8
SLD-0
  6
Continuous
 62
   179
370
    25
100
AcDbLine
 10
166.3794165288
 20
144.1321187581
 30
0.0
 11
166.4136534367
 21
144.1766911115
 31
0.0
  0
LINE
  5
16B
330
1F
100
AcDbEntity
  8
SLD-0
  6
Continuous
 62
   179
370
    25
100
AcDbLine
 10
166.4136534367
 20
144.1766911115
 30
0.0
 11
166.3794165288
 21
144.2212634648
 31
0.0
  0
LINE
  5
16C
330
1F
100
AcDbEntity
  8
SLD-0
  6
Continuous
 62
   179
370
    25
100
AcDbLine
 10
166.3794165288
 20
144.2212634648
 30
0.0
 11
166.3652067815
 21
144.2292624082
 31
0.0
  0
LINE
  5
16D
330
1F
100
AcDbEntity
  8
SLD-0
  6
Continuous
 62
   179
370
    25
100
AcDbLine
 10
162.2866993581
 20
145.8075457181
 30
0.0
 11
162.8523712788
 21
145.8075457181
 31
0.0
  0
LINE
  5
16E
330
1F
100
AcDbEntity
  8
SLD-0
  6
Continuous
 62
   179
370
    25
100
AcDbLine
 10
162.8523712788
 20
145.8075457181
 30
0.0
 11
162.8523712788
 21
145.4211764897
 31
0.0
  0
LINE
  5
16F
330
1F
100
AcDbEntity
  8
SLD-0
  6
Continuous
 62
   179
370
    25
100
AcDbLine
 10
166.1050921117
 20
144.3159275617
 30
0.0
 11
166.1050921117
 21
144.5793204869
 31
0.0
  0
LINE
  5
170
330
1F
100
AcDbEntity
  8
SLD-0
  6
Continuous
 62
   179
370
    25
100
AcDbLine
 10
163.9837389623
 20
144.7419934834
 30
0.0
 11
163.9837389623
 21
145.1283627118
 31
0.0
  0
LINE
  5
171
330
1F
100
AcDbEntity
  8
SLD-0
  6
Continuous
 62
   179
370
    25
100
AcDbLine
 10
167.2364359532
 20
144.2864947881
 30
0.0
 11
167.2364359532
 21
144.6728759374
 31
0.0
  0
LINE
  5
172
330
1F
100
AcDbEntity
  8
SLD-0
  6
Continuous
 62
   179
370
    25
100
AcDbLine
 10
162.8523712788
 20
145.8075457181
 30
0.0
 11
167.2364359532
 21
144.6728759374
 31
0.0
  0
LINE
  5
173
330
1F
100
AcDbEntity
  8
SLD-0
  6
Continuous
 62
   179
370
    25
100
AcDbLine
 10
164.2161493932
 20
144.80213457
 30
0.0
 11
163.9837389623
 21
144.7419934834
 31
0.0
  0
LINE
  5
174
330
1F
100
AcDbEntity
  8
SLD-0
  6
Continuous
 62
   179
370
    25
100
AcDbLine
 10
164.2443781529
 20
144.7681241597
 30
0.0
 11
164.2441874181
 21
144.7759800519
 31
0.0
  0
LINE
  5
175
330
1F
100
AcDbEntity
  8
SLD-0
  6
Continuous
 62
   179
370
    25
100
AcDbLine
 10
164.2441874181
 20
144.7759800519
 30
0.0
 11
164.2428045903
 21
144.7833114232
 31
0.0
  0
LINE
  5
176
330
1F
100
AcDbEntity
  8
SLD-0
  6
Continuous
 62
   179
370
    25
100
AcDbLine
 10
164.2428045903
 20
144.7833114232
 30
0.0
 11
164.2403250371
 21
144.7898083295
 31
0.0
  0
LINE
  5
177
330
1F
100
AcDbEntity
  8
SLD-0
  6
Continuous
 62
   179
370
    25
100
AcDbLine
 10
164.2403250371
 20
144.7898083295
 30
0.0
 11
164.2368441258
 21
144.7952085103
 31
0.0
  0
LINE
  5
178
330
1F
100
AcDbEntity
  8
SLD-0
  6
Continuous
 62
   179
370
    25
100
AcDbLine
 10
164.2368441258
 20
144.7952085103
 30
0.0
 11
164.232457224
 21
144.799285468
 31
0.0
  0
LINE
  5
179
330
1F
100
AcDbEntity
  8
SLD-0
  6
Continuous
 62
   179
370
    25
100
AcDbLine
 10
164.232457224
 20
144.799285468
 30
0.0
 11
164.2274504338
 21
144.8018603887
 31
0.0
  0
LINE
  5
17A
330
1F
100
AcDbEntity
  8
SLD-0
  6
Continuous
 62
   179
370
    25
100
AcDbLine
 10
164.2274504338
 20
144.8018603887
 30
0.0
 11
164.2219191228
 21
144.8028259839
 31
0.0
  0
LINE
  5
17B
330
1F
100
AcDbEntity
  8
SLD-0
  6
Continuous
 62
   179
370
    25
100
AcDbLine
 10
164.2219191228
 20
144.8028259839
 30
0.0
 11
164.2161493932
 21
144.80213457
 31
0.0
  0
LINE
  5
17C
330
1F
100
AcDbEntity
  8
SLD-0
  6
Continuous
 62
   179
370
    25
100
AcDbLine
 10
164.142859522
 20
142.7438312139
 30
0.0
 11
164.2443781529
 21
144.7681241597
 31
0.0
  0
LINE
  5
17D
330
1F
100
AcDbEntity
  8
SLD-0
  6
Continuous
 62
   179
370
    25
100
AcDbLine
 10
164.0944605504
 20
142.7069120969
 30
0.0
 11
164.100897852
 21
142.7018695439
 31
0.0
  0
LINE
  5
17E
330
1F
100
AcDbEntity
  8
SLD-0
  6
Continuous
 62
   179
370
    25
100
AcDbLine
 10
164.100897852
 20
142.7018695439
 30
0.0
 11
164.1084795628
 21
142.6998906697
 31
0.0
  0
LINE
  5
17F
330
1F
100
AcDbEntity
  8
SLD-0
  6
Continuous
 62
   179
370
    25
100
AcDbLine
 10
164.1084795628
 20
142.6998906697
 30
0.0
 11
164.1165381108
 21
142.7011304463
 31
0.0
  0
LINE
  5
180
330
1F
100
AcDbEntity
  8
SLD-0
  6
Continuous
 62
   179
370
    25
100
AcDbLine
 10
164.1165381108
 20
142.7011304463
 30
0.0
 11
164.1244536076
 21
142.7054815854
 31
0.0
  0
LINE
  5
181
330
1F
100
AcDbEntity
  8
SLD-0
  6
Continuous
 62
   179
370
    25
100
AcDbLine
 10
164.1244536076
 20
142.7054815854
 30
0.0
 11
164.1315584813
 21
142.7125864591
 31
0.0
  0
LINE
  5
182
330
1F
100
AcDbEntity
  8
SLD-0
  6
Continuous
 62
   179
370
    25
100
AcDbLine
 10
164.1315584813
 20
142.7125864591
 30
0.0
 11
164.1372805272
 21
142.7218728627
 31
0.0
  0
LINE
  5
183
330
1F
100
AcDbEntity
  8
SLD-0
  6
Continuous
 62
   179
370
    25
100
AcDbLine
 10
164.1372805272
 20
142.7218728627
 30
0.0
 11
164.1411429082
 21
142.7325778569
 31
0.0
  0
LINE
  5
184
330
1F
100
AcDbEntity
  8
SLD-0
  6
Continuous
 62
   179
370
    25
100
AcDbLine
 10
164.1411429082
 20
142.7325778569
 30
0.0
 11
164.142859522
 21
142.7438312139
 31
0.0
  0
LINE
  5
185
330
1F
100
AcDbEntity
  8
SLD-0
  6
Continuous
 62
   179
370
    25
100
AcDbLine
 10
163.8423567449
 20
142.9925494756
 30
0.0
 11
164.0944605504
 21
142.7069120969
 31
0.0
  0
LINE
  5
186
330
1F
100
AcDbEntity
  8
SLD-0
  6
Continuous
 62
   179
370
    25
100
AcDbLine
 10
163.8423567449
 20
143.0505090322
 30
0.0
 11
163.8423567449
 21
142.9925494756
 31
0.0
  0
LINE
  5
187
330
1F
100
AcDbEntity
  8
SLD-0
  6
Continuous
 62
   179
370
    25
100
AcDbLine
 10
163.939488474
 20
143.1721621121
 30
0.0
 11
163.8423567449
 21
143.0505090322
 31
0.0
  0
LINE
  5
188
330
1F
100
AcDbEntity
  8
SLD-0
  6
Continuous
 62
   179
370
    25
100
AcDbLine
 10
164.0170221959
 20
144.4195085134
 30
0.0
 11
163.9837389623
 21
143.75627571
 31
0.0
  0
LINE
  5
189
330
1F
100
AcDbEntity
  8
SLD-0
  6
Continuous
 62
   179
370
    25
100
AcDbLine
 10
163.9602308904
 20
143.2875686254
 30
0.0
 11
163.9568453465
 21
143.219512042
 31
0.0
  0
LINE
  5
18A
330
1F
100
AcDbEntity
  8
SLD-0
  6
Continuous
 62
   179
370
    25
100
AcDbLine
 10
163.9887934361
 20
144.4535189237
 30
0.0
 11
163.9945631657
 21
144.4541984166
 31
0.0
  0
LINE
  5
18B
330
1F
100
AcDbEntity
  8
SLD-0
  6
Continuous
 62
   179
370
    25
100
AcDbLine
 10
163.9945631657
 20
144.4541984166
 30
0.0
 11
164.0000944768
 21
144.4532328214
 31
0.0
  0
LINE
  5
18C
330
1F
100
AcDbEntity
  8
SLD-0
  6
Continuous
 62
   179
370
    25
100
AcDbLine
 10
164.0000944768
 20
144.4532328214
 30
0.0
 11
164.0051012669
 21
144.4506579007
 31
0.0
  0
LINE
  5
18D
330
1F
100
AcDbEntity
  8
SLD-0
  6
Continuous
 62
   179
370
    25
100
AcDbLine
 10
164.0051012669
 20
144.4506579007
 30
0.0
 11
164.0094881688
 21
144.4465928639
 31
0.0
  0
LINE
  5
18E
330
1F
100
AcDbEntity
  8
SLD-0
  6
Continuous
 62
   179
370
    25
100
AcDbLine
 10
164.0094881688
 20
144.4465928639
 30
0.0
 11
164.0129690801
 21
144.4411926831
 31
0.0
  0
LINE
  5
18F
330
1F
100
AcDbEntity
  8
SLD-0
  6
Continuous
 62
   179
370
    25
100
AcDbLine
 10
164.0129690801
 20
144.4411926831
 30
0.0
 11
164.0154486333
 21
144.4346838559
 31
0.0
  0
LINE
  5
190
330
1F
100
AcDbEntity
  8
SLD-0
  6
Continuous
 62
   179
370
    25
100
AcDbLine
 10
164.0154486333
 20
144.4346838559
 30
0.0
 11
164.016831461
 21
144.4273644055
 31
0.0
  0
LINE
  5
191
330
1F
100
AcDbEntity
  8
SLD-0
  6
Continuous
 62
   179
370
    25
100
AcDbLine
 10
164.016831461
 20
144.4273644055
 30
0.0
 11
164.0170221959
 21
144.4195085134
 31
0.0
  0
LINE
  5
192
330
1F
100
AcDbEntity
  8
SLD-0
  6
Continuous
 62
   179
370
    25
100
AcDbLine
 10
163.8423567449
 20
144.4156103696
 30
0.0
 11
163.9887934361
 21
144.4535189237
 31
0.0
  0
LINE
  5
193
330
1F
100
AcDbEntity
  8
SLD-0
  6
Continuous
 62
   179
370
    25
100
AcDbLine
 10
163.7716417943
 20
144.4359474744
 30
0.0
 11
163.7716417943
 21
144.4338970746
 31
0.0
  0
LINE
  5
194
330
1F
100
AcDbEntity
  8
SLD-0
  6
Continuous
 62
   179
370
    25
100
AcDbLine
 10
163.7716417943
 20
145.0348191823
 30
0.0
 11
163.7716417943
 21
144.4359474744
 31
0.0
  0
LINE
  5
195
330
1F
100
AcDbEntity
  8
SLD-0
  6
Continuous
 62
   179
370
    25
100
AcDbLine
 10
163.7433176671
 20
145.0661354627
 30
0.0
 11
163.7488489781
 21
145.0668149556
 31
0.0
  0
LINE
  5
196
330
1F
100
AcDbEntity
  8
SLD-0
  6
Continuous
 62
   179
370
    25
100
AcDbLine
 10
163.7488489781
 20
145.0668149556
 30
0.0
 11
163.7541418706
 21
145.0659924115
 31
0.0
  0
LINE
  5
197
330
1F
100
AcDbEntity
  8
SLD-0
  6
Continuous
 62
   179
370
    25
100
AcDbLine
 10
163.7541418706
 20
145.0659924115
 30
0.0
 11
163.7590532933
 21
145.0636916722
 31
0.0
  0
LINE
  5
198
330
1F
100
AcDbEntity
  8
SLD-0
  6
Continuous
 62
   179
370
    25
100
AcDbLine
 10
163.7590532933
 20
145.0636916722
 30
0.0
 11
163.7633448277
 21
145.0599961843
 31
0.0
  0
LINE
  5
199
330
1F
100
AcDbEntity
  8
SLD-0
  6
Continuous
 62
   179
370
    25
100
AcDbLine
 10
163.7633448277
 20
145.0599961843
 30
0.0
 11
163.7668734227
 21
145.0550489987
 31
0.0
  0
LINE
  5
19A
330
1F
100
AcDbEntity
  8
SLD-0
  6
Continuous
 62
   179
370
    25
100
AcDbLine
 10
163.7668734227
 20
145.0550489987
 30
0.0
 11
163.7694483434
 21
145.0490408505
 31
0.0
  0
LINE
  5
19B
330
1F
100
AcDbEntity
  8
SLD-0
  6
Continuous
 62
   179
370
    25
100
AcDbLine
 10
163.7694483434
 20
145.0490408505
 30
0.0
 11
163.7710695897
 21
145.0422101583
 31
0.0
  0
LINE
  5
19C
330
1F
100
AcDbEntity
  8
SLD-0
  6
Continuous
 62
   179
370
    25
100
AcDbLine
 10
163.7710695897
 20
145.0422101583
 30
0.0
 11
163.7716417943
 21
145.0348191823
 31
0.0
  0
LINE
  5
19D
330
1F
100
AcDbEntity
  8
SLD-0
  6
Continuous
 62
   179
370
    25
100
AcDbLine
 10
164.142859522
 20
142.7438312139
 30
0.0
 11
166.2642126714
 21
142.194788989
 31
0.0
  0
LINE
  5
19E
330
1F
100
AcDbEntity
  8
SLD-0
  6
Continuous
 62
   179
370
    25
100
AcDbLine
 10
166.3656836186
 20
144.2190938558
 30
0.0
 11
164.2443781529
 21
144.7681241597
 31
0.0
  0
LINE
  5
19F
330
1F
100
AcDbEntity
  8
SLD-0
  6
Continuous
 62
   179
370
    25
100
AcDbLine
 10
166.2642126714
 20
142.194788989
 30
0.0
 11
166.3656836186
 21
144.2190938558
 31
0.0
  0
LINE
  5
1A0
330
1F
100
AcDbEntity
  8
SLD-0
  6
Continuous
 62
   179
370
    25
100
AcDbLine
 10
166.2642126714
 20
142.194788989
 30
0.0
 11
166.2624960576
 21
142.183547553
 31
0.0
  0
LINE
  5
1A1
330
1F
100
AcDbEntity
  8
SLD-0
  6
Continuous
 62
   179
370
    25
100
AcDbLine
 10
166.2624960576
 20
142.183547553
 30
0.0
 11
166.2585859929
 21
142.1728425588
 31
0.0
  0
LINE
  5
1A2
330
1F
100
AcDbEntity
  8
SLD-0
  6
Continuous
 62
   179
370
    25
100
AcDbLine
 10
166.2585859929
 20
142.1728425588
 30
0.0
 11
166.252863947
 21
142.1635561551
 31
0.0
  0
LINE
  5
1A3
330
1F
100
AcDbEntity
  8
SLD-0
  6
Continuous
 62
   179
370
    25
100
AcDbLine
 10
166.252863947
 20
142.1635561551
 30
0.0
 11
166.2457590733
 21
142.1564393605
 31
0.0
  0
LINE
  5
1A4
330
1F
100
AcDbEntity
  8
SLD-0
  6
Continuous
 62
   179
370
    25
100
AcDbLine
 10
166.2457590733
 20
142.1564393605
 30
0.0
 11
166.2378435765
 21
142.1521001424
 31
0.0
  0
LINE
  5
1A5
330
1F
100
AcDbEntity
  8
SLD-0
  6
Continuous
 62
   179
370
    25
100
AcDbLine
 10
166.2378435765
 20
142.1521001424
 30
0.0
 11
166.2297850285
 21
142.1508603658
 31
0.0
  0
LINE
  5
1A6
330
1F
100
AcDbEntity
  8
SLD-0
  6
Continuous
 62
   179
370
    25
100
AcDbLine
 10
166.2297850285
 20
142.1508603658
 30
0.0
 11
166.2259703313
 21
142.1514325704
 31
0.0
  0
LINE
  5
1A7
330
1F
100
AcDbEntity
  8
SLD-0
  6
Continuous
 62
   179
370
    25
100
AcDbLine
 10
162.640250269
 20
144.7267346944
 30
0.0
 11
162.640250269
 21
144.7419934834
 31
0.0
  0
LINE
  5
1A8
330
1F
100
AcDbEntity
  8
SLD-0
  6
Continuous
 62
     8
370
    25
100
AcDbLine
 10
45.6852799092
 20
172.6471655931
 30
0.0
 11
45.6582909261
 21
172.6541512574
 31
0.0
  0
LINE
  5
1A9
330
1F
100
AcDbEntity
  8
SLD-0
  6
Continuous
 62
     7
370
    25
100
AcDbLine
 10
187.2564440404
 20
137.1019297208
 30
0.0
 11
166.281045023
 21
142.5307565297
 31
0.0
  0
LINE
  5
1AA
330
1F
100
AcDbEntity
  8
SLD-0
  6
Continuous
 62
     7
370
    25
100
AcDbLine
 10
163.9160757695
 20
143.1428604688
 30
0.0
 11
72.2358351384
 21
166.871445712
 31
0.0
  0
LINE
  5
1AB
330
1F
100
AcDbEntity
  8
SLD-0
  6
Continuous
 62
     7
370
    25
100
AcDbLine
 10
69.8708658849
 20
167.4835436906
 30
0.0
 11
45.8350783025
 21
173.7044685449
 31
0.0
  0
LINE
  5
1AC
330
1F
100
AcDbEntity
  8
SLD-0
  6
Continuous
 62
     7
370
    25
100
AcDbLine
 10
46.0471993123
 20
173.8559656705
 30
0.0
 11
69.9385529195
 21
167.6724248494
 31
0.0
  0
LINE
  5
1AD
330
1F
100
AcDbEntity
  8
SLD-0
  6
Continuous
 62
     7
370
    25
100
AcDbLine
 10
72.1533330132
 20
166.7169220568
 30
0.0
 11
163.89100868
 21
142.9734535338
 31
0.0
  0
LINE
  5
1AE
330
1F
100
AcDbEntity
  8
SLD-0
  6
Continuous
 62
     7
370
    25
100
AcDbLine
 10
166.2912493382
 20
142.7345090474
 30
0.0
 11
187.4685412084
 21
137.2534208859
 31
0.0
  0
LINE
  5
1AF
330
1F
100
AcDbEntity
  8
SLD-0
  6
Continuous
 62
     7
370
    25
100
AcDbLine
 10
187.4402647649
 20
137.2074657048
 30
0.0
 11
166.2886267339
 21
142.6819139089
 31
0.0
  0
LINE
  5
1B0
330
1F
100
AcDbEntity
  8
SLD-0
  6
Continuous
 62
     7
370
    25
100
AcDbLine
 10
163.9600878392
 20
143.2845764722
 30
0.0
 11
72.2434168492
 21
167.0226030911
 31
0.0
  0
LINE
  5
1B1
330
1F
100
AcDbEntity
  8
SLD-0
  6
Continuous
 62
     7
370
    25
100
AcDbLine
 10
69.9149017964
 20
167.6252716149
 30
0.0
 11
46.0189228688
 21
173.8100045289
 31
0.0
  0
LINE
  5
1B2
330
1F
100
AcDbEntity
  8
SLD-0
  6
Continuous
 62
     7
370
    25
100
AcDbLine
 10
45.8774929677
 20
173.7734013165
 30
0.0
 11
69.9109678899
 21
167.5530784692
 31
0.0
  0
LINE
  5
1B3
330
1F
100
AcDbEntity
  8
SLD-0
  6
Continuous
 62
     7
370
    25
100
AcDbLine
 10
72.2397928868
 20
166.9503384198
 30
0.0
 11
163.9561777745
 21
143.2123952474
 31
0.0
  0
LINE
  5
1B4
330
1F
100
AcDbEntity
  8
SLD-0
  6
Continuous
 62
     7
370
    25
100
AcDbLine
 10
166.2850027715
 20
142.6096492375
 30
0.0
 11
187.2988348637
 21
137.170856532
 31
0.0
  0
LINE
  5
1B5
330
1F
100
AcDbEntity
  8
SLD-0
  6
Continuous
 62
     8
370
    25
100
AcDbLine
 10
44.825876299
 20
172.3115676011
 30
0.0
 11
44.8998099004
 21
172.2924345101
 31
0.0
  0
LINE
  5
1B6
330
1F
100
AcDbEntity
  8
SLD-0
  6
Continuous
 62
     8
370
    25
100
AcDbLine
 10
44.8804741536
 20
172.5326829518
 30
0.0
 11
44.8768501912
 21
172.5336187448
 31
0.0
  0
LINE
  5
1B7
330
1F
100
AcDbEntity
  8
SLD-0
  6
Continuous
 62
     8
370
    25
100
AcDbLine
 10
44.9427729283
 20
172.1805387105
 30
0.0
 11
44.7588091527
 21
172.2281568612
 31
0.0
  0
LINE
  5
1B8
330
1F
100
AcDbEntity
  8
SLD-0
  6
Continuous
 62
     8
370
    25
100
AcDbLine
 10
44.8730116521
 20
173.5338204469
 30
0.0
 11
44.8804741536
 21
173.5318832959
 31
0.0
  0
LINE
  5
1B9
330
1F
100
AcDbEntity
  8
SLD-0
  6
Continuous
 62
     8
370
    25
100
AcDbLine
 10
44.8804741536
 20
173.5771172608
 30
0.0
 11
44.8525791798
 21
173.5843353833
 31
0.0
  0
LINE
  5
1BA
330
1F
100
AcDbEntity
  8
SLD-0
  6
Continuous
 62
     8
370
    25
100
AcDbLine
 10
44.8451166783
 20
173.6255996789
 30
0.0
 11
44.8804741536
 21
173.6164503659
 31
0.0
  0
LINE
  5
1BB
330
1F
100
AcDbEntity
  8
SLD-0
  6
Continuous
 62
     8
370
    25
100
AcDbLine
 10
44.6893816625
 20
173.4513454999
 30
0.0
 11
44.661272112
 21
173.458623227
 31
0.0
  0
LINE
  5
1BC
330
1F
100
AcDbEntity
  8
SLD-0
  6
Continuous
 62
     8
370
    25
100
AcDbLine
 10
68.6233406697
 20
169.1286438073
 30
0.0
 11
69.7264319096
 21
168.8431435193
 31
0.0
  0
LINE
  5
1BD
330
1F
100
AcDbEntity
  8
SLD-0
  6
Continuous
 62
     8
370
    25
100
AcDbLine
 10
69.7168713246
 20
169.4019728269
 30
0.0
 11
69.6981316243
 21
169.4068246449
 31
0.0
  0
LINE
  5
1BE
330
1F
100
AcDbEntity
  8
SLD-0
  6
Continuous
 62
     8
370
    25
100
AcDbLine
 10
69.0546637212
 20
169.6063094701
 30
0.0
 11
69.0546637212
 21
169.4415979947
 31
0.0
  0
LINE
  5
1BF
330
1F
100
AcDbEntity
  8
SLD-0
  6
Continuous
 62
     8
370
    25
100
AcDbLine
 10
69.9623470937
 20
168.7893503274
 30
0.0
 11
69.9435835515
 21
168.7942021455
 31
0.0
  0
LINE
  5
1C0
330
1F
100
AcDbEntity
  8
SLD-0
  6
Continuous
 62
     8
370
    25
100
AcDbLine
 10
68.3475618993
 20
169.5880048837
 30
0.0
 11
68.3475618993
 21
169.2585819329
 31
0.0
  0
LINE
  5
1C1
330
1F
100
AcDbEntity
  8
SLD-0
  6
Continuous
 62
     8
370
    25
100
AcDbLine
 10
69.7264319096
 20
168.7898688878
 30
0.0
 11
68.5950403844
 21
169.0826886262
 31
0.0
  0
LINE
  5
1C2
330
1F
100
AcDbEntity
  8
SLD-0
  6
Continuous
 62
     8
370
    25
100
AcDbLine
 10
162.6685267125
 20
144.7879605855
 30
0.0
 11
163.7716417943
 21
144.502454337
 31
0.0
  0
LINE
  5
1C3
330
1F
100
AcDbEntity
  8
SLD-0
  6
Continuous
 62
     8
370
    25
100
AcDbLine
 10
163.7621050511
 20
145.0612836446
 30
0.0
 11
163.7433176671
 21
145.0661354627
 31
0.0
  0
LINE
  5
1C4
330
1F
100
AcDbEntity
  8
SLD-0
  6
Continuous
 62
     8
370
    25
100
AcDbLine
 10
163.0998736058
 20
145.2656202878
 30
0.0
 11
163.0998736058
 21
145.1009088124
 31
0.0
  0
LINE
  5
1C5
330
1F
100
AcDbEntity
  8
SLD-0
  6
Continuous
 62
     8
370
    25
100
AcDbLine
 10
164.0075331365
 20
144.4486671056
 30
0.0
 11
163.9887934361
 21
144.4535189237
 31
0.0
  0
LINE
  5
1C6
330
1F
100
AcDbEntity
  8
SLD-0
  6
Continuous
 62
     8
370
    25
100
AcDbLine
 10
162.3927717839
 20
145.2473216619
 30
0.0
 11
162.3927717839
 21
144.9178987111
 31
0.0
  0
LINE
  5
1C7
330
1F
100
AcDbEntity
  8
SLD-0
  6
Continuous
 62
     8
370
    25
100
AcDbLine
 10
163.7716417943
 20
144.4491797055
 30
0.0
 11
162.640250269
 21
144.7419934834
 31
0.0
  0
LINE
  5
1C8
330
1F
100
AcDbEntity
  8
SLD-0
  6
Continuous
 62
   179
370
    25
100
AcDbLine
 10
22.1240471798
 20
179.5336607795
 30
0.0
 11
17.8873967129
 21
180.6300405364
 31
0.0
  0
LINE
  5
1C9
330
1F
100
AcDbEntity
  8
SLD-0
  6
Continuous
 62
   179
370
    25
100
AcDbLine
 10
17.7310418087
 20
180.050886045
 30
0.0
 11
21.9737004238
 21
178.9528015952
 31
0.0
  0
LINE
  5
1CA
330
1F
100
AcDbEntity
  8
SLD-0
  6
Continuous
 62
   179
370
    25
100
AcDbLine
 10
22.1240471798
 20
180.1325324874
 30
0.0
 11
17.8873967129
 21
181.2289122443
 31
0.0
  0
LINE
  5
1CB
330
1F
100
AcDbEntity
  8
SLD-0
  6
Continuous
 62
   179
370
    25
100
AcDbLine
 10
17.7250336605
 20
180.6514505248
 30
0.0
 11
17.8062390285
 21
180.6310895781
 31
0.0
  0
LINE
  5
1CC
330
1F
100
AcDbEntity
  8
SLD-0
  6
Continuous
 62
   179
370
    25
100
AcDbLine
 10
34.0835292105
 20
177.2029524806
 30
0.0
 11
22.2127865749
 21
180.2740696769
 31
0.0
  0
LINE
  5
1CD
330
1F
100
AcDbEntity
  8
SLD-0
  6
Continuous
 62
   179
370
    25
100
AcDbLine
 10
21.8850087124
 20
178.8112644057
 30
0.0
 11
34.6210389011
 21
175.5161724423
 31
0.0
  0
LINE
  5
1CE
330
1F
100
AcDbEntity
  8
SLD-0
  6
Continuous
 62
   179
370
    25
100
AcDbLine
 10
17.6102589565
 20
180.4014805655
 30
0.0
 11
17.5940941769
 21
180.2864078383
 31
0.0
  0
LINE
  5
1CF
330
1F
100
AcDbEntity
  8
SLD-0
  6
Continuous
 62
   179
370
    25
100
AcDbLine
 10
17.5940941769
 20
180.2864078383
 30
0.0
 11
17.6102589565
 21
180.1796916823
 31
0.0
  0
LINE
  5
1D0
330
1F
100
AcDbEntity
  8
SLD-0
  6
Continuous
 62
   179
370
    25
100
AcDbLine
 10
17.6102589565
 20
180.1796916823
 30
0.0
 11
17.6562260586
 21
180.0975803237
 31
0.0
  0
LINE
  5
1D1
330
1F
100
AcDbEntity
  8
SLD-0
  6
Continuous
 62
   179
370
    25
100
AcDbLine
 10
17.6562260586
 20
180.0975803237
 30
0.0
 11
17.7250336605
 21
180.0525788169
 31
0.0
  0
LINE
  5
1D2
330
1F
100
AcDbEntity
  8
SLD-0
  6
Continuous
 62
   179
370
    25
100
AcDbLine
 10
17.7250336605
 20
180.0525788169
 30
0.0
 11
17.8062390285
 21
180.0515297751
 31
0.0
  0
LINE
  5
1D3
330
1F
100
AcDbEntity
  8
SLD-0
  6
Continuous
 62
   179
370
    25
100
AcDbLine
 10
17.8062390285
 20
180.0515297751
 30
0.0
 11
17.8873967129
 21
180.0946000914
 31
0.0
  0
LINE
  5
1D4
330
1F
100
AcDbEntity
  8
SLD-0
  6
Continuous
 62
   179
370
    25
100
AcDbLine
 10
17.8873967129
 20
180.0946000914
 30
0.0
 11
17.9562043148
 21
180.1752332549
 31
0.0
  0
LINE
  5
1D5
330
1F
100
AcDbEntity
  8
SLD-0
  6
Continuous
 62
   179
370
    25
100
AcDbLine
 10
17.9562043148
 20
180.1752332549
 30
0.0
 11
18.0022191006
 21
180.2811387877
 31
0.0
  0
LINE
  5
1D6
330
1F
100
AcDbEntity
  8
SLD-0
  6
Continuous
 62
   179
370
    25
100
AcDbLine
 10
18.0022191006
 20
180.2811387877
 30
0.0
 11
18.0183361965
 21
180.3962115149
 31
0.0
  0
LINE
  5
1D7
330
1F
100
AcDbEntity
  8
SLD-0
  6
Continuous
 62
   179
370
    25
100
AcDbLine
 10
18.0183361965
 20
180.3962115149
 30
0.0
 11
18.0022191006
 21
180.5029276709
 31
0.0
  0
LINE
  5
1D8
330
1F
100
AcDbEntity
  8
SLD-0
  6
Continuous
 62
   179
370
    25
100
AcDbLine
 10
18.0022191006
 20
180.5029276709
 30
0.0
 11
17.9562043148
 21
180.5850390296
 31
0.0
  0
LINE
  5
1D9
330
1F
100
AcDbEntity
  8
SLD-0
  6
Continuous
 62
   179
370
    25
100
AcDbLine
 10
17.9562043148
 20
180.5850390296
 30
0.0
 11
17.8873967129
 21
180.6300405364
 31
0.0
  0
LINE
  5
1DA
330
1F
100
AcDbEntity
  8
SLD-0
  6
Continuous
 62
   179
370
    25
100
AcDbLine
 10
17.8873967129
 20
180.6300405364
 30
0.0
 11
17.8062390285
 21
180.6310895781
 31
0.0
  0
LINE
  5
1DB
330
1F
100
AcDbEntity
  8
SLD-0
  6
Continuous
 62
   179
370
    25
100
AcDbLine
 10
17.8062390285
 20
180.6310895781
 30
0.0
 11
17.7250336605
 21
180.5880192618
 31
0.0
  0
LINE
  5
1DC
330
1F
100
AcDbEntity
  8
SLD-0
  6
Continuous
 62
   179
370
    25
100
AcDbLine
 10
17.7250336605
 20
180.5880192618
 30
0.0
 11
17.6562260586
 21
180.5073980193
 31
0.0
  0
LINE
  5
1DD
330
1F
100
AcDbEntity
  8
SLD-0
  6
Continuous
 62
   179
370
    25
100
AcDbLine
 10
17.6562260586
 20
180.5073980193
 30
0.0
 11
17.6102589565
 21
180.4014805655
 31
0.0
  0
LINE
  5
1DE
330
1F
100
AcDbEntity
  8
SLD-0
  6
Continuous
 62
   179
370
    25
100
AcDbLine
 10
21.9737004238
 20
178.9528015952
 30
0.0
 11
22.0488976436
 21
178.9534453254
 31
0.0
  0
LINE
  5
1DF
330
1F
100
AcDbEntity
  8
SLD-0
  6
Continuous
 62
   179
370
    25
100
AcDbLine
 10
22.0488976436
 20
178.9534453254
 30
0.0
 11
22.130055328
 21
178.9965156417
 31
0.0
  0
LINE
  5
1E0
330
1F
100
AcDbEntity
  8
SLD-0
  6
Continuous
 62
   179
370
    25
100
AcDbLine
 10
22.130055328
 20
178.9965156417
 30
0.0
 11
22.1989106136
 21
179.0771488051
 31
0.0
  0
LINE
  5
1E1
330
1F
100
AcDbEntity
  8
SLD-0
  6
Continuous
 62
   179
370
    25
100
AcDbLine
 10
22.1989106136
 20
179.0771488051
 30
0.0
 11
22.2448777157
 21
179.183054338
 31
0.0
  0
LINE
  5
1E2
330
1F
100
AcDbEntity
  8
SLD-0
  6
Continuous
 62
   179
370
    25
100
AcDbLine
 10
22.2448777157
 20
179.183054338
 30
0.0
 11
22.2610424953
 21
179.2981270652
 31
0.0
  0
LINE
  5
1E3
330
1F
100
AcDbEntity
  8
SLD-0
  6
Continuous
 62
   179
370
    25
100
AcDbLine
 10
22.2610424953
 20
179.2981270652
 30
0.0
 11
22.2448777157
 21
179.4048432212
 31
0.0
  0
LINE
  5
1E4
330
1F
100
AcDbEntity
  8
SLD-0
  6
Continuous
 62
   179
370
    25
100
AcDbLine
 10
22.2448777157
 20
179.4048432212
 30
0.0
 11
22.1989106136
 21
179.4869545798
 31
0.0
  0
LINE
  5
1E5
330
1F
100
AcDbEntity
  8
SLD-0
  6
Continuous
 62
   179
370
    25
100
AcDbLine
 10
22.1989106136
 20
179.4869545798
 30
0.0
 11
22.130055328
 21
179.5319560866
 31
0.0
  0
LINE
  5
1E6
330
1F
100
AcDbEntity
  8
SLD-0
  6
Continuous
 62
   179
370
    25
100
AcDbLine
 10
22.130055328
 20
179.5319560866
 30
0.0
 11
22.1240471798
 21
179.5336607795
 31
0.0
  0
LINE
  5
1E7
330
1F
100
AcDbEntity
  8
SLD-0
  6
Continuous
 62
   179
370
    25
100
AcDbLine
 10
17.6102589565
 20
181.0003522735
 30
0.0
 11
17.5940941769
 21
180.8852795463
 31
0.0
  0
LINE
  5
1E8
330
1F
100
AcDbEntity
  8
SLD-0
  6
Continuous
 62
   179
370
    25
100
AcDbLine
 10
17.5940941769
 20
180.8852795463
 30
0.0
 11
17.6102589565
 21
180.7785633902
 31
0.0
  0
LINE
  5
1E9
330
1F
100
AcDbEntity
  8
SLD-0
  6
Continuous
 62
   179
370
    25
100
AcDbLine
 10
17.6102589565
 20
180.7785633902
 30
0.0
 11
17.6562260586
 21
180.6964639525
 31
0.0
  0
LINE
  5
1EA
330
1F
100
AcDbEntity
  8
SLD-0
  6
Continuous
 62
   179
370
    25
100
AcDbLine
 10
17.6562260586
 20
180.6964639525
 30
0.0
 11
17.7250336605
 21
180.6514505248
 31
0.0
  0
LINE
  5
1EB
330
1F
100
AcDbEntity
  8
SLD-0
  6
Continuous
 62
   179
370
    25
100
AcDbLine
 10
17.7250336605
 20
180.6514505248
 30
0.0
 11
17.8062390285
 21
180.650413404
 31
0.0
  0
LINE
  5
1EC
330
1F
100
AcDbEntity
  8
SLD-0
  6
Continuous
 62
   179
370
    25
100
AcDbLine
 10
17.8062390285
 20
180.650413404
 30
0.0
 11
17.8873967129
 21
180.6934717994
 31
0.0
  0
LINE
  5
1ED
330
1F
100
AcDbEntity
  8
SLD-0
  6
Continuous
 62
   179
370
    25
100
AcDbLine
 10
17.8873967129
 20
180.6934717994
 30
0.0
 11
17.9562043148
 21
180.7741049628
 31
0.0
  0
LINE
  5
1EE
330
1F
100
AcDbEntity
  8
SLD-0
  6
Continuous
 62
   179
370
    25
100
AcDbLine
 10
17.9562043148
 20
180.7741049628
 30
0.0
 11
18.0022191006
 21
180.8800224166
 31
0.0
  0
LINE
  5
1EF
330
1F
100
AcDbEntity
  8
SLD-0
  6
Continuous
 62
   179
370
    25
100
AcDbLine
 10
18.0022191006
 20
180.8800224166
 30
0.0
 11
18.0183361965
 21
180.9950951438
 31
0.0
  0
LINE
  5
1F0
330
1F
100
AcDbEntity
  8
SLD-0
  6
Continuous
 62
   179
370
    25
100
AcDbLine
 10
18.0183361965
 20
180.9950951438
 30
0.0
 11
18.0022191006
 21
181.1017993789
 31
0.0
  0
LINE
  5
1F1
330
1F
100
AcDbEntity
  8
SLD-0
  6
Continuous
 62
   179
370
    25
100
AcDbLine
 10
18.0022191006
 20
181.1017993789
 30
0.0
 11
17.9562043148
 21
181.1839107375
 31
0.0
  0
LINE
  5
1F2
330
1F
100
AcDbEntity
  8
SLD-0
  6
Continuous
 62
   179
370
    25
100
AcDbLine
 10
17.9562043148
 20
181.1839107375
 30
0.0
 11
17.8873967129
 21
181.2289122443
 31
0.0
  0
LINE
  5
1F3
330
1F
100
AcDbEntity
  8
SLD-0
  6
Continuous
 62
   179
370
    25
100
AcDbLine
 10
17.8873967129
 20
181.2289122443
 30
0.0
 11
17.8062390285
 21
181.2299612861
 31
0.0
  0
LINE
  5
1F4
330
1F
100
AcDbEntity
  8
SLD-0
  6
Continuous
 62
   179
370
    25
100
AcDbLine
 10
17.8062390285
 20
181.2299612861
 30
0.0
 11
17.7250336605
 21
181.1868909697
 31
0.0
  0
LINE
  5
1F5
330
1F
100
AcDbEntity
  8
SLD-0
  6
Continuous
 62
   179
370
    25
100
AcDbLine
 10
17.7250336605
 20
181.1868909697
 30
0.0
 11
17.6562260586
 21
181.1062697272
 31
0.0
  0
LINE
  5
1F6
330
1F
100
AcDbEntity
  8
SLD-0
  6
Continuous
 62
   179
370
    25
100
AcDbLine
 10
17.6562260586
 20
181.1062697272
 30
0.0
 11
17.6102589565
 21
181.0003522735
 31
0.0
  0
LINE
  5
1F7
330
1F
100
AcDbEntity
  8
SLD-0
  6
Continuous
 62
   179
370
    25
100
AcDbLine
 10
22.0503758388
 20
179.5527223449
 30
0.0
 11
22.130055328
 21
179.5953873496
 31
0.0
  0
LINE
  5
1F8
330
1F
100
AcDbEntity
  8
SLD-0
  6
Continuous
 62
   179
370
    25
100
AcDbLine
 10
22.130055328
 20
179.5953873496
 30
0.0
 11
22.1989106136
 21
179.676020513
 31
0.0
  0
LINE
  5
1F9
330
1F
100
AcDbEntity
  8
SLD-0
  6
Continuous
 62
   179
370
    25
100
AcDbLine
 10
22.1989106136
 20
179.676020513
 30
0.0
 11
22.2448777157
 21
179.7819379668
 31
0.0
  0
LINE
  5
1FA
330
1F
100
AcDbEntity
  8
SLD-0
  6
Continuous
 62
   179
370
    25
100
AcDbLine
 10
22.2448777157
 20
179.7819379668
 30
0.0
 11
22.2610424953
 21
179.897010694
 31
0.0
  0
LINE
  5
1FB
330
1F
100
AcDbEntity
  8
SLD-0
  6
Continuous
 62
   179
370
    25
100
AcDbLine
 10
22.2610424953
 20
179.897010694
 30
0.0
 11
22.2448777157
 21
180.0037149291
 31
0.0
  0
LINE
  5
1FC
330
1F
100
AcDbEntity
  8
SLD-0
  6
Continuous
 62
   179
370
    25
100
AcDbLine
 10
22.2448777157
 20
180.0037149291
 30
0.0
 11
22.1989106136
 21
180.0858262877
 31
0.0
  0
LINE
  5
1FD
330
1F
100
AcDbEntity
  8
SLD-0
  6
Continuous
 62
   179
370
    25
100
AcDbLine
 10
22.1989106136
 20
180.0858262877
 30
0.0
 11
22.130055328
 21
180.1308277945
 31
0.0
  0
LINE
  5
1FE
330
1F
100
AcDbEntity
  8
SLD-0
  6
Continuous
 62
   179
370
    25
100
AcDbLine
 10
22.130055328
 20
180.1308277945
 30
0.0
 11
22.1240471798
 21
180.1325324874
 31
0.0
  0
LINE
  5
1FF
330
1F
100
AcDbEntity
  8
SLD-0
  6
Continuous
 62
   179
370
    25
100
AcDbLine
 10
21.5948056179
 20
179.0508631568
 30
0.0
 11
21.6198395687
 21
179.0058020453
 31
0.0
  0
LINE
  5
200
330
1F
100
AcDbEntity
  8
SLD-0
  6
Continuous
 62
   179
370
    25
100
AcDbLine
 10
21.6198395687
 20
179.0058020453
 30
0.0
 11
21.7371891933
 21
178.8758996825
 31
0.0
  0
LINE
  5
201
330
1F
100
AcDbEntity
  8
SLD-0
  6
Continuous
 62
   179
370
    25
100
AcDbLine
 10
21.7371891933
 20
178.8758996825
 30
0.0
 11
21.8850087124
 21
178.8112644057
 31
0.0
  0
LINE
  5
202
330
1F
100
AcDbEntity
  8
SLD-0
  6
Continuous
 62
   179
370
    25
100
AcDbLine
 10
21.8850087124
 20
178.8112644057
 30
0.0
 11
22.0488976436
 21
178.8182262282
 31
0.0
  0
LINE
  5
203
330
1F
100
AcDbEntity
  8
SLD-0
  6
Continuous
 62
   179
370
    25
100
AcDbLine
 10
22.0488976436
 20
178.8182262282
 30
0.0
 11
22.2127865749
 21
178.8960937362
 31
0.0
  0
LINE
  5
204
330
1F
100
AcDbEntity
  8
SLD-0
  6
Continuous
 62
   179
370
    25
100
AcDbLine
 10
22.2127865749
 20
178.8960937362
 30
0.0
 11
22.360606094
 21
179.0372613769
 31
0.0
  0
LINE
  5
205
330
1F
100
AcDbEntity
  8
SLD-0
  6
Continuous
 62
   179
370
    25
100
AcDbLine
 10
22.360606094
 20
179.0372613769
 30
0.0
 11
22.4779557186
 21
179.2278889518
 31
0.0
  0
LINE
  5
206
330
1F
100
AcDbEntity
  8
SLD-0
  6
Continuous
 62
   179
370
    25
100
AcDbLine
 10
22.4779557186
 20
179.2278889518
 30
0.0
 11
22.5532483059
 21
179.449344049
 31
0.0
  0
LINE
  5
207
330
1F
100
AcDbEntity
  8
SLD-0
  6
Continuous
 62
   179
370
    25
100
AcDbLine
 10
22.5532483059
 20
179.449344049
 30
0.0
 11
22.579235931
 21
179.6799305777
 31
0.0
  0
LINE
  5
208
330
1F
100
AcDbEntity
  8
SLD-0
  6
Continuous
 62
   179
370
    25
100
AcDbLine
 10
22.579235931
 20
179.6799305777
 30
0.0
 11
22.5532483059
 21
179.8970702987
 31
0.0
  0
LINE
  5
209
330
1F
100
AcDbEntity
  8
SLD-0
  6
Continuous
 62
   179
370
    25
100
AcDbLine
 10
22.5532483059
 20
179.8970702987
 30
0.0
 11
22.4779557186
 21
180.0795320372
 31
0.0
  0
LINE
  5
20A
330
1F
100
AcDbEntity
  8
SLD-0
  6
Continuous
 62
   179
370
    25
100
AcDbLine
 10
22.4779557186
 20
180.0795320372
 30
0.0
 11
22.360606094
 21
180.2094344001
 31
0.0
  0
LINE
  5
20B
330
1F
100
AcDbEntity
  8
SLD-0
  6
Continuous
 62
   179
370
    25
100
AcDbLine
 10
22.360606094
 20
180.2094344001
 30
0.0
 11
22.2127865749
 21
180.2740696769
 31
0.0
  0
LINE
  5
20C
330
1F
100
AcDbEntity
  8
SLD-0
  6
Continuous
 62
   179
370
    25
100
AcDbLine
 10
22.2127865749
 20
180.2740696769
 30
0.0
 11
22.0488976436
 21
180.2671078544
 31
0.0
  0
LINE
  5
20D
330
1F
100
AcDbEntity
  8
SLD-0
  6
Continuous
 62
   179
370
    25
100
AcDbLine
 10
22.0488976436
 20
180.2671078544
 30
0.0
 11
21.890444656
 21
180.192995439
 31
0.0
  0
ARC
  5
20E
330
1F
100
AcDbEntity
  8
SLD-0
  6
Continuous
 62
   179
370
    25
100
AcDbCircle
 10
45.2696451943
 20
173.0194775251
 30
0.0
 40
0.2146519600632613
100
AcDbArc
 50
350.7857583472
 51
69.5746376947
  0
ARC
  5
20F
330
1F
100
AcDbEntity
  8
SLD-0
  6
Continuous
 62
   179
370
    25
100
AcDbCircle
 10
45.2696388104
 20
174.1979053235
 30
0.0
 40
0.2146576671905789
100
AcDbArc
 50
350.7870093652
 51
69.5733866766
  0
ARC
  5
210
330
1F
100
AcDbEntity
  8
SLD-0
  6
Continuous
 62
   179
370
    25
100
AcDbCircle
 10
46.0004294009
 20
173.8530609311
 30
0.0
 40
0.0468600268930873
100
AcDbArc
 50
293.2443578627
 51
3.5539048751
  0
ARC
  5
211
330
1F
100
AcDbEntity
  8
SLD-0
  6
Continuous
 62
   179
370
    25
100
AcDbCircle
 10
45.9052358617
 20
173.7088156214
 30
0.0
 40
0.0702921061485473
100
AcDbArc
 50
113.2460228756
 51
183.545606871
  0
ARC
  5
212
330
1F
100
AcDbEntity
  8
SLD-0
  6
Continuous
 62
   179
370
    25
100
AcDbCircle
 10
45.7690677381
 20
172.5479886009
 30
0.0
 40
0.0565947607142845
100
AcDbArc
 50
186.9495985898
 51
281.1168129363
  0
ARC
  5
213
330
1F
100
AcDbEntity
  8
SLD-0
  6
Continuous
 62
   179
370
    25
100
AcDbCircle
 10
45.7767642085
 20
172.7658940563
 30
0.0
 40
0.118474434805257
100
AcDbArc
 50
179.7472874078
 51
194.2101886536
  0
ARC
  5
214
330
1F
100
AcDbEntity
  8
SLD-0
  6
Continuous
 62
   179
370
    25
100
AcDbCircle
 10
45.8018897472
 20
172.9205601606
 30
0.0
 40
0.1435999376040411
100
AcDbArc
 50
161.4461332805
 51
179.7740635215
  0
ARC
  5
215
330
1F
100
AcDbEntity
  8
SLD-0
  6
Continuous
 62
   179
370
    25
100
AcDbCircle
 10
45.5574087448
 20
173.0455779399
 30
0.0
 40
0.1279456747484693
100
AcDbArc
 50
340.2673735284
 51
19.7326264715
  0
ARC
  5
216
330
1F
100
AcDbEntity
  8
SLD-0
  6
Continuous
 62
   179
370
    25
100
AcDbCircle
 10
45.7691745248
 20
173.1586605241
 30
0.0
 40
0.1108906896704322
100
AcDbArc
 50
179.352047428
 51
201.1498385393
  0
ARC
  5
217
330
1F
100
AcDbEntity
  8
SLD-0
  6
Continuous
 62
   179
370
    25
100
AcDbCircle
 10
45.8019803405
 20
173.3069204446
 30
0.0
 40
0.143690565706337
100
AcDbArc
 50
161.4519933289
 51
179.7706394753
  0
ARC
  5
218
330
1F
100
AcDbEntity
  8
SLD-0
  6
Continuous
 62
   179
370
    25
100
AcDbCircle
 10
45.5574217182
 20
173.4319501485
 30
0.0
 40
0.1279324569427327
100
AcDbArc
 50
340.2666681481
 51
19.7333318517
  0
ARC
  5
219
330
1F
100
AcDbEntity
  8
SLD-0
  6
Continuous
 62
   179
370
    25
100
AcDbCircle
 10
45.7691745248
 20
173.5450297525
 30
0.0
 40
0.1108906896703117
100
AcDbArc
 50
179.3520474279
 51
201.1498385393
  0
ARC
  5
21A
330
1F
100
AcDbEntity
  8
SLD-0
  6
Continuous
 62
   179
370
    25
100
AcDbCircle
 10
45.8019557243
 20
173.6932937431
 30
0.0
 40
0.1436659335267968
100
AcDbArc
 50
161.4504094021
 51
179.772223402
  0
ARC
  5
21B
330
1F
100
AcDbEntity
  8
SLD-0
  6
Continuous
 62
   179
370
    25
100
AcDbCircle
 10
45.5508497932
 20
173.8456469243
 30
0.0
 40
0.1427992674592598
100
AcDbArc
 50
341.394304814
 51
359.8258919881
  0
ARC
  5
21C
330
1F
100
AcDbEntity
  8
SLD-0
  6
Continuous
 62
   179
370
    25
100
AcDbCircle
 10
44.9563742043
 20
173.6244132767
 30
0.0
 40
0.1112638513898005
100
AcDbArc
 50
179.3890456969
 51
201.11284027
  0
ARC
  5
21D
330
1F
100
AcDbEntity
  8
SLD-0
  6
Continuous
 62
   179
370
    25
100
AcDbCircle
 10
44.7701053837
 20
173.4939030869
 30
0.0
 40
0.110377061430054
100
AcDbArc
 50
359.297705738
 51
21.2012820107
  0
ARC
  5
21E
330
1F
100
AcDbEntity
  8
SLD-0
  6
Continuous
 62
   179
370
    25
100
AcDbCircle
 10
44.7400102504
 20
172.5653202649
 30
0.0
 40
0.1404640729405619
100
AcDbArc
 50
346.956467201
 51
359.9109355575
  0
ARC
  5
21F
330
1F
100
AcDbEntity
  8
SLD-0
  6
Continuous
 62
   179
370
    25
100
AcDbCircle
 10
44.7196626844
 20
172.3283012641
 30
0.0
 40
0.1075237062564282
100
AcDbArc
 50
291.3505389602
 51
351.0467996311
  0
ARC
  5
220
330
1F
100
AcDbEntity
  8
SLD-0
  6
Continuous
 62
   179
370
    25
100
AcDbCircle
 10
187.1883979166
 20
135.937266498
 30
0.0
 40
0.0490815920382455
100
AcDbArc
 50
255.7155425751
 51
285.2666467359
  0
ARC
  5
221
330
1F
100
AcDbEntity
  8
SLD-0
  6
Continuous
 62
   179
370
    25
100
AcDbCircle
 10
187.4218085079
 20
137.2504988346
 30
0.0
 40
0.0468239648043997
100
AcDbArc
 50
293.2137595398
 51
3.5778702071
  0
ARC
  5
222
330
1F
100
AcDbEntity
  8
SLD-0
  6
Continuous
 62
   179
370
    25
100
AcDbCircle
 10
187.3265396238
 20
137.1063189288
 30
0.0
 40
0.070232869534524
100
AcDbArc
 50
113.2329234394
 51
183.5830385742
  0
ARC
  5
223
330
1F
100
AcDbEntity
  8
SLD-0
  6
Continuous
 62
   179
370
    25
100
AcDbCircle
 10
68.0338693004
 20
170.6733161034
 30
0.0
 40
1.449094827705471
100
AcDbArc
 50
268.1135579807
 51
282.5020684454
  0
ARC
  5
224
330
1F
100
AcDbEntity
  8
SLD-0
  6
Continuous
 62
   179
370
    25
100
AcDbCircle
 10
69.8276338004
 20
167.5641371898
 30
0.0
 40
0.0840938223460567
100
AcDbArc
 50
322.4202436512
 51
357.3173221463
  0
ARC
  5
225
330
1F
100
AcDbEntity
  8
SLD-0
  6
Continuous
 62
   179
370
    25
100
AcDbCircle
 10
72.2895541026
 20
168.5651727113
 30
0.0
 40
0.0314093476102983
100
AcDbArc
 50
350.1194567273
 51
66.0463111398
  0
ARC
  5
226
330
1F
100
AcDbEntity
  8
SLD-0
  6
Continuous
 62
   179
370
    25
100
AcDbCircle
 10
68.6418801173
 20
169.0855351954
 30
0.0
 40
0.0469261498137511
100
AcDbArc
 50
113.2707832053
 51
183.4777324341
  0
ARC
  5
227
330
1F
100
AcDbEntity
  8
SLD-0
  6
Continuous
 62
   179
370
    25
100
AcDbCircle
 10
162.0790374247
 20
146.3328252316
 30
0.0
 40
1.449291656856916
100
AcDbArc
 50
268.1154661045
 51
282.5020340974
  0
ARC
  5
228
330
1F
100
AcDbEntity
  8
SLD-0
  6
Continuous
 62
   179
370
    25
100
AcDbCircle
 10
163.8730328017
 20
143.2233786838
 30
0.0
 40
0.0839016900060172
100
AcDbArc
 50
322.3789995345
 51
357.3585662627
  0
ARC
  5
229
330
1F
100
AcDbEntity
  8
SLD-0
  6
Continuous
 62
   179
370
    25
100
AcDbCircle
 10
166.3347380012
 20
144.2244913124
 30
0.0
 40
0.0314127963579375
100
AcDbArc
 50
350.1061417575
 51
65.9972320429
  0
ARC
  5
22A
330
1F
100
AcDbEntity
  8
SLD-0
  6
Continuous
 62
   179
370
    25
100
AcDbCircle
 10
162.6870654887
 20
144.7448759351
 30
0.0
 40
0.0469038732336606
100
AcDbArc
 50
113.2815938741
 51
183.523300606
  0
ARC
  5
22B
330
1F
100
AcDbEntity
  8
SLD-0
  6
Continuous
 62
   179
370
    18
100
AcDbCircle
 10
39.0922397288
 20
178.333091725
 30
0.0
 40
5.134627130367728
100
AcDbArc
 50
157.380135052
 51
202.619864948
  0
ARC
  5
22C
330
1F
100
AcDbEntity
  8
SLD-0
  6
Continuous
 62
   179
370
    18
100
AcDbCircle
 10
29.6129281035
 20
174.3833785478
 30
0.0
 40
5.134627130368418
100
AcDbArc
 50
337.380135052
 51
22.6198649481
  0
ARC
  5
22D
330
1F
100
AcDbEntity
  8
SLD-0
  6
Continuous
 62
   179
370
    18
100
AcDbCircle
 10
40.4263744432
 20
177.9744523451
 30
0.0
 40
5.134627130367682
100
AcDbArc
 50
157.380135052
 51
202.619864948
  0
ARC
  5
22E
330
1F
100
AcDbEntity
  8
SLD-0
  6
Continuous
 62
   179
370
    18
100
AcDbCircle
 10
30.9470628179
 20
174.0247391679
 30
0.0
 40
5.134627130368467
100
AcDbArc
 50
337.380135052
 51
22.6198649481
  0
SPLINE
  5
22F
330
1F
100
AcDbEntity
  8
SLD-0
  6
Continuous
 62
   179
370
    25
100
AcDbSpline
210
0.0
220
0.0
230
1.0
 70
     8
 71
     3
 72
     9
 73
     5
 74
     0
 42
0.00000001
 43
0.00000001
 40
0.0
 40
0.0
 40
0.0
 40
0.0
 40
0.4510987746126358
 40
1.0
 40
1.0
 40
1.0
 40
1.0
 10
43.41422373398563
 20
173.9519470299715
 30
0.0
 10
43.37257165098565
 20
173.9778894954165
 30
0.0
 10
43.28023692222025
 20
174.0353989964498
 30
0.0
 10
43.1764253190013
 20
174.0682666983671
 30
0.0
 10
43.119443002785
 20
174.086307820225
 30
0.0
  0
SPLINE
  5
230
330
1F
100
AcDbEntity
  8
SLD-0
  6
Continuous
 62
   179
370
    25
100
AcDbSpline
210
0.0
220
0.0
230
1.0
 70
     8
 71
     3
 72
     9
 73
     5
 74
     0
 42
0.00000001
 43
0.00000001
 40
0.0
 40
0.0
 40
0.0
 40
0.0
 40
0.4030626381310251
 40
1.0
 40
1.0
 40
1.0
 40
1.0
 10
42.96912008866101
 20
173.505448635959
 30
0.0
 10
42.98503153600137
 20
173.5004690846671
 30
0.0
 10
43.02450789980956
 20
173.4881147982092
 30
0.0
 10
43.05971023590075
 20
173.4662320387369
 30
0.0
 10
43.08072382553874
 20
173.4531694020269
 30
0.0
  0
SPLINE
  5
231
330
1F
100
AcDbEntity
  8
SLD-0
  6
Continuous
 62
   179
370
    25
100
AcDbSpline
210
0.0
220
0.0
230
1.0
 70
     8
 71
     3
 72
     9
 73
     5
 74
     0
 42
0.00000001
 43
0.00000001
 40
0.0
 40
0.0
 40
0.0
 40
0.0
 40
0.4077745063711798
 40
1.0
 40
1.0
 40
1.0
 40
1.0
 10
43.20267492874922
 20
174.6795409287449
 30
0.0
 10
43.19127127056874
 20
174.6784568451769
 30
0.0
 10
43.16330567192926
 20
174.6757983082863
 30
0.0
 10
43.13575764602479
 20
174.6816939432677
 30
0.0
 10
43.119443002785
 20
174.685185488605
 30
0.0
  0
SPLINE
  5
232
330
1F
100
AcDbEntity
  8
SLD-0
  6
Continuous
 62
   179
370
    25
100
AcDbSpline
210
0.0
220
0.0
230
1.0
 70
     8
 71
     3
 72
     9
 73
     5
 74
     0
 42
0.00000001
 43
0.00000001
 40
0.0
 40
0.0
 40
0.0
 40
0.0
 40
0.4028860668891324
 40
1.0
 40
1.0
 40
1.0
 40
1.0
 10
44.03411203965008
 20
173.55980211153
 30
0.0
 10
44.01820917449248
 20
173.5647830794457
 30
0.0
 10
43.97873681129959
 20
173.5771462965557
 30
0.0
 10
43.94353048859387
 20
173.5990201580145
 30
0.0
 10
43.92250830277269
 20
173.6120813454626
 30
0.0
  0
SPLINE
  5
233
330
1F
100
AcDbEntity
  8
SLD-0
  6
Continuous
 62
   179
370
    25
100
AcDbSpline
210
0.0
220
0.0
230
1.0
 70
     8
 71
     3
 72
     9
 73
     5
 74
     0
 42
0.00000001
 43
0.00000001
 40
0.0
 40
0.0
 40
0.0
 40
0.0
 40
0.4510959216818899
 40
1.0
 40
1.0
 40
1.0
 40
1.0
 10
43.58900839432498
 20
173.113303717518
 30
0.0
 10
43.63066060148392
 20
173.0873615871018
 30
0.0
 10
43.72299618945299
 20
173.0298524650521
 30
0.0
 10
43.82680696658499
 20
172.9969805145135
 30
0.0
 10
43.88378912552656
 20
172.9789369668004
 30
0.0
  0
SPLINE
  5
234
330
1F
100
AcDbEntity
  8
SLD-0
  6
Continuous
 62
   179
370
    25
100
AcDbSpline
210
0.0
220
0.0
230
1.0
 70
     8
 71
     3
 72
     9
 73
     5
 74
     0
 42
0.00000001
 43
0.00000001
 40
0.0
 40
0.0
 40
0.0
 40
0.0
 40
0.4491926622828715
 40
1.0
 40
1.0
 40
1.0
 40
1.0
 10
44.03411203965037
 20
174.7382276619911
 30
0.0
 10
43.98623211866853
 20
174.748519847688
 30
0.0
 10
43.8796410609729
 20
174.7714324786392
 30
0.0
 10
43.77088627404548
 20
174.7616668495292
 30
0.0
 10
43.71098333939401
 20
174.7562878693579
 30
0.0
  0
SPLINE
  5
235
330
1F
100
AcDbEntity
  8
SLD-0
  6
Continuous
 62
   179
370
    25
100
AcDbSpline
210
0.0
220
0.0
230
1.0
 70
     8
 71
     3
 72
     9
 73
     5
 74
     0
 42
0.00000001
 43
0.00000001
 40
0.0
 40
0.0
 40
0.0
 40
0.0
 40
0.4077745063711901
 40
1.0
 40
1.0
 40
1.0
 40
1.0
 10
43.80055719956224
 20
174.163013037586
 30
0.0
 10
43.81196085774283
 20
174.1640971211542
 30
0.0
 10
43.83992645638231
 20
174.1667556580446
 30
0.0
 10
43.86747448228677
 20
174.160860023063
 30
0.0
 10
43.8837891255266
 20
174.157368477726
 30
0.0
  0
INSERT
  5
236
330
1F
100
AcDbEntity
  8
0
  6
Continuous
 62
     7
100
AcDbBlockReference
  2
SW_NOTE_0
 10
158.1677422808
 20
108.0974399705
 30
0.0
 41
0.01
 42
0.01
 43
0.01
  0
HATCH
  5
237
330
1F
100
AcDbEntity
  8
0
  6
Continuous
 62
     7
100
AcDbHatch
 10
0.0
 20
0.0
 30
0.0
210
0.0
220
0.0
230
1.0
  2
SOLID
 70
     1
 71
     0
 91
        1
 92
        0
 93
       21
 72
     1
 10
43.29224878891799
 20
174.086266096973
 11
43.800557199562
 21
174.1630130375859
 72
     4
 94
        3
 73
     1
 74
     0
 95
        9
 96
        5
 40
0.0
 40
0.0
 40
0.0
 40
0.0
 40
0.4077745063711901
 40
1.0
 40
1.0
 40
1.0
 40
1.0
 10
43.80055719956224
 20
174.163013037586
 42
1.0
 10
43.81196085774283
 20
174.1640971211542
 42
1.0
 10
43.83992645638231
 20
174.1667556580446
 42
1.0
 10
43.86747448228677
 20
174.160860023063
 42
1.0
 10
43.8837891255266
 20
174.157368477726
 42
1.0
 72
     1
 10
43.88378912552655
 20
174.1573684777258
 11
45.19420916184301
 21
173.818206128025
 72
     1
 10
45.19420916184301
 20
173.818206128025
 11
45.269382539833
 21
173.818855818653
 72
     1
 10
45.269382539833
 20
173.818855818653
 11
45.35056406601701
 21
173.8619261349681
 72
     1
 10
45.35056406601701
 20
173.8619261349681
 11
45.419395509804
 21
173.942553337955
 72
     1
 10
45.419395509804
 20
173.942553337955
 11
45.46536261185502
 21
174.048464831257
 72
     1
 10
45.46536261185502
 20
174.048464831257
 11
45.48152739151806
 21
174.1635375584604
 72
     2
 10
45.269638810393
 20
174.197905323481
 40
0.2146576671903125
 50
350.7870093652123
 51
429.5733866766383
 73
     1
 72
     1
 10
45.344555917824
 20
174.3990653122901
 11
44.0341120396501
 21
174.7382276619909
 72
     4
 94
        3
 73
     1
 74
     0
 95
        9
 96
        5
 40
0.0
 40
0.0
 40
0.0
 40
0.0
 40
0.4491926622828715
 40
1.0
 40
1.0
 40
1.0
 40
1.0
 10
44.03411203965037
 20
174.7382276619911
 42
1.0
 10
43.98623211866853
 20
174.748519847688
 42
1.0
 10
43.8796410609729
 20
174.7714324786392
 42
1.0
 10
43.77088627404548
 20
174.7616668495292
 42
1.0
 10
43.71098333939401
 20
174.7562878693579
 42
1.0
 72
     1
 10
43.71098333939401
 20
174.756287869358
 11
43.20267492874919
 21
174.679540928745
 72
     4
 94
        3
 73
     1
 74
     0
 95
        9
 96
        5
 40
0.0
 40
0.0
 40
0.0
 40
0.0
 40
0.4077745063711798
 40
1.0
 40
1.0
 40
1.0
 40
1.0
 10
43.20267492874922
 20
174.6795409287449
 42
1.0
 10
43.19127127056874
 20
174.6784568451769
 42
1.0
 10
43.16330567192926
 20
174.6757983082863
 42
1.0
 10
43.13575764602479
 20
174.6816939432677
 42
1.0
 10
43.119443002785
 20
174.685185488605
 42
1.0
 72
     1
 10
43.119443002785
 20
174.685185488605
 11
42.89069191659009
 21
174.7382276619908
 72
     1
 10
42.89069191659009
 20
174.7382276619908
 11
42.94532591446701
 21
174.605875548267
 72
     1
 10
42.94532591446701
 20
174.605875548267
 11
42.971289697731
 21
174.388729866886
 72
     1
 10
42.971289697731
 20
174.388729866886
 11
42.94532591446701
 21
174.158143338108
 72
     1
 10
42.94532591446701
 20
174.158143338108
 11
42.93701257841364
 21
174.1337007090279
 72
     1
 10
42.93701257841364
 20
174.1337007090279
 11
43.119443002785
 21
174.086307820225
 72
     4
 94
        3
 73
     1
 74
     0
 95
        8
 96
        4
 40
0.0
 40
0.0
 40
0.0
 40
0.0
 40
0.0552035946119741
 40
0.0552035946119741
 40
0.0552035946119741
 40
0.0552035946119741
 10
43.119443002785
 20
174.086307820225
 42
1.0
 10
43.12517377644512
 20
174.0844934049326
 42
1.0
 10
43.13090455010524
 20
174.0826789896401
 42
1.0
 10
43.13663180628642
 20
174.0808570220293
 42
1.0
 72
     1
 10
43.13663180351059
 20
174.0808570133035
 11
43.29224878891799
 21
174.086266096973
 97
        0
 75
     0
 76
     1
 98
        1
 10
0.0
 20
0.0
  0
HATCH
  5
238
330
1F
100
AcDbEntity
  8
0
  6
Continuous
 62
     7
100
AcDbHatch
 10
0.0
 20
0.0
 30
0.0
210
0.0
220
0.0
230
1.0
  2
SOLID
 70
     1
 71
     0
 91
        1
 92
        0
 93
       20
 72
     1
 10
22.19891061361819
 20
180.085826287738
 11
22.13005532797416
 21
180.130827794544
 72
     1
 10
22.13005532797416
 20
180.130827794544
 11
22.12404717978016
 21
180.132532487384
 72
     1
 10
22.12404717978016
 20
180.132532487384
 11
17.88739671286116
 21
181.228912244312
 72
     1
 10
17.88739671286116
 20
181.228912244312
 11
17.95620431479013
 21
181.183910737506
 72
     1
 10
17.95620431479013
 20
181.183910737506
 11
18.00221910055717
 21
181.101799378864
 72
     1
 10
18.00221910055717
 20
181.101799378864
 11
18.01833619650417
 21
180.995095143787
 72
     1
 10
18.01833619650417
 20
180.995095143787
 11
18.00221910055718
 21
180.880022416583
 72
     1
 10
18.00221910055718
 20
180.880022416583
 11
17.95620431479011
 21
180.774104962818
 72
     1
 10
17.95620431479011
 20
180.774104962818
 11
17.88739671286116
 21
180.693471799365
 72
     1
 10
17.88739671286116
 20
180.693471799365
 11
17.80623902853515
 21
180.65041340398
 72
     1
 10
17.80623902853515
 20
180.65041340398
 11
17.72503366049315
 21
180.651450524799
 72
     1
 10
17.72503366049315
 20
180.651450524799
 11
17.80623902853515
 21
180.631089578144
 72
     1
 10
17.80623902853515
 20
180.631089578144
 11
17.88739671286116
 21
180.6300405363949
 72
     1
 10
17.88739671286116
 20
180.6300405363949
 11
22.05038017085634
 21
179.55272466448
 72
     1
 10
22.05038017085634
 20
179.55272466448
 11
22.13005532797417
 21
179.595387349597
 72
     1
 10
22.13005532797417
 20
179.595387349597
 11
22.19891061361817
 21
179.6760205130499
 72
     1
 10
22.19891061361817
 20
179.6760205130499
 11
22.24487771566916
 21
179.781937966815
 72
     1
 10
22.24487771566916
 20
179.781937966815
 11
22.26104249533216
 21
179.8970106940189
 72
     1
 10
22.26104249533216
 20
179.8970106940189
 11
22.24487771566914
 21
180.0037149290959
 72
     1
 10
22.24487771566914
 20
180.0037149290959
 11
22.19891061361819
 21
180.085826287738
 97
        0
 75
     0
 76
     1
 98
        1
 10
0.0
 20
0.0
  0
ENDSEC
  0
SECTION
  2
OBJECTS
  0
DICTIONARY
  5
C
330
0
100
AcDbDictionary
281
     1
  3
ACAD_GROUP
350
D
  3
ACAD_LAYOUT
350
1A
  3
ACAD_MLINESTYLE
350
17
  3
ACAD_PLOTSETTINGS
350
19
  3
ACAD_PLOTSTYLENAME
350
E
  3
ACAD_SCALELIST
350
47
  3
DWGPROPS
350
239
  0
DICTIONARY
  5
D
102
{ACAD_REACTORS
330
C
102
}
330
C
100
AcDbDictionary
281
     1
  0
DICTIONARY
  5
1A
102
{ACAD_REACTORS
330
C
102
}
330
C
100
AcDbDictionary
281
     1
  3
Layout1
350
1E
  3
Layout2
350
26
  3
Model
350
22
  0
DICTIONARY
  5
17
102
{ACAD_REACTORS
330
C
102
}
330
C
100
AcDbDictionary
281
     1
  3
Standard
350
18
  0
DICTIONARY
  5
19
102
{ACAD_REACTORS
330
C
102
}
330
C
100
AcDbDictionary
281
     1
  0
ACDBDICTIONARYWDFLT
  5
E
102
{ACAD_REACTORS
330
C
102
}
330
C
100
AcDbDictionary
281
     1
  3
Normal
350
F
100
AcDbDictionaryWithDefault
340
F
  0
DICTIONARY
  5
47
102
{ACAD_REACTORS
330
C
102
}
330
C
100
AcDbDictionary
281
     1
  3
A0
350
48
  3
A1
350
49
  3
A2
350
4A
  3
A3
350
4B
  3
A4
350
4C
  3
A5
350
4D
  3
A6
350
4E
  3
A7
350
4F
  3
A8
350
50
  3
A9
350
51
  3
B0
350
52
  3
B1
350
53
  3
B2
350
54
  3
B3
350
55
  3
B4
350
56
  3
B5
350
57
  3
B6
350
58
  3
B7
350
59
  3
B8
350
5A
  3
B9
350
5B
  3
C0
350
5C
  3
C1
350
5D
  3
C2
350
5E
  3
C3
350
5F
  3
C4
350
60
  3
C5
350
61
  3
C6
350
62
  3
C7
350
63
  3
C8
350
64
  3
C9
350
65
  3
D0
350
66
  3
D1
350
67
  3
D2
350
68
  0
XRECORD
  5
239
102
{ACAD_REACTORS
330
C
102
}
330
C
100
AcDbXrecord
280
     1
  1
DWGPROPS COOKIE
  2

  3

  4

  6

  7

  8
9128
  9

300
=
301
=
302
=
303
=
304
=
305
=
306
=
307
=
308
=
309
=
 40
0.0
 41
2459242.41771441
 42
2459242.417714653
  1

 90
        0
  0
LAYOUT
  5
1E
102
{ACAD_REACTORS
330
1A
102
}
330
1A
100
AcDbPlotSettings
  1

  2
none_device
  4

  6

 40
0.0
 41
0.0
 42
0.0
 43
0.0
 44
0.0
 45
0.0
 46
0.0
 47
0.0
 48
0.0
 49
0.0
140
0.0
141
0.0
142
1.0
143
1.0
 70
   688
 72
     1
 73
     0
 74
     5
  7

 75
    16
147
1.0
148
0.0
149
0.0
100
AcDbLayout
  1
Layout1
 70
     1
 71
     1
 10
0.0
 20
0.0
 11
420.0
 21
297.0
 12
0.0
 22
0.0
 32
0.0
 14
1.0000000000E+20
 24
1.0000000000E+20
 34
1.0000000000E+20
 15
-1.0000000000E+20
 25
-1.0000000000E+20
 35
-1.0000000000E+20
146
0.0
 13
0.0
 23
0.0
 33
0.0
 16
1.0
 26
0.0
 36
0.0
 17
0.0
 27
1.0
 37
0.0
 76
     0
330
1B
  0
LAYOUT
  5
26
102
{ACAD_REACTORS
330
1A
102
}
330
1A
100
AcDbPlotSettings
  1

  2
none_device
  4

  6

 40
0.0
 41
0.0
 42
0.0
 43
0.0
 44
0.0
 45
0.0
 46
0.0
 47
0.0
 48
0.0
 49
0.0
140
0.0
141
0.0
142
1.0
143
1.0
 70
   688
 72
     1
 73
     0
 74
     5
  7

 75
    16
147
1.0
148
0.0
149
0.0
100
AcDbLayout
  1
Layout2
 70
     1
 71
     2
 10
0.0
 20
0.0
 11
0.0
 21
0.0
 12
0.0
 22
0.0
 32
0.0
 14
0.0
 24
0.0
 34
0.0
 15
0.0
 25
0.0
 35
0.0
146
0.0
 13
0.0
 23
0.0
 33
0.0
 16
1.0
 26
0.0
 36
0.0
 17
0.0
 27
1.0
 37
0.0
 76
     0
330
23
  0
LAYOUT
  5
22
102
{ACAD_REACTORS
330
1A
102
}
330
1A
100
AcDbPlotSettings
  1

  2
none_device
  4
Letter_(8.50_x_11.00_Inches)
  6

 40
6.35
 41
6.35
 42
6.35000508
 43
6.35000508
 44
215.9
 45
279.4
 46
0.0
 47
0.0
 48
0.0
 49
0.0
140
0.0
141
0.0
142
1.0
143
1.0
 70
  1712
 72
     1
 73
     0
 74
     0
  7

 75
     0
147
1.0
148
0.0
149
0.0
100
AcDbLayout
  1
Model
 70
     1
 71
     0
 10
0.0
 20
0.0
 11
210.0
 21
297.0
 12
0.0
 22
0.0
 32
0.0
 14
0.0
 24
0.0
 34
0.0
 15
210.0
 25
297.0
 35
0.0
146
0.0
 13
0.0
 23
0.0
 33
0.0
 16
1.0
 26
0.0
 36
0.0
 17
0.0
 27
1.0
 37
0.0
 76
     0
330
1F
331
29
  0
MLINESTYLE
  5
18
102
{ACAD_REACTORS
330
17
102
}
330
17
100
AcDbMlineStyle
  2
Standard
 70
     0
  3

 62
   256
 51
90.0
 52
90.0
 71
     2
 49
0.5
 62
   256
  6
BYLAYER
 49
-0.5
 62
   256
  6
BYLAYER
  0
ACDBPLACEHOLDER
  5
F
102
{ACAD_REACTORS
330
E
102
}
330
E
  0
SCALE
  5
48
102
{ACAD_REACTORS
330
47
102
}
330
47
100
AcDbScale
 70
     0
300
1:1
140
1.0
141
1.0
290
     1
  0
SCALE
  5
49
102
{ACAD_REACTORS
330
47
102
}
330
47
100
AcDbScale
 70
     0
300
1:2
140
1.0
141
2.0
290
     0
  0
SCALE
  5
4A
102
{ACAD_REACTORS
330
47
102
}
330
47
100
AcDbScale
 70
     0
300
1:4
140
1.0
141
4.0
290
     0
  0
SCALE
  5
4B
102
{ACAD_REACTORS
330
47
102
}
330
47
100
AcDbScale
 70
     0
300
1:5
140
1.0
141
5.0
290
     0
  0
SCALE
  5
4C
102
{ACAD_REACTORS
330
47
102
}
330
47
100
AcDbScale
 70
     0
300
1:8
140
1.0
141
8.0
290
     0
  0
SCALE
  5
4D
102
{ACAD_REACTORS
330
47
102
}
330
47
100
AcDbScale
 70
     0
300
1:10
140
1.0
141
10.0
290
     0
  0
SCALE
  5
4E
102
{ACAD_REACTORS
330
47
102
}
330
47
100
AcDbScale
 70
     0
300
1:16
140
1.0
141
16.0
290
     0
  0
SCALE
  5
4F
102
{ACAD_REACTORS
330
47
102
}
330
47
100
AcDbScale
 70
     0
300
1:20
140
1.0
141
20.0
290
     0
  0
SCALE
  5
50
102
{ACAD_REACTORS
330
47
102
}
330
47
100
AcDbScale
 70
     0
300
1:30
140
1.0
141
30.0
290
     0
  0
SCALE
  5
51
102
{ACAD_REACTORS
330
47
102
}
330
47
100
AcDbScale
 70
     0
300
1:40
140
1.0
141
40.0
290
     0
  0
SCALE
  5
52
102
{ACAD_REACTORS
330
47
102
}
330
47
100
AcDbScale
 70
     0
300
1:50
140
1.0
141
50.0
290
     0
  0
SCALE
  5
53
102
{ACAD_REACTORS
330
47
102
}
330
47
100
AcDbScale
 70
     0
300
1:100
140
1.0
141
100.0
290
     0
  0
SCALE
  5
54
102
{ACAD_REACTORS
330
47
102
}
330
47
100
AcDbScale
 70
     0
300
2:1
140
2.0
141
1.0
290
     0
  0
SCALE
  5
55
102
{ACAD_REACTORS
330
47
102
}
330
47
100
AcDbScale
 70
     0
300
4:1
140
4.0
141
1.0
290
     0
  0
SCALE
  5
56
102
{ACAD_REACTORS
330
47
102
}
330
47
100
AcDbScale
 70
     0
300
8:1
140
8.0
141
1.0
290
     0
  0
SCALE
  5
57
102
{ACAD_REACTORS
330
47
102
}
330
47
100
AcDbScale
 70
     0
300
10:1
140
10.0
141
1.0
290
     0
  0
SCALE
  5
58
102
{ACAD_REACTORS
330
47
102
}
330
47
100
AcDbScale
 70
     0
300
100:1
140
100.0
141
1.0
290
     0
  0
SCALE
  5
59
102
{ACAD_REACTORS
330
47
102
}
330
47
100
AcDbScale
 70
     0
300
1/128" = 1'-0"
140
0.0078125
141
12.0
290
     0
  0
SCALE
  5
5A
102
{ACAD_REACTORS
330
47
102
}
330
47
100
AcDbScale
 70
     0
300
1/64" = 1'-0"
140
0.015625
141
12.0
290
     0
  0
SCALE
  5
5B
102
{ACAD_REACTORS
330
47
102
}
330
47
100
AcDbScale
 70
     0
300
1/32" = 1'-0"
140
0.03125
141
12.0
290
     0
  0
SCALE
  5
5C
102
{ACAD_REACTORS
330
47
102
}
330
47
100
AcDbScale
 70
     0
300
1/16" = 1'-0"
140
0.0625
141
12.0
290
     0
  0
SCALE
  5
5D
102
{ACAD_REACTORS
330
47
102
}
330
47
100
AcDbScale
 70
     0
300
3/32" = 1'-0"
140
0.09375
141
12.0
290
     0
  0
SCALE
  5
5E
102
{ACAD_REACTORS
330
47
102
}
330
47
100
AcDbScale
 70
     0
300
1/8" = 1'-0"
140
0.125
141
12.0
290
     0
  0
SCALE
  5
5F
102
{ACAD_REACTORS
330
47
102
}
330
47
100
AcDbScale
 70
     0
300
3/16" = 1'-0"
140
0.1875
141
12.0
290
     0
  0
SCALE
  5
60
102
{ACAD_REACTORS
330
47
102
}
330
47
100
AcDbScale
 70
     0
300
1/4" = 1'-0"
140
0.25
141
12.0
290
     0
  0
SCALE
  5
61
102
{ACAD_REACTORS
330
47
102
}
330
47
100
AcDbScale
 70
     0
300
3/8" = 1'-0"
140
0.375
141
12.0
290
     0
  0
SCALE
  5
62
102
{ACAD_REACTORS
330
47
102
}
330
47
100
AcDbScale
 70
     0
300
1/2" = 1'-0"
140
0.5
141
12.0
290
     0
  0
SCALE
  5
63
102
{ACAD_REACTORS
330
47
102
}
330
47
100
AcDbScale
 70
     0
300
3/4" = 1'-0"
140
0.75
141
12.0
290
     0
  0
SCALE
  5
64
102
{ACAD_REACTORS
330
47
102
}
330
47
100
AcDbScale
 70
     0
300
1" = 1'-0"
140
1.0
141
12.0
290
     0
  0
SCALE
  5
65
102
{ACAD_REACTORS
330
47
102
}
330
47
100
AcDbScale
 70
     0
300
1-1/2" = 1'-0"
140
1.5
141
12.0
290
     0
  0
SCALE
  5
66
102
{ACAD_REACTORS
330
47
102
}
330
47
100
AcDbScale
 70
     0
300
3" = 1'-0"
140
3.0
141
12.0
290
     0
  0
SCALE
  5
67
102
{ACAD_REACTORS
330
47
102
}
330
47
100
AcDbScale
 70
     0
300
6" = 1'-0"
140
6.0
141
12.0
290
     0
  0
SCALE
  5
68
102
{ACAD_REACTORS
330
47
102
}
330
47
100
AcDbScale
 70
     0
300
1'-0" = 1'-0"
140
12.0
141
12.0
290
     0
  0
ENDSEC
  0
EOF
