  0
SECTION
  2
HEADER
  9
$ACADVER
  1
AC1015
  9
$ACADMAINTVER
 70
     6
  9
$DWGCODEPAGE
  3
DOS932
  9
$INSBASE
 10
0.0
 20
0.0
 30
0.0
  9
$EXTMIN
 10
0.0
 20
0.0
 30
0.0
  9
$EXTMAX
 10
210.0
 20
297.0
 30
0.0
  9
$LIMMIN
 10
0.0
 20
0.0
  9
$LIMMAX
 10
210.0
 20
297.0
  9
$ORTHOMODE
 70
     0
  9
$REGENMODE
 70
     1
  9
$FILLMODE
 70
     1
  9
$QTEXTMODE
 70
     0
  9
$MIRRTEXT
 70
     1
  9
$LTSCALE
 40
1.0
  9
$ATTMODE
 70
     1
  9
$TEXTSIZE
 40
3.5
  9
$TRACEWID
 40
1.0
  9
$TEXTSTYLE
  7
Standard
  9
$CLAYER
  8
0
  9
$CELTYPE
  6
ByLayer
  9
$CECOLOR
 62
   256
  9
$CELTSCALE
 40
1.0
  9
$DISPSILH
 70
     0
  9
$DIMSCALE
 40
1.0
  9
$DIMASZ
 40
3.5
  9
$DIMEXO
 40
1.0
  9
$DIMDLI
 40
3.75
  9
$DIMRND
 40
0.0
  9
$DIMDLE
 40
0.0
  9
$DIMEXE
 40
1.0
  9
$DIMTP
 40
0.0
  9
$DIMTM
 40
0.0
  9
$DIMTXT
 40
3.5
  9
$DIMCEN
 40
2.5
  9
$DIMTSZ
 40
0.0
  9
$DIMTOL
 70
     0
  9
$DIMLIM
 70
     0
  9
$DIMTIH
 70
     1
  9
$DIMTOH
 70
     1
  9
$DIMSE1
 70
     0
  9
$DIMSE2
 70
     0
  9
$DIMTAD
 70
     1
  9
$DIMZIN
 70
     1
  9
$DIMBLK
  1

  9
$DIMASO
 70
     1
  9
$DIMSHO
 70
     1
  9
$DIMPOST
  1

  9
$DIMAPOST
  1

  9
$DIMALT
 70
     0
  9
$DIMALTD
 70
     3
  9
$DIMALTF
 40
0.0393700787
  9
$DIMLFAC
 40
100.0
  9
$DIMTOFL
 70
     1
  9
$DIMTVP
 40
0.0
  9
$DIMTIX
 70
     0
  9
$DIMSOXD
 70
     0
  9
$DIMSAH
 70
     0
  9
$DIMBLK1
  1

  9
$DIMBLK2
  1

  9
$DIMSTYLE
  2
ISO-25
  9
$DIMCLRD
 70
     0
  9
$DIMCLRE
 70
     0
  9
$DIMCLRT
 70
     0
  9
$DIMTFAC
 40
1.0
  9
$DIMGAP
 40
1.524
  9
$DIMJUST
 70
     0
  9
$DIMSD1
 70
     0
  9
$DIMSD2
 70
     0
  9
$DIMTOLJ
 70
     0
  9
$DIMTZIN
 70
     1
  9
$DIMALTZ
 70
     0
  9
$DIMALTTZ
 70
     0
  9
$DIMUPT
 70
     0
  9
$DIMDEC
 70
     2
  9
$DIMTDEC
 70
     2
  9
$DIMALTU
 70
     2
  9
$DIMALTTD
 70
     3
  9
$DIMTXSTY
  7
Standard
  9
$DIMAUNIT
 70
     0
  9
$DIMADEC
 70
     2
  9
$DIMALTRND
 40
0.0
  9
$DIMAZIN
 70
     0
  9
$DIMDSEP
 70
    44
  9
$DIMATFIT
 70
     3
  9
$DIMFRAC
 70
     0
  9
$DIMLDRBLK
  1

  9
$DIMLUNIT
 70
     2
  9
$DIMLWD
 70
    -2
  9
$DIMLWE
 70
    -2
  9
$DIMTMOVE
 70
     0
  9
$LUNITS
 70
     2
  9
$LUPREC
 70
     2
  9
$SKETCHINC
 40
1.0
  9
$FILLETRAD
 40
10.0
  9
$AUNITS
 70
     0
  9
$AUPREC
 70
     2
  9
$MENU
  1
.
  9
$ELEVATION
 40
0.0
  9
$PELEVATION
 40
0.0
  9
$THICKNESS
 40
0.0
  9
$LIMCHECK
 70
     0
  9
$CHAMFERA
 40
0.0
  9
$CHAMFERB
 40
0.0
  9
$CHAMFERC
 40
0.0
  9
$CHAMFERD
 40
0.0
  9
$SKPOLY
 70
     0
  9
$TDCREATE
 40
2459242.792162222
  9
$TDUCREATE
 40
2459242.417162222
  9
$TDUPDATE
 40
2459242.792162558
  9
$TDUUPDATE
 40
2459242.417162558
  9
$TDINDWG
 40
0.0000000116
  9
$TDUSRTIMER
 40
0.0000000116
  9
$USRTIMER
 70
     1
  9
$ANGBASE
 50
0.0
  9
$ANGDIR
 70
     0
  9
$PDMODE
 70
     0
  9
$PDSIZE
 40
-1.0
  9
$PLINEWID
 40
0.0
  9
$SPLFRAME
 70
     0
  9
$SPLINETYPE
 70
     6
  9
$SPLINESEGS
 70
     8
  9
$HANDSEED
  5
338
  9
$SURFTAB1
 70
     6
  9
$SURFTAB2
 70
     6
  9
$SURFTYPE
 70
     6
  9
$SURFU
 70
     6
  9
$SURFV
 70
     6
  9
$UCSBASE
  2

  9
$UCSNAME
  2

  9
$UCSORG
 10
0.0
 20
0.0
 30
0.0
  9
$UCSXDIR
 10
1.0
 20
0.0
 30
0.0
  9
$UCSYDIR
 10
0.0
 20
1.0
 30
0.0
  9
$UCSORTHOREF
  2

  9
$UCSORTHOVIEW
 70
     0
  9
$UCSORGTOP
 10
0.0
 20
0.0
 30
0.0
  9
$UCSORGBOTTOM
 10
0.0
 20
0.0
 30
0.0
  9
$UCSORGLEFT
 10
0.0
 20
0.0
 30
0.0
  9
$UCSORGRIGHT
 10
0.0
 20
0.0
 30
0.0
  9
$UCSORGFRONT
 10
0.0
 20
0.0
 30
0.0
  9
$UCSORGBACK
 10
0.0
 20
0.0
 30
0.0
  9
$PUCSBASE
  2

  9
$PUCSNAME
  2

  9
$PUCSORG
 10
0.0
 20
0.0
 30
0.0
  9
$PUCSXDIR
 10
1.0
 20
0.0
 30
0.0
  9
$PUCSYDIR
 10
0.0
 20
1.0
 30
0.0
  9
$PUCSORTHOREF
  2

  9
$PUCSORTHOVIEW
 70
     0
  9
$PUCSORGTOP
 10
0.0
 20
0.0
 30
0.0
  9
$PUCSORGBOTTOM
 10
0.0
 20
0.0
 30
0.0
  9
$PUCSORGLEFT
 10
0.0
 20
0.0
 30
0.0
  9
$PUCSORGRIGHT
 10
0.0
 20
0.0
 30
0.0
  9
$PUCSORGFRONT
 10
0.0
 20
0.0
 30
0.0
  9
$PUCSORGBACK
 10
0.0
 20
0.0
 30
0.0
  9
$USERI1
 70
     0
  9
$USERI2
 70
     0
  9
$USERI3
 70
     0
  9
$USERI4
 70
     0
  9
$USERI5
 70
     0
  9
$USERR1
 40
0.0
  9
$USERR2
 40
0.0
  9
$USERR3
 40
0.0
  9
$USERR4
 40
0.0
  9
$USERR5
 40
0.0
  9
$WORLDVIEW
 70
     1
  9
$SHADEDGE
 70
     3
  9
$SHADEDIF
 70
    70
  9
$TILEMODE
 70
     1
  9
$MAXACTVP
 70
    64
  9
$PINSBASE
 10
0.0
 20
0.0
 30
0.0
  9
$PLIMCHECK
 70
     0
  9
$PEXTMIN
 10
1.0000000000E+20
 20
1.0000000000E+20
 30
1.0000000000E+20
  9
$PEXTMAX
 10
-1.0000000000E+20
 20
-1.0000000000E+20
 30
-1.0000000000E+20
  9
$PLIMMIN
 10
0.0
 20
0.0
  9
$PLIMMAX
 10
420.0
 20
297.0
  9
$UNITMODE
 70
     0
  9
$VISRETAIN
 70
     1
  9
$PLINEGEN
 70
     0
  9
$PSLTSCALE
 70
     1
  9
$TREEDEPTH
 70
  3020
  9
$CMLSTYLE
  2
Standard
  9
$CMLJUST
 70
     0
  9
$CMLSCALE
 40
20.0
  9
$PROXYGRAPHICS
 70
     1
  9
$MEASUREMENT
 70
     1
  9
$CELWEIGHT
370
    -1
  9
$ENDCAPS
280
     0
  9
$JOINSTYLE
280
     0
  9
$LWDISPLAY
290
     1
  9
$INSUNITS
 70
     4
  9
$HYPERLINKBASE
  1

  9
$STYLESHEET
  1

  9
$XEDIT
290
     1
  9
$CEPSNTYPE
380
     0
  9
$PSTYLEMODE
290
     1
  9
$FINGERPRINTGUID
  2
{29ce0317-b348-471d-9914-5463039fe94a}
  9
$VERSIONGUID
  2
{FAEB1C32-E019-11D5-929B-00C0DF256EC4}
  9
$EXTNAMES
290
     1
  9
$PSVPSCALE
 40
0.0
  9
$OLESTARTUP
290
     0
  0
ENDSEC
  0
SECTION
  2
CLASSES
  0
CLASS
  1
ACDBDICTIONARYWDFLT
  2
AcDbDictionaryWithDefault
  3
ObjectDBX Classes
 90
        0
280
     0
281
     0
  0
CLASS
  1
VISUALSTYLE
  2
AcDbVisualStyle
  3
ObjectDBX Classes
 90
     4095
280
     0
281
     0
  0
CLASS
  1
MATERIAL
  2
AcDbMaterial
  3
ObjectDBX Classes
 90
     1153
280
     0
281
     0
  0
CLASS
  1
SCALE
  2
AcDbScale
  3
ObjectDBX Classes
 90
     1153
280
     0
281
     0
  0
CLASS
  1
TABLESTYLE
  2
AcDbTableStyle
  3
ObjectDBX Classes
 90
     4095
280
     0
281
     0
  0
CLASS
  1
MLEADERSTYLE
  2
AcDbMLeaderStyle
  3
ACDB_MLEADERSTYLE_CLASS
 90
     4095
280
     0
281
     0
  0
CLASS
  1
SUN
  2
AcDbSun
  3
SCENEOE
 90
     1153
280
     0
281
     0
  0
CLASS
  1
ACDBPLACEHOLDER
  2
AcDbPlaceHolder
  3
ObjectDBX Classes
 90
        0
280
     0
281
     0
  0
CLASS
  1
LAYOUT
  2
AcDbLayout
  3
ObjectDBX Classes
 90
        0
280
     0
281
     0
  0
ENDSEC
  0
SECTION
  2
TABLES
  0
TABLE
  2
VPORT
  5
8
330
0
100
AcDbSymbolTable
 70
     1
  0
VPORT
  5
29
330
8
100
AcDbSymbolTableRecord
100
AcDbViewportTableRecord
  2
*Active
 70
     0
 10
0.0
 20
0.0
 11
1.0
 21
1.0
 12
105.0
 22
148.5
 13
0.0
 23
0.0
 14
10.0
 24
10.0
 15
10.0
 25
10.0
 16
0.0
 26
0.0
 36
1.0
 17
0.0
 27
0.0
 37
0.0
 40
297.0
 41
0.7070707071
 42
50.0
 43
0.0
 44
0.0
 50
0.0
 51
0.0
 71
     0
 72
  2000
 73
     1
 74
     3
 75
     0
 76
     0
 77
     0
 78
     0
281
     0
 65
     1
110
0.0
120
0.0
130
0.0
111
1.0
121
0.0
131
0.0
112
0.0
122
1.0
132
0.0
 79
     0
146
0.0
  0
ENDTAB
  0
TABLE
  2
LTYPE
  5
5
330
0
100
AcDbSymbolTable
 70
     6
  0
LTYPE
  5
14
330
5
100
AcDbSymbolTableRecord
100
AcDbLinetypeTableRecord
  2
ByBlock
 70
     0
  3

 72
    65
 73
     0
 40
0.0
  0
LTYPE
  5
15
330
5
100
AcDbSymbolTableRecord
100
AcDbLinetypeTableRecord
  2
ByLayer
 70
     0
  3

 72
    65
 73
     0
 40
0.0
  0
LTYPE
  5
16
330
5
100
AcDbSymbolTableRecord
100
AcDbLinetypeTableRecord
  2
Continuous
 70
     0
  3
Solid line
 72
    65
 73
     0
 40
0.0
  0
LTYPE
  5
6E
330
5
100
AcDbSymbolTableRecord
100
AcDbLinetypeTableRecord
  2
HIDDEN
 70
     0
  3
Hidden __ __ __ __ __ __ __ __ __ __ __ __ __ __
 72
    65
 73
     2
 40
1.905
 49
1.27
 74
     0
 49
-0.635
 74
     0
  0
LTYPE
  5
6F
330
5
100
AcDbSymbolTableRecord
100
AcDbLinetypeTableRecord
  2
PHANTOM
 70
     0
  3
Phantom ______  __  __  ______  __  __  ______
 72
    65
 73
     6
 40
12.7
 49
6.35
 74
     0
 49
-1.27
 74
     0
 49
1.27
 74
     0
 49
-1.27
 74
     0
 49
1.27
 74
     0
 49
-1.27
 74
     0
  0
LTYPE
  5
70
330
5
100
AcDbSymbolTableRecord
100
AcDbLinetypeTableRecord
  2
CENTER
 70
     0
  3
Center ____ _ ____ _ ____ _ ____ _ ____ _ ____
 72
    65
 73
     4
 40
10.16
 49
6.35
 74
     0
 49
-1.27
 74
     0
 49
1.27
 74
     0
 49
-1.27
 74
     0
  0
LTYPE
  5
71
330
5
100
AcDbSymbolTableRecord
100
AcDbLinetypeTableRecord
  2
CENTERX2
 70
     0
  3
Center (2x) ________  __  ________  __  _____
 72
    65
 73
     4
 40
20.32
 49
12.7
 74
     0
 49
-2.54
 74
     0
 49
2.54
 74
     0
 49
-2.54
 74
     0
  0
LTYPE
  5
72
330
5
100
AcDbSymbolTableRecord
100
AcDbLinetypeTableRecord
  2
DOT2
 70
     0
  3
Dot (.5x) ........................................
 72
    65
 73
     2
 40
0.635
 49
0.0
 74
     0
 49
-0.635
 74
     0
  0
ENDTAB
  0
TABLE
  2
LAYER
  5
2
330
0
100
AcDbSymbolTable
 70
     2
  0
LAYER
  5
10
330
2
100
AcDbSymbolTableRecord
100
AcDbLayerTableRecord
  2
0
 70
     0
 62
     7
  6
Continuous
370
    -3
390
F
  0
LAYER
  5
73
330
2
100
AcDbSymbolTableRecord
100
AcDbLayerTableRecord
  2
SLD-0
 70
     0
 62
   179
  6
Continuous
370
    -3
390
F
  0
ENDTAB
  0
TABLE
  2
STYLE
  5
3
330
0
100
AcDbSymbolTable
 70
     2
  0
STYLE
  5
11
330
3
100
AcDbSymbolTableRecord
100
AcDbTextStyleTableRecord
  2
Standard
 70
     0
 40
0.0
 41
1.0
 50
0.0
 71
     0
 42
3.5
  3
txt
  4
bigfont
  0
STYLE
  5
7A
330
3
100
AcDbSymbolTableRecord
100
AcDbTextStyleTableRecord
  2
SLDTEXTSTYLE0
 70
     0
 40
0.0
 41
0.7
 50
0.0
 71
     0
 42
3.5
  3
TXT
  4
bigfont
  0
ENDTAB
  0
TABLE
  2
VIEW
  5
6
330
0
100
AcDbSymbolTable
 70
     0
  0
ENDTAB
  0
TABLE
  2
UCS
  5
7
330
0
100
AcDbSymbolTable
 70
     0
  0
ENDTAB
  0
TABLE
  2
APPID
  5
9
330
0
100
AcDbSymbolTable
 70
     1
  0
APPID
  5
12
330
9
100
AcDbSymbolTableRecord
100
AcDbRegAppTableRecord
  2
ACAD
 70
     0
  0
ENDTAB
  0
TABLE
  2
DIMSTYLE
  5
A
330
0
100
AcDbSymbolTable
 70
     1
100
AcDbDimStyleTable
  0
DIMSTYLE
105
27
330
A
100
AcDbSymbolTableRecord
100
AcDbDimStyleTableRecord
  2
ISO-25
 70
     0
 41
2.5
 42
0.625
 43
3.75
 44
1.25
 73
     0
 74
     0
 77
     1
 78
     8
140
2.5
141
2.5
143
0.0393700787
147
0.625
171
     3
172
     1
178
     0
271
     2
272
     2
274
     3
278
    44
283
     0
284
     8
340
11
  0
ENDTAB
  0
TABLE
  2
BLOCK_RECORD
  5
1
330
0
100
AcDbSymbolTable
 70
     6
  0
BLOCK_RECORD
  5
1F
330
1
100
AcDbSymbolTableRecord
100
AcDbBlockTableRecord
  2
*Model_Space
340
22
  0
BLOCK_RECORD
  5
1B
330
1
100
AcDbSymbolTableRecord
100
AcDbBlockTableRecord
  2
*Paper_Space
340
1E
  0
BLOCK_RECORD
  5
23
330
1
100
AcDbSymbolTableRecord
100
AcDbBlockTableRecord
  2
*Paper_Space0
340
26
  0
BLOCK_RECORD
  5
74
330
1
100
AcDbSymbolTableRecord
100
AcDbBlockTableRecord
  2
SW_NOTE_0
340
0
102
{BLKREFS
331
334
102
}
  0
BLOCK_RECORD
  5
77
330
1
100
AcDbSymbolTableRecord
100
AcDbBlockTableRecord
  2
SW_NOTE_0_1
340
0
102
{BLKREFS
331
7C
102
}
  0
BLOCK_RECORD
  5
7D
330
1
100
AcDbSymbolTableRecord
100
AcDbBlockTableRecord
  2
SW_NOTE_0_2
340
0
102
{BLKREFS
331
81
102
}
  0
BLOCK_RECORD
  5
82
330
1
100
AcDbSymbolTableRecord
100
AcDbBlockTableRecord
  2
SW_NOTE_0_3
340
0
102
{BLKREFS
331
86
102
}
  0
BLOCK_RECORD
  5
87
330
1
100
AcDbSymbolTableRecord
100
AcDbBlockTableRecord
  2
SW_NOTE_0_4
340
0
102
{BLKREFS
331
8B
102
}
  0
ENDTAB
  0
ENDSEC
  0
SECTION
  2
BLOCKS
  0
BLOCK
  5
20
330
1F
100
AcDbEntity
  8
0
100
AcDbBlockBegin
  2
*Model_Space
 70
     0
 10
0.0
 20
0.0
 30
0.0
  3
*Model_Space
  1

  0
ENDBLK
  5
21
330
1F
100
AcDbEntity
  8
0
100
AcDbBlockEnd
  0
BLOCK
  5
1C
330
1B
100
AcDbEntity
 67
     1
  8
0
100
AcDbBlockBegin
  2
*Paper_Space
 70
     0
 10
0.0
 20
0.0
 30
0.0
  3
*Paper_Space
  1

  0
ENDBLK
  5
1D
330
1B
100
AcDbEntity
 67
     1
  8
0
100
AcDbBlockEnd
  0
BLOCK
  5
24
330
23
100
AcDbEntity
  8
0
100
AcDbBlockBegin
  2
*Paper_Space0
 70
     0
 10
0.0
 20
0.0
 30
0.0
  3
*Paper_Space0
  1

  0
ENDBLK
  5
25
330
23
100
AcDbEntity
  8
0
100
AcDbBlockEnd
  0
BLOCK
  5
75
330
74
100
AcDbEntity
  8
0
100
AcDbBlockBegin
  2
SW_NOTE_0
 70
     0
 10
0.0
 20
0.0
 30
0.0
  3
SW_NOTE_0
  1

  0
INSERT
  5
7C
330
74
100
AcDbEntity
  8
SLD-0
 62
   179
100
AcDbBlockReference
  2
SW_NOTE_0_1
 10
0.0
 20
-42.7272757075
 30
0.0
  0
INSERT
  5
81
330
74
100
AcDbEntity
  8
SLD-0
 62
   179
100
AcDbBlockReference
  2
SW_NOTE_0_2
 10
0.0
 20
-492.727256336
 30
0.0
  0
INSERT
  5
86
330
74
100
AcDbEntity
  8
SLD-0
 62
   179
100
AcDbBlockReference
  2
SW_NOTE_0_3
 10
0.0
 20
-942.7272369645
 30
0.0
  0
INSERT
  5
8B
330
74
100
AcDbEntity
  8
SLD-0
 62
   179
100
AcDbBlockReference
  2
SW_NOTE_0_4
 10
0.0
 20
-1315.6154815129
 30
0.0
  0
ENDBLK
  5
76
330
74
100
AcDbEntity
  8
0
100
AcDbBlockEnd
  0
BLOCK
  5
78
330
77
100
AcDbEntity
  8
0
100
AcDbBlockBegin
  2
SW_NOTE_0_1
 70
     0
 10
0.0
 20
0.0
 30
0.0
  3
SW_NOTE_0_1
  1

  0
MTEXT
  5
7B
330
77
100
AcDbEntity
  8
SLD-0
 62
     0
100
AcDbMText
 10
0.0
 20
451.1737089202
 30
0.0
 40
350.0
 41
0.0
 71
     1
 72
     1
  1
HAC-D34T
  7
SLDTEXTSTYLE0
 73
     1
 44
1.0
  0
ENDBLK
  5
79
330
77
100
AcDbEntity
  8
0
100
AcDbBlockEnd
  0
BLOCK
  5
7E
330
7D
100
AcDbEntity
  8
0
100
AcDbBlockBegin
  2
SW_NOTE_0_2
 70
     0
 10
0.0
 20
0.0
 30
0.0
  3
SW_NOTE_0_2
  1

  0
MTEXT
  5
80
330
7D
100
AcDbEntity
  8
SLD-0
 62
     0
100
AcDbMText
 10
0.0
 20
451.1737089202
 30
0.0
 40
350.0
 41
0.0
 71
     1
 72
     1
  1
HAC-W34T
  7
SLDTEXTSTYLE0
 73
     1
 44
1.0
  0
ENDBLK
  5
7F
330
7D
100
AcDbEntity
  8
0
100
AcDbBlockEnd
  0
BLOCK
  5
83
330
82
100
AcDbEntity
  8
0
100
AcDbBlockBegin
  2
SW_NOTE_0_3
 70
     0
 10
0.0
 20
0.0
 30
0.0
  3
SW_NOTE_0_3
  1

  0
MTEXT
  5
85
330
82
100
AcDbEntity
  8
SLD-0
 62
     0
100
AcDbMText
 10
0.0
 20
451.1737089202
 30
0.0
 40
350.0
 41
0.0
 71
     1
 72
     1
  1
HAC-B34T
  7
SLDTEXTSTYLE0
 73
     1
 44
1.0
  0
ENDBLK
  5
84
330
82
100
AcDbEntity
  8
0
100
AcDbBlockEnd
  0
BLOCK
  5
88
330
87
100
AcDbEntity
  8
0
100
AcDbBlockBegin
  2
SW_NOTE_0_4
 70
     0
 10
0.0
 20
0.0
 30
0.0
  3
SW_NOTE_0_4
  1

  0
MTEXT
  5
8A
330
87
100
AcDbEntity
  8
SLD-0
 62
     0
100
AcDbMText
 10
0.0
 20
451.1737089202
 30
0.0
 40
350.0
 41
0.0
 71
     1
 72
     1
  1
HAC-H34T
  7
SLDTEXTSTYLE0
 73
     1
 44
1.0
  0
ENDBLK
  5
89
330
87
100
AcDbEntity
  8
0
100
AcDbBlockEnd
  0
ENDSEC
  0
SECTION
  2
ENTITIES
  0
LINE
  5
8C
330
1F
100
AcDbEntity
  8
SLD-0
  6
Continuous
 62
   179
370
    25
100
AcDbLine
 10
48.9510914965
 20
183.8334543187
 30
0.0
 11
40.3788289709
 21
186.0521195013
 31
0.0
  0
LINE
  5
8D
330
1F
100
AcDbEntity
  8
SLD-0
  6
Continuous
 62
   179
370
    25
100
AcDbLine
 10
40.6865856333
 20
185.1977480132
 30
0.0
 11
48.7631580515
 21
183.1073773581
 31
0.0
  0
LINE
  5
8E
330
1F
100
AcDbEntity
  8
SLD-0
  6
Continuous
 62
   179
370
    25
100
AcDbLine
 10
48.9363572283
 20
183.145244189
 30
0.0
 11
49.1212031527
 21
183.0974055011
 31
0.0
  0
LINE
  5
8F
330
1F
100
AcDbEntity
  8
SLD-0
  6
Continuous
 62
   179
370
    25
100
AcDbLine
 10
49.1963646097
 20
183.3878350932
 30
0.0
 11
49.1051718036
 21
183.4115970881
 31
0.0
  0
LINE
  5
90
330
1F
100
AcDbEntity
  8
SLD-0
  6
Continuous
 62
   179
370
    25
100
AcDbLine
 10
49.1963646097
 20
183.6872709472
 30
0.0
 11
49.0802844413
 21
183.7179245082
 31
0.0
  0
LINE
  5
91
330
1F
100
AcDbEntity
  8
SLD-0
  6
Continuous
 62
   179
370
    25
100
AcDbLine
 10
49.177016942
 20
183.0712599236
 30
0.0
 11
49.4311592264
 21
182.9013300616
 31
0.0
  0
LINE
  5
92
330
1F
100
AcDbEntity
  8
SLD-0
  6
Continuous
 62
   179
370
    25
100
AcDbLine
 10
49.5979091807
 20
183.1507218558
 30
0.0
 11
49.3437668963
 21
183.3206517178
 31
0.0
  0
LINE
  5
93
330
1F
100
AcDbEntity
  8
SLD-0
  6
Continuous
 62
   179
370
    25
100
AcDbLine
 10
49.2049822388
 20
183.3851025091
 30
0.0
 11
49.2827794237
 21
183.3878112513
 31
0.0
  0
LINE
  5
94
330
1F
100
AcDbEntity
  8
SLD-0
  6
Continuous
 62
   179
370
    25
100
AcDbLine
 10
49.2827794237
 20
183.3878112513
 30
0.0
 11
49.5369217081
 21
183.4261877019
 31
0.0
  0
LINE
  5
95
330
1F
100
AcDbEntity
  8
SLD-0
  6
Continuous
 62
   179
370
    25
100
AcDbLine
 10
49.492134778
 20
183.7228221375
 30
0.0
 11
49.2379805727
 21
183.6844486672
 31
0.0
  0
LINE
  5
96
330
1F
100
AcDbEntity
  8
SLD-0
  6
Continuous
 62
   179
370
    25
100
AcDbLine
 10
49.5785376711
 20
182.8341496665
 30
0.0
 11
50.2337476893
 21
182.6645655114
 31
0.0
  0
LINE
  5
97
330
1F
100
AcDbEntity
  8
SLD-0
  6
Continuous
 62
   179
370
    25
100
AcDbLine
 10
50.3089210673
 20
182.9549980838
 30
0.0
 11
49.6537110491
 21
183.1245792586
 31
0.0
  0
LINE
  5
98
330
1F
100
AcDbEntity
  8
SLD-0
  6
Continuous
 62
   179
370
    25
100
AcDbLine
 10
49.5785376711
 20
183.4233624417
 30
0.0
 11
50.2337476893
 21
183.2537812669
 31
0.0
  0
LINE
  5
99
330
1F
100
AcDbEntity
  8
SLD-0
  6
Continuous
 62
   179
370
    25
100
AcDbLine
 10
50.3089210673
 20
183.544210859
 30
0.0
 11
49.6537110491
 21
183.7137950141
 31
0.0
  0
LINE
  5
9A
330
1F
100
AcDbEntity
  8
SLD-0
  6
Continuous
 62
   179
370
    25
100
AcDbLine
 10
50.2024314089
 20
182.3551995236
 30
0.0
 11
191.6237971468
 21
145.7526577193
 31
0.0
  0
LINE
  5
9B
330
1F
100
AcDbEntity
  8
SLD-0
  6
Continuous
 62
   179
370
    25
100
AcDbLine
 10
109.0569994135
 20
167.8584826667
 30
0.0
 11
110.1176640673
 21
167.5839615542
 31
0.0
  0
LINE
  5
9C
330
1F
100
AcDbEntity
  8
SLD-0
  6
Continuous
 62
   179
370
    25
100
AcDbLine
 10
110.1784369631
 20
168.6348391253
 30
0.0
 11
109.1177723093
 21
168.9093572575
 31
0.0
  0
LINE
  5
9D
330
1F
100
AcDbEntity
  8
SLD-0
  6
Continuous
 62
   179
370
    25
100
AcDbLine
 10
132.8864953203
 20
161.6909546334
 30
0.0
 11
133.9471599741
 21
161.416433521
 31
0.0
  0
LINE
  5
9E
330
1F
100
AcDbEntity
  8
SLD-0
  6
Continuous
 62
   179
370
    25
100
AcDbLine
 10
134.0079328699
 20
162.4673110921
 30
0.0
 11
132.9472682162
 21
162.7418292243
 31
0.0
  0
LINE
  5
9F
330
1F
100
AcDbEntity
  8
SLD-0
  6
Continuous
 62
   179
370
    25
100
AcDbLine
 10
179.9091002627
 20
149.520607062
 30
0.0
 11
180.9697529955
 21
149.2460919101
 31
0.0
  0
LINE
  5
A0
330
1F
100
AcDbEntity
  8
SLD-0
  6
Continuous
 62
   179
370
    25
100
AcDbLine
 10
181.0305258913
 20
150.2969635207
 30
0.0
 11
179.9698731585
 21
150.5714846331
 31
0.0
  0
LINE
  5
A1
330
1F
100
AcDbEntity
  8
SLD-0
  6
Continuous
 62
   179
370
    25
100
AcDbLine
 10
62.0344063921
 20
180.0288272578
 30
0.0
 11
63.095059125
 21
179.7543061454
 31
0.0
  0
LINE
  5
A2
330
1F
100
AcDbEntity
  8
SLD-0
  6
Continuous
 62
   179
370
    25
100
AcDbLine
 10
63.1558320208
 20
180.8051837165
 30
0.0
 11
62.095167367
 21
181.0797018487
 31
0.0
  0
LINE
  5
A3
330
1F
100
AcDbEntity
  8
SLD-0
  6
Continuous
 62
   179
370
    25
100
AcDbLine
 10
121.3662049456
 20
164.2529261786
 30
0.0
 11
192.0768878145
 21
145.9516597468
 31
0.0
  0
LINE
  5
A4
330
1F
100
AcDbEntity
  8
SLD-0
  6
Continuous
 62
   179
370
    25
100
AcDbLine
 10
50.5141040964
 20
182.5908017833
 30
0.0
 11
121.2247869654
 21
164.289529391
 31
0.0
  0
LINE
  5
A5
330
1F
100
AcDbEntity
  8
SLD-0
  6
Continuous
 62
   179
370
    25
100
AcDbLine
 10
48.7631580515
 20
183.1073773581
 30
0.0
 11
48.7751862688
 21
183.1047130305
 31
0.0
  0
LINE
  5
A6
330
1F
100
AcDbEntity
  8
SLD-0
  6
Continuous
 62
   179
370
    25
100
AcDbLine
 10
48.7751862688
 20
183.1047130305
 30
0.0
 11
48.8571307345
 21
183.1081939418
 31
0.0
  0
LINE
  5
A7
330
1F
100
AcDbEntity
  8
SLD-0
  6
Continuous
 62
   179
370
    25
100
AcDbLine
 10
48.8571307345
 20
183.1081939418
 30
0.0
 11
48.9390632792
 21
183.147130676
 31
0.0
  0
LINE
  5
A8
330
1F
100
AcDbEntity
  8
SLD-0
  6
Continuous
 62
   179
370
    25
100
AcDbLine
 10
48.9390632792
 20
183.147130676
 30
0.0
 11
49.0129849596
 21
183.2177115161
 31
0.0
  0
LINE
  5
A9
330
1F
100
AcDbEntity
  8
SLD-0
  6
Continuous
 62
   179
370
    25
100
AcDbLine
 10
49.0129849596
 20
183.2177115161
 30
0.0
 11
49.071647851
 21
183.3130282838
 31
0.0
  0
LINE
  5
AA
330
1F
100
AcDbEntity
  8
SLD-0
  6
Continuous
 62
   179
370
    25
100
AcDbLine
 10
49.071647851
 20
183.3130282838
 30
0.0
 11
49.1093060656
 21
183.4237528521
 31
0.0
  0
LINE
  5
AB
330
1F
100
AcDbEntity
  8
SLD-0
  6
Continuous
 62
   179
370
    25
100
AcDbLine
 10
49.1093060656
 20
183.4237528521
 30
0.0
 11
49.1222879572
 21
183.5390461165
 31
0.0
  0
LINE
  5
AC
330
1F
100
AcDbEntity
  8
SLD-0
  6
Continuous
 62
   179
370
    25
100
AcDbLine
 10
49.1222879572
 20
183.5390461165
 30
0.0
 11
49.1093060656
 21
183.6476189572
 31
0.0
  0
LINE
  5
AD
330
1F
100
AcDbEntity
  8
SLD-0
  6
Continuous
 62
   179
370
    25
100
AcDbLine
 10
49.1093060656
 20
183.6476189572
 30
0.0
 11
49.071647851
 21
183.7388468463
 31
0.0
  0
LINE
  5
AE
330
1F
100
AcDbEntity
  8
SLD-0
  6
Continuous
 62
   179
370
    25
100
AcDbLine
 10
49.071647851
 20
183.7388468463
 30
0.0
 11
49.0129849596
 21
183.8037980277
 31
0.0
  0
LINE
  5
AF
330
1F
100
AcDbEntity
  8
SLD-0
  6
Continuous
 62
   179
370
    25
100
AcDbLine
 10
49.0129849596
 20
183.8037980277
 30
0.0
 11
48.9510914965
 21
183.8334543187
 31
0.0
  0
LINE
  5
B0
330
1F
100
AcDbEntity
  8
SLD-0
  6
Continuous
 62
   179
370
    25
100
AcDbLine
 10
50.2337476893
 20
182.6645655114
 30
0.0
 11
50.2713343783
 21
182.6648933369
 31
0.0
  0
LINE
  5
B1
330
1F
100
AcDbEntity
  8
SLD-0
  6
Continuous
 62
   179
370
    25
100
AcDbLine
 10
50.2713343783
 20
182.6648933369
 30
0.0
 11
50.3119251414
 21
182.6864284951
 31
0.0
  0
LINE
  5
B2
330
1F
100
AcDbEntity
  8
SLD-0
  6
Continuous
 62
   179
370
    25
100
AcDbLine
 10
50.3119251414
 20
182.6864284951
 30
0.0
 11
50.3463408632
 21
182.7267420966
 31
0.0
  0
LINE
  5
B3
330
1F
100
AcDbEntity
  8
SLD-0
  6
Continuous
 62
   179
370
    25
100
AcDbLine
 10
50.3463408632
 20
182.7267420966
 30
0.0
 11
50.3693244143
 21
182.7796978432
 31
0.0
  0
LINE
  5
B4
330
1F
100
AcDbEntity
  8
SLD-0
  6
Continuous
 62
   179
370
    25
100
AcDbLine
 10
50.3693244143
 20
182.7796978432
 30
0.0
 11
50.3774068041
 21
182.8372342069
 31
0.0
  0
LINE
  5
B5
330
1F
100
AcDbEntity
  8
SLD-0
  6
Continuous
 62
   179
370
    25
100
AcDbLine
 10
50.2337476893
 20
183.2537812669
 30
0.0
 11
50.2713343783
 21
183.2541090924
 31
0.0
  0
LINE
  5
B6
330
1F
100
AcDbEntity
  8
SLD-0
  6
Continuous
 62
   179
370
    25
100
AcDbLine
 10
50.2713343783
 20
183.2541090924
 30
0.0
 11
50.3119251414
 21
183.2756442506
 31
0.0
  0
LINE
  5
B7
330
1F
100
AcDbEntity
  8
SLD-0
  6
Continuous
 62
   179
370
    25
100
AcDbLine
 10
50.3119251414
 20
183.2756442506
 30
0.0
 11
50.3463408632
 21
183.3159578521
 31
0.0
  0
LINE
  5
B8
330
1F
100
AcDbEntity
  8
SLD-0
  6
Continuous
 62
   179
370
    25
100
AcDbLine
 10
50.3463408632
 20
183.3159578521
 30
0.0
 11
50.3693244143
 21
183.3689135987
 31
0.0
  0
LINE
  5
B9
330
1F
100
AcDbEntity
  8
SLD-0
  6
Continuous
 62
   179
370
    25
100
AcDbLine
 10
50.3693244143
 20
183.3689135987
 30
0.0
 11
50.3774068041
 21
183.4264499623
 31
0.0
  0
LINE
  5
BA
330
1F
100
AcDbEntity
  8
SLD-0
  6
Continuous
 62
   179
370
    25
100
AcDbLine
 10
50.2067944689
 20
183.570645519
 30
0.0
 11
50.4657885714
 21
183.6376798827
 31
0.0
  0
LINE
  5
BB
330
1F
100
AcDbEntity
  8
SLD-0
  6
Continuous
 62
   179
370
    25
100
AcDbLine
 10
50.4657885714
 20
183.6376798827
 30
0.0
 11
50.4657885714
 21
182.6717538316
 31
0.0
  0
LINE
  5
BC
330
1F
100
AcDbEntity
  8
SLD-0
  6
Continuous
 62
   179
370
    25
100
AcDbLine
 10
50.4657885714
 20
182.6717538316
 30
0.0
 11
50.4509946985
 21
182.5662714917
 31
0.0
  0
LINE
  5
BD
330
1F
100
AcDbEntity
  8
SLD-0
  6
Continuous
 62
   179
370
    25
100
AcDbLine
 10
50.4509946985
 20
182.5662714917
 30
0.0
 11
50.4088422938
 21
182.4691874463
 31
0.0
  0
LINE
  5
BE
330
1F
100
AcDbEntity
  8
SLD-0
  6
Continuous
 62
   179
370
    25
100
AcDbLine
 10
50.4088422938
 20
182.4691874463
 30
0.0
 11
50.3457567377
 21
182.3952776868
 31
0.0
  0
LINE
  5
BF
330
1F
100
AcDbEntity
  8
SLD-0
  6
Continuous
 62
   179
370
    25
100
AcDbLine
 10
50.3457567377
 20
182.3952776868
 30
0.0
 11
50.2713343783
 21
182.3557985503
 31
0.0
  0
LINE
  5
C0
330
1F
100
AcDbEntity
  8
SLD-0
  6
Continuous
 62
   179
370
    25
100
AcDbLine
 10
50.2713343783
 20
182.3557985503
 30
0.0
 11
50.1969239397
 21
182.3567581851
 31
0.0
  0
LINE
  5
C1
330
1F
100
AcDbEntity
  8
SLD-0
  6
Continuous
 62
   179
370
    25
100
AcDbLine
 10
50.1969239397
 20
182.3567581851
 30
0.0
 11
50.1338383837
 21
182.3980105597
 31
0.0
  0
LINE
  5
C2
330
1F
100
AcDbEntity
  8
SLD-0
  6
Continuous
 62
   179
370
    25
100
AcDbLine
 10
50.1338383837
 20
182.3980105597
 30
0.0
 11
50.0916859789
 21
182.4732793052
 31
0.0
  0
LINE
  5
C3
330
1F
100
AcDbEntity
  8
SLD-0
  6
Continuous
 62
   179
370
    25
100
AcDbLine
 10
50.0916859789
 20
182.4732793052
 30
0.0
 11
50.0768801851
 21
182.5710994679
 31
0.0
  0
LINE
  5
C4
330
1F
100
AcDbEntity
  8
SLD-0
  6
Continuous
 62
   179
370
    25
100
AcDbLine
 10
50.0768801851
 20
182.5710994679
 30
0.0
 11
50.0768801851
 21
182.7051681954
 31
0.0
  0
LINE
  5
C5
330
1F
100
AcDbEntity
  8
SLD-0
  6
Continuous
 62
   179
370
    25
100
AcDbLine
 10
50.0768801851
 20
183.0150527436
 30
0.0
 11
50.0768801851
 21
183.2943839509
 31
0.0
  0
LINE
  5
C6
330
1F
100
AcDbEntity
  8
SLD-0
  6
Continuous
 62
   179
370
    25
100
AcDbLine
 10
191.881170003
 20
146.002311774
 30
0.0
 11
191.8723008318
 21
145.9635925967
 31
0.0
  0
LINE
  5
C7
330
1F
100
AcDbEntity
  8
SLD-0
  6
Continuous
 62
   179
370
    25
100
AcDbLine
 10
191.8723008318
 20
145.9635925967
 30
0.0
 11
191.830148427
 21
145.8665681559
 31
0.0
  0
LINE
  5
C8
330
1F
100
AcDbEntity
  8
SLD-0
  6
Continuous
 62
   179
370
    25
100
AcDbLine
 10
191.830148427
 20
145.8665681559
 30
0.0
 11
191.7670867129
 21
145.7927120406
 31
0.0
  0
LINE
  5
C9
330
1F
100
AcDbEntity
  8
SLD-0
  6
Continuous
 62
   179
370
    25
100
AcDbLine
 10
191.7670867129
 20
145.7927120406
 30
0.0
 11
191.6927001162
 21
145.7532537658
 31
0.0
  0
LINE
  5
CA
330
1F
100
AcDbEntity
  8
SLD-0
  6
Continuous
 62
   179
370
    25
100
AcDbLine
 10
191.6927001162
 20
145.7532537658
 30
0.0
 11
191.6237971468
 21
145.7526577193
 31
0.0
  0
LINE
  5
CB
330
1F
100
AcDbEntity
  8
SLD-0
  6
Continuous
 62
   179
370
    25
100
AcDbLine
 10
50.4834792299
 20
183.6331052262
 30
0.0
 11
50.4657885714
 21
183.6376798827
 31
0.0
  0
LINE
  5
CC
330
1F
100
AcDbEntity
  8
SLD-0
  6
Continuous
 62
   179
370
    25
100
AcDbLine
 10
108.1480285807
 20
169.4120181281
 30
0.0
 11
107.1924230738
 21
169.1646916348
 31
0.0
  0
LINE
  5
CD
330
1F
100
AcDbEntity
  8
SLD-0
  6
Continuous
 62
   179
370
    25
100
AcDbLine
 10
108.1480285807
 20
169.2188335139
 30
0.0
 11
108.1480285807
 21
169.4120181281
 31
0.0
  0
LINE
  5
CE
330
1F
100
AcDbEntity
  8
SLD-0
  6
Continuous
 62
   179
370
    25
100
AcDbLine
 10
107.5656315966
 20
169.0680993277
 30
0.0
 11
108.1480285807
 21
169.2188335139
 31
0.0
  0
LINE
  5
CF
330
1F
100
AcDbEntity
  8
SLD-0
  6
Continuous
 62
   179
370
    25
100
AcDbLine
 10
108.2727334185
 20
168.8850862462
 30
0.0
 11
108.3389541788
 21
168.9022225816
 31
0.0
  0
LINE
  5
D0
330
1F
100
AcDbEntity
  8
SLD-0
  6
Continuous
 62
   179
370
    25
100
AcDbLine
 10
108.430876462
 20
169.2188335139
 30
0.0
 11
108.1480285807
 21
169.2188335139
 31
0.0
  0
LINE
  5
D1
330
1F
100
AcDbEntity
  8
SLD-0
  6
Continuous
 62
   179
370
    25
100
AcDbLine
 10
108.430876462
 20
169.2188335139
 30
0.0
 11
108.9965603037
 21
169.0724236447
 31
0.0
  0
LINE
  5
D2
330
1F
100
AcDbEntity
  8
SLD-0
  6
Continuous
 62
   179
370
    25
100
AcDbLine
 10
108.8763496561
 20
169.0413100201
 30
0.0
 11
108.9965603037
 21
169.0724236447
 31
0.0
  0
LINE
  5
D3
330
1F
100
AcDbEntity
  8
SLD-0
  6
Continuous
 62
   179
370
    25
100
AcDbLine
 10
110.6229087992
 20
168.6514956433
 30
0.0
 11
110.0572249575
 21
168.7979055125
 31
0.0
  0
LINE
  5
D4
330
1F
100
AcDbEntity
  8
SLD-0
  6
Continuous
 62
   179
370
    25
100
AcDbLine
 10
110.6229087992
 20
168.5782892186
 30
0.0
 11
110.6229087992
 21
168.6514956433
 31
0.0
  0
LINE
  5
D5
330
1F
100
AcDbEntity
  8
SLD-0
  6
Continuous
 62
   179
370
    25
100
AcDbLine
 10
110.179795949
 20
168.4636039216
 30
0.0
 11
110.6229087992
 21
168.5782892186
 31
0.0
  0
LINE
  5
D6
330
1F
100
AcDbEntity
  8
SLD-0
  6
Continuous
 62
   179
370
    25
100
AcDbLine
 10
107.8828713579
 20
169.0495473821
 30
0.0
 11
107.8340909167
 21
169.0306527097
 31
0.0
  0
LINE
  5
D7
330
1F
100
AcDbEntity
  8
SLD-0
  6
Continuous
 62
   179
370
    25
100
AcDbLine
 10
107.8340909167
 20
169.0306527097
 30
0.0
 11
107.8169605417
 21
169.0083695132
 31
0.0
  0
LINE
  5
D8
330
1F
100
AcDbEntity
  8
SLD-0
  6
Continuous
 62
   179
370
    25
100
AcDbLine
 10
107.8169605417
 20
169.0083695132
 30
0.0
 11
107.8180095835
 21
169.0027785975
 31
0.0
  0
LINE
  5
D9
330
1F
100
AcDbEntity
  8
SLD-0
  6
Continuous
 62
   179
370
    25
100
AcDbLine
 10
108.2010647936
 20
168.9671916444
 30
0.0
 11
108.5546157046
 21
169.058696695
 31
0.0
  0
LINE
  5
DA
330
1F
100
AcDbEntity
  8
SLD-0
  6
Continuous
 62
   179
370
    25
100
AcDbLine
 10
108.5546157046
 20
169.058696695
 30
0.0
 11
108.6033961458
 21
169.0775913674
 31
0.0
  0
LINE
  5
DB
330
1F
100
AcDbEntity
  8
SLD-0
  6
Continuous
 62
   179
370
    25
100
AcDbLine
 10
108.6033961458
 20
169.0775913674
 30
0.0
 11
108.6205145998
 21
169.0998745639
 31
0.0
  0
LINE
  5
DC
330
1F
100
AcDbEntity
  8
SLD-0
  6
Continuous
 62
   179
370
    25
100
AcDbLine
 10
108.6205145998
 20
169.0998745639
 30
0.0
 11
108.6033961458
 21
169.1221607406
 31
0.0
  0
LINE
  5
DD
330
1F
100
AcDbEntity
  8
SLD-0
  6
Continuous
 62
   179
370
    25
100
AcDbLine
 10
108.6033961458
 20
169.1221607406
 30
0.0
 11
108.5546157046
 21
169.1410524327
 31
0.0
  0
LINE
  5
DE
330
1F
100
AcDbEntity
  8
SLD-0
  6
Continuous
 62
   179
370
    25
100
AcDbLine
 10
108.5546157046
 20
169.1410524327
 30
0.0
 11
108.4816238566
 21
169.1536766965
 31
0.0
  0
LINE
  5
DF
330
1F
100
AcDbEntity
  8
SLD-0
  6
Continuous
 62
   179
370
    25
100
AcDbLine
 10
108.4816238566
 20
169.1536766965
 30
0.0
 11
108.3955189867
 21
169.158111282
 31
0.0
  0
LINE
  5
E0
330
1F
100
AcDbEntity
  8
SLD-0
  6
Continuous
 62
   179
370
    25
100
AcDbLine
 10
108.3955189867
 20
169.158111282
 30
0.0
 11
108.3094141169
 21
169.1536766965
 31
0.0
  0
LINE
  5
E1
330
1F
100
AcDbEntity
  8
SLD-0
  6
Continuous
 62
   179
370
    25
100
AcDbLine
 10
108.3094141169
 20
169.1536766965
 30
0.0
 11
108.2364222689
 21
169.1410524327
 31
0.0
  0
LINE
  5
E2
330
1F
100
AcDbEntity
  8
SLD-0
  6
Continuous
 62
   179
370
    25
100
AcDbLine
 10
108.2364222689
 20
169.1410524327
 30
0.0
 11
107.8828713579
 21
169.0495473821
 31
0.0
  0
LINE
  5
E3
330
1F
100
AcDbEntity
  8
SLD-0
  6
Continuous
 62
   179
370
    25
100
AcDbLine
 10
110.1850888415
 20
168.5692114312
 30
0.0
 11
110.194387166
 21
168.5743046481
 31
0.0
  0
LINE
  5
E4
330
1F
100
AcDbEntity
  8
SLD-0
  6
Continuous
 62
   179
370
    25
100
AcDbLine
 10
110.194387166
 20
168.5743046481
 30
0.0
 11
110.21150562
 21
168.5965908248
 31
0.0
  0
LINE
  5
E5
330
1F
100
AcDbEntity
  8
SLD-0
  6
Continuous
 62
   179
370
    25
100
AcDbLine
 10
110.21150562
 20
168.5965908248
 30
0.0
 11
110.194387166
 21
168.6188770015
 31
0.0
  0
LINE
  5
E6
330
1F
100
AcDbEntity
  8
SLD-0
  6
Continuous
 62
   179
370
    25
100
AcDbLine
 10
110.194387166
 20
168.6188770015
 30
0.0
 11
110.1872822924
 21
168.6228764731
 31
0.0
  0
LINE
  5
E7
330
1F
100
AcDbEntity
  8
SLD-0
  6
Continuous
 62
   179
370
    25
100
AcDbLine
 10
108.1480285807
 20
169.4120181281
 30
0.0
 11
108.430876462
 21
169.4120181281
 31
0.0
  0
LINE
  5
E8
330
1F
100
AcDbEntity
  8
SLD-0
  6
Continuous
 62
   179
370
    25
100
AcDbLine
 10
108.430876462
 20
169.4120181281
 30
0.0
 11
108.430876462
 21
169.2188335139
 31
0.0
  0
LINE
  5
E9
330
1F
100
AcDbEntity
  8
SLD-0
  6
Continuous
 62
   179
370
    25
100
AcDbLine
 10
110.0572249575
 20
168.6662120301
 30
0.0
 11
110.0572249575
 21
168.7979055125
 31
0.0
  0
LINE
  5
EA
330
1F
100
AcDbEntity
  8
SLD-0
  6
Continuous
 62
   179
370
    25
100
AcDbLine
 10
108.9965603037
 20
168.8792390305
 30
0.0
 11
108.9965603037
 21
169.0724236447
 31
0.0
  0
LINE
  5
EB
330
1F
100
AcDbEntity
  8
SLD-0
  6
Continuous
 62
   179
370
    25
100
AcDbLine
 10
110.6229087992
 20
168.6514956433
 30
0.0
 11
110.6229087992
 21
168.8446802575
 31
0.0
  0
LINE
  5
EC
330
1F
100
AcDbEntity
  8
SLD-0
  6
Continuous
 62
   179
370
    25
100
AcDbLine
 10
108.430876462
 20
169.4120181281
 30
0.0
 11
110.6229087992
 21
168.8446802575
 31
0.0
  0
LINE
  5
ED
330
1F
100
AcDbEntity
  8
SLD-0
  6
Continuous
 62
   179
370
    25
100
AcDbLine
 10
109.1127655192
 20
168.9093125541
 30
0.0
 11
108.9965603037
 21
168.8792390305
 31
0.0
  0
LINE
  5
EE
330
1F
100
AcDbEntity
  8
SLD-0
  6
Continuous
 62
   179
370
    25
100
AcDbLine
 10
109.1268679781
 20
168.8923103291
 30
0.0
 11
109.1267726107
 21
168.896235295
 31
0.0
  0
LINE
  5
EF
330
1F
100
AcDbEntity
  8
SLD-0
  6
Continuous
 62
   179
370
    25
100
AcDbLine
 10
109.1267726107
 20
168.896235295
 30
0.0
 11
109.1260931177
 21
168.8999009806
 31
0.0
  0
LINE
  5
F0
330
1F
100
AcDbEntity
  8
SLD-0
  6
Continuous
 62
   179
370
    25
100
AcDbLine
 10
109.1260931177
 20
168.8999009806
 30
0.0
 11
109.1248414202
 21
168.903152414
 31
0.0
  0
LINE
  5
F1
330
1F
100
AcDbEntity
  8
SLD-0
  6
Continuous
 62
   179
370
    25
100
AcDbLine
 10
109.1248414202
 20
168.903152414
 30
0.0
 11
109.1231009646
 21
168.9058495242
 31
0.0
  0
LINE
  5
F2
330
1F
100
AcDbEntity
  8
SLD-0
  6
Continuous
 62
   179
370
    25
100
AcDbLine
 10
109.1231009646
 20
168.9058495242
 30
0.0
 11
109.1209194346
 21
168.9078850228
 31
0.0
  0
LINE
  5
F3
330
1F
100
AcDbEntity
  8
SLD-0
  6
Continuous
 62
   179
370
    25
100
AcDbLine
 10
109.1209194346
 20
168.9078850228
 30
0.0
 11
109.1184041186
 21
168.9091724831
 31
0.0
  0
LINE
  5
F4
330
1F
100
AcDbEntity
  8
SLD-0
  6
Continuous
 62
   179
370
    25
100
AcDbLine
 10
109.1184041186
 20
168.9091724831
 30
0.0
 11
109.115638463
 21
168.9096552808
 31
0.0
  0
LINE
  5
F5
330
1F
100
AcDbEntity
  8
SLD-0
  6
Continuous
 62
   179
370
    25
100
AcDbLine
 10
109.115638463
 20
168.9096552808
 30
0.0
 11
109.1127655192
 21
168.9093125541
 31
0.0
  0
LINE
  5
F6
330
1F
100
AcDbEntity
  8
SLD-0
  6
Continuous
 62
   179
370
    25
100
AcDbLine
 10
109.0761205836
 20
167.8801578957
 30
0.0
 11
109.1268679781
 21
168.8923103291
 31
0.0
  0
LINE
  5
F7
330
1F
100
AcDbEntity
  8
SLD-0
  6
Continuous
 62
   179
370
    25
100
AcDbLine
 10
109.0519210978
 20
167.8616983373
 30
0.0
 11
109.0551278277
 21
167.8591830212
 31
0.0
  0
LINE
  5
F8
330
1F
100
AcDbEntity
  8
SLD-0
  6
Continuous
 62
   179
370
    25
100
AcDbLine
 10
109.0551278277
 20
167.8591830212
 30
0.0
 11
109.0589186831
 21
167.8581935841
 31
0.0
  0
LINE
  5
F9
330
1F
100
AcDbEntity
  8
SLD-0
  6
Continuous
 62
   179
370
    25
100
AcDbLine
 10
109.0589186831
 20
167.8581935841
 30
0.0
 11
109.0629479571
 21
167.8588104922
 31
0.0
  0
LINE
  5
FA
330
1F
100
AcDbEntity
  8
SLD-0
  6
Continuous
 62
   179
370
    25
100
AcDbLine
 10
109.0629479571
 20
167.8588104922
 30
0.0
 11
109.0669057055
 21
167.8609860617
 31
0.0
  0
LINE
  5
FB
330
1F
100
AcDbEntity
  8
SLD-0
  6
Continuous
 62
   179
370
    25
100
AcDbLine
 10
109.0669057055
 20
167.8609860617
 30
0.0
 11
109.0704581423
 21
167.8645414788
 31
0.0
  0
LINE
  5
FC
330
1F
100
AcDbEntity
  8
SLD-0
  6
Continuous
 62
   179
370
    25
100
AcDbLine
 10
109.0704581423
 20
167.8645414788
 30
0.0
 11
109.0733191652
 21
167.8691846806
 31
0.0
  0
LINE
  5
FD
330
1F
100
AcDbEntity
  8
SLD-0
  6
Continuous
 62
   179
370
    25
100
AcDbLine
 10
109.0733191652
 20
167.8691846806
 30
0.0
 11
109.0752622767
 21
167.8745341975
 31
0.0
  0
LINE
  5
FE
330
1F
100
AcDbEntity
  8
SLD-0
  6
Continuous
 62
   179
370
    25
100
AcDbLine
 10
109.0752622767
 20
167.8745341975
 30
0.0
 11
109.0761205836
 21
167.8801578957
 31
0.0
  0
LINE
  5
FF
330
1F
100
AcDbEntity
  8
SLD-0
  6
Continuous
 62
   179
370
    25
100
AcDbLine
 10
108.9258453531
 20
168.0045200068
 30
0.0
 11
109.0519210978
 21
167.8616983373
 31
0.0
  0
LINE
  5
100
330
1F
100
AcDbEntity
  8
SLD-0
  6
Continuous
 62
   179
370
    25
100
AcDbLine
 10
108.9258453531
 20
168.0334968049
 30
0.0
 11
108.9258453531
 21
168.0045200068
 31
0.0
  0
LINE
  5
101
330
1F
100
AcDbEntity
  8
SLD-0
  6
Continuous
 62
   179
370
    25
100
AcDbLine
 10
108.9744112177
 20
168.0943263251
 30
0.0
 11
108.9258453531
 21
168.0334968049
 31
0.0
  0
LINE
  5
102
330
1F
100
AcDbEntity
  8
SLD-0
  6
Continuous
 62
   179
370
    25
100
AcDbLine
 10
109.0131899996
 20
168.7179965455
 30
0.0
 11
108.9965603037
 21
168.3863801438
 31
0.0
  0
LINE
  5
103
330
1F
100
AcDbEntity
  8
SLD-0
  6
Continuous
 62
   179
370
    25
100
AcDbLine
 10
108.9848062678
 20
168.152032562
 30
0.0
 11
108.9831015749
 21
168.11800129
 31
0.0
  0
LINE
  5
104
330
1F
100
AcDbEntity
  8
SLD-0
  6
Continuous
 62
   179
370
    25
100
AcDbLine
 10
108.9990756197
 20
168.7350017506
 30
0.0
 11
109.0019604845
 21
168.7353444774
 31
0.0
  0
LINE
  5
105
330
1F
100
AcDbEntity
  8
SLD-0
  6
Continuous
 62
   179
370
    25
100
AcDbLine
 10
109.0019604845
 20
168.7353444774
 30
0.0
 11
109.0047142191
 21
168.7348586995
 31
0.0
  0
LINE
  5
106
330
1F
100
AcDbEntity
  8
SLD-0
  6
Continuous
 62
   179
370
    25
100
AcDbLine
 10
109.0047142191
 20
168.7348586995
 30
0.0
 11
109.0072414561
 21
168.7335742194
 31
0.0
  0
LINE
  5
107
330
1F
100
AcDbEntity
  8
SLD-0
  6
Continuous
 62
   179
370
    25
100
AcDbLine
 10
109.0072414561
 20
168.7335742194
 30
0.0
 11
109.009422986
 21
168.7315387208
 31
0.0
  0
LINE
  5
108
330
1F
100
AcDbEntity
  8
SLD-0
  6
Continuous
 62
   179
370
    25
100
AcDbLine
 10
109.009422986
 20
168.7315387208
 30
0.0
 11
109.0111634417
 21
168.7288386304
 31
0.0
  0
LINE
  5
109
330
1F
100
AcDbEntity
  8
SLD-0
  6
Continuous
 62
   179
370
    25
100
AcDbLine
 10
109.0111634417
 20
168.7288386304
 30
0.0
 11
109.0124032183
 21
168.7255901772
 31
0.0
  0
LINE
  5
10A
330
1F
100
AcDbEntity
  8
SLD-0
  6
Continuous
 62
   179
370
    25
100
AcDbLine
 10
109.0124032183
 20
168.7255901772
 30
0.0
 11
109.0130946322
 21
168.7219244916
 31
0.0
  0
LINE
  5
10B
330
1F
100
AcDbEntity
  8
SLD-0
  6
Continuous
 62
   179
370
    25
100
AcDbLine
 10
109.0130946322
 20
168.7219244916
 30
0.0
 11
109.0131899996
 21
168.7179965455
 31
0.0
  0
LINE
  5
10C
330
1F
100
AcDbEntity
  8
SLD-0
  6
Continuous
 62
   179
370
    25
100
AcDbLine
 10
108.9258453531
 20
168.7160474736
 30
0.0
 11
108.9990756197
 21
168.7350017506
 31
0.0
  0
LINE
  5
10D
330
1F
100
AcDbEntity
  8
SLD-0
  6
Continuous
 62
   179
370
    25
100
AcDbLine
 10
108.8904997988
 20
168.726216026
 30
0.0
 11
108.8905117197
 21
168.7251938063
 31
0.0
  0
LINE
  5
10E
330
1F
100
AcDbEntity
  8
SLD-0
  6
Continuous
 62
   179
370
    25
100
AcDbLine
 10
108.8904997988
 20
169.0256548602
 30
0.0
 11
108.8904997988
 21
168.726216026
 31
0.0
  0
LINE
  5
10F
330
1F
100
AcDbEntity
  8
SLD-0
  6
Continuous
 62
   179
370
    25
100
AcDbLine
 10
108.8763496561
 20
169.0413100201
 30
0.0
 11
108.8791153116
 21
169.0416557271
 31
0.0
  0
LINE
  5
110
330
1F
100
AcDbEntity
  8
SLD-0
  6
Continuous
 62
   179
370
    25
100
AcDbLine
 10
108.8791153116
 20
169.0416557271
 30
0.0
 11
108.8817617579
 21
169.0412414748
 31
0.0
  0
LINE
  5
111
330
1F
100
AcDbEntity
  8
SLD-0
  6
Continuous
 62
   179
370
    25
100
AcDbLine
 10
108.8817617579
 20
169.0412414748
 30
0.0
 11
108.8842055483
 21
169.0400911052
 31
0.0
  0
LINE
  5
112
330
1F
100
AcDbEntity
  8
SLD-0
  6
Continuous
 62
   179
370
    25
100
AcDbLine
 10
108.8842055483
 20
169.0400911052
 30
0.0
 11
108.8863513155
 21
169.0382403809
 31
0.0
  0
LINE
  5
113
330
1F
100
AcDbEntity
  8
SLD-0
  6
Continuous
 62
   179
370
    25
100
AcDbLine
 10
108.8863513155
 20
169.0382403809
 30
0.0
 11
108.8881036921
 21
169.0357697684
 31
0.0
  0
LINE
  5
114
330
1F
100
AcDbEntity
  8
SLD-0
  6
Continuous
 62
   179
370
    25
100
AcDbLine
 10
108.8881036921
 20
169.0357697684
 30
0.0
 11
108.8894149943
 21
169.0327686745
 31
0.0
  0
LINE
  5
115
330
1F
100
AcDbEntity
  8
SLD-0
  6
Continuous
 62
   179
370
    25
100
AcDbLine
 10
108.8894149943
 20
169.0327686745
 30
0.0
 11
108.8902256174
 21
169.0293503482
 31
0.0
  0
LINE
  5
116
330
1F
100
AcDbEntity
  8
SLD-0
  6
Continuous
 62
   179
370
    25
100
AcDbLine
 10
108.8902256174
 20
169.0293503482
 30
0.0
 11
108.8904997988
 21
169.0256548602
 31
0.0
  0
LINE
  5
117
330
1F
100
AcDbEntity
  8
SLD-0
  6
Continuous
 62
   179
370
    25
100
AcDbLine
 10
109.0761205836
 20
167.8801578957
 30
0.0
 11
110.1367733164
 21
167.6056397635
 31
0.0
  0
LINE
  5
118
330
1F
100
AcDbEntity
  8
SLD-0
  6
Continuous
 62
   179
370
    25
100
AcDbLine
 10
110.1875326319
 20
168.6177892167
 30
0.0
 11
109.1268679781
 21
168.8923103291
 31
0.0
  0
LINE
  5
119
330
1F
100
AcDbEntity
  8
SLD-0
  6
Continuous
 62
   179
370
    25
100
AcDbLine
 10
110.1367733164
 20
167.6056397635
 30
0.0
 11
110.1875326319
 21
168.6177892167
 31
0.0
  0
LINE
  5
11A
330
1F
100
AcDbEntity
  8
SLD-0
  6
Continuous
 62
   179
370
    25
100
AcDbLine
 10
110.1367733164
 20
167.6056397635
 30
0.0
 11
110.1359269304
 21
167.6000160653
 31
0.0
  0
LINE
  5
11B
330
1F
100
AcDbEntity
  8
SLD-0
  6
Continuous
 62
   179
370
    25
100
AcDbLine
 10
110.1359269304
 20
167.6000160653
 30
0.0
 11
110.133983819
 21
167.5946635682
 31
0.0
  0
LINE
  5
11C
330
1F
100
AcDbEntity
  8
SLD-0
  6
Continuous
 62
   179
370
    25
100
AcDbLine
 10
110.133983819
 20
167.5946635682
 30
0.0
 11
110.1311227961
 21
167.5900203664
 31
0.0
  0
LINE
  5
11D
330
1F
100
AcDbEntity
  8
SLD-0
  6
Continuous
 62
   179
370
    25
100
AcDbLine
 10
110.1311227961
 20
167.5900203664
 30
0.0
 11
110.1275703593
 21
167.5864679295
 31
0.0
  0
LINE
  5
11E
330
1F
100
AcDbEntity
  8
SLD-0
  6
Continuous
 62
   179
370
    25
100
AcDbLine
 10
110.1275703593
 20
167.5864679295
 30
0.0
 11
110.1236126108
 21
167.58429236
 31
0.0
  0
LINE
  5
11F
330
1F
100
AcDbEntity
  8
SLD-0
  6
Continuous
 62
   179
370
    25
100
AcDbLine
 10
110.1236126108
 20
167.58429236
 30
0.0
 11
110.1195714159
 21
167.5836724717
 31
0.0
  0
LINE
  5
120
330
1F
100
AcDbEntity
  8
SLD-0
  6
Continuous
 62
   179
370
    25
100
AcDbLine
 10
110.1195714159
 20
167.5836724717
 30
0.0
 11
110.1176640673
 21
167.5839615542
 31
0.0
  0
LINE
  5
121
330
1F
100
AcDbEntity
  8
SLD-0
  6
Continuous
 62
   179
370
    25
100
AcDbLine
 10
108.3248040362
 20
168.871609636
 30
0.0
 11
108.3248040362
 21
168.8792420108
 31
0.0
  0
LINE
  5
122
330
1F
100
AcDbEntity
  8
SLD-0
  6
Continuous
 62
   179
370
    25
100
AcDbLine
 10
131.9775244875
 20
163.2444900948
 30
0.0
 11
131.0219309015
 21
162.9971636016
 31
0.0
  0
LINE
  5
123
330
1F
100
AcDbEntity
  8
SLD-0
  6
Continuous
 62
   179
370
    25
100
AcDbLine
 10
131.9775244875
 20
163.0513054807
 30
0.0
 11
131.9775244875
 21
163.2444900948
 31
0.0
  0
LINE
  5
124
330
1F
100
AcDbEntity
  8
SLD-0
  6
Continuous
 62
   179
370
    25
100
AcDbLine
 10
131.3951275034
 20
162.9005712945
 30
0.0
 11
131.9775244875
 21
163.0513054807
 31
0.0
  0
LINE
  5
125
330
1F
100
AcDbEntity
  8
SLD-0
  6
Continuous
 62
   179
370
    25
100
AcDbLine
 10
132.1022412462
 20
162.7175582129
 30
0.0
 11
132.1684500857
 21
162.7346945483
 31
0.0
  0
LINE
  5
126
330
1F
100
AcDbEntity
  8
SLD-0
  6
Continuous
 62
   179
370
    25
100
AcDbLine
 10
132.2603723688
 20
163.0513054807
 30
0.0
 11
131.9775244875
 21
163.0513054807
 31
0.0
  0
LINE
  5
127
330
1F
100
AcDbEntity
  8
SLD-0
  6
Continuous
 62
   179
370
    25
100
AcDbLine
 10
132.2603723688
 20
163.0513054807
 30
0.0
 11
132.8260562105
 21
162.9048956115
 31
0.0
  0
LINE
  5
128
330
1F
100
AcDbEntity
  8
SLD-0
  6
Continuous
 62
   179
370
    25
100
AcDbLine
 10
132.705845563
 20
162.8737819869
 30
0.0
 11
132.8260562105
 21
162.9048956115
 31
0.0
  0
LINE
  5
129
330
1F
100
AcDbEntity
  8
SLD-0
  6
Continuous
 62
   179
370
    25
100
AcDbLine
 10
134.452404706
 20
162.4839676101
 30
0.0
 11
133.8867208643
 21
162.6303774793
 31
0.0
  0
LINE
  5
12A
330
1F
100
AcDbEntity
  8
SLD-0
  6
Continuous
 62
   179
370
    25
100
AcDbLine
 10
134.452404706
 20
162.4107611853
 30
0.0
 11
134.452404706
 21
162.4839676101
 31
0.0
  0
LINE
  5
12B
330
1F
100
AcDbEntity
  8
SLD-0
  6
Continuous
 62
   179
370
    25
100
AcDbLine
 10
134.0092918558
 20
162.2960758883
 30
0.0
 11
134.452404706
 21
162.4107611853
 31
0.0
  0
LINE
  5
12C
330
1F
100
AcDbEntity
  8
SLD-0
  6
Continuous
 62
   179
370
    25
100
AcDbLine
 10
131.7123672648
 20
162.8820193488
 30
0.0
 11
131.6635868235
 21
162.8631246764
 31
0.0
  0
LINE
  5
12D
330
1F
100
AcDbEntity
  8
SLD-0
  6
Continuous
 62
   179
370
    25
100
AcDbLine
 10
131.6635868235
 20
162.8631246764
 30
0.0
 11
131.6464683695
 21
162.84084148
 31
0.0
  0
LINE
  5
12E
330
1F
100
AcDbEntity
  8
SLD-0
  6
Continuous
 62
   179
370
    25
100
AcDbLine
 10
131.6464683695
 20
162.84084148
 30
0.0
 11
131.6475054903
 21
162.8352505643
 31
0.0
  0
LINE
  5
12F
330
1F
100
AcDbEntity
  8
SLD-0
  6
Continuous
 62
   179
370
    25
100
AcDbLine
 10
132.0305607004
 20
162.7996636111
 30
0.0
 11
132.3841116114
 21
162.8911686618
 31
0.0
  0
LINE
  5
130
330
1F
100
AcDbEntity
  8
SLD-0
  6
Continuous
 62
   179
370
    25
100
AcDbLine
 10
132.3841116114
 20
162.8911686618
 30
0.0
 11
132.4328920527
 21
162.9100633342
 31
0.0
  0
LINE
  5
131
330
1F
100
AcDbEntity
  8
SLD-0
  6
Continuous
 62
   179
370
    25
100
AcDbLine
 10
132.4328920527
 20
162.9100633342
 30
0.0
 11
132.4500224276
 21
162.9323465306
 31
0.0
  0
LINE
  5
132
330
1F
100
AcDbEntity
  8
SLD-0
  6
Continuous
 62
   179
370
    25
100
AcDbLine
 10
132.4500224276
 20
162.9323465306
 30
0.0
 11
132.4328920527
 21
162.9546327073
 31
0.0
  0
LINE
  5
133
330
1F
100
AcDbEntity
  8
SLD-0
  6
Continuous
 62
   179
370
    25
100
AcDbLine
 10
132.4328920527
 20
162.9546327073
 30
0.0
 11
132.3841116114
 21
162.9735243995
 31
0.0
  0
LINE
  5
134
330
1F
100
AcDbEntity
  8
SLD-0
  6
Continuous
 62
   179
370
    25
100
AcDbLine
 10
132.3841116114
 20
162.9735243995
 30
0.0
 11
132.3111197634
 21
162.9861486632
 31
0.0
  0
LINE
  5
135
330
1F
100
AcDbEntity
  8
SLD-0
  6
Continuous
 62
   179
370
    25
100
AcDbLine
 10
132.3111197634
 20
162.9861486632
 30
0.0
 11
132.2250148936
 21
162.9905832488
 31
0.0
  0
LINE
  5
136
330
1F
100
AcDbEntity
  8
SLD-0
  6
Continuous
 62
   179
370
    25
100
AcDbLine
 10
132.2250148936
 20
162.9905832488
 30
0.0
 11
132.1389100237
 21
162.9861486632
 31
0.0
  0
LINE
  5
137
330
1F
100
AcDbEntity
  8
SLD-0
  6
Continuous
 62
   179
370
    25
100
AcDbLine
 10
132.1389100237
 20
162.9861486632
 30
0.0
 11
132.0659181757
 21
162.9735243995
 31
0.0
  0
LINE
  5
138
330
1F
100
AcDbEntity
  8
SLD-0
  6
Continuous
 62
   179
370
    25
100
AcDbLine
 10
132.0659181757
 20
162.9735243995
 30
0.0
 11
131.7123672648
 21
162.8820193488
 31
0.0
  0
LINE
  5
139
330
1F
100
AcDbEntity
  8
SLD-0
  6
Continuous
 62
   179
370
    25
100
AcDbLine
 10
134.0145966692
 20
162.4016833979
 30
0.0
 11
134.0238830729
 21
162.4067766148
 31
0.0
  0
LINE
  5
13A
330
1F
100
AcDbEntity
  8
SLD-0
  6
Continuous
 62
   179
370
    25
100
AcDbLine
 10
134.0238830729
 20
162.4067766148
 30
0.0
 11
134.0410134478
 21
162.4290627915
 31
0.0
  0
LINE
  5
13B
330
1F
100
AcDbEntity
  8
SLD-0
  6
Continuous
 62
   179
370
    25
100
AcDbLine
 10
134.0410134478
 20
162.4290627915
 30
0.0
 11
134.0238830729
 21
162.4513489682
 31
0.0
  0
LINE
  5
13C
330
1F
100
AcDbEntity
  8
SLD-0
  6
Continuous
 62
   179
370
    25
100
AcDbLine
 10
134.0238830729
 20
162.4513489682
 30
0.0
 11
134.0167901201
 21
162.4553484399
 31
0.0
  0
LINE
  5
13D
330
1F
100
AcDbEntity
  8
SLD-0
  6
Continuous
 62
   179
370
    25
100
AcDbLine
 10
131.9775244875
 20
163.2444900948
 30
0.0
 11
132.2603723688
 21
163.2444900948
 31
0.0
  0
LINE
  5
13E
330
1F
100
AcDbEntity
  8
SLD-0
  6
Continuous
 62
   179
370
    25
100
AcDbLine
 10
132.2603723688
 20
163.2444900948
 30
0.0
 11
132.2603723688
 21
163.0513054807
 31
0.0
  0
LINE
  5
13F
330
1F
100
AcDbEntity
  8
SLD-0
  6
Continuous
 62
   179
370
    25
100
AcDbLine
 10
133.8867208643
 20
162.4986839969
 30
0.0
 11
133.8867208643
 21
162.6303774793
 31
0.0
  0
LINE
  5
140
330
1F
100
AcDbEntity
  8
SLD-0
  6
Continuous
 62
   179
370
    25
100
AcDbLine
 10
132.8260562105
 20
162.7117109973
 30
0.0
 11
132.8260562105
 21
162.9048956115
 31
0.0
  0
LINE
  5
141
330
1F
100
AcDbEntity
  8
SLD-0
  6
Continuous
 62
   179
370
    25
100
AcDbLine
 10
134.452404706
 20
162.4839676101
 30
0.0
 11
134.452404706
 21
162.6771522242
 31
0.0
  0
LINE
  5
142
330
1F
100
AcDbEntity
  8
SLD-0
  6
Continuous
 62
   179
370
    25
100
AcDbLine
 10
132.2603723688
 20
163.2444900948
 30
0.0
 11
134.452404706
 21
162.6771522242
 31
0.0
  0
LINE
  5
143
330
1F
100
AcDbEntity
  8
SLD-0
  6
Continuous
 62
   179
370
    25
100
AcDbLine
 10
132.942261426
 20
162.7417845208
 30
0.0
 11
132.8260562105
 21
162.7117109973
 31
0.0
  0
LINE
  5
144
330
1F
100
AcDbEntity
  8
SLD-0
  6
Continuous
 62
   179
370
    25
100
AcDbLine
 10
132.9563638849
 20
162.7247822959
 30
0.0
 11
132.9562685175
 21
162.7287072617
 31
0.0
  0
LINE
  5
145
330
1F
100
AcDbEntity
  8
SLD-0
  6
Continuous
 62
   179
370
    25
100
AcDbLine
 10
132.9562685175
 20
162.7287072617
 30
0.0
 11
132.9555890246
 21
162.7323729474
 31
0.0
  0
LINE
  5
146
330
1F
100
AcDbEntity
  8
SLD-0
  6
Continuous
 62
   179
370
    25
100
AcDbLine
 10
132.9555890246
 20
162.7323729474
 30
0.0
 11
132.954349248
 21
162.7356214005
 31
0.0
  0
LINE
  5
147
330
1F
100
AcDbEntity
  8
SLD-0
  6
Continuous
 62
   179
370
    25
100
AcDbLine
 10
132.954349248
 20
162.7356214005
 30
0.0
 11
132.9525968714
 21
162.7383214909
 31
0.0
  0
LINE
  5
148
330
1F
100
AcDbEntity
  8
SLD-0
  6
Continuous
 62
   179
370
    25
100
AcDbLine
 10
132.9525968714
 20
162.7383214909
 30
0.0
 11
132.9504153414
 21
162.7403569896
 31
0.0
  0
LINE
  5
149
330
1F
100
AcDbEntity
  8
SLD-0
  6
Continuous
 62
   179
370
    25
100
AcDbLine
 10
132.9504153414
 20
162.7403569896
 30
0.0
 11
132.9479000254
 21
162.7416444499
 31
0.0
  0
LINE
  5
14A
330
1F
100
AcDbEntity
  8
SLD-0
  6
Continuous
 62
   179
370
    25
100
AcDbLine
 10
132.9479000254
 20
162.7416444499
 30
0.0
 11
132.9451343699
 21
162.7421272475
 31
0.0
  0
LINE
  5
14B
330
1F
100
AcDbEntity
  8
SLD-0
  6
Continuous
 62
   179
370
    25
100
AcDbLine
 10
132.9451343699
 20
162.7421272475
 30
0.0
 11
132.942261426
 21
162.7417845208
 31
0.0
  0
LINE
  5
14C
330
1F
100
AcDbEntity
  8
SLD-0
  6
Continuous
 62
   179
370
    25
100
AcDbLine
 10
132.9056164904
 20
161.7126298625
 30
0.0
 11
132.9563638849
 21
162.7247822959
 31
0.0
  0
LINE
  5
14D
330
1F
100
AcDbEntity
  8
SLD-0
  6
Continuous
 62
   179
370
    25
100
AcDbLine
 10
132.8814170046
 20
161.694170304
 30
0.0
 11
132.8846356554
 21
161.691654988
 31
0.0
  0
LINE
  5
14E
330
1F
100
AcDbEntity
  8
SLD-0
  6
Continuous
 62
   179
370
    25
100
AcDbLine
 10
132.8846356554
 20
161.691654988
 30
0.0
 11
132.8884145899
 21
161.6906625707
 31
0.0
  0
LINE
  5
14F
330
1F
100
AcDbEntity
  8
SLD-0
  6
Continuous
 62
   179
370
    25
100
AcDbLine
 10
132.8884145899
 20
161.6906625707
 30
0.0
 11
132.8924438639
 21
161.691282459
 31
0.0
  0
LINE
  5
150
330
1F
100
AcDbEntity
  8
SLD-0
  6
Continuous
 62
   179
370
    25
100
AcDbLine
 10
132.8924438639
 20
161.691282459
 30
0.0
 11
132.8964016123
 21
161.6934580285
 31
0.0
  0
LINE
  5
151
330
1F
100
AcDbEntity
  8
SLD-0
  6
Continuous
 62
   179
370
    25
100
AcDbLine
 10
132.8964016123
 20
161.6934580285
 30
0.0
 11
132.8999659701
 21
161.6970134456
 31
0.0
  0
LINE
  5
152
330
1F
100
AcDbEntity
  8
SLD-0
  6
Continuous
 62
   179
370
    25
100
AcDbLine
 10
132.8999659701
 20
161.6970134456
 30
0.0
 11
132.902826993
 21
161.7016536671
 31
0.0
  0
LINE
  5
153
330
1F
100
AcDbEntity
  8
SLD-0
  6
Continuous
 62
   179
370
    25
100
AcDbLine
 10
132.902826993
 20
161.7016536671
 30
0.0
 11
132.9047581835
 21
161.7070061642
 31
0.0
  0
LINE
  5
154
330
1F
100
AcDbEntity
  8
SLD-0
  6
Continuous
 62
   179
370
    25
100
AcDbLine
 10
132.9047581835
 20
161.7070061642
 30
0.0
 11
132.9056164904
 21
161.7126298625
 31
0.0
  0
LINE
  5
155
330
1F
100
AcDbEntity
  8
SLD-0
  6
Continuous
 62
   179
370
    25
100
AcDbLine
 10
132.75534126
 20
161.8369919736
 30
0.0
 11
132.8814170046
 21
161.694170304
 31
0.0
  0
LINE
  5
156
330
1F
100
AcDbEntity
  8
SLD-0
  6
Continuous
 62
   179
370
    25
100
AcDbLine
 10
132.75534126
 20
161.8659687716
 30
0.0
 11
132.75534126
 21
161.8369919736
 31
0.0
  0
LINE
  5
157
330
1F
100
AcDbEntity
  8
SLD-0
  6
Continuous
 62
   179
370
    25
100
AcDbLine
 10
132.8039190455
 20
161.9267982919
 30
0.0
 11
132.75534126
 21
161.8659687716
 31
0.0
  0
LINE
  5
158
330
1F
100
AcDbEntity
  8
SLD-0
  6
Continuous
 62
   179
370
    25
100
AcDbLine
 10
132.8426859064
 20
162.5504685122
 30
0.0
 11
132.8260562105
 21
162.2188521106
 31
0.0
  0
LINE
  5
159
330
1F
100
AcDbEntity
  8
SLD-0
  6
Continuous
 62
   179
370
    25
100
AcDbLine
 10
132.8143140955
 20
161.9845045287
 30
0.0
 11
132.8125974817
 21
161.9504732568
 31
0.0
  0
LINE
  5
15A
330
1F
100
AcDbEntity
  8
SLD-0
  6
Continuous
 62
   179
370
    25
100
AcDbLine
 10
132.8285834475
 20
162.5674737174
 30
0.0
 11
132.8314563914
 21
162.5678134639
 31
0.0
  0
LINE
  5
15B
330
1F
100
AcDbEntity
  8
SLD-0
  6
Continuous
 62
   179
370
    25
100
AcDbLine
 10
132.8314563914
 20
162.5678134639
 30
0.0
 11
132.8342101259
 21
162.5673306662
 31
0.0
  0
LINE
  5
15C
330
1F
100
AcDbEntity
  8
SLD-0
  6
Continuous
 62
   179
370
    25
100
AcDbLine
 10
132.8342101259
 20
162.5673306662
 30
0.0
 11
132.8367373629
 21
162.5660461861
 31
0.0
  0
LINE
  5
15D
330
1F
100
AcDbEntity
  8
SLD-0
  6
Continuous
 62
   179
370
    25
100
AcDbLine
 10
132.8367373629
 20
162.5660461861
 30
0.0
 11
132.8389188929
 21
162.5640106875
 31
0.0
  0
LINE
  5
15E
330
1F
100
AcDbEntity
  8
SLD-0
  6
Continuous
 62
   179
370
    25
100
AcDbLine
 10
132.8389188929
 20
162.5640106875
 30
0.0
 11
132.8406712694
 21
162.5613105971
 31
0.0
  0
LINE
  5
15F
330
1F
100
AcDbEntity
  8
SLD-0
  6
Continuous
 62
   179
370
    25
100
AcDbLine
 10
132.8406712694
 20
162.5613105971
 30
0.0
 11
132.841911046
 21
162.558062144
 31
0.0
  0
LINE
  5
160
330
1F
100
AcDbEntity
  8
SLD-0
  6
Continuous
 62
   179
370
    25
100
AcDbLine
 10
132.841911046
 20
162.558062144
 30
0.0
 11
132.842590539
 21
162.5543964583
 31
0.0
  0
LINE
  5
161
330
1F
100
AcDbEntity
  8
SLD-0
  6
Continuous
 62
   179
370
    25
100
AcDbLine
 10
132.842590539
 20
162.5543964583
 30
0.0
 11
132.8426859064
 21
162.5504685122
 31
0.0
  0
LINE
  5
162
330
1F
100
AcDbEntity
  8
SLD-0
  6
Continuous
 62
   179
370
    25
100
AcDbLine
 10
132.75534126
 20
162.5485194403
 30
0.0
 11
132.8285834475
 21
162.5674737174
 31
0.0
  0
LINE
  5
163
330
1F
100
AcDbEntity
  8
SLD-0
  6
Continuous
 62
   179
370
    25
100
AcDbLine
 10
132.7199957056
 20
162.5586879927
 30
0.0
 11
132.7200195475
 21
162.5576657731
 31
0.0
  0
LINE
  5
164
330
1F
100
AcDbEntity
  8
SLD-0
  6
Continuous
 62
   179
370
    25
100
AcDbLine
 10
132.7199957056
 20
162.8581268269
 30
0.0
 11
132.7199957056
 21
162.5586879927
 31
0.0
  0
LINE
  5
165
330
1F
100
AcDbEntity
  8
SLD-0
  6
Continuous
 62
   179
370
    25
100
AcDbLine
 10
132.705845563
 20
162.8737819869
 30
0.0
 11
132.7086112185
 21
162.8741276938
 31
0.0
  0
LINE
  5
166
330
1F
100
AcDbEntity
  8
SLD-0
  6
Continuous
 62
   179
370
    25
100
AcDbLine
 10
132.7086112185
 20
162.8741276938
 30
0.0
 11
132.7112576647
 21
162.8737134415
 31
0.0
  0
LINE
  5
167
330
1F
100
AcDbEntity
  8
SLD-0
  6
Continuous
 62
   179
370
    25
100
AcDbLine
 10
132.7112576647
 20
162.8737134415
 30
0.0
 11
132.7137133761
 21
162.8725630719
 31
0.0
  0
LINE
  5
168
330
1F
100
AcDbEntity
  8
SLD-0
  6
Continuous
 62
   179
370
    25
100
AcDbLine
 10
132.7137133761
 20
162.8725630719
 30
0.0
 11
132.7158472223
 21
162.8707123477
 31
0.0
  0
LINE
  5
169
330
1F
100
AcDbEntity
  8
SLD-0
  6
Continuous
 62
   179
370
    25
100
AcDbLine
 10
132.7158472223
 20
162.8707123477
 30
0.0
 11
132.7176115198
 21
162.8682417352
 31
0.0
  0
LINE
  5
16A
330
1F
100
AcDbEntity
  8
SLD-0
  6
Continuous
 62
   179
370
    25
100
AcDbLine
 10
132.7176115198
 20
162.8682417352
 30
0.0
 11
132.7189109011
 21
162.8652376611
 31
0.0
  0
LINE
  5
16B
330
1F
100
AcDbEntity
  8
SLD-0
  6
Continuous
 62
   179
370
    25
100
AcDbLine
 10
132.7189109011
 20
162.8652376611
 30
0.0
 11
132.7197215243
 21
162.8618223149
 31
0.0
  0
LINE
  5
16C
330
1F
100
AcDbEntity
  8
SLD-0
  6
Continuous
 62
   179
370
    25
100
AcDbLine
 10
132.7197215243
 20
162.8618223149
 30
0.0
 11
132.7199957056
 21
162.8581268269
 31
0.0
  0
LINE
  5
16D
330
1F
100
AcDbEntity
  8
SLD-0
  6
Continuous
 62
   179
370
    25
100
AcDbLine
 10
132.9056164904
 20
161.7126298625
 30
0.0
 11
133.9662811442
 21
161.4381117303
 31
0.0
  0
LINE
  5
16E
330
1F
100
AcDbEntity
  8
SLD-0
  6
Continuous
 62
   179
370
    25
100
AcDbLine
 10
134.0170285387
 20
162.4502611834
 30
0.0
 11
132.9563638849
 21
162.7247822959
 31
0.0
  0
LINE
  5
16F
330
1F
100
AcDbEntity
  8
SLD-0
  6
Continuous
 62
   179
370
    25
100
AcDbLine
 10
133.9662811442
 20
161.4381117303
 30
0.0
 11
134.0170285387
 21
162.4502611834
 31
0.0
  0
LINE
  5
170
330
1F
100
AcDbEntity
  8
SLD-0
  6
Continuous
 62
   179
370
    25
100
AcDbLine
 10
133.9662811442
 20
161.4381117303
 30
0.0
 11
133.9654228373
 21
161.432488032
 31
0.0
  0
LINE
  5
171
330
1F
100
AcDbEntity
  8
SLD-0
  6
Continuous
 62
   179
370
    25
100
AcDbLine
 10
133.9654228373
 20
161.432488032
 30
0.0
 11
133.9634797259
 21
161.4271355349
 31
0.0
  0
LINE
  5
172
330
1F
100
AcDbEntity
  8
SLD-0
  6
Continuous
 62
   179
370
    25
100
AcDbLine
 10
133.9634797259
 20
161.4271355349
 30
0.0
 11
133.9606187029
 21
161.4224923331
 31
0.0
  0
LINE
  5
173
330
1F
100
AcDbEntity
  8
SLD-0
  6
Continuous
 62
   179
370
    25
100
AcDbLine
 10
133.9606187029
 20
161.4224923331
 30
0.0
 11
133.9570662661
 21
161.4189398963
 31
0.0
  0
LINE
  5
174
330
1F
100
AcDbEntity
  8
SLD-0
  6
Continuous
 62
   179
370
    25
100
AcDbLine
 10
133.9570662661
 20
161.4189398963
 30
0.0
 11
133.9531085177
 21
161.4167643267
 31
0.0
  0
LINE
  5
175
330
1F
100
AcDbEntity
  8
SLD-0
  6
Continuous
 62
   179
370
    25
100
AcDbLine
 10
133.9531085177
 20
161.4167643267
 30
0.0
 11
133.9490673228
 21
161.4161444384
 31
0.0
  0
LINE
  5
176
330
1F
100
AcDbEntity
  8
SLD-0
  6
Continuous
 62
   179
370
    25
100
AcDbLine
 10
133.9490673228
 20
161.4161444384
 30
0.0
 11
133.9471599741
 21
161.416433521
 31
0.0
  0
LINE
  5
177
330
1F
100
AcDbEntity
  8
SLD-0
  6
Continuous
 62
   179
370
    25
100
AcDbLine
 10
132.1543118639
 20
162.7040816027
 30
0.0
 11
132.1543118639
 21
162.7117139775
 31
0.0
  0
LINE
  5
178
330
1F
100
AcDbEntity
  8
SLD-0
  6
Continuous
 62
   179
370
    25
100
AcDbLine
 10
179.0001294298
 20
151.0741484839
 30
0.0
 11
178.0445239229
 21
150.8268190104
 31
0.0
  0
LINE
  5
179
330
1F
100
AcDbEntity
  8
SLD-0
  6
Continuous
 62
   179
370
    25
100
AcDbLine
 10
179.0001294298
 20
150.8809638697
 30
0.0
 11
179.0001294298
 21
151.0741484839
 31
0.0
  0
LINE
  5
17A
330
1F
100
AcDbEntity
  8
SLD-0
  6
Continuous
 62
   179
370
    25
100
AcDbLine
 10
178.4177205248
 20
150.7302237231
 30
0.0
 11
179.0001294298
 21
150.8809638697
 31
0.0
  0
LINE
  5
17B
330
1F
100
AcDbEntity
  8
SLD-0
  6
Continuous
 62
   179
370
    25
100
AcDbLine
 10
179.0001294298
 20
151.0741484839
 30
0.0
 11
179.2829653902
 21
151.0741484839
 31
0.0
  0
LINE
  5
17C
330
1F
100
AcDbEntity
  8
SLD-0
  6
Continuous
 62
   179
370
    25
100
AcDbLine
 10
179.2829653902
 20
151.0741484839
 30
0.0
 11
179.2829653902
 21
150.8809638697
 31
0.0
  0
LINE
  5
17D
330
1F
100
AcDbEntity
  8
SLD-0
  6
Continuous
 62
   179
370
    25
100
AcDbLine
 10
179.2829653902
 20
150.8809638697
 30
0.0
 11
179.0001294298
 21
150.8809638697
 31
0.0
  0
LINE
  5
17E
330
1F
100
AcDbEntity
  8
SLD-0
  6
Continuous
 62
   179
370
    25
100
AcDbLine
 10
179.1248461886
 20
150.5472136218
 30
0.0
 11
179.191055028
 21
150.5643499572
 31
0.0
  0
LINE
  5
17F
330
1F
100
AcDbEntity
  8
SLD-0
  6
Continuous
 62
   179
370
    25
100
AcDbLine
 10
179.2829653902
 20
150.8809638697
 30
0.0
 11
179.8486611529
 21
150.7345510203
 31
0.0
  0
LINE
  5
180
330
1F
100
AcDbEntity
  8
SLD-0
  6
Continuous
 62
   179
370
    25
100
AcDbLine
 10
179.7284505053
 20
150.7034373957
 30
0.0
 11
179.8486611529
 21
150.7345510203
 31
0.0
  0
LINE
  5
181
330
1F
100
AcDbEntity
  8
SLD-0
  6
Continuous
 62
   179
370
    25
100
AcDbLine
 10
181.4750096483
 20
150.3136230189
 30
0.0
 11
180.9093138857
 21
150.4600299079
 31
0.0
  0
LINE
  5
182
330
1F
100
AcDbEntity
  8
SLD-0
  6
Continuous
 62
   179
370
    25
100
AcDbLine
 10
181.4750096483
 20
150.2404165942
 30
0.0
 11
181.4750096483
 21
150.3136230189
 31
0.0
  0
LINE
  5
183
330
1F
100
AcDbEntity
  8
SLD-0
  6
Continuous
 62
   179
370
    25
100
AcDbLine
 10
181.0319087191
 20
150.1257312972
 30
0.0
 11
181.4750096483
 21
150.2404165942
 31
0.0
  0
LINE
  5
184
330
1F
100
AcDbEntity
  8
SLD-0
  6
Continuous
 62
   179
370
    25
100
AcDbLine
 10
178.7349602862
 20
150.7116747577
 30
0.0
 11
178.6861798449
 21
150.6927800853
 31
0.0
  0
LINE
  5
185
330
1F
100
AcDbEntity
  8
SLD-0
  6
Continuous
 62
   179
370
    25
100
AcDbLine
 10
178.6861798449
 20
150.6927800853
 30
0.0
 11
178.6690613909
 21
150.6704939086
 31
0.0
  0
LINE
  5
186
330
1F
100
AcDbEntity
  8
SLD-0
  6
Continuous
 62
   179
370
    25
100
AcDbLine
 10
178.6690613909
 20
150.6704939086
 30
0.0
 11
178.6701104326
 21
150.6649089534
 31
0.0
  0
LINE
  5
187
330
1F
100
AcDbEntity
  8
SLD-0
  6
Continuous
 62
   179
370
    25
100
AcDbLine
 10
179.0531537218
 20
150.62931902
 30
0.0
 11
179.4067046328
 21
150.7208240706
 31
0.0
  0
LINE
  5
188
330
1F
100
AcDbEntity
  8
SLD-0
  6
Continuous
 62
   179
370
    25
100
AcDbLine
 10
179.4067046328
 20
150.7208240706
 30
0.0
 11
179.4554850741
 21
150.739718743
 31
0.0
  0
LINE
  5
189
330
1F
100
AcDbEntity
  8
SLD-0
  6
Continuous
 62
   179
370
    25
100
AcDbLine
 10
179.4554850741
 20
150.739718743
 30
0.0
 11
179.4726273699
 21
150.7620049197
 31
0.0
  0
LINE
  5
18A
330
1F
100
AcDbEntity
  8
SLD-0
  6
Continuous
 62
   179
370
    25
100
AcDbLine
 10
179.4726273699
 20
150.7620049197
 30
0.0
 11
179.4554850741
 21
150.7842910964
 31
0.0
  0
LINE
  5
18B
330
1F
100
AcDbEntity
  8
SLD-0
  6
Continuous
 62
   179
370
    25
100
AcDbLine
 10
179.4554850741
 20
150.7842910964
 30
0.0
 11
179.4067284746
 21
150.8031798083
 31
0.0
  0
LINE
  5
18C
330
1F
100
AcDbEntity
  8
SLD-0
  6
Continuous
 62
   179
370
    25
100
AcDbLine
 10
179.4067284746
 20
150.8031798083
 30
0.0
 11
179.3337247057
 21
150.8158040721
 31
0.0
  0
LINE
  5
18D
330
1F
100
AcDbEntity
  8
SLD-0
  6
Continuous
 62
   179
370
    25
100
AcDbLine
 10
179.3337247057
 20
150.8158040721
 30
0.0
 11
179.2476079149
 21
150.8202386576
 31
0.0
  0
LINE
  5
18E
330
1F
100
AcDbEntity
  8
SLD-0
  6
Continuous
 62
   179
370
    25
100
AcDbLine
 10
179.2476079149
 20
150.8202386576
 30
0.0
 11
179.161514966
 21
150.8158040721
 31
0.0
  0
LINE
  5
18F
330
1F
100
AcDbEntity
  8
SLD-0
  6
Continuous
 62
   179
370
    25
100
AcDbLine
 10
179.161514966
 20
150.8158040721
 30
0.0
 11
179.0885111971
 21
150.8031798083
 31
0.0
  0
LINE
  5
190
330
1F
100
AcDbEntity
  8
SLD-0
  6
Continuous
 62
   179
370
    25
100
AcDbLine
 10
179.0885111971
 20
150.8031798083
 30
0.0
 11
178.7349602862
 21
150.7116747577
 31
0.0
  0
LINE
  5
191
330
1F
100
AcDbEntity
  8
SLD-0
  6
Continuous
 62
   179
370
    25
100
AcDbLine
 10
181.0372016115
 20
150.2313388068
 30
0.0
 11
181.0464760943
 21
150.2364350039
 31
0.0
  0
LINE
  5
192
330
1F
100
AcDbEntity
  8
SLD-0
  6
Continuous
 62
   179
370
    25
100
AcDbLine
 10
181.0464760943
 20
150.2364350039
 30
0.0
 11
181.0636183901
 21
150.2587211806
 31
0.0
  0
LINE
  5
193
330
1F
100
AcDbEntity
  8
SLD-0
  6
Continuous
 62
   179
370
    25
100
AcDbLine
 10
181.0636183901
 20
150.2587211806
 30
0.0
 11
181.0464760943
 21
150.2810013968
 31
0.0
  0
LINE
  5
194
330
1F
100
AcDbEntity
  8
SLD-0
  6
Continuous
 62
   179
370
    25
100
AcDbLine
 10
181.0464760943
 20
150.2810013968
 30
0.0
 11
181.0393950625
 21
150.2850008685
 31
0.0
  0
LINE
  5
195
330
1F
100
AcDbEntity
  8
SLD-0
  6
Continuous
 62
   179
370
    25
100
AcDbLine
 10
180.9093138857
 20
150.3283394057
 30
0.0
 11
180.9093138857
 21
150.4600299079
 31
0.0
  0
LINE
  5
196
330
1F
100
AcDbEntity
  8
SLD-0
  6
Continuous
 62
   179
370
    25
100
AcDbLine
 10
179.8486611529
 20
150.5413664061
 30
0.0
 11
179.8486611529
 21
150.7345510203
 31
0.0
  0
LINE
  5
197
330
1F
100
AcDbEntity
  8
SLD-0
  6
Continuous
 62
   179
370
    25
100
AcDbLine
 10
181.4750096483
 20
150.3136230189
 30
0.0
 11
181.4750096483
 21
150.5068076331
 31
0.0
  0
LINE
  5
198
330
1F
100
AcDbEntity
  8
SLD-0
  6
Continuous
 62
   179
370
    25
100
AcDbLine
 10
179.2829653902
 20
151.0741484839
 30
0.0
 11
181.4750096483
 21
150.5068076331
 31
0.0
  0
LINE
  5
199
330
1F
100
AcDbEntity
  8
SLD-0
  6
Continuous
 62
   179
370
    25
100
AcDbLine
 10
179.9648663683
 20
150.5714429099
 30
0.0
 11
179.8486611529
 21
150.5413664061
 31
0.0
  0
LINE
  5
19A
330
1F
100
AcDbEntity
  8
SLD-0
  6
Continuous
 62
   179
370
    25
100
AcDbLine
 10
179.9789807482
 20
150.5544377047
 30
0.0
 11
179.9788853808
 21
150.5583656508
 31
0.0
  0
LINE
  5
19B
330
1F
100
AcDbEntity
  8
SLD-0
  6
Continuous
 62
   179
370
    25
100
AcDbLine
 10
179.9788853808
 20
150.5583656508
 30
0.0
 11
179.9781939669
 21
150.562025376
 31
0.0
  0
LINE
  5
19C
330
1F
100
AcDbEntity
  8
SLD-0
  6
Continuous
 62
   179
370
    25
100
AcDbLine
 10
179.9781939669
 20
150.562025376
 30
0.0
 11
179.9769541903
 21
150.5652797896
 31
0.0
  0
LINE
  5
19D
330
1F
100
AcDbEntity
  8
SLD-0
  6
Continuous
 62
   179
370
    25
100
AcDbLine
 10
179.9769541903
 20
150.5652797896
 30
0.0
 11
179.9752137346
 21
150.56797988
 31
0.0
  0
LINE
  5
19E
330
1F
100
AcDbEntity
  8
SLD-0
  6
Continuous
 62
   179
370
    25
100
AcDbLine
 10
179.9752137346
 20
150.56797988
 30
0.0
 11
179.9730202837
 21
150.5700123984
 31
0.0
  0
LINE
  5
19F
330
1F
100
AcDbEntity
  8
SLD-0
  6
Continuous
 62
   179
370
    25
100
AcDbLine
 10
179.9730202837
 20
150.5700123984
 30
0.0
 11
179.9704930468
 21
150.5712998587
 31
0.0
  0
LINE
  5
1A0
330
1F
100
AcDbEntity
  8
SLD-0
  6
Continuous
 62
   179
370
    25
100
AcDbLine
 10
179.9704930468
 20
150.5712998587
 30
0.0
 11
179.9677512331
 21
150.5717826564
 31
0.0
  0
LINE
  5
1A1
330
1F
100
AcDbEntity
  8
SLD-0
  6
Continuous
 62
   179
370
    25
100
AcDbLine
 10
179.9677512331
 20
150.5717826564
 30
0.0
 11
179.9648663683
 21
150.5714429099
 31
0.0
  0
LINE
  5
1A2
330
1F
100
AcDbEntity
  8
SLD-0
  6
Continuous
 62
   179
370
    25
100
AcDbLine
 10
179.9282214327
 20
149.5422852713
 30
0.0
 11
179.9789807482
 21
150.5544377047
 31
0.0
  0
LINE
  5
1A3
330
1F
100
AcDbEntity
  8
SLD-0
  6
Continuous
 62
   179
370
    25
100
AcDbLine
 10
179.9040219469
 20
149.5238257129
 30
0.0
 11
179.9072405977
 21
149.5213103968
 31
0.0
  0
LINE
  5
1A4
330
1F
100
AcDbEntity
  8
SLD-0
  6
Continuous
 62
   179
370
    25
100
AcDbLine
 10
179.9072405977
 20
149.5213103968
 30
0.0
 11
179.9110076113
 21
149.5203209597
 31
0.0
  0
LINE
  5
1A5
330
1F
100
AcDbEntity
  8
SLD-0
  6
Continuous
 62
   179
370
    25
100
AcDbLine
 10
179.9110076113
 20
149.5203209597
 30
0.0
 11
179.9150368853
 21
149.5209348876
 31
0.0
  0
LINE
  5
1A6
330
1F
100
AcDbEntity
  8
SLD-0
  6
Continuous
 62
   179
370
    25
100
AcDbLine
 10
179.9150368853
 20
149.5209348876
 30
0.0
 11
179.9189946337
 21
149.5231104571
 31
0.0
  0
LINE
  5
1A7
330
1F
100
AcDbEntity
  8
SLD-0
  6
Continuous
 62
   179
370
    25
100
AcDbLine
 10
179.9189946337
 20
149.5231104571
 30
0.0
 11
179.9225709124
 21
149.5266688544
 31
0.0
  0
LINE
  5
1A8
330
1F
100
AcDbEntity
  8
SLD-0
  6
Continuous
 62
   179
370
    25
100
AcDbLine
 10
179.9225709124
 20
149.5266688544
 30
0.0
 11
179.9254319353
 21
149.5313120562
 31
0.0
  0
LINE
  5
1A9
330
1F
100
AcDbEntity
  8
SLD-0
  6
Continuous
 62
   179
370
    25
100
AcDbLine
 10
179.9254319353
 20
149.5313120562
 30
0.0
 11
179.9273631258
 21
149.5366645533
 31
0.0
  0
LINE
  5
1AA
330
1F
100
AcDbEntity
  8
SLD-0
  6
Continuous
 62
   179
370
    25
100
AcDbLine
 10
179.9273631258
 20
149.5366645533
 30
0.0
 11
179.9282214327
 21
149.5422852713
 31
0.0
  0
LINE
  5
1AB
330
1F
100
AcDbEntity
  8
SLD-0
  6
Continuous
 62
   179
370
    25
100
AcDbLine
 10
179.7779462023
 20
149.6666444022
 30
0.0
 11
179.9040219469
 21
149.5238257129
 31
0.0
  0
LINE
  5
1AC
330
1F
100
AcDbEntity
  8
SLD-0
  6
Continuous
 62
   179
370
    25
100
AcDbLine
 10
179.7779462023
 20
149.6956241805
 30
0.0
 11
179.7779462023
 21
149.6666444022
 31
0.0
  0
LINE
  5
1AD
330
1F
100
AcDbEntity
  8
SLD-0
  6
Continuous
 62
   179
370
    25
100
AcDbLine
 10
179.8265120669
 20
149.7564507205
 30
0.0
 11
179.7779462023
 21
149.6956241805
 31
0.0
  0
LINE
  5
1AE
330
1F
100
AcDbEntity
  8
SLD-0
  6
Continuous
 62
   179
370
    25
100
AcDbLine
 10
179.8652789278
 20
150.3801239211
 30
0.0
 11
179.8486611529
 21
150.0485075194
 31
0.0
  0
LINE
  5
1AF
330
1F
100
AcDbEntity
  8
SLD-0
  6
Continuous
 62
   179
370
    25
100
AcDbLine
 10
179.8369071169
 20
149.8141599376
 30
0.0
 11
179.835214345
 21
149.7801256854
 31
0.0
  0
LINE
  5
1B0
330
1F
100
AcDbEntity
  8
SLD-0
  6
Continuous
 62
   179
370
    25
100
AcDbLine
 10
179.8511883898
 20
150.3971291262
 30
0.0
 11
179.8540732546
 21
150.3974688727
 31
0.0
  0
LINE
  5
1B1
330
1F
100
AcDbEntity
  8
SLD-0
  6
Continuous
 62
   179
370
    25
100
AcDbLine
 10
179.8540732546
 20
150.3974688727
 30
0.0
 11
179.8568150683
 21
150.3969860751
 31
0.0
  0
LINE
  5
1B2
330
1F
100
AcDbEntity
  8
SLD-0
  6
Continuous
 62
   179
370
    25
100
AcDbLine
 10
179.8568150683
 20
150.3969860751
 30
0.0
 11
179.8593423052
 21
150.3956986148
 31
0.0
  0
LINE
  5
1B3
330
1F
100
AcDbEntity
  8
SLD-0
  6
Continuous
 62
   179
370
    25
100
AcDbLine
 10
179.8593423052
 20
150.3956986148
 30
0.0
 11
179.8615119143
 21
150.3936660964
 31
0.0
  0
LINE
  5
1B4
330
1F
100
AcDbEntity
  8
SLD-0
  6
Continuous
 62
   179
370
    25
100
AcDbLine
 10
179.8615119143
 20
150.3936660964
 30
0.0
 11
179.8632762118
 21
150.390966006
 31
0.0
  0
LINE
  5
1B5
330
1F
100
AcDbEntity
  8
SLD-0
  6
Continuous
 62
   179
370
    25
100
AcDbLine
 10
179.8632762118
 20
150.390966006
 30
0.0
 11
179.8645159884
 21
150.3877175528
 31
0.0
  0
LINE
  5
1B6
330
1F
100
AcDbEntity
  8
SLD-0
  6
Continuous
 62
   179
370
    25
100
AcDbLine
 10
179.8645159884
 20
150.3877175528
 30
0.0
 11
179.8651835604
 21
150.3840518672
 31
0.0
  0
LINE
  5
1B7
330
1F
100
AcDbEntity
  8
SLD-0
  6
Continuous
 62
   179
370
    25
100
AcDbLine
 10
179.8651835604
 20
150.3840518672
 30
0.0
 11
179.8652789278
 21
150.3801239211
 31
0.0
  0
LINE
  5
1B8
330
1F
100
AcDbEntity
  8
SLD-0
  6
Continuous
 62
   179
370
    25
100
AcDbLine
 10
179.7779462023
 20
150.3781748492
 30
0.0
 11
179.8511883898
 21
150.3971291262
 31
0.0
  0
LINE
  5
1B9
330
1F
100
AcDbEntity
  8
SLD-0
  6
Continuous
 62
   179
370
    25
100
AcDbLine
 10
179.742588727
 20
150.3883434016
 30
0.0
 11
179.7426125689
 21
150.3873182017
 31
0.0
  0
LINE
  5
1BA
330
1F
100
AcDbEntity
  8
SLD-0
  6
Continuous
 62
   179
370
    25
100
AcDbLine
 10
179.742588727
 20
150.6877792556
 30
0.0
 11
179.742588727
 21
150.3883434016
 31
0.0
  0
LINE
  5
1BB
330
1F
100
AcDbEntity
  8
SLD-0
  6
Continuous
 62
   179
370
    25
100
AcDbLine
 10
179.7284505053
 20
150.7034373957
 30
0.0
 11
179.7312161608
 21
150.7037831027
 31
0.0
  0
LINE
  5
1BC
330
1F
100
AcDbEntity
  8
SLD-0
  6
Continuous
 62
   179
370
    25
100
AcDbLine
 10
179.7312161608
 20
150.7037831027
 30
0.0
 11
179.733862607
 21
150.7033658702
 31
0.0
  0
LINE
  5
1BD
330
1F
100
AcDbEntity
  8
SLD-0
  6
Continuous
 62
   179
370
    25
100
AcDbLine
 10
179.733862607
 20
150.7033658702
 30
0.0
 11
179.7363183184
 21
150.7022155005
 31
0.0
  0
LINE
  5
1BE
330
1F
100
AcDbEntity
  8
SLD-0
  6
Continuous
 62
   179
370
    25
100
AcDbLine
 10
179.7363183184
 20
150.7022155005
 30
0.0
 11
179.7384640856
 21
150.7003677565
 31
0.0
  0
LINE
  5
1BF
330
1F
100
AcDbEntity
  8
SLD-0
  6
Continuous
 62
   179
370
    25
100
AcDbLine
 10
179.7384640856
 20
150.7003677565
 30
0.0
 11
179.7402045412
 21
150.6978941638
 31
0.0
  0
LINE
  5
1C0
330
1F
100
AcDbEntity
  8
SLD-0
  6
Continuous
 62
   179
370
    25
100
AcDbLine
 10
179.7402045412
 20
150.6978941638
 30
0.0
 11
179.7415158434
 21
150.6948960502
 31
0.0
  0
LINE
  5
1C1
330
1F
100
AcDbEntity
  8
SLD-0
  6
Continuous
 62
   179
370
    25
100
AcDbLine
 10
179.7415158434
 20
150.6948960502
 30
0.0
 11
179.7423264666
 21
150.691480704
 31
0.0
  0
LINE
  5
1C2
330
1F
100
AcDbEntity
  8
SLD-0
  6
Continuous
 62
   179
370
    25
100
AcDbLine
 10
179.7423264666
 20
150.691480704
 30
0.0
 11
179.742588727
 21
150.6877792556
 31
0.0
  0
LINE
  5
1C3
330
1F
100
AcDbEntity
  8
SLD-0
  6
Continuous
 62
   179
370
    25
100
AcDbLine
 10
179.9282214327
 20
149.5422852713
 30
0.0
 11
180.9888741656
 21
149.2677641589
 31
0.0
  0
LINE
  5
1C4
330
1F
100
AcDbEntity
  8
SLD-0
  6
Continuous
 62
   179
370
    25
100
AcDbLine
 10
181.039633481
 20
150.2799165923
 30
0.0
 11
179.9789807482
 21
150.5544377047
 31
0.0
  0
LINE
  5
1C5
330
1F
100
AcDbEntity
  8
SLD-0
  6
Continuous
 62
   179
370
    25
100
AcDbLine
 10
180.9888741656
 20
149.2677641589
 30
0.0
 11
181.039633481
 21
150.2799165923
 31
0.0
  0
LINE
  5
1C6
330
1F
100
AcDbEntity
  8
SLD-0
  6
Continuous
 62
   179
370
    25
100
AcDbLine
 10
180.9888741656
 20
149.2677641589
 30
0.0
 11
180.9880158587
 21
149.2621434409
 31
0.0
  0
LINE
  5
1C7
330
1F
100
AcDbEntity
  8
SLD-0
  6
Continuous
 62
   179
370
    25
100
AcDbLine
 10
180.9880158587
 20
149.2621434409
 30
0.0
 11
180.9860846682
 21
149.2567909438
 31
0.0
  0
LINE
  5
1C8
330
1F
100
AcDbEntity
  8
SLD-0
  6
Continuous
 62
   179
370
    25
100
AcDbLine
 10
180.9860846682
 20
149.2567909438
 30
0.0
 11
180.9832236452
 21
149.252147742
 31
0.0
  0
LINE
  5
1C9
330
1F
100
AcDbEntity
  8
SLD-0
  6
Continuous
 62
   179
370
    25
100
AcDbLine
 10
180.9832236452
 20
149.252147742
 30
0.0
 11
180.9796712084
 21
149.2485953051
 31
0.0
  0
LINE
  5
1CA
330
1F
100
AcDbEntity
  8
SLD-0
  6
Continuous
 62
   179
370
    25
100
AcDbLine
 10
180.9796712084
 20
149.2485953051
 30
0.0
 11
180.97571346
 21
149.2464197356
 31
0.0
  0
LINE
  5
1CB
330
1F
100
AcDbEntity
  8
SLD-0
  6
Continuous
 62
   179
370
    25
100
AcDbLine
 10
180.97571346
 20
149.2464197356
 30
0.0
 11
180.971684186
 21
149.2457998473
 31
0.0
  0
LINE
  5
1CC
330
1F
100
AcDbEntity
  8
SLD-0
  6
Continuous
 62
   179
370
    25
100
AcDbLine
 10
180.971684186
 20
149.2457998473
 30
0.0
 11
180.9697529955
 21
149.2460919101
 31
0.0
  0
LINE
  5
1CD
330
1F
100
AcDbEntity
  8
SLD-0
  6
Continuous
 62
   179
370
    25
100
AcDbLine
 10
179.1769168062
 20
150.5337370116
 30
0.0
 11
179.1769168062
 21
150.5413723666
 31
0.0
  0
LINE
  5
1CE
330
1F
100
AcDbEntity
  8
SLD-0
  6
Continuous
 62
   179
370
    25
100
AcDbLine
 10
61.1254236384
 20
181.5823627192
 30
0.0
 11
60.1698300524
 21
181.335036226
 31
0.0
  0
LINE
  5
1CF
330
1F
100
AcDbEntity
  8
SLD-0
  6
Continuous
 62
   179
370
    25
100
AcDbLine
 10
61.1254236384
 20
181.3891781051
 30
0.0
 11
61.1254236384
 21
181.5823627192
 31
0.0
  0
LINE
  5
1D0
330
1F
100
AcDbEntity
  8
SLD-0
  6
Continuous
 62
   179
370
    25
100
AcDbLine
 10
60.5430266543
 20
181.2384439189
 30
0.0
 11
61.1254236384
 21
181.3891781051
 31
0.0
  0
LINE
  5
1D1
330
1F
100
AcDbEntity
  8
SLD-0
  6
Continuous
 62
   179
370
    25
100
AcDbLine
 10
61.1254236384
 20
181.5823627192
 30
0.0
 11
61.4082715197
 21
181.5823627192
 31
0.0
  0
LINE
  5
1D2
330
1F
100
AcDbEntity
  8
SLD-0
  6
Continuous
 62
   179
370
    25
100
AcDbLine
 10
61.4082715197
 20
181.5823627192
 30
0.0
 11
61.4082715197
 21
181.3891781051
 31
0.0
  0
LINE
  5
1D3
330
1F
100
AcDbEntity
  8
SLD-0
  6
Continuous
 62
   179
370
    25
100
AcDbLine
 10
61.4082715197
 20
181.3891781051
 30
0.0
 11
61.1254236384
 21
181.3891781051
 31
0.0
  0
LINE
  5
1D4
330
1F
100
AcDbEntity
  8
SLD-0
  6
Continuous
 62
   179
370
    25
100
AcDbLine
 10
61.2501403971
 20
181.0554308373
 30
0.0
 11
61.3163492365
 21
181.0725671727
 31
0.0
  0
LINE
  5
1D5
330
1F
100
AcDbEntity
  8
SLD-0
  6
Continuous
 62
   179
370
    25
100
AcDbLine
 10
61.4082715197
 20
181.3891781051
 30
0.0
 11
61.9739672823
 21
181.2427682359
 31
0.0
  0
LINE
  5
1D6
330
1F
100
AcDbEntity
  8
SLD-0
  6
Continuous
 62
   179
370
    25
100
AcDbLine
 10
61.8537566347
 20
181.2116546113
 30
0.0
 11
61.9739672823
 21
181.2427682359
 31
0.0
  0
LINE
  5
1D7
330
1F
100
AcDbEntity
  8
SLD-0
  6
Continuous
 62
   179
370
    25
100
AcDbLine
 10
63.6003038569
 20
180.8218402345
 30
0.0
 11
63.0346200152
 21
180.9682501036
 31
0.0
  0
LINE
  5
1D8
330
1F
100
AcDbEntity
  8
SLD-0
  6
Continuous
 62
   179
370
    25
100
AcDbLine
 10
63.6003038569
 20
180.7486338097
 30
0.0
 11
63.6003038569
 21
180.8218402345
 31
0.0
  0
LINE
  5
1D9
330
1F
100
AcDbEntity
  8
SLD-0
  6
Continuous
 62
   179
370
    25
100
AcDbLine
 10
63.1572029276
 20
180.6339485127
 30
0.0
 11
63.6003038569
 21
180.7486338097
 31
0.0
  0
LINE
  5
1DA
330
1F
100
AcDbEntity
  8
SLD-0
  6
Continuous
 62
   179
370
    25
100
AcDbLine
 10
60.8602664156
 20
181.2198919732
 30
0.0
 11
60.8114859743
 21
181.201000281
 31
0.0
  0
LINE
  5
1DB
330
1F
100
AcDbEntity
  8
SLD-0
  6
Continuous
 62
   179
370
    25
100
AcDbLine
 10
60.8114859743
 20
181.201000281
 30
0.0
 11
60.7943675204
 21
181.1787141044
 31
0.0
  0
LINE
  5
1DC
330
1F
100
AcDbEntity
  8
SLD-0
  6
Continuous
 62
   179
370
    25
100
AcDbLine
 10
60.7943675204
 20
181.1787141044
 30
0.0
 11
60.7954046412
 21
181.1731231887
 31
0.0
  0
LINE
  5
1DD
330
1F
100
AcDbEntity
  8
SLD-0
  6
Continuous
 62
   179
370
    25
100
AcDbLine
 10
61.1784598513
 20
181.1375362355
 30
0.0
 11
61.5320107622
 21
181.2290412862
 31
0.0
  0
LINE
  5
1DE
330
1F
100
AcDbEntity
  8
SLD-0
  6
Continuous
 62
   179
370
    25
100
AcDbLine
 10
61.5320107622
 20
181.2290412862
 30
0.0
 11
61.5807912035
 21
181.2479329783
 31
0.0
  0
LINE
  5
1DF
330
1F
100
AcDbEntity
  8
SLD-0
  6
Continuous
 62
   179
370
    25
100
AcDbLine
 10
61.5807912035
 20
181.2479329783
 30
0.0
 11
61.5979215784
 21
181.270219155
 31
0.0
  0
LINE
  5
1E0
330
1F
100
AcDbEntity
  8
SLD-0
  6
Continuous
 62
   179
370
    25
100
AcDbLine
 10
61.5979215784
 20
181.270219155
 30
0.0
 11
61.5807912035
 21
181.2925053317
 31
0.0
  0
LINE
  5
1E1
330
1F
100
AcDbEntity
  8
SLD-0
  6
Continuous
 62
   179
370
    25
100
AcDbLine
 10
61.5807912035
 20
181.2925053317
 30
0.0
 11
61.5320107622
 21
181.3113970239
 31
0.0
  0
LINE
  5
1E2
330
1F
100
AcDbEntity
  8
SLD-0
  6
Continuous
 62
   179
370
    25
100
AcDbLine
 10
61.5320107622
 20
181.3113970239
 30
0.0
 11
61.4590308352
 21
181.3240212876
 31
0.0
  0
LINE
  5
1E3
330
1F
100
AcDbEntity
  8
SLD-0
  6
Continuous
 62
   179
370
    25
100
AcDbLine
 10
61.4590308352
 20
181.3240212876
 30
0.0
 11
61.3729140444
 21
181.3284558732
 31
0.0
  0
LINE
  5
1E4
330
1F
100
AcDbEntity
  8
SLD-0
  6
Continuous
 62
   179
370
    25
100
AcDbLine
 10
61.3729140444
 20
181.3284558732
 30
0.0
 11
61.2868091746
 21
181.3240212876
 31
0.0
  0
LINE
  5
1E5
330
1F
100
AcDbEntity
  8
SLD-0
  6
Continuous
 62
   179
370
    25
100
AcDbLine
 10
61.2868091746
 20
181.3240212876
 30
0.0
 11
61.2138173266
 21
181.3113970239
 31
0.0
  0
LINE
  5
1E6
330
1F
100
AcDbEntity
  8
SLD-0
  6
Continuous
 62
   179
370
    25
100
AcDbLine
 10
61.2138173266
 20
181.3113970239
 30
0.0
 11
60.8602664156
 21
181.2198919732
 31
0.0
  0
LINE
  5
1E7
330
1F
100
AcDbEntity
  8
SLD-0
  6
Continuous
 62
   179
370
    25
100
AcDbLine
 10
63.1624958201
 20
180.7395590026
 30
0.0
 11
63.1717822237
 21
180.7446492392
 31
0.0
  0
LINE
  5
1E8
330
1F
100
AcDbEntity
  8
SLD-0
  6
Continuous
 62
   179
370
    25
100
AcDbLine
 10
63.1717822237
 20
180.7446492392
 30
0.0
 11
63.1889125986
 21
180.7669354159
 31
0.0
  0
LINE
  5
1E9
330
1F
100
AcDbEntity
  8
SLD-0
  6
Continuous
 62
   179
370
    25
100
AcDbLine
 10
63.1889125986
 20
180.7669354159
 30
0.0
 11
63.1717822237
 21
180.7892215926
 31
0.0
  0
LINE
  5
1EA
330
1F
100
AcDbEntity
  8
SLD-0
  6
Continuous
 62
   179
370
    25
100
AcDbLine
 10
63.1717822237
 20
180.7892215926
 30
0.0
 11
63.164689271
 21
180.7932210643
 31
0.0
  0
LINE
  5
1EB
330
1F
100
AcDbEntity
  8
SLD-0
  6
Continuous
 62
   179
370
    25
100
AcDbLine
 10
63.0346200152
 20
180.8365566212
 30
0.0
 11
63.0346200152
 21
180.9682501036
 31
0.0
  0
LINE
  5
1EC
330
1F
100
AcDbEntity
  8
SLD-0
  6
Continuous
 62
   179
370
    25
100
AcDbLine
 10
61.9739672823
 20
181.0495836217
 30
0.0
 11
61.9739672823
 21
181.2427682359
 31
0.0
  0
LINE
  5
1ED
330
1F
100
AcDbEntity
  8
SLD-0
  6
Continuous
 62
   179
370
    25
100
AcDbLine
 10
63.6003038569
 20
180.8218402345
 30
0.0
 11
63.6003038569
 21
181.0150248486
 31
0.0
  0
LINE
  5
1EE
330
1F
100
AcDbEntity
  8
SLD-0
  6
Continuous
 62
   179
370
    25
100
AcDbLine
 10
61.4082715197
 20
181.5823627192
 30
0.0
 11
63.6003038569
 21
181.0150248486
 31
0.0
  0
LINE
  5
1EF
330
1F
100
AcDbEntity
  8
SLD-0
  6
Continuous
 62
   179
370
    25
100
AcDbLine
 10
62.0901605768
 20
181.0796571452
 30
0.0
 11
61.9739672823
 21
181.0495836217
 31
0.0
  0
LINE
  5
1F0
330
1F
100
AcDbEntity
  8
SLD-0
  6
Continuous
 62
   179
370
    25
100
AcDbLine
 10
62.1042749567
 20
181.0626549203
 30
0.0
 11
62.1041795893
 21
181.0665798861
 31
0.0
  0
LINE
  5
1F1
330
1F
100
AcDbEntity
  8
SLD-0
  6
Continuous
 62
   179
370
    25
100
AcDbLine
 10
62.1041795893
 20
181.0665798861
 30
0.0
 11
62.1034881754
 21
181.0702455718
 31
0.0
  0
LINE
  5
1F2
330
1F
100
AcDbEntity
  8
SLD-0
  6
Continuous
 62
   179
370
    25
100
AcDbLine
 10
62.1034881754
 20
181.0702455718
 30
0.0
 11
62.1022483988
 21
181.0734940249
 31
0.0
  0
LINE
  5
1F3
330
1F
100
AcDbEntity
  8
SLD-0
  6
Continuous
 62
   179
370
    25
100
AcDbLine
 10
62.1022483988
 20
181.0734940249
 30
0.0
 11
62.1005079432
 21
181.0761941153
 31
0.0
  0
LINE
  5
1F4
330
1F
100
AcDbEntity
  8
SLD-0
  6
Continuous
 62
   179
370
    25
100
AcDbLine
 10
62.1005079432
 20
181.0761941153
 30
0.0
 11
62.0983264132
 21
181.078229614
 31
0.0
  0
LINE
  5
1F5
330
1F
100
AcDbEntity
  8
SLD-0
  6
Continuous
 62
   179
370
    25
100
AcDbLine
 10
62.0983264132
 20
181.078229614
 30
0.0
 11
62.0957991762
 21
181.0795170743
 31
0.0
  0
LINE
  5
1F6
330
1F
100
AcDbEntity
  8
SLD-0
  6
Continuous
 62
   179
370
    25
100
AcDbLine
 10
62.0957991762
 20
181.0795170743
 30
0.0
 11
62.0930454416
 21
181.0799968917
 31
0.0
  0
LINE
  5
1F7
330
1F
100
AcDbEntity
  8
SLD-0
  6
Continuous
 62
   179
370
    25
100
AcDbLine
 10
62.0930454416
 20
181.0799968917
 30
0.0
 11
62.0901605768
 21
181.0796571452
 31
0.0
  0
LINE
  5
1F8
330
1F
100
AcDbEntity
  8
SLD-0
  6
Continuous
 62
   179
370
    25
100
AcDbLine
 10
62.0535156412
 20
180.0505024869
 30
0.0
 11
62.1042749567
 21
181.0626549203
 31
0.0
  0
LINE
  5
1F9
330
1F
100
AcDbEntity
  8
SLD-0
  6
Continuous
 62
   179
370
    25
100
AcDbLine
 10
62.0293161555
 20
180.0320429284
 30
0.0
 11
62.0325348063
 21
180.0295246322
 31
0.0
  0
LINE
  5
1FA
330
1F
100
AcDbEntity
  8
SLD-0
  6
Continuous
 62
   179
370
    25
100
AcDbLine
 10
62.0325348063
 20
180.0295246322
 30
0.0
 11
62.0363137407
 21
180.028535195
 31
0.0
  0
LINE
  5
1FB
330
1F
100
AcDbEntity
  8
SLD-0
  6
Continuous
 62
   179
370
    25
100
AcDbLine
 10
62.0363137407
 20
180.028535195
 30
0.0
 11
62.0403430147
 21
180.0291550834
 31
0.0
  0
LINE
  5
1FC
330
1F
100
AcDbEntity
  8
SLD-0
  6
Continuous
 62
   179
370
    25
100
AcDbLine
 10
62.0403430147
 20
180.0291550834
 30
0.0
 11
62.0443007632
 21
180.0313306529
 31
0.0
  0
LINE
  5
1FD
330
1F
100
AcDbEntity
  8
SLD-0
  6
Continuous
 62
   179
370
    25
100
AcDbLine
 10
62.0443007632
 20
180.0313306529
 30
0.0
 11
62.0478651209
 21
180.0348860699
 31
0.0
  0
LINE
  5
1FE
330
1F
100
AcDbEntity
  8
SLD-0
  6
Continuous
 62
   179
370
    25
100
AcDbLine
 10
62.0478651209
 20
180.0348860699
 30
0.0
 11
62.0507261439
 21
180.0395262915
 31
0.0
  0
LINE
  5
1FF
330
1F
100
AcDbEntity
  8
SLD-0
  6
Continuous
 62
   179
370
    25
100
AcDbLine
 10
62.0507261439
 20
180.0395262915
 30
0.0
 11
62.0526692553
 21
180.0448787886
 31
0.0
  0
LINE
  5
200
330
1F
100
AcDbEntity
  8
SLD-0
  6
Continuous
 62
   179
370
    25
100
AcDbLine
 10
62.0526692553
 20
180.0448787886
 30
0.0
 11
62.0535156412
 21
180.0505024869
 31
0.0
  0
LINE
  5
201
330
1F
100
AcDbEntity
  8
SLD-0
  6
Continuous
 62
   179
370
    25
100
AcDbLine
 10
61.9032523318
 20
180.174864598
 30
0.0
 11
62.0293161555
 21
180.0320429284
 31
0.0
  0
LINE
  5
202
330
1F
100
AcDbEntity
  8
SLD-0
  6
Continuous
 62
   179
370
    25
100
AcDbLine
 10
61.9032523318
 20
180.203841396
 30
0.0
 11
61.9032523318
 21
180.174864598
 31
0.0
  0
LINE
  5
203
330
1F
100
AcDbEntity
  8
SLD-0
  6
Continuous
 62
   179
370
    25
100
AcDbLine
 10
61.9518181963
 20
180.264667936
 30
0.0
 11
61.9032523318
 21
180.203841396
 31
0.0
  0
LINE
  5
204
330
1F
100
AcDbEntity
  8
SLD-0
  6
Continuous
 62
   179
370
    25
100
AcDbLine
 10
61.9905850573
 20
180.8883411366
 30
0.0
 11
61.9739672823
 21
180.556724735
 31
0.0
  0
LINE
  5
205
330
1F
100
AcDbEntity
  8
SLD-0
  6
Continuous
 62
   179
370
    25
100
AcDbLine
 10
61.9622132464
 20
180.3223741729
 30
0.0
 11
61.9605085535
 21
180.2883458812
 31
0.0
  0
LINE
  5
206
330
1F
100
AcDbEntity
  8
SLD-0
  6
Continuous
 62
   179
370
    25
100
AcDbLine
 10
61.9764825983
 20
180.9053463418
 30
0.0
 11
61.9793674631
 21
180.9056860883
 31
0.0
  0
LINE
  5
207
330
1F
100
AcDbEntity
  8
SLD-0
  6
Continuous
 62
   179
370
    25
100
AcDbLine
 10
61.9793674631
 20
180.9056860883
 30
0.0
 11
61.9821211977
 21
180.9052032906
 31
0.0
  0
LINE
  5
208
330
1F
100
AcDbEntity
  8
SLD-0
  6
Continuous
 62
   179
370
    25
100
AcDbLine
 10
61.9821211977
 20
180.9052032906
 30
0.0
 11
61.9846484347
 21
180.9039188105
 31
0.0
  0
LINE
  5
209
330
1F
100
AcDbEntity
  8
SLD-0
  6
Continuous
 62
   179
370
    25
100
AcDbLine
 10
61.9846484347
 20
180.9039188105
 30
0.0
 11
61.9868180437
 21
180.9018833119
 31
0.0
  0
LINE
  5
20A
330
1F
100
AcDbEntity
  8
SLD-0
  6
Continuous
 62
   179
370
    25
100
AcDbLine
 10
61.9868180437
 20
180.9018833119
 30
0.0
 11
61.9885704203
 21
180.8991832215
 31
0.0
  0
LINE
  5
20B
330
1F
100
AcDbEntity
  8
SLD-0
  6
Continuous
 62
   179
370
    25
100
AcDbLine
 10
61.9885704203
 20
180.8991832215
 30
0.0
 11
61.9898101969
 21
180.8959317881
 31
0.0
  0
LINE
  5
20C
330
1F
100
AcDbEntity
  8
SLD-0
  6
Continuous
 62
   179
370
    25
100
AcDbLine
 10
61.9898101969
 20
180.8959317881
 30
0.0
 11
61.9904896898
 21
180.8922690827
 31
0.0
  0
LINE
  5
20D
330
1F
100
AcDbEntity
  8
SLD-0
  6
Continuous
 62
   179
370
    25
100
AcDbLine
 10
61.9904896898
 20
180.8922690827
 30
0.0
 11
61.9905850573
 21
180.8883411366
 31
0.0
  0
LINE
  5
20E
330
1F
100
AcDbEntity
  8
SLD-0
  6
Continuous
 62
   179
370
    25
100
AcDbLine
 10
61.9032523318
 20
180.8863920647
 30
0.0
 11
61.9764825983
 21
180.9053463418
 31
0.0
  0
LINE
  5
20F
330
1F
100
AcDbEntity
  8
SLD-0
  6
Continuous
 62
   179
370
    25
100
AcDbLine
 10
61.8678948565
 20
180.8965606171
 30
0.0
 11
61.8679186983
 21
180.8955383975
 31
0.0
  0
LINE
  5
210
330
1F
100
AcDbEntity
  8
SLD-0
  6
Continuous
 62
   179
370
    25
100
AcDbLine
 10
61.8678948565
 20
181.1959964711
 30
0.0
 11
61.8678948565
 21
180.8965606171
 31
0.0
  0
LINE
  5
211
330
1F
100
AcDbEntity
  8
SLD-0
  6
Continuous
 62
   179
370
    25
100
AcDbLine
 10
61.8537566347
 20
181.2116546113
 30
0.0
 11
61.8565103693
 21
181.211997338
 31
0.0
  0
LINE
  5
212
330
1F
100
AcDbEntity
  8
SLD-0
  6
Continuous
 62
   179
370
    25
100
AcDbLine
 10
61.8565103693
 20
181.211997338
 30
0.0
 11
61.8591687365
 21
181.2115860659
 31
0.0
  0
LINE
  5
213
330
1F
100
AcDbEntity
  8
SLD-0
  6
Continuous
 62
   179
370
    25
100
AcDbLine
 10
61.8591687365
 20
181.2115860659
 30
0.0
 11
61.8616125269
 21
181.2104327161
 31
0.0
  0
LINE
  5
214
330
1F
100
AcDbEntity
  8
SLD-0
  6
Continuous
 62
   179
370
    25
100
AcDbLine
 10
61.8616125269
 20
181.2104327161
 30
0.0
 11
61.8637582941
 21
181.2085849721
 31
0.0
  0
LINE
  5
215
330
1F
100
AcDbEntity
  8
SLD-0
  6
Continuous
 62
   179
370
    25
100
AcDbLine
 10
61.8637582941
 20
181.2085849721
 30
0.0
 11
61.8655106707
 21
181.2061143596
 31
0.0
  0
LINE
  5
216
330
1F
100
AcDbEntity
  8
SLD-0
  6
Continuous
 62
   179
370
    25
100
AcDbLine
 10
61.8655106707
 20
181.2061143596
 30
0.0
 11
61.8668219729
 21
181.2031102855
 31
0.0
  0
LINE
  5
217
330
1F
100
AcDbEntity
  8
SLD-0
  6
Continuous
 62
   179
370
    25
100
AcDbLine
 10
61.8668219729
 20
181.2031102855
 30
0.0
 11
61.8676206751
 21
181.1996949393
 31
0.0
  0
LINE
  5
218
330
1F
100
AcDbEntity
  8
SLD-0
  6
Continuous
 62
   179
370
    25
100
AcDbLine
 10
61.8676206751
 20
181.1996949393
 30
0.0
 11
61.8678948565
 21
181.1959964711
 31
0.0
  0
LINE
  5
219
330
1F
100
AcDbEntity
  8
SLD-0
  6
Continuous
 62
   179
370
    25
100
AcDbLine
 10
62.0535156412
 20
180.0505024869
 30
0.0
 11
63.114180295
 21
179.7759843547
 31
0.0
  0
LINE
  5
21A
330
1F
100
AcDbEntity
  8
SLD-0
  6
Continuous
 62
   179
370
    25
100
AcDbLine
 10
63.1649276896
 20
180.7881338078
 30
0.0
 11
62.1042749567
 21
181.0626549203
 31
0.0
  0
LINE
  5
21B
330
1F
100
AcDbEntity
  8
SLD-0
  6
Continuous
 62
   179
370
    25
100
AcDbLine
 10
63.114180295
 20
179.7759843547
 30
0.0
 11
63.1649276896
 21
180.7881338078
 31
0.0
  0
LINE
  5
21C
330
1F
100
AcDbEntity
  8
SLD-0
  6
Continuous
 62
   179
370
    25
100
AcDbLine
 10
63.114180295
 20
179.7759843547
 30
0.0
 11
63.1133219881
 21
179.7703606564
 31
0.0
  0
LINE
  5
21D
330
1F
100
AcDbEntity
  8
SLD-0
  6
Continuous
 62
   179
370
    25
100
AcDbLine
 10
63.1133219881
 20
179.7703606564
 30
0.0
 11
63.1113788767
 21
179.7650081593
 31
0.0
  0
LINE
  5
21E
330
1F
100
AcDbEntity
  8
SLD-0
  6
Continuous
 62
   179
370
    25
100
AcDbLine
 10
63.1113788767
 20
179.7650081593
 30
0.0
 11
63.1085178538
 21
179.7603649575
 31
0.0
  0
LINE
  5
21F
330
1F
100
AcDbEntity
  8
SLD-0
  6
Continuous
 62
   179
370
    25
100
AcDbLine
 10
63.1085178538
 20
179.7603649575
 30
0.0
 11
63.1049654169
 21
179.7568125207
 31
0.0
  0
LINE
  5
220
330
1F
100
AcDbEntity
  8
SLD-0
  6
Continuous
 62
   179
370
    25
100
AcDbLine
 10
63.1049654169
 20
179.7568125207
 30
0.0
 11
63.1010076685
 21
179.7546369511
 31
0.0
  0
LINE
  5
221
330
1F
100
AcDbEntity
  8
SLD-0
  6
Continuous
 62
   179
370
    25
100
AcDbLine
 10
63.1010076685
 20
179.7546369511
 30
0.0
 11
63.0969783945
 21
179.7540170628
 31
0.0
  0
LINE
  5
222
330
1F
100
AcDbEntity
  8
SLD-0
  6
Continuous
 62
   179
370
    25
100
AcDbLine
 10
63.0969783945
 20
179.7540170628
 30
0.0
 11
63.095059125
 21
179.7543061454
 31
0.0
  0
LINE
  5
223
330
1F
100
AcDbEntity
  8
SLD-0
  6
Continuous
 62
   179
370
    25
100
AcDbLine
 10
61.3022110148
 20
181.0419542271
 30
0.0
 11
61.3022110148
 21
181.0495866019
 31
0.0
  0
LINE
  5
224
330
1F
100
AcDbEntity
  8
SLD-0
  6
Continuous
 62
   179
370
    25
100
AcDbLine
 10
121.441640584
 20
165.4767227847
 30
0.0
 11
121.3538071795
 21
165.4539895732
 31
0.0
  0
LINE
  5
225
330
1F
100
AcDbEntity
  8
SLD-0
  6
Continuous
 62
   179
370
    25
100
AcDbLine
 10
121.5123555346
 20
165.3984320838
 30
0.0
 11
121.441640584
 21
165.4767227847
 31
0.0
  0
LINE
  5
226
330
1F
100
AcDbEntity
  8
SLD-0
  6
Continuous
 62
   179
370
    25
100
AcDbLine
 10
121.5123555346
 20
164.9347884137
 30
0.0
 11
121.5123555346
 21
165.3984320838
 31
0.0
  0
LINE
  5
227
330
1F
100
AcDbEntity
  8
SLD-0
  6
Continuous
 62
   179
370
    25
100
AcDbLine
 10
121.4275023623
 20
164.893509217
 30
0.0
 11
121.4982053919
 21
164.9118078429
 31
0.0
  0
LINE
  5
228
330
1F
100
AcDbEntity
  8
SLD-0
  6
Continuous
 62
   179
370
    25
100
AcDbLine
 10
121.4062831087
 20
164.2601651627
 30
0.0
 11
121.4062831087
 21
164.8590398509
 31
0.0
  0
LINE
  5
229
330
1F
100
AcDbEntity
  8
SLD-0
  6
Continuous
 62
   179
370
    25
100
AcDbLine
 10
121.3787338419
 20
164.253033467
 30
0.0
 11
121.4062831087
 21
164.2601651627
 31
0.0
  0
LINE
  5
22A
330
1F
100
AcDbEntity
  8
SLD-0
  6
Continuous
 62
   179
370
    25
100
AcDbLine
 10
121.3197133227
 20
164.3752110679
 30
0.0
 11
121.3451883478
 21
164.2773789841
 31
0.0
  0
LINE
  5
22B
330
1F
100
AcDbEntity
  8
SLD-0
  6
Continuous
 62
   179
370
    25
100
AcDbLine
 10
121.3178894205
 20
164.4673687894
 30
0.0
 11
121.3178894205
 21
164.3900138814
 31
0.0
  0
LINE
  5
22C
330
1F
100
AcDbEntity
  8
SLD-0
  6
Continuous
 62
   179
370
    25
100
AcDbLine
 10
121.3276645823
 20
164.5079982955
 30
0.0
 11
121.3216325922
 21
164.4899351079
 31
0.0
  0
LINE
  5
22D
330
1F
100
AcDbEntity
  8
SLD-0
  6
Continuous
 62
   179
370
    25
100
AcDbLine
 10
121.3216325922
 20
164.5661307055
 30
0.0
 11
121.3276645823
 21
164.5511937816
 31
0.0
  0
LINE
  5
22E
330
1F
100
AcDbEntity
  8
SLD-0
  6
Continuous
 62
   179
370
    25
100
AcDbLine
 10
121.3178894205
 20
164.6605534036
 30
0.0
 11
121.3178894205
 21
164.5867628533
 31
0.0
  0
LINE
  5
22F
330
1F
100
AcDbEntity
  8
SLD-0
  6
Continuous
 62
   179
370
    25
100
AcDbLine
 10
121.3276645823
 20
164.7011829097
 30
0.0
 11
121.3216325922
 21
164.6831197221
 31
0.0
  0
LINE
  5
230
330
1F
100
AcDbEntity
  8
SLD-0
  6
Continuous
 62
   179
370
    25
100
AcDbLine
 10
121.3216325922
 20
164.7593153197
 30
0.0
 11
121.3276645823
 21
164.744381376
 31
0.0
  0
LINE
  5
231
330
1F
100
AcDbEntity
  8
SLD-0
  6
Continuous
 62
   179
370
    25
100
AcDbLine
 10
121.3178894205
 20
164.8537380177
 30
0.0
 11
121.3178894205
 21
164.7799504477
 31
0.0
  0
LINE
  5
232
330
1F
100
AcDbEntity
  8
SLD-0
  6
Continuous
 62
   179
370
    25
100
AcDbLine
 10
121.3318369074
 20
164.9068487365
 30
0.0
 11
121.3216325922
 21
164.8763043362
 31
0.0
  0
LINE
  5
233
330
1F
100
AcDbEntity
  8
SLD-0
  6
Continuous
 62
   179
370
    25
100
AcDbLine
 10
121.3355800791
 20
164.9429214675
 30
0.0
 11
121.3355800791
 21
164.929415055
 31
0.0
  0
LINE
  5
234
330
1F
100
AcDbEntity
  8
SLD-0
  6
Continuous
 62
   179
370
    25
100
AcDbLine
 10
121.4062831087
 20
164.2601651627
 30
0.0
 11
192.1169659777
 21
145.9588957507
 31
0.0
  0
LINE
  5
235
330
1F
100
AcDbEntity
  8
SLD-0
  6
Continuous
 62
   179
370
    25
100
AcDbLine
 10
192.0894047899
 20
145.9517670352
 30
0.0
 11
192.1169659777
 21
145.9588957507
 31
0.0
  0
LINE
  5
236
330
1F
100
AcDbEntity
  8
SLD-0
  6
Continuous
 62
   179
370
    25
100
AcDbLine
 10
121.3787338419
 20
164.253033467
 30
0.0
 11
192.0894047899
 21
145.9517670352
 31
0.0
  0
LINE
  5
237
330
1F
100
AcDbEntity
  8
SLD-0
  6
Continuous
 62
   179
370
    25
100
AcDbLine
 10
192.1169659777
 20
145.9588957507
 30
0.0
 11
192.1169659777
 21
146.5577674586
 31
0.0
  0
LINE
  5
238
330
1F
100
AcDbEntity
  8
SLD-0
  6
Continuous
 62
   179
370
    25
100
AcDbLine
 10
192.2230384035
 20
147.097165652
 30
0.0
 11
181.0253522082
 21
149.9953342158
 31
0.0
  0
LINE
  5
239
330
1F
100
AcDbEntity
  8
SLD-0
  6
Continuous
 62
   179
370
    25
100
AcDbLine
 10
179.8611066027
 20
150.2966654975
 30
0.0
 11
134.0027591868
 21
162.1656758267
 31
0.0
  0
LINE
  5
23A
330
1F
100
AcDbEntity
  8
SLD-0
  6
Continuous
 62
   179
370
    25
100
AcDbLine
 10
132.8385016604
 20
162.4670100886
 30
0.0
 11
121.5123555346
 21
165.3984320838
 31
0.0
  0
LINE
  5
23B
330
1F
100
AcDbEntity
  8
SLD-0
  6
Continuous
 62
   179
370
    25
100
AcDbLine
 10
192.2230384035
 20
146.6335190017
 30
0.0
 11
192.2230384035
 21
147.097165652
 31
0.0
  0
LINE
  5
23C
330
1F
100
AcDbEntity
  8
SLD-0
  6
Continuous
 62
   179
370
    25
100
AcDbLine
 10
192.1381852312
 20
146.5922368247
 30
0.0
 11
192.2088763399
 21
146.6105414111
 31
0.0
  0
LINE
  5
23D
330
1F
100
AcDbEntity
  8
SLD-0
  6
Continuous
 62
   179
370
    25
100
AcDbLine
 10
121.441640584
 20
165.4767227847
 30
0.0
 11
132.8414699717
 21
162.5262302834
 31
0.0
  0
LINE
  5
23E
330
1F
100
AcDbEntity
  8
SLD-0
  6
Continuous
 62
   179
370
    25
100
AcDbLine
 10
134.0057274981
 20
162.2248990018
 30
0.0
 11
179.8640629931
 21
150.3558827121
 31
0.0
  0
LINE
  5
23F
330
1F
100
AcDbEntity
  8
SLD-0
  6
Continuous
 62
   179
370
    25
100
AcDbLine
 10
181.0283324404
 20
150.0545514304
 30
0.0
 11
192.152323453
 21
147.1754503924
 31
0.0
  0
LINE
  5
240
330
1F
100
AcDbEntity
  8
SLD-0
  6
Continuous
 62
   179
370
    25
100
AcDbLine
 10
192.152323453
 20
147.1754503924
 30
0.0
 11
192.2230384035
 21
147.097165652
 31
0.0
  0
LINE
  5
241
330
1F
100
AcDbEntity
  8
SLD-0
  6
Continuous
 62
   179
370
    25
100
AcDbLine
 10
49.9531409426
 20
183.6498839337
 30
0.0
 11
49.9459287806
 21
183.6381626803
 31
0.0
  0
LINE
  5
242
330
1F
100
AcDbEntity
  8
SLD-0
  6
Continuous
 62
   179
370
    25
100
AcDbLine
 10
50.5895397349
 20
183.8145954091
 30
0.0
 11
49.9531409426
 21
183.6498839337
 31
0.0
  0
LINE
  5
243
330
1F
100
AcDbEntity
  8
SLD-0
  6
Continuous
 62
   179
370
    25
100
AcDbLine
 10
50.6602427645
 20
183.7363076884
 30
0.0
 11
50.5895397349
 21
183.8145954091
 31
0.0
  0
LINE
  5
244
330
1F
100
AcDbEntity
  8
SLD-0
  6
Continuous
 62
   179
370
    25
100
AcDbLine
 10
50.6602427645
 20
183.2726610381
 30
0.0
 11
50.6602427645
 21
183.7363076884
 31
0.0
  0
LINE
  5
245
330
1F
100
AcDbEntity
  8
SLD-0
  6
Continuous
 62
   179
370
    25
100
AcDbLine
 10
50.5753895922
 20
183.2313818414
 30
0.0
 11
50.6461045428
 21
183.2496834475
 31
0.0
  0
LINE
  5
246
330
1F
100
AcDbEntity
  8
SLD-0
  6
Continuous
 62
   179
370
    25
100
AcDbLine
 10
50.5541822596
 20
182.5980407674
 30
0.0
 11
50.5541822596
 21
183.1969124753
 31
0.0
  0
LINE
  5
247
330
1F
100
AcDbEntity
  8
SLD-0
  6
Continuous
 62
   179
370
    25
100
AcDbLine
 10
50.5266329928
 20
182.5909090716
 30
0.0
 11
50.5541822596
 21
182.5980407674
 31
0.0
  0
LINE
  5
248
330
1F
100
AcDbEntity
  8
SLD-0
  6
Continuous
 62
   179
370
    25
100
AcDbLine
 10
50.4676124735
 20
182.7130866725
 30
0.0
 11
50.4930874987
 21
182.6152516085
 31
0.0
  0
LINE
  5
249
330
1F
100
AcDbEntity
  8
SLD-0
  6
Continuous
 62
   179
370
    25
100
AcDbLine
 10
50.4657885714
 20
182.8052414138
 30
0.0
 11
50.4657885714
 21
182.727889486
 31
0.0
  0
LINE
  5
24A
330
1F
100
AcDbEntity
  8
SLD-0
  6
Continuous
 62
   179
370
    25
100
AcDbLine
 10
50.4755637331
 20
182.8458709199
 30
0.0
 11
50.4695198221
 21
182.8278077323
 31
0.0
  0
LINE
  5
24B
330
1F
100
AcDbEntity
  8
SLD-0
  6
Continuous
 62
   179
370
    25
100
AcDbLine
 10
50.4695198221
 20
182.9040063102
 30
0.0
 11
50.4755637331
 21
182.8890693862
 31
0.0
  0
LINE
  5
24C
330
1F
100
AcDbEntity
  8
SLD-0
  6
Continuous
 62
   179
370
    25
100
AcDbLine
 10
50.4657885714
 20
182.9984290082
 30
0.0
 11
50.4657885714
 21
182.9246384579
 31
0.0
  0
LINE
  5
24D
330
1F
100
AcDbEntity
  8
SLD-0
  6
Continuous
 62
   179
370
    25
100
AcDbLine
 10
50.4755637331
 20
183.0390555341
 30
0.0
 11
50.4695198221
 21
183.0209923465
 31
0.0
  0
LINE
  5
24E
330
1F
100
AcDbEntity
  8
SLD-0
  6
Continuous
 62
   179
370
    25
100
AcDbLine
 10
50.4695198221
 20
183.0971909243
 30
0.0
 11
50.4755637331
 21
183.0822540004
 31
0.0
  0
LINE
  5
24F
330
1F
100
AcDbEntity
  8
SLD-0
  6
Continuous
 62
   179
370
    25
100
AcDbLine
 10
50.4657885714
 20
183.1916136224
 30
0.0
 11
50.4657885714
 21
183.1178230721
 31
0.0
  0
LINE
  5
250
330
1F
100
AcDbEntity
  8
SLD-0
  6
Continuous
 62
   179
370
    25
100
AcDbLine
 10
50.4797360583
 20
183.2447213609
 30
0.0
 11
50.4695198221
 21
183.2141769606
 31
0.0
  0
LINE
  5
251
330
1F
100
AcDbEntity
  8
SLD-0
  6
Continuous
 62
   179
370
    25
100
AcDbLine
 10
50.483467309
 20
183.6422575194
 30
0.0
 11
50.483467309
 21
183.2672876794
 31
0.0
  0
LINE
  5
252
330
1F
100
AcDbEntity
  8
SLD-0
  6
Continuous
 62
   179
370
    25
100
AcDbLine
 10
50.2067944689
 20
183.570645519
 30
0.0
 11
50.483467309
 21
183.6422575194
 31
0.0
  0
LINE
  5
253
330
1F
100
AcDbEntity
  8
SLD-0
  6
Continuous
 62
   179
370
    25
100
AcDbLine
 10
50.0592014475
 20
183.1574780423
 30
0.0
 11
50.0592014475
 21
183.2989586074
 31
0.0
  0
LINE
  5
254
330
1F
100
AcDbEntity
  8
SLD-0
  6
Continuous
 62
   179
370
    25
100
AcDbLine
 10
50.0731489344
 20
183.1115884263
 30
0.0
 11
50.0629326983
 21
183.1368458945
 31
0.0
  0
LINE
  5
255
330
1F
100
AcDbEntity
  8
SLD-0
  6
Continuous
 62
   179
370
    25
100
AcDbLine
 10
50.0768801851
 20
183.0171657283
 30
0.0
 11
50.0768801851
 21
183.0909562785
 31
0.0
  0
LINE
  5
256
330
1F
100
AcDbEntity
  8
SLD-0
  6
Continuous
 62
   179
370
    25
100
AcDbLine
 10
50.0768563433
 20
183.0150616843
 30
0.0
 11
50.0768801851
 21
183.0171657283
 31
0.0
  0
LINE
  5
257
330
1F
100
AcDbEntity
  8
SLD-0
  6
Continuous
 62
   179
370
    25
100
AcDbLine
 10
50.0768801851
 20
182.6272321421
 30
0.0
 11
50.0768801851
 21
182.7045870501
 31
0.0
  0
LINE
  5
258
330
1F
100
AcDbEntity
  8
SLD-0
  6
Continuous
 62
   179
370
    25
100
AcDbLine
 10
50.0495812578
 20
182.5004649836
 30
0.0
 11
50.0750682039
 21
182.6114905555
 31
0.0
  0
LINE
  5
259
330
1F
100
AcDbEntity
  8
SLD-0
  6
Continuous
 62
   179
370
    25
100
AcDbLine
 10
49.9884984179
 20
182.4516279179
 30
0.0
 11
50.0160476847
 21
182.4587596137
 31
0.0
  0
LINE
  5
25A
330
1F
100
AcDbEntity
  8
SLD-0
  6
Continuous
 62
   179
370
    25
100
AcDbLine
 10
49.9884984179
 20
183.0505026061
 30
0.0
 11
49.9884984179
 21
183.0379290063
 31
0.0
  0
LINE
  5
25B
330
1F
100
AcDbEntity
  8
SLD-0
  6
Continuous
 62
   179
370
    25
100
AcDbLine
 10
49.9884984179
 20
182.7280444581
 30
0.0
 11
49.9884984179
 21
182.4516279179
 31
0.0
  0
LINE
  5
25C
330
1F
100
AcDbEntity
  8
SLD-0
  6
Continuous
 62
   179
370
    25
100
AcDbLine
 10
49.9672791643
 20
183.0739898164
 30
0.0
 11
49.9714157267
 21
183.0745053965
 31
0.0
  0
LINE
  5
25D
330
1F
100
AcDbEntity
  8
SLD-0
  6
Continuous
 62
   179
370
    25
100
AcDbLine
 10
49.9714157267
 20
183.0745053965
 30
0.0
 11
49.975397317
 21
183.0738855082
 31
0.0
  0
LINE
  5
25E
330
1F
100
AcDbEntity
  8
SLD-0
  6
Continuous
 62
   179
370
    25
100
AcDbLine
 10
49.975397317
 20
183.0738855082
 30
0.0
 11
49.9790689631
 21
183.0721569735
 31
0.0
  0
LINE
  5
25F
330
1F
100
AcDbEntity
  8
SLD-0
  6
Continuous
 62
   179
370
    25
100
AcDbLine
 10
49.9790689631
 20
183.0721569735
 30
0.0
 11
49.9822876139
 21
183.0693853576
 31
0.0
  0
LINE
  5
260
330
1F
100
AcDbEntity
  8
SLD-0
  6
Continuous
 62
   179
370
    25
100
AcDbLine
 10
49.9822876139
 20
183.0693853576
 30
0.0
 11
49.9849221392
 21
183.0656779487
 31
0.0
  0
LINE
  5
261
330
1F
100
AcDbEntity
  8
SLD-0
  6
Continuous
 62
   179
370
    25
100
AcDbLine
 10
49.9849221392
 20
183.0656779487
 30
0.0
 11
49.9868771715
 21
183.0611748177
 31
0.0
  0
LINE
  5
262
330
1F
100
AcDbEntity
  8
SLD-0
  6
Continuous
 62
   179
370
    25
100
AcDbLine
 10
49.9868771715
 20
183.0611748177
 30
0.0
 11
49.9880811854
 21
183.0560517985
 31
0.0
  0
LINE
  5
263
330
1F
100
AcDbEntity
  8
SLD-0
  6
Continuous
 62
   179
370
    25
100
AcDbLine
 10
49.9880811854
 20
183.0560517985
 30
0.0
 11
49.9884984179
 21
183.0505026061
 31
0.0
  0
LINE
  5
264
330
1F
100
AcDbEntity
  8
SLD-0
  6
Continuous
 62
   179
370
    25
100
AcDbLine
 10
49.9082228823
 20
183.0587071854
 30
0.0
 11
49.9672791643
 21
183.0739898164
 31
0.0
  0
LINE
  5
265
330
1F
100
AcDbEntity
  8
SLD-0
  6
Continuous
 62
   179
370
    25
100
AcDbLine
 10
49.882425992
 20
183.0713463504
 30
0.0
 11
49.8827001734
 21
183.0676508624
 31
0.0
  0
LINE
  5
266
330
1F
100
AcDbEntity
  8
SLD-0
  6
Continuous
 62
   179
370
    25
100
AcDbLine
 10
49.8827001734
 20
183.0676508624
 30
0.0
 11
49.8832246943
 21
183.0651772696
 31
0.0
  0
LINE
  5
267
330
1F
100
AcDbEntity
  8
SLD-0
  6
Continuous
 62
   179
370
    25
100
AcDbLine
 10
49.882425992
 20
183.3447111327
 30
0.0
 11
49.882425992
 21
183.0713463504
 31
0.0
  0
LINE
  5
268
330
1F
100
AcDbEntity
  8
SLD-0
  6
Continuous
 62
   179
370
    25
100
AcDbLine
 10
50.5541822596
 20
182.5980407674
 30
0.0
 11
121.2648651285
 21
164.2967683751
 31
0.0
  0
LINE
  5
269
330
1F
100
AcDbEntity
  8
SLD-0
  6
Continuous
 62
   179
370
    25
100
AcDbLine
 10
121.2648651285
 20
164.2967683751
 30
0.0
 11
121.2648651285
 21
164.8956430632
 31
0.0
  0
LINE
  5
26A
330
1F
100
AcDbEntity
  8
SLD-0
  6
Continuous
 62
   179
370
    25
100
AcDbLine
 10
121.2373158617
 20
164.2896366793
 30
0.0
 11
121.2648651285
 21
164.2967683751
 31
0.0
  0
LINE
  5
26B
330
1F
100
AcDbEntity
  8
SLD-0
  6
Continuous
 62
   179
370
    25
100
AcDbLine
 10
50.5266329928
 20
182.5909090716
 30
0.0
 11
121.2373158617
 21
164.2896366793
 31
0.0
  0
LINE
  5
26C
330
1F
100
AcDbEntity
  8
SLD-0
  6
Continuous
 62
   179
370
    25
100
AcDbLine
 10
121.3709256334
 20
165.4350352961
 30
0.0
 11
110.1732632799
 21
168.33320386
 31
0.0
  0
LINE
  5
26D
330
1F
100
AcDbEntity
  8
SLD-0
  6
Continuous
 62
   179
370
    25
100
AcDbLine
 10
109.0090057535
 20
168.6345381219
 30
0.0
 11
63.1506583376
 21
180.5035484511
 31
0.0
  0
LINE
  5
26E
330
1F
100
AcDbEntity
  8
SLD-0
  6
Continuous
 62
   179
370
    25
100
AcDbLine
 10
61.9864008112
 20
180.804882713
 30
0.0
 11
50.6602427645
 21
183.7363076884
 31
0.0
  0
LINE
  5
26F
330
1F
100
AcDbEntity
  8
SLD-0
  6
Continuous
 62
   179
370
    25
100
AcDbLine
 10
121.3709256335
 20
164.9713916261
 30
0.0
 11
121.3709256334
 21
165.4350352961
 31
0.0
  0
LINE
  5
270
330
1F
100
AcDbEntity
  8
SLD-0
  6
Continuous
 62
   179
370
    25
100
AcDbLine
 10
121.2860724611
 20
164.9301094491
 30
0.0
 11
121.3567874117
 21
164.9484110553
 31
0.0
  0
LINE
  5
271
330
1F
100
AcDbEntity
  8
SLD-0
  6
Continuous
 62
   179
370
    25
100
AcDbLine
 10
50.5895397349
 20
183.8145954091
 30
0.0
 11
61.9893691225
 21
180.8641029078
 31
0.0
  0
LINE
  5
272
330
1F
100
AcDbEntity
  8
SLD-0
  6
Continuous
 62
   179
370
    25
100
AcDbLine
 10
63.1536266489
 20
180.5627716262
 30
0.0
 11
109.0119740648
 21
168.6937583167
 31
0.0
  0
LINE
  5
273
330
1F
100
AcDbEntity
  8
SLD-0
  6
Continuous
 62
   179
370
    25
100
AcDbLine
 10
110.1762315912
 20
168.392427035
 30
0.0
 11
121.3002106829
 21
165.5133259971
 31
0.0
  0
LINE
  5
274
330
1F
100
AcDbEntity
  8
SLD-0
  6
Continuous
 62
   179
370
    25
100
AcDbLine
 10
121.3002106829
 20
165.5133259971
 30
0.0
 11
121.3709256334
 21
165.4350352961
 31
0.0
  0
LINE
  5
275
330
1F
100
AcDbEntity
  8
SLD-0
  6
Continuous
 62
   179
370
    25
100
AcDbLine
 10
49.9884984179
 20
182.4516279179
 30
0.0
 11
50.1182338877
 21
182.4180496413
 31
0.0
  0
LINE
  5
276
330
1F
100
AcDbEntity
  8
SLD-0
  6
Continuous
 62
     8
370
    25
100
AcDbLine
 10
121.3313839121
 20
164.3303913552
 30
0.0
 11
121.2648651285
 21
164.3476081569
 31
0.0
  0
LINE
  5
277
330
1F
100
AcDbEntity
  8
SLD-0
  6
Continuous
 62
     8
370
    25
100
AcDbLine
 10
50.479283063
 20
182.6682609994
 30
0.0
 11
50.4657885714
 21
182.6717538316
 31
0.0
  0
LINE
  5
278
330
1F
100
AcDbEntity
  8
SLD-0
  6
Continuous
 62
     8
370
    25
100
AcDbLine
 10
108.3389541788
 20
168.9022225816
 30
0.0
 11
108.8904997988
 21
168.7594724376
 31
0.0
  0
LINE
  5
279
330
1F
100
AcDbEntity
  8
SLD-0
  6
Continuous
 62
     8
370
    25
100
AcDbLine
 10
108.8857195063
 20
169.0388841111
 30
0.0
 11
108.8763496561
 21
169.0413100201
 31
0.0
  0
LINE
  5
27A
330
1F
100
AcDbEntity
  8
SLD-0
  6
Continuous
 62
     8
370
    25
100
AcDbLine
 10
108.5546157046
 20
169.1410524327
 30
0.0
 11
108.5546157046
 21
169.058696695
 31
0.0
  0
LINE
  5
27B
330
1F
100
AcDbEntity
  8
SLD-0
  6
Continuous
 62
     8
370
    25
100
AcDbLine
 10
109.0084573908
 20
168.7325758416
 30
0.0
 11
108.9990756197
 21
168.7350017506
 31
0.0
  0
LINE
  5
27C
330
1F
100
AcDbEntity
  8
SLD-0
  6
Continuous
 62
     8
370
    25
100
AcDbLine
 10
108.2010647936
 20
169.1319031197
 30
0.0
 11
108.2010647936
 21
168.9671916444
 31
0.0
  0
LINE
  5
27D
330
1F
100
AcDbEntity
  8
SLD-0
  6
Continuous
 62
     8
370
    25
100
AcDbLine
 10
108.8904997988
 20
168.7328321416
 30
0.0
 11
108.3248040362
 21
168.8792420108
 31
0.0
  0
LINE
  5
27E
330
1F
100
AcDbEntity
  8
SLD-0
  6
Continuous
 62
     8
370
    25
100
AcDbLine
 10
132.1684500857
 20
162.7346945483
 30
0.0
 11
132.7199957056
 21
162.5919444043
 31
0.0
  0
LINE
  5
27F
330
1F
100
AcDbEntity
  8
SLD-0
  6
Continuous
 62
     8
370
    25
100
AcDbLine
 10
132.7152154131
 20
162.8713560778
 30
0.0
 11
132.705845563
 21
162.8737819869
 31
0.0
  0
LINE
  5
280
330
1F
100
AcDbEntity
  8
SLD-0
  6
Continuous
 62
     8
370
    25
100
AcDbLine
 10
132.3841116114
 20
162.9735243995
 30
0.0
 11
132.3841116114
 21
162.8911686618
 31
0.0
  0
LINE
  5
281
330
1F
100
AcDbEntity
  8
SLD-0
  6
Continuous
 62
     8
370
    25
100
AcDbLine
 10
132.8379532976
 20
162.5650478083
 30
0.0
 11
132.8285834475
 21
162.5674737174
 31
0.0
  0
LINE
  5
282
330
1F
100
AcDbEntity
  8
SLD-0
  6
Continuous
 62
     8
370
    25
100
AcDbLine
 10
132.0305607004
 20
162.9643750865
 30
0.0
 11
132.0305607004
 21
162.7996636111
 31
0.0
  0
LINE
  5
283
330
1F
100
AcDbEntity
  8
SLD-0
  6
Continuous
 62
     8
370
    25
100
AcDbLine
 10
132.7199957056
 20
162.5653041083
 30
0.0
 11
132.1543118639
 21
162.7117139775
 31
0.0
  0
LINE
  5
284
330
1F
100
AcDbEntity
  8
SLD-0
  6
Continuous
 62
     8
370
    25
100
AcDbLine
 10
179.191055028
 20
150.5643499572
 30
0.0
 11
179.742588727
 21
150.4215968329
 31
0.0
  0
LINE
  5
285
330
1F
100
AcDbEntity
  8
SLD-0
  6
Continuous
 62
     8
370
    25
100
AcDbLine
 10
179.7378203554
 20
150.7010114867
 30
0.0
 11
179.7284505053
 21
150.7034373957
 31
0.0
  0
LINE
  5
286
330
1F
100
AcDbEntity
  8
SLD-0
  6
Continuous
 62
     8
370
    25
100
AcDbLine
 10
179.4067046328
 20
150.8031798083
 30
0.0
 11
179.4067046328
 21
150.7208240706
 31
0.0
  0
LINE
  5
287
330
1F
100
AcDbEntity
  8
SLD-0
  6
Continuous
 62
     8
370
    25
100
AcDbLine
 10
179.86055824
 20
150.3947032172
 30
0.0
 11
179.8511883898
 21
150.3971291262
 31
0.0
  0
LINE
  5
288
330
1F
100
AcDbEntity
  8
SLD-0
  6
Continuous
 62
     8
370
    25
100
AcDbLine
 10
179.0531537218
 20
150.7940304953
 30
0.0
 11
179.0531537218
 21
150.62931902
 31
0.0
  0
LINE
  5
289
330
1F
100
AcDbEntity
  8
SLD-0
  6
Continuous
 62
     8
370
    25
100
AcDbLine
 10
179.742588727
 20
150.3949595172
 30
0.0
 11
179.1769168062
 21
150.5413723666
 31
0.0
  0
LINE
  5
28A
330
1F
100
AcDbEntity
  8
SLD-0
  6
Continuous
 62
     8
370
    25
100
AcDbLine
 10
61.3163492365
 20
181.0725671727
 30
0.0
 11
61.8678948565
 21
180.9298170287
 31
0.0
  0
LINE
  5
28B
330
1F
100
AcDbEntity
  8
SLD-0
  6
Continuous
 62
     8
370
    25
100
AcDbLine
 10
61.863114564
 20
181.2092316825
 30
0.0
 11
61.8537566347
 21
181.2116546113
 31
0.0
  0
LINE
  5
28C
330
1F
100
AcDbEntity
  8
SLD-0
  6
Continuous
 62
     8
370
    25
100
AcDbLine
 10
61.5320107622
 20
181.3113970239
 30
0.0
 11
61.5320107622
 21
181.2290412862
 31
0.0
  0
LINE
  5
28D
330
1F
100
AcDbEntity
  8
SLD-0
  6
Continuous
 62
     8
370
    25
100
AcDbLine
 10
61.9858524485
 20
180.9029204327
 30
0.0
 11
61.9764825983
 21
180.9053463418
 31
0.0
  0
LINE
  5
28E
330
1F
100
AcDbEntity
  8
SLD-0
  6
Continuous
 62
     8
370
    25
100
AcDbLine
 10
61.1784598513
 20
181.3022477109
 30
0.0
 11
61.1784598513
 21
181.1375362355
 31
0.0
  0
LINE
  5
28F
330
1F
100
AcDbEntity
  8
SLD-0
  6
Continuous
 62
     8
370
    25
100
AcDbLine
 10
61.8678948565
 20
180.9031767327
 30
0.0
 11
61.3022110148
 21
181.0495866019
 31
0.0
  0
LINE
  5
290
330
1F
100
AcDbEntity
  8
SLD-0
  6
Continuous
 62
     7
370
    25
100
AcDbLine
 10
192.1169659777
 20
146.5577674586
 30
0.0
 11
180.9973141833
 21
149.4357479293
 31
0.0
  0
LINE
  5
291
330
1F
100
AcDbEntity
  8
SLD-0
  6
Continuous
 62
     7
370
    25
100
AcDbLine
 10
179.8148295565
 20
149.7417998988
 30
0.0
 11
133.97469732
 21
161.6060955006
 31
0.0
  0
LINE
  5
292
330
1F
100
AcDbEntity
  8
SLD-0
  6
Continuous
 62
     7
370
    25
100
AcDbLine
 10
132.7922126932
 20
161.9121444899
 30
0.0
 11
121.4062831087
 21
164.8590398509
 31
0.0
  0
LINE
  5
293
330
1F
100
AcDbEntity
  8
SLD-0
  6
Continuous
 62
     7
370
    25
100
AcDbLine
 10
121.5123555346
 20
164.9347884137
 30
0.0
 11
132.8260562105
 21
162.0065850694
 31
0.0
  0
LINE
  5
294
330
1F
100
AcDbEntity
  8
SLD-0
  6
Continuous
 62
     7
370
    25
100
AcDbLine
 10
133.9798113985
 20
161.7079717595
 30
0.0
 11
179.8486611529
 21
149.836237498
 31
0.0
  0
LINE
  5
295
330
1F
100
AcDbEntity
  8
SLD-0
  6
Continuous
 62
     7
370
    25
100
AcDbLine
 10
181.0024163408
 20
149.5376301486
 30
0.0
 11
192.2230384035
 21
146.6335190017
 31
0.0
  0
LINE
  5
296
330
1F
100
AcDbEntity
  8
SLD-0
  6
Continuous
 62
     7
370
    25
100
AcDbLine
 10
192.2088763399
 20
146.6105414111
 30
0.0
 11
181.0010811968
 21
149.5113325793
 31
0.0
  0
LINE
  5
297
330
1F
100
AcDbEntity
  8
SLD-0
  6
Continuous
 62
     7
370
    25
100
AcDbLine
 10
179.8368355913
 20
149.812663861
 30
0.0
 11
133.9784881754
 21
161.6816741902
 31
0.0
  0
LINE
  5
298
330
1F
100
AcDbEntity
  8
SLD-0
  6
Continuous
 62
     7
370
    25
100
AcDbLine
 10
132.814230649
 20
161.9830054719
 30
0.0
 11
121.4982053919
 21
164.9118078429
 31
0.0
  0
LINE
  5
299
330
1F
100
AcDbEntity
  8
SLD-0
  6
Continuous
 62
     7
370
    25
100
AcDbLine
 10
121.4275023623
 20
164.893509217
 30
0.0
 11
132.8122636957
 21
161.9469118792
 31
0.0
  0
LINE
  5
29A
330
1F
100
AcDbEntity
  8
SLD-0
  6
Continuous
 62
     7
370
    25
100
AcDbLine
 10
133.9766761942
 20
161.6455418546
 30
0.0
 11
179.834880559
 21
149.7765672881
 31
0.0
  0
LINE
  5
29B
330
1F
100
AcDbEntity
  8
SLD-0
  6
Continuous
 62
     7
370
    25
100
AcDbLine
 10
180.9992692156
 20
149.4751942832
 30
0.0
 11
192.1381852312
 21
146.5922368247
 31
0.0
  0
LINE
  5
29C
330
1F
100
AcDbEntity
  8
SLD-0
  6
Continuous
 62
     7
370
    25
100
AcDbLine
 10
121.2648651285
 20
164.8956430632
 30
0.0
 11
110.1452014132
 21
167.7736235339
 31
0.0
  0
LINE
  5
29D
330
1F
100
AcDbEntity
  8
SLD-0
  6
Continuous
 62
     7
370
    25
100
AcDbLine
 10
108.9627167864
 20
168.0796725232
 30
0.0
 11
63.1225964709
 21
179.943968125
 31
0.0
  0
LINE
  5
29E
330
1F
100
AcDbEntity
  8
SLD-0
  6
Continuous
 62
     7
370
    25
100
AcDbLine
 10
61.940123765
 20
180.2500171143
 30
0.0
 11
50.5541822596
 21
183.1969124753
 31
0.0
  0
LINE
  5
29F
330
1F
100
AcDbEntity
  8
SLD-0
  6
Continuous
 62
     7
370
    25
100
AcDbLine
 10
50.6602427645
 20
183.2726610381
 30
0.0
 11
61.9739672823
 21
180.3444576938
 31
0.0
  0
LINE
  5
2A0
330
1F
100
AcDbEntity
  8
SLD-0
  6
Continuous
 62
     7
370
    25
100
AcDbLine
 10
63.1277105494
 20
180.0458443839
 30
0.0
 11
108.9965603037
 21
168.1741131026
 31
0.0
  0
LINE
  5
2A1
330
1F
100
AcDbEntity
  8
SLD-0
  6
Continuous
 62
     7
370
    25
100
AcDbLine
 10
110.1503154917
 20
167.8754997928
 30
0.0
 11
121.3709256335
 21
164.9713916261
 31
0.0
  0
LINE
  5
2A2
330
1F
100
AcDbEntity
  8
SLD-0
  6
Continuous
 62
     7
370
    25
100
AcDbLine
 10
121.3567874117
 20
164.9484110553
 30
0.0
 11
110.1489922686
 21
167.8492022235
 31
0.0
  0
LINE
  5
2A3
330
1F
100
AcDbEntity
  8
SLD-0
  6
Continuous
 62
     7
370
    25
100
AcDbLine
 10
108.9847347422
 20
168.1505335051
 30
0.0
 11
63.1263873263
 21
180.0195468146
 31
0.0
  0
LINE
  5
2A4
330
1F
100
AcDbEntity
  8
SLD-0
  6
Continuous
 62
     7
370
    25
100
AcDbLine
 10
61.9621297999
 20
180.3208780963
 30
0.0
 11
50.6461045428
 21
183.2496834475
 31
0.0
  0
LINE
  5
2A5
330
1F
100
AcDbEntity
  8
SLD-0
  6
Continuous
 62
     7
370
    25
100
AcDbLine
 10
50.5753895922
 20
183.2313818414
 30
0.0
 11
61.9601628466
 21
180.2847845036
 31
0.0
  0
LINE
  5
2A6
330
1F
100
AcDbEntity
  8
SLD-0
  6
Continuous
 62
     7
370
    25
100
AcDbLine
 10
63.1245753451
 20
179.983414479
 30
0.0
 11
108.9827677889
 21
168.1144399125
 31
0.0
  0
LINE
  5
2A7
330
1F
100
AcDbEntity
  8
SLD-0
  6
Continuous
 62
     7
370
    25
100
AcDbLine
 10
110.1471802874
 20
167.8130698878
 30
0.0
 11
121.2860724611
 21
164.9301094491
 31
0.0
  0
LINE
  5
2A8
330
1F
100
AcDbEntity
  8
SLD-0
  6
Continuous
 62
     8
370
    25
100
AcDbLine
 10
50.0495812578
 20
182.5004649836
 30
0.0
 11
50.0865480585
 21
182.4908984382
 31
0.0
  0
LINE
  5
2A9
330
1F
100
AcDbEntity
  8
SLD-0
  6
Continuous
 62
     8
370
    25
100
AcDbLine
 10
50.0768921061
 20
182.6110196788
 30
0.0
 11
50.0750682039
 21
182.6114905555
 31
0.0
  0
LINE
  5
2AA
330
1F
100
AcDbEntity
  8
SLD-0
  6
Continuous
 62
     8
370
    25
100
AcDbLine
 10
50.1080414934
 20
182.4349505383
 30
0.0
 11
50.0160476847
 21
182.4587596137
 31
0.0
  0
LINE
  5
2AB
330
1F
100
AcDbEntity
  8
SLD-0
  6
Continuous
 62
     8
370
    25
100
AcDbLine
 10
50.0731489344
 20
183.1115884263
 30
0.0
 11
50.0768801851
 21
183.110622831
 31
0.0
  0
LINE
  5
2AC
330
1F
100
AcDbEntity
  8
SLD-0
  6
Continuous
 62
     8
370
    25
100
AcDbLine
 10
50.0768921061
 20
183.1332368333
 30
0.0
 11
50.0629326983
 21
183.1368458945
 31
0.0
  0
LINE
  5
2AD
330
1F
100
AcDbEntity
  8
SLD-0
  6
Continuous
 62
     8
370
    25
100
AcDbLine
 10
50.0592014475
 20
183.1574780423
 30
0.0
 11
50.0768921061
 21
183.1529033858
 31
0.0
  0
LINE
  5
2AE
330
1F
100
AcDbEntity
  8
SLD-0
  6
Continuous
 62
     8
370
    25
100
AcDbLine
 10
49.9813458605
 20
183.0703509528
 30
0.0
 11
49.9672791643
 21
183.0739898164
 31
0.0
  0
LINE
  5
2AF
330
1F
100
AcDbEntity
  8
SLD-0
  6
Continuous
 62
   179
370
    25
100
AcDbLine
 10
26.2226971283
 20
189.3543529209
 30
0.0
 11
24.1043718948
 21
189.9025427994
 31
0.0
  0
LINE
  5
2B0
330
1F
100
AcDbEntity
  8
SLD-0
  6
Continuous
 62
   179
370
    25
100
AcDbLine
 10
24.0261944427
 20
189.6129655537
 30
0.0
 11
26.1475237503
 21
189.0639233288
 31
0.0
  0
LINE
  5
2B1
330
1F
100
AcDbEntity
  8
SLD-0
  6
Continuous
 62
   179
370
    25
100
AcDbLine
 10
26.2226971283
 20
189.6537887749
 30
0.0
 11
24.1043718948
 21
190.2019846138
 31
0.0
  0
LINE
  5
2B2
330
1F
100
AcDbEntity
  8
SLD-0
  6
Continuous
 62
   179
370
    25
100
AcDbLine
 10
24.0231903687
 20
189.9132537541
 30
0.0
 11
24.0637692108
 21
189.9030673203
 31
0.0
  0
LINE
  5
2B3
330
1F
100
AcDbEntity
  8
SLD-0
  6
Continuous
 62
   179
370
    25
100
AcDbLine
 10
38.9548214569
 20
186.4411699471
 30
0.0
 11
26.267042984
 21
189.7245573696
 31
0.0
  0
LINE
  5
2B4
330
1F
100
AcDbEntity
  8
SLD-0
  6
Continuous
 62
   179
370
    25
100
AcDbLine
 10
26.0911615982
 20
188.9958190617
 30
0.0
 11
39.2625721588
 21
185.5868029293
 31
0.0
  0
LINE
  5
2B5
330
1F
100
AcDbEntity
  8
SLD-0
  6
Continuous
 62
   179
370
    25
100
AcDbLine
 10
23.9657791748
 20
189.788262814
 30
0.0
 11
23.9577206268
 21
189.7307264504
 31
0.0
  0
LINE
  5
2B6
330
1F
100
AcDbEntity
  8
SLD-0
  6
Continuous
 62
   179
370
    25
100
AcDbLine
 10
23.9577206268
 20
189.7307264504
 30
0.0
 11
23.9657791748
 21
189.6773743328
 31
0.0
  0
LINE
  5
2B7
330
1F
100
AcDbEntity
  8
SLD-0
  6
Continuous
 62
   179
370
    25
100
AcDbLine
 10
23.9657791748
 20
189.6773743328
 30
0.0
 11
23.9887865677
 21
189.6363186535
 31
0.0
  0
LINE
  5
2B8
330
1F
100
AcDbEntity
  8
SLD-0
  6
Continuous
 62
   179
370
    25
100
AcDbLine
 10
23.9887865677
 20
189.6363186535
 30
0.0
 11
24.0231903687
 21
189.6138119396
 31
0.0
  0
LINE
  5
2B9
330
1F
100
AcDbEntity
  8
SLD-0
  6
Continuous
 62
   179
370
    25
100
AcDbLine
 10
24.0231903687
 20
189.6138119396
 30
0.0
 11
24.0637692108
 21
189.6132933792
 31
0.0
  0
LINE
  5
2BA
330
1F
100
AcDbEntity
  8
SLD-0
  6
Continuous
 62
   179
370
    25
100
AcDbLine
 10
24.0637692108
 20
189.6132933792
 30
0.0
 11
24.1043718948
 21
189.6348285374
 31
0.0
  0
LINE
  5
2BB
330
1F
100
AcDbEntity
  8
SLD-0
  6
Continuous
 62
   179
370
    25
100
AcDbLine
 10
24.1043718948
 20
189.6348285374
 30
0.0
 11
24.1387756958
 21
189.6751391586
 31
0.0
  0
LINE
  5
2BC
330
1F
100
AcDbEntity
  8
SLD-0
  6
Continuous
 62
   179
370
    25
100
AcDbLine
 10
24.1387756958
 20
189.6751391586
 30
0.0
 11
24.1617592468
 21
189.7280978855
 31
0.0
  0
LINE
  5
2BD
330
1F
100
AcDbEntity
  8
SLD-0
  6
Continuous
 62
   179
370
    25
100
AcDbLine
 10
24.1617592468
 20
189.7280978855
 30
0.0
 11
24.1698416367
 21
189.7856342491
 31
0.0
  0
LINE
  5
2BE
330
1F
100
AcDbEntity
  8
SLD-0
  6
Continuous
 62
   179
370
    25
100
AcDbLine
 10
24.1698416367
 20
189.7856342491
 30
0.0
 11
24.1617592468
 21
189.8389863667
 31
0.0
  0
LINE
  5
2BF
330
1F
100
AcDbEntity
  8
SLD-0
  6
Continuous
 62
   179
370
    25
100
AcDbLine
 10
24.1617592468
 20
189.8389863667
 30
0.0
 11
24.1387756958
 21
189.880042046
 31
0.0
  0
LINE
  5
2C0
330
1F
100
AcDbEntity
  8
SLD-0
  6
Continuous
 62
   179
370
    25
100
AcDbLine
 10
24.1387756958
 20
189.880042046
 30
0.0
 11
24.1043718948
 21
189.9025427994
 31
0.0
  0
LINE
  5
2C1
330
1F
100
AcDbEntity
  8
SLD-0
  6
Continuous
 62
   179
370
    25
100
AcDbLine
 10
24.1043718948
 20
189.9025427994
 30
0.0
 11
24.0637692108
 21
189.9030673203
 31
0.0
  0
LINE
  5
2C2
330
1F
100
AcDbEntity
  8
SLD-0
  6
Continuous
 62
   179
370
    25
100
AcDbLine
 10
24.0637692108
 20
189.9030673203
 30
0.0
 11
24.0231903687
 21
189.8815321621
 31
0.0
  0
LINE
  5
2C3
330
1F
100
AcDbEntity
  8
SLD-0
  6
Continuous
 62
   179
370
    25
100
AcDbLine
 10
24.0231903687
 20
189.8815321621
 30
0.0
 11
23.9887865677
 21
189.8412215408
 31
0.0
  0
LINE
  5
2C4
330
1F
100
AcDbEntity
  8
SLD-0
  6
Continuous
 62
   179
370
    25
100
AcDbLine
 10
23.9887865677
 20
189.8412215408
 30
0.0
 11
23.9657791748
 21
189.788262814
 31
0.0
  0
LINE
  5
2C5
330
1F
100
AcDbEntity
  8
SLD-0
  6
Continuous
 62
   179
370
    25
100
AcDbLine
 10
26.1475237503
 20
189.0639233288
 30
0.0
 11
26.1851223602
 21
189.0642511543
 31
0.0
  0
LINE
  5
2C6
330
1F
100
AcDbEntity
  8
SLD-0
  6
Continuous
 62
   179
370
    25
100
AcDbLine
 10
26.1851223602
 20
189.0642511543
 30
0.0
 11
26.2257012024
 21
189.0857863125
 31
0.0
  0
LINE
  5
2C7
330
1F
100
AcDbEntity
  8
SLD-0
  6
Continuous
 62
   179
370
    25
100
AcDbLine
 10
26.2257012024
 20
189.0857863125
 30
0.0
 11
26.2601050034
 21
189.1260969338
 31
0.0
  0
LINE
  5
2C8
330
1F
100
AcDbEntity
  8
SLD-0
  6
Continuous
 62
   179
370
    25
100
AcDbLine
 10
26.2601050034
 20
189.1260969338
 30
0.0
 11
26.2831123962
 21
189.1790556606
 31
0.0
  0
LINE
  5
2C9
330
1F
100
AcDbEntity
  8
SLD-0
  6
Continuous
 62
   179
370
    25
100
AcDbLine
 10
26.2831123962
 20
189.1790556606
 30
0.0
 11
26.2911709442
 21
189.2365920242
 31
0.0
  0
LINE
  5
2CA
330
1F
100
AcDbEntity
  8
SLD-0
  6
Continuous
 62
   179
370
    25
100
AcDbLine
 10
26.2911709442
 20
189.2365920242
 30
0.0
 11
26.2831123962
 21
189.2899441418
 31
0.0
  0
LINE
  5
2CB
330
1F
100
AcDbEntity
  8
SLD-0
  6
Continuous
 62
   179
370
    25
100
AcDbLine
 10
26.2831123962
 20
189.2899441418
 30
0.0
 11
26.2601050034
 21
189.3309998211
 31
0.0
  0
LINE
  5
2CC
330
1F
100
AcDbEntity
  8
SLD-0
  6
Continuous
 62
   179
370
    25
100
AcDbLine
 10
26.2601050034
 20
189.3309998211
 30
0.0
 11
26.2257012024
 21
189.353506535
 31
0.0
  0
LINE
  5
2CD
330
1F
100
AcDbEntity
  8
SLD-0
  6
Continuous
 62
   179
370
    25
100
AcDbLine
 10
26.2257012024
 20
189.353506535
 30
0.0
 11
26.2226971283
 21
189.3543529209
 31
0.0
  0
LINE
  5
2CE
330
1F
100
AcDbEntity
  8
SLD-0
  6
Continuous
 62
   179
370
    25
100
AcDbLine
 10
23.9657791748
 20
190.0876986679
 30
0.0
 11
23.9577206268
 21
190.0301623043
 31
0.0
  0
LINE
  5
2CF
330
1F
100
AcDbEntity
  8
SLD-0
  6
Continuous
 62
   179
370
    25
100
AcDbLine
 10
23.9577206268
 20
190.0301623043
 30
0.0
 11
23.9657791748
 21
189.9768101868
 31
0.0
  0
LINE
  5
2D0
330
1F
100
AcDbEntity
  8
SLD-0
  6
Continuous
 62
   179
370
    25
100
AcDbLine
 10
23.9657791748
 20
189.9768101868
 30
0.0
 11
23.9887865677
 21
189.9357545075
 31
0.0
  0
LINE
  5
2D1
330
1F
100
AcDbEntity
  8
SLD-0
  6
Continuous
 62
   179
370
    25
100
AcDbLine
 10
23.9887865677
 20
189.9357545075
 30
0.0
 11
24.0231903687
 21
189.9132537541
 31
0.0
  0
LINE
  5
2D2
330
1F
100
AcDbEntity
  8
SLD-0
  6
Continuous
 62
   179
370
    25
100
AcDbLine
 10
24.0231903687
 20
189.9132537541
 30
0.0
 11
24.0637692108
 21
189.9127292332
 31
0.0
  0
LINE
  5
2D3
330
1F
100
AcDbEntity
  8
SLD-0
  6
Continuous
 62
   179
370
    25
100
AcDbLine
 10
24.0637692108
 20
189.9127292332
 30
0.0
 11
24.1043718948
 21
189.9342643913
 31
0.0
  0
LINE
  5
2D4
330
1F
100
AcDbEntity
  8
SLD-0
  6
Continuous
 62
   179
370
    25
100
AcDbLine
 10
24.1043718948
 20
189.9342643913
 30
0.0
 11
24.1387756958
 21
189.9745750126
 31
0.0
  0
LINE
  5
2D5
330
1F
100
AcDbEntity
  8
SLD-0
  6
Continuous
 62
   179
370
    25
100
AcDbLine
 10
24.1387756958
 20
189.9745750126
 30
0.0
 11
24.1617592468
 21
190.0275337395
 31
0.0
  0
LINE
  5
2D6
330
1F
100
AcDbEntity
  8
SLD-0
  6
Continuous
 62
   179
370
    25
100
AcDbLine
 10
24.1617592468
 20
190.0275337395
 30
0.0
 11
24.1698416367
 21
190.0850701031
 31
0.0
  0
LINE
  5
2D7
330
1F
100
AcDbEntity
  8
SLD-0
  6
Continuous
 62
   179
370
    25
100
AcDbLine
 10
24.1698416367
 20
190.0850701031
 30
0.0
 11
24.1617592468
 21
190.1384281811
 31
0.0
  0
LINE
  5
2D8
330
1F
100
AcDbEntity
  8
SLD-0
  6
Continuous
 62
   179
370
    25
100
AcDbLine
 10
24.1617592468
 20
190.1384281811
 30
0.0
 11
24.1387756958
 21
190.1794778999
 31
0.0
  0
LINE
  5
2D9
330
1F
100
AcDbEntity
  8
SLD-0
  6
Continuous
 62
   179
370
    25
100
AcDbLine
 10
24.1387756958
 20
190.1794778999
 30
0.0
 11
24.1043718948
 21
190.2019846138
 31
0.0
  0
LINE
  5
2DA
330
1F
100
AcDbEntity
  8
SLD-0
  6
Continuous
 62
   179
370
    25
100
AcDbLine
 10
24.1043718948
 20
190.2019846138
 30
0.0
 11
24.0637692108
 21
190.2025031742
 31
0.0
  0
LINE
  5
2DB
330
1F
100
AcDbEntity
  8
SLD-0
  6
Continuous
 62
   179
370
    25
100
AcDbLine
 10
24.0637692108
 20
190.2025031742
 30
0.0
 11
24.0231903687
 21
190.1809680161
 31
0.0
  0
LINE
  5
2DC
330
1F
100
AcDbEntity
  8
SLD-0
  6
Continuous
 62
   179
370
    25
100
AcDbLine
 10
24.0231903687
 20
190.1809680161
 30
0.0
 11
23.9887865677
 21
190.1406573948
 31
0.0
  0
LINE
  5
2DD
330
1F
100
AcDbEntity
  8
SLD-0
  6
Continuous
 62
   179
370
    25
100
AcDbLine
 10
23.9887865677
 20
190.1406573948
 30
0.0
 11
23.9657791748
 21
190.0876986679
 31
0.0
  0
LINE
  5
2DE
330
1F
100
AcDbEntity
  8
SLD-0
  6
Continuous
 62
   179
370
    25
100
AcDbLine
 10
26.1858170395
 20
189.3638969187
 30
0.0
 11
26.2257012024
 21
189.3852221664
 31
0.0
  0
LINE
  5
2DF
330
1F
100
AcDbEntity
  8
SLD-0
  6
Continuous
 62
   179
370
    25
100
AcDbLine
 10
26.2257012024
 20
189.3852221664
 30
0.0
 11
26.2601050034
 21
189.4255327877
 31
0.0
  0
LINE
  5
2E0
330
1F
100
AcDbEntity
  8
SLD-0
  6
Continuous
 62
   179
370
    25
100
AcDbLine
 10
26.2601050034
 20
189.4255327877
 30
0.0
 11
26.2831123962
 21
189.4784915146
 31
0.0
  0
LINE
  5
2E1
330
1F
100
AcDbEntity
  8
SLD-0
  6
Continuous
 62
   179
370
    25
100
AcDbLine
 10
26.2831123962
 20
189.4784915146
 30
0.0
 11
26.2911709442
 21
189.5360278782
 31
0.0
  0
LINE
  5
2E2
330
1F
100
AcDbEntity
  8
SLD-0
  6
Continuous
 62
   179
370
    25
100
AcDbLine
 10
26.2911709442
 20
189.5360278782
 30
0.0
 11
26.2831123962
 21
189.5893859562
 31
0.0
  0
LINE
  5
2E3
330
1F
100
AcDbEntity
  8
SLD-0
  6
Continuous
 62
   179
370
    25
100
AcDbLine
 10
26.2831123962
 20
189.5893859562
 30
0.0
 11
26.2601050034
 21
189.6304356751
 31
0.0
  0
LINE
  5
2E4
330
1F
100
AcDbEntity
  8
SLD-0
  6
Continuous
 62
   179
370
    25
100
AcDbLine
 10
26.2601050034
 20
189.6304356751
 30
0.0
 11
26.2257012024
 21
189.6529423889
 31
0.0
  0
LINE
  5
2E5
330
1F
100
AcDbEntity
  8
SLD-0
  6
Continuous
 62
   179
370
    25
100
AcDbLine
 10
26.2257012024
 20
189.6529423889
 30
0.0
 11
26.2226971283
 21
189.6537887749
 31
0.0
  0
LINE
  5
2E6
330
1F
100
AcDbEntity
  8
SLD-0
  6
Continuous
 62
   179
370
    25
100
AcDbLine
 10
25.9580763473
 20
189.1129541096
 30
0.0
 11
25.9705933228
 21
189.0904235539
 31
0.0
  0
LINE
  5
2E7
330
1F
100
AcDbEntity
  8
SLD-0
  6
Continuous
 62
   179
370
    25
100
AcDbLine
 10
25.9705933228
 20
189.0904235539
 30
0.0
 11
26.0292442932
 21
189.0254723724
 31
0.0
  0
LINE
  5
2E8
330
1F
100
AcDbEntity
  8
SLD-0
  6
Continuous
 62
   179
370
    25
100
AcDbLine
 10
26.0292442932
 20
189.0254723724
 30
0.0
 11
26.1031778946
 21
188.993154734
 31
0.0
  0
LINE
  5
2E9
330
1F
100
AcDbEntity
  8
SLD-0
  6
Continuous
 62
   179
370
    25
100
AcDbLine
 10
26.1031778946
 20
188.993154734
 30
0.0
 11
26.1851223602
 21
188.9966356453
 31
0.0
  0
LINE
  5
2EA
330
1F
100
AcDbEntity
  8
SLD-0
  6
Continuous
 62
   179
370
    25
100
AcDbLine
 10
26.1851223602
 20
188.9966356453
 30
0.0
 11
26.267042984
 21
189.0355693993
 31
0.0
  0
LINE
  5
2EB
330
1F
100
AcDbEntity
  8
SLD-0
  6
Continuous
 62
   179
370
    25
100
AcDbLine
 10
26.267042984
 20
189.0355693993
 30
0.0
 11
26.3409765854
 21
189.1061532196
 31
0.0
  0
LINE
  5
2EC
330
1F
100
AcDbEntity
  8
SLD-0
  6
Continuous
 62
   179
370
    25
100
AcDbLine
 10
26.3409765854
 20
189.1061532196
 30
0.0
 11
26.3996275558
 21
189.2014729675
 31
0.0
  0
LINE
  5
2ED
330
1F
100
AcDbEntity
  8
SLD-0
  6
Continuous
 62
   179
370
    25
100
AcDbLine
 10
26.3996275558
 20
189.2014729675
 30
0.0
 11
26.4372976913
 21
189.3121945557
 31
0.0
  0
LINE
  5
2EE
330
1F
100
AcDbEntity
  8
SLD-0
  6
Continuous
 62
   179
370
    25
100
AcDbLine
 10
26.4372976913
 20
189.3121945557
 30
0.0
 11
26.450267662
 21
189.4274878201
 31
0.0
  0
LINE
  5
2EF
330
1F
100
AcDbEntity
  8
SLD-0
  6
Continuous
 62
   179
370
    25
100
AcDbLine
 10
26.450267662
 20
189.4274878201
 30
0.0
 11
26.4372976913
 21
189.5360576805
 31
0.0
  0
LINE
  5
2F0
330
1F
100
AcDbEntity
  8
SLD-0
  6
Continuous
 62
   179
370
    25
100
AcDbLine
 10
26.4372976913
 20
189.5360576805
 30
0.0
 11
26.3996275558
 21
189.6272885498
 31
0.0
  0
LINE
  5
2F1
330
1F
100
AcDbEntity
  8
SLD-0
  6
Continuous
 62
   179
370
    25
100
AcDbLine
 10
26.3996275558
 20
189.6272885498
 30
0.0
 11
26.3409765854
 21
189.6922397312
 31
0.0
  0
LINE
  5
2F2
330
1F
100
AcDbEntity
  8
SLD-0
  6
Continuous
 62
   179
370
    25
100
AcDbLine
 10
26.3409765854
 20
189.6922397312
 30
0.0
 11
26.267042984
 21
189.7245573696
 31
0.0
  0
LINE
  5
2F3
330
1F
100
AcDbEntity
  8
SLD-0
  6
Continuous
 62
   179
370
    25
100
AcDbLine
 10
26.267042984
 20
189.7245573696
 30
0.0
 11
26.1851223602
 21
189.7210764584
 31
0.0
  0
LINE
  5
2F4
330
1F
100
AcDbEntity
  8
SLD-0
  6
Continuous
 62
   179
370
    25
100
AcDbLine
 10
26.1851223602
 20
189.7210764584
 30
0.0
 11
26.1058720245
 21
189.6840262112
 31
0.0
  0
ARC
  5
2F5
330
1F
100
AcDbEntity
  8
SLD-0
  6
Continuous
 62
   179
370
    25
100
AcDbCircle
 10
50.2714625135
 20
182.8544180894
 30
0.0
 40
0.1073288335951821
100
AcDbArc
 50
350.7870093651
 51
69.5733866763
  0
ARC
  5
2F6
330
1F
100
AcDbEntity
  8
SLD-0
  6
Continuous
 62
   179
370
    25
100
AcDbCircle
 10
50.2715026528
 20
183.4436546431
 30
0.0
 40
0.1072925454274049
100
AcDbArc
 50
350.7726142371
 51
69.5890420793
  0
ARC
  5
2F7
330
1F
100
AcDbEntity
  8
SLD-0
  6
Continuous
 62
   179
370
    25
100
AcDbCircle
 10
108.0442184942
 20
169.6745587296
 30
0.0
 40
0.7245474138508726
100
AcDbArc
 50
268.1135579807
 51
282.5020684454
  0
ARC
  5
2F8
330
1F
100
AcDbEntity
  8
SLD-0
  6
Continuous
 62
   179
370
    25
100
AcDbCircle
 10
108.9412306512
 20
168.1199383635
 30
0.0
 40
0.0419157071493996
100
AcDbArc
 50
322.3354937884
 51
357.3512153615
  0
ARC
  5
2F9
330
1F
100
AcDbEntity
  8
SLD-0
  6
Continuous
 62
   179
370
    25
100
AcDbCircle
 10
110.1720577622
 20
168.6204848908
 30
0.0
 40
0.0157079041432309
100
AcDbArc
 50
350.1184081868
 51
66.0390403871
  0
ARC
  5
2FA
330
1F
100
AcDbEntity
  8
SLD-0
  6
Continuous
 62
   179
370
    25
100
AcDbCircle
 10
108.3482150449
 20
168.8806735449
 30
0.0
 40
0.0234547356030283
100
AcDbArc
 50
113.2559911469
 51
183.4991600033
  0
ARC
  5
2FB
330
1F
100
AcDbEntity
  8
SLD-0
  6
Continuous
 62
   179
370
    25
100
AcDbCircle
 10
131.873714401
 20
163.5070306963
 30
0.0
 40
0.7245474138538017
100
AcDbArc
 50
268.1135579807
 51
282.5020684454
  0
ARC
  5
2FC
330
1F
100
AcDbEntity
  8
SLD-0
  6
Continuous
 62
   179
370
    25
100
AcDbCircle
 10
132.7706022427
 20
161.9524391898
 30
0.0
 40
0.042041229707375
100
AcDbArc
 50
322.417809929
 51
357.3197558683
  0
ARC
  5
2FD
330
1F
100
AcDbEntity
  8
SLD-0
  6
Continuous
 62
   179
370
    25
100
AcDbCircle
 10
134.001553669
 20
162.4529568576
 30
0.0
 40
0.0157079041441836
100
AcDbArc
 50
350.1184081873
 51
66.0390403837
  0
ARC
  5
2FE
330
1F
100
AcDbEntity
  8
SLD-0
  6
Continuous
 62
   179
370
    25
100
AcDbCircle
 10
132.1776968196
 20
162.7131663472
 30
0.0
 40
0.0234300134468309
100
AcDbArc
 50
113.244357861
 51
183.5539048739
  0
ARC
  5
2FF
330
1F
100
AcDbEntity
  8
SLD-0
  6
Continuous
 62
   179
370
    25
100
AcDbCircle
 10
178.896316029
 20
151.3364988127
 30
0.0
 40
0.7243626999820558
100
AcDbArc
 50
268.1142824989
 51
282.5046107916
  0
ARC
  5
300
330
1F
100
AcDbEntity
  8
SLD-0
  6
Continuous
 62
   179
370
    25
100
AcDbCircle
 10
179.7931871403
 20
149.7821369078
 30
0.0
 40
0.0420753009559016
100
AcDbArc
 50
322.3756827561
 51
357.2601863098
  0
ARC
  5
301
330
1F
100
AcDbEntity
  8
SLD-0
  6
Continuous
 62
   179
370
    25
100
AcDbCircle
 10
181.024165147
 20
150.2826087922
 30
0.0
 40
0.0157008693810528
100
AcDbArc
 50
350.1268054045
 51
66.1013202967
  0
ARC
  5
302
330
1F
100
AcDbEntity
  8
SLD-0
  6
Continuous
 62
   179
370
    25
100
AcDbCircle
 10
179.2002885386
 20
150.5428300806
 30
0.0
 40
0.023417147682366
100
AcDbArc
 50
113.2226683384
 51
183.5689614081
  0
ARC
  5
303
330
1F
100
AcDbEntity
  8
SLD-0
  6
Continuous
 62
   179
370
    25
100
AcDbCircle
 10
61.0216205209
 20
181.8448452458
 30
0.0
 40
0.7244892074007165
100
AcDbArc
 50
268.1137981988
 51
282.5025246045
  0
ARC
  5
304
330
1F
100
AcDbEntity
  8
SLD-0
  6
Continuous
 62
   179
370
    25
100
AcDbCircle
 10
61.9185445269
 20
180.2903139018
 30
0.0
 40
0.0420101492477008
100
AcDbArc
 50
322.3764536273
 51
357.3149212249
  0
ARC
  5
305
330
1F
100
AcDbEntity
  8
SLD-0
  6
Continuous
 62
   179
370
    25
100
AcDbCircle
 10
63.1494669357
 20
180.7908370124
 30
0.0
 40
0.0156952931244244
100
AcDbArc
 50
350.0824829727
 51
66.0749655997
  0
ARC
  5
306
330
1F
100
AcDbEntity
  8
SLD-0
  6
Continuous
 62
   179
370
    25
100
AcDbCircle
 10
61.3255959705
 20
181.0510389716
 30
0.0
 40
0.02343001344736
100
AcDbArc
 50
113.2443578642
 51
183.5539048763
  0
ARC
  5
307
330
1F
100
AcDbEntity
  8
SLD-0
  6
Continuous
 62
   179
370
    25
100
AcDbCircle
 10
121.4889286543
 20
164.9333666523
 30
0.0
 40
0.0234699834375836
100
AcDbArc
 50
293.2821690597
 51
3.4729820898
  0
ARC
  5
308
330
1F
100
AcDbEntity
  8
SLD-0
  6
Continuous
 62
   179
370
    25
100
AcDbCircle
 10
121.4413958207
 20
164.8611904974
 30
0.0
 40
0.0351785136735667
100
AcDbArc
 50
113.2623318257
 51
183.5049762169
  0
ARC
  5
309
330
1F
100
AcDbEntity
  8
SLD-0
  6
Continuous
 62
   179
370
    25
100
AcDbCircle
 10
121.3732928103
 20
164.2808201059
 30
0.0
 40
0.0283143448904786
100
AcDbArc
 50
186.9805733252
 51
281.0791696566
  0
ARC
  5
30A
330
1F
100
AcDbEntity
  8
SLD-0
  6
Continuous
 62
   179
370
    25
100
AcDbCircle
 10
121.376758783
 20
164.3897535932
 30
0.0
 40
0.0588699379427542
100
AcDbArc
 50
179.7466709562
 51
194.3017162507
  0
ARC
  5
30B
330
1F
100
AcDbEntity
  8
SLD-0
  6
Continuous
 62
   179
370
    25
100
AcDbCircle
 10
121.3898945498
 20
164.4670185981
 30
0.0
 40
0.0720059808429911
100
AcDbArc
 50
161.4423657259
 51
179.7213486502
  0
ARC
  5
30C
330
1F
100
AcDbEntity
  8
SLD-0
  6
Continuous
 62
   179
370
    25
100
AcDbCircle
 10
121.2674548166
 20
164.5295960385
 30
0.0
 40
0.0639662284709722
100
AcDbArc
 50
340.2666681484
 51
19.7333318518
  0
ARC
  5
30D
330
1F
100
AcDbEntity
  8
SLD-0
  6
Continuous
 62
   179
370
    25
100
AcDbCircle
 10
121.3734623294
 20
164.586189501
 30
0.0
 40
0.0555758664491788
100
AcDbArc
 50
179.4088936264
 51
201.1570982168
  0
ARC
  5
30E
330
1F
100
AcDbEntity
  8
SLD-0
  6
Continuous
 62
   179
370
    25
100
AcDbCircle
 10
121.3898945498
 20
164.6602032122
 30
0.0
 40
0.0720059808419915
100
AcDbArc
 50
161.4423657259
 51
179.721348651
  0
ARC
  5
30F
330
1F
100
AcDbEntity
  8
SLD-0
  6
Continuous
 62
   179
370
    25
100
AcDbCircle
 10
121.2674438646
 20
164.7227821428
 30
0.0
 40
0.0639770404625791
100
AcDbArc
 50
340.268723703
 51
19.7312762974
  0
ARC
  5
310
330
1F
100
AcDbEntity
  8
SLD-0
  6
Continuous
 62
   179
370
    25
100
AcDbCircle
 10
121.3734730777
 20
164.779376148
 30
0.0
 40
0.0555866239489822
100
AcDbArc
 50
179.4080313485
 51
201.1550536054
  0
ARC
  5
311
330
1F
100
AcDbEntity
  8
SLD-0
  6
Continuous
 62
   179
370
    25
100
AcDbCircle
 10
121.3898698946
 20
164.8533919161
 30
0.0
 40
0.0719813061585386
100
AcDbArc
 50
161.4392059129
 51
179.7245084635
  0
ARC
  5
312
330
1F
100
AcDbEntity
  8
SLD-0
  6
Continuous
 62
   179
370
    25
100
AcDbCircle
 10
121.2635749498
 20
164.9297652463
 30
0.0
 40
0.0720059808398994
100
AcDbArc
 50
341.4423657256
 51
359.721348651
  0
ARC
  5
313
330
1F
100
AcDbEntity
  8
SLD-0
  6
Continuous
 62
   179
370
    25
100
AcDbCircle
 10
192.0829429158
 20
145.9754418077
 30
0.0
 40
0.0245407960179249
100
AcDbArc
 50
255.7155425732
 51
285.2666467342
  0
ARC
  5
314
330
1F
100
AcDbEntity
  8
SLD-0
  6
Continuous
 62
   179
370
    25
100
AcDbCircle
 10
192.199601691
 20
146.6321109061
 30
0.0
 40
0.0234789741812463
100
AcDbArc
 50
293.2671804516
 51
3.4382410508
  0
ARC
  5
315
330
1F
100
AcDbEntity
  8
SLD-0
  6
Continuous
 62
   179
370
    25
100
AcDbCircle
 10
192.1520349495
 20
146.5599450314
 30
0.0
 40
0.0351365139231126
100
AcDbArc
 50
113.2141457309
 51
183.5531623112
  0
ARC
  5
316
330
1F
100
AcDbEntity
  8
SLD-0
  6
Continuous
 62
   179
370
    25
100
AcDbCircle
 10
50.6368628297
 20
183.2712083711
 30
0.0
 40
0.0234250206984297
100
AcDbArc
 50
293.2362378609
 51
3.5553918868
  0
ARC
  5
317
330
1F
100
AcDbEntity
  8
SLD-0
  6
Continuous
 62
   179
370
    25
100
AcDbCircle
 10
50.5892640044
 20
183.1990869814
 30
0.0
 40
0.0351490724376229
100
AcDbArc
 50
113.2491692727
 51
183.5468826069
  0
ARC
  5
318
330
1F
100
AcDbEntity
  8
SLD-0
  6
Continuous
 62
   179
370
    25
100
AcDbCircle
 10
50.5211784797
 20
182.6186775538
 30
0.0
 40
0.0282991221277994
100
AcDbArc
 50
186.9533912157
 51
281.1130203105
  0
ARC
  5
319
330
1F
100
AcDbEntity
  8
SLD-0
  6
Continuous
 62
   179
370
    25
100
AcDbCircle
 10
50.5246286272
 20
182.7276255868
 30
0.0
 40
0.0588406476179664
100
AcDbArc
 50
179.7430286502
 51
194.3053585558
  0
ARC
  5
31A
330
1F
100
AcDbEntity
  8
SLD-0
  6
Continuous
 62
   179
370
    25
100
AcDbCircle
 10
50.5378914059
 20
182.8049111306
 30
0.0
 40
0.0721035909368676
100
AcDbArc
 50
161.4850870815
 51
179.7375457226
  0
ARC
  5
31B
330
1F
100
AcDbEntity
  8
SLD-0
  6
Continuous
 62
   179
370
    25
100
AcDbCircle
 10
50.4153472237
 20
182.867470153
 30
0.0
 40
0.0639730793591352
100
AcDbArc
 50
340.2674512668
 51
19.7325487328
  0
ARC
  5
31C
330
1F
100
AcDbEntity
  8
SLD-0
  6
Continuous
 62
   179
370
    25
100
AcDbCircle
 10
50.5214173343
 20
182.9240452568
 30
0.0
 40
0.055631925695246
100
AcDbArc
 50
179.3890456972
 51
201.1128402696
  0
ARC
  5
31D
330
1F
100
AcDbEntity
  8
SLD-0
  6
Continuous
 62
   179
370
    25
100
AcDbCircle
 10
50.5378919505
 20
182.9980956109
 30
0.0
 40
0.0721041499110587
100
AcDbArc
 50
161.4851236302
 51
179.7350731718
  0
ARC
  5
31E
330
1F
100
AcDbEntity
  8
SLD-0
  6
Continuous
 62
   179
370
    25
100
AcDbCircle
 10
50.4153474808
 20
183.0606547672
 30
0.0
 40
0.0639728373742083
100
AcDbArc
 50
340.2673735288
 51
19.7326264715
  0
ARC
  5
31F
330
1F
100
AcDbEntity
  8
SLD-0
  6
Continuous
 62
   179
370
    25
100
AcDbCircle
 10
50.5214241643
 20
183.1172311062
 30
0.0
 40
0.0556387421427763
100
AcDbArc
 50
179.3903925877
 51
201.1114933795
  0
ARC
  5
320
330
1F
100
AcDbEntity
  8
SLD-0
  6
Continuous
 62
   179
370
    25
100
AcDbCircle
 10
50.5378919505
 20
183.1912802251
 30
0.0
 40
0.0721041499120631
100
AcDbArc
 50
161.4851236302
 51
179.7350731726
  0
ARC
  5
321
330
1F
100
AcDbEntity
  8
SLD-0
  6
Continuous
 62
   179
370
    25
100
AcDbCircle
 10
50.4120356524
 20
183.2675069859
 30
0.0
 40
0.071431993255217
100
AcDbArc
 50
341.3985394106
 51
359.8240933936
  0
ARC
  5
322
330
1F
100
AcDbEntity
  8
SLD-0
  6
Continuous
 62
   179
370
    25
100
AcDbCircle
 10
50.1148668988
 20
183.1568914761
 30
0.0
 40
0.0556685416087703
100
AcDbArc
 50
179.3962768451
 51
201.105609122
  0
ARC
  5
323
330
1F
100
AcDbEntity
  8
SLD-0
  6
Continuous
 62
   179
370
    25
100
AcDbCircle
 10
50.0217326691
 20
183.0916365114
 30
0.0
 40
0.0551517111678057
100
AcDbArc
 50
359.2933045547
 51
21.2085814127
  0
ARC
  5
324
330
1F
100
AcDbEntity
  8
SLD-0
  6
Continuous
 62
   179
370
    25
100
AcDbCircle
 10
50.0067017452
 20
182.6273351559
 30
0.0
 40
0.0701785155160694
100
AcDbArc
 50
346.951506226
 51
359.9158965318
  0
ARC
  5
325
330
1F
100
AcDbEntity
  8
SLD-0
  6
Continuous
 62
   179
370
    25
100
AcDbCircle
 10
49.9964822368
 20
182.5088255545
 30
0.0
 40
0.0537531875760269
100
AcDbArc
 50
291.345238629
 51
351.0520999619
  0
ARC
  5
326
330
1F
100
AcDbEntity
  8
SLD-0
  6
Continuous
 62
   179
370
    25
100
AcDbCircle
 10
121.2308470732
 20
164.3134454461
 30
0.0
 40
0.0246718989617994
100
AcDbArc
 50
255.7810536858
 51
285.2002011415
  0
ARC
  5
327
330
1F
100
AcDbEntity
  8
SLD-0
  6
Continuous
 62
   179
370
    25
100
AcDbCircle
 10
121.3475406778
 20
164.9699392563
 30
0.0
 40
0.0234300134467325
100
AcDbArc
 50
293.2443578629
 51
3.5539048754
  0
ARC
  5
328
330
1F
100
AcDbEntity
  8
SLD-0
  6
Continuous
 62
   179
370
    25
100
AcDbCircle
 10
121.2999439081
 20
164.8978166015
 30
0.0
 40
0.0351460530750166
100
AcDbArc
 50
113.2460228757
 51
183.5456068708
  0
ARC
  5
329
330
1F
100
AcDbEntity
  8
SLD-0
  6
Continuous
 62
   179
370
    18
100
AcDbCircle
 10
43.3835317556
 20
187.7951635852
 30
0.0
 40
4.63106424499368
100
AcDbArc
 50
157.380135052
 51
202.619864948
  0
ARC
  5
32A
330
1F
100
AcDbEntity
  8
SLD-0
  6
Continuous
 62
   179
370
    18
100
AcDbCircle
 10
34.8338746879
 20
184.2328064737
 30
0.0
 40
4.631064244994154
100
AcDbArc
 50
337.380135052
 51
22.6198649481
  0
ARC
  5
32B
330
1F
100
AcDbEntity
  8
SLD-0
  6
Continuous
 62
   179
370
    18
100
AcDbCircle
 10
44.8075367453
 20
187.4061113079
 30
0.0
 40
4.631064244993701
100
AcDbArc
 50
157.380135052
 51
202.619864948
  0
ARC
  5
32C
330
1F
100
AcDbEntity
  8
SLD-0
  6
Continuous
 62
   179
370
    18
100
AcDbCircle
 10
36.2578796776
 20
183.8437541963
 30
0.0
 40
4.631064244994152
100
AcDbArc
 50
337.380135052
 51
22.6198649481
  0
SPLINE
  5
32D
330
1F
100
AcDbEntity
  8
SLD-0
  6
Continuous
 62
   179
370
    25
100
AcDbSpline
210
0.0
220
0.0
230
1.0
 70
     8
 71
     3
 72
     9
 73
     5
 74
     0
 42
0.00000001
 43
0.00000001
 40
0.0
 40
0.0
 40
0.0
 40
0.0
 40
0.4510648708725256
 40
0.9999999999999999
 40
0.9999999999999999
 40
0.9999999999999999
 40
0.9999999999999999
 10
49.34376689626752
 20
183.3206517178377
 30
0.0
 10
49.32294085351965
 20
183.3336229639642
 30
0.0
 10
49.27677001625716
 20
183.3623799055134
 30
0.0
 10
49.22485989748765
 20
183.378813897618
 30
0.0
 10
49.1963646097379
 20
183.3878350931961
 30
0.0
  0
SPLINE
  5
32E
330
1F
100
AcDbEntity
  8
SLD-0
  6
Continuous
 62
   179
370
    25
100
AcDbSpline
210
0.0
220
0.0
230
1.0
 70
     8
 71
     3
 72
     9
 73
     5
 74
     0
 42
0.00000001
 43
0.00000001
 40
0.0
 40
0.0
 40
0.0
 40
0.0
 40
0.4029947878666482
 40
1.0
 40
1.0
 40
1.0
 40
1.0
 10
49.12120315267599
 20
183.097405501064
 30
0.0
 10
49.12915872919656
 20
183.0949143946742
 30
0.0
 10
49.14889986918178
 20
183.0887329092934
 30
0.0
 10
49.16650599385076
 20
183.0777918143442
 30
0.0
 10
49.17701694204393
 20
183.071259923633
 30
0.0
  0
SPLINE
  5
32F
330
1F
100
AcDbEntity
  8
SLD-0
  6
Continuous
 62
   179
370
    25
100
AcDbSpline
210
0.0
220
0.0
230
1.0
 70
     8
 71
     3
 72
     9
 73
     5
 74
     0
 42
0.00000001
 43
0.00000001
 40
0.0
 40
0.0
 40
0.0
 40
0.0
 40
0.4077745063710516
 40
1.0
 40
1.0
 40
1.0
 40
1.0
 10
49.2379805727203
 20
183.6844486672238
 30
0.0
 10
49.23227874363
 20
183.6839066254397
 30
0.0
 10
49.21829594431022
 20
183.6825773569945
 30
0.0
 10
49.20452193135802
 20
183.6855251744853
 30
0.0
 10
49.19636460973812
 20
183.687270947154
 30
0.0
  0
SPLINE
  5
330
330
1F
100
AcDbEntity
  8
SLD-0
  6
Continuous
 62
   179
370
    25
100
AcDbSpline
210
0.0
220
0.0
230
1.0
 70
     8
 71
     3
 72
     9
 73
     5
 74
     0
 42
0.00000001
 43
0.00000001
 40
0.0
 40
0.0
 40
0.0
 40
0.0
 40
0.4030532186185965
 40
1.0
 40
1.0
 40
1.0
 40
1.0
 10
49.65371104909993
 20
183.1245792586169
 30
0.0
 10
49.64575527081058
 20
183.1270689368987
 30
0.0
 10
49.62601649210385
 20
183.1332459829233
 30
0.0
 10
49.60841583579484
 20
183.1441892861663
 30
0.0
 10
49.59790918066098
 20
183.150721855815
 30
0.0
  0
SPLINE
  5
331
330
1F
100
AcDbEntity
  8
SLD-0
  6
Continuous
 62
   179
370
    25
100
AcDbSpline
210
0.0
220
0.0
230
1.0
 70
     8
 71
     3
 72
     9
 73
     5
 74
     0
 42
0.00000001
 43
0.00000001
 40
0.0
 40
0.0
 40
0.0
 40
0.0
 40
0.4510638295392047
 40
1.0
 40
1.0
 40
1.0
 40
1.0
 10
49.43115922643698
 20
182.901330061611
 30
0.0
 10
49.45198115841545
 20
182.8883586253184
 30
0.0
 10
49.49814298877047
 20
182.8596011957858
 30
0.0
 10
49.55004614906281
 20
182.8431695765966
 30
0.0
 10
49.57853767110894
 20
182.8341496664844
 30
0.0
  0
SPLINE
  5
332
330
1F
100
AcDbEntity
  8
SLD-0
  6
Continuous
 62
   179
370
    25
100
AcDbSpline
210
0.0
220
0.0
230
1.0
 70
     8
 71
     3
 72
     9
 73
     5
 74
     0
 42
0.00000001
 43
0.00000001
 40
0.0
 40
0.0
 40
0.0
 40
0.0
 40
0.4492321855495996
 40
1.0
 40
1.0
 40
1.0
 40
1.0
 10
49.65371104909919
 20
183.7137950140792
 30
0.0
 10
49.62976710210486
 20
183.7189414159701
 30
0.0
 10
49.57646738813833
 20
183.7303974114589
 30
0.0
 10
49.52208619108842
 20
183.7255125577382
 30
0.0
 10
49.49213477804208
 20
183.7228221375305
 30
0.0
  0
SPLINE
  5
333
330
1F
100
AcDbEntity
  8
SLD-0
  6
Continuous
 62
   179
370
    25
100
AcDbSpline
210
0.0
220
0.0
230
1.0
 70
     8
 71
     3
 72
     9
 73
     5
 74
     0
 42
0.00000001
 43
0.00000001
 40
0.0
 40
0.0
 40
0.0
 40
0.0
 40
0.4080529231965789
 40
1.0
 40
1.0
 40
1.0
 40
1.0
 10
49.53692170812705
 20
183.4261877018767
 30
0.0
 10
49.54262756262113
 20
183.4267302470931
 30
0.0
 10
49.55661068630366
 20
183.428059842314
 30
0.0
 10
49.57038437584716
 20
183.425109115705
 30
0.0
 10
49.57853767110924
 20
183.4233624417143
 30
0.0
  0
INSERT
  5
334
330
1F
100
AcDbEntity
  8
0
  6
Continuous
 62
     7
100
AcDbBlockReference
  2
SW_NOTE_0
 10
167.9544011469
 20
111.1180965498
 30
0.0
 41
0.01
 42
0.01
 43
0.01
  0
HATCH
  5
335
330
1F
100
AcDbEntity
  8
0
  6
Continuous
 62
     7
100
AcDbHatch
 10
0.0
 20
0.0
 30
0.0
210
0.0
220
0.0
230
1.0
  2
SOLID
 70
     1
 71
     0
 91
        1
 92
        0
 93
       21
 72
     1
 10
49.282779423733
 20
183.387811251338
 11
49.536921708127
 21
183.426187701877
 72
     4
 94
        3
 73
     1
 74
     0
 95
        9
 96
        5
 40
0.0
 40
0.0
 40
0.0
 40
0.0
 40
0.4080529231965789
 40
1.0
 40
1.0
 40
1.0
 40
1.0
 10
49.53692170812705
 20
183.4261877018767
 42
1.0
 10
49.54262756262113
 20
183.4267302470931
 42
1.0
 10
49.55661068630366
 20
183.428059842314
 42
1.0
 10
49.57038437584716
 20
183.425109115705
 42
1.0
 10
49.57853767110924
 20
183.4233624417143
 42
1.0
 72
     1
 10
49.5785376711089
 20
183.4233624417146
 11
50.23374768926701
 21
183.2537812668639
 72
     1
 10
50.23374768926701
 20
183.2537812668639
 11
50.271334378262
 21
183.25410909241
 72
     1
 10
50.271334378262
 20
183.25410909241
 11
50.31192514135402
 21
183.275644250568
 72
     1
 10
50.31192514135402
 20
183.275644250568
 11
50.34634086324801
 21
183.315957852062
 72
     1
 10
50.34634086324801
 20
183.315957852062
 11
50.369324414273
 21
183.368913598712
 72
     1
 10
50.369324414273
 20
183.368913598712
 11
50.37740680410435
 21
183.4264499623139
 72
     2
 10
50.27150265279499
 20
183.443654643061
 40
0.1072925454271084
 50
350.7726142371077
 51
429.5890420793257
 73
     1
 72
     1
 10
50.308921067258
 20
183.544210858997
 11
49.65371104909961
 21
183.7137950140794
 72
     4
 94
        3
 73
     1
 74
     0
 95
        9
 96
        5
 40
0.0
 40
0.0
 40
0.0
 40
0.0
 40
0.4492321855495996
 40
1.0
 40
1.0
 40
1.0
 40
1.0
 10
49.65371104909919
 20
183.7137950140792
 42
1.0
 10
49.62976710210486
 20
183.7189414159701
 42
1.0
 10
49.57646738813833
 20
183.7303974114589
 42
1.0
 10
49.52208619108842
 20
183.7255125577382
 42
1.0
 10
49.49213477804208
 20
183.7228221375305
 42
1.0
 72
     1
 10
49.492134778042
 20
183.722822137531
 11
49.23798057272022
 21
183.6844486672243
 72
     4
 94
        3
 73
     1
 74
     0
 95
        9
 96
        5
 40
0.0
 40
0.0
 40
0.0
 40
0.0
 40
0.4077745063710516
 40
1.0
 40
1.0
 40
1.0
 40
1.0
 10
49.2379805727203
 20
183.6844486672238
 42
1.0
 10
49.23227874363
 20
183.6839066254397
 42
1.0
 10
49.21829594431022
 20
183.6825773569945
 42
1.0
 10
49.20452193135802
 20
183.6855251744853
 42
1.0
 10
49.19636460973812
 20
183.687270947154
 42
1.0
 72
     1
 10
49.196364609738
 20
183.687270947154
 11
49.08028444127403
 21
183.717924508152
 72
     1
 10
49.08028444127403
 20
183.717924508152
 11
49.10930606557901
 21
183.647618957218
 72
     1
 10
49.10930606557901
 20
183.647618957218
 11
49.122287957211
 21
183.539046116527
 72
     1
 10
49.122287957211
 20
183.539046116527
 11
49.10930606557901
 21
183.423752852138
 72
     1
 10
49.10930606557901
 20
183.423752852138
 11
49.10517180364083
 21
183.4115970881471
 72
     1
 10
49.10517180364083
 20
183.4115970881471
 11
49.196364609738
 21
183.3878350931961
 72
     4
 94
        3
 73
     1
 74
     0
 95
        8
 96
        4
 40
0.0
 40
0.0
 40
0.0
 40
0.0
 40
0.0553482440733803
 40
0.0553482440733803
 40
0.0553482440733803
 40
0.0553482440733803
 10
49.1963646097379
 20
183.3878350931961
 42
1.0
 10
49.19923774366142
 20
183.3869255005899
 42
1.0
 10
49.20211087758496
 20
183.3860159079838
 42
1.0
 10
49.20498223875624
 20
183.3851025090587
 42
1.0
 72
     1
 10
49.20498223875636
 20
183.385102509059
 11
49.282779423733
 21
183.387811251338
 97
        0
 75
     0
 76
     1
 98
        1
 10
0.0
 20
0.0
  0
HATCH
  5
336
330
1F
100
AcDbEntity
  8
0
  6
Continuous
 62
     7
100
AcDbHatch
 10
0.0
 20
0.0
 30
0.0
210
0.0
220
0.0
230
1.0
  2
SOLID
 70
     1
 71
     0
 91
        1
 92
        0
 93
       20
 72
     1
 10
26.26010500335593
 20
189.6304356750557
 11
26.22570120239093
 21
189.6529423889228
 72
     1
 10
26.22570120239093
 20
189.6529423889228
 11
26.22269712829493
 21
189.6537887748787
 72
     1
 10
26.22269712829493
 20
189.6537887748787
 11
24.10437189483492
 21
190.2019846138068
 72
     1
 10
24.10437189483492
 20
190.2019846138068
 11
24.13877569579993
 21
190.1794778999397
 72
     1
 10
24.13877569579993
 20
190.1794778999397
 11
24.16175924682492
 21
190.1384281810827
 72
     1
 10
24.16175924682492
 20
190.1384281810827
 11
24.16984163665692
 21
190.0850701030797
 72
     1
 10
24.16984163665692
 20
190.0850701030797
 11
24.16175924682492
 21
190.0275337394777
 72
     1
 10
24.16175924682492
 20
190.0275337394777
 11
24.1387756957999
 21
189.9745750125958
 72
     1
 10
24.1387756957999
 20
189.9745750125958
 11
24.10437189483491
 21
189.9342643913337
 72
     1
 10
24.10437189483491
 20
189.9342643913337
 11
24.06376921081392
 21
189.9127292331768
 72
     1
 10
24.06376921081392
 20
189.9127292331768
 11
24.02319036865092
 21
189.9132537540508
 72
     1
 10
24.02319036865092
 20
189.9132537540508
 11
24.06376921081392
 21
189.9030673202587
 72
     1
 10
24.06376921081392
 20
189.9030673202587
 11
24.10437189483492
 21
189.9025427993837
 72
     1
 10
24.10437189483492
 20
189.9025427993837
 11
26.18581703951731
 21
189.3638969187287
 72
     1
 10
26.18581703951731
 20
189.3638969187287
 11
26.22570120239093
 21
189.3852221664497
 72
     1
 10
26.22570120239093
 20
189.3852221664497
 11
26.26010500335595
 21
189.4255327877108
 72
     1
 10
26.26010500335595
 20
189.4255327877108
 11
26.28311239623893
 21
189.4784915145937
 72
     1
 10
26.28311239623893
 20
189.4784915145937
 11
26.29117094421293
 21
189.5360278781957
 72
     1
 10
26.29117094421293
 20
189.5360278781957
 11
26.28311239623892
 21
189.5893859561987
 72
     1
 10
26.28311239623892
 20
189.5893859561987
 11
26.26010500335593
 21
189.6304356750557
 97
        0
 75
     0
 76
     1
 98
        1
 10
0.0
 20
0.0
  0
ENDSEC
  0
SECTION
  2
OBJECTS
  0
DICTIONARY
  5
C
330
0
100
AcDbDictionary
281
     1
  3
ACAD_GROUP
350
D
  3
ACAD_LAYOUT
350
1A
  3
ACAD_MLINESTYLE
350
17
  3
ACAD_PLOTSETTINGS
350
19
  3
ACAD_PLOTSTYLENAME
350
E
  3
ACAD_SCALELIST
350
47
  3
DWGPROPS
350
337
  0
DICTIONARY
  5
D
102
{ACAD_REACTORS
330
C
102
}
330
C
100
AcDbDictionary
281
     1
  0
DICTIONARY
  5
1A
102
{ACAD_REACTORS
330
C
102
}
330
C
100
AcDbDictionary
281
     1
  3
Layout1
350
1E
  3
Layout2
350
26
  3
Model
350
22
  0
DICTIONARY
  5
17
102
{ACAD_REACTORS
330
C
102
}
330
C
100
AcDbDictionary
281
     1
  3
Standard
350
18
  0
DICTIONARY
  5
19
102
{ACAD_REACTORS
330
C
102
}
330
C
100
AcDbDictionary
281
     1
  0
ACDBDICTIONARYWDFLT
  5
E
102
{ACAD_REACTORS
330
C
102
}
330
C
100
AcDbDictionary
281
     1
  3
Normal
350
F
100
AcDbDictionaryWithDefault
340
F
  0
DICTIONARY
  5
47
102
{ACAD_REACTORS
330
C
102
}
330
C
100
AcDbDictionary
281
     1
  3
A0
350
48
  3
A1
350
49
  3
A2
350
4A
  3
A3
350
4B
  3
A4
350
4C
  3
A5
350
4D
  3
A6
350
4E
  3
A7
350
4F
  3
A8
350
50
  3
A9
350
51
  3
B0
350
52
  3
B1
350
53
  3
B2
350
54
  3
B3
350
55
  3
B4
350
56
  3
B5
350
57
  3
B6
350
58
  3
B7
350
59
  3
B8
350
5A
  3
B9
350
5B
  3
C0
350
5C
  3
C1
350
5D
  3
C2
350
5E
  3
C3
350
5F
  3
C4
350
60
  3
C5
350
61
  3
C6
350
62
  3
C7
350
63
  3
C8
350
64
  3
C9
350
65
  3
D0
350
66
  3
D1
350
67
  3
D2
350
68
  0
XRECORD
  5
337
102
{ACAD_REACTORS
330
C
102
}
330
C
100
AcDbXrecord
280
     1
  1
DWGPROPS COOKIE
  2

  3

  4

  6

  7

  8
9128
  9

300
=
301
=
302
=
303
=
304
=
305
=
306
=
307
=
308
=
309
=
 40
0.0
 41
2459242.417162222
 42
2459242.417162558
  1

 90
        0
  0
LAYOUT
  5
1E
102
{ACAD_REACTORS
330
1A
102
}
330
1A
100
AcDbPlotSettings
  1

  2
none_device
  4

  6

 40
0.0
 41
0.0
 42
0.0
 43
0.0
 44
0.0
 45
0.0
 46
0.0
 47
0.0
 48
0.0
 49
0.0
140
0.0
141
0.0
142
1.0
143
1.0
 70
   688
 72
     1
 73
     0
 74
     5
  7

 75
    16
147
1.0
148
0.0
149
0.0
100
AcDbLayout
  1
Layout1
 70
     1
 71
     1
 10
0.0
 20
0.0
 11
420.0
 21
297.0
 12
0.0
 22
0.0
 32
0.0
 14
1.0000000000E+20
 24
1.0000000000E+20
 34
1.0000000000E+20
 15
-1.0000000000E+20
 25
-1.0000000000E+20
 35
-1.0000000000E+20
146
0.0
 13
0.0
 23
0.0
 33
0.0
 16
1.0
 26
0.0
 36
0.0
 17
0.0
 27
1.0
 37
0.0
 76
     0
330
1B
  0
LAYOUT
  5
26
102
{ACAD_REACTORS
330
1A
102
}
330
1A
100
AcDbPlotSettings
  1

  2
none_device
  4

  6

 40
0.0
 41
0.0
 42
0.0
 43
0.0
 44
0.0
 45
0.0
 46
0.0
 47
0.0
 48
0.0
 49
0.0
140
0.0
141
0.0
142
1.0
143
1.0
 70
   688
 72
     1
 73
     0
 74
     5
  7

 75
    16
147
1.0
148
0.0
149
0.0
100
AcDbLayout
  1
Layout2
 70
     1
 71
     2
 10
0.0
 20
0.0
 11
0.0
 21
0.0
 12
0.0
 22
0.0
 32
0.0
 14
0.0
 24
0.0
 34
0.0
 15
0.0
 25
0.0
 35
0.0
146
0.0
 13
0.0
 23
0.0
 33
0.0
 16
1.0
 26
0.0
 36
0.0
 17
0.0
 27
1.0
 37
0.0
 76
     0
330
23
  0
LAYOUT
  5
22
102
{ACAD_REACTORS
330
1A
102
}
330
1A
100
AcDbPlotSettings
  1

  2
none_device
  4
Letter_(8.50_x_11.00_Inches)
  6

 40
6.35
 41
6.35
 42
6.35000508
 43
6.35000508
 44
215.9
 45
279.4
 46
0.0
 47
0.0
 48
0.0
 49
0.0
140
0.0
141
0.0
142
1.0
143
1.0
 70
  1712
 72
     1
 73
     0
 74
     0
  7

 75
     0
147
1.0
148
0.0
149
0.0
100
AcDbLayout
  1
Model
 70
     1
 71
     0
 10
0.0
 20
0.0
 11
210.0
 21
297.0
 12
0.0
 22
0.0
 32
0.0
 14
0.0
 24
0.0
 34
0.0
 15
210.0
 25
297.0
 35
0.0
146
0.0
 13
0.0
 23
0.0
 33
0.0
 16
1.0
 26
0.0
 36
0.0
 17
0.0
 27
1.0
 37
0.0
 76
     0
330
1F
331
29
  0
MLINESTYLE
  5
18
102
{ACAD_REACTORS
330
17
102
}
330
17
100
AcDbMlineStyle
  2
Standard
 70
     0
  3

 62
   256
 51
90.0
 52
90.0
 71
     2
 49
0.5
 62
   256
  6
BYLAYER
 49
-0.5
 62
   256
  6
BYLAYER
  0
ACDBPLACEHOLDER
  5
F
102
{ACAD_REACTORS
330
E
102
}
330
E
  0
SCALE
  5
48
102
{ACAD_REACTORS
330
47
102
}
330
47
100
AcDbScale
 70
     0
300
1:1
140
1.0
141
1.0
290
     1
  0
SCALE
  5
49
102
{ACAD_REACTORS
330
47
102
}
330
47
100
AcDbScale
 70
     0
300
1:2
140
1.0
141
2.0
290
     0
  0
SCALE
  5
4A
102
{ACAD_REACTORS
330
47
102
}
330
47
100
AcDbScale
 70
     0
300
1:4
140
1.0
141
4.0
290
     0
  0
SCALE
  5
4B
102
{ACAD_REACTORS
330
47
102
}
330
47
100
AcDbScale
 70
     0
300
1:5
140
1.0
141
5.0
290
     0
  0
SCALE
  5
4C
102
{ACAD_REACTORS
330
47
102
}
330
47
100
AcDbScale
 70
     0
300
1:8
140
1.0
141
8.0
290
     0
  0
SCALE
  5
4D
102
{ACAD_REACTORS
330
47
102
}
330
47
100
AcDbScale
 70
     0
300
1:10
140
1.0
141
10.0
290
     0
  0
SCALE
  5
4E
102
{ACAD_REACTORS
330
47
102
}
330
47
100
AcDbScale
 70
     0
300
1:16
140
1.0
141
16.0
290
     0
  0
SCALE
  5
4F
102
{ACAD_REACTORS
330
47
102
}
330
47
100
AcDbScale
 70
     0
300
1:20
140
1.0
141
20.0
290
     0
  0
SCALE
  5
50
102
{ACAD_REACTORS
330
47
102
}
330
47
100
AcDbScale
 70
     0
300
1:30
140
1.0
141
30.0
290
     0
  0
SCALE
  5
51
102
{ACAD_REACTORS
330
47
102
}
330
47
100
AcDbScale
 70
     0
300
1:40
140
1.0
141
40.0
290
     0
  0
SCALE
  5
52
102
{ACAD_REACTORS
330
47
102
}
330
47
100
AcDbScale
 70
     0
300
1:50
140
1.0
141
50.0
290
     0
  0
SCALE
  5
53
102
{ACAD_REACTORS
330
47
102
}
330
47
100
AcDbScale
 70
     0
300
1:100
140
1.0
141
100.0
290
     0
  0
SCALE
  5
54
102
{ACAD_REACTORS
330
47
102
}
330
47
100
AcDbScale
 70
     0
300
2:1
140
2.0
141
1.0
290
     0
  0
SCALE
  5
55
102
{ACAD_REACTORS
330
47
102
}
330
47
100
AcDbScale
 70
     0
300
4:1
140
4.0
141
1.0
290
     0
  0
SCALE
  5
56
102
{ACAD_REACTORS
330
47
102
}
330
47
100
AcDbScale
 70
     0
300
8:1
140
8.0
141
1.0
290
     0
  0
SCALE
  5
57
102
{ACAD_REACTORS
330
47
102
}
330
47
100
AcDbScale
 70
     0
300
10:1
140
10.0
141
1.0
290
     0
  0
SCALE
  5
58
102
{ACAD_REACTORS
330
47
102
}
330
47
100
AcDbScale
 70
     0
300
100:1
140
100.0
141
1.0
290
     0
  0
SCALE
  5
59
102
{ACAD_REACTORS
330
47
102
}
330
47
100
AcDbScale
 70
     0
300
1/128" = 1'-0"
140
0.0078125
141
12.0
290
     0
  0
SCALE
  5
5A
102
{ACAD_REACTORS
330
47
102
}
330
47
100
AcDbScale
 70
     0
300
1/64" = 1'-0"
140
0.015625
141
12.0
290
     0
  0
SCALE
  5
5B
102
{ACAD_REACTORS
330
47
102
}
330
47
100
AcDbScale
 70
     0
300
1/32" = 1'-0"
140
0.03125
141
12.0
290
     0
  0
SCALE
  5
5C
102
{ACAD_REACTORS
330
47
102
}
330
47
100
AcDbScale
 70
     0
300
1/16" = 1'-0"
140
0.0625
141
12.0
290
     0
  0
SCALE
  5
5D
102
{ACAD_REACTORS
330
47
102
}
330
47
100
AcDbScale
 70
     0
300
3/32" = 1'-0"
140
0.09375
141
12.0
290
     0
  0
SCALE
  5
5E
102
{ACAD_REACTORS
330
47
102
}
330
47
100
AcDbScale
 70
     0
300
1/8" = 1'-0"
140
0.125
141
12.0
290
     0
  0
SCALE
  5
5F
102
{ACAD_REACTORS
330
47
102
}
330
47
100
AcDbScale
 70
     0
300
3/16" = 1'-0"
140
0.1875
141
12.0
290
     0
  0
SCALE
  5
60
102
{ACAD_REACTORS
330
47
102
}
330
47
100
AcDbScale
 70
     0
300
1/4" = 1'-0"
140
0.25
141
12.0
290
     0
  0
SCALE
  5
61
102
{ACAD_REACTORS
330
47
102
}
330
47
100
AcDbScale
 70
     0
300
3/8" = 1'-0"
140
0.375
141
12.0
290
     0
  0
SCALE
  5
62
102
{ACAD_REACTORS
330
47
102
}
330
47
100
AcDbScale
 70
     0
300
1/2" = 1'-0"
140
0.5
141
12.0
290
     0
  0
SCALE
  5
63
102
{ACAD_REACTORS
330
47
102
}
330
47
100
AcDbScale
 70
     0
300
3/4" = 1'-0"
140
0.75
141
12.0
290
     0
  0
SCALE
  5
64
102
{ACAD_REACTORS
330
47
102
}
330
47
100
AcDbScale
 70
     0
300
1" = 1'-0"
140
1.0
141
12.0
290
     0
  0
SCALE
  5
65
102
{ACAD_REACTORS
330
47
102
}
330
47
100
AcDbScale
 70
     0
300
1-1/2" = 1'-0"
140
1.5
141
12.0
290
     0
  0
SCALE
  5
66
102
{ACAD_REACTORS
330
47
102
}
330
47
100
AcDbScale
 70
     0
300
3" = 1'-0"
140
3.0
141
12.0
290
     0
  0
SCALE
  5
67
102
{ACAD_REACTORS
330
47
102
}
330
47
100
AcDbScale
 70
     0
300
6" = 1'-0"
140
6.0
141
12.0
290
     0
  0
SCALE
  5
68
102
{ACAD_REACTORS
330
47
102
}
330
47
100
AcDbScale
 70
     0
300
1'-0" = 1'-0"
140
12.0
141
12.0
290
     0
  0
ENDSEC
  0
EOF
