  0
SECTION
  2
HEADER
  9
$ACADVER
  1
AC1027
  9
$ACADMAINTVER
 70
   105
  9
$DWGCODEPAGE
  3
DOS932
  9
$REQUIREDVERSIONS
160
                 0
  9
$INSBASE
 10
0.0
 20
0.0
 30
0.0
  9
$EXTMIN
 10
0.0
 20
0.0
 30
0.0
  9
$EXTMAX
 10
210.0
 20
297.0
 30
0.0
  9
$LIMMIN
 10
0.0
 20
0.0
  9
$LIMMAX
 10
210.0
 20
297.0
  9
$ORTHOMODE
 70
     0
  9
$REGENMODE
 70
     1
  9
$FILLMODE
 70
     1
  9
$QTEXTMODE
 70
     0
  9
$MIRRTEXT
 70
     1
  9
$LTSCALE
 40
1.0
  9
$ATTMODE
 70
     1
  9
$TEXTSIZE
 40
3.5
  9
$TRACEWID
 40
1.0
  9
$TEXTSTYLE
  7
STANDARD
  9
$CLAYER
  8
0
  9
$CELTYPE
  6
ByLayer
  9
$CECOLOR
 62
   256
  9
$CELTSCALE
 40
1.0
  9
$DISPSILH
 70
     0
  9
$DIMSCALE
 40
1.0
  9
$DIMASZ
 40
3.302
  9
$DIMEXO
 40
1.0
  9
$DIMDLI
 40
3.75
  9
$DIMRND
 40
0.0
  9
$DIMDLE
 40
0.0
  9
$DIMEXE
 40
1.0
  9
$DIMTP
 40
0.0
  9
$DIMTM
 40
0.0
  9
$DIMTXT
 40
3.5
  9
$DIMCEN
 40
2.5
  9
$DIMTSZ
 40
0.0
  9
$DIMTOL
 70
     0
  9
$DIMLIM
 70
     0
  9
$DIMTIH
 70
     1
  9
$DIMTOH
 70
     1
  9
$DIMSE1
 70
     0
  9
$DIMSE2
 70
     0
  9
$DIMTAD
 70
     1
  9
$DIMZIN
 70
     1
  9
$DIMBLK
  1

  9
$DIMASO
 70
     1
  9
$DIMSHO
 70
     1
  9
$DIMPOST
  1

  9
$DIMAPOST
  1

  9
$DIMALT
 70
     0
  9
$DIMALTD
 70
     3
  9
$DIMALTF
 40
0.0393700787
  9
$DIMLFAC
 40
5.0
  9
$DIMTOFL
 70
     1
  9
$DIMTVP
 40
0.0
  9
$DIMTIX
 70
     0
  9
$DIMSOXD
 70
     0
  9
$DIMSAH
 70
     0
  9
$DIMBLK1
  1

  9
$DIMBLK2
  1

  9
$DIMSTYLE
  2
ISO-25
  9
$DIMCLRD
 70
     0
  9
$DIMCLRE
 70
     0
  9
$DIMCLRT
 70
     0
  9
$DIMTFAC
 40
1.0
  9
$DIMGAP
 40
1.524
  9
$DIMJUST
 70
     0
  9
$DIMSD1
 70
     0
  9
$DIMSD2
 70
     0
  9
$DIMTOLJ
 70
     0
  9
$DIMTZIN
 70
     1
  9
$DIMALTZ
 70
     0
  9
$DIMALTTZ
 70
     0
  9
$DIMUPT
 70
     0
  9
$DIMDEC
 70
     2
  9
$DIMTDEC
 70
     2
  9
$DIMALTU
 70
     2
  9
$DIMALTTD
 70
     3
  9
$DIMTXSTY
  7
STANDARD
  9
$DIMAUNIT
 70
     0
  9
$DIMADEC
 70
     2
  9
$DIMALTRND
 40
0.0
  9
$DIMAZIN
 70
     0
  9
$DIMDSEP
 70
    44
  9
$DIMATFIT
 70
     3
  9
$DIMFRAC
 70
     0
  9
$DIMLDRBLK
  1

  9
$DIMLUNIT
 70
     2
  9
$DIMLWD
 70
    -2
  9
$DIMLWE
 70
    -2
  9
$DIMTMOVE
 70
     0
  9
$DIMFXL
 40
1.0
  9
$DIMFXLON
 70
     0
  9
$DIMJOGANG
 40
0.7853981634
  9
$DIMTFILL
 70
     0
  9
$DIMTFILLCLR
 70
     0
  9
$DIMARCSYM
 70
     0
  9
$DIMLTYPE
  6

  9
$DIMLTEX1
  6

  9
$DIMLTEX2
  6

  9
$DIMTXTDIRECTION
 70
     0
  9
$LUNITS
 70
     2
  9
$LUPREC
 70
     2
  9
$SKETCHINC
 40
1.0
  9
$FILLETRAD
 40
10.0
  9
$AUNITS
 70
     0
  9
$AUPREC
 70
     2
  9
$MENU
  1
.
  9
$ELEVATION
 40
0.0
  9
$PELEVATION
 40
0.0
  9
$THICKNESS
 40
0.0
  9
$LIMCHECK
 70
     0
  9
$CHAMFERA
 40
0.0
  9
$CHAMFERB
 40
0.0
  9
$CHAMFERC
 40
0.0
  9
$CHAMFERD
 40
0.0
  9
$SKPOLY
 70
     0
  9
$TDCREATE
 40
2458612.399931979
  9
$TDUCREATE
 40
2458612.024931979
  9
$TDUPDATE
 40
2458612.399932384
  9
$TDUUPDATE
 40
2458612.024932384
  9
$TDINDWG
 40
0.0000000116
  9
$TDUSRTIMER
 40
0.0000000116
  9
$USRTIMER
 70
     1
  9
$ANGBASE
 50
0.0
  9
$ANGDIR
 70
     0
  9
$PDMODE
 70
     0
  9
$PDSIZE
 40
-1.0
  9
$PLINEWID
 40
0.0
  9
$SPLFRAME
 70
     0
  9
$SPLINETYPE
 70
     6
  9
$SPLINESEGS
 70
     8
  9
$HANDSEED
  5
14A
  9
$SURFTAB1
 70
     6
  9
$SURFTAB2
 70
     6
  9
$SURFTYPE
 70
     6
  9
$SURFU
 70
     6
  9
$SURFV
 70
     6
  9
$UCSBASE
  2

  9
$UCSNAME
  2

  9
$UCSORG
 10
0.0
 20
0.0
 30
0.0
  9
$UCSXDIR
 10
1.0
 20
0.0
 30
0.0
  9
$UCSYDIR
 10
0.0
 20
1.0
 30
0.0
  9
$UCSORTHOREF
  2

  9
$UCSORTHOVIEW
 70
     0
  9
$UCSORGTOP
 10
0.0
 20
0.0
 30
0.0
  9
$UCSORGBOTTOM
 10
0.0
 20
0.0
 30
0.0
  9
$UCSORGLEFT
 10
0.0
 20
0.0
 30
0.0
  9
$UCSORGRIGHT
 10
0.0
 20
0.0
 30
0.0
  9
$UCSORGFRONT
 10
0.0
 20
0.0
 30
0.0
  9
$UCSORGBACK
 10
0.0
 20
0.0
 30
0.0
  9
$PUCSBASE
  2

  9
$PUCSNAME
  2

  9
$PUCSORG
 10
0.0
 20
0.0
 30
0.0
  9
$PUCSXDIR
 10
1.0
 20
0.0
 30
0.0
  9
$PUCSYDIR
 10
0.0
 20
1.0
 30
0.0
  9
$PUCSORTHOREF
  2

  9
$PUCSORTHOVIEW
 70
     0
  9
$PUCSORGTOP
 10
0.0
 20
0.0
 30
0.0
  9
$PUCSORGBOTTOM
 10
0.0
 20
0.0
 30
0.0
  9
$PUCSORGLEFT
 10
0.0
 20
0.0
 30
0.0
  9
$PUCSORGRIGHT
 10
0.0
 20
0.0
 30
0.0
  9
$PUCSORGFRONT
 10
0.0
 20
0.0
 30
0.0
  9
$PUCSORGBACK
 10
0.0
 20
0.0
 30
0.0
  9
$USERI1
 70
     0
  9
$USERI2
 70
     0
  9
$USERI3
 70
     0
  9
$USERI4
 70
     0
  9
$USERI5
 70
     0
  9
$USERR1
 40
0.0
  9
$USERR2
 40
0.0
  9
$USERR3
 40
0.0
  9
$USERR4
 40
0.0
  9
$USERR5
 40
0.0
  9
$WORLDVIEW
 70
     1
  9
$SHADEDGE
 70
     3
  9
$SHADEDIF
 70
    70
  9
$TILEMODE
 70
     1
  9
$MAXACTVP
 70
    64
  9
$PINSBASE
 10
0.0
 20
0.0
 30
0.0
  9
$PLIMCHECK
 70
     0
  9
$PEXTMIN
 10
1.0000000000E+20
 20
1.0000000000E+20
 30
1.0000000000E+20
  9
$PEXTMAX
 10
-1.0000000000E+20
 20
-1.0000000000E+20
 30
-1.0000000000E+20
  9
$PLIMMIN
 10
0.0
 20
0.0
  9
$PLIMMAX
 10
420.0
 20
297.0
  9
$UNITMODE
 70
     0
  9
$VISRETAIN
 70
     1
  9
$PLINEGEN
 70
     0
  9
$PSLTSCALE
 70
     1
  9
$TREEDEPTH
 70
  3020
  9
$CMLSTYLE
  2
Standard
  9
$CMLJUST
 70
     0
  9
$CMLSCALE
 40
20.0
  9
$PROXYGRAPHICS
 70
     1
  9
$MEASUREMENT
 70
     1
  9
$CELWEIGHT
370
    -1
  9
$ENDCAPS
280
     0
  9
$JOINSTYLE
280
     0
  9
$LWDISPLAY
290
     1
  9
$INSUNITS
 70
     4
  9
$HYPERLINKBASE
  1

  9
$STYLESHEET
  1

  9
$XEDIT
290
     1
  9
$CEPSNTYPE
380
     0
  9
$PSTYLEMODE
290
     1
  9
$FINGERPRINTGUID
  2
{81CFB3EA-A523-434C-9D13-30C4A83BAD89}
  9
$VERSIONGUID
  2
{FAEB1C32-E019-11D5-929B-00C0DF256EC4}
  9
$EXTNAMES
290
     1
  9
$PSVPSCALE
 40
0.0
  9
$OLESTARTUP
290
     0
  9
$SORTENTS
280
   127
  9
$INDEXCTL
280
     0
  9
$HIDETEXT
280
     1
  9
$XCLIPFRAME
280
     2
  9
$HALOGAP
280
     0
  9
$OBSCOLOR
 70
   257
  9
$OBSLTYPE
280
     0
  9
$INTERSECTIONDISPLAY
280
     0
  9
$INTERSECTIONCOLOR
 70
   257
  9
$DIMASSOC
280
     2
  9
$PROJECTNAME
  1

  9
$CAMERADISPLAY
290
     0
  9
$LENSLENGTH
 40
50.0
  9
$CAMERAHEIGHT
 40
0.0
  9
$STEPSPERSEC
 40
2.0
  9
$STEPSIZE
 40
6.0
  9
$3DDWFPREC
 40
2.0
  9
$PSOLWIDTH
 40
5.0
  9
$PSOLHEIGHT
 40
80.0
  9
$LOFTANG1
 40
1.5707963268
  9
$LOFTANG2
 40
1.5707963268
  9
$LOFTMAG1
 40
0.0
  9
$LOFTMAG2
 40
0.0
  9
$LOFTPARAM
 70
     7
  9
$LOFTNORMALS
280
     1
  9
$LATITUDE
 40
37.795
  9
$LONGITUDE
 40
-122.394
  9
$NORTHDIRECTION
 40
0.0
  9
$TIMEZONE
 70
 -8000
  9
$LIGHTGLYPHDISPLAY
280
     1
  9
$TILEMODELIGHTSYNCH
280
     1
  9
$CMATERIAL
347
44
  9
$SOLIDHIST
280
     0
  9
$SHOWHIST
280
     1
  9
$DWFFRAME
280
     2
  9
$DGNFRAME
280
     2
  9
$REALWORLDSCALE
290
     1
  9
$INTERFERECOLOR
 62
   256
  9
$CSHADOW
280
     0
  9
$SHADOWPLANELOCATION
 40
0.0
  0
ENDSEC
  0
SECTION
  2
CLASSES
  0
CLASS
  1
ACDBDICTIONARYWDFLT
  2
AcDbDictionaryWithDefault
  3
ObjectDBX Classes
 90
        0
 91
        4
280
     0
281
     0
  0
CLASS
  1
VISUALSTYLE
  2
AcDbVisualStyle
  3
ObjectDBX Classes
 90
     4095
 91
        4
280
     0
281
     0
  0
CLASS
  1
MATERIAL
  2
AcDbMaterial
  3
ObjectDBX Classes
 90
     1153
 91
        4
280
     0
281
     0
  0
CLASS
  1
SCALE
  2
AcDbScale
  3
ObjectDBX Classes
 90
     1153
 91
        4
280
     0
281
     0
  0
CLASS
  1
TABLESTYLE
  2
AcDbTableStyle
  3
ObjectDBX Classes
 90
     4095
 91
        4
280
     0
281
     0
  0
CLASS
  1
MLEADERSTYLE
  2
AcDbMLeaderStyle
  3
ACDB_MLEADERSTYLE_CLASS
 90
     4095
 91
        4
280
     0
281
     0
  0
CLASS
  1
SUN
  2
AcDbSun
  3
SCENEOE
 90
     1153
 91
        4
280
     0
281
     0
  0
CLASS
  1
DICTIONARYVAR
  2
AcDbDictionaryVar
  3
ObjectDBX Classes
 90
        0
 91
        4
280
     0
281
     0
  0
CLASS
  1
CELLSTYLEMAP
  2
AcDbCellStyleMap
  3
ObjectDBX Classes
 90
     1152
 91
        4
280
     0
281
     0
  0
ENDSEC
  0
SECTION
  2
TABLES
  0
TABLE
  2
VPORT
  5
8
330
0
100
AcDbSymbolTable
 70
     1
  0
VPORT
  5
29
330
8
100
AcDbSymbolTableRecord
100
AcDbViewportTableRecord
  2
*Active
 70
     0
 10
0.0
 20
0.0
 11
1.0
 21
1.0
 12
105.0
 22
148.5
 13
0.0
 23
0.0
 14
10.0
 24
10.0
 15
10.0
 25
10.0
 16
0.0
 26
0.0
 36
1.0
 17
0.0
 27
0.0
 37
0.0
 40
297.0
 41
0.7070707071
 42
50.0
 43
0.0
 44
0.0
 50
0.0
 51
0.0
 71
     0
 72
  2000
 73
     1
 74
     3
 75
     0
 76
     0
 77
     0
 78
     0
281
     0
 65
     1
110
0.0
120
0.0
130
0.0
111
1.0
121
0.0
131
0.0
112
0.0
122
1.0
132
0.0
 79
     0
146
0.0
348
2F
 60
     3
 61
     5
292
     1
282
     1
141
0.0
142
0.0
 63
   250
361
6D
  0
ENDTAB
  0
TABLE
  2
LTYPE
  5
5
330
0
100
AcDbSymbolTable
 70
     8
  0
LTYPE
  5
14
330
5
100
AcDbSymbolTableRecord
100
AcDbLinetypeTableRecord
  2
ByBlock
 70
     0
  3

 72
    65
 73
     0
 40
0.0
  0
LTYPE
  5
15
330
5
100
AcDbSymbolTableRecord
100
AcDbLinetypeTableRecord
  2
ByLayer
 70
     0
  3

 72
    65
 73
     0
 40
0.0
  0
LTYPE
  5
16
330
5
100
AcDbSymbolTableRecord
100
AcDbLinetypeTableRecord
  2
Continuous
 70
     0
  3
Solid line
 72
    65
 73
     0
 40
0.0
  0
LTYPE
  5
6E
330
5
100
AcDbSymbolTableRecord
100
AcDbLinetypeTableRecord
  2
SLD-実線
 70
     0
  3
SolidWorks Line Style
 72
    65
 73
     0
 40
0.0
  0
LTYPE
  5
6F
330
5
100
AcDbSymbolTableRecord
100
AcDbLinetypeTableRecord
  2
SLD-破線
 70
     0
  3
SolidWorks Line Style
 72
    65
 73
     2
 40
1.905
 49
1.27
 74
     0
 49
-0.635
 74
     0
  0
LTYPE
  5
70
330
5
100
AcDbSymbolTableRecord
100
AcDbLinetypeTableRecord
  2
SLD-2点鎖線
 70
     0
  3
SolidWorks Line Style
 72
    65
 73
     6
 40
12.7
 49
6.35
 74
     0
 49
-1.27
 74
     0
 49
1.27
 74
     0
 49
-1.27
 74
     0
 49
1.27
 74
     0
 49
-1.27
 74
     0
  0
LTYPE
  5
71
330
5
100
AcDbSymbolTableRecord
100
AcDbLinetypeTableRecord
  2
SLD-鎖線
 70
     0
  3
SolidWorks Line Style
 72
    65
 73
     4
 40
10.16
 49
6.35
 74
     0
 49
-1.27
 74
     0
 49
1.27
 74
     0
 49
-1.27
 74
     0
  0
LTYPE
  5
72
330
5
100
AcDbSymbolTableRecord
100
AcDbLinetypeTableRecord
  2
SLD-1点鎖線(中心線)
 70
     0
  3
SolidWorks Line Style
 72
    65
 73
     4
 40
34.29
 49
30.48
 74
     0
 49
-1.27
 74
     0
 49
1.27
 74
     0
 49
-1.27
 74
     0
  0
LTYPE
  5
73
330
5
100
AcDbSymbolTableRecord
100
AcDbLinetypeTableRecord
  2
SLD-点線
 70
     0
  3
SolidWorks Line Style
 72
    65
 73
     2
 40
0.635
 49
0.0
 74
     0
 49
-0.635
 74
     0
  0
LTYPE
  5
74
330
5
100
AcDbSymbolTableRecord
100
AcDbLinetypeTableRecord
  2
SLD-細-太鎖線(切断面)
 70
     0
  3
SolidWorks Line Style
 72
    65
 73
     4
 40
10.16
 49
6.35
 74
     0
 49
-1.27
 74
     0
 49
1.27
 74
     0
 49
-1.27
 74
     0
  0
ENDTAB
  0
TABLE
  2
LAYER
  5
2
330
0
100
AcDbSymbolTable
 70
     1
  0
LAYER
  5
10
330
2
100
AcDbSymbolTableRecord
100
AcDbLayerTableRecord
  2
0
 70
     0
 62
     7
  6
Continuous
370
    -3
390
F
347
46
348
0
  0
ENDTAB
  0
TABLE
  2
STYLE
  5
3
330
0
100
AcDbSymbolTable
 70
     2
  0
STYLE
  5
11
330
3
100
AcDbSymbolTableRecord
100
AcDbTextStyleTableRecord
  2
STANDARD
 70
     0
 40
0.0
 41
1.0
 50
0.0
 71
     0
 42
3.5
  3
GOTHIC.TTF
  4

1001
ACAD
1000
CENTURY GOTHIC
1071
       34
  0
STYLE
  5
75
330
3
100
AcDbSymbolTableRecord
100
AcDbTextStyleTableRecord
  2
SLDTEXTSTYLE0
 70
     0
 40
0.0
 41
1.0
 50
0.0
 71
     0
 42
3.5
  3
MSGOTHIC.TTC
  4

1001
ACAD
1000
ＭＳ Ｐゴシック
1071
      306
  0
ENDTAB
  0
TABLE
  2
VIEW
  5
6
330
0
100
AcDbSymbolTable
 70
     0
  0
ENDTAB
  0
TABLE
  2
UCS
  5
7
330
0
100
AcDbSymbolTable
 70
     0
  0
ENDTAB
  0
TABLE
  2
APPID
  5
9
330
0
100
AcDbSymbolTable
 70
     1
  0
APPID
  5
12
330
9
100
AcDbSymbolTableRecord
100
AcDbRegAppTableRecord
  2
ACAD
 70
     0
  0
ENDTAB
  0
TABLE
  2
DIMSTYLE
  5
A
330
0
100
AcDbSymbolTable
 70
     1
100
AcDbDimStyleTable
  0
DIMSTYLE
105
27
330
A
100
AcDbSymbolTableRecord
100
AcDbDimStyleTableRecord
  2
ISO-25
 70
     0
 41
2.5
 42
0.625
 43
3.75
 44
1.25
 73
     0
 74
     0
 77
     1
 78
     8
140
2.5
141
2.5
143
0.0393700787
147
0.625
171
     3
172
     1
178
     0
271
     2
272
     2
274
     3
278
    44
283
     0
284
     8
340
11
  0
ENDTAB
  0
TABLE
  2
BLOCK_RECORD
  5
1
330
0
100
AcDbSymbolTable
 70
     1
  0
BLOCK_RECORD
  5
1F
330
1
100
AcDbSymbolTableRecord
100
AcDbBlockTableRecord
  2
*Model_Space
340
22
 70
     0
280
     1
281
     0
  0
BLOCK_RECORD
  5
1B
330
1
100
AcDbSymbolTableRecord
100
AcDbBlockTableRecord
  2
*Paper_Space
340
1E
 70
     0
280
     1
281
     0
  0
BLOCK_RECORD
  5
23
330
1
100
AcDbSymbolTableRecord
100
AcDbBlockTableRecord
  2
*Paper_Space0
340
26
 70
     0
280
     1
281
     0
  0
ENDTAB
  0
ENDSEC
  0
SECTION
  2
BLOCKS
  0
BLOCK
  5
20
330
1F
100
AcDbEntity
  8
0
100
AcDbBlockBegin
  2
*Model_Space
 70
     0
 10
0.0
 20
0.0
 30
0.0
  3
*Model_Space
  1

  0
ENDBLK
  5
21
330
1F
100
AcDbEntity
  8
0
100
AcDbBlockEnd
  0
BLOCK
  5
1C
330
1B
100
AcDbEntity
 67
     1
  8
0
100
AcDbBlockBegin
  2
*Paper_Space
 70
     0
 10
0.0
 20
0.0
 30
0.0
  3
*Paper_Space
  1

  0
ENDBLK
  5
1D
330
1B
100
AcDbEntity
 67
     1
  8
0
100
AcDbBlockEnd
  0
BLOCK
  5
24
330
23
100
AcDbEntity
  8
0
100
AcDbBlockBegin
  2
*Paper_Space0
 70
     0
 10
0.0
 20
0.0
 30
0.0
  3
*Paper_Space0
  1

  0
ENDBLK
  5
25
330
23
100
AcDbEntity
  8
0
100
AcDbBlockEnd
  0
ENDSEC
  0
SECTION
  2
ENTITIES
  0
MTEXT
  5
76
330
1F
100
AcDbEntity
  8
0
  6
Continuous
 62
     7
370
     0
100
AcDbMText
 10
146.3455760996
 20
106.8559297493
 30
0.0
 40
3.5
 41
0.0
 46
0.0
 71
     1
 72
     1
  1
HBA-D25K
  7
SLDTEXTSTYLE0
 73
     1
 44
1.0
  0
SPLINE
  5
77
330
1F
100
AcDbEntity
  8
0
  6
SLD-実線
 62
     7
370
    25
100
AcDbSpline
210
0.0
220
0.0
230
1.0
 70
     8
 71
     3
 72
     9
 73
     5
 74
     0
 42
0.000000001
 43
0.00000001
 40
0.0
 40
0.0
 40
0.0
 40
0.0
 40
0.7862261910236241
 40
1.0
 40
1.0
 40
1.0
 40
1.0
 10
87.23276686093467
 20
168.9356444733517
 30
0.0
 10
87.20061337561096
 20
168.8034897586902
 30
0.0
 10
87.15971740230097
 20
168.6354023607246
 30
0.0
 10
87.17350278640228
 20
168.4644481872448
 30
0.0
 10
87.17644974046982
 20
168.4279026624197
 30
0.0
  0
LINE
  5
78
330
1F
100
AcDbEntity
  8
0
  6
SLD-実線
 62
     7
370
    25
100
AcDbLine
 10
87.1673897681
 20
168.4228039672
 30
0.0
 11
87.1673897681
 21
131.3230809551
 31
0.0
  0
SPLINE
  5
79
330
1F
100
AcDbEntity
  8
0
  6
SLD-実線
 62
     7
370
    25
100
AcDbSpline
210
0.0
220
0.0
230
1.0
 70
     8
 71
     3
 72
    36
 73
    32
 74
     0
 42
0.000000001
 43
0.00000001
 40
0.0
 40
0.0
 40
0.0
 40
0.0
 40
0.0238971059360429
 40
0.050023641731605
 40
0.0762343216575786
 40
0.1031521057398705
 40
0.1314668982171757
 40
0.1619419320811275
 40
0.1952876951064234
 40
0.2317318537041776
 40
0.270405770720487
 40
0.3095106725179683
 40
0.3479331061316493
 40
0.3855781073233882
 40
0.4225817765226267
 40
0.4591023918340519
 40
0.4952716533983998
 40
0.5311923116785456
 40
0.5669452051279025
 40
0.6025963616477062
 40
0.6382026739267874
 40
0.6738158976167474
 40
0.7094723114340266
 40
0.7452271984719309
 40
0.7811430107215158
 40
0.8172948029579445
 40
0.8537773436319167
 40
0.8907138847203376
 40
0.928266820095919
 40
0.9666410862643172
 40
1.0
 40
1.0
 40
1.0
 40
1.0
 10
87.17213519098021
 20
131.32097736374
 30
0.0
 10
87.17870312114493
 20
131.1309730104658
 30
0.0
 10
87.19245172260146
 20
130.7332382504045
 30
0.0
 10
87.33965230704216
 20
130.1474489077331
 30
0.0
 10
87.57225431274848
 20
129.5785544570909
 30
0.0
 10
87.88978486651658
 20
129.0469871545728
 30
0.0
 10
88.28788447178525
 20
128.54799419526
 30
0.0
 10
88.77401014890457
 20
128.0749339918361
 30
0.0
 10
89.36021241085501
 20
127.6228632662768
 30
0.0
 10
90.05684063730737
 20
127.1929573164025
 30
0.0
 10
90.86051146127926
 20
126.7936498279961
 30
0.0
 10
91.75216529015859
 20
126.4346386321998
 30
0.0
 10
92.7078196022076
 20
126.1209589532427
 30
0.0
 10
93.71189077716114
 20
125.8519405270032
 30
0.0
 10
94.75742761449831
 20
125.6248380436866
 30
0.0
 10
95.83922932924966
 20
125.4375675245557
 30
0.0
 10
96.95184126154533
 20
125.2889401084025
 30
0.0
 10
98.08906725489135
 20
125.1783409269911
 30
0.0
 10
99.24404056856154
 20
125.1055243052637
 30
0.0
 10
100.4093753973283
 20
125.0703719704679
 30
0.0
 10
101.5773618867754
 20
125.0728248937761
 30
0.0
 10
102.7399839024469
 20
125.1128029899484
 30
0.0
 10
103.8892795965654
 20
125.1901809600366
 30
0.0
 10
105.0175532576707
 20
125.3048057384969
 30
0.0
 10
106.1176936896363
 20
125.4566478797853
 30
0.0
 10
107.183286368149
 20
125.6458480567455
 30
0.0
 10
108.2085662251125
 20
125.8732011643667
 30
0.0
 10
109.1896782490224
 20
126.1397677810066
 30
0.0
 10
110.120923851203
 20
126.4504432550507
 30
0.0
 10
110.9628687306936
 20
126.7853044849938
 30
0.0
 10
111.4570753144182
 20
127.0440991896654
 30
0.0
 10
111.6869019415957
 20
127.164449496733
 30
0.0
  0
SPLINE
  5
7A
330
1F
100
AcDbEntity
  8
0
  6
SLD-実線
 62
     7
370
    25
100
AcDbSpline
210
0.0
220
0.0
230
1.0
 70
     8
 71
     3
 72
     9
 73
     5
 74
     0
 42
0.000000001
 43
0.00000001
 40
0.0
 40
0.0
 40
0.0
 40
0.0
 40
0.8486996865089775
 40
1.0
 40
1.0
 40
1.0
 40
1.0
 10
87.51588561275932
 20
180.6029244196916
 30
0.0
 10
87.49162534296516
 20
180.5032903425941
 30
0.0
 10
87.46304011997074
 20
180.3858941909503
 30
0.0
 10
87.47284904146993
 20
180.266773383534
 30
0.0
 10
87.47433313436775
 20
180.2487503680286
 30
0.0
  0
LINE
  5
7B
330
1F
100
AcDbEntity
  8
0
  6
SLD-実線
 62
     7
370
    25
100
AcDbLine
 10
87.4697907602
 20
180.2741005286
 30
0.0
 11
87.1679797275
 21
169.4080467434
 31
0.0
  0
ARC
  5
7C
330
1F
100
AcDbEntity
  8
0
  6
SLD-実線
 62
     7
370
    25
100
AcDbCircle
 10
115.3184486045
 20
177.3521079635
 30
0.0
 40
0.2500000000000194
100
AcDbArc
 50
262.8192442221
 51
311.40962211
  0
LINE
  5
7D
330
1F
100
AcDbEntity
  8
0
  6
SLD-実線
 62
     7
370
    25
100
AcDbLine
 10
68.9841883585
 20
182.9377007731
 30
0.0
 11
115.2871984882
 21
177.1040698352
 31
0.0
  0
LINE
  5
7E
330
1F
100
AcDbEntity
  8
0
  6
SLD-実線
 62
     7
370
    25
100
AcDbLine
 10
115.4838080534
 20
177.1646079621
 30
0.0
 11
132.984700295
 21
192.5989441602
 31
0.0
  0
ARC
  5
7F
330
1F
100
AcDbEntity
  8
0
  6
SLD-実線
 62
     7
370
    25
100
AcDbCircle
 10
69.0154384417
 20
187.1926773324
 30
0.0
 40
0.25
100
AcDbArc
 50
131.40962211
 51
180.0
  0
LINE
  5
80
330
1F
100
AcDbEntity
  8
0
  6
SLD-実線
 62
     7
370
    25
100
AcDbLine
 10
68.7654384688
 20
187.1926773804
 30
0.0
 11
68.7654384688
 21
183.1857378577
 31
0.0
  0
LINE
  5
81
330
1F
100
AcDbEntity
  8
0
  6
SLD-実線
 62
     7
370
    25
100
AcDbLine
 10
86.3509717414
 20
202.8145136261
 30
0.0
 11
68.8500794998
 21
187.380177428
 31
0.0
  0
ARC
  5
82
330
1F
100
AcDbEntity
  8
0
  6
SLD-実線
 62
     7
370
    25
100
AcDbCircle
 10
69.0154384417
 20
183.1857389056
 30
0.0
 40
0.2500000000000105
100
AcDbArc
 50
180.0
 51
262.8192442221
  0
ARC
  5
83
330
1F
100
AcDbEntity
  8
0
  6
SLD-実線
 62
     7
370
    25
100
AcDbCircle
 10
132.8193414349
 20
196.7933831076
 30
0.0
 40
0.25
100
AcDbArc
 50
0.0
 51
82.8192442221
  0
LINE
  5
84
330
1F
100
AcDbEntity
  8
0
  6
SLD-実線
 62
     7
370
    25
100
AcDbLine
 10
133.0693427922
 20
192.7864435253
 30
0.0
 11
133.0693427922
 21
196.793383048
 31
0.0
  0
LINE
  5
85
330
1F
100
AcDbEntity
  8
0
  6
SLD-実線
 62
     7
370
    25
100
AcDbLine
 10
132.850591378
 20
197.0414238369
 30
0.0
 11
86.5475812483
 21
202.8750547748
 31
0.0
  0
ARC
  5
86
330
1F
100
AcDbEntity
  8
0
  6
SLD-実線
 62
     7
370
    25
100
AcDbCircle
 10
132.8193414349
 20
192.7864446808
 30
0.0
 40
0.2500000000000075
100
AcDbArc
 50
311.40962211
 51
0.0
  0
ARC
  5
87
330
1F
100
AcDbEntity
  8
0
  6
SLD-実線
 62
     7
370
    25
100
AcDbCircle
 10
86.516331272
 20
202.6270140497
 30
0.0
 40
0.2500000000000194
100
AcDbArc
 50
82.8192442221
 51
131.40962211
  0
LINE
  5
88
330
1F
100
AcDbEntity
  8
0
  6
SLD-実線
 62
     7
370
    25
100
AcDbLine
 10
107.6658712726
 20
200.3569606892
 30
0.0
 11
107.5244263873
 21
200.2322180256
 31
0.0
  0
SPLINE
  5
89
330
1F
100
AcDbEntity
  8
0
  6
SLD-実線
 62
     7
370
    25
100
AcDbSpline
210
0.0
220
0.0
230
1.0
 70
     8
 71
     3
 72
    10
 73
     6
 74
     0
 42
0.000000001
 43
0.00000001
 40
0.0
 40
0.0
 40
0.0
 40
0.0
 40
0.2590358904152677
 40
0.51198269372906
 40
1.0
 40
1.0
 40
1.0
 40
1.0
 10
131.0902938118321
 20
197.4057803167523
 30
0.0
 10
131.1225303734308
 20
197.3996851861158
 30
0.0
 10
131.1862457204333
 20
197.3876382014415
 30
0.0
 10
131.3070084630634
 20
197.3340812932655
 30
0.0
 10
131.3798141885105
 20
197.2657110812312
 30
0.0
 10
131.4277658417069
 20
197.2206807669764
 30
0.0
  0
LINE
  5
8A
330
1F
100
AcDbEntity
  8
0
  6
SLD-実線
 62
     7
370
    25
100
AcDbLine
 10
92.1851729654
 20
202.3073457385
 30
0.0
 11
131.0912401454
 21
197.4056420148
 31
0.0
  0
LINE
  5
8B
330
1F
100
AcDbEntity
  8
0
  6
SLD-実線
 62
     7
370
    25
100
AcDbLine
 10
117.4067201494
 20
199.129729951
 30
0.0
 11
117.4067201494
 21
198.9871682359
 31
0.0
  0
SPLINE
  5
8C
330
1F
100
AcDbEntity
  8
0
  6
SLD-実線
 62
     7
370
    25
100
AcDbSpline
210
0.0
220
0.0
230
1.0
 70
     8
 71
     3
 72
    11
 73
     7
 74
     0
 42
0.000000001
 43
0.00000001
 40
0.0
 40
0.0
 40
0.0
 40
0.0
 40
0.2488669370592225
 40
0.4980169230661329
 40
0.747903829934614
 40
1.0
 40
1.0
 40
1.0
 40
1.0
 10
90.88674537905092
 20
203.2665902414754
 30
0.0
 10
90.84905509567555
 20
203.2236857441744
 30
0.0
 10
90.77363166186029
 20
203.1378279521189
 30
0.0
 10
90.69573995751273
 20
202.9819972133919
 30
0.0
 10
90.64577732855533
 20
202.8122369225623
 30
0.0
 10
90.64315553834714
 20
202.6928319885641
 30
0.0
 10
90.64183887390054
 20
202.6328667667647
 30
0.0
  0
SPLINE
  5
8D
330
1F
100
AcDbEntity
  8
0
  6
SLD-実線
 62
     7
370
    25
100
AcDbSpline
210
0.0
220
0.0
230
1.0
 70
     8
 71
     3
 72
     9
 73
     5
 74
     0
 42
0.000000001
 43
0.00000001
 40
0.0
 40
0.0
 40
0.0
 40
0.0
 40
0.4894129539711486
 40
1.0
 40
1.0
 40
1.0
 40
1.0
 10
91.900417560479
 20
202.2329776420784
 30
0.0
 10
91.9407140998435
 20
202.2587188992868
 30
0.0
 10
92.02305057875672
 20
202.311315090294
 30
0.0
 10
92.12974795705101
 20
202.3087787379226
 30
0.0
 10
92.18422625625331
 20
202.3074837092576
 30
0.0
  0
LINE
  5
8E
330
1F
100
AcDbEntity
  8
0
  6
SLD-実線
 62
     7
370
    25
100
AcDbLine
 10
133.1415842557
 20
156.8165193454
 30
0.0
 11
133.6020815262
 21
157.1624952786
 31
0.0
  0
LINE
  5
8F
330
1F
100
AcDbEntity
  8
0
  6
SLD-実線
 62
     7
370
    25
100
AcDbLine
 10
91.9601563024
 20
204.3800002428
 30
0.0
 11
90.8640044787
 21
203.2488015547
 31
0.0
  0
LINE
  5
90
330
1F
100
AcDbEntity
  8
0
  6
SLD-実線
 62
     7
370
    25
100
AcDbLine
 10
116.8781950056
 20
157.936078403
 30
0.0
 11
127.9609605501
 21
156.5397811908
 31
0.0
  0
LINE
  5
91
330
1F
100
AcDbEntity
  8
0
  6
SLD-実線
 62
     7
370
    25
100
AcDbLine
 10
90.6371862003
 20
202.64886916
 30
0.0
 11
90.6371862003
 21
202.359812024
 31
0.0
  0
LINE
  5
92
330
1F
100
AcDbEntity
  8
0
  6
SLD-実線
 62
     7
370
    25
100
AcDbLine
 10
98.5955538492
 20
207.668097187
 30
0.0
 11
94.4500661866
 21
204.3810038715
 31
0.0
  0
LINE
  5
93
330
1F
100
AcDbEntity
  8
0
  6
SLD-実線
 62
     7
370
    25
100
AcDbLine
 10
133.9143160186
 20
159.6327507028
 30
0.0
 11
137.6938137697
 21
163.3348375703
 31
0.0
  0
LINE
  5
94
330
1F
100
AcDbEntity
  8
0
  6
SLD-実線
 62
     7
370
    25
100
AcDbLine
 10
140.2154399878
 20
204.966044745
 30
0.0
 11
141.0993232797
 21
205.7455565378
 31
0.0
  0
LINE
  5
95
330
1F
100
AcDbEntity
  8
0
  6
SLD-実線
 62
     7
370
    25
100
AcDbLine
 10
141.0993232797
 20
205.7455565378
 30
0.0
 11
141.0993232797
 21
161.208978093
 31
0.0
  0
LINE
  5
96
330
1F
100
AcDbEntity
  8
0
  6
SLD-実線
 62
     7
370
    25
100
AcDbLine
 10
140.2154399878
 20
160.4294663002
 30
0.0
 11
141.0993232797
 21
161.208978093
 31
0.0
  0
LINE
  5
97
330
1F
100
AcDbEntity
  8
0
  6
SLD-実線
 62
     7
370
    25
100
AcDbLine
 10
140.2154399878
 20
204.966044745
 30
0.0
 11
140.2154399878
 21
160.4294663002
 31
0.0
  0
LINE
  5
98
330
1F
100
AcDbEntity
  8
0
  6
SLD-実線
 62
     7
370
    25
100
AcDbLine
 10
96.0281734337
 20
210.5331170478
 30
0.0
 11
140.2154399878
 21
204.966044745
 31
0.0
  0
LINE
  5
99
330
1F
100
AcDbEntity
  8
0
  6
SLD-実線
 62
     7
370
    25
100
AcDbLine
 10
96.0281734337
 20
210.5331170478
 30
0.0
 11
96.9120567256
 21
211.3126288406
 31
0.0
  0
LINE
  5
9A
330
1F
100
AcDbEntity
  8
0
  6
SLD-実線
 62
     7
370
    25
100
AcDbLine
 10
141.0993232797
 20
205.7455565378
 30
0.0
 11
96.9120567256
 21
211.3126288406
 31
0.0
  0
LINE
  5
9B
330
1F
100
AcDbEntity
  8
0
  6
SLD-実線
 62
     7
370
    25
100
AcDbLine
 10
96.0281734337
 20
205.6323376986
 30
0.0
 11
96.0281734337
 21
210.5331170478
 31
0.0
  0
LINE
  5
9C
330
1F
100
AcDbEntity
  8
0
  6
SLD-実線
 62
     7
370
    25
100
AcDbLine
 10
140.2154399878
 20
160.4294663002
 30
0.0
 11
135.3530987172
 21
161.0420637186
 31
0.0
  0
LWPOLYLINE
  5
9D
330
1F
100
AcDbEntity
  8
0
  6
SLD-実線
 62
     7
370
    25
100
AcDbPolyline
 90
       15
 70
   128
 43
0.0
 10
96.0560313779
 20
165.0782978052
 10
97.2635201947
 20
164.9470700162
 10
98.5021811457
 20
164.8535400273
 10
99.7614488537
 20
164.7985052954
 10
101.0305792379
 20
164.7824353318
 10
102.2987427906
 20
164.8054679153
 10
103.5551213397
 20
164.8674048665
 10
104.7889974989
 20
164.9677206903
 10
105.989840509
 20
165.1055557434
 10
107.1474066912
 20
165.279738094
 10
108.251821379
 20
165.4887785085
 10
109.2936615226
 20
165.7308958876
 10
110.2640381287
 20
166.0040214818
 10
111.1546741042
 20
166.3058289095
 10
111.686902792
 20
166.5160495208
  0
LWPOLYLINE
  5
9E
330
1F
100
AcDbEntity
  8
0
  6
SLD-実線
 62
     7
370
    25
100
AcDbPolyline
 90
       15
 70
   128
 43
0.0
 10
87.1679797275
 20
169.4080467434
 10
87.1678558529
 20
169.3278839478
 10
87.2369522865
 20
168.9051616021
 10
87.4227670707
 20
168.4863695848
 10
87.7237103988
 20
168.0750773901
 10
88.1372197016
 20
167.6747965286
 10
88.659763694
 20
167.2889401925
 10
89.286887126
 20
166.9208030152
 10
90.0132362039
 20
166.5735220253
 10
90.8326177885
 20
166.2500638792
 10
91.7380365871
 20
165.9531856598
 10
92.7217722208
 20
165.6854211845
 10
93.7754291626
 20
165.4490548011
 10
94.8900176941
 20
165.2461032234
 10
96.0560313779
 20
165.0782978052
  0
LINE
  5
9F
330
1F
100
AcDbEntity
  8
0
  6
SLD-実線
 62
     7
370
    25
100
AcDbLine
 10
102.4751036574
 20
178.2818592516
 30
0.0
 11
102.9080624269
 21
178.6636929957
 31
0.0
  0
LINE
  5
A0
330
1F
100
AcDbEntity
  8
0
  6
SLD-実線
 62
     7
370
    25
100
AcDbLine
 10
102.4751036574
 20
178.7182406967
 30
0.0
 11
102.4751036574
 21
178.2818592516
 31
0.0
  0
LINE
  5
A1
330
1F
100
AcDbEntity
  8
0
  6
SLD-実線
 62
     7
370
    25
100
AcDbLine
 10
94.0563748992
 20
179.3425193773
 30
0.0
 11
102.4751036574
 21
178.2818592516
 31
0.0
  0
LINE
  5
A2
330
1F
100
AcDbEntity
  8
0
  6
SLD-実線
 62
     7
370
    25
100
AcDbLine
 10
94.0563748992
 20
179.7789008223
 30
0.0
 11
94.0563748992
 21
179.3425193773
 31
0.0
  0
LINE
  5
A3
330
1F
100
AcDbEntity
  8
0
  6
SLD-実線
 62
     7
370
    25
100
AcDbLine
 10
111.6869006554
 20
114.0453075082
 30
0.0
 11
111.6869006554
 21
177.2135148695
 31
0.0
  0
LINE
  5
A4
330
1F
100
AcDbEntity
  8
0
  6
SLD-実線
 62
     7
370
    25
100
AcDbLine
 10
115.4639145931
 20
176.7732912777
 30
0.0
 11
111.6869006554
 21
177.2135148695
 31
0.0
  0
LINE
  5
A5
330
1F
100
AcDbEntity
  8
0
  6
SLD-実線
 62
     7
370
    25
100
AcDbLine
 10
115.4639145931
 20
109.8338471318
 30
0.0
 11
115.4639145931
 21
176.7732912777
 31
0.0
  0
LINE
  5
A6
330
1F
100
AcDbEntity
  8
0
  6
SLD-実線
 62
     7
370
    25
100
AcDbLine
 10
111.7528284299
 20
110.2663872027
 30
0.0
 11
115.4639145931
 21
109.8338471318
 31
0.0
  0
LINE
  5
A7
330
1F
100
AcDbEntity
  8
0
  6
SLD-実線
 62
     7
370
    25
100
AcDbLine
 10
115.3184490593
 20
176.8807054735
 30
0.0
 11
112.0444991803
 21
177.2931843868
 31
0.0
  0
LINE
  5
A8
330
1F
100
AcDbEntity
  8
0
  6
SLD-実線
 62
     7
370
    25
100
AcDbLine
 10
116.5558857996
 20
177.9720220995
 30
0.0
 11
115.3184490593
 21
176.8807054735
 31
0.0
  0
LINE
  5
A9
330
1F
100
AcDbEntity
  8
0
  6
SLD-実線
 62
     7
370
    25
100
AcDbLine
 10
116.8781955585
 20
178.0205698505
 30
0.0
 11
115.4639145931
 21
176.7732912777
 31
0.0
  0
LINE
  5
AA
330
1F
100
AcDbEntity
  8
0
  6
SLD-実線
 62
     7
370
    25
100
AcDbLine
 10
112.0283520314
 20
177.5146466781
 30
0.0
 11
111.6869006554
 21
177.2135148695
 31
0.0
  0
LINE
  5
AB
330
1F
100
AcDbEntity
  8
0
  6
SLD-実線
 62
     7
370
    25
100
AcDbLine
 10
116.5536919917
 20
178.0636252486
 30
0.0
 11
116.8781955585
 21
178.0205698505
 31
0.0
  0
LINE
  5
AC
330
1F
100
AcDbEntity
  8
0
  6
SLD-実線
 62
     7
370
    25
100
AcDbLine
 10
133.1415837236
 20
125.4240858916
 30
0.0
 11
115.4639145931
 21
109.8338471318
 31
0.0
  0
LINE
  5
AD
330
1F
100
AcDbEntity
  8
0
  6
SLD-実線
 62
     7
370
    25
100
AcDbLine
 10
116.8781955585
 20
178.0205698505
 30
0.0
 11
116.8781955585
 21
114.8523624892
 31
0.0
  0
LINE
  5
AE
330
1F
100
AcDbEntity
  8
0
  6
SLD-実線
 62
     7
370
    25
100
AcDbLine
 10
116.8781955585
 20
114.8523624892
 30
0.0
 11
131.7273027582
 21
127.9480441034
 31
0.0
  0
LINE
  5
AF
330
1F
100
AcDbEntity
  8
0
  6
SLD-実線
 62
     7
370
    25
100
AcDbLine
 10
131.7273027582
 20
127.9480441034
 30
0.0
 11
131.7273027582
 21
191.1162514648
 31
0.0
  0
LINE
  5
B0
330
1F
100
AcDbEntity
  8
0
  6
SLD-実線
 62
     7
370
    25
100
AcDbLine
 10
133.1415837236
 20
192.3635300376
 30
0.0
 11
131.7273027582
 21
191.1162514648
 31
0.0
  0
LINE
  5
B1
330
1F
100
AcDbEntity
  8
0
  6
SLD-実線
 62
     7
370
    25
100
AcDbLine
 10
133.1415837236
 20
125.4240858916
 30
0.0
 11
133.1415837236
 21
192.3635300376
 31
0.0
  0
LINE
  5
B2
330
1F
100
AcDbEntity
  8
0
  6
SLD-実線
 62
     7
370
    25
100
AcDbLine
 10
115.3160807219
 20
177.1021180217
 30
0.0
 11
115.3184490593
 21
176.8807054735
 31
0.0
  0
LINE
  5
B3
330
1F
100
AcDbEntity
  8
0
  6
SLD-実線
 62
     7
370
    25
100
AcDbLine
 10
116.5526480835
 20
178.1072362658
 30
0.0
 11
116.5558857996
 21
177.9720220995
 31
0.0
  0
LINE
  5
B4
330
1F
100
AcDbEntity
  8
0
  6
SLD-実線
 62
     7
370
    25
100
AcDbLine
 10
112.0496995069
 20
177.5119539035
 30
0.0
 11
112.0444991803
 21
177.2931843868
 31
0.0
  0
LINE
  5
B5
330
1F
100
AcDbEntity
  8
0
  6
SLD-実線
 62
     7
370
    25
100
AcDbLine
 10
72.2893891352
 20
182.3018574568
 30
0.0
 11
69.0154389295
 21
182.7143364114
 31
0.0
  0
LINE
  5
B6
330
1F
100
AcDbEntity
  8
0
  6
SLD-実線
 62
     7
370
    25
100
AcDbLine
 10
72.507096047
 20
182.4938569059
 30
0.0
 11
72.2893891352
 21
182.3018574568
 31
0.0
  0
LINE
  5
B7
330
1F
100
AcDbEntity
  8
0
  6
SLD-実線
 62
     7
370
    25
100
AcDbLine
 10
72.3994982959
 20
182.1632623099
 30
0.0
 11
68.6931967778
 21
182.6658478452
 31
0.0
  0
LINE
  5
B8
330
1F
100
AcDbEntity
  8
0
  6
SLD-実線
 62
     7
370
    25
100
AcDbLine
 10
68.9992922163
 20
182.9357986478
 30
0.0
 11
68.6931967778
 21
182.6658478452
 31
0.0
  0
LINE
  5
B9
330
1F
100
AcDbEntity
  8
0
  6
SLD-実線
 62
     7
370
    25
100
AcDbLine
 10
72.3994982959
 20
182.1632623099
 30
0.0
 11
72.740949672
 21
182.4643941186
 31
0.0
  0
LINE
  5
BA
330
1F
100
AcDbEntity
  8
0
  6
SLD-実線
 62
     7
370
    25
100
AcDbLine
 10
72.3994982959
 20
118.9950549486
 30
0.0
 11
72.4101693512
 21
119.0044659347
 31
0.0
  0
LINE
  5
BB
330
1F
100
AcDbEntity
  8
0
  6
SLD-実線
 62
     7
370
    25
100
AcDbLine
 10
72.3994982959
 20
118.9950549486
 30
0.0
 11
72.3994982959
 21
182.1632623099
 31
0.0
  0
LINE
  5
BC
330
1F
100
AcDbEntity
  8
0
  6
SLD-実線
 62
     7
370
    25
100
AcDbLine
 10
73.8738200812
 20
182.3216635378
 30
0.0
 11
73.8738200812
 21
120.2952845474
 31
0.0
  0
LINE
  5
BD
330
1F
100
AcDbEntity
  8
0
  6
SLD-実線
 62
     7
370
    25
100
AcDbLine
 10
73.8490680273
 20
120.2734552877
 30
0.0
 11
73.8738200812
 21
120.2952845474
 31
0.0
  0
LINE
  5
BE
330
1F
100
AcDbEntity
  8
0
  6
SLD-実線
 62
     7
370
    25
100
AcDbLine
 10
73.8490680273
 20
120.2734552877
 30
0.0
 11
72.4101693512
 21
119.0044659347
 31
0.0
  0
LINE
  5
BF
330
1F
100
AcDbEntity
  8
0
  6
SLD-実線
 62
     7
370
    25
100
AcDbLine
 10
68.6931967778
 20
115.7264036993
 30
0.0
 11
72.3348051886
 21
115.2325913273
 31
0.0
  0
LINE
  5
C0
330
1F
100
AcDbEntity
  8
0
  6
SLD-実線
 62
     7
370
    25
100
AcDbLine
 10
68.6931967778
 20
115.7264036993
 30
0.0
 11
68.6931967778
 21
182.6658478452
 31
0.0
  0
LINE
  5
C1
330
1F
100
AcDbEntity
  8
0
  6
SLD-実線
 62
     7
370
    25
100
AcDbLine
 10
72.2870404255
 20
182.5215780627
 30
0.0
 11
72.2893891352
 21
182.3018574568
 31
0.0
  0
LINE
  5
C2
330
1F
100
AcDbEntity
  8
0
  6
SLD-実線
 62
     7
370
    25
100
AcDbLine
 10
69.020640563
 20
182.9331057634
 30
0.0
 11
69.0154389295
 21
182.7143364114
 31
0.0
  0
LINE
  5
C3
330
1F
100
AcDbEntity
  8
0
  6
SLD-実線
 62
     7
370
    25
100
AcDbLine
 10
111.6869015898
 20
114.0560628031
 30
0.0
 11
72.4101693512
 21
119.0044659347
 31
0.0
  0
LINE
  5
C4
330
1F
100
AcDbEntity
  8
0
  6
SLD-実線
 62
     7
370
    25
100
AcDbLine
 10
111.7522179575
 20
110.3014769525
 30
0.0
 11
72.3695434114
 21
115.2632275602
 31
0.0
  0
LINE
  5
C5
330
1F
100
AcDbEntity
  8
0
  6
SLD-実線
 62
     7
370
    25
100
AcDbLine
 10
73.8490680273
 20
120.2734552877
 30
0.0
 11
111.686902075
 21
115.5063362882
 31
0.0
  0
LINE
  5
C6
330
1F
100
AcDbEntity
  8
0
  6
SLD-実線
 62
     7
370
    25
100
AcDbLine
 10
116.8781951568
 20
118.6235989194
 30
0.0
 11
127.9609595464
 21
128.3976783909
 31
0.0
  0
LINE
  5
C7
330
1F
100
AcDbEntity
  8
0
  6
SLD-実線
 62
     7
370
    25
100
AcDbLine
 10
127.9609595464
 20
128.3976783909
 30
0.0
 11
131.7273027582
 21
127.9480441034
 31
0.0
  0
LINE
  5
C8
330
1F
100
AcDbEntity
  8
0
  6
SLD-実線
 62
     7
370
    25
100
AcDbLine
 10
72.3695434114
 20
115.2632275602
 30
0.0
 11
72.3348051886
 21
115.2325913273
 31
0.0
  0
LINE
  5
C9
330
1F
100
AcDbEntity
  8
0
  6
SLD-実線
 62
     7
370
    25
100
AcDbLine
 10
127.9609595464
 20
188.1684212692
 30
0.0
 11
127.9609595464
 21
128.3976783909
 31
0.0
  0
LINE
  5
CA
330
1F
100
AcDbEntity
  8
0
  6
SLD-実線
 62
     7
370
    25
100
AcDbLine
 10
131.7273027582
 20
191.1162514648
 30
0.0
 11
131.3540155565
 21
191.1608153986
 31
0.0
  0
LINE
  5
CB
330
1F
100
AcDbEntity
  8
0
  6
SLD-実線
 62
     7
370
    25
100
AcDbLine
 10
131.5819043959
 20
191.2237249003
 30
0.0
 11
131.4449177477
 21
191.2409835957
 31
0.0
  0
LINE
  5
CC
330
1F
100
AcDbEntity
  8
0
  6
SLD-実線
 62
     7
370
    25
100
AcDbLine
 10
132.8193413009
 20
192.3150416715
 30
0.0
 11
131.5819043959
 21
191.2237249003
 31
0.0
  0
LINE
  5
CD
330
1F
100
AcDbEntity
  8
0
  6
SLD-実線
 62
     7
370
    25
100
AcDbLine
 10
132.817124993
 20
192.4075276225
 30
0.0
 11
133.1415837236
 21
192.3635300376
 31
0.0
  0
LINE
  5
CE
330
1F
100
AcDbEntity
  8
0
  6
SLD-実線
 62
     7
370
    25
100
AcDbLine
 10
131.5804440914
 20
191.3605065962
 30
0.0
 11
131.5819043959
 21
191.2237249003
 31
0.0
  0
LINE
  5
CF
330
1F
100
AcDbEntity
  8
0
  6
SLD-実線
 62
     7
370
    25
100
AcDbLine
 10
132.8161044079
 20
192.4502565637
 30
0.0
 11
132.8193413009
 21
192.3150416715
 31
0.0
  0
LINE
  5
D0
330
1F
100
AcDbEntity
  8
0
  6
SLD-実線
 62
     7
370
    25
100
AcDbLine
 10
87.1673898357
 20
132.0191110832
 30
0.0
 11
73.8738200812
 21
120.2952845474
 31
0.0
  0
LINE
  5
D1
330
1F
100
AcDbEntity
  8
0
  6
SLD-実線
 62
     7
370
    25
100
AcDbLine
 10
77.5254134867
 20
119.810277564
 30
0.0
 11
87.9457561876
 21
129.0001560185
 31
0.0
  0
LINE
  5
D2
330
1F
100
AcDbEntity
  8
0
  6
SLD-実線
 62
     7
370
    25
100
AcDbLine
 10
84.9565849428
 20
133.8406006709
 30
0.0
 11
87.1673899645
 21
133.5472671026
 31
0.0
  0
LINE
  5
D3
330
1F
100
AcDbEntity
  8
0
  6
SLD-実線
 62
     7
370
    25
100
AcDbLine
 10
73.873820224
 20
124.066520909
 30
0.0
 11
84.9565849428
 21
133.8406006709
 31
0.0
  0
LINE
  5
D4
330
1F
100
AcDbEntity
  8
0
  6
SLD-実線
 62
     7
370
    25
100
AcDbLine
 10
84.9565849428
 20
133.8406006709
 30
0.0
 11
84.9565849428
 21
180.9253669303
 31
0.0
  0
LINE
  5
D5
330
1F
100
AcDbEntity
  8
0
  6
SLD-実線
 62
     7
370
    25
100
AcDbLine
 10
127.9609605058
 20
128.4226266591
 30
0.0
 11
116.878193219
 21
129.8189240908
 31
0.0
  0
LINE
  5
D6
330
1F
100
AcDbEntity
  8
0
  6
SLD-実線
 62
     7
370
    25
100
AcDbLine
 10
110.9899344899
 20
126.8144185296
 30
0.0
 11
111.6869003656
 21
126.726609083
 31
0.0
  0
LINE
  5
D7
330
1F
100
AcDbEntity
  8
0
  6
SLD-実線
 62
     7
370
    25
100
AcDbLine
 10
116.8781963714
 20
126.0725672637
 30
0.0
 11
124.2687394702
 21
125.1414463549
 31
0.0
  0
LINE
  5
D8
330
1F
100
AcDbEntity
  8
0
  6
SLD-実線
 62
     7
370
    25
100
AcDbLine
 10
127.960960991
 20
129.8729001442
 30
0.0
 11
116.8781954465
 21
131.2691973564
 31
0.0
  0
ARC
  5
D9
330
1F
100
AcDbEntity
  8
0
  6
SLD-実線
 62
     7
370
    25
100
AcDbCircle
 10
115.7213069289
 20
181.3119422157
 30
0.0
 40
0.4922139120479492
100
AcDbArc
 50
144.9310251031
 51
183.5930301761
  0
ARC
  5
DA
330
1F
100
AcDbEntity
  8
0
  6
SLD-実線
 62
     7
370
    25
100
AcDbCircle
 10
115.2793170754
 20
181.3245357942
 30
0.0
 40
0.2730327197273111
100
AcDbArc
 50
1.059448557
 51
81.7597956648
  0
ARC
  5
DB
330
1F
100
AcDbEntity
  8
0
  6
SLD-実線
 62
     7
370
    25
100
AcDbCircle
 10
115.3220728673
 20
181.7646208166
 30
0.0
 40
0.4922020911803475
100
AcDbArc
 50
259.2257313291
 51
297.8887018347
  0
LINE
  5
DC
330
1F
100
AcDbEntity
  8
0
  6
SLD-実線
 62
     7
370
    25
100
AcDbLine
 10
115.5523031199
 20
181.3295841178
 30
0.0
 11
115.5523031199
 21
177.3226445951
 31
0.0
  0
ARC
  5
DD
330
1F
100
AcDbEntity
  8
0
  6
SLD-実線
 62
     7
370
    25
100
AcDbCircle
 10
115.3220728673
 20
177.757681294
 30
0.0
 40
0.4922020911806725
100
AcDbArc
 50
259.2257313291
 51
297.8887018347
  0
LINE
  5
DE
330
1F
100
AcDbEntity
  8
0
  6
SLD-実線
 62
     7
370
    25
100
AcDbLine
 10
115.2300605325
 20
177.2741560838
 30
0.0
 11
115.2300605325
 21
181.2810956065
 31
0.0
  0
LINE
  5
DF
330
1F
100
AcDbEntity
  8
0
  6
SLD-実線
 62
     7
370
    25
100
AcDbLine
 10
69.0154389295
 20
187.428380636
 30
0.0
 11
70.6524139779
 21
187.2221411656
 31
0.0
  0
LINE
  5
E0
330
1F
100
AcDbEntity
  8
0
  6
SLD-実線
 62
     7
370
    25
100
AcDbLine
 10
70.6524139779
 20
187.2221411656
 30
0.0
 11
113.6814741198
 21
181.8009891548
 31
0.0
  0
LINE
  5
E1
330
1F
100
AcDbEntity
  8
0
  6
SLD-実線
 62
     7
370
    25
100
AcDbLine
 10
113.6814741198
 20
181.8009891548
 30
0.0
 11
115.3184490593
 21
181.5947496981
 31
0.0
  0
LINE
  5
E2
330
1F
100
AcDbEntity
  8
0
  6
SLD-実線
 62
     7
370
    25
100
AcDbLine
 10
115.2300605325
 20
181.2810956065
 30
0.0
 11
68.9270504028
 21
187.1147265444
 31
0.0
  0
ARC
  5
E3
330
1F
100
AcDbEntity
  8
0
  6
SLD-実線
 62
     7
370
    25
100
AcDbCircle
 10
69.4182967991
 20
187.1455731535
 30
0.0
 40
0.4922139120476947
100
AcDbArc
 50
144.9310251031
 51
183.5930301761
  0
LINE
  5
E4
330
1F
100
AcDbEntity
  8
0
  6
SLD-実線
 62
     7
370
    25
100
AcDbLine
 10
68.9270504028
 20
183.1077870217
 30
0.0
 11
115.2300605325
 21
177.2741560838
 31
0.0
  0
LINE
  5
E5
330
1F
100
AcDbEntity
  8
0
  6
SLD-実線
 62
     7
370
    25
100
AcDbLine
 10
68.9270504028
 20
187.1147265444
 30
0.0
 11
68.9270504028
 21
183.1077870217
 31
0.0
  0
LINE
  5
E6
330
1F
100
AcDbEntity
  8
0
  6
SLD-実線
 62
     7
370
    25
100
AcDbLine
 10
115.3184490593
 20
181.5947496981
 30
0.0
 11
115.9371674294
 21
182.1404080111
 31
0.0
  0
LINE
  5
E7
330
1F
100
AcDbEntity
  8
0
  6
SLD-実線
 62
     7
370
    25
100
AcDbLine
 10
115.9371674294
 20
182.1404080111
 30
0.0
 11
132.2006229307
 21
196.4834275831
 31
0.0
  0
LINE
  5
E8
330
1F
100
AcDbEntity
  8
0
  6
SLD-実線
 62
     7
370
    25
100
AcDbLine
 10
132.2006229307
 20
196.4834275831
 30
0.0
 11
132.8193413009
 21
197.0290858961
 31
0.0
  0
ARC
  5
E9
330
1F
100
AcDbEntity
  8
0
  6
SLD-実線
 62
     7
370
    25
100
AcDbCircle
 10
132.780209317
 20
196.7588719922
 30
0.0
 40
0.2730327197271948
100
AcDbArc
 50
1.059448557
 51
81.7597956648
  0
LINE
  5
EA
330
1F
100
AcDbEntity
  8
0
  6
SLD-実線
 62
     7
370
    25
100
AcDbLine
 10
133.0531953615
 20
196.7639203158
 30
0.0
 11
115.5523031199
 21
181.3295841178
 31
0.0
  0
LINE
  5
EB
330
1F
100
AcDbEntity
  8
0
  6
SLD-実線
 62
     7
370
    25
100
AcDbLine
 10
133.0531953615
 20
192.7569807932
 30
0.0
 11
133.0531953615
 21
196.7639203158
 31
0.0
  0
LINE
  5
EC
330
1F
100
AcDbEntity
  8
0
  6
SLD-実線
 62
     7
370
    25
100
AcDbLine
 10
115.5523031199
 20
177.3226445951
 30
0.0
 11
133.0531953615
 21
192.7569807932
 31
0.0
  0
LINE
  5
ED
330
1F
100
AcDbEntity
  8
0
  6
SLD-実線
 62
     7
370
    25
100
AcDbLine
 10
85.897612801
 20
202.317058521
 30
0.0
 11
69.6341572997
 21
187.974038949
 31
0.0
  0
LINE
  5
EE
330
1F
100
AcDbEntity
  8
0
  6
SLD-実線
 62
     7
370
    25
100
AcDbLine
 10
131.1823663614
 20
197.2353253528
 30
0.0
 11
88.1533063829
 21
202.6564773431
 31
0.0
  0
LINE
  5
EF
330
1F
100
AcDbEntity
  8
0
  6
SLD-実線
 62
     7
370
    25
100
AcDbLine
 10
69.6341572997
 20
187.974038949
 30
0.0
 11
69.0154389295
 21
187.428380636
 31
0.0
  0
LINE
  5
F0
330
1F
100
AcDbEntity
  8
0
  6
SLD-実線
 62
     7
370
    25
100
AcDbLine
 10
86.5163311711
 20
202.862716834
 30
0.0
 11
85.897612801
 21
202.317058521
 31
0.0
  0
LINE
  5
F1
330
1F
100
AcDbEntity
  8
0
  6
SLD-実線
 62
     7
370
    25
100
AcDbLine
 10
132.8193413009
 20
197.0290858961
 30
0.0
 11
131.1823663614
 21
197.2353253528
 31
0.0
  0
LINE
  5
F2
330
1F
100
AcDbEntity
  8
0
  6
SLD-実線
 62
     7
370
    25
100
AcDbLine
 10
88.1533063829
 20
202.6564773431
 30
0.0
 11
86.5163311711
 21
202.862716834
 31
0.0
  0
SPLINE
  5
F3
330
1F
100
AcDbEntity
  8
0
  6
SLD-実線
 62
     7
370
    25
100
AcDbSpline
210
0.0
220
0.0
230
1.0
 70
     8
 71
     3
 72
     9
 73
     5
 74
     0
 42
0.000000001
 43
0.00000001
 40
0.0
 40
0.0
 40
0.0
 40
0.0
 40
0.8602161112851533
 40
1.0
 40
1.0
 40
1.0
 40
1.0
 10
115.579867369529
 20
199.3598911950404
 30
0.0
 10
115.6136796626013
 20
199.3189253068105
 30
0.0
 10
115.6529864049754
 20
199.2713025202891
 30
0.0
 10
115.6628891480581
 20
199.2146186701046
 30
0.0
 10
115.6642733919951
 20
199.2066951810985
 30
0.0
  0
LINE
  5
F4
330
1F
100
AcDbEntity
  8
0
  6
SLD-実線
 62
     7
370
    25
100
AcDbLine
 10
116.6285290672
 20
199.2277722398
 30
0.0
 11
116.630055223
 21
199.0850181076
 31
0.0
  0
LINE
  5
F5
330
1F
100
AcDbEntity
  8
0
  6
SLD-実線
 62
     7
370
    25
100
AcDbLine
 10
106.6237156438
 20
200.3456983955
 30
0.0
 11
106.6270959316
 21
200.487834374
 31
0.0
  0
ARC
  5
F6
330
1F
100
AcDbEntity
  8
0
  6
SLD-実線
 62
     7
370
    25
100
AcDbCircle
 10
132.4547852395
 20
197.8289657067
 30
0.0
 40
0.5030688477077095
100
AcDbArc
 50
259.5268781657
 51
297.0019280249
  0
SPLINE
  5
F7
330
1F
100
AcDbEntity
  8
0
  6
SLD-実線
 62
     7
370
    25
100
AcDbSpline
210
0.0
220
0.0
230
1.0
 70
     8
 71
     3
 72
     9
 73
     5
 74
     0
 42
0.000000001
 43
0.00000001
 40
0.0
 40
0.0
 40
0.0
 40
0.0
 40
0.4996503982312165
 40
1.0
 40
1.0
 40
1.0
 40
1.0
 10
132.3633402778903
 20
197.3342778409204
 30
0.0
 10
132.3537533959631
 20
197.4290095763504
 30
0.0
 10
132.3345662163647
 20
197.6186056134302
 30
0.0
 10
132.2168535968262
 20
197.7795056517596
 30
0.0
 10
132.157956134517
 20
197.8600119218623
 30
0.0
  0
SPLINE
  5
F8
330
1F
100
AcDbEntity
  8
0
  6
SLD-実線
 62
     7
370
    25
100
AcDbSpline
210
0.0
220
0.0
230
1.0
 70
     8
 71
     3
 72
     9
 73
     5
 74
     0
 42
0.000000001
 43
0.00000001
 40
0.0
 40
0.0
 40
0.0
 40
0.0
 40
0.5003496017687835
 40
1.0
 40
1.0
 40
1.0
 40
1.0
 10
132.157956134517
 20
197.8600119218623
 30
0.0
 10
132.0854434786743
 20
197.9285107199171
 30
0.0
 10
131.9405194983486
 20
198.0654125937521
 30
0.0
 10
131.754808909418
 20
198.1081487879672
 30
0.0
 10
131.662018539703
 20
198.1295019444256
 30
0.0
  0
ARC
  5
F9
330
1F
100
AcDbEntity
  8
0
  6
SLD-実線
 62
     7
370
    25
100
AcDbCircle
 10
132.1642570609
 20
198.1583936964
 30
0.0
 40
0.5030688476840224
100
AcDbArc
 50
145.8173161957
 51
183.2923660566
  0
SPLINE
  5
FA
330
1F
100
AcDbEntity
  8
0
  6
SLD-実線
 62
     7
370
    25
100
AcDbSpline
210
0.0
220
0.0
230
1.0
 70
     8
 71
     3
 72
    11
 73
     7
 74
     0
 42
0.000000001
 43
0.00000001
 40
0.0
 40
0.0
 40
0.0
 40
0.0
 40
0.2500134206404147
 40
0.499999999928439
 40
0.7499865792573661
 40
1.0
 40
1.0
 40
1.0
 40
1.0
 10
132.6831887694693
 20
197.3807357396415
 30
0.0
 10
132.6688373965995
 20
197.5057608371916
 30
0.0
 10
132.6401361916184
 20
197.7557976096415
 30
0.0
 10
132.4235770192246
 20
198.0942675232421
 30
0.0
 10
132.1148317194267
 20
198.3514369143217
 30
0.0
 10
131.8703437074998
 20
198.4111676109127
 30
0.0
 10
131.7480931391325
 20
198.4410345624646
 30
0.0
  0
LINE
  5
FB
330
1F
100
AcDbEntity
  8
0
  6
SLD-実線
 62
     7
370
    25
100
AcDbLine
 10
132.9792234447
 20
199.5267894358
 30
0.0
 11
131.7480931494
 21
198.4410345715
 31
0.0
  0
SPLINE
  5
FC
330
1F
100
AcDbEntity
  8
0
  6
SLD-実線
 62
     7
370
    25
100
AcDbSpline
210
0.0
220
0.0
230
1.0
 70
     8
 71
     3
 72
     9
 73
     5
 74
     0
 42
0.000000001
 43
0.00000001
 40
0.0
 40
0.0
 40
0.0
 40
0.0
 40
0.5000504583761788
 40
1.0
 40
1.0
 40
1.0
 40
1.0
 10
132.9792234446861
 20
199.5267894358306
 30
0.0
 10
133.1036231416228
 20
199.4996194907987
 30
0.0
 10
133.3523974300028
 20
199.4452850839868
 30
0.0
 10
133.5444554257361
 20
199.2600690842957
 30
0.0
 10
133.6404747326681
 20
199.1674704301488
 30
0.0
  0
SPLINE
  5
FD
330
1F
100
AcDbEntity
  8
0
  6
SLD-実線
 62
     7
370
    25
100
AcDbSpline
210
0.0
220
0.0
230
1.0
 70
     8
 71
     3
 72
     9
 73
     5
 74
     0
 42
0.000000001
 43
0.00000001
 40
0.0
 40
0.0
 40
0.0
 40
0.0
 40
0.4999495416238212
 40
1.0
 40
1.0
 40
1.0
 40
1.0
 10
133.6404747326681
 20
199.1674704301488
 30
0.0
 10
133.7203446982874
 20
199.0606293956838
 30
0.0
 10
133.8801007515881
 20
198.8469257604771
 30
0.0
 10
133.9029122135781
 20
198.5933108722606
 30
0.0
 10
133.9143190956025
 20
198.4664906311569
 30
0.0
  0
LINE
  5
FE
330
1F
100
AcDbEntity
  8
0
  6
SLD-実線
 62
     7
370
    25
100
AcDbLine
 10
132.6831888003
 20
197.3807357669
 30
0.0
 11
133.9143190956
 21
198.4664906312
 31
0.0
  0
SPLINE
  5
FF
330
1F
100
AcDbEntity
  8
0
  6
SLD-実線
 62
     7
370
    25
100
AcDbSpline
210
0.0
220
0.0
230
1.0
 70
     8
 71
     3
 72
     9
 73
     5
 74
     0
 42
0.000000001
 43
0.00000001
 40
0.0
 40
0.0
 40
0.0
 40
0.0
 40
0.4996561689847665
 40
1.0
 40
1.0
 40
1.0
 40
1.0
 10
131.034101796174
 20
197.5757314285775
 30
0.0
 10
131.1268935094501
 20
197.5543784924265
 30
0.0
 10
131.3126046424971
 20
197.5116432327092
 30
0.0
 10
131.4575279220788
 20
197.3747400626165
 30
0.0
 10
131.5300393909879
 20
197.3062414060142
 30
0.0
  0
LINE
  5
100
330
1F
100
AcDbEntity
  8
0
  6
SLD-実線
 62
     7
370
    25
100
AcDbLine
 10
92.1280346162
 20
202.4774351523
 30
0.0
 11
131.0341017962
 21
197.5757314286
 31
0.0
  0
SPLINE
  5
101
330
1F
100
AcDbEntity
  8
0
  6
SLD-実線
 62
     7
370
    25
100
AcDbSpline
210
0.0
220
0.0
230
1.0
 70
     8
 71
     3
 72
     9
 73
     5
 74
     0
 42
0.000000001
 43
0.00000001
 40
0.0
 40
0.0
 40
0.0
 40
0.0
 40
0.5003475353791612
 40
1.0
 40
1.0
 40
1.0
 40
1.0
 10
91.63209713025394
 20
202.3329096437439
 30
0.0
 10
91.70460934067846
 20
202.3831370289869
 30
0.0
 10
91.84953302930934
 20
202.4835220247976
 30
0.0
 10
92.03524378125508
 20
202.4794631694085
 30
0.0
 10
92.12803461617136
 20
202.4774351523099
 30
0.0
  0
SPLINE
  5
102
330
1F
100
AcDbEntity
  8
0
  6
SLD-実線
 62
     7
370
    25
100
AcDbSpline
210
0.0
220
0.0
230
1.0
 70
     8
 71
     3
 72
     9
 73
     5
 74
     0
 42
0.000000001
 43
0.00000001
 40
0.0
 40
0.0
 40
0.0
 40
0.0
 40
0.5003486539314733
 40
1.0
 40
1.0
 40
1.0
 40
1.0
 10
91.00418082231111
 20
203.0449002520086
 30
0.0
 10
90.94528410526718
 20
202.9792345614588
 30
0.0
 10
90.82757275223135
 20
202.84799469495
 30
0.0
 10
90.80838502387643
 20
202.6632339287588
 30
0.0
 10
90.79879784957588
 20
202.5709179632306
 30
0.0
  0
SPLINE
  5
103
330
1F
100
AcDbEntity
  8
0
  6
SLD-実線
 62
     7
370
    25
100
AcDbSpline
210
0.0
220
0.0
230
1.0
 70
     8
 71
     3
 72
     9
 73
     5
 74
     0
 42
0.000000001
 43
0.00000001
 40
0.0
 40
0.0
 40
0.0
 40
0.0
 40
0.4996509242849376
 40
1.0
 40
1.0
 40
1.0
 40
1.0
 10
91.50011819933196
 20
203.1894257742943
 30
0.0
 10
91.40732773893862
 20
203.1914536402213
 30
0.0
 10
91.22161716404845
 20
203.1955122055685
 30
0.0
 10
91.07669332915108
 20
203.0951275977478
 30
0.0
 10
91.00418082231111
 20
203.0449002520086
 30
0.0
  0
LINE
  5
104
330
1F
100
AcDbEntity
  8
0
  6
SLD-実線
 62
     7
370
    25
100
AcDbLine
 10
131.6620185397
 20
198.1295019444
 30
0.0
 11
91.5001181993
 21
203.1894257743
 31
0.0
  0
ARC
  5
105
330
1F
100
AcDbEntity
  8
0
  6
SLD-実線
 62
     7
370
    25
100
AcDbCircle
 10
92.0023567205
 20
203.2183175263
 30
0.0
 40
0.5030688476836805
100
AcDbArc
 50
145.8173161957
 51
183.2923660567
  0
LINE
  5
106
330
1F
100
AcDbEntity
  8
0
  6
SLD-実線
 62
     7
370
    25
100
AcDbLine
 10
91.5861927782
 20
203.5009583742
 30
0.0
 11
131.7480931391
 21
198.4410345625
 31
0.0
  0
LINE
  5
107
330
1F
100
AcDbEntity
  8
0
  6
SLD-実線
 62
     7
370
    25
100
AcDbLine
 10
91.5861928091
 20
203.5009584014
 30
0.0
 11
92.6577870272
 21
204.6068129221
 31
0.0
  0
LINE
  5
108
330
1F
100
AcDbEntity
  8
0
  6
SLD-実線
 62
     7
370
    25
100
AcDbLine
 10
92.6577870272
 20
204.6068129221
 30
0.0
 11
132.9792234447
 21
199.5267894358
 31
0.0
  0
LINE
  5
109
330
1F
100
AcDbEntity
  8
0
  6
SLD-実線
 62
     7
370
    25
100
AcDbLine
 10
133.9143190956
 20
198.4664906312
 30
0.0
 11
133.9143190956
 21
157.8263027205
 31
0.0
  0
SPLINE
  5
10A
330
1F
100
AcDbEntity
  8
0
  6
SLD-実線
 62
     7
370
    25
100
AcDbSpline
210
0.0
220
0.0
230
1.0
 70
     8
 71
     3
 72
    11
 73
     7
 74
     0
 42
0.000000001
 43
0.00000001
 40
0.0
 40
0.0
 40
0.0
 40
0.0
 40
0.2500017693661213
 40
0.499999715864025
 40
0.7500005517292962
 40
1.0
 40
1.0
 40
1.0
 40
1.0
 10
137.1754487101118
 20
202.9920237767982
 30
0.0
 10
137.2215023387354
 20
202.9837309446623
 30
0.0
 10
137.3136088917599
 20
202.9671454071993
 30
0.0
 10
137.4458735679949
 20
202.9082682751032
 30
0.0
 10
137.5689285015469
 20
202.8284317140372
 30
0.0
 10
137.6372871989487
 20
202.75779115466
 30
0.0
 10
137.6714664527956
 20
202.7224709729918
 30
0.0
  0
SPLINE
  5
10B
330
1F
100
AcDbEntity
  8
0
  6
SLD-実線
 62
     7
370
    25
100
AcDbSpline
210
0.0
220
0.0
230
1.0
 70
     8
 71
     3
 72
    11
 73
     7
 74
     0
 42
0.000000001
 43
0.00000001
 40
0.0
 40
0.0
 40
0.0
 40
0.0
 40
0.2499994482707038
 40
0.5000002841359751
 40
0.7499982306338787
 40
1.0
 40
1.0
 40
1.0
 40
1.0
 10
137.6714664527956
 20
202.7224709729918
 30
0.0
 10
137.7022372024253
 20
202.6841447731564
 30
0.0
 10
137.7637788724745
 20
202.6074921607601
 30
0.0
 10
137.8276073880801
 20
202.4754228087134
 30
0.0
 10
137.8694896470973
 20
202.3368358769949
 30
0.0
 10
137.8744317807828
 20
202.2433785472786
 30
0.0
 10
137.8769028665187
 20
202.1966495251451
 30
0.0
  0
LINE
  5
10C
330
1F
100
AcDbEntity
  8
0
  6
SLD-実線
 62
     7
370
    25
100
AcDbLine
 10
137.8769028665
 20
202.1966495251
 30
0.0
 11
137.8769028665
 21
163.7881184747
 31
0.0
  0
LINE
  5
10D
330
1F
100
AcDbEntity
  8
0
  6
SLD-実線
 62
     7
370
    25
100
AcDbLine
 10
99.068163078
 20
207.793090485
 30
0.0
 11
137.1754487101
 21
202.9920237768
 31
0.0
  0
LINE
  5
10E
330
1F
100
AcDbEntity
  8
0
  6
SLD-実線
 62
     7
370
    25
100
AcDbLine
 10
133.6404747327
 20
157.1943265047
 30
0.0
 11
133.5876363783
 21
157.1647931159
 31
0.0
  0
SPLINE
  5
10F
330
1F
100
AcDbEntity
  8
0
  6
SLD-実線
 62
     7
370
    25
100
AcDbSpline
210
0.0
220
0.0
230
1.0
 70
     8
 71
     3
 72
     9
 73
     5
 74
     0
 42
0.000000001
 43
0.00000001
 40
0.0
 40
0.0
 40
0.0
 40
0.0
 40
0.5000492953632986
 40
0.9999999999999999
 40
0.9999999999999999
 40
0.9999999999999999
 40
0.9999999999999999
 10
133.9143190956025
 20
157.8263027205379
 30
0.0
 10
133.9029121073869
 20
157.7023573107163
 30
0.0
 10
133.8801003799804
 20
157.4544909283997
 30
0.0
 10
133.720344698296
 20
157.2810422791304
 30
0.0
 10
133.6404747326681
 20
157.1943265047099
 30
0.0
  0
SPLINE
  5
110
330
1F
100
AcDbEntity
  8
0
  6
SLD-実線
 62
     7
370
    25
100
AcDbSpline
210
0.0
220
0.0
230
1.0
 70
     8
 71
     3
 72
     9
 73
     5
 74
     0
 42
0.000000001
 43
0.00000001
 40
0.0
 40
0.0
 40
0.0
 40
0.0
 40
0.4999507046367013
 40
0.9999999999999999
 40
0.9999999999999999
 40
0.9999999999999999
 40
0.9999999999999999
 10
91.99653701870463
 20
204.4141134182206
 30
0.0
 10
92.09255640460204
 20
204.4825174712774
 30
0.0
 10
92.28461411150572
 20
204.6193390667316
 30
0.0
 10
92.53338787967438
 20
204.6109885780927
 30
0.0
 10
92.657787027152
 20
204.6068129221328
 30
0.0
  0
LINE
  5
111
330
1F
100
AcDbEntity
  8
0
  6
SLD-実線
 62
     7
370
    25
100
AcDbLine
 10
91.9606304736
 20
204.3653811624
 30
0.0
 11
91.9965370187
 21
204.4141134182
 31
0.0
  0
SPLINE
  5
112
330
1F
100
AcDbEntity
  8
0
  6
SLD-実線
 62
     7
370
    25
100
AcDbSpline
210
0.0
220
0.0
230
1.0
 70
     8
 71
     3
 72
    11
 73
     7
 74
     0
 42
0.000000001
 43
0.00000001
 40
0.0
 40
0.0
 40
0.0
 40
0.0
 40
0.2499975881027445
 40
0.4999981182041262
 40
0.7499994589462005
 40
1.0
 40
1.0
 40
1.0
 40
1.0
 10
98.57214740431266
 20
207.648522143588
 30
0.0
 10
98.60659728201196
 20
207.6751958874787
 30
0.0
 10
98.67549744282042
 20
207.7285436891595
 30
0.0
 10
98.79872675067321
 20
207.7773515462331
 30
0.0
 10
98.93075972453558
 20
207.8029295298724
 30
0.0
 10
99.02236200898835
 20
207.7963701631181
 30
0.0
 10
99.06816307796174
 20
207.7930904849864
 30
0.0
  0
SPLINE
  5
113
330
1F
100
AcDbEntity
  8
0
  6
SLD-実線
 62
     7
370
    25
100
AcDbSpline
210
0.0
220
0.0
230
1.0
 70
     8
 71
     3
 72
    10
 73
     6
 74
     0
 42
0.000000001
 43
0.00000001
 40
0.0
 40
0.0
 40
0.0
 40
0.0
 40
0.289017521645636
 40
0.5742857507795449
 40
1.0
 40
1.0
 40
1.0
 40
1.0
 10
137.8769028665187
 20
163.7881184747258
 30
0.0
 10
137.8738539187018
 20
163.7382898351461
 30
0.0
 10
137.8677955756778
 20
163.6392789602054
 30
0.0
 10
137.8133765872954
 20
163.4780101126508
 30
0.0
 10
137.7359789376749
 20
163.3906087350804
 30
0.0
 10
137.6896356264081
 20
163.3382755018911
 30
0.0
  0
LWPOLYLINE
  5
114
330
1F
100
AcDbEntity
  8
0
  6
SLD-実線
 62
     8
370
    25
100
AcDbPolyline
 90
       28
 70
   128
 43
0.0
 10
111.686902792
 20
165.5732403246
 10
110.9810925451
 20
165.2996939058
 10
110.0475784896
 20
164.9957523855
 10
109.0318272042
 20
164.7226776895
 10
107.9429888551
 20
164.4829304627
 10
106.7908744307
 20
164.2786690568
 10
105.5858535871
 20
164.111733195
 10
104.3387860649
 20
163.9836273907
 10
103.0609025365
 20
163.8955054266
 10
101.7637120965
 20
163.8481607696
 10
100.4588988727
 20
163.8420196843
 10
99.1582160446
 20
163.877137328
 10
97.8733755263
 20
163.9531970464
 10
96.615954689
 20
164.0695141609
 10
95.3972756314
 20
164.2250418865
 10
94.2283158536
 20
164.4183786032
 10
93.1196063504
 20
164.6477833499
 10
92.0811288129
 20
164.9111887763
 10
91.1222386231
 20
165.2062227916
 10
90.2515747593
 20
165.5302292083
 10
89.4769771179
 20
165.8802887785
 10
88.8054222115
 20
166.2532485349
 10
88.2429592929
 20
166.6457497515
 10
87.7946538941
 20
167.0542562968
 10
87.4645444949
 20
167.4750892978
 10
87.2556052692
 20
167.9044583839
 10
87.169715396
 20
168.3384960856
 10
87.167393236
 20
168.4260479426
  0
LWPOLYLINE
  5
115
330
1F
100
AcDbEntity
  8
0
  6
SLD-実線
 62
     8
370
    25
100
AcDbPolyline
 90
       28
 70
   128
 43
0.0
 10
87.1673897681
 20
131.3230809551
 10
87.1697041052
 20
131.2390028262
 10
87.2555076377
 20
130.8050198099
 10
87.4643312866
 20
130.3757024551
 10
87.7942949814
 20
129.9549156887
 10
88.2424249732
 20
129.5464485001
 10
88.8046901977
 20
129.1539801556
 10
89.4760237849
 20
128.7810429728
 10
90.2503817093
 20
128.4309950192
 10
91.120793131
 20
128.1069898746
 10
92.079417262
 20
127.8119442445
 10
93.1176242815
 20
127.5485144902
 10
94.2260636093
 20
127.3190734248
 10
95.3947574643
 20
127.1256865787
 10
96.6131809705
 20
126.970096797
 10
97.8703592206
 20
126.853702718
 10
99.154976235
 20
126.7775530108
 10
100.4554638206
 20
126.7423351803
 10
101.7601091715
 20
126.748363338
 10
103.0571678613
 20
126.7955865339
 10
104.3349579297
 20
126.8835769027
 10
105.5819742335
 20
127.0115444623
 10
106.7869865254
 20
127.1783340489
 10
107.9391468775
 20
127.3824462984
 10
109.0280804065
 20
127.6220421461
 10
110.0439809258
 20
127.8949639628
 10
110.9776987357
 20
128.1987550273
 10
111.686902792
 20
128.4735173126
  0
LWPOLYLINE
  5
116
330
1F
100
AcDbEntity
  8
0
  6
SLD-実線
 62
     8
370
    25
100
AcDbPolyline
 90
       15
 70
   128
 43
0.0
 10
111.7040491062
 20
177.5555047527
 10
111.5751319892
 20
177.4987368856
 10
110.7199134626
 20
177.1636870582
 10
109.7702940476
 20
176.858193025
 10
108.7354198094
 20
176.5851965029
 10
107.6252484102
 20
176.3473258847
 10
106.4504791675
 20
176.1468731908
 10
105.2224220476
 20
175.9857680941
 10
103.9529055402
 20
175.8655616497
 10
102.6541553379
 20
175.7874123746
 10
101.3386778175
 20
175.7520730501
 10
100.0191448807
 20
175.7598839905
 10
98.7082613699
 20
175.8107685073
 10
97.4186543676
 20
175.9042388907
 10
96.1627419299
 20
176.0393930359
  0
LWPOLYLINE
  5
117
330
1F
100
AcDbEntity
  8
0
  6
SLD-実線
 62
     8
370
    25
100
AcDbPolyline
 90
       14
 70
   128
 43
0.0
 10
96.1627419299
 20
176.0393930359
 10
94.9526194089
 20
176.2149300917
 10
93.7999396148
 20
176.4291589221
 10
92.715806149
 20
176.6800181817
 10
91.7106570919
 20
176.9650896428
 10
90.7941732496
 20
177.2816296672
 10
89.9751832579
 20
177.6265891276
 10
89.2615731455
 20
177.9966460411
 10
88.6602133211
 20
178.3882360081
 10
88.1768973724
 20
178.7975878005
 10
87.8162795689
 20
179.2207604405
 10
87.5818319563
 20
179.653676484
 10
87.4758133242
 20
180.0921684099
 10
87.469430754
 20
180.2581096737
  0
LWPOLYLINE
  5
118
330
1F
100
AcDbEntity
  8
0
  6
SLD-実線
 62
     8
370
    25
100
AcDbPolyline
 90
       26
 70
   128
 43
0.0
 10
87.805482389
 20
180.5664411608
 10
87.8573599184
 20
180.3820253894
 10
88.0594321445
 20
179.970484271
 10
88.377946479
 20
179.5672080599
 10
88.8100209925
 20
179.1758507198
 10
89.3517408531
 20
178.7999560703
 10
89.9982012534
 20
178.4429271561
 10
90.7435468726
 20
178.1079987075
 10
91.5810291683
 20
177.7982033726
 10
92.503063303
 20
177.5163472873
 10
93.5013003076
 20
177.264982399
 10
94.5666958001
 20
177.0463845335
 10
95.689606199
 20
176.8625346359
 10
96.8598591846
 20
176.7150966183
 10
98.0668578146
 20
176.60540557
 10
99.2996711261
 20
176.5344563425
 10
100.5471356168
 20
176.5028894368
 10
101.7979520483
 20
176.5109920825
 10
103.0407948303
 20
176.5586910937
 10
104.2644070813
 20
176.6455541678
 10
105.4577096699
 20
176.7707947326
 10
106.6098915156
 20
176.9332778269
 10
107.7105230477
 20
177.1315323562
 10
108.7496360931
 20
177.363763595
 10
109.717818595
 20
177.6278664763
 10
110.1226619592
 20
177.7547408238
  0
LWPOLYLINE
  5
119
330
1F
100
AcDbEntity
  8
0
  6
SLD-実線
 62
     8
370
    25
100
AcDbPolyline
 90
       23
 70
   128
 43
0.0
 10
108.7553757164
 20
177.9270007675
 10
108.1542713604
 20
177.7744490972
 10
107.1266268446
 20
177.5542603691
 10
106.0391816429
 20
177.3687080786
 10
104.9024105134
 20
177.2195788824
 10
103.7272633441
 20
177.1083075264
 10
102.5250539027
 20
177.0359682941
 10
101.3073620175
 20
177.0032554707
 10
100.0859141234
 20
177.0104851182
 10
98.8724763881
 20
177.0575886273
 10
97.6787299902
 20
177.144109846
 10
96.5161735476
 20
177.2692173725
 10
95.3960036638
 20
177.4317063302
 10
94.3290086444
 20
177.6300117575
 10
93.3254622147
 20
177.8622219988
 10
92.3950304069
 20
178.1261037103
 10
91.5466739893
 20
178.4191141529
 10
90.7885614934
 20
178.7384307344
 10
90.127996626
 20
179.0809800678
 10
89.5713382246
 20
179.4434613306
 10
89.1239491063
 20
179.8223845693
 10
88.7901374391
 20
180.2141006536
 10
88.6420212506
 20
180.4610452399
  0
ARC
  5
11A
330
1F
100
AcDbEntity
  8
0
  6
SLD-実線
 62
     8
370
    25
100
AcDbCircle
 10
115.3439314135
 20
177.3190938875
 30
0.0
 40
0.2084019566655027
100
AcDbArc
 50
312.1587278768
 51
0.9762403638
  0
LWPOLYLINE
  5
11B
330
1F
100
AcDbEntity
  8
0
  6
SLD-実線
 62
     8
370
    25
100
AcDbPolyline
 90
        8
 70
   128
 43
0.0
 10
115.2871984882
 20
177.1040698352
 10
115.2846235792
 20
177.1045174506
 10
115.2693427124
 20
177.1128203768
 10
115.2559479171
 20
177.1303204109
 10
115.2449568093
 20
177.156346619
 10
115.2367882232
 20
177.1898915813
 10
115.2317582603
 20
177.2296711273
 10
115.2300605325
 20
177.2741560838
  0
LWPOLYLINE
  5
11C
330
1F
100
AcDbEntity
  8
0
  6
SLD-実線
 62
     8
370
    25
100
AcDbPolyline
 90
        8
 70
   128
 43
0.0
 10
68.9270504028
 20
183.1077870217
 10
68.9287481305
 20
183.0633020651
 10
68.9337780935
 20
183.0235225192
 10
68.9419466795
 20
182.9899775569
 10
68.9529377874
 20
182.9639513488
 10
68.9663325827
 20
182.9464513147
 10
68.9816134494
 20
182.9381483885
 10
68.9841883585
 20
182.9377007731
  0
ARC
  5
11D
330
1F
100
AcDbEntity
  8
0
  6
SLD-実線
 62
     8
370
    25
100
AcDbCircle
 10
132.8448236551
 20
192.7534300856
 30
0.0
 40
0.2084019566654758
100
AcDbArc
 50
312.1587278768
 51
0.9762403639
  0
LWPOLYLINE
  5
11E
330
1F
100
AcDbEntity
  8
0
  6
SLD-実線
 62
     8
370
    25
100
AcDbPolyline
 90
        8
 70
   128
 43
0.0
 10
68.9270504028
 20
187.1147265444
 10
68.883125698
 20
187.1219716858
 10
68.8442862453
 20
187.131934723
 10
68.8120245869
 20
187.1442324707
 10
68.7875783577
 20
187.1583904015
 10
68.7718903659
 20
187.1738675874
 10
68.7655609276
 20
187.1900666876
 10
68.7654384688
 20
187.1926773804
  0
ARC
  5
11F
330
1F
100
AcDbEntity
  8
0
  6
SLD-実線
 62
     8
370
    25
100
AcDbCircle
 10
68.9858705066
 20
187.2220825906
 30
0.0
 40
0.2084062742417414
100
AcDbArc
 50
81.8434236409
 51
130.6599804104
  0
LWPOLYLINE
  5
120
330
1F
100
AcDbEntity
  8
0
  6
SLD-実線
 62
     8
370
    25
100
AcDbPolyline
 90
        8
 70
   128
 43
0.0
 10
68.7654384688
 20
183.1857378577
 10
68.7655609276
 20
183.183127165
 10
68.7718903659
 20
183.1669280647
 10
68.7875783577
 20
183.1514508789
 10
68.8120245869
 20
183.1372929481
 10
68.8442862453
 20
183.1249952003
 10
68.883125698
 20
183.1150321631
 10
68.9270504028
 20
183.1077870217
  0
ARC
  5
121
330
1F
100
AcDbEntity
  8
0
  6
SLD-実線
 62
     8
370
    25
100
AcDbCircle
 10
86.4867627483
 20
202.6564187887
 30
0.0
 40
0.2084062742420521
100
AcDbArc
 50
81.843423641
 51
130.6599804104
  0
LWPOLYLINE
  5
122
330
1F
100
AcDbEntity
  8
0
  6
SLD-実線
 62
     8
370
    25
100
AcDbPolyline
 90
        3
 70
   128
 43
0.0
 10
132.8193413009
 20
197.0290858961
 10
132.8365851242
 20
197.0397627326
 10
132.850591378
 20
197.0414238369
  0
LWPOLYLINE
  5
123
330
1F
100
AcDbEntity
  8
0
  6
SLD-実線
 62
     8
370
    25
100
AcDbPolyline
 90
        3
 70
   128
 43
0.0
 10
133.0693427922
 20
196.793383048
 10
133.0659439347
 20
196.7796942868
 10
133.0531953615
 20
196.7639203158
  0
LWPOLYLINE
  5
124
330
1F
100
AcDbEntity
  8
0
  6
SLD-実線
 62
     8
370
    25
100
AcDbPolyline
 90
        3
 70
   128
 43
0.0
 10
133.0531953615
 20
192.7569807932
 10
133.0659439347
 20
192.7727547642
 10
133.0693427922
 20
192.7864435253
  0
LWPOLYLINE
  5
125
330
1F
100
AcDbEntity
  8
0
  6
SLD-実線
 62
     8
370
    25
100
AcDbPolyline
 90
        3
 70
   128
 43
0.0
 10
86.5475812483
 20
202.8750547748
 10
86.5335749944
 20
202.8733936705
 10
86.5163311711
 20
202.862716834
  0
LINE
  5
126
330
1F
100
AcDbEntity
  8
0
  6
SLD-実線
 62
     8
370
    25
100
AcDbLine
 10
114.9237632321
 20
199.2999910969
 30
0.0
 11
115.0652081198
 21
199.4247337626
 31
0.0
  0
LINE
  5
127
330
1F
100
AcDbEntity
  8
0
  6
SLD-実線
 62
     8
370
    25
100
AcDbLine
 10
107.8595975188
 20
200.3325553667
 30
0.0
 11
107.7181526311
 21
200.207812701
 31
0.0
  0
LINE
  5
128
330
1F
100
AcDbEntity
  8
0
  6
SLD-実線
 62
     8
370
    25
100
AcDbLine
 10
127.9609606626
 20
157.3355505862
 30
0.0
 11
116.8781951182
 21
158.7318477983
 31
0.0
  0
LINE
  5
129
330
1F
100
AcDbEntity
  8
0
  6
SLD-実線
 62
     8
370
    25
100
AcDbLine
 10
131.530039391
 20
197.306241406
 30
0.0
 11
131.5952379407
 21
197.1995826594
 31
0.0
  0
LINE
  5
12A
330
1F
100
AcDbEntity
  8
0
  6
SLD-実線
 62
     8
370
    25
100
AcDbLine
 10
91.5668987983
 20
202.2426793601
 30
0.0
 11
91.6320971303
 21
202.3329096437
 31
0.0
  0
LINE
  5
12B
330
1F
100
AcDbEntity
  8
0
  6
SLD-実線
 62
     8
370
    25
100
AcDbLine
 10
90.7987978496
 20
202.5709179632
 30
0.0
 11
90.7987978496
 21
202.3394509834
 31
0.0
  0
LINE
  5
12C
330
1F
100
AcDbEntity
  8
0
  6
SLD-実線
 62
     8
370
    25
100
AcDbLine
 10
132.3633402779
 20
197.1028108611
 30
0.0
 11
132.3633402779
 21
197.3342778409
 31
0.0
  0
LINE
  5
12D
330
1F
100
AcDbEntity
  8
0
  6
SLD-実線
 62
     8
370
    25
100
AcDbLine
 10
116.8781951182
 20
158.0989676204
 30
0.0
 11
127.9609606626
 21
156.7026704083
 31
0.0
  0
LINE
  5
12E
330
1F
100
AcDbEntity
  8
0
  6
SLD-実線
 62
     8
370
    25
100
AcDbLine
 10
132.6831887695
 20
197.3807357396
 30
0.0
 11
132.6831887798
 21
197.0625129935
 31
0.0
  0
LINE
  5
12F
330
1F
100
AcDbEntity
  8
0
  6
SLD-実線
 62
     8
370
    25
100
AcDbLine
 10
133.9143190956
 20
157.8263027205
 30
0.0
 11
133.1415842479
 21
157.2457416364
 31
0.0
  0
LWPOLYLINE
  5
130
330
1F
100
AcDbEntity
  8
0
  6
SLD-実線
 62
     8
370
    25
100
AcDbPolyline
 90
        8
 70
   128
 43
0.0
 10
131.090313172
 20
197.4057763174
 10
131.0870686467
 20
197.4064938849
 10
131.0721883448
 20
197.4155083243
 10
131.0591774141
 20
197.433374993
 10
131.0485193805
 20
197.4594280151
 10
131.0406103305
 20
197.4926996166
 10
131.0357441882
 20
197.5319528015
 10
131.0341017962
 20
197.5757314286
  0
LWPOLYLINE
  5
131
330
1F
100
AcDbEntity
  8
0
  6
SLD-実線
 62
     8
370
    25
100
AcDbPolyline
 90
        8
 70
   128
 43
0.0
 10
92.1280346162
 20
202.4774351523
 10
92.1296770082
 20
202.4336565252
 10
92.1345431479
 20
202.3944033381
 10
92.142452198
 20
202.3611317365
 10
92.1531102289
 20
202.3350787122
 10
92.1661211545
 20
202.317212039
 10
92.1810014564
 20
202.3081975996
 10
92.1851729654
 20
202.3073457385
  0
LINE
  5
132
330
1F
100
AcDbEntity
  8
0
  6
SLD-実線
 62
     8
370
    25
100
AcDbLine
 10
116.8781955706
 20
159.9531430243
 30
0.0
 11
127.960961115
 21
158.5568458121
 31
0.0
  0
LINE
  5
133
330
1F
100
AcDbEntity
  8
0
  6
SLD-実線
 62
     8
370
    25
100
AcDbLine
 10
92.6384305333
 20
202.250241222
 30
0.0
 11
92.6384305333
 21
202.1076795069
 31
0.0
  0
LINE
  5
134
330
1F
100
AcDbEntity
  8
0
  6
SLD-実線
 62
     8
370
    25
100
AcDbLine
 10
106.5403103893
 20
200.3562072766
 30
0.0
 11
106.5403103893
 21
200.4987689917
 31
0.0
  0
LINE
  5
135
330
1F
100
AcDbEntity
  8
0
  6
SLD-実線
 62
     8
370
    25
100
AcDbLine
 10
117.5683314539
 20
199.1093689357
 30
0.0
 11
117.5683314539
 21
198.9668072206
 31
0.0
  0
LINE
  5
136
330
1F
100
AcDbEntity
  8
0
  6
SLD-実線
 62
     8
370
    25
100
AcDbLine
 10
137.1754487101
 20
202.9920237768
 30
0.0
 11
133.1754461643
 21
199.4643531168
 31
0.0
  0
LINE
  5
137
330
1F
100
AcDbEntity
  8
0
  6
SLD-実線
 62
     8
370
    25
100
AcDbLine
 10
133.8769003207
 20
198.6689788651
 30
0.0
 11
137.8769028665
 21
202.1966495251
 31
0.0
  0
LINE
  5
138
330
1F
100
AcDbEntity
  8
0
  6
SLD-実線
 62
     8
370
    25
100
AcDbLine
 10
137.8769028665
 20
163.7881184747
 30
0.0
 11
133.9143177782
 21
159.906691843
 31
0.0
  0
LINE
  5
139
330
1F
100
AcDbEntity
  8
0
  6
SLD-実線
 62
     8
370
    25
100
AcDbLine
 10
94.72185852
 20
204.3467630297
 30
0.0
 11
99.068163078
 21
207.793090485
 31
0.0
  0
LWPOLYLINE
  5
13A
330
1F
100
AcDbEntity
  8
0
  6
SLD-実線
 62
     8
370
    25
100
AcDbPolyline
 90
        8
 70
   128
 43
0.0
 10
90.7987978496
 20
202.5709179632
 10
90.7555684875
 20
202.5780197264
 10
90.7172304581
 20
202.5877544694
 10
90.6852084948
 20
202.5997604255
 10
90.6606926478
 20
202.6135914148
 10
90.6445940113
 20
202.6287334327
 10
90.6375108328
 20
202.6446237535
 10
90.6371862003
 20
202.64886916
  0
SPLINE
  5
13B
330
1F
100
AcDbEntity
  8
0
  6
SLD-実線
 62
     8
370
    25
100
AcDbSpline
210
0.0
220
0.0
230
1.0
 70
     8
 71
     3
 72
    10
 73
     6
 74
     0
 42
0.000000001
 43
0.00000001
 40
0.0
 40
0.0
 40
0.0
 40
0.0
 40
0.4587715540434986
 40
0.917496889571321
 40
0.9999999999999999
 40
0.9999999999999999
 40
0.9999999999999999
 40
0.9999999999999999
 10
91.58619277818192
 20
203.5009583741838
 30
0.0
 10
91.46554052375336
 20
203.5003058440027
 30
0.0
 10
91.22424816989597
 20
203.4990008493792
 30
0.0
 10
90.97590692747484
 20
203.3868175916768
 30
0.0
 10
90.8992438795056
 20
203.2740812139577
 30
0.0
 10
90.8875576129029
 20
203.256896045865
 30
0.0
  0
LINE
  5
13C
330
1F
100
AcDbEntity
  8
0
  6
SLD-実線
 62
     8
370
    25
100
AcDbLine
 10
92.1052293969
 20
202.1748542216
 30
0.0
 11
92.2677322267
 21
202.2969455522
 31
0.0
  0
LINE
  5
13D
330
1F
100
AcDbEntity
  8
0
  6
SLD-実線
 62
     8
370
    25
100
AcDbLine
 10
116.8781944313
 20
159.0542244855
 30
0.0
 11
127.9609599757
 21
157.6579272734
 31
0.0
  0
LINE
  5
13E
330
1F
100
AcDbEntity
  8
0
  6
SLD-実線
 62
     8
370
    25
100
AcDbLine
 10
127.9609583507
 20
158.2344695934
 30
0.0
 11
116.8781945486
 21
159.630766586
 31
0.0
  0
LINE
  5
13F
330
1F
100
AcDbEntity
  8
0
  6
SLD-実線
 62
     8
370
    25
100
AcDbLine
 10
92.318582449
 20
202.1479737916
 30
0.0
 11
92.318582449
 21
202.2905390189
 31
0.0
  0
ENDSEC
  0
SECTION
  2
OBJECTS
  0
DICTIONARY
  5
C
330
0
100
AcDbDictionary
281
     1
  3
ACAD_DETAILVIEWSTYLE
350
147
  3
ACAD_GROUP
350
D
  3
ACAD_LAYOUT
350
1A
  3
ACAD_MATERIAL
350
43
  3
ACAD_MLEADERSTYLE
350
6B
  3
ACAD_MLINESTYLE
350
17
  3
ACAD_PLOTSETTINGS
350
19
  3
ACAD_PLOTSTYLENAME
350
E
  3
ACAD_SCALELIST
350
47
  3
ACAD_SECTIONVIEWSTYLE
350
148
  3
ACAD_TABLESTYLE
350
69
  3
ACAD_VISUALSTYLE
350
2A
  3
ACDB_RECOMPOSE_DATA
350
144
  3
AcDbVariableDictionary
350
140
  0
SUN
  5
6D
330
29
100
AcDbSun
 90
        1
290
     0
 63
     7
421
 16777215
 40
1.0
291
     1
 91
  2455826
 92
 54000000
292
     0
 70
     2
 71
   256
280
     1
  0
DICTIONARY
  5
147
102
{ACAD_REACTORS
330
C
102
}
330
C
100
AcDbDictionary
281
     1
  0
DICTIONARY
  5
D
102
{ACAD_REACTORS
330
C
102
}
330
C
100
AcDbDictionary
281
     1
  0
DICTIONARY
  5
1A
102
{ACAD_REACTORS
330
C
102
}
330
C
100
AcDbDictionary
281
     1
  3
Layout1
350
1E
  3
Layout2
350
26
  3
Model
350
22
  0
DICTIONARY
  5
43
102
{ACAD_REACTORS
330
C
102
}
330
C
100
AcDbDictionary
281
     1
  3
ByBlock
350
45
  3
ByLayer
350
44
  3
Global
350
46
  0
DICTIONARY
  5
6B
102
{ACAD_REACTORS
330
C
102
}
330
C
100
AcDbDictionary
281
     1
  3
Standard
350
6C
  0
DICTIONARY
  5
17
102
{ACAD_REACTORS
330
C
102
}
330
C
100
AcDbDictionary
281
     1
  3
Standard
350
18
  0
DICTIONARY
  5
19
102
{ACAD_REACTORS
330
C
102
}
330
C
100
AcDbDictionary
281
     1
  0
ACDBDICTIONARYWDFLT
  5
E
102
{ACAD_REACTORS
330
C
102
}
330
C
100
AcDbDictionary
281
     1
  3
Normal
350
F
100
AcDbDictionaryWithDefault
340
F
  0
DICTIONARY
  5
47
102
{ACAD_REACTORS
330
C
102
}
330
C
100
AcDbDictionary
281
     1
  3
A0
350
48
  3
A1
350
49
  3
A2
350
4A
  3
A3
350
4B
  3
A4
350
4C
  3
A5
350
4D
  3
A6
350
4E
  3
A7
350
4F
  3
A8
350
50
  3
A9
350
51
  3
B0
350
52
  3
B1
350
53
  3
B2
350
54
  3
B3
350
55
  3
B4
350
56
  3
B5
350
57
  3
B6
350
58
  3
B7
350
59
  3
B8
350
5A
  3
B9
350
5B
  3
C0
350
5C
  3
C1
350
5D
  3
C2
350
5E
  3
C3
350
5F
  3
C4
350
60
  3
C5
350
61
  3
C6
350
62
  3
C7
350
63
  3
C8
350
64
  3
C9
350
65
  3
D0
350
66
  3
D1
350
67
  3
D2
350
68
  0
DICTIONARY
  5
148
102
{ACAD_REACTORS
330
C
102
}
330
C
100
AcDbDictionary
281
     1
  0
DICTIONARY
  5
69
102
{ACAD_REACTORS
330
C
102
}
330
C
100
AcDbDictionary
281
     1
  3
Standard
350
6A
  0
DICTIONARY
  5
2A
102
{ACAD_REACTORS
330
C
102
}
330
C
100
AcDbDictionary
281
     1
  3
2dWireframe
350
2F
  3
Basic
350
32
  3
Brighten
350
36
  3
ColorChange
350
3A
  3
Conceptual
350
34
  3
Dim
350
35
  3
EdgeColorOff
350
3D
  3
Facepattern
350
39
  3
Flat
350
2B
  3
FlatWithEdges
350
2C
  3
Gouraud
350
2D
  3
GouraudWithEdges
350
2E
  3
Hidden
350
31
  3
JitterOff
350
3B
  3
Linepattern
350
38
  3
OverhangOff
350
3C
  3
Realistic
350
33
  3
Shaded
350
42
  3
Shaded with edges
350
41
  3
Shades of Gray
350
3E
  3
Sketchy
350
3F
  3
Thicken
350
37
  3
Wireframe
350
30
  3
X-Ray
350
40
  0
XRECORD
  5
144
102
{ACAD_REACTORS
330
C
102
}
330
C
100
AcDbXrecord
280
     1
 90
        1
330
6A
  0
DICTIONARY
  5
140
102
{ACAD_REACTORS
330
C
102
}
330
C
100
AcDbDictionary
281
     1
  3
CANNOSCALE
350
141
  3
CMLEADERSTYLE
350
146
  3
CTABLESTYLE
350
145
  3
SECTIONTHICKNESSINC
350
149
  0
LAYOUT
  5
1E
102
{ACAD_REACTORS
330
1A
102
}
330
1A
100
AcDbPlotSettings
  1

  2
none_device
  4

  6

 40
0.0
 41
0.0
 42
0.0
 43
0.0
 44
0.0
 45
0.0
 46
0.0
 47
0.0
 48
0.0
 49
0.0
140
0.0
141
0.0
142
1.0
143
1.0
 70
   688
 72
     1
 73
     0
 74
     5
  7

 75
    16
 76
     0
 77
     2
 78
   300
147
1.0
148
0.0
149
0.0
100
AcDbLayout
  1
Layout1
 70
     1
 71
     1
 10
0.0
 20
0.0
 11
420.0
 21
297.0
 12
0.0
 22
0.0
 32
0.0
 14
1.0000000000E+20
 24
1.0000000000E+20
 34
1.0000000000E+20
 15
-1.0000000000E+20
 25
-1.0000000000E+20
 35
-1.0000000000E+20
146
0.0
 13
0.0
 23
0.0
 33
0.0
 16
1.0
 26
0.0
 36
0.0
 17
0.0
 27
1.0
 37
0.0
 76
     0
330
1B
  0
LAYOUT
  5
26
102
{ACAD_REACTORS
330
1A
102
}
330
1A
100
AcDbPlotSettings
  1

  2
none_device
  4

  6

 40
0.0
 41
0.0
 42
0.0
 43
0.0
 44
0.0
 45
0.0
 46
0.0
 47
0.0
 48
0.0
 49
0.0
140
0.0
141
0.0
142
1.0
143
1.0
 70
   688
 72
     1
 73
     0
 74
     5
  7

 75
    16
 76
     0
 77
     2
 78
   300
147
1.0
148
0.0
149
0.0
100
AcDbLayout
  1
Layout2
 70
     1
 71
     2
 10
0.0
 20
0.0
 11
0.0
 21
0.0
 12
0.0
 22
0.0
 32
0.0
 14
0.0
 24
0.0
 34
0.0
 15
0.0
 25
0.0
 35
0.0
146
0.0
 13
0.0
 23
0.0
 33
0.0
 16
1.0
 26
0.0
 36
0.0
 17
0.0
 27
1.0
 37
0.0
 76
     0
330
23
  0
LAYOUT
  5
22
102
{ACAD_REACTORS
330
1A
102
}
330
1A
100
AcDbPlotSettings
  1

  2
none_device
  4
Letter_(8.50_x_11.00_Inches)
  6

 40
6.35
 41
6.35
 42
6.35000508
 43
6.35000508
 44
215.9
 45
279.4
 46
0.0
 47
0.0
 48
0.0
 49
0.0
140
0.0
141
0.0
142
1.0
143
1.0
 70
  1712
 72
     1
 73
     0
 74
     0
  7

 75
     0
 76
     0
 77
     2
 78
   300
147
1.0
148
0.0
149
0.0
100
AcDbLayout
  1
Model
 70
     1
 71
     0
 10
0.0
 20
0.0
 11
210.0
 21
297.0
 12
0.0
 22
0.0
 32
0.0
 14
0.0
 24
0.0
 34
0.0
 15
210.0
 25
297.0
 35
0.0
146
0.0
 13
0.0
 23
0.0
 33
0.0
 16
1.0
 26
0.0
 36
0.0
 17
0.0
 27
1.0
 37
0.0
 76
     0
330
1F
331
29
  0
MATERIAL
  5
45
102
{ACAD_REACTORS
330
43
102
}
330
43
100
AcDbMaterial
  1
ByBlock
 72
     1
 94
      127
  0
MATERIAL
  5
44
102
{ACAD_REACTORS
330
43
102
}
330
43
100
AcDbMaterial
  1
ByLayer
 72
     1
 94
      127
  0
MATERIAL
  5
46
102
{ACAD_REACTORS
330
43
102
}
330
43
100
AcDbMaterial
  1
Global
 72
     1
 94
      127
  0
MLEADERSTYLE
  5
6C
102
{ACAD_REACTORS
330
6B
102
}
330
6B
100
AcDbMLeaderStyle
179
     2
170
     2
171
     1
172
     0
 90
        2
 40
0.0
 41
0.0
173
     1
 91
-1056964608
340
14
 92
       -2
290
     1
 42
2.0
291
     1
 43
8.0
  3
Standard
341
0
 44
4.0
300

342
11
174
     1
178
     6
175
     1
176
     0
 93
-1056964608
 45
4.0
292
     0
297
     0
 46
4.0
343
0
 94
-1056964608
 47
1.0
 49
1.0
140
1.0
293
     1
141
0.0
294
     1
177
     0
142
1.0
295
     0
296
     0
143
3.75
271
     0
272
     9
273
     9
298
     0
  0
MLINESTYLE
  5
18
102
{ACAD_REACTORS
330
17
102
}
330
17
100
AcDbMlineStyle
  2
Standard
 70
     0
  3

 62
   256
 51
90.0
 52
90.0
 71
     2
 49
0.5
 62
   256
  6
BYLAYER
 49
-0.5
 62
   256
  6
BYLAYER
  0
ACDBPLACEHOLDER
  5
F
102
{ACAD_REACTORS
330
E
102
}
330
E
  0
SCALE
  5
48
102
{ACAD_REACTORS
330
47
102
}
330
47
100
AcDbScale
 70
     0
300
1:1
140
1.0
141
1.0
290
     1
  0
SCALE
  5
49
102
{ACAD_REACTORS
330
47
102
}
330
47
100
AcDbScale
 70
     0
300
1:2
140
1.0
141
2.0
290
     0
  0
SCALE
  5
4A
102
{ACAD_REACTORS
330
47
102
}
330
47
100
AcDbScale
 70
     0
300
1:4
140
1.0
141
4.0
290
     0
  0
SCALE
  5
4B
102
{ACAD_REACTORS
330
47
102
}
330
47
100
AcDbScale
 70
     0
300
1:5
140
1.0
141
5.0
290
     0
  0
SCALE
  5
4C
102
{ACAD_REACTORS
330
47
102
}
330
47
100
AcDbScale
 70
     0
300
1:8
140
1.0
141
8.0
290
     0
  0
SCALE
  5
4D
102
{ACAD_REACTORS
330
47
102
}
330
47
100
AcDbScale
 70
     0
300
1:10
140
1.0
141
10.0
290
     0
  0
SCALE
  5
4E
102
{ACAD_REACTORS
330
47
102
}
330
47
100
AcDbScale
 70
     0
300
1:16
140
1.0
141
16.0
290
     0
  0
SCALE
  5
4F
102
{ACAD_REACTORS
330
47
102
}
330
47
100
AcDbScale
 70
     0
300
1:20
140
1.0
141
20.0
290
     0
  0
SCALE
  5
50
102
{ACAD_REACTORS
330
47
102
}
330
47
100
AcDbScale
 70
     0
300
1:30
140
1.0
141
30.0
290
     0
  0
SCALE
  5
51
102
{ACAD_REACTORS
330
47
102
}
330
47
100
AcDbScale
 70
     0
300
1:40
140
1.0
141
40.0
290
     0
  0
SCALE
  5
52
102
{ACAD_REACTORS
330
47
102
}
330
47
100
AcDbScale
 70
     0
300
1:50
140
1.0
141
50.0
290
     0
  0
SCALE
  5
53
102
{ACAD_REACTORS
330
47
102
}
330
47
100
AcDbScale
 70
     0
300
1:100
140
1.0
141
100.0
290
     0
  0
SCALE
  5
54
102
{ACAD_REACTORS
330
47
102
}
330
47
100
AcDbScale
 70
     0
300
2:1
140
2.0
141
1.0
290
     0
  0
SCALE
  5
55
102
{ACAD_REACTORS
330
47
102
}
330
47
100
AcDbScale
 70
     0
300
4:1
140
4.0
141
1.0
290
     0
  0
SCALE
  5
56
102
{ACAD_REACTORS
330
47
102
}
330
47
100
AcDbScale
 70
     0
300
8:1
140
8.0
141
1.0
290
     0
  0
SCALE
  5
57
102
{ACAD_REACTORS
330
47
102
}
330
47
100
AcDbScale
 70
     0
300
10:1
140
10.0
141
1.0
290
     0
  0
SCALE
  5
58
102
{ACAD_REACTORS
330
47
102
}
330
47
100
AcDbScale
 70
     0
300
100:1
140
100.0
141
1.0
290
     0
  0
SCALE
  5
59
102
{ACAD_REACTORS
330
47
102
}
330
47
100
AcDbScale
 70
     0
300
1/128" = 1'-0"
140
0.0078125
141
12.0
290
     0
  0
SCALE
  5
5A
102
{ACAD_REACTORS
330
47
102
}
330
47
100
AcDbScale
 70
     0
300
1/64" = 1'-0"
140
0.015625
141
12.0
290
     0
  0
SCALE
  5
5B
102
{ACAD_REACTORS
330
47
102
}
330
47
100
AcDbScale
 70
     0
300
1/32" = 1'-0"
140
0.03125
141
12.0
290
     0
  0
SCALE
  5
5C
102
{ACAD_REACTORS
330
47
102
}
330
47
100
AcDbScale
 70
     0
300
1/16" = 1'-0"
140
0.0625
141
12.0
290
     0
  0
SCALE
  5
5D
102
{ACAD_REACTORS
330
47
102
}
330
47
100
AcDbScale
 70
     0
300
3/32" = 1'-0"
140
0.09375
141
12.0
290
     0
  0
SCALE
  5
5E
102
{ACAD_REACTORS
330
47
102
}
330
47
100
AcDbScale
 70
     0
300
1/8" = 1'-0"
140
0.125
141
12.0
290
     0
  0
SCALE
  5
5F
102
{ACAD_REACTORS
330
47
102
}
330
47
100
AcDbScale
 70
     0
300
3/16" = 1'-0"
140
0.1875
141
12.0
290
     0
  0
SCALE
  5
60
102
{ACAD_REACTORS
330
47
102
}
330
47
100
AcDbScale
 70
     0
300
1/4" = 1'-0"
140
0.25
141
12.0
290
     0
  0
SCALE
  5
61
102
{ACAD_REACTORS
330
47
102
}
330
47
100
AcDbScale
 70
     0
300
3/8" = 1'-0"
140
0.375
141
12.0
290
     0
  0
SCALE
  5
62
102
{ACAD_REACTORS
330
47
102
}
330
47
100
AcDbScale
 70
     0
300
1/2" = 1'-0"
140
0.5
141
12.0
290
     0
  0
SCALE
  5
63
102
{ACAD_REACTORS
330
47
102
}
330
47
100
AcDbScale
 70
     0
300
3/4" = 1'-0"
140
0.75
141
12.0
290
     0
  0
SCALE
  5
64
102
{ACAD_REACTORS
330
47
102
}
330
47
100
AcDbScale
 70
     0
300
1" = 1'-0"
140
1.0
141
12.0
290
     0
  0
SCALE
  5
65
102
{ACAD_REACTORS
330
47
102
}
330
47
100
AcDbScale
 70
     0
300
1-1/2" = 1'-0"
140
1.5
141
12.0
290
     0
  0
SCALE
  5
66
102
{ACAD_REACTORS
330
47
102
}
330
47
100
AcDbScale
 70
     0
300
3" = 1'-0"
140
3.0
141
12.0
290
     0
  0
SCALE
  5
67
102
{ACAD_REACTORS
330
47
102
}
330
47
100
AcDbScale
 70
     0
300
6" = 1'-0"
140
6.0
141
12.0
290
     0
  0
SCALE
  5
68
102
{ACAD_REACTORS
330
47
102
}
330
47
100
AcDbScale
 70
     0
300
1'-0" = 1'-0"
140
12.0
141
12.0
290
     0
  0
TABLESTYLE
  5
6A
102
{ACAD_REACTORS
330
69
102
}
102
{ACAD_XDICTIONARY
360
142
102
}
330
69
100
AcDbTableStyle
  3
Standard
 70
     0
 71
     0
 40
0.06
 41
0.06
280
     0
281
     0
  7
STANDARD
140
4.5
170
     2
 62
     0
 63
   257
283
     0
 90
        4
 91
        0
  1

274
    -2
284
     1
 64
     0
275
    -2
285
     1
 65
     0
276
    -2
286
     1
 66
     0
277
    -2
287
     1
 67
     0
278
    -2
288
     1
 68
     0
279
    -2
289
     1
 69
     0
  7
STANDARD
140
6.0
170
     5
 62
     0
 63
   257
283
     0
 90
        4
 91
        0
  1

274
    -2
284
     1
 64
     0
275
    -2
285
     1
 65
     0
276
    -2
286
     1
 66
     0
277
    -2
287
     1
 67
     0
278
    -2
288
     1
 68
     0
279
    -2
289
     1
 69
     0
  7
STANDARD
140
4.5
170
     5
 62
     0
 63
   257
283
     0
 90
        4
 91
        0
  1

274
    -2
284
     1
 64
     0
275
    -2
285
     1
 65
     0
276
    -2
286
     1
 66
     0
277
    -2
287
     1
 67
     0
278
    -2
288
     1
 68
     0
279
    -2
289
     1
 69
     0
  0
VISUALSTYLE
  5
2F
102
{ACAD_REACTORS
330
2A
102
}
330
2A
100
AcDbVisualStyle
  2
2dWireframe
 70
     4
177
     3
291
     0
 70
    58
 90
        0
176
     1
 90
        2
176
     1
 90
        0
176
     1
 90
        0
176
     1
 40
0.6
176
     1
 40
30.0
176
     1
 62
     7
420
 16777215
176
     1
 90
        1
176
     1
 90
        4
176
     1
 62
     7
176
     1
 62
   257
176
     1
 90
        1
176
     1
 90
        1
176
     1
 40
1.0
176
     1
 90
        0
176
     1
 62
   257
176
     1
 40
1.0
176
     1
 90
        1
176
     1
 90
        6
176
     1
 90
        2
176
     1
 62
     7
176
     1
 90
        5
176
     1
 90
        0
176
     1
 90
        0
176
     1
290
     0
176
     1
 90
        1
176
     1
 40
0.0
176
     1
 90
        0
176
     1
290
     1
176
     1
290
     1
176
     1
290
     0
176
     1
290
     0
176
     1
290
     0
176
     1
290
     0
176
     1
290
     0
176
     1
290
     0
176
     1
290
     0
176
     1
 90
       50
176
     1
 40
0.0
176
     1
 40
1.0
176
     1
 90
        0
176
     1
 62
    18
420
        0
176
     1
 90
       50
176
     1
 90
        3
176
     1
 62
     5
420
      255
176
     1
290
     0
176
     1
 90
       50
176
     1
 90
       50
176
     1
 90
       50
176
     1
290
     0
176
     1
 90
       50
176
     1
 62
   256
176
     0
 40
1.0
176
     0
 90
        2
176
     1
  1
strokes_ogs.tif
176
     1
290
     0
176
     1
 40
1.0
176
     1
 40
1.0
176
     1
  0
VISUALSTYLE
  5
32
102
{ACAD_REACTORS
330
2A
102
}
330
2A
100
AcDbVisualStyle
  2
Basic
 70
     7
177
     3
291
     1
 70
    58
 90
        1
176
     1
 90
        0
176
     1
 90
        1
176
     1
 90
        0
176
     1
 40
0.6
176
     1
 40
30.0
176
     1
 62
     7
420
 16777215
176
     1
 90
        0
176
     1
 90
        4
176
     1
 62
     7
176
     1
 62
   257
176
     1
 90
        1
176
     1
 90
        1
176
     1
 40
1.0
176
     1
 90
        8
176
     1
 62
     7
176
     1
 40
1.0
176
     1
 90
        1
176
     1
 90
        6
176
     1
 90
        2
176
     1
 62
     7
176
     1
 90
        5
176
     1
 90
        0
176
     1
 90
        0
176
     1
290
     0
176
     1
 90
        1
176
     1
 40
0.0
176
     1
 90
        0
176
     1
290
     0
176
     1
290
     1
176
     1
290
     1
176
     1
290
     0
176
     1
290
     0
176
     1
290
     0
176
     1
290
     0
176
     1
290
     0
176
     1
290
     0
176
     1
 90
       50
176
     1
 40
0.0
176
     1
 40
1.0
176
     1
 90
        0
176
     1
 62
    18
420
        0
176
     1
 90
       50
176
     1
 90
        3
176
     1
 62
     5
420
      255
176
     1
290
     0
176
     1
 90
       50
176
     1
 90
       50
176
     1
 90
       50
176
     1
290
     0
176
     1
 90
       50
176
     1
 62
   256
176
     0
 40
1.0
176
     0
 90
        2
176
     1
  1
strokes_ogs.tif
176
     1
290
     0
176
     1
 40
1.0
176
     1
 40
1.0
176
     1
  0
VISUALSTYLE
  5
36
102
{ACAD_REACTORS
330
2A
102
}
330
2A
100
AcDbVisualStyle
  2
Brighten
 70
    12
177
     3
291
     1
 70
    58
 90
        2
176
     1
 90
        2
176
     1
 90
        0
176
     1
 90
        0
176
     1
 40
0.6
176
     1
 40
30.0
176
     1
 62
     7
420
 16777215
176
     1
 90
        1
176
     1
 90
        4
176
     1
 62
     7
176
     1
 62
   257
176
     1
 90
        1
176
     1
 90
        1
176
     1
 40
1.0
176
     1
 90
        8
176
     1
 62
     7
176
     1
 40
1.0
176
     1
 90
        1
176
     1
 90
        6
176
     1
 90
        2
176
     1
 62
     7
176
     1
 90
        5
176
     1
 90
        0
176
     1
 90
        0
176
     1
290
     0
176
     1
 90
        1
176
     1
 40
50.0
176
     1
 90
        0
176
     1
290
     0
176
     1
290
     1
176
     1
290
     1
176
     1
290
     0
176
     1
290
     0
176
     1
290
     0
176
     1
290
     0
176
     1
290
     0
176
     1
290
     0
176
     1
 90
       50
176
     1
 40
0.0
176
     1
 40
1.0
176
     1
 90
        0
176
     1
 62
    18
420
        0
176
     1
 90
       50
176
     1
 90
        3
176
     1
 62
     5
420
      255
176
     1
290
     0
176
     1
 90
       50
176
     1
 90
       50
176
     1
 90
       50
176
     1
290
     0
176
     1
 90
       50
176
     1
 62
   256
176
     0
 40
1.0
176
     0
 90
        2
176
     1
  1
strokes_ogs.tif
176
     1
290
     0
176
     1
 40
1.0
176
     1
 40
1.0
176
     1
  0
VISUALSTYLE
  5
3A
102
{ACAD_REACTORS
330
2A
102
}
330
2A
100
AcDbVisualStyle
  2
ColorChange
 70
    16
177
     3
291
     1
 70
    58
 90
        2
176
     1
 90
        2
176
     1
 90
        3
176
     1
 90
        0
176
     1
 40
0.6
176
     1
 40
30.0
176
     1
 62
     8
420
  8421504
176
     1
 90
        1
176
     1
 90
        4
176
     1
 62
     7
176
     1
 62
   257
176
     1
 90
        1
176
     1
 90
        1
176
     1
 40
1.0
176
     1
 90
        8
176
     1
 62
     8
420
  8421504
176
     1
 40
1.0
176
     1
 90
        1
176
     1
 90
        6
176
     1
 90
        2
176
     1
 62
     7
176
     1
 90
        5
176
     1
 90
        0
176
     1
 90
        0
176
     1
290
     0
176
     1
 90
        1
176
     1
 40
0.0
176
     1
 90
        0
176
     1
290
     0
176
     1
290
     1
176
     1
290
     1
176
     1
290
     0
176
     1
290
     0
176
     1
290
     0
176
     1
290
     0
176
     1
290
     0
176
     1
290
     0
176
     1
 90
       50
176
     1
 40
0.0
176
     1
 40
1.0
176
     1
 90
        0
176
     1
 62
    18
420
        0
176
     1
 90
       50
176
     1
 90
        3
176
     1
 62
     5
420
      255
176
     1
290
     0
176
     1
 90
       50
176
     1
 90
       50
176
     1
 90
       50
176
     1
290
     0
176
     1
 90
       50
176
     1
 62
   256
176
     0
 40
1.0
176
     0
 90
        2
176
     1
  1
strokes_ogs.tif
176
     1
290
     0
176
     1
 40
1.0
176
     1
 40
1.0
176
     1
  0
VISUALSTYLE
  5
34
102
{ACAD_REACTORS
330
2A
102
}
330
2A
100
AcDbVisualStyle
  2
Conceptual
 70
     9
177
     3
291
     0
 70
    58
 90
        3
176
     1
 90
        2
176
     1
 90
        0
176
     1
 90
        0
176
     1
 40
0.6
176
     1
 40
30.0
176
     1
 62
     7
420
 16777215
176
     1
 90
        2
176
     1
 90
        2
176
     1
 62
     7
176
     1
 62
   257
176
     1
 90
        1
176
     1
 90
        1
176
     1
 40
179.0
176
     1
 90
        8
176
     1
 62
     7
176
     1
 40
1.0
176
     1
 90
        1
176
     1
 90
        6
176
     1
 90
        2
176
     1
 62
     7
176
     1
 90
        3
176
     1
 90
        0
176
     1
 90
        0
176
     1
290
     0
176
     1
 90
        1
176
     1
 40
0.0
176
     1
 90
        0
176
     1
290
     0
176
     1
290
     1
176
     1
290
     1
176
     1
290
     0
176
     1
290
     0
176
     1
290
     0
176
     1
290
     0
176
     1
290
     0
176
     1
290
     0
176
     1
 90
       50
176
     1
 40
0.0
176
     1
 40
1.0
176
     1
 90
        0
176
     1
 62
    18
420
        0
176
     1
 90
       50
176
     1
 90
        3
176
     1
 62
     5
420
      255
176
     1
290
     0
176
     1
 90
       50
176
     1
 90
       50
176
     1
 90
       50
176
     1
290
     0
176
     1
 90
       50
176
     1
 62
   256
176
     0
 40
1.0
176
     0
 90
        2
176
     1
  1
strokes_ogs.tif
176
     1
290
     0
176
     1
 40
1.0
176
     1
 40
1.0
176
     1
  0
VISUALSTYLE
  5
35
102
{ACAD_REACTORS
330
2A
102
}
330
2A
100
AcDbVisualStyle
  2
Dim
 70
    11
177
     3
291
     1
 70
    58
 90
        2
176
     1
 90
        2
176
     1
 90
        0
176
     1
 90
        0
176
     1
 40
0.6
176
     1
 40
30.0
176
     1
 62
     7
420
 16777215
176
     1
 90
        1
176
     1
 90
        4
176
     1
 62
     7
176
     1
 62
   257
176
     1
 90
        1
176
     1
 90
        1
176
     1
 40
1.0
176
     1
 90
        8
176
     1
 62
     7
176
     1
 40
1.0
176
     1
 90
        1
176
     1
 90
        6
176
     1
 90
        2
176
     1
 62
     7
176
     1
 90
        5
176
     1
 90
        0
176
     1
 90
        0
176
     1
290
     0
176
     1
 90
        1
176
     1
 40
-50.0
176
     1
 90
        0
176
     1
290
     0
176
     1
290
     1
176
     1
290
     1
176
     1
290
     0
176
     1
290
     0
176
     1
290
     0
176
     1
290
     0
176
     1
290
     0
176
     1
290
     0
176
     1
 90
       50
176
     1
 40
0.0
176
     1
 40
1.0
176
     1
 90
        0
176
     1
 62
    18
420
        0
176
     1
 90
       50
176
     1
 90
        3
176
     1
 62
     5
420
      255
176
     1
290
     0
176
     1
 90
       50
176
     1
 90
       50
176
     1
 90
       50
176
     1
290
     0
176
     1
 90
       50
176
     1
 62
   256
176
     0
 40
1.0
176
     0
 90
        2
176
     1
  1
strokes_ogs.tif
176
     1
290
     0
176
     1
 40
1.0
176
     1
 40
1.0
176
     1
  0
VISUALSTYLE
  5
3D
102
{ACAD_REACTORS
330
2A
102
}
330
2A
100
AcDbVisualStyle
  2
EdgeColorOff
 70
    22
177
     3
291
     1
 70
    58
 90
        2
176
     0
 90
        2
176
     0
 90
        0
176
     0
 90
        0
176
     0
 40
0.6
176
     0
 40
30.0
176
     0
 62
     7
420
 16777215
176
     0
 90
        1
176
     0
 90
        4
176
     0
 62
     7
176
     0
 62
   257
176
     0
 90
        1
176
     0
 90
        1
176
     0
 40
1.0
176
     0
 90
        8
176
     2
 62
     7
176
     0
 40
1.0
176
     0
 90
        1
176
     0
 90
        6
176
     0
 90
        2
176
     0
 62
     7
176
     0
 90
        5
176
     0
 90
        0
176
     0
 90
        0
176
     0
290
     0
176
     0
 90
        1
176
     0
 40
0.0
176
     0
 90
        0
176
     0
290
     0
176
     0
290
     1
176
     0
290
     1
176
     0
290
     0
176
     0
290
     0
176
     0
290
     0
176
     0
290
     0
176
     0
290
     0
176
     0
290
     0
176
     0
 90
       50
176
     0
 40
0.0
176
     0
 40
1.0
176
     0
 90
        0
176
     0
 62
    18
420
        0
176
     0
 90
       50
176
     0
 90
        3
176
     0
 62
     5
420
      255
176
     0
290
     0
176
     0
 90
       50
176
     0
 90
       50
176
     0
 90
       50
176
     0
290
     0
176
     0
 90
       50
176
     0
 62
   256
176
     0
 40
1.0
176
     0
 90
        2
176
     0
  1
strokes_ogs.tif
176
     0
290
     0
176
     0
 40
1.0
176
     0
 40
1.0
176
     0
  0
VISUALSTYLE
  5
39
102
{ACAD_REACTORS
330
2A
102
}
330
2A
100
AcDbVisualStyle
  2
Facepattern
 70
    15
177
     3
291
     1
 70
    58
 90
        2
176
     1
 90
        2
176
     1
 90
        0
176
     1
 90
        0
176
     1
 40
0.6
176
     1
 40
30.0
176
     1
 62
     7
420
 16777215
176
     1
 90
        1
176
     1
 90
        4
176
     1
 62
     7
176
     1
 62
   257
176
     1
 90
        1
176
     1
 90
        1
176
     1
 40
1.0
176
     1
 90
        8
176
     1
 62
     7
176
     1
 40
1.0
176
     1
 90
        1
176
     1
 90
        6
176
     1
 90
        2
176
     1
 62
     7
176
     1
 90
        5
176
     1
 90
        0
176
     1
 90
        0
176
     1
290
     0
176
     1
 90
        1
176
     1
 40
0.0
176
     1
 90
        0
176
     1
290
     0
176
     1
290
     1
176
     1
290
     1
176
     1
290
     0
176
     1
290
     0
176
     1
290
     0
176
     1
290
     0
176
     1
290
     0
176
     1
290
     0
176
     1
 90
       50
176
     1
 40
0.0
176
     1
 40
1.0
176
     1
 90
        0
176
     1
 62
    18
420
        0
176
     1
 90
       50
176
     1
 90
        3
176
     1
 62
     5
420
      255
176
     1
290
     0
176
     1
 90
       50
176
     1
 90
       50
176
     1
 90
       50
176
     1
290
     0
176
     1
 90
       50
176
     1
 62
   256
176
     0
 40
1.0
176
     0
 90
        2
176
     1
  1
strokes_ogs.tif
176
     1
290
     0
176
     1
 40
1.0
176
     1
 40
1.0
176
     1
  0
VISUALSTYLE
  5
2B
102
{ACAD_REACTORS
330
2A
102
}
330
2A
100
AcDbVisualStyle
  2
Flat
 70
     0
177
     3
291
     1
 70
    58
 90
        2
176
     1
 90
        1
176
     1
 90
        1
176
     1
 90
        2
176
     1
 40
0.6
176
     1
 40
30.0
176
     1
 62
     7
420
 16777215
176
     1
 90
        0
176
     1
 90
        0
176
     1
 62
     7
176
     1
 62
   257
176
     1
 90
        1
176
     1
 90
        1
176
     1
 40
1.0
176
     1
 90
        8
176
     1
 62
     7
176
     1
 40
1.0
176
     1
 90
        1
176
     1
 90
        6
176
     1
 90
        2
176
     1
 62
     7
176
     1
 90
        5
176
     1
 90
        0
176
     1
 90
        0
176
     1
290
     0
176
     1
 90
       13
176
     1
 40
0.0
176
     1
 90
        0
176
     1
290
     0
176
     1
290
     1
176
     1
290
     1
176
     1
290
     0
176
     1
290
     0
176
     1
290
     0
176
     1
290
     0
176
     1
290
     0
176
     1
290
     0
176
     1
 90
       50
176
     1
 40
0.0
176
     1
 40
1.0
176
     1
 90
        0
176
     1
 62
    18
420
        0
176
     1
 90
       50
176
     1
 90
        3
176
     1
 62
     5
420
      255
176
     1
290
     0
176
     1
 90
       50
176
     1
 90
       50
176
     1
 90
       50
176
     1
290
     0
176
     1
 90
       50
176
     1
 62
   256
176
     0
 40
1.0
176
     0
 90
        2
176
     1
  1
strokes_ogs.tif
176
     1
290
     0
176
     1
 40
1.0
176
     1
 40
1.0
176
     1
  0
VISUALSTYLE
  5
2C
102
{ACAD_REACTORS
330
2A
102
}
330
2A
100
AcDbVisualStyle
  2
FlatWithEdges
 70
     1
177
     3
291
     1
 70
    58
 90
        2
176
     1
 90
        1
176
     1
 90
        1
176
     1
 90
        2
176
     1
 40
0.6
176
     1
 40
30.0
176
     1
 62
     7
420
 16777215
176
     1
 90
        1
176
     1
 90
        0
176
     1
 62
     7
176
     1
 62
   257
176
     1
 90
        1
176
     1
 90
        1
176
     1
 40
1.0
176
     1
 90
        0
176
     1
 62
   257
176
     1
 40
1.0
176
     1
 90
        1
176
     1
 90
        6
176
     1
 90
        2
176
     1
 62
     7
176
     1
 90
        5
176
     1
 90
        0
176
     1
 90
        0
176
     1
290
     0
176
     1
 90
       13
176
     1
 40
0.0
176
     1
 90
        0
176
     1
290
     0
176
     1
290
     1
176
     1
290
     1
176
     1
290
     0
176
     1
290
     0
176
     1
290
     0
176
     1
290
     0
176
     1
290
     0
176
     1
290
     0
176
     1
 90
       50
176
     1
 40
0.0
176
     1
 40
1.0
176
     1
 90
        0
176
     1
 62
    18
420
        0
176
     1
 90
       50
176
     1
 90
        3
176
     1
 62
     5
420
      255
176
     1
290
     0
176
     1
 90
       50
176
     1
 90
       50
176
     1
 90
       50
176
     1
290
     0
176
     1
 90
       50
176
     1
 62
   256
176
     0
 40
1.0
176
     0
 90
        2
176
     1
  1
strokes_ogs.tif
176
     1
290
     0
176
     1
 40
1.0
176
     1
 40
1.0
176
     1
  0
VISUALSTYLE
  5
2D
102
{ACAD_REACTORS
330
2A
102
}
330
2A
100
AcDbVisualStyle
  2
Gouraud
 70
     2
177
     3
291
     1
 70
    58
 90
        2
176
     1
 90
        2
176
     1
 90
        1
176
     1
 90
        2
176
     1
 40
0.6
176
     1
 40
30.0
176
     1
 62
     7
420
 16777215
176
     1
 90
        0
176
     1
 90
        0
176
     1
 62
     7
176
     1
 62
   257
176
     1
 90
        1
176
     1
 90
        1
176
     1
 40
1.0
176
     1
 90
        0
176
     1
 62
     7
176
     1
 40
1.0
176
     1
 90
        1
176
     1
 90
        6
176
     1
 90
        2
176
     1
 62
     7
176
     1
 90
        5
176
     1
 90
        0
176
     1
 90
        0
176
     1
290
     0
176
     1
 90
       13
176
     1
 40
0.0
176
     1
 90
        0
176
     1
290
     0
176
     1
290
     1
176
     1
290
     1
176
     1
290
     0
176
     1
290
     0
176
     1
290
     0
176
     1
290
     0
176
     1
290
     0
176
     1
290
     0
176
     1
 90
       50
176
     1
 40
0.0
176
     1
 40
1.0
176
     1
 90
        0
176
     1
 62
    18
420
        0
176
     1
 90
       50
176
     1
 90
        3
176
     1
 62
     5
420
      255
176
     1
290
     0
176
     1
 90
       50
176
     1
 90
       50
176
     1
 90
       50
176
     1
290
     0
176
     1
 90
       50
176
     1
 62
   256
176
     0
 40
1.0
176
     0
 90
        2
176
     1
  1
strokes_ogs.tif
176
     1
290
     0
176
     1
 40
1.0
176
     1
 40
1.0
176
     1
  0
VISUALSTYLE
  5
2E
102
{ACAD_REACTORS
330
2A
102
}
330
2A
100
AcDbVisualStyle
  2
GouraudWithEdges
 70
     3
177
     3
291
     1
 70
    58
 90
        2
176
     1
 90
        2
176
     1
 90
        1
176
     1
 90
        2
176
     1
 40
0.6
176
     1
 40
30.0
176
     1
 62
     7
420
 16777215
176
     1
 90
        1
176
     1
 90
        0
176
     1
 62
     7
176
     1
 62
   257
176
     1
 90
        1
176
     1
 90
        1
176
     1
 40
1.0
176
     1
 90
        0
176
     1
 62
   257
176
     1
 40
1.0
176
     1
 90
        1
176
     1
 90
        6
176
     1
 90
        2
176
     1
 62
     7
176
     1
 90
        5
176
     1
 90
        0
176
     1
 90
        0
176
     1
290
     0
176
     1
 90
       13
176
     1
 40
0.0
176
     1
 90
        0
176
     1
290
     0
176
     1
290
     1
176
     1
290
     1
176
     1
290
     0
176
     1
290
     0
176
     1
290
     0
176
     1
290
     0
176
     1
290
     0
176
     1
290
     0
176
     1
 90
       50
176
     1
 40
0.0
176
     1
 40
1.0
176
     1
 90
        0
176
     1
 62
    18
420
        0
176
     1
 90
       50
176
     1
 90
        3
176
     1
 62
     5
420
      255
176
     1
290
     0
176
     1
 90
       50
176
     1
 90
       50
176
     1
 90
       50
176
     1
290
     0
176
     1
 90
       50
176
     1
 62
   256
176
     0
 40
1.0
176
     0
 90
        2
176
     1
  1
strokes_ogs.tif
176
     1
290
     0
176
     1
 40
1.0
176
     1
 40
1.0
176
     1
  0
VISUALSTYLE
  5
31
102
{ACAD_REACTORS
330
2A
102
}
330
2A
100
AcDbVisualStyle
  2
Hidden
 70
     6
177
     3
291
     0
 70
    58
 90
        1
176
     1
 90
        2
176
     1
 90
        2
176
     1
 90
        0
176
     1
 40
0.6
176
     1
 40
30.0
176
     1
 62
     7
420
 16777215
176
     1
 90
        2
176
     1
 90
        2
176
     1
 62
     7
176
     1
 62
   257
176
     1
 90
        2
176
     1
 90
        1
176
     1
 40
40.0
176
     1
 90
        0
176
     1
 62
   257
176
     1
 40
1.0
176
     1
 90
        1
176
     1
 90
        6
176
     1
 90
        2
176
     1
 62
     7
176
     1
 90
        3
176
     1
 90
        0
176
     1
 90
        0
176
     1
290
     0
176
     1
 90
        1
176
     1
 40
0.0
176
     1
 90
        0
176
     1
290
     0
176
     1
290
     1
176
     1
290
     1
176
     1
290
     0
176
     1
290
     0
176
     1
290
     0
176
     1
290
     0
176
     1
290
     0
176
     1
290
     0
176
     1
 90
       50
176
     1
 40
0.0
176
     1
 40
1.0
176
     1
 90
        0
176
     1
 62
    18
420
        0
176
     1
 90
       50
176
     1
 90
        3
176
     1
 62
     5
420
      255
176
     1
290
     0
176
     1
 90
       50
176
     1
 90
       50
176
     1
 90
       50
176
     1
290
     0
176
     1
 90
       50
176
     1
 62
   256
176
     0
 40
1.0
176
     0
 90
        2
176
     1
  1
strokes_ogs.tif
176
     1
290
     0
176
     1
 40
1.0
176
     1
 40
1.0
176
     1
  0
VISUALSTYLE
  5
3B
102
{ACAD_REACTORS
330
2A
102
}
330
2A
100
AcDbVisualStyle
  2
JitterOff
 70
    20
177
     3
291
     1
 70
    58
 90
        2
176
     0
 90
        2
176
     0
 90
        0
176
     0
 90
        0
176
     0
 40
0.6
176
     0
 40
30.0
176
     0
 62
     7
420
 16777215
176
     0
 90
        1
176
     0
 90
        4
176
     0
 62
     7
176
     0
 62
   257
176
     0
 90
        1
176
     0
 90
        1
176
     0
 40
1.0
176
     0
 90
       10
176
     2
 62
     7
176
     0
 40
1.0
176
     0
 90
        1
176
     0
 90
        6
176
     0
 90
        2
176
     0
 62
     7
176
     0
 90
        5
176
     0
 90
        0
176
     0
 90
        0
176
     0
290
     0
176
     0
 90
        1
176
     0
 40
0.0
176
     0
 90
        0
176
     0
290
     0
176
     0
290
     1
176
     0
290
     1
176
     0
290
     0
176
     0
290
     0
176
     0
290
     0
176
     0
290
     0
176
     0
290
     0
176
     0
290
     0
176
     0
 90
       50
176
     0
 40
0.0
176
     0
 40
1.0
176
     0
 90
        0
176
     0
 62
    18
420
        0
176
     0
 90
       50
176
     0
 90
        3
176
     0
 62
     5
420
      255
176
     0
290
     0
176
     0
 90
       50
176
     0
 90
       50
176
     0
 90
       50
176
     0
290
     0
176
     0
 90
       50
176
     0
 62
   256
176
     0
 40
1.0
176
     0
 90
        2
176
     0
  1
strokes_ogs.tif
176
     0
290
     0
176
     0
 40
1.0
176
     0
 40
1.0
176
     0
  0
VISUALSTYLE
  5
38
102
{ACAD_REACTORS
330
2A
102
}
330
2A
100
AcDbVisualStyle
  2
Linepattern
 70
    14
177
     3
291
     1
 70
    58
 90
        2
176
     1
 90
        2
176
     1
 90
        0
176
     1
 90
        0
176
     1
 40
0.6
176
     1
 40
30.0
176
     1
 62
     7
420
 16777215
176
     1
 90
        1
176
     1
 90
        4
176
     1
 62
     7
176
     1
 62
   257
176
     1
 90
        7
176
     1
 90
        7
176
     1
 40
1.0
176
     1
 90
        8
176
     1
 62
     7
176
     1
 40
1.0
176
     1
 90
        1
176
     1
 90
        6
176
     1
 90
        2
176
     1
 62
     7
176
     1
 90
        5
176
     1
 90
        0
176
     1
 90
        0
176
     1
290
     0
176
     1
 90
        1
176
     1
 40
0.0
176
     1
 90
        0
176
     1
290
     0
176
     1
290
     1
176
     1
290
     1
176
     1
290
     0
176
     1
290
     0
176
     1
290
     0
176
     1
290
     0
176
     1
290
     0
176
     1
290
     0
176
     1
 90
       50
176
     1
 40
0.0
176
     1
 40
1.0
176
     1
 90
        0
176
     1
 62
    18
420
        0
176
     1
 90
       50
176
     1
 90
        3
176
     1
 62
     5
420
      255
176
     1
290
     0
176
     1
 90
       50
176
     1
 90
       50
176
     1
 90
       50
176
     1
290
     0
176
     1
 90
       50
176
     1
 62
   256
176
     0
 40
1.0
176
     0
 90
        2
176
     1
  1
strokes_ogs.tif
176
     1
290
     0
176
     1
 40
1.0
176
     1
 40
1.0
176
     1
  0
VISUALSTYLE
  5
3C
102
{ACAD_REACTORS
330
2A
102
}
330
2A
100
AcDbVisualStyle
  2
OverhangOff
 70
    21
177
     3
291
     1
 70
    58
 90
        2
176
     0
 90
        2
176
     0
 90
        0
176
     0
 90
        0
176
     0
 40
0.6
176
     0
 40
30.0
176
     0
 62
     7
420
 16777215
176
     0
 90
        1
176
     0
 90
        4
176
     0
 62
     7
176
     0
 62
   257
176
     0
 90
        1
176
     0
 90
        1
176
     0
 40
1.0
176
     0
 90
        9
176
     2
 62
     7
176
     0
 40
1.0
176
     0
 90
        1
176
     0
 90
        6
176
     0
 90
        2
176
     0
 62
     7
176
     0
 90
        5
176
     0
 90
        0
176
     0
 90
        0
176
     0
290
     0
176
     0
 90
        1
176
     0
 40
0.0
176
     0
 90
        0
176
     0
290
     0
176
     0
290
     1
176
     0
290
     1
176
     0
290
     0
176
     0
290
     0
176
     0
290
     0
176
     0
290
     0
176
     0
290
     0
176
     0
290
     0
176
     0
 90
       50
176
     0
 40
0.0
176
     0
 40
1.0
176
     0
 90
        0
176
     0
 62
    18
420
        0
176
     0
 90
       50
176
     0
 90
        3
176
     0
 62
     5
420
      255
176
     0
290
     0
176
     0
 90
       50
176
     0
 90
       50
176
     0
 90
       50
176
     0
290
     0
176
     0
 90
       50
176
     0
 62
   256
176
     0
 40
1.0
176
     0
 90
        2
176
     0
  1
strokes_ogs.tif
176
     0
290
     0
176
     0
 40
1.0
176
     0
 40
1.0
176
     0
  0
VISUALSTYLE
  5
33
102
{ACAD_REACTORS
330
2A
102
}
330
2A
100
AcDbVisualStyle
  2
Realistic
 70
     8
177
     3
291
     0
 70
    58
 90
        2
176
     1
 90
        3
176
     1
 90
        0
176
     1
 90
        2
176
     1
 40
0.6
176
     1
 40
30.0
176
     1
 62
     7
420
 16777215
176
     1
 90
        0
176
     1
 90
        0
176
     1
 62
     7
176
     1
 62
   257
176
     1
 90
        1
176
     1
 90
        1
176
     1
 40
1.0
176
     1
 90
        8
176
     1
 62
   257
176
     1
 40
1.0
176
     1
 90
        1
176
     1
 90
        6
176
     1
 90
        2
176
     1
 62
     7
176
     1
 90
        3
176
     1
 90
        0
176
     1
 90
        0
176
     1
290
     0
176
     1
 90
       13
176
     1
 40
0.0
176
     1
 90
        0
176
     1
290
     0
176
     1
290
     1
176
     1
290
     1
176
     1
290
     0
176
     1
290
     0
176
     1
290
     0
176
     1
290
     0
176
     1
290
     0
176
     1
290
     0
176
     1
 90
       50
176
     1
 40
0.0
176
     1
 40
1.0
176
     1
 90
        0
176
     1
 62
    18
420
        0
176
     1
 90
       50
176
     1
 90
        3
176
     1
 62
     5
420
      255
176
     1
290
     0
176
     1
 90
       50
176
     1
 90
       50
176
     1
 90
       50
176
     1
290
     0
176
     1
 90
       50
176
     1
 62
   256
176
     0
 40
1.0
176
     0
 90
        2
176
     1
  1
strokes_ogs.tif
176
     1
290
     0
176
     1
 40
1.0
176
     1
 40
1.0
176
     1
  0
VISUALSTYLE
  5
42
102
{ACAD_REACTORS
330
2A
102
}
330
2A
100
AcDbVisualStyle
  2
Shaded
 70
    27
177
     3
291
     0
 70
    58
 90
        2
176
     1
 90
        2
176
     1
 90
        1
176
     1
 90
        2
176
     1
 40
0.6
176
     1
 40
30.0
176
     1
 62
     7
420
 16777215
176
     1
 90
        0
176
     1
 90
        4
176
     1
 62
     7
176
     1
 62
   257
176
     1
 90
        1
176
     1
 90
        1
176
     1
 40
1.0
176
     1
 90
        8
176
     1
 62
   257
176
     1
 40
1.0
176
     1
 90
        1
176
     1
 90
        6
176
     1
 90
        2
176
     1
 62
     8
420
  7895160
176
     1
 90
        3
176
     1
 90
        0
176
     1
 90
        0
176
     1
290
     0
176
     1
 90
        5
176
     1
 40
0.0
176
     1
 90
        0
176
     1
290
     0
176
     1
290
     1
176
     1
290
     1
176
     1
290
     0
176
     1
290
     0
176
     1
290
     0
176
     1
290
     0
176
     1
290
     0
176
     1
290
     0
176
     1
 90
       50
176
     1
 40
0.0
176
     1
 40
1.0
176
     1
 90
        0
176
     1
 62
    18
420
        0
176
     1
 90
       50
176
     1
 90
        3
176
     1
 62
     5
420
      255
176
     1
290
     0
176
     1
 90
       50
176
     1
 90
       50
176
     1
 90
       50
176
     1
290
     0
176
     1
 90
       50
176
     1
 62
   256
176
     0
 40
1.0
176
     0
 90
        2
176
     1
  1
strokes_ogs.tif
176
     1
290
     0
176
     1
 40
1.0
176
     1
 40
1.0
176
     1
  0
VISUALSTYLE
  5
41
102
{ACAD_REACTORS
330
2A
102
}
330
2A
100
AcDbVisualStyle
  2
Shaded with edges
 70
    26
177
     3
291
     0
 70
    58
 90
        2
176
     1
 90
        2
176
     1
 90
        1
176
     1
 90
        2
176
     1
 40
0.6
176
     1
 40
30.0
176
     1
 62
     7
420
 16777215
176
     1
 90
        1
176
     1
 90
       10
176
     1
 62
     7
176
     1
 62
   257
176
     1
 90
        2
176
     1
 90
        1
176
     1
 40
1.0
176
     1
 90
        8
176
     1
 62
   257
176
     1
 40
1.0
176
     1
 90
        1
176
     1
 90
        6
176
     1
 90
        2
176
     1
 62
     7
176
     1
 90
        3
176
     1
 90
        0
176
     1
 90
        0
176
     1
290
     0
176
     1
 90
        5
176
     1
 40
0.0
176
     1
 90
        0
176
     1
290
     0
176
     1
290
     1
176
     1
290
     1
176
     1
290
     0
176
     1
290
     0
176
     1
290
     0
176
     1
290
     0
176
     1
290
     0
176
     1
290
     0
176
     1
 90
       50
176
     1
 40
0.0
176
     1
 40
1.0
176
     1
 90
        0
176
     1
 62
    18
420
        0
176
     1
 90
       50
176
     1
 90
        3
176
     1
 62
     5
420
      255
176
     1
290
     0
176
     1
 90
       50
176
     1
 90
       50
176
     1
 90
       50
176
     1
290
     0
176
     1
 90
       50
176
     1
 62
   256
176
     0
 40
1.0
176
     0
 90
        2
176
     1
  1
strokes_ogs.tif
176
     1
290
     0
176
     1
 40
1.0
176
     1
 40
1.0
176
     1
  0
VISUALSTYLE
  5
3E
102
{ACAD_REACTORS
330
2A
102
}
330
2A
100
AcDbVisualStyle
  2
Shades of Gray
 70
    23
177
     3
291
     0
 70
    58
 90
        2
176
     1
 90
        2
176
     1
 90
        3
176
     1
 90
        0
176
     1
 40
0.6
176
     1
 40
30.0
176
     1
 62
     7
420
 16777215
176
     1
 90
        2
176
     1
 90
        2
176
     1
 62
     7
176
     1
 62
     7
176
     1
 90
        1
176
     1
 90
        1
176
     1
 40
40.0
176
     1
 90
        8
176
     1
 62
     7
176
     1
 40
1.0
176
     1
 90
        1
176
     1
 90
        6
176
     1
 90
        2
176
     1
 62
     7
176
     1
 90
        3
176
     1
 90
        0
176
     1
 90
        0
176
     1
290
     0
176
     1
 90
        1
176
     1
 40
0.0
176
     1
 90
        0
176
     1
290
     0
176
     1
290
     1
176
     1
290
     1
176
     1
290
     0
176
     1
290
     0
176
     1
290
     0
176
     1
290
     0
176
     1
290
     0
176
     1
290
     0
176
     1
 90
       50
176
     1
 40
0.0
176
     1
 40
1.0
176
     1
 90
        0
176
     1
 62
    18
420
        0
176
     1
 90
       50
176
     1
 90
        3
176
     1
 62
     5
420
      255
176
     1
290
     0
176
     1
 90
       50
176
     1
 90
       50
176
     1
 90
       50
176
     1
290
     0
176
     1
 90
       50
176
     1
 62
   256
176
     0
 40
1.0
176
     0
 90
        2
176
     1
  1
strokes_ogs.tif
176
     1
290
     0
176
     1
 40
1.0
176
     1
 40
1.0
176
     1
  0
VISUALSTYLE
  5
3F
102
{ACAD_REACTORS
330
2A
102
}
330
2A
100
AcDbVisualStyle
  2
Sketchy
 70
    24
177
     3
291
     0
 70
    58
 90
        1
176
     1
 90
        2
176
     1
 90
        2
176
     1
 90
        0
176
     1
 40
0.6
176
     1
 40
30.0
176
     1
 62
     7
420
 16777215
176
     1
 90
        2
176
     1
 90
        2
176
     1
 62
     7
176
     1
 62
     7
176
     1
 90
        1
176
     1
 90
        1
176
     1
 40
40.0
176
     1
 90
       11
176
     1
 62
     7
176
     1
 40
1.0
176
     1
 90
        1
176
     1
 90
        6
176
     1
 90
        2
176
     1
 62
     7
176
     1
 90
        6
176
     1
 90
        0
176
     1
 90
        0
176
     1
290
     0
176
     1
 90
        1
176
     1
 40
0.0
176
     1
 90
        0
176
     1
290
     0
176
     1
290
     1
176
     1
290
     1
176
     1
290
     0
176
     1
290
     0
176
     1
290
     0
176
     1
290
     0
176
     1
290
     0
176
     1
290
     0
176
     1
 90
       50
176
     1
 40
0.0
176
     1
 40
1.0
176
     1
 90
        0
176
     1
 62
    18
420
        0
176
     1
 90
       50
176
     1
 90
        3
176
     1
 62
     5
420
      255
176
     1
290
     0
176
     1
 90
       50
176
     1
 90
       50
176
     1
 90
       50
176
     1
290
     0
176
     1
 90
       50
176
     1
 62
   256
176
     0
 40
1.0
176
     0
 90
        2
176
     1
  1
strokes_ogs.tif
176
     1
290
     0
176
     1
 40
1.0
176
     1
 40
1.0
176
     1
  0
VISUALSTYLE
  5
37
102
{ACAD_REACTORS
330
2A
102
}
330
2A
100
AcDbVisualStyle
  2
Thicken
 70
    13
177
     3
291
     1
 70
    58
 90
        2
176
     1
 90
        2
176
     1
 90
        0
176
     1
 90
        0
176
     1
 40
0.6
176
     1
 40
30.0
176
     1
 62
     7
420
 16777215
176
     1
 90
        1
176
     1
 90
        4
176
     1
 62
     7
176
     1
 62
   257
176
     1
 90
        1
176
     1
 90
        1
176
     1
 40
1.0
176
     1
 90
       12
176
     1
 62
     7
176
     1
 40
1.0
176
     1
 90
        1
176
     1
 90
        6
176
     1
 90
        2
176
     1
 62
     7
176
     1
 90
        5
176
     1
 90
        0
176
     1
 90
        0
176
     1
290
     0
176
     1
 90
        1
176
     1
 40
0.0
176
     1
 90
        0
176
     1
290
     0
176
     1
290
     1
176
     1
290
     1
176
     1
290
     0
176
     1
290
     0
176
     1
290
     0
176
     1
290
     0
176
     1
290
     0
176
     1
290
     0
176
     1
 90
       50
176
     1
 40
0.0
176
     1
 40
1.0
176
     1
 90
        0
176
     1
 62
    18
420
        0
176
     1
 90
       50
176
     1
 90
        3
176
     1
 62
     5
420
      255
176
     1
290
     0
176
     1
 90
       50
176
     1
 90
       50
176
     1
 90
       50
176
     1
290
     0
176
     1
 90
       50
176
     1
 62
   256
176
     0
 40
1.0
176
     0
 90
        2
176
     1
  1
strokes_ogs.tif
176
     1
290
     0
176
     1
 40
1.0
176
     1
 40
1.0
176
     1
  0
VISUALSTYLE
  5
30
102
{ACAD_REACTORS
330
2A
102
}
330
2A
100
AcDbVisualStyle
  2
Wireframe
 70
     5
177
     3
291
     0
 70
    58
 90
        0
176
     1
 90
        2
176
     1
 90
        0
176
     1
 90
        0
176
     1
 40
0.6
176
     1
 40
30.0
176
     1
 62
     7
420
 16777215
176
     1
 90
        1
176
     1
 90
        4
176
     1
 62
     7
176
     1
 62
   257
176
     1
 90
        1
176
     1
 90
        1
176
     1
 40
1.0
176
     1
 90
        0
176
     1
 62
   257
176
     1
 40
1.0
176
     1
 90
        1
176
     1
 90
        6
176
     1
 90
        2
176
     1
 62
     7
176
     1
 90
        3
176
     1
 90
        0
176
     1
 90
        0
176
     1
290
     0
176
     1
 90
        1
176
     1
 40
0.0
176
     1
 90
        0
176
     1
290
     0
176
     1
290
     1
176
     1
290
     1
176
     1
290
     0
176
     1
290
     0
176
     1
290
     0
176
     1
290
     0
176
     1
290
     0
176
     1
290
     0
176
     1
 90
       50
176
     1
 40
0.0
176
     1
 40
1.0
176
     1
 90
        0
176
     1
 62
    18
420
        0
176
     1
 90
       50
176
     1
 90
        3
176
     1
 62
     5
420
      255
176
     1
290
     0
176
     1
 90
       50
176
     1
 90
       50
176
     1
 90
       50
176
     1
290
     0
176
     1
 90
       50
176
     1
 62
   256
176
     0
 40
1.0
176
     0
 90
        2
176
     1
  1
strokes_ogs.tif
176
     1
290
     0
176
     1
 40
1.0
176
     1
 40
1.0
176
     1
  0
VISUALSTYLE
  5
40
102
{ACAD_REACTORS
330
2A
102
}
330
2A
100
AcDbVisualStyle
  2
X-Ray
 70
    25
177
     3
291
     0
 70
    58
 90
        2
176
     1
 90
        2
176
     1
 90
        1
176
     1
 90
        1
176
     1
 40
0.5
176
     1
 40
30.0
176
     1
 62
     7
420
 16777215
176
     1
 90
        1
176
     1
 90
        0
176
     1
 62
     7
176
     1
 62
   257
176
     1
 90
        1
176
     1
 90
        1
176
     1
 40
1.0
176
     1
 90
        8
176
     1
 62
     7
176
     1
 40
1.0
176
     1
 90
        1
176
     1
 90
        6
176
     1
 90
        2
176
     1
 62
     7
176
     1
 90
        3
176
     1
 90
        0
176
     1
 90
        0
176
     1
290
     0
176
     1
 90
       13
176
     1
 40
0.0
176
     1
 90
        0
176
     1
290
     0
176
     1
290
     1
176
     1
290
     1
176
     1
290
     0
176
     1
290
     0
176
     1
290
     0
176
     1
290
     0
176
     1
290
     0
176
     1
290
     0
176
     1
 90
       50
176
     1
 40
0.0
176
     1
 40
1.0
176
     1
 90
        0
176
     1
 62
    18
420
        0
176
     1
 90
       50
176
     1
 90
        3
176
     1
 62
     5
420
      255
176
     1
290
     0
176
     1
 90
       50
176
     1
 90
       50
176
     1
 90
       50
176
     1
290
     0
176
     1
 90
       50
176
     1
 62
   256
176
     0
 40
1.0
176
     0
 90
        2
176
     1
  1
strokes_ogs.tif
176
     1
290
     0
176
     1
 40
1.0
176
     1
 40
1.0
176
     1
  0
DICTIONARYVAR
  5
141
102
{ACAD_REACTORS
330
140
102
}
330
140
100
DictionaryVariables
280
     0
  1
1:1
  0
DICTIONARYVAR
  5
146
102
{ACAD_REACTORS
330
140
102
}
330
140
100
DictionaryVariables
280
     0
  1
Standard
  0
DICTIONARYVAR
  5
145
102
{ACAD_REACTORS
330
140
102
}
330
140
100
DictionaryVariables
280
     0
  1
Standard
  0
DICTIONARYVAR
  5
149
102
{ACAD_REACTORS
330
140
102
}
330
140
100
DictionaryVariables
280
     0
  1
6.000000
  0
DICTIONARY
  5
142
330
6A
100
AcDbDictionary
280
     1
281
     1
  3
ACAD_ROUNDTRIP_2008_TABLESTYLE_CELLSTYLEMAP
360
143
  0
CELLSTYLEMAP
  5
143
102
{ACAD_REACTORS
330
142
102
}
330
142
100
AcDbCellStyleMap
 90
        3
300
CELLSTYLE
  1
TABLEFORMAT_BEGIN
 90
        5
170
     1
 91
        0
 92
    32768
 62
   257
 93
        1
300
CONTENTFORMAT
  1
CONTENTFORMAT_BEGIN
 90
        0
 91
        0
 92
        4
 93
        0
300

 40
0.0
140
1.0
 94
        5
 62
     0
340
11
144
6.0
309
CONTENTFORMAT_END
171
     1
301
MARGIN
  1
CELLMARGIN_BEGIN
 40
1.5
 40
1.5
 40
1.5
 40
1.5
 40
1.5
 40
1.5
309
CELLMARGIN_END
 94
        6
 95
        1
302
GRIDFORMAT
  1
GRIDFORMAT_BEGIN
 90
        0
 91
        1
 62
     0
 92
       -2
340
14
 93
        0
 40
0.045
309
GRIDFORMAT_END
 95
        2
302
GRIDFORMAT
  1
GRIDFORMAT_BEGIN
 90
        0
 91
        1
 62
     0
 92
       -2
340
14
 93
        0
 40
0.045
309
GRIDFORMAT_END
 95
        4
302
GRIDFORMAT
  1
GRIDFORMAT_BEGIN
 90
        0
 91
        1
 62
     0
 92
       -2
340
14
 93
        0
 40
0.045
309
GRIDFORMAT_END
 95
        8
302
GRIDFORMAT
  1
GRIDFORMAT_BEGIN
 90
        0
 91
        1
 62
     0
 92
       -2
340
14
 93
        0
 40
0.045
309
GRIDFORMAT_END
 95
       16
302
GRIDFORMAT
  1
GRIDFORMAT_BEGIN
 90
        0
 91
        1
 62
     0
 92
       -2
340
14
 93
        0
 40
0.045
309
GRIDFORMAT_END
 95
       32
302
GRIDFORMAT
  1
GRIDFORMAT_BEGIN
 90
        0
 91
        1
 62
     0
 92
       -2
340
14
 93
        0
 40
0.045
309
GRIDFORMAT_END
309
TABLEFORMAT_END
  1
CELLSTYLE_BEGIN
 90
        1
 91
        1
300
_TITLE
309
CELLSTYLE_END
300
CELLSTYLE
  1
TABLEFORMAT_BEGIN
 90
        5
170
     1
 91
        0
 92
        0
 62
   257
 93
        1
300
CONTENTFORMAT
  1
CONTENTFORMAT_BEGIN
 90
        0
 91
        0
 92
        4
 93
        0
300

 40
0.0
140
1.0
 94
        5
 62
     0
340
11
144
4.5
309
CONTENTFORMAT_END
171
     1
301
MARGIN
  1
CELLMARGIN_BEGIN
 40
1.5
 40
1.5
 40
1.5
 40
1.5
 40
1.5
 40
1.5
309
CELLMARGIN_END
 94
        6
 95
        1
302
GRIDFORMAT
  1
GRIDFORMAT_BEGIN
 90
        0
 91
        1
 62
     0
 92
       -2
340
14
 93
        0
 40
0.045
309
GRIDFORMAT_END
 95
        2
302
GRIDFORMAT
  1
GRIDFORMAT_BEGIN
 90
        0
 91
        1
 62
     0
 92
       -2
340
14
 93
        0
 40
0.045
309
GRIDFORMAT_END
 95
        4
302
GRIDFORMAT
  1
GRIDFORMAT_BEGIN
 90
        0
 91
        1
 62
     0
 92
       -2
340
14
 93
        0
 40
0.045
309
GRIDFORMAT_END
 95
        8
302
GRIDFORMAT
  1
GRIDFORMAT_BEGIN
 90
        0
 91
        1
 62
     0
 92
       -2
340
14
 93
        0
 40
0.045
309
GRIDFORMAT_END
 95
       16
302
GRIDFORMAT
  1
GRIDFORMAT_BEGIN
 90
        0
 91
        1
 62
     0
 92
       -2
340
14
 93
        0
 40
0.045
309
GRIDFORMAT_END
 95
       32
302
GRIDFORMAT
  1
GRIDFORMAT_BEGIN
 90
        0
 91
        1
 62
     0
 92
       -2
340
14
 93
        0
 40
0.045
309
GRIDFORMAT_END
309
TABLEFORMAT_END
  1
CELLSTYLE_BEGIN
 90
        2
 91
        1
300
_HEADER
309
CELLSTYLE_END
300
CELLSTYLE
  1
TABLEFORMAT_BEGIN
 90
        5
170
     1
 91
        0
 92
        0
 62
   257
 93
        1
300
CONTENTFORMAT
  1
CONTENTFORMAT_BEGIN
 90
        0
 91
        0
 92
        4
 93
        0
300

 40
0.0
140
1.0
 94
        2
 62
     0
340
11
144
4.5
309
CONTENTFORMAT_END
171
     1
301
MARGIN
  1
CELLMARGIN_BEGIN
 40
1.5
 40
1.5
 40
1.5
 40
1.5
 40
1.5
 40
1.5
309
CELLMARGIN_END
 94
        6
 95
        1
302
GRIDFORMAT
  1
GRIDFORMAT_BEGIN
 90
        0
 91
        1
 62
     0
 92
       -2
340
14
 93
        0
 40
0.045
309
GRIDFORMAT_END
 95
        2
302
GRIDFORMAT
  1
GRIDFORMAT_BEGIN
 90
        0
 91
        1
 62
     0
 92
       -2
340
14
 93
        0
 40
0.045
309
GRIDFORMAT_END
 95
        4
302
GRIDFORMAT
  1
GRIDFORMAT_BEGIN
 90
        0
 91
        1
 62
     0
 92
       -2
340
14
 93
        0
 40
0.045
309
GRIDFORMAT_END
 95
        8
302
GRIDFORMAT
  1
GRIDFORMAT_BEGIN
 90
        0
 91
        1
 62
     0
 92
       -2
340
14
 93
        0
 40
0.045
309
GRIDFORMAT_END
 95
       16
302
GRIDFORMAT
  1
GRIDFORMAT_BEGIN
 90
        0
 91
        1
 62
     0
 92
       -2
340
14
 93
        0
 40
0.045
309
GRIDFORMAT_END
 95
       32
302
GRIDFORMAT
  1
GRIDFORMAT_BEGIN
 90
        0
 91
        1
 62
     0
 92
       -2
340
14
 93
        0
 40
0.045
309
GRIDFORMAT_END
309
TABLEFORMAT_END
  1
CELLSTYLE_BEGIN
 90
        3
 91
        2
300
_DATA
309
CELLSTYLE_END
  0
ENDSEC
  0
EOF
