  0
SECTION
  2
HEADER
  9
$ACADVER
  1
AC1014
  9
$ACADMAINTVER
 70
               0
  9
$DWGCODEPAGE
  3
ANSI_932
  9
$INSBASE
 10
0.0
 20
0.0
 30
0.0
  9
$EXTMIN
 10
270.0
 20
117.53333333333333
 30
0.0
  9
$EXTMAX
 10
290.06599903106689
 20
126.0
 30
0.0
  9
$LIMMIN
 10
0.0
 20
0.0
  9
$LIMMAX
 10
0.0
 20
0.0
  9
$ORTHOMODE
 70
               0
  9
$REGENMODE
 70
               1
  9
$FILLMODE
 70
               1
  9
$QTEXTMODE
 70
               0
  9
$MIRRTEXT
 70
               1
  9
$DRAGMODE
 70
               2
  9
$LTSCALE
 40
12.699999999999999
  9
$OSMODE
 70
               0
  9
$ATTMODE
 70
               1
  9
$TEXTSIZE
 40
0.2
  9
$TRACEWID
 40
1.0
  9
$TEXTSTYLE
  7
STANDARD
  9
$CLAYER
  8
0
  9
$CELTYPE
  6
CONTINUOUS
  9
$CECOLOR
 62
             256
  9
$CELTSCALE
 40
1.0
  9
$DELOBJ
 70
               1
  9
$DISPSILH
 70
               0
  9
$DIMSCALE
 40
1.0
  9
$DIMASZ
 40
0.18
  9
$DIMEXO
 40
0.0625
  9
$DIMDLI
 40
0.38
  9
$DIMRND
 40
0.0
  9
$DIMDLE
 40
0.0
  9
$DIMEXE
 40
0.18
  9
$DIMTP
 40
0.0
  9
$DIMTM
 40
0.0
  9
$DIMTXT
 40
0.18
  9
$DIMCEN
 40
0.09
  9
$DIMTSZ
 40
0.0
  9
$DIMTOL
 70
               0
  9
$DIMLIM
 70
               0
  9
$DIMTIH
 70
               1
  9
$DIMTOH
 70
               1
  9
$DIMSE1
 70
               0
  9
$DIMSE2
 70
               0
  9
$DIMTAD
 70
               0
  9
$DIMZIN
 70
               0
  9
$DIMBLK
  1

  9
$DIMASO
 70
               1
  9
$DIMSHO
 70
               1
  9
$DIMPOST
  1

  9
$DIMAPOST
  1

  9
$DIMALT
 70
               0
  9
$DIMALTD
 70
               2
  9
$DIMALTF
 40
25.399999999999999
  9
$DIMLFAC
 40
1.0
  9
$DIMTOFL
 70
               0
  9
$DIMTVP
 40
0.0
  9
$DIMTIX
 70
               0
  9
$DIMSOXD
 70
               0
  9
$DIMSAH
 70
               0
  9
$DIMBLK1
  1

  9
$DIMBLK2
  1

  9
$DIMSTYLE
  2
STANDARD
  9
$DIMCLRD
 70
               0
  9
$DIMCLRE
 70
               0
  9
$DIMCLRT
 70
               0
  9
$DIMTFAC
 40
1.0
  9
$DIMGAP
 40
0.09
  9
$DIMJUST
 70
               0
  9
$DIMSD1
 70
               0
  9
$DIMSD2
 70
               0
  9
$DIMTOLJ
 70
               1
  9
$DIMTZIN
 70
               0
  9
$DIMALTZ
 70
               0
  9
$DIMALTTZ
 70
               0
  9
$DIMFIT
 70
               3
  9
$DIMUPT
 70
               0
  9
$DIMUNIT
 70
               2
  9
$DIMDEC
 70
               4
  9
$DIMTDEC
 70
               4
  9
$DIMALTU
 70
               2
  9
$DIMALTTD
 70
               2
  9
$DIMTXSTY
  7
STANDARD
  9
$DIMAUNIT
 70
               0
  9
$LUNITS
 70
               2
  9
$LUPREC
 70
               4
  9
$SKETCHINC
 40
0.1
  9
$FILLETRAD
 40
0.0
  9
$AUNITS
 70
               0
  9
$AUPREC
 70
               0
  9
$MENU
  1
acad
  9
$ELEVATION
 40
0.0
  9
$PELEVATION
 40
0.0
  9
$THICKNESS
 40
0.0
  9
$LIMCHECK
 70
               0
  9
$BLIPMODE
 70
               0
  9
$CHAMFERA
 40
0.0
  9
$CHAMFERB
 40
0.0
  9
$CHAMFERC
 40
0.0
  9
$CHAMFERD
 40
0.0
  9
$SKPOLY
 70
               0
  9
$TDCREATE
 40
2458461.623854167
  9
$TDUPDATE
 40
2458461.623854167
  9
$TDINDWG
 40
0.0000000000
  9
$TDUSRTIMER
 40
0.0000000000
  9
$USRTIMER
 70
               1
  9
$ANGBASE
 50
0.0
  9
$ANGDIR
 70
               0
  9
$PDMODE
 70
               1
  9
$PDSIZE
 40
-2.0
  9
$PLINEWID
 40
0.0
  9
$COORDS
 70
               0
  9
$SPLFRAME
 70
               0
  9
$SPLINETYPE
 70
               6
  9
$SPLINESEGS
 70
               8
  9
$ATTDIA
 70
               0
  9
$ATTREQ
 70
               1
  9
$HANDLING
 70
               1
  9
$HANDSEED
  5
160
  9
$SURFTAB1
 70
               6
  9
$SURFTAB2
 70
               6
  9
$SURFTYPE
 70
               6
  9
$SURFU
 70
               6
  9
$SURFV
 70
               6
  9
$UCSNAME
  2

  9
$UCSORG
 10
0.0
 20
0.0
 30
0.0
  9
$UCSXDIR
 10
1.0
 20
0.0
 30
0.0
  9
$UCSYDIR
 10
0.0
 20
1.0
 30
0.0
  9
$PUCSNAME
  2

  9
$PUCSORG
 10
0.0
 20
0.0
 30
0.0
  9
$PUCSXDIR
 10
1.0
 20
0.0
 30
0.0
  9
$PUCSYDIR
 10
0.0
 20
1.0
 30
0.0
  9
$USERI1
 70
               0
  9
$USERI2
 70
               0
  9
$USERI3
 70
               0
  9
$USERI4
 70
               0
  9
$USERI5
 70
               0
  9
$USERR1
 40
0.0
  9
$USERR2
 40
0.0
  9
$USERR3
 40
0.0
  9
$USERR4
 40
0.0
  9
$USERR5
 40
0.0
  9
$WORLDVIEW
 70
               1
  9
$SHADEDGE
 70
               3
  9
$SHADEDIF
 70
              70
  9
$TILEMODE
 70
               1
  9
$MAXACTVP
 70
              16
  9
$PINSBASE
 10
0.0
 20
0.0
 30
0.0
  9
$PLIMCHECK
 70
               0
  9
$PEXTMIN
 10
1.0000000000000000E+20
 20
1.0000000000000000E+20
 30
1.0000000000000000E+20
  9
$PEXTMAX
 10
-1.0000000000000000E+20
 20
-1.0000000000000000E+20
 30
-1.0000000000000000E+20
  9
$PLIMMIN
 10
0.0
 20
0.0
  9
$PLIMMAX
 10
12.0
 20
9.0
  9
$UNITMODE
 70
               0
  9
$VISRETAIN
 70
               0
  9
$PLINEGEN
 70
               1
  9
$PSLTSCALE
 70
               0
  9
$TREEDEPTH
 70
            3020
  9
$PICKSTYLE
 70
               1
  9
$CMLSTYLE
  2
STANDARD
  9
$CMLJUST
 70
               0
  9
$CMLSCALE
 40
1.0
  9
$PROXYGRAPHICS
 70
               0
  9
$MEASUREMENT
 70
               1
  0
ENDSEC
  0
SECTION
  2
CLASSES
  0
CLASS
  1
LWPOLYLINE
  2
AcDbPolyline
  3
"AutoCAD"
 90
        0
280
               0
281
               1
  0
CLASS
  1
IMAGE
  2
AcDbRasterImage
  3
ISM
 90
      127
280
               0
281
               1
  0
CLASS
  1
OLE2FRAME
  2
AcDbOle2Frame
  3
""
 90
        0
280
               0
281
               1
  0
CLASS
  1
HATCH
  2
AcDbHatch
  3
"ACAD_SEDONA"
 90
        0
280
               0
281
               1
  0
CLASS
  1
DICTIONARYVAR
  2
AcDbDictionaryVar
  3
"AutoCAD"
 90
        0
280
               0
281
               0
  0
CLASS
  1
RASTERVARIABLES
  2
AcDbRasterVariables
  3
ISM
 90
        0
280
               0
281
               0
  0
CLASS
  1
IMAGEDEF
  2
AcDbRasterImageDef
  3
ISM
 90
        0
280
               0
281
               0
  0
CLASS
  1
IMAGEDEF_REACTOR
  2
AcDbRasterImageDefReactor
  3
ISM
 90
        1
280
               0
281
               0
  0
CLASS
  1
IDBUFFER
  2
AcDbIdBuffer
  3
"Acad"
 90
        0
280
               0
281
               0
  0
CLASS
  1
SPATIAL_FILTER
  2
AcDbSpatialFilter
  3
"Acad"
 90
        0
280
               0
281
               0
  0
CLASS
  1
XRECORD
  2
AcDbXrecord
  3
"<Built In>"
 90
        0
280
               0
281
               0
  0
CLASS
  1
SORTENTSTABLE
  2
AcDbSortentsTable
  3
"AutoCAD"
 90
        0
280
               0
281
               0
  0
CLASS
  1
LAYER_INDEX
  2
AcDbLayerIndex
  3
"Acad"
 90
        0
280
               0
281
               0
  0
CLASS
  1
SPATIAL_INDEX
  2
AcDbSpatialIndex
  3
"Acad"
 90
        0
280
               0
281
               0
  0
CLASS
  1
OBJECT_PTR
  2
CAseDLPNTableRecord
  3
"ASE-LPNTableRecord"
 90
        1
280
               0
281
               0
  0
CLASS
  1
LAYOUT
  2
AcDbLayout
  3
"AutoCAD 2000"
 90
        1
280
               0
281
               0
  0
CLASS
  1
PLOTSETTINGS
  2
AcDbPlotSettings
  3
"AutoCAD 2000"
 90
        1
280
               0
281
               0
  0
CLASS
  1
ACDBDICTIONARYWDFLT
  2
AcDbDictionaryWithDefault
  3
"AutoCAD 2000"
 90
        1
280
               0
281
               0
  0
CLASS
  1
ACDBPLACEHOLDER
  2
AcDbPlaceHolder
  3
"AutoCAD 2000"
 90
        1
280
               0
281
               0
  0
ENDSEC
  0
SECTION
  2
TABLES
  0
TABLE
  2
VPORT
  5
7
100
AcDbSymbolTable
 70
               1
  0
VPORT
  5
15
100
AcDbSymbolTableRecord
100
AcDbViewportTableRecord
  2
*ACTIVE
 70
               0
 10
0.0
 20
0.0
 11
1.0
 21
1.0
 12
280.03299951553345
 22
121.76666666666667
 13
0.0
 23
0.0
 14
1.0
 24
1.0
 15
0.0
 25
0.0
 16
0.0
 26
0.0
 36
1.0
 17
0.0
 27
0.0
 37
0.0
 40
8.4666666666666686
 41
0.688564
 42
50.0
 43
0.0
 44
0.0
 50
0.0
 51
0.0
 71
               0
 72
             100
 73
               1
 74
               1
 75
               0
 76
               0
 77
               0
 78
               0
  0
ENDTAB
  0
TABLE
  2
LTYPE
  5
4
100
AcDbSymbolTable
 70
              13
  0
LTYPE
  5
11
100
AcDbSymbolTableRecord
100
AcDbLinetypeTableRecord
  2
BYBLOCK
 70
              64
  3

 72
              65
 73
               0
 40
0.0
  0
LTYPE
  5
12
100
AcDbSymbolTableRecord
100
AcDbLinetypeTableRecord
  2
BYLAYER
 70
              64
  3

 72
              65
 73
               0
 40
0.0
  0
LTYPE
  5
13
100
AcDbSymbolTableRecord
100
AcDbLinetypeTableRecord
  2
CONTINUOUS
 70
              64
  3
Solid line
 72
              65
 73
               0
 40
0.0
  0
LTYPE
  5
1F
100
AcDbSymbolTableRecord
100
AcDbLinetypeTableRecord
  2
STYLE_01
 70
               0
  3

 72
              65
 73
               2
 40
0.15
 49
0.1
 74
               0
 49
-0.05
 74
               0
  0
LTYPE
  5
20
100
AcDbSymbolTableRecord
100
AcDbLinetypeTableRecord
  2
STYLE_02
 70
               0
  3

 72
              65
 73
               6
 40
0.9999999999999999
 49
0.4999999999999999
 74
               0
 49
-0.1
 74
               0
 49
0.1
 74
               0
 49
-0.1
 74
               0
 49
0.1
 74
               0
 49
-0.1
 74
               0
  0
LTYPE
  5
21
100
AcDbSymbolTableRecord
100
AcDbLinetypeTableRecord
  2
STYLE_03
 70
               0
  3

 72
              65
 73
               4
 40
0.7999999999999999
 49
0.4999999999999999
 74
               0
 49
-0.1
 74
               0
 49
0.1
 74
               0
 49
-0.1
 74
               0
  0
LTYPE
  5
22
100
AcDbSymbolTableRecord
100
AcDbLinetypeTableRecord
  2
STYLE_04
 70
               0
  3

 72
              65
 73
               4
 40
1.5999999999999999
 49
0.9999999999999999
 74
               0
 49
-0.2000000000000001
 74
               0
 49
0.2
 74
               0
 49
-0.2
 74
               0
  0
LTYPE
  5
23
100
AcDbSymbolTableRecord
100
AcDbLinetypeTableRecord
  2
STYLE_05
 70
               0
  3

 72
              65
 73
               2
 40
0.05
 49
0.0002
 74
               0
 49
-0.0498
 74
               0
  0
LTYPE
  5
24
100
AcDbSymbolTableRecord
100
AcDbLinetypeTableRecord
  2
STYLE_06
 70
               0
  3

 72
              65
 73
               4
 40
0.416656
 49
0.25
 74
               0
 49
-0.083312
 74
               0
 49
0.027772
 74
               0
 49
-0.055572
 74
               0
  0
LTYPE
  5
25
100
AcDbSymbolTableRecord
100
AcDbLinetypeTableRecord
  2
STYLE_07
 70
               0
  3

 72
              65
 73
               6
 40
0.75
 49
0.25
 74
               0
 49
-0.083312
 74
               0
 49
0.2500000000000001
 74
               0
 49
-0.083344
 74
               0
 49
0.027772
 74
               0
 49
-0.055572
 74
               0
  0
LTYPE
  5
26
100
AcDbSymbolTableRecord
100
AcDbLinetypeTableRecord
  2
STYLE_08
 70
               0
  3

 72
              65
 73
               6
 40
0.5
 49
0.25
 74
               0
 49
-0.083312
 74
               0
 49
0.027772
 74
               0
 49
-0.055572
 74
               0
 49
0.027772
 74
               0
 49
-0.055572
 74
               0
  0
LTYPE
  5
27
100
AcDbSymbolTableRecord
100
AcDbLinetypeTableRecord
  2
STYLE_09
 70
               0
  3

 72
              65
 73
               4
 40
2.0
 49
1.5
 74
               0
 49
-0.1111139999999999
 74
               0
 49
0.2777720000000001
 74
               0
 49
-0.1111139999999999
 74
               0
  0
LTYPE
  5
28
100
AcDbSymbolTableRecord
100
AcDbLinetypeTableRecord
  2
STYLE_10
 70
               0
  3

 72
              65
 73
               6
 40
2.375
 49
1.5
 74
               0
 49
-0.1111139999999999
 74
               0
 49
0.2777720000000001
 74
               0
 49
-0.1111139999999999
 74
               0
 49
0.25
 74
               0
 49
-0.125
 74
               0
  0
ENDTAB
  0
TABLE
  2
LAYER
  5
2
100
AcDbSymbolTable
 70
               6
  0
LAYER
  5
14
100
AcDbSymbolTableRecord
100
AcDbLayerTableRecord
  2
0
 70
               0
 62
               7
  6
CONTINUOUS
  0
LAYER
  5
29
100
AcDbSymbolTableRecord
100
AcDbLayerTableRecord
  2
DEFPOINTS
 70
               0
 62
               7
  6
CONTINUOUS
  0
LAYER
  5
2A
100
AcDbSymbolTableRecord
100
AcDbLayerTableRecord
  2
__
 70
               0
 62
               7
  6
CONTINUOUS
  0
LAYER
  5
2B
100
AcDbSymbolTableRecord
100
AcDbLayerTableRecord
  2
__-1
 70
               0
 62
               7
  6
CONTINUOUS
  0
LAYER
  5
2C
100
AcDbSymbolTableRecord
100
AcDbLayerTableRecord
  2
_____1
 70
               0
 62
              19
  6
CONTINUOUS
  0
LAYER
  5
2D
100
AcDbSymbolTableRecord
100
AcDbLayerTableRecord
  2
FORMAT
 70
               0
 62
               7
  6
CONTINUOUS
  0
ENDTAB
  0
TABLE
  2
STYLE
  5
3
100
AcDbSymbolTable
 70
               2
  0
STYLE
  5
17
100
AcDbSymbolTableRecord
100
AcDbTextStyleTableRecord
  2
STANDARD
 70
               0
 40
0.0
 41
1.0
 50
0.0
 71
               0
 42
0.0
  3
txt
  4
BIGFONT.SHX
  0
STYLE
  5
1E
100
AcDbSymbolTableRecord
100
AcDbTextStyleTableRecord
  2
________
 70
               0
 40
0.0
 41
1.0
 50
0.0
 71
               0
 42
0.0
  3
ＭＳ Ｐゴシック
  4

1001
ACAD
1000
ＭＳ Ｐゴシック
1071
        0
  0
ENDTAB
  0
TABLE
  2
VIEW
  5
5
100
AcDbSymbolTable
 70
               0
  0
ENDTAB
  0
TABLE
  2
UCS
  5
6
100
AcDbSymbolTable
 70
               0
  0
ENDTAB
  0
TABLE
  2
APPID
  5
8
100
AcDbSymbolTable
 70
               1
  0
APPID
  5
16
100
AcDbSymbolTableRecord
100
AcDbRegAppTableRecord
  2
ACAD
 70
               0
  0
ENDTAB
  0
TABLE
  2
DIMSTYLE
  5
9
100
AcDbSymbolTable
 70
               1
  0
DIMSTYLE
105
18
100
AcDbSymbolTableRecord
100
AcDbDimStyleTableRecord
  2
STANDARD
 70
               0
  3

  4

  5

  6

  7

 40
1.0
 41
0.18
 42
0.0625
 43
0.38
 44
0.18
 45
0.0
 46
0.0
 47
0.0
 48
0.0
 71
               0
 72
               0
 73
               1
 74
               1
 75
               0
 76
               0
 77
               0
 78
               0
140
0.18
141
0.09
142
0.0
143
25.399999999999999
144
1.0
145
0.0
146
1.0
147
0.09
170
               0
171
               2
172
               0
173
               0
174
               0
175
               0
176
               0
177
               0
178
               0
270
               2
271
               4
272
               4
273
               2
274
               2
275
               0
280
               0
281
               0
282
               0
283
               1
284
               0
285
               0
286
               0
287
               0
288
               0
340
17
  0
ENDTAB
  0
TABLE
  2
BLOCK_RECORD
  5
1
100
AcDbSymbolTable
 70
               1
  0
BLOCK_RECORD
  5
A
100
AcDbSymbolTableRecord
100
AcDbBlockTableRecord
  2
*MODEL_SPACE
  0
BLOCK_RECORD
  5
B
100
AcDbSymbolTableRecord
100
AcDbBlockTableRecord
  2
*PAPER_SPACE
  0
BLOCK_RECORD
  5
1D
100
AcDbSymbolTableRecord
100
AcDbBlockTableRecord
  2
*U0
  0
ENDTAB
  0
ENDSEC
  0
SECTION
  2
BLOCKS
  0
BLOCK
  5
D
100
AcDbEntity
  8
0
100
AcDbBlockBegin
  2
*MODEL_SPACE
 70
               0
 10
0.0
 20
0.0
 30
0.0
  3
*MODEL_SPACE
  1

  0
ENDBLK
  5
E
100
AcDbEntity
  8
0
100
AcDbBlockEnd
  0
BLOCK
  5
F
100
AcDbEntity
 67
               1
  8
0
100
AcDbBlockBegin
  2
*PAPER_SPACE
 70
               0
 10
0.0
 20
0.0
 30
0.0
  3
*PAPER_SPACE
  1

  0
ENDBLK
  5
10
100
AcDbEntity
 67
               1
  8
0
100
AcDbBlockEnd
  0
BLOCK
  5
2E
100
AcDbEntity
  8
__
100
AcDbBlockBegin
  2
*U0
 70
               1
 10
0.0
 20
0.0
 30
0.0
  3
*U0
  1

  0
SPLINE
  5
2F
100
AcDbEntity
  8
0
  6
CONTINUOUS
 62
               7
100
AcDbSpline
210
0.0
220
0.0
230
1.0
 70
               8
 71
               2
 72
              15
 73
              12
 74
               0
 42
0.000001
 43
0.000001
 40
0.0
 40
0.0
 40
0.0
 40
1.0
 40
1.0
 40
2.0
 40
3.0
 40
4.0
 40
5.0
 40
6.0
 40
7.0
 40
7.0
 40
8.0
 40
8.0
 40
8.0
 10
93.056752462478983
 20
37.092727540473106
 30
0.0
 10
93.054529266365307
 20
37.101120519805647
 30
0.0
 10
93.052306070251632
 20
37.109513499138188
 30
0.0
 10
92.970261404814607
 20
37.430134823456171
 30
0.0
 10
92.622945837473083
 20
38.544483883199661
 30
0.0
 10
91.892989171168381
 20
39.64198887393303
 30
0.0
 10
91.184234701961657
 20
40.354911211566844
 30
0.0
 10
90.455337175004217
 20
40.776316715950287
 30
0.0
 10
89.961351936027313
 20
40.993174247168042
 30
0.0
 10
89.72600536862052
 20
41.029956715441671
 30
0.0
 10
89.725701863620372
 20
41.030002853417884
 30
0.0
 10
89.725398358620225
 20
41.030048991394096
 30
0.0
  0
SPLINE
  5
30
100
AcDbEntity
  8
0
  6
CONTINUOUS
 62
               7
100
AcDbSpline
210
0.0
220
0.0
230
1.0
 70
               8
 71
               2
 72
              20
 73
              17
 74
               0
 42
0.000001
 43
0.000001
 40
0.0
 40
0.0
 40
0.0
 40
1.0
 40
1.0
 40
2.0
 40
3.0
 40
4.0
 40
5.0
 40
6.0
 40
7.0
 40
8.0
 40
9.0
 40
10.0
 40
11.0
 40
12.0
 40
12.0
 40
13.0
 40
13.0
 40
13.0
 10
89.917275703071823
 20
26.409056531887501
 30
0.0
 10
89.916584379565933
 20
26.411980963688336
 30
0.0
 10
89.915893056060042
 20
26.414905395489171
 30
0.0
 10
89.824234184899808
 20
26.778283409652261
 30
0.0
 10
89.724023390013087
 20
27.727898994954586
 30
0.0
 10
89.719325641579758
 20
28.827489411164095
 30
0.0
 10
89.816103632217505
 20
30.037154984827055
 30
0.0
 10
90.012191440166532
 20
31.267496318372395
 30
0.0
 10
90.293464263471151
 20
32.426269146095706
 30
0.0
 10
90.635265202786059
 20
33.427331887256287
 30
0.0
 10
90.909318629626057
 20
34.004391975012595
 30
0.0
 10
91.191289730104984
 20
34.496915925319229
 30
0.0
 10
91.43231109606171
 20
34.744796045135104
 30
0.0
 10
91.458754445051056
 20
34.763770959437892
 30
0.0
 10
91.459540733163294
 20
34.763492091642718
 30
0.0
 10
91.459589570684102
 20
34.763502093068112
 30
0.0
 10
91.45963840820491
 20
34.763512094493507
 30
0.0
  0
SPLINE
  5
31
100
AcDbEntity
  8
0
  6
CONTINUOUS
 62
               7
100
AcDbSpline
210
0.0
220
0.0
230
1.0
 70
               8
 71
               2
 72
              17
 73
              14
 74
               0
 42
0.000001
 43
0.000001
 40
0.0
 40
0.0
 40
0.0
 40
1.0
 40
1.0
 40
2.0
 40
3.0
 40
4.0
 40
5.0
 40
6.0
 40
7.0
 40
8.0
 40
9.0
 40
9.0
 40
10.0
 40
10.0
 40
10.0
 10
93.311768188424026
 20
34.677053167995609
 30
0.0
 10
93.311565849612577
 20
34.678030015499957
 30
0.0
 10
93.311363510801129
 20
34.679006863004304
 30
0.0
 10
93.281679601145754
 20
34.829617387005555
 30
0.0
 10
93.185380497461153
 20
35.152325418627129
 30
0.0
 10
93.028541022258764
 20
35.514840471444955
 30
0.0
 10
92.78965486478512
 20
35.954137224824592
 30
0.0
 10
92.434932426040746
 20
36.346919744772947
 30
0.0
 10
92.11397876267273
 20
36.553335401913387
 30
0.0
 10
91.900716346022136
 20
36.659007620444413
 30
0.0
 10
91.692920483014916
 20
36.731066245595969
 30
0.0
 10
91.567844874932064
 20
36.730423327352668
 30
0.0
 10
91.56767634102772
 20
36.73042223129363
 30
0.0
 10
91.567507807123377
 20
36.730421135234593
 30
0.0
  0
SPLINE
  5
32
100
AcDbEntity
  8
0
  6
CONTINUOUS
 62
               7
100
AcDbSpline
210
0.0
220
0.0
230
1.0
 70
               8
 71
               2
 72
              17
 73
              14
 74
               0
 42
0.000001
 43
0.000001
 40
0.0
 40
0.0
 40
0.0
 40
1.0
 40
1.0
 40
2.0
 40
3.0
 40
4.0
 40
5.0
 40
6.0
 40
7.0
 40
8.0
 40
9.0
 40
9.0
 40
10.0
 40
10.0
 40
10.0
 10
86.748838374578725
 20
20.275773855289913
 30
0.0
 10
86.753944274958883
 20
20.275534529212493
 30
0.0
 10
86.759050175339041
 20
20.275295203135073
 30
0.0
 10
86.912329067189319
 20
20.267071825095854
 30
0.0
 10
87.438995383264341
 20
20.270420902031361
 30
0.0
 10
88.570086413201125
 20
20.570310872586248
 30
0.0
 10
89.564071961074319
 20
21.25310646890199
 30
0.0
 10
90.312501859401664
 20
21.992998457646337
 30
0.0
 10
91.094906818765082
 20
23.101120437991057
 30
0.0
 10
91.692691717528305
 20
24.318998015087089
 30
0.0
 10
92.124993617948974
 20
25.383409919829262
 30
0.0
 10
92.307173605877892
 20
25.98483935709919
 30
0.0
 10
92.308624777685139
 20
25.98955015711239
 30
0.0
 10
92.310075949492386
 20
25.99426095712559
 30
0.0
  0
SPLINE
  5
33
100
AcDbEntity
  8
0
  6
CONTINUOUS
 62
               7
100
AcDbSpline
210
0.0
220
0.0
230
1.0
 70
               8
 71
               2
 72
              14
 73
              11
 74
               0
 42
0.000001
 43
0.000001
 40
0.0
 40
0.0
 40
0.0
 40
1.0
 40
1.0
 40
2.0
 40
3.0
 40
4.0
 40
5.0
 40
6.0
 40
6.0
 40
7.0
 40
7.0
 40
7.0
 10
93.455513399213771
 20
33.966518104491314
 30
0.0
 10
93.455333189891235
 20
33.973011383442213
 30
0.0
 10
93.455152980568698
 20
33.979504662393111
 30
0.0
 10
93.449987638247933
 20
34.174521163652742
 30
0.0
 10
93.433000117120741
 20
34.682832585191363
 30
0.0
 10
93.356356780132955
 20
35.546111371785798
 30
0.0
 10
93.239076371509725
 20
36.355148968024508
 30
0.0
 10
93.127922117142987
 20
36.862626376346213
 30
0.0
 10
93.057906367176656
 20
37.088891068845754
 30
0.0
 10
93.057329414827819
 20
37.09080930465943
 30
0.0
 10
93.056752462478983
 20
37.092727540473106
 30
0.0
  0
SPLINE
  5
34
100
AcDbEntity
  8
0
  6
CONTINUOUS
 62
               7
100
AcDbSpline
210
0.0
220
0.0
230
1.0
 70
               8
 71
               2
 72
              16
 73
              13
 74
               0
 42
0.000001
 43
0.000001
 40
0.0
 40
0.0
 40
0.0
 40
1.0
 40
1.0
 40
2.0
 40
3.0
 40
4.0
 40
5.0
 40
6.0
 40
7.0
 40
8.0
 40
8.0
 40
9.0
 40
9.0
 40
9.0
 10
90.177614454058983
 20
25.777970427081016
 30
0.0
 10
90.177485793291652
 20
25.77809541495634
 30
0.0
 10
90.177357132524321
 20
25.778220402831664
 30
0.0
 10
90.170962901241239
 20
25.783816672659242
 30
0.0
 10
90.155549887994141
 20
25.803895318233316
 30
0.0
 10
90.136870468551479
 20
25.833194420234861
 30
0.0
 10
90.109451356929469
 20
25.881216324115968
 30
0.0
 10
90.07633306721533
 20
25.945790404746333
 30
0.0
 10
89.992409243252609
 20
26.129782768158975
 30
0.0
 10
89.924556523888498
 20
26.381362184795421
 30
0.0
 10
89.917503375681122
 20
26.408192462556514
 30
0.0
 10
89.917389539376472
 20
26.408624497222007
 30
0.0
 10
89.917275703071823
 20
26.409056531887501
 30
0.0
  0
SPLINE
  5
35
100
AcDbEntity
  8
0
  6
CONTINUOUS
 62
               7
100
AcDbSpline
210
0.0
220
0.0
230
1.0
 70
               8
 71
               2
 72
              19
 73
              16
 74
               0
 42
0.000001
 43
0.000001
 40
0.0
 40
0.0
 40
0.0
 40
1.0
 40
1.0
 40
2.0
 40
3.0
 40
4.0
 40
5.0
 40
6.0
 40
7.0
 40
8.0
 40
9.0
 40
10.0
 40
11.0
 40
11.0
 40
12.0
 40
12.0
 40
12.0
 10
89.712325235335072
 20
23.887226629052094
 30
0.0
 10
89.715202277493916
 20
23.88661508359462
 30
0.0
 10
89.718079319652759
 20
23.886003538137146
 30
0.0
 10
90.012360753621635
 20
23.814628926007032
 30
0.0
 10
90.620312522706797
 20
23.965493044960681
 30
0.0
 10
91.381473684900186
 20
24.459013645963807
 30
0.0
 10
92.229769176231741
 20
25.685328313890153
 30
0.0
 10
92.931156666936261
 20
27.564019825962362
 30
0.0
 10
93.323585781536792
 20
29.334503272658935
 30
0.0
 10
93.519410565933754
 20
30.812810875732254
 30
0.0
 10
93.604736949529354
 20
32.547044272232881
 30
0.0
 10
93.486654878915488
 20
33.85775462562026
 30
0.0
 10
93.37016657825626
 20
34.433831793099216
 30
0.0
 10
93.31537838264228
 20
34.66179631394732
 30
0.0
 10
93.313573285533153
 20
34.669424740971465
 30
0.0
 10
93.311768188424026
 20
34.677053167995609
 30
0.0
  0
SPLINE
  5
36
100
AcDbEntity
  8
0
  6
CONTINUOUS
 62
               7
100
AcDbSpline
210
0.0
220
0.0
230
1.0
 70
               8
 71
               2
 72
              14
 73
              11
 74
               0
 42
0.000001
 43
0.000001
 40
0.0
 40
0.0
 40
0.0
 40
1.0
 40
1.0
 40
2.0
 40
3.0
 40
4.0
 40
5.0
 40
6.0
 40
6.0
 40
7.0
 40
7.0
 40
7.0
 10
74.016359303885281
 20
0.0185166506259975
 30
0.0
 10
74.024814791800736
 20
0.0177934796394084
 30
0.0
 10
74.033270279716191
 20
0.0170703086528192
 30
0.0
 10
74.287136103930379
 20
-0.0060314549228337
 30
0.0
 10
74.86030579226167
 20
-0.0390556138290776
 30
0.0
 10
75.61970885105751
 20
0.0452340398730371
 30
0.0
 10
76.592790244624837
 20
0.3504496072621066
 30
0.0
 10
77.247547059786484
 20
0.8127241467385034
 30
0.0
 10
77.43875331655903
 20
0.9588312710738478
 30
0.0
 10
77.445144580836256
 20
0.9636744394555734
 30
0.0
 10
77.451535845113483
 20
0.968517607837299
 30
0.0
  0
LINE
  5
37
100
AcDbEntity
  8
0
  6
CONTINUOUS
 62
               7
100
AcDbLine
 10
77.398321926349979
 20
0.923198214249993
 30
0.0
 11
91.796636666350025
 21
12.964575473949992
 31
0.0
  0
LINE
  5
38
100
AcDbEntity
  8
0
  6
CONTINUOUS
 62
               7
100
AcDbLine
 10
-90.872743672149994
 20
23.70843224715
 30
0.0
 11
74.020600779349991
 21
0.0179103479499929
 31
0.0
  0
LINE
  5
39
100
AcDbEntity
  8
0
  6
CONTINUOUS
 62
               7
100
AcDbLine
 10
30.123696430150005
 20
19.178834028650016
 30
0.0
 11
29.908036522450004
 21
19.160126512450006
 31
0.0
  0
LINE
  5
3A
100
AcDbEntity
  8
0
  6
CONTINUOUS
 62
               7
100
AcDbLine
 10
29.890283401549993
 20
19.170658619449995
 30
0.0
 11
29.27417234104999
 21
19.259176398150004
 31
0.0
  0
LINE
  5
3B
100
AcDbEntity
  8
0
  6
CONTINUOUS
 62
               7
100
AcDbLine
 10
-45.069053434149993
 20
48.837983406349991
 30
0.0
 11
-45.062882826150002
 21
49.656448886649997
 31
0.0
  0
SPLINE
  5
3C
100
AcDbEntity
  8
0
  6
CONTINUOUS
 62
               7
100
AcDbSpline
210
0.0
220
0.0
230
1.0
 70
               8
 71
               2
 72
              14
 73
              11
 74
               0
 42
0.000001
 43
0.000001
 40
0.0
 40
0.0
 40
0.0
 40
1.0
 40
1.0
 40
2.0
 40
3.0
 40
4.0
 40
5.0
 40
6.0
 40
6.0
 40
7.0
 40
7.0
 40
7.0
 10
-94.838204953443096
 20
65.120428277448212
 30
0.0
 10
-94.838876755976486
 20
65.119377656195311
 30
0.0
 10
-94.83954855850989
 20
65.118327034942411
 30
0.0
 10
-94.879012059969597
 20
65.05763010200468
 30
0.0
 10
-94.996940417908547
 20
64.856335786164522
 30
0.0
 10
-95.104452740908428
 20
64.542081741808232
 30
0.0
 10
-95.166562286415967
 20
64.202182427012872
 30
0.0
 10
-95.202937011073061
 20
63.757535374032841
 30
0.0
 10
-95.21134172782682
 20
63.461212308549392
 30
0.0
 10
-95.211715273794312
 20
63.449839365474801
 30
0.0
 10
-95.212088819761803
 20
63.438466422400211
 30
0.0
  0
LINE
  5
3D
100
AcDbEntity
  8
0
  6
CONTINUOUS
 62
               7
100
AcDbLine
 10
-94.141627777950006
 20
66.258487956750002
 30
0.0
 11
-94.838204953450003
 21
65.120428277450003
 31
0.0
  0
LINE
  5
3E
100
AcDbEntity
  8
0
  6
CONTINUOUS
 62
               7
100
AcDbLine
 10
-81.668359721849995
 20
80.404452606450008
 30
0.0
 11
-94.186939618850005
 21
66.208304559350012
 31
0.0
  0
LINE
  5
3F
100
AcDbEntity
  8
0
  6
CONTINUOUS
 62
               7
100
AcDbLine
 10
-95.212050734350001
 20
63.448988342250004
 30
0.0
 11
-95.471880839850002
 21
28.985289975650005
 31
0.0
  0
SPLINE
  5
40
100
AcDbEntity
  8
0
  6
CONTINUOUS
 62
               7
100
AcDbSpline
210
0.0
220
0.0
230
1.0
 70
               8
 71
               2
 72
              14
 73
              11
 74
               0
 42
0.000001
 43
0.000001
 40
0.0
 40
0.0
 40
0.0
 40
1.0
 40
1.0
 40
2.0
 40
3.0
 40
4.0
 40
5.0
 40
6.0
 40
6.0
 40
7.0
 40
7.0
 40
7.0
 10
-95.47161653061535
 20
29.009108672864215
 30
0.0
 10
-95.471244547938937
 20
29.000850551381944
 30
0.0
 10
-95.470872565262525
 20
28.992592429899673
 30
0.0
 10
-95.461038652042319
 20
28.744810191131137
 30
0.0
 10
-95.420495767291044
 20
28.183766285924321
 30
0.0
 10
-95.244705082954852
 20
27.428134298987203
 30
0.0
 10
-94.832993925184212
 20
26.440150620307492
 30
0.0
 10
-94.312401289379039
 20
25.742912417438617
 30
0.0
 10
-94.150007478625099
 20
25.538046288949062
 30
0.0
 10
-94.144617836323349
 20
25.531203855061378
 30
0.0
 10
-94.139228194021598
 20
25.524361421173694
 30
0.0
  0
SPLINE
  5
41
100
AcDbEntity
  8
0
  6
CONTINUOUS
 62
               7
100
AcDbSpline
210
0.0
220
0.0
230
1.0
 70
               8
 71
               2
 72
              14
 73
              11
 74
               0
 42
0.000001
 43
0.000001
 40
0.0
 40
0.0
 40
0.0
 40
1.0
 40
1.0
 40
2.0
 40
3.0
 40
4.0
 40
5.0
 40
6.0
 40
6.0
 40
7.0
 40
7.0
 40
7.0
 10
-94.139228194021499
 20
25.524361421173694
 30
0.0
 10
-94.13321250255629
 20
25.518129612256615
 30
0.0
 10
-94.127196811091096
 20
25.511897803339536
 30
0.0
 10
-93.947504431654849
 20
25.32399208525527
 30
0.0
 10
-93.529287865997304
 20
24.910980835035161
 30
0.0
 10
-92.891129642700179
 20
24.438259916959765
 30
0.0
 10
-91.942605292530999
 20
23.945664877236226
 30
0.0
 10
-91.129273157291451
 20
23.759192533184148
 30
0.0
 10
-90.884105072430486
 20
23.710986770812809
 30
0.0
 10
-90.875937855651145
 20
23.709352550085555
 30
0.0
 10
-90.867770638871804
 20
23.7077183293583
 30
0.0
  0
LINE
  5
42
100
AcDbEntity
  8
0
  6
CONTINUOUS
 62
               7
100
AcDbLine
 10
29.296263251749991
 20
19.279869396349994
 30
0.0
 11
30.171686902049998
 21
20.133193958649997
 31
0.0
  0
LINE
  5
43
100
AcDbEntity
  8
0
  6
CONTINUOUS
 62
               7
100
AcDbLine
 10
-44.150557065950011
 20
49.736900343949998
 30
0.0
 11
-45.025980716350006
 21
48.883575781649995
 31
0.0
  0
LINE
  5
44
100
AcDbEntity
  8
0
  6
CONTINUOUS
 62
               7
100
AcDbLine
 10
91.983066331649979
 20
13.183331983849996
 30
0.0
 11
93.033575233850001
 21
14.20732196725001
 31
0.0
  0
LINE
  5
45
100
AcDbEntity
  8
0
  6
CONTINUOUS
 62
               7
100
AcDbLine
 10
-80.39954452165
 20
81.603867095249996
 30
0.0
 11
-81.450053423850008
 21
80.57987711185001
 31
0.0
  0
LINE
  5
46
100
AcDbEntity
  8
0
  6
CONTINUOUS
 62
               7
100
AcDbLine
 10
89.343073053002115
 20
16.220765159656509
 30
0.0
 11
89.418111360475677
 21
15.954743665040098
 31
0.0
  0
LINE
  5
47
100
AcDbEntity
  8
0
  6
CONTINUOUS
 62
               7
100
AcDbLine
 10
90.790008977150023
 20
19.580950321350002
 30
0.0
 11
90.581915986549973
 21
19.895687567650015
 31
0.0
  0
LINE
  5
48
100
AcDbEntity
  8
0
  6
CONTINUOUS
 62
               7
100
AcDbLine
 10
90.292565554750013
 20
47.43479391035001
 30
0.0
 11
90.169631483950013
 21
47.239019770650003
 31
0.0
  0
LINE
  5
49
100
AcDbEntity
  8
0
  6
CONTINUOUS
 62
               7
100
AcDbLine
 10
90.115789136749981
 20
43.135433028550011
 30
0.0
 11
90.404079990449986
 21
43.378854553749989
 31
0.0
  0
LINE
  5
4A
100
AcDbEntity
  8
0
  6
CONTINUOUS
 62
               7
100
AcDbLine
 10
90.992143723549987
 20
47.471964876550004
 30
0.0
 11
90.903331507650023
 21
47.606289141449992
 31
0.0
  0
SPLINE
  5
4B
100
AcDbEntity
  8
0
  6
CONTINUOUS
 62
               7
100
AcDbSpline
210
0.0
220
0.0
230
1.0
 70
               8
 71
               2
 72
              19
 73
              16
 74
               0
 42
0.000001
 43
0.000001
 40
0.0
 40
0.0
 40
0.0
 40
1.0
 40
1.0
 40
2.0
 40
3.0
 40
4.0
 40
5.0
 40
6.0
 40
7.0
 40
8.0
 40
9.0
 40
10.0
 40
11.0
 40
11.0
 40
12.0
 40
12.0
 40
12.0
 10
88.325875582815513
 20
24.645415733724292
 30
0.0
 10
88.323064807953585
 20
24.658376997971132
 30
0.0
 10
88.320254033091658
 20
24.671338262217972
 30
0.0
 10
88.087890613442823
 20
25.628854667930625
 30
0.0
 10
88.00070849433763
 20
27.595245238226227
 30
0.0
 10
88.083115854496953
 20
29.622015820310679
 30
0.0
 10
88.413871503693258
 20
31.760670303028348
 30
0.0
 10
88.789236325637603
 20
33.359297993729797
 30
0.0
 10
89.478551369508011
 20
35.502463599432531
 30
0.0
 10
90.596854467056971
 20
37.335597647739831
 30
0.0
 10
91.667355779844058
 20
37.891603733542865
 30
0.0
 10
92.493077094116018
 20
37.305265667328797
 30
0.0
 10
92.861111411816751
 20
36.322209420212062
 30
0.0
 10
92.962824191857749
 20
35.975110120285279
 30
0.0
 10
92.966256127960634
 20
35.96366137461429
 30
0.0
 10
92.969688064063519
 20
35.9522126289433
 30
0.0
  0
POLYLINE
  5
4C
100
AcDbEntity
  8
0
  6
CONTINUOUS
 62
               7
100
AcDb2dPolyline
 66
               1
 10
0.0
 20
0.0
 30
0.0
 75
               5
  0
VERTEX
  5
4D
100
AcDbEntity
  8
0
  6
CONTINUOUS
 62
               7
100
AcDbVertex
100
AcDb2dVertex
 10
89.383334781549991
 20
41.064426414150006
 30
0.0
  0
VERTEX
  5
4E
100
AcDbEntity
  8
0
  6
CONTINUOUS
 62
               7
100
AcDbVertex
100
AcDb2dVertex
 10
89.725386062850021
 20
41.033021778450006
 30
0.0
  0
VERTEX
  5
4F
100
AcDbEntity
  8
0
  6
CONTINUOUS
 62
               7
100
AcDbVertex
100
AcDb2dVertex
 10
89.726445889850027
 20
41.032757963049988
 30
0.0
  0
SEQEND
  5
50
100
AcDbEntity
  8
0
  6
CONTINUOUS
 62
               7
  0
ARC
  5
51
100
AcDbEntity
  8
0
  6
CONTINUOUS
 62
               7
100
AcDbCircle
 10
90.455223960250009
 20
25.52911773675001
 30
0.0
 40
1.8197003740764612
100
AcDbArc
 50
183.7845516209004
 51
246.07278596039916
  0
POLYLINE
  5
52
100
AcDbEntity
  8
0
  6
CONTINUOUS
 62
               7
100
AcDb2dPolyline
 66
               1
 10
0.0
 20
0.0
 30
0.0
 75
               5
  0
VERTEX
  5
53
100
AcDbEntity
  8
0
  6
CONTINUOUS
 62
               7
100
AcDbVertex
100
AcDb2dVertex
 10
88.63949180474998
 20
25.409008657950011
 30
0.0
  0
VERTEX
  5
54
100
AcDbEntity
  8
0
  6
CONTINUOUS
 62
               7
100
AcDbVertex
100
AcDb2dVertex
 10
88.490415105650015
 20
26.16571609395001
 30
0.0
  0
VERTEX
  5
55
100
AcDbEntity
  8
0
  6
CONTINUOUS
 62
               7
100
AcDbVertex
100
AcDb2dVertex
 10
88.400184245349976
 20
27.035162420950002
 30
0.0
  0
VERTEX
  5
56
100
AcDbEntity
  8
0
  6
CONTINUOUS
 62
               7
100
AcDbVertex
100
AcDb2dVertex
 10
88.371262021250004
 20
27.993632586449991
 30
0.0
  0
VERTEX
  5
57
100
AcDbEntity
  8
0
  6
CONTINUOUS
 62
               7
100
AcDbVertex
100
AcDb2dVertex
 10
88.404435432549974
 20
29.014980306950008
 30
0.0
  0
VERTEX
  5
58
100
AcDbEntity
  8
0
  6
CONTINUOUS
 62
               7
100
AcDbVertex
100
AcDb2dVertex
 10
88.498805596449984
 20
30.071351690350014
 30
0.0
  0
VERTEX
  5
59
100
AcDbEntity
  8
0
  6
CONTINUOUS
 62
               7
100
AcDbVertex
100
AcDb2dVertex
 10
88.651793339349979
 20
31.133926795850016
 30
0.0
  0
VERTEX
  5
5A
100
AcDbEntity
  8
0
  6
CONTINUOUS
 62
               7
100
AcDbVertex
100
AcDb2dVertex
 10
88.859222915149985
 20
32.173718753150013
 30
0.0
  0
VERTEX
  5
5B
100
AcDbEntity
  8
0
  6
CONTINUOUS
 62
               7
100
AcDbVertex
100
AcDb2dVertex
 10
89.115441962950001
 20
33.16237044495
 30
0.0
  0
VERTEX
  5
5C
100
AcDbEntity
  8
0
  6
CONTINUOUS
 62
               7
100
AcDbVertex
100
AcDb2dVertex
 10
89.413461905250017
 20
34.072914408450004
 30
0.0
  0
VERTEX
  5
5D
100
AcDbEntity
  8
0
  6
CONTINUOUS
 62
               7
100
AcDbVertex
100
AcDb2dVertex
 10
89.745149968250018
 20
34.880509659349997
 30
0.0
  0
VERTEX
  5
5E
100
AcDbEntity
  8
0
  6
CONTINUOUS
 62
               7
100
AcDbVertex
100
AcDb2dVertex
 10
90.101457062449981
 20
35.563125857649993
 30
0.0
  0
VERTEX
  5
5F
100
AcDbEntity
  8
0
  6
CONTINUOUS
 62
               7
100
AcDbVertex
100
AcDb2dVertex
 10
90.47266575765002
 20
36.102144720349997
 30
0.0
  0
VERTEX
  5
60
100
AcDbEntity
  8
0
  6
CONTINUOUS
 62
               7
100
AcDbVertex
100
AcDb2dVertex
 10
90.848653077050017
 20
36.482866012750009
 30
0.0
  0
VERTEX
  5
61
100
AcDbEntity
  8
0
  6
CONTINUOUS
 62
               7
100
AcDbVertex
100
AcDb2dVertex
 10
91.219162823049999
 20
36.694903720950009
 30
0.0
  0
VERTEX
  5
62
100
AcDbEntity
  8
0
  6
CONTINUOUS
 62
               7
100
AcDbVertex
100
AcDb2dVertex
 10
91.570636407550012
 20
36.732971209049992
 30
0.0
  0
SEQEND
  5
63
100
AcDbEntity
  8
0
  6
CONTINUOUS
 62
               7
  0
POLYLINE
  5
64
100
AcDbEntity
  8
0
  6
CONTINUOUS
 62
               7
100
AcDb2dPolyline
 66
               1
 10
0.0
 20
0.0
 30
0.0
 75
               5
  0
VERTEX
  5
65
100
AcDbEntity
  8
0
  6
CONTINUOUS
 62
               7
100
AcDbVertex
100
AcDb2dVertex
 10
91.286781061550016
 20
34.753217942550009
 30
0.0
  0
VERTEX
  5
66
100
AcDbEntity
  8
0
  6
CONTINUOUS
 62
               7
100
AcDbVertex
100
AcDb2dVertex
 10
91.391452086549975
 20
34.725984397250016
 30
0.0
  0
VERTEX
  5
67
100
AcDbEntity
  8
0
  6
CONTINUOUS
 62
               7
100
AcDbVertex
100
AcDb2dVertex
 10
91.648256078949998
 20
34.537041723149997
 30
0.0
  0
VERTEX
  5
68
100
AcDbEntity
  8
0
  6
CONTINUOUS
 62
               7
100
AcDbVertex
100
AcDb2dVertex
 10
91.866616808449976
 20
34.185230345250005
 30
0.0
  0
VERTEX
  5
69
100
AcDbEntity
  8
0
  6
CONTINUOUS
 62
               7
100
AcDbVertex
100
AcDb2dVertex
 10
92.038141672050017
 20
33.684069557649991
 30
0.0
  0
SEQEND
  5
6A
100
AcDbEntity
  8
0
  6
CONTINUOUS
 62
               7
  0
ARC
  5
6B
100
AcDbEntity
  8
0
  6
CONTINUOUS
 62
               7
100
AcDbCircle
 10
86.806647847949989
 20
21.464402419349994
 30
0.0
 40
1.2076765693649787
100
AcDbArc
 50
234.36390637739981
 51
267.03452094810035
  0
POLYLINE
  5
6C
100
AcDbEntity
  8
0
  6
CONTINUOUS
 62
               7
100
AcDb2dPolyline
 66
               1
 10
0.0
 20
0.0
 30
0.0
 75
               5
  0
VERTEX
  5
6D
100
AcDbEntity
  8
0
  6
CONTINUOUS
 62
               7
100
AcDbVertex
100
AcDb2dVertex
 10
92.038141672050017
 20
33.684069557649991
 30
0.0
  0
VERTEX
  5
6E
100
AcDbEntity
  8
0
  6
CONTINUOUS
 62
               7
100
AcDbVertex
100
AcDb2dVertex
 10
92.156231990050003
 20
33.052811547549993
 30
0.0
  0
VERTEX
  5
6F
100
AcDbEntity
  8
0
  6
CONTINUOUS
 62
               7
100
AcDbVertex
100
AcDb2dVertex
 10
92.216352067650007
 20
32.315717666149993
 30
0.0
  0
VERTEX
  5
70
100
AcDbEntity
  8
0
  6
CONTINUOUS
 62
               7
100
AcDbVertex
100
AcDb2dVertex
 10
92.216193012849999
 20
31.501115481249997
 30
0.0
  0
VERTEX
  5
71
100
AcDbEntity
  8
0
  6
CONTINUOUS
 62
               7
100
AcDbVertex
100
AcDb2dVertex
 10
92.155762952149985
 20
30.640311674949999
 30
0.0
  0
VERTEX
  5
72
100
AcDbEntity
  8
0
  6
CONTINUOUS
 62
               7
100
AcDbVertex
100
AcDb2dVertex
 10
92.037383112349971
 20
29.766385239149997
 30
0.0
  0
VERTEX
  5
73
100
AcDbEntity
  8
0
  6
CONTINUOUS
 62
               7
100
AcDbVertex
100
AcDb2dVertex
 10
91.865600559250026
 20
28.912918556150004
 30
0.0
  0
VERTEX
  5
74
100
AcDbEntity
  8
0
  6
CONTINUOUS
 62
               7
100
AcDbVertex
100
AcDb2dVertex
 10
91.647017934849998
 20
28.112711275250007
 30
0.0
  0
VERTEX
  5
75
100
AcDbEntity
  8
0
  6
CONTINUOUS
 62
               7
100
AcDbVertex
100
AcDb2dVertex
 10
91.390035297950021
 20
27.39651515464999
 30
0.0
  0
VERTEX
  5
76
100
AcDbEntity
  8
0
  6
CONTINUOUS
 62
               7
100
AcDbVertex
100
AcDb2dVertex
 10
91.104525238049973
 20
26.791849416249988
 30
0.0
  0
VERTEX
  5
77
100
AcDbEntity
  8
0
  6
CONTINUOUS
 62
               7
100
AcDbVertex
100
AcDb2dVertex
 10
90.801467630649995
 20
26.321959080850007
 30
0.0
  0
VERTEX
  5
78
100
AcDbEntity
  8
0
  6
CONTINUOUS
 62
               7
100
AcDbVertex
100
AcDb2dVertex
 10
90.492502437649989
 20
26.004895305849999
 30
0.0
  0
VERTEX
  5
79
100
AcDbEntity
  8
0
  6
CONTINUOUS
 62
               7
100
AcDbVertex
100
AcDb2dVertex
 10
90.189505112250004
 20
25.852845655549999
 30
0.0
  0
VERTEX
  5
7A
100
AcDbEntity
  8
0
  6
CONTINUOUS
 62
               7
100
AcDbVertex
100
AcDb2dVertex
 10
90.008730908949985
 20
25.844426268650011
 30
0.0
  0
SEQEND
  5
7B
100
AcDbEntity
  8
0
  6
CONTINUOUS
 62
               7
  0
SPLINE
  5
7C
100
AcDbEntity
  8
0
  6
CONTINUOUS
 62
               7
100
AcDbSpline
210
0.0
220
0.0
230
1.0
 70
               8
 71
               2
 72
              14
 73
              11
 74
               0
 42
0.000001
 43
0.000001
 40
0.0
 40
0.0
 40
0.0
 40
1.0
 40
1.0
 40
2.0
 40
3.0
 40
4.0
 40
5.0
 40
6.0
 40
6.0
 40
7.0
 40
7.0
 40
7.0
 10
77.719413796127185
 20
41.960274992726113
 30
0.0
 10
77.724634538708017
 20
41.953691731263334
 30
0.0
 10
77.729855281288849
 20
41.947108469800554
 30
0.0
 10
77.887478613897827
 20
41.750178095627746
 30
0.0
 10
78.233106843205292
 20
41.293215870463285
 30
0.0
 10
78.614799437874467
 20
40.609145518839796
 30
0.0
 10
78.984474045255467
 20
39.597059546692378
 30
0.0
 10
79.054703205208114
 20
38.751416626497473
 30
0.0
 10
79.067210457329963
 20
38.494746279785488
 30
0.0
 10
79.067658440677917
 20
38.48619136940404
 30
0.0
 10
79.068106424025871
 20
38.477636459022591
 30
0.0
  0
SPLINE
  5
7D
100
AcDbEntity
  8
0
  6
CONTINUOUS
 62
               7
100
AcDbSpline
210
0.0
220
0.0
230
1.0
 70
               8
 71
               2
 72
              14
 73
              11
 74
               0
 42
0.000001
 43
0.000001
 40
0.0
 40
0.0
 40
0.0
 40
1.0
 40
1.0
 40
2.0
 40
3.0
 40
4.0
 40
5.0
 40
6.0
 40
6.0
 40
7.0
 40
7.0
 40
7.0
 10
74.421485165959211
 20
43.7999537831422
 30
0.0
 10
74.430023057667
 20
43.798216764129279
 30
0.0
 10
74.438560949374789
 20
43.796479745116358
 30
0.0
 10
74.694958462406134
 20
43.74575571451976
 30
0.0
 10
75.269527921102394
 20
43.612933452587527
 30
0.0
 10
76.011930517189455
 20
43.311804436549011
 30
0.0
 10
76.928678389256049
 20
42.755008364114047
 30
0.0
 10
77.533421902443138
 20
42.155123477263203
 30
0.0
 10
77.707759767056473
 20
41.972417227414269
 30
0.0
 10
77.713586781591829
 20
41.966346110070191
 30
0.0
 10
77.719413796127185
 20
41.960274992726113
 30
0.0
  0
SPLINE
  5
7E
100
AcDbEntity
  8
0
  6
CONTINUOUS
 62
               7
100
AcDbSpline
210
0.0
220
0.0
230
1.0
 70
               8
 71
               2
 72
              17
 73
              14
 74
               0
 42
0.000001
 43
0.000001
 40
0.0
 40
0.0
 40
0.0
 40
1.0
 40
1.0
 40
2.0
 40
3.0
 40
4.0
 40
5.0
 40
6.0
 40
7.0
 40
8.0
 40
9.0
 40
9.0
 40
10.0
 40
10.0
 40
10.0
 10
88.827472612196971
 20
57.716821332173595
 30
0.0
 10
88.837901527662183
 20
57.714747195014667
 30
0.0
 10
88.848330443127395
 20
57.712673057855739
 30
0.0
 10
89.161582766592574
 20
57.653423804509657
 30
0.0
 10
89.824536318240632
 20
57.486100468769905
 30
0.0
 10
90.624575640183195
 20
57.123780358117841
 30
0.0
 10
91.659416115309227
 20
56.424923559533141
 30
0.0
 10
92.626523401956433
 20
55.300296255699436
 30
0.0
 10
93.15200724445225
 20
54.229570319730527
 30
0.0
 10
93.393450483890433
 20
53.397918209226333
 30
0.0
 10
93.459814934615508
 20
52.728854388864875
 30
0.0
 10
93.4731564368563
 20
52.415333001023299
 30
0.0
 10
93.473656315857056
 20
52.404881936894455
 30
0.0
 10
93.474156194857812
 20
52.394430872765611
 30
0.0
  0
LINE
  5
7F
100
AcDbEntity
  8
0
  6
CONTINUOUS
 62
               7
100
AcDbLine
 10
77.146380417149999
 20
38.579170682950007
 30
0.0
 11
76.88582570105001
 21
4.019360426750012
 31
0.0
  0
SPLINE
  5
80
100
AcDbEntity
  8
0
  6
CONTINUOUS
 62
               7
100
AcDbSpline
210
0.0
220
0.0
230
1.0
 70
               8
 71
               2
 72
              17
 73
              14
 74
               0
 42
0.000001
 43
0.000001
 40
0.0
 40
0.0
 40
0.0
 40
1.0
 40
1.0
 40
2.0
 40
3.0
 40
4.0
 40
5.0
 40
6.0
 40
7.0
 40
8.0
 40
9.0
 40
9.0
 40
10.0
 40
10.0
 40
10.0
 10
74.25860229950672
 20
41.886879376481289
 30
0.0
 10
74.267803080251753
 20
41.88505373844221
 30
0.0
 10
74.277003860996786
 20
41.88322810040313
 30
0.0
 10
74.553469296273818
 20
41.830736357335297
 30
0.0
 10
75.255322081750194
 20
41.660870835319031
 30
0.0
 10
75.902843703608994
 20
41.291018731608233
 30
0.0
 10
76.309496201601178
 20
40.944312408923281
 30
0.0
 10
76.663738090206436
 20
40.506624614462368
 30
0.0
 10
76.961580732071866
 20
39.909958894598219
 30
0.0
 10
77.074465998654603
 20
39.395184196015975
 30
0.0
 10
77.12954634598475
 20
38.923533384956841
 30
0.0
 10
77.14518972301056
 20
38.600685270243673
 30
0.0
 10
77.145785070092586
 20
38.589927976599682
 30
0.0
 10
77.146380417174612
 20
38.579170682955692
 30
0.0
  0
LINE
  5
81
100
AcDbEntity
  8
0
  6
CONTINUOUS
 62
               7
100
AcDbLine
 10
-90.734697509349999
 20
65.59176204085
 30
0.0
 11
74.258602299549977
 21
41.886879376449997
 31
0.0
  0
SPLINE
  5
82
100
AcDbEntity
  8
0
  6
CONTINUOUS
 62
               7
100
AcDbSpline
210
0.0
220
0.0
230
1.0
 70
               8
 71
               2
 72
              17
 73
              14
 74
               0
 42
0.000001
 43
0.000001
 40
0.0
 40
0.0
 40
0.0
 40
1.0
 40
1.0
 40
2.0
 40
3.0
 40
4.0
 40
5.0
 40
6.0
 40
7.0
 40
8.0
 40
9.0
 40
9.0
 40
10.0
 40
10.0
 40
10.0
 10
-93.666054686354201
 20
63.120098929320704
 30
0.0
 10
-93.665520232667546
 20
63.128520052902047
 30
0.0
 10
-93.664985778980906
 20
63.13694117648339
 30
0.0
 10
-93.652213631158673
 20
63.356238540249649
 30
0.0
 10
-93.609530909767557
 20
63.821555061870555
 30
0.0
 10
-93.485687885415103
 20
64.299965351857168
 30
0.0
 10
-93.190709017441264
 20
64.90681247852919
 30
0.0
 10
-92.664698527091218
 20
65.32996728588023
 30
0.0
 10
-92.201097073583924
 20
65.537681546784825
 30
0.0
 10
-91.63886826723953
 20
65.636700445880564
 30
0.0
 10
-91.054134570542999
 20
65.619454368476312
 30
0.0
 10
-90.754640723886581
 20
65.593379526430027
 30
0.0
 10
-90.744669116611291
 20
65.592570783627011
 30
0.0
 10
-90.734697509336002
 20
65.591762040823994
 30
0.0
  0
LINE
  5
83
100
AcDbEntity
  8
0
  6
CONTINUOUS
 62
               7
100
AcDbLine
 10
-93.926609402449998
 20
28.560288673150012
 30
0.0
 11
-93.666054686349995
 21
63.120098929350007
 31
0.0
  0
SPLINE
  5
84
100
AcDbEntity
  8
0
  6
CONTINUOUS
 62
               7
100
AcDbSpline
210
0.0
220
0.0
230
1.0
 70
               8
 71
               2
 72
              17
 73
              14
 74
               0
 42
0.000001
 43
0.000001
 40
0.0
 40
0.0
 40
0.0
 40
1.0
 40
1.0
 40
2.0
 40
3.0
 40
4.0
 40
5.0
 40
6.0
 40
7.0
 40
8.0
 40
9.0
 40
9.0
 40
10.0
 40
10.0
 40
10.0
 10
-91.038824319183007
 20
25.252577244233606
 30
0.0
 10
-91.04802509178964
 20
25.254402897129324
 30
0.0
 10
-91.057225864396287
 20
25.256228550025043
 30
0.0
 10
-91.333691021992962
 20
25.308720801475516
 30
0.0
 10
-92.035545903626215
 20
25.47858651158208
 30
0.0
 10
-92.683071632207174
 20
25.848437119618438
 30
0.0
 10
-93.089721617507848
 20
26.195144795203589
 30
0.0
 10
-93.443959744227456
 20
26.63283304582103
 30
0.0
 10
-93.741801821569382
 20
27.229498054763155
 30
0.0
 10
-93.854689420630166
 20
27.744272967666632
 30
0.0
 10
-93.909772781813928
 20
28.215924964178441
 30
0.0
 10
-93.925418551076802
 20
28.538774023778359
 30
0.0
 10
-93.926013976762391
 20
28.549531348459524
 30
0.0
 10
-93.926609402447994
 20
28.56028867314069
 30
0.0
  0
LINE
  5
85
100
AcDbEntity
  8
0
  6
CONTINUOUS
 62
               7
100
AcDbLine
 10
73.954475489650008
 20
1.5476945798500026
 30
0.0
 11
-91.038824319149995
 21
25.252577244250006
 31
0.0
  0
SPLINE
  5
86
100
AcDbEntity
  8
0
  6
CONTINUOUS
 62
               7
100
AcDbSpline
210
0.0
220
0.0
230
1.0
 70
               8
 71
               2
 72
              17
 73
              14
 74
               0
 42
0.000001
 43
0.000001
 40
0.0
 40
0.0
 40
0.0
 40
1.0
 40
1.0
 40
2.0
 40
3.0
 40
4.0
 40
5.0
 40
6.0
 40
7.0
 40
8.0
 40
9.0
 40
9.0
 40
10.0
 40
10.0
 40
10.0
 10
76.885825701080819
 20
4.0193604267757905
 30
0.0
 10
76.885291222754574
 20
4.0109393171460965
 30
0.0
 10
76.88475674442833
 20
4.0025182075164025
 30
0.0
 10
76.871983898203439
 20
3.7832212392117981
 30
0.0
 10
76.829300383876387
 20
3.3179051859379456
 30
0.0
 10
76.705460942575598
 20
2.8394931973389248
 30
0.0
 10
76.410488666486856
 20
2.2326435176781274
 30
0.0
 10
75.884475256386565
 20
1.8094905392204055
 30
0.0
 10
75.420870736874747
 20
1.60177602571477
 30
0.0
 10
74.858641159942579
 20
1.5027577380969035
 30
0.0
 10
74.273910488514389
 20
1.5200030625191232
 30
0.0
 10
73.974418575626999
 20
1.5460771425280484
 30
0.0
 10
73.964447032643335
 20
1.5468858612095318
 30
0.0
 10
73.954475489659671
 20
1.5476945798910151
 30
0.0
  0
SPLINE
  5
87
100
AcDbEntity
  8
0
  6
CONTINUOUS
 62
               7
100
AcDbSpline
210
0.0
220
0.0
230
1.0
 70
               8
 71
               2
 72
              14
 73
              11
 74
               0
 42
0.000001
 43
0.000001
 40
0.0
 40
0.0
 40
0.0
 40
1.0
 40
1.0
 40
2.0
 40
3.0
 40
4.0
 40
5.0
 40
6.0
 40
6.0
 40
7.0
 40
7.0
 40
7.0
 10
-95.081957879198399
 20
28.780516072722008
 30
0.0
 10
-95.081477426589146
 20
28.772389911935718
 30
0.0
 10
-95.080996973979893
 20
28.764263751149429
 30
0.0
 10
-95.06798614835003
 20
28.520485928633292
 30
0.0
 10
-95.019684408160373
 20
27.968510841967259
 30
0.0
 10
-94.872991575839009
 20
27.386046603261434
 30
0.0
 10
-94.603123804447904
 20
26.741567055015025
 30
0.0
 10
-94.155283868840087
 20
26.063962179701093
 30
0.0
 10
-93.91325859726912
 20
25.735660131330576
 30
0.0
 10
-93.905259117135103
 20
25.724687019063239
 30
0.0
 10
-93.897259637001099
 20
25.713713906795903
 30
0.0
  0
LINE
  5
88
100
AcDbEntity
  8
0
  6
CONTINUOUS
 62
               7
100
AcDbLine
 10
-94.822220094049996
 20
63.231969131749992
 30
0.0
 11
-95.081957879149996
 21
28.780516072750004
 31
0.0
  0
SPLINE
  5
89
100
AcDbEntity
  8
0
  6
CONTINUOUS
 62
               7
100
AcDbSpline
210
0.0
220
0.0
230
1.0
 70
               8
 71
               2
 72
              17
 73
              14
 74
               0
 42
0.000001
 43
0.000001
 40
0.0
 40
0.0
 40
0.0
 40
1.0
 40
1.0
 40
2.0
 40
3.0
 40
4.0
 40
5.0
 40
6.0
 40
7.0
 40
8.0
 40
9.0
 40
9.0
 40
10.0
 40
10.0
 40
10.0
 10
-90.6714982766524
 20
66.731789168276691
 30
0.0
 10
-90.684280386140898
 20
66.732526851487506
 30
0.0
 10
-90.69706249562941
 20
66.733264534698321
 30
0.0
 10
-90.978622334529206
 20
66.751082220949627
 30
0.0
 10
-91.435167380206792
 20
66.761371398233223
 30
0.0
 10
-92.22671363744206
 20
66.709762959633593
 30
0.0
 10
-93.406157039264968
 20
66.18272646884401
 30
0.0
 10
-94.196446430532916
 20
65.347645619611143
 30
0.0
 10
-94.508498778795612
 20
64.75812805461112
 30
0.0
 10
-94.653243262787782
 20
64.330963351133619
 30
0.0
 10
-94.773493398538292
 20
63.704172674653904
 30
0.0
 10
-94.818943775442492
 20
63.2613842730523
 30
0.0
 10
-94.820581934750436
 20
63.246676702379048
 30
0.0
 10
-94.822220094058395
 20
63.231969131705796
 30
0.0
  0
LINE
  5
8A
100
AcDbEntity
  8
0
  6
CONTINUOUS
 62
               7
100
AcDbLine
 10
74.212704129350016
 20
43.042580723050008
 30
0.0
 11
-90.671498276649999
 21
66.731789168250003
 31
0.0
  0
SPLINE
  5
8B
100
AcDbEntity
  8
0
  6
CONTINUOUS
 62
               7
100
AcDbSpline
210
0.0
220
0.0
230
1.0
 70
               8
 71
               2
 72
              14
 73
              11
 74
               0
 42
0.000001
 43
0.000001
 40
0.0
 40
0.0
 40
0.0
 40
1.0
 40
1.0
 40
2.0
 40
3.0
 40
4.0
 40
5.0
 40
6.0
 40
6.0
 40
7.0
 40
7.0
 40
7.0
 10
77.117037630388324
 20
41.425744446663913
 30
0.0
 10
77.110963997375478
 20
41.431932965669944
 30
0.0
 10
77.104890364362632
 20
41.438121484675975
 30
0.0
 10
76.92354213768067
 20
41.624776161400376
 30
0.0
 10
76.501428525913298
 20
42.033914305563712
 30
0.0
 10
75.997600366264635
 20
42.397089281026439
 30
0.0
 10
75.374509272667126
 20
42.721889687381321
 30
0.0
 10
74.619272012361307
 20
42.945835662489117
 30
0.0
 10
74.238076426388943
 20
43.036398002954172
 30
0.0
 10
74.225390277872066
 20
43.039489363000087
 30
0.0
 10
74.212704129355188
 20
43.042580723046001
 30
0.0
  0
SPLINE
  5
8C
100
AcDbEntity
  8
0
  6
CONTINUOUS
 62
               7
100
AcDbSpline
210
0.0
220
0.0
230
1.0
 70
               8
 71
               2
 72
              14
 73
              11
 74
               0
 42
0.000001
 43
0.000001
 40
0.0
 40
0.0
 40
0.0
 40
1.0
 40
1.0
 40
2.0
 40
3.0
 40
4.0
 40
5.0
 40
6.0
 40
6.0
 40
7.0
 40
7.0
 40
7.0
 10
78.301735859522125
 20
38.358940547992916
 30
0.0
 10
78.301255311898615
 20
38.367066715002508
 30
0.0
 10
78.300774764275104
 20
38.375192882012101
 30
0.0
 10
78.287760958316312
 20
38.618970880387536
 30
0.0
 10
78.239454314037573
 20
39.170946137402154
 30
0.0
 10
78.092765423543824
 20
39.753410433692409
 30
0.0
 10
77.822903811833669
 20
40.397890436190039
 30
0.0
 10
77.375063334093568
 20
41.075495891340552
 30
0.0
 10
77.133036675893891
 20
41.403798203504351
 30
0.0
 10
77.125037153141108
 20
41.414771325084132
 30
0.0
 10
77.117037630388324
 20
41.425744446663913
 30
0.0
  0
LINE
  5
8D
100
AcDbEntity
  8
0
  6
CONTINUOUS
 62
               7
100
AcDbLine
 10
78.041998074349976
 20
3.9074874890499984
 30
0.0
 11
78.301735859549979
 21
38.358940547949999
 31
0.0
  0
SPLINE
  5
8E
100
AcDbEntity
  8
0
  6
CONTINUOUS
 62
               7
100
AcDbSpline
210
0.0
220
0.0
230
1.0
 70
               8
 71
               2
 72
              17
 73
              14
 74
               0
 42
0.000001
 43
0.000001
 40
0.0
 40
0.0
 40
0.0
 40
1.0
 40
1.0
 40
2.0
 40
3.0
 40
4.0
 40
5.0
 40
6.0
 40
7.0
 40
8.0
 40
9.0
 40
9.0
 40
10.0
 40
10.0
 40
10.0
 10
73.891269278315292
 20
0.4076684550749121
 30
0.0
 10
73.904051466679988
 20
0.4069307398071373
 30
0.0
 10
73.916833655044684
 20
0.4061930245393626
 30
0.0
 10
74.19839524138672
 20
0.388374590552246
 30
0.0
 10
74.654943001718095
 20
0.3780846956446453
 30
0.0
 10
75.446488601510339
 20
0.4296937362400399
 30
0.0
 10
76.625927185545208
 20
0.95673301663345
 30
0.0
 10
77.416220207681533
 20
1.7918120740445147
 30
0.0
 10
77.728276225313266
 20
2.3813298263314664
 30
0.0
 10
77.873021659032702
 20
2.8084943241483984
 30
0.0
 10
77.993271797492469
 20
3.4352841994281675
 30
0.0
 10
78.038721779427135
 20
3.8780723654590759
 30
0.0
 10
78.040359926904614
 20
3.8927799272341446
 30
0.0
 10
78.041998074382093
 20
3.9074874890092133
 30
0.0
  0
LINE
  5
8F
100
AcDbEntity
  8
0
  6
CONTINUOUS
 62
               7
100
AcDbLine
 10
73.891269278350023
 20
0.4076684550500147
 30
0.0
 11
-90.992933127650005
 21
24.096876900349997
 31
0.0
  0
SPLINE
  5
90
100
AcDbEntity
  8
0
  6
CONTINUOUS
 62
               7
100
AcDbSpline
210
0.0
220
0.0
230
1.0
 70
               8
 71
               2
 72
              14
 73
              11
 74
               0
 42
0.000001
 43
0.000001
 40
0.0
 40
0.0
 40
0.0
 40
1.0
 40
1.0
 40
2.0
 40
3.0
 40
4.0
 40
5.0
 40
6.0
 40
6.0
 40
7.0
 40
7.0
 40
7.0
 10
-93.897259637001
 20
25.713713906795903
 30
0.0
 10
-93.891186005630686
 20
25.707525371335961
 30
0.0
 10
-93.885112374260373
 20
25.70133683587602
 30
0.0
 10
-93.703764202908729
 20
25.514681661634683
 30
0.0
 10
-93.28165140566081
 20
25.105543208828806
 30
0.0
 10
-92.777825979158962
 20
24.742369209247386
 30
0.0
 10
-92.154737783241515
 20
24.417568950032774
 30
0.0
 10
-91.399501116156415
 20
24.193622301154335
 30
0.0
 10
-91.018305430817136
 20
24.103059642374035
 30
0.0
 10
-91.005619279254717
 20
24.099968271339876
 30
0.0
 10
-90.992933127692297
 20
24.096876900305716
 30
0.0
  0
SPLINE
  5
91
100
AcDbEntity
  8
0
  6
CONTINUOUS
 62
               7
100
AcDbSpline
210
0.0
220
0.0
230
1.0
 70
               8
 71
               2
 72
              17
 73
              14
 74
               0
 42
0.000001
 43
0.000001
 40
0.0
 40
0.0
 40
0.0
 40
1.0
 40
1.0
 40
2.0
 40
3.0
 40
4.0
 40
5.0
 40
6.0
 40
7.0
 40
8.0
 40
9.0
 40
9.0
 40
10.0
 40
10.0
 40
10.0
 10
74.29155177296019
 20
41.611663789481099
 30
0.0
 10
74.302722372931953
 20
41.609671976759444
 30
0.0
 10
74.313892972903716
 20
41.607680164037788
 30
0.0
 10
74.650080028028469
 20
41.552106088756233
 30
0.0
 10
75.132409139460492
 20
41.428588995214454
 30
0.0
 10
75.511292613578291
 20
41.28310272422118
 30
0.0
 10
75.940780387903715
 20
41.018498799305689
 30
0.0
 10
76.337835601492827
 20
40.626347503442162
 30
0.0
 10
76.600270629205852
 20
40.196196430852524
 30
0.0
 10
76.809862825135156
 20
39.635814375754222
 30
0.0
 10
76.865025848101538
 20
38.986733051116687
 30
0.0
 10
76.869477876977669
 20
38.678866831555695
 30
0.0
 10
76.869702603646545
 20
38.668609142267243
 30
0.0
 10
76.86992733031542
 20
38.658351452978792
 30
0.0
  0
SPLINE
  5
92
100
AcDbEntity
  8
0
  6
CONTINUOUS
 62
               7
100
AcDbSpline
210
0.0
220
0.0
230
1.0
 70
               8
 71
               2
 72
              17
 73
              14
 74
               0
 42
0.000001
 43
0.000001
 40
0.0
 40
0.0
 40
0.0
 40
1.0
 40
1.0
 40
2.0
 40
3.0
 40
4.0
 40
5.0
 40
6.0
 40
7.0
 40
8.0
 40
9.0
 40
9.0
 40
10.0
 40
10.0
 40
10.0
 10
74.961353782161723
 20
37.131620751829303
 30
0.0
 10
74.960193496545855
 20
37.142729054559695
 30
0.0
 10
74.959033210929988
 20
37.153837357290087
 30
0.0
 10
74.92820438122294
 20
37.487915096526706
 30
0.0
 10
74.842442366971341
 20
37.969491558016813
 30
0.0
 10
74.703773008093606
 20
38.436620083054208
 30
0.0
 10
74.405687030788727
 20
38.925146434139776
 30
0.0
 10
74.05744833873888
 20
39.308339213106677
 30
0.0
 10
73.575415322716196
 20
39.687680094111357
 30
0.0
 10
73.114911370211871
 20
39.882139113740692
 30
0.0
 10
72.695253328599165
 20
40.011254756587334
 30
0.0
 10
72.402453269760713
 20
40.080207609839562
 30
0.0
 10
72.39271574728366
 20
40.082570349085586
 30
0.0
 10
72.382978224806607
 20
40.08493308833161
 30
0.0
  0
LINE
  5
93
100
AcDbEntity
  8
0
  6
CONTINUOUS
 62
               7
100
AcDbLine
 10
74.421485165950003
 20
43.799953783150016
 30
0.0
 11
-90.462717240049997
 21
67.489162228350011
 31
0.0
  0
LINE
  5
94
100
AcDbEntity
  8
0
  6
CONTINUOUS
 62
               7
100
AcDbLine
 10
-77.950396355349994
 20
81.678096241350005
 30
0.0
 11
88.827472612150018
 21
57.716821332150005
 31
0.0
  0
SPLINE
  5
95
100
AcDbEntity
  8
0
  6
CONTINUOUS
 62
               7
100
AcDbSpline
210
0.0
220
0.0
230
1.0
 70
               8
 71
               2
 72
              19
 73
              16
 74
               0
 42
0.000001
 43
0.000001
 40
0.0
 40
0.0
 40
0.0
 40
1.0
 40
1.0
 40
2.0
 40
3.0
 40
4.0
 40
5.0
 40
6.0
 40
7.0
 40
8.0
 40
9.0
 40
10.0
 40
11.0
 40
11.0
 40
12.0
 40
12.0
 40
12.0
 10
90.425962902767822
 20
43.107763136945209
 30
0.0
 10
90.428573697700699
 20
43.110651611490582
 30
0.0
 10
90.431184492633577
 20
43.113540086035954
 30
0.0
 10
90.509651517671557
 20
43.198626116819696
 30
0.0
 10
90.724973154298993
 20
43.46251687131894
 30
0.0
 10
90.903068817591475
 20
43.842660419058717
 30
0.0
 10
91.070430422027016
 20
44.261189255770205
 30
0.0
 10
91.293795835123603
 20
45.103676839162205
 30
0.0
 10
91.41397309453987
 20
46.141660121326879
 30
0.0
 10
91.376938436118337
 20
47.061182553147432
 30
0.0
 10
91.179965631818732
 20
47.772402691844974
 30
0.0
 10
90.825003630561696
 20
48.070025970672987
 30
0.0
 10
90.545123825802364
 20
47.91119024595173
 30
0.0
 10
90.466936852646995
 20
47.855710121241515
 30
0.0
 10
90.464334189323694
 20
47.853900239446105
 30
0.0
 10
90.461731526000392
 20
47.852090357650695
 30
0.0
  0
SPLINE
  5
96
100
AcDbEntity
  8
0
  6
CONTINUOUS
 62
               7
100
AcDbSpline
210
0.0
220
0.0
230
1.0
 70
               8
 71
               2
 72
              19
 73
              16
 74
               0
 42
0.000001
 43
0.000001
 40
0.0
 40
0.0
 40
0.0
 40
1.0
 40
1.0
 40
2.0
 40
3.0
 40
4.0
 40
5.0
 40
6.0
 40
7.0
 40
8.0
 40
9.0
 40
10.0
 40
11.0
 40
11.0
 40
12.0
 40
12.0
 40
12.0
 10
90.461731526000392
 20
47.852090357650695
 30
0.0
 10
90.459120788961087
 20
47.849201828783762
 30
0.0
 10
90.456510051921782
 20
47.846313299916829
 30
0.0
 10
90.378044947440799
 20
47.761225660279507
 30
0.0
 10
90.162725526510314
 20
47.497332692301995
 30
0.0
 10
89.984621303190352
 20
47.11718866192092
 30
0.0
 10
89.817261357640689
 20
46.698661720090314
 30
0.0
 10
89.593903723527603
 20
45.856171653931028
 30
0.0
 10
89.473722719018497
 20
44.818188311114454
 30
0.0
 10
89.510759012456674
 20
43.898662985351365
 30
0.0
 10
89.707729551080035
 20
43.187453870906722
 30
0.0
 10
90.062694466134985
 20
42.889818458487355
 30
0.0
 10
90.342572582019727
 20
43.048660979738884
 30
0.0
 10
90.42075769231576
 20
43.104143233646056
 30
0.0
 10
90.423360297541791
 20
43.105953185295633
 30
0.0
 10
90.425962902767822
 20
43.107763136945209
 30
0.0
  0
SPLINE
  5
97
100
AcDbEntity
  8
0
  6
CONTINUOUS
 62
               7
100
AcDbSpline
210
0.0
220
0.0
230
1.0
 70
               8
 71
               2
 72
              19
 73
              16
 74
               0
 42
0.000001
 43
0.000001
 40
0.0
 40
0.0
 40
0.0
 40
1.0
 40
1.0
 40
2.0
 40
3.0
 40
4.0
 40
5.0
 40
6.0
 40
7.0
 40
8.0
 40
9.0
 40
10.0
 40
11.0
 40
11.0
 40
12.0
 40
12.0
 40
12.0
 10
90.215559223245293
 20
15.199954172616799
 30
0.0
 10
90.218170018337759
 20
15.202842646937555
 30
0.0
 10
90.220780813430224
 20
15.20573112125831
 30
0.0
 10
90.299247843954333
 20
15.290817144319561
 30
0.0
 10
90.514569470598076
 20
15.554707912866775
 30
0.0
 10
90.692665106579398
 20
15.934851499065161
 30
0.0
 10
90.860026711348894
 20
16.353380008370095
 30
0.0
 10
91.083392196732689
 20
17.195867454434733
 30
0.0
 10
91.203569402039818
 20
18.233851150994582
 30
0.0
 10
91.166534766132997
 20
19.153373652546293
 30
0.0
 10
90.969561906337901
 20
19.864593506557924
 30
0.0
 10
90.614600018486442
 20
20.162217863060903
 30
0.0
 10
90.334720164372641
 20
20.003382211856604
 30
0.0
 10
90.256533180318513
 20
19.947902026943467
 30
0.0
 10
90.253930516664099
 20
19.946092143319078
 30
0.0
 10
90.251327853009684
 20
19.944282259694688
 30
0.0
  0
SPLINE
  5
98
100
AcDbEntity
  8
0
  6
CONTINUOUS
 62
               7
100
AcDbSpline
210
0.0
220
0.0
230
1.0
 70
               8
 71
               2
 72
              19
 73
              16
 74
               0
 42
0.000001
 43
0.000001
 40
0.0
 40
0.0
 40
0.0
 40
1.0
 40
1.0
 40
2.0
 40
3.0
 40
4.0
 40
5.0
 40
6.0
 40
7.0
 40
8.0
 40
9.0
 40
10.0
 40
11.0
 40
11.0
 40
12.0
 40
12.0
 40
12.0
 10
90.251327853009684
 20
19.944282259694688
 30
0.0
 10
90.248717115662487
 20
19.94139373208094
 30
0.0
 10
90.246106378315289
 20
19.938505204467191
 30
0.0
 10
90.167641263212374
 20
19.853417608053775
 30
0.0
 10
89.952321808408499
 20
19.589524569104668
 30
0.0
 10
89.774217628002759
 20
19.20937998982086
 30
0.0
 10
89.606857712098645
 20
18.790852689675376
 30
0.0
 10
89.38350004514308
 20
17.948362725197171
 30
0.0
 10
89.263319028712488
 20
16.910379326388608
 30
0.0
 10
89.300355358004538
 20
15.990853809345879
 30
0.0
 10
89.497325779577977
 20
15.279644440046724
 30
0.0
 10
89.852290813695447
 20
14.982009577816086
 30
0.0
 10
90.132168896733958
 20
15.140851997361324
 30
0.0
 10
90.210354012462915
 20
15.196334268283067
 30
0.0
 10
90.212956617854104
 20
15.198144220449933
 30
0.0
 10
90.215559223245293
 20
15.199954172616799
 30
0.0
  0
LINE
  5
99
100
AcDbEntity
  8
0
  6
CONTINUOUS
 62
               7
100
AcDbLine
 10
93.417452503150002
 20
44.873633117949993
 30
0.0
 11
89.266825672050004
 21
40.95440954275
 31
0.0
  0
POLYLINE
  5
9A
100
AcDbEntity
  8
0
  6
CONTINUOUS
 62
               7
100
AcDb2dPolyline
 66
               1
 10
0.0
 20
0.0
 30
0.0
 75
               5
  0
VERTEX
  5
9B
100
AcDbEntity
  8
0
  6
CONTINUOUS
 62
               7
100
AcDbVertex
100
AcDb2dVertex
 10
89.266825672050004
 20
40.95440954275
 30
0.0
  0
VERTEX
  5
9C
100
AcDbEntity
  8
0
  6
CONTINUOUS
 62
               7
100
AcDbVertex
100
AcDb2dVertex
 10
88.73788692505002
 20
40.395768613350015
 30
0.0
  0
VERTEX
  5
9D
100
AcDbEntity
  8
0
  6
CONTINUOUS
 62
               7
100
AcDbVertex
100
AcDb2dVertex
 10
88.216050138650019
 20
39.68089185765001
 30
0.0
  0
VERTEX
  5
9E
100
AcDbEntity
  8
0
  6
CONTINUOUS
 62
               7
100
AcDbVertex
100
AcDb2dVertex
 10
87.709541889249977
 20
38.821053450949989
 30
0.0
  0
VERTEX
  5
9F
100
AcDbEntity
  8
0
  6
CONTINUOUS
 62
               7
100
AcDbVertex
100
AcDb2dVertex
 10
87.226353771749984
 20
37.829815885350001
 30
0.0
  0
VERTEX
  5
A0
100
AcDbEntity
  8
0
  6
CONTINUOUS
 62
               7
100
AcDbVertex
100
AcDb2dVertex
 10
86.774095465449989
 20
36.722809109550013
 30
0.0
  0
VERTEX
  5
A1
100
AcDbEntity
  8
0
  6
CONTINUOUS
 62
               7
100
AcDbVertex
100
AcDb2dVertex
 10
86.35989809634998
 20
35.517486559050013
 30
0.0
  0
VERTEX
  5
A2
100
AcDbEntity
  8
0
  6
CONTINUOUS
 62
               7
100
AcDbVertex
100
AcDb2dVertex
 10
85.990310228650003
 20
34.23286222294999
 30
0.0
  0
VERTEX
  5
A3
100
AcDbEntity
  8
0
  6
CONTINUOUS
 62
               7
100
AcDbVertex
100
AcDb2dVertex
 10
85.671146606450009
 20
32.889195398049992
 30
0.0
  0
VERTEX
  5
A4
100
AcDbEntity
  8
0
  6
CONTINUOUS
 62
               7
100
AcDbVertex
100
AcDb2dVertex
 10
85.407441243649998
 20
31.507680250750013
 30
0.0
  0
VERTEX
  5
A5
100
AcDbEntity
  8
0
  6
CONTINUOUS
 62
               7
100
AcDbVertex
100
AcDb2dVertex
 10
85.203361909049988
 20
30.11009542955
 30
0.0
  0
VERTEX
  5
A6
100
AcDbEntity
  8
0
  6
CONTINUOUS
 62
               7
100
AcDbVertex
100
AcDb2dVertex
 10
85.062124382850016
 20
28.718487169849993
 30
0.0
  0
VERTEX
  5
A7
100
AcDbEntity
  8
0
  6
CONTINUOUS
 62
               7
100
AcDbVertex
100
AcDb2dVertex
 10
84.985941487749983
 20
27.354799666649996
 30
0.0
  0
VERTEX
  5
A8
100
AcDbEntity
  8
0
  6
CONTINUOUS
 62
               7
100
AcDbVertex
100
AcDb2dVertex
 10
84.976032970749998
 20
26.04054033784999
 30
0.0
  0
VERTEX
  5
A9
100
AcDbEntity
  8
0
  6
CONTINUOUS
 62
               7
100
AcDbVertex
100
AcDb2dVertex
 10
85.032555094450004
 20
24.796435735250014
 30
0.0
  0
VERTEX
  5
AA
100
AcDbEntity
  8
0
  6
CONTINUOUS
 62
               7
100
AcDbVertex
100
AcDb2dVertex
 10
85.154598175649994
 20
23.642105139550011
 30
0.0
  0
VERTEX
  5
AB
100
AcDbEntity
  8
0
  6
CONTINUOUS
 62
               7
100
AcDbVertex
100
AcDb2dVertex
 10
85.340252095350024
 20
22.595754760549994
 30
0.0
  0
VERTEX
  5
AC
100
AcDbEntity
  8
0
  6
CONTINUOUS
 62
               7
100
AcDbVertex
100
AcDb2dVertex
 10
85.586591662850026
 20
21.673881971550003
 30
0.0
  0
VERTEX
  5
AD
100
AcDbEntity
  8
0
  6
CONTINUOUS
 62
               7
100
AcDbVertex
100
AcDb2dVertex
 10
85.889722961250015
 20
20.891031653949995
 30
0.0
  0
VERTEX
  5
AE
100
AcDbEntity
  8
0
  6
CONTINUOUS
 62
               7
100
AcDbVertex
100
AcDb2dVertex
 10
86.244864835149997
 20
20.259548649849989
 30
0.0
  0
VERTEX
  5
AF
100
AcDbEntity
  8
0
  6
CONTINUOUS
 62
               7
100
AcDbVertex
100
AcDb2dVertex
 10
86.646430349849993
 20
19.789390133149993
 30
0.0
  0
VERTEX
  5
B0
100
AcDbEntity
  8
0
  6
CONTINUOUS
 62
               7
100
AcDbVertex
100
AcDb2dVertex
 10
87.088070157250002
 20
19.487966039750006
 30
0.0
  0
VERTEX
  5
B1
100
AcDbEntity
  8
0
  6
CONTINUOUS
 62
               7
100
AcDbVertex
100
AcDb2dVertex
 10
87.562820593549986
 20
19.36003499025
 30
0.0
  0
VERTEX
  5
B2
100
AcDbEntity
  8
0
  6
CONTINUOUS
 62
               7
100
AcDbVertex
100
AcDb2dVertex
 10
88.063205041749995
 20
19.407616341249991
 30
0.0
  0
VERTEX
  5
B3
100
AcDbEntity
  8
0
  6
CONTINUOUS
 62
               7
100
AcDbVertex
100
AcDb2dVertex
 10
88.581328486049983
 20
19.629957783349994
 30
0.0
  0
VERTEX
  5
B4
100
AcDbEntity
  8
0
  6
CONTINUOUS
 62
               7
100
AcDbVertex
100
AcDb2dVertex
 10
89.109022914050001
 20
20.023553036050004
 30
0.0
  0
SEQEND
  5
B5
100
AcDbEntity
  8
0
  6
CONTINUOUS
 62
               7
  0
LINE
  5
B6
100
AcDbEntity
  8
0
  6
CONTINUOUS
 62
               7
100
AcDbLine
 10
89.109022914050001
 20
20.023553036050004
 30
0.0
 11
93.256937465149974
 21
23.583021533050015
 31
0.0
  0
LINE
  5
B7
100
AcDbEntity
  8
0
  6
CONTINUOUS
 62
               7
100
AcDbLine
 10
93.25694075345001
 20
23.583114178849996
 30
0.0
 11
93.200239017449974
 21
16.062232329849991
 31
0.0
  0
LINE
  5
B8
100
AcDbEntity
  8
0
  6
CONTINUOUS
 62
               7
100
AcDbLine
 10
78.808368638850027
 20
4.0261834000500016
 30
0.0
 11
79.068106424049972
 21
38.47763645904999
 31
0.0
  0
LINE
  5
B9
100
AcDbEntity
  8
0
  6
CONTINUOUS
 62
               7
100
AcDbLine
 10
93.474156194850025
 20
52.394430872750007
 30
0.0
 11
93.417454432849979
 21
44.873545558250015
 31
0.0
  0
LINE
  5
BA
100
AcDbEntity
  8
0
  6
CONTINUOUS
 62
               7
100
AcDbLine
 10
-90.701748035850002
 20
65.316546453850009
 30
0.0
 11
74.291551772950015
 21
41.611663789450006
 31
0.0
  0
LINE
  5
BB
100
AcDbEntity
  8
0
  6
CONTINUOUS
 62
               7
100
AcDbLine
 10
76.869927330349981
 20
38.658351452950001
 30
0.0
 11
76.609372614249992
 21
4.0985411967500056
 31
0.0
  0
LINE
  5
BC
100
AcDbEntity
  8
0
  6
CONTINUOUS
 62
               7
100
AcDbLine
 10
72.382978224849978
 20
40.084933088349999
 30
0.0
 11
-87.576201874950002
 21
63.066554764750009
 31
0.0
  0
LINE
  5
BD
100
AcDbEntity
  8
0
  6
CONTINUOUS
 62
               7
100
AcDbLine
 10
74.738493176049985
 20
7.5715330396500065
 30
0.0
 11
74.961353782150013
 21
37.131620751849994
 31
0.0
  0
SPLINE
  5
BE
100
AcDbEntity
  8
0
  6
CONTINUOUS
 62
               7
100
AcDbSpline
210
0.0
220
0.0
230
1.0
 70
               8
 71
               2
 72
              16
 73
              13
 74
               0
 42
0.000001
 43
0.000001
 40
0.0
 40
0.0
 40
0.0
 40
1.0
 40
1.0
 40
2.0
 40
3.0
 40
4.0
 40
5.0
 40
6.0
 40
7.0
 40
8.0
 40
8.0
 40
9.0
 40
9.0
 40
9.0
 10
74.684900695302474
 20
37.210801521852403
 30
0.0
 10
74.684582299827156
 20
37.217522618828312
 30
0.0
 10
74.684263904351837
 20
37.224243715804221
 30
0.0
 10
74.676208993722582
 20
37.425913698704676
 30
0.0
 10
74.641614527599529
 20
37.823976036709439
 30
0.0
 10
74.496335165912569
 20
38.41290869999537
 30
0.0
 10
74.078245401883805
 20
39.043504813804986
 30
0.0
 10
73.614714354525518
 20
39.406103032433151
 30
0.0
 10
73.18208483606719
 20
39.620533779069973
 30
0.0
 10
72.698093221442377
 20
39.753483991026997
 30
0.0
 10
72.431580701040275
 20
39.80648775797394
 30
0.0
 10
72.423754199650176
 20
39.808102629652623
 30
0.0
 10
72.415927698260077
 20
39.809717501331306
 30
0.0
  0
SPLINE
  5
BF
100
AcDbEntity
  8
0
  6
CONTINUOUS
 62
               7
100
AcDbSpline
210
0.0
220
0.0
230
1.0
 70
               8
 71
               2
 72
              17
 73
              14
 74
               0
 42
0.000001
 43
0.000001
 40
0.0
 40
0.0
 40
0.0
 40
1.0
 40
1.0
 40
2.0
 40
3.0
 40
4.0
 40
5.0
 40
6.0
 40
7.0
 40
8.0
 40
9.0
 40
9.0
 40
10.0
 40
10.0
 40
10.0
 10
30.329131463564892
 20
38.116921572227994
 30
0.0
 10
30.329060334929011
 20
38.118235227815873
 30
0.0
 10
30.32898920629313
 20
38.119548883403752
 30
0.0
 10
30.326085596757594
 20
38.20095951961423
 30
0.0
 10
30.303196349684868
 20
38.365438795874894
 30
0.0
 10
30.229616014572514
 20
38.571964290208882
 30
0.0
 10
30.070904775064946
 20
38.81784158158726
 30
0.0
 10
29.889378903444253
 20
38.978884689346131
 30
0.0
 10
29.762096968620028
 20
39.059465053495074
 30
0.0
 10
29.623875991328646
 20
39.11855470482314
 30
0.0
 10
29.478491407416698
 20
39.161030296175852
 30
0.0
 10
29.404947973975283
 20
39.179834465916599
 30
0.0
 10
29.402499495103143
 20
39.180469773294647
 30
0.0
 10
29.400051016231004
 20
39.181105080672694
 30
0.0
  0
LINE
  5
C0
100
AcDbEntity
  8
0
  6
CONTINUOUS
 62
               7
100
AcDbLine
 10
29.400051016249989
 20
39.181105080650013
 30
0.0
 11
-44.629925464350009
 21
49.817124289649996
 31
0.0
  0
SPLINE
  5
C1
100
AcDbEntity
  8
0
  6
CONTINUOUS
 62
               7
100
AcDbSpline
210
0.0
220
0.0
230
1.0
 70
               8
 71
               2
 72
              17
 73
              14
 74
               0
 42
0.000001
 43
0.000001
 40
0.0
 40
0.0
 40
0.0
 40
1.0
 40
1.0
 40
2.0
 40
3.0
 40
4.0
 40
5.0
 40
6.0
 40
7.0
 40
8.0
 40
9.0
 40
9.0
 40
10.0
 40
10.0
 40
10.0
 10
-44.629925464398298
 20
49.81712428963769
 30
0.0
 10
-44.631171427787635
 20
49.817226858304821
 30
0.0
 10
-44.632417391176972
 20
49.817329426971952
 30
0.0
 10
-44.699775739167222
 20
49.823635728982822
 30
0.0
 10
-44.859655226731206
 20
49.827905247192177
 30
0.0
 10
-45.024810849787514
 20
49.790827164537291
 30
0.0
 10
-45.208929527213115
 20
49.712701798864032
 30
0.0
 10
-45.354548413014555
 20
49.588332469614102
 30
0.0
 10
-45.484806260405179
 20
49.429983395241663
 30
0.0
 10
-45.542841919218972
 20
49.229332063851501
 30
0.0
 10
-45.564050939534582
 20
49.094773483807188
 30
0.0
 10
-45.572449029106679
 20
49.026466753235667
 30
0.0
 10
-45.57273665570159
 20
49.02419344000819
 30
0.0
 10
-45.573024282296501
 20
49.021920126780714
 30
0.0
  0
LINE
  5
C2
100
AcDbEntity
  8
0
  6
CONTINUOUS
 62
               7
100
AcDbLine
 10
-45.573024282250003
 20
49.02192012674999
 30
0.0
 11
-45.71354676575001
 21
30.383108142350011
 31
0.0
  0
SPLINE
  5
C3
100
AcDbEntity
  8
0
  6
CONTINUOUS
 62
               7
100
AcDbSpline
210
0.0
220
0.0
230
1.0
 70
               8
 71
               2
 72
              17
 73
              14
 74
               0
 42
0.000001
 43
0.000001
 40
0.0
 40
0.0
 40
0.0
 40
1.0
 40
1.0
 40
2.0
 40
3.0
 40
4.0
 40
5.0
 40
6.0
 40
7.0
 40
8.0
 40
9.0
 40
9.0
 40
10.0
 40
10.0
 40
10.0
 10
-45.713546765751005
 20
30.383108142397504
 30
0.0
 10
-45.713475601752222
 20
30.381794539436996
 30
0.0
 10
-45.713404437753439
 20
30.380480936476488
 30
0.0
 10
-45.710502205999944
 20
30.299070061629124
 30
0.0
 10
-45.687579780327724
 20
30.134625366917817
 30
0.0
 10
-45.613942324581018
 20
29.92815682857497
 30
0.0
 10
-45.455322719372987
 20
29.682188000811948
 30
0.0
 10
-45.273857927321529
 20
29.521083853170268
 30
0.0
 10
-45.146588702220242
 20
29.440490414400614
 30
0.0
 10
-45.008351938618347
 20
29.38141597810818
 30
0.0
 10
-44.862929928748883
 20
29.33897682474273
 30
0.0
 10
-44.78936470721041
 20
29.320193856140122
 30
0.0
 10
-44.786915512813749
 20
29.319559245046406
 30
0.0
 10
-44.784466318417088
 20
29.31892463395269
 30
0.0
  0
LINE
  5
C4
100
AcDbEntity
  8
0
  6
CONTINUOUS
 62
               7
100
AcDbLine
 10
-44.784466318450001
 20
29.31892463394999
 30
0.0
 11
29.245510162249985
 21
18.682905424950008
 31
0.0
  0
SPLINE
  5
C5
100
AcDbEntity
  8
0
  6
CONTINUOUS
 62
               7
100
AcDbSpline
210
0.0
220
0.0
230
1.0
 70
               8
 71
               2
 72
              17
 73
              14
 74
               0
 42
0.000001
 43
0.000001
 40
0.0
 40
0.0
 40
0.0
 40
1.0
 40
1.0
 40
2.0
 40
3.0
 40
4.0
 40
5.0
 40
6.0
 40
7.0
 40
8.0
 40
9.0
 40
9.0
 40
10.0
 40
10.0
 40
10.0
 10
29.245510162212213
 20
18.682905424987808
 30
0.0
 10
29.246756158397091
 20
18.682802906052999
 30
0.0
 10
29.248002154581968
 20
18.682700387118189
 30
0.0
 10
29.315360152443702
 20
18.676394684074211
 30
0.0
 10
29.475265709195355
 20
18.67215306067078
 30
0.0
 10
29.640476066791848
 20
18.709285558079756
 30
0.0
 10
29.824560144404245
 20
18.787374525429584
 30
0.0
 10
29.970105059539094
 20
18.911670308841849
 30
0.0
 10
30.100306415444493
 20
19.06996399791359
 30
0.0
 10
30.158368625512082
 20
19.270641114355783
 30
0.0
 10
30.179613650229953
 20
19.405234794622629
 30
0.0
 10
30.188032369903766
 20
19.473561638381653
 30
0.0
 10
30.188320675007077
 20
19.475835613113233
 30
0.0
 10
30.188608980110388
 20
19.478109587844813
 30
0.0
  0
LINE
  5
C6
100
AcDbEntity
  8
0
  6
CONTINUOUS
 62
               7
100
AcDbLine
 10
30.188608980150008
 20
19.478109587850014
 30
0.0
 11
30.329131463549999
 21
38.116921572249993
 31
0.0
  0
SPLINE
  5
C7
100
AcDbEntity
  8
0
  6
CONTINUOUS
 62
               7
100
AcDbSpline
210
0.0
220
0.0
230
1.0
 70
               8
 71
               2
 72
              18
 73
              15
 74
               0
 42
0.000001
 43
0.000001
 40
0.0
 40
0.0
 40
0.0
 40
1.0
 40
1.0
 40
2.0
 40
3.0
 40
4.0
 40
5.0
 40
6.0
 40
7.0
 40
8.0
 40
9.0
 40
10.0
 40
10.0
 40
11.0
 40
11.0
 40
11.0
 10
72.15883187840592
 20
5.7086930216032954
 30
0.0
 10
72.165100903701386
 20
5.7081344914879963
 30
0.0
 10
72.171369928996853
 20
5.7075759613726973
 30
0.0
 10
72.384815581878797
 20
5.6868944278518825
 30
0.0
 10
72.778601486021046
 20
5.6699847075673802
 30
0.0
 10
73.140986671123926
 20
5.7121615049145475
 30
0.0
 10
73.618985924338688
 20
5.8589592231750487
 30
0.0
 10
73.992503419785464
 20
6.1760846212189051
 30
0.0
 10
74.206632400318256
 20
6.4698307748215882
 30
0.0
 10
74.350399429193772
 20
6.8179727060151265
 30
0.0
 10
74.409311036052202
 20
7.1088045573143006
 30
0.0
 10
74.446684772790661
 20
7.4201779473519025
 30
0.0
 10
74.461009873295438
 20
7.6363296596612145
 30
0.0
 10
74.461524981232373
 20
7.6435217346885622
 30
0.0
 10
74.462040089169307
 20
7.65071380971591
 30
0.0
  0
LINE
  5
C8
100
AcDbEntity
  8
0
  6
CONTINUOUS
 62
               7
100
AcDbLine
 10
-87.800348221350006
 20
28.690314698050003
 30
0.0
 11
72.158831878449973
 21
5.7086930216499923
 31
0.0
  0
SPLINE
  5
C9
100
AcDbEntity
  8
0
  6
CONTINUOUS
 62
               7
100
AcDbSpline
210
0.0
220
0.0
230
1.0
 70
               8
 71
               2
 72
              16
 73
              13
 74
               0
 42
0.000001
 43
0.000001
 40
0.0
 40
0.0
 40
0.0
 40
1.0
 40
1.0
 40
2.0
 40
3.0
 40
4.0
 40
5.0
 40
6.0
 40
7.0
 40
8.0
 40
8.0
 40
9.0
 40
9.0
 40
9.0
 10
-90.069321231484196
 20
31.28922894475059
 30
0.0
 10
-90.069002733800716
 20
31.282507851250386
 30
0.0
 10
-90.068684236117249
 20
31.275786757750183
 30
0.0
 10
-90.060626103480857
 20
31.074116897463284
 30
0.0
 10
-90.026027146264155
 20
30.676054675232507
 30
0.0
 10
-89.880754406139459
 20
30.087121426044121
 30
0.0
 10
-89.462666185233431
 20
29.456524216668754
 30
0.0
 10
-88.999131082370738
 20
29.09392744766734
 30
0.0
 10
-88.566499873486976
 20
28.879498850011373
 30
0.0
 10
-88.082511177002402
 20
28.746548854294616
 30
0.0
 10
-87.816001083169041
 20
28.693544472293979
 30
0.0
 10
-87.808174652273621
 20
28.691929585155236
 30
0.0
 10
-87.800348221378201
 20
28.690314698016493
 30
0.0
  0
LINE
  5
CA
100
AcDbEntity
  8
0
  6
CONTINUOUS
 62
               7
100
AcDbLine
 10
-89.846460625350005
 20
60.849316656849993
 30
0.0
 11
-90.069321231450004
 21
31.289228944749993
 31
0.0
  0
SPLINE
  5
CB
100
AcDbEntity
  8
0
  6
CONTINUOUS
 62
               7
100
AcDbSpline
210
0.0
220
0.0
230
1.0
 70
               8
 71
               2
 72
              18
 73
              15
 74
               0
 42
0.000001
 43
0.000001
 40
0.0
 40
0.0
 40
0.0
 40
1.0
 40
1.0
 40
2.0
 40
3.0
 40
4.0
 40
5.0
 40
6.0
 40
7.0
 40
8.0
 40
9.0
 40
10.0
 40
10.0
 40
11.0
 40
11.0
 40
11.0
 10
-87.543252401523901
 20
62.791339177744504
 30
0.0
 10
-87.549521366701995
 20
62.791897692171119
 30
0.0
 10
-87.55579033188009
 20
62.792456206597734
 30
0.0
 10
-87.769233932102082
 20
62.813137171915656
 30
0.0
 10
-88.163016433273611
 20
62.830046289424814
 30
0.0
 10
-88.525400330941977
 20
62.787869767992504
 30
0.0
 10
-89.003399171231521
 20
62.641071774965269
 30
0.0
 10
-89.376917054285968
 20
62.323946032815684
 30
0.0
 10
-89.591049710893301
 20
62.030200223908082
 30
0.0
 10
-89.734820140232401
 20
61.682058472991457
 30
0.0
 10
-89.793732333258504
 20
61.391226422235064
 30
0.0
 10
-89.83110583483284
 20
61.07985287369192
 30
0.0
 10
-89.845430440227659
 20
60.863700827668396
 30
0.0
 10
-89.845945532789273
 20
60.856508742277754
 30
0.0
 10
-89.8464606253509
 20
60.849316656887112
 30
0.0
  0
LINE
  5
CC
100
AcDbEntity
  8
0
  6
CONTINUOUS
 62
               7
100
AcDbLine
 10
72.415927698250016
 20
39.809717501350008
 30
0.0
 11
-87.543252401550006
 21
62.79133917774999
 31
0.0
  0
LINE
  5
CD
100
AcDbEntity
  8
0
  6
CONTINUOUS
 62
               7
100
AcDbLine
 10
74.46204008914998
 20
7.650713809750016
 30
0.0
 11
74.684900695349995
 21
37.210801521850016
 31
0.0
  0
SPLINE
  5
CE
100
AcDbEntity
  8
0
  6
CONTINUOUS
 62
               7
100
AcDbSpline
210
0.0
220
0.0
230
1.0
 70
               8
 71
               2
 72
              18
 73
              15
 74
               0
 42
0.000001
 43
0.000001
 40
0.0
 40
0.0
 40
0.0
 40
1.0
 40
1.0
 40
2.0
 40
3.0
 40
4.0
 40
5.0
 40
6.0
 40
7.0
 40
8.0
 40
9.0
 40
10.0
 40
10.0
 40
11.0
 40
11.0
 40
11.0
 10
76.609372614221627
 20
4.098541196798891
 30
0.0
 10
76.608914673244442
 20
4.0872301715623962
 30
0.0
 10
76.608456732267257
 20
4.0759191463259015
 30
0.0
 10
76.599077683250641
 20
3.7347858364853437
 30
0.0
 10
76.541515469252261
 20
3.2525732896403383
 30
0.0
 10
76.447483087875185
 20
2.8817721484867036
 30
0.0
 10
76.240473213861435
 20
2.4778572847052942
 30
0.0
 10
75.900497606023976
 20
2.1281797613611104
 30
0.0
 10
75.503628806212987
 20
1.924331871554557
 30
0.0
 10
75.122581345812705
 20
1.829122588929323
 30
0.0
 10
74.769464383597722
 20
1.8125087492454668
 30
0.0
 10
74.322163198716453
 20
1.8437299834567398
 30
0.0
 10
74.01269438556551
 20
1.8888505046536181
 30
0.0
 10
74.002393894347449
 20
1.8902741919769142
 30
0.0
 10
73.992093403129388
 20
1.8916978793002102
 30
0.0
  0
SPLINE
  5
CF
100
AcDbEntity
  8
0
  6
CONTINUOUS
 62
               7
100
AcDbSpline
210
0.0
220
0.0
230
1.0
 70
               8
 71
               2
 72
              17
 73
              14
 74
               0
 42
0.000001
 43
0.000001
 40
0.0
 40
0.0
 40
0.0
 40
1.0
 40
1.0
 40
2.0
 40
3.0
 40
4.0
 40
5.0
 40
6.0
 40
7.0
 40
8.0
 40
9.0
 40
9.0
 40
10.0
 40
10.0
 40
10.0
 10
72.121213964936203
 20
5.3646897221941003
 30
0.0
 10
72.132214683128524
 20
5.3645877545557994
 30
0.0
 10
72.143215401320845
 20
5.3644857869174984
 30
0.0
 10
72.474622290115178
 20
5.3573350025110926
 30
0.0
 10
72.946762141291856
 20
5.3879661961547072
 30
0.0
 10
73.316756406594834
 20
5.4577895890565742
 30
0.0
 10
73.75955853866509
 20
5.6482025761993953
 30
0.0
 10
74.076256527235557
 20
5.917239905699148
 30
0.0
 10
74.464499703672743
 20
6.3336144518825677
 30
0.0
 10
74.633956039296777
 20
6.872859116101381
 30
0.0
 10
74.706841537303092
 20
7.2714757299480368
 30
0.0
 10
74.736387485129853
 20
7.5528400888892975
 30
0.0
 10
74.737440330579119
 20
7.5621865642909967
 30
0.0
 10
74.738493176028385
 20
7.5715330396926959
 30
0.0
  0
SPLINE
  5
D0
100
AcDbEntity
  8
0
  6
CONTINUOUS
 62
               7
100
AcDbSpline
210
0.0
220
0.0
230
1.0
 70
               8
 71
               2
 72
              15
 73
              12
 74
               0
 42
0.000001
 43
0.000001
 40
0.0
 40
0.0
 40
0.0
 40
1.0
 40
1.0
 40
2.0
 40
3.0
 40
4.0
 40
5.0
 40
6.0
 40
7.0
 40
7.0
 40
8.0
 40
8.0
 40
8.0
 10
93.200239017470608
 20
16.062232329853089
 30
0.0
 10
93.199717397369824
 20
16.054162808377612
 30
0.0
 10
93.19919577726904
 20
16.046093286902135
 30
0.0
 10
93.18487722222801
 20
15.803627958426659
 30
0.0
 10
93.120035573143184
 20
15.096302354195103
 30
0.0
 10
92.831558945891175
 20
14.298033801600752
 30
0.0
 10
92.487932714067085
 20
13.714327916243235
 30
0.0
 10
92.227163013437178
 20
13.368206169753989
 30
0.0
 10
91.989055737561841
 20
13.095770244194995
 30
0.0
 10
91.791884380804447
 20
12.962742411941434
 30
0.0
 10
91.791770379365573
 20
12.962666448463068
 30
0.0
 10
91.791656377926699
 20
12.962590484984702
 30
0.0
  0
LINE
  5
D1
100
AcDbEntity
  8
0
  6
CONTINUOUS
 62
               7
100
AcDbLine
 10
73.992093403150022
 20
1.891697879350005
 30
0.0
 11
-91.001206405749997
 21
25.596580543649992
 31
0.0
  0
LINE
  5
D2
100
AcDbEntity
  8
0
  6
CONTINUOUS
 62
               7
100
AcDbLine
 10
-87.837966134850006
 20
28.346311398650016
 30
0.0
 11
72.121213964950016
 21
5.3646897221499898
 31
0.0
  0
POLYLINE
  5
D3
100
AcDbEntity
  8
0
  6
CONTINUOUS
 62
               7
100
AcDb2dPolyline
 66
               1
 10
0.0
 20
0.0
 30
0.0
 75
               5
  0
VERTEX
  5
D4
100
AcDbEntity
  8
0
  6
CONTINUOUS
 62
               7
100
AcDbVertex
100
AcDb2dVertex
 10
86.631984916250019
 20
19.802720542749995
 30
0.0
  0
VERTEX
  5
D5
100
AcDbEntity
  8
0
  6
CONTINUOUS
 62
               7
100
AcDbVertex
100
AcDb2dVertex
 10
86.819799582350015
 20
19.902619190550013
 30
0.0
  0
VERTEX
  5
D6
100
AcDbEntity
  8
0
  6
CONTINUOUS
 62
               7
100
AcDbVertex
100
AcDb2dVertex
 10
87.347481813849981
 20
20.29621035964999
 30
0.0
  0
SEQEND
  5
D7
100
AcDbEntity
  8
0
  6
CONTINUOUS
 62
               7
  0
LINE
  5
D8
100
AcDbEntity
  8
0
  6
CONTINUOUS
 62
               7
100
AcDbLine
 10
91.622478176549976
 20
43.17873208315001
 30
0.0
 11
91.598016581250022
 21
39.934161779949989
 31
0.0
  0
LINE
  5
D9
100
AcDbEntity
  8
0
  6
CONTINUOUS
 62
               7
100
AcDbLine
 10
29.915076253449996
 20
19.152551172950012
 30
0.0
 11
29.889722100949996
 21
19.167657892550011
 31
0.0
  0
LINE
  5
DA
100
AcDbEntity
  8
0
  6
CONTINUOUS
 62
               7
100
AcDbLine
 10
91.476675211349971
 20
23.839520384949992
 30
0.0
 11
93.25694075345001
 21
23.583114178849996
 31
0.0
  0
SPLINE
  5
DB
100
AcDbEntity
  8
0
  6
CONTINUOUS
 62
               7
100
AcDbSpline
210
0.0
220
0.0
230
1.0
 70
               8
 71
               2
 72
              17
 73
              14
 74
               0
 42
0.000001
 43
0.000001
 40
0.0
 40
0.0
 40
0.0
 40
1.0
 40
1.0
 40
2.0
 40
3.0
 40
4.0
 40
5.0
 40
6.0
 40
7.0
 40
8.0
 40
9.0
 40
9.0
 40
10.0
 40
10.0
 40
10.0
 10
-93.319027246974798
 20
63.109703136325095
 30
0.0
 10
-93.318823855298746
 20
63.12076628923802
 30
0.0
 10
-93.318620463622707
 20
63.131829442150945
 30
0.0
 10
-93.317017031230009
 20
63.465391678482661
 30
0.0
 10
-93.2694608098884
 20
63.937855686007396
 30
0.0
 10
-93.182008783085962
 20
64.302238119066033
 30
0.0
 10
-92.979860542795166
 20
64.701400339722426
 30
0.0
 10
-92.641072388647359
 20
65.049935243353275
 30
0.0
 10
-92.241349020221691
 20
65.256551164433745
 30
0.0
 10
-91.698912424071835
 20
65.391446379007789
 30
0.0
 10
-91.039300982064788
 20
65.35722058847449
 30
0.0
 10
-90.722812463238114
 20
65.318942108581211
 30
0.0
 10
-90.712280249560308
 20
65.317744281202451
 30
0.0
 10
-90.701748035882503
 20
65.31654645382369
 30
0.0
  0
SPLINE
  5
DC
100
AcDbEntity
  8
0
  6
CONTINUOUS
 62
               7
100
AcDbSpline
210
0.0
220
0.0
230
1.0
 70
               8
 71
               2
 72
              18
 73
              15
 74
               0
 42
0.000001
 43
0.000001
 40
0.0
 40
0.0
 40
0.0
 40
1.0
 40
1.0
 40
2.0
 40
3.0
 40
4.0
 40
5.0
 40
6.0
 40
7.0
 40
8.0
 40
9.0
 40
10.0
 40
10.0
 40
11.0
 40
11.0
 40
11.0
 10
-87.5762018749775
 20
63.066554764744694
 30
0.0
 10
-87.586971664766793
 20
63.066881812874129
 30
0.0
 10
-87.5977414545561
 20
63.067208861003564
 30
0.0
 10
-87.922113643206984
 20
63.081216354068175
 30
0.0
 10
-88.385009442140372
 20
63.059593821112344
 30
0.0
 10
-88.748706151272657
 20
62.995956601680859
 30
0.0
 10
-89.095176679161554
 20
62.851072012685108
 30
0.0
 10
-89.431312634466337
 20
62.619697018004956
 30
0.0
 10
-89.754436743761772
 20
62.269114262063738
 30
0.0
 10
-89.968940369840013
 20
61.898317778358006
 30
0.0
 10
-90.07493158273266
 20
61.57203522055562
 30
0.0
 10
-90.156036659812656
 20
61.165410439357174
 30
0.0
 10
-90.191012252370072
 20
60.878758081217768
 30
0.0
 10
-90.192246669219884
 20
60.869234764231933
 30
0.0
 10
-90.193481086069696
 20
60.859711447246099
 30
0.0
  0
SPLINE
  5
DD
100
AcDbEntity
  8
0
  6
CONTINUOUS
 62
               7
100
AcDbSpline
210
0.0
220
0.0
230
1.0
 70
               8
 71
               2
 72
              16
 73
              13
 74
               0
 42
0.000001
 43
0.000001
 40
0.0
 40
0.0
 40
0.0
 40
1.0
 40
1.0
 40
2.0
 40
3.0
 40
4.0
 40
5.0
 40
6.0
 40
7.0
 40
8.0
 40
8.0
 40
9.0
 40
9.0
 40
9.0
 10
-95.149719586378495
 20
63.778660604867497
 30
0.0
 10
-95.14934270999855
 20
63.783901031458612
 30
0.0
 10
-95.148965833618604
 20
63.789141458049727
 30
0.0
 10
-95.132870389754231
 20
64.073499154473154
 30
0.0
 10
-95.065708257138766
 20
64.515958402641445
 30
0.0
 10
-94.954739315951187
 20
64.899217516894566
 30
0.0
 10
-94.765415401332774
 20
65.357217742339742
 30
0.0
 10
-94.558542982337642
 20
65.734963773879429
 30
0.0
 10
-94.39078927739962
 20
65.968020983136284
 30
0.0
 10
-94.242015720751397
 20
66.126716318548972
 30
0.0
 10
-94.175849345197022
 20
66.192366891926241
 30
0.0
 10
-94.174417065740556
 20
66.19379938149477
 30
0.0
 10
-94.172984786284104
 20
66.195231871063299
 30
0.0
  0
SPLINE
  5
DE
100
AcDbEntity
  8
0
  6
CONTINUOUS
 62
               7
100
AcDbSpline
210
0.0
220
0.0
230
1.0
 70
               8
 71
               2
 72
              15
 73
              12
 74
               0
 42
0.000001
 43
0.000001
 40
0.0
 40
0.0
 40
0.0
 40
1.0
 40
1.0
 40
2.0
 40
3.0
 40
4.0
 40
5.0
 40
6.0
 40
7.0
 40
7.0
 40
8.0
 40
8.0
 40
8.0
 10
-81.657154312031807
 20
80.38509703220609
 30
0.0
 10
-81.653838804995075
 20
80.388867904315944
 30
0.0
 10
-81.65052329795833
 20
80.392638776425798
 30
0.0
 10
-81.551564269181682
 20
80.506300986712262
 30
0.0
 10
-81.125253044819601
 20
80.961396488522468
 30
0.0
 10
-80.234686140269019
 20
81.450380188335885
 30
0.0
 10
-79.471843990874362
 20
81.654650545985191
 30
0.0
 10
-78.83586127465108
 20
81.739176272336834
 30
0.0
 10
-78.213521422733407
 20
81.702218520569915
 30
0.0
 10
-77.966833800582563
 20
81.67954906903509
 30
0.0
 10
-77.958615077971274
 20
81.678822655171942
 30
0.0
 10
-77.950396355359999
 20
81.678096241308793
 30
0.0
  0
LINE
  5
DF
100
AcDbEntity
  8
0
  6
CONTINUOUS
 62
               7
100
AcDbLine
 10
-93.579581963050003
 20
28.549892880149997
 30
0.0
 11
-93.31902724695
 21
63.109703136349992
 31
0.0
  0
LINE
  5
E0
100
AcDbEntity
  8
0
  6
CONTINUOUS
 62
               7
100
AcDbLine
 10
-90.193481086049999
 20
60.859711447249992
 30
0.0
 11
-90.416341692250001
 21
31.299623735149993
 31
0.0
  0
SPLINE
  5
E1
100
AcDbEntity
  8
0
  6
CONTINUOUS
 62
               7
100
AcDbSpline
210
0.0
220
0.0
230
1.0
 70
               8
 71
               2
 72
              17
 73
              14
 74
               0
 42
0.000001
 43
0.000001
 40
0.0
 40
0.0
 40
0.0
 40
1.0
 40
1.0
 40
2.0
 40
3.0
 40
4.0
 40
5.0
 40
6.0
 40
7.0
 40
8.0
 40
9.0
 40
9.0
 40
10.0
 40
10.0
 40
10.0
 10
-91.001206405713305
 20
25.596580543642915
 30
0.0
 10
-91.012631446699743
 20
25.598324401627409
 30
0.0
 10
-91.024056487686195
 20
25.600068259611902
 30
0.0
 10
-91.368014081186516
 20
25.648067377139512
 30
0.0
 10
-91.860355423949159
 20
25.761840780494481
 30
0.0
 10
-92.409134066023483
 20
25.959814386702959
 30
0.0
 10
-92.940634019930044
 20
26.393593336107585
 30
0.0
 10
-93.278517351037848
 20
26.852645529980862
 30
0.0
 10
-93.47990508178097
 20
27.353111715351474
 30
0.0
 10
-93.551730215107142
 20
27.755570984032857
 30
0.0
 10
-93.582163826221858
 20
28.214216764083687
 30
0.0
 10
-93.57959596774927
 20
28.528925735306785
 30
0.0
 10
-93.579588965408888
 20
28.53940930772599
 30
0.0
 10
-93.579581963068506
 20
28.549892880145194
 30
0.0
  0
SPLINE
  5
E2
100
AcDbEntity
  8
0
  6
CONTINUOUS
 62
               7
100
AcDbSpline
210
0.0
220
0.0
230
1.0
 70
               8
 71
               2
 72
              17
 73
              14
 74
               0
 42
0.000001
 43
0.000001
 40
0.0
 40
0.0
 40
0.0
 40
1.0
 40
1.0
 40
2.0
 40
3.0
 40
4.0
 40
5.0
 40
6.0
 40
7.0
 40
8.0
 40
9.0
 40
9.0
 40
10.0
 40
10.0
 40
10.0
 10
-90.416341692202906
 20
31.299623735109492
 30
0.0
 10
-90.414950450948993
 20
31.288740470857078
 30
0.0
 10
-90.413559209695066
 20
31.277857206604665
 30
0.0
 10
-90.375754150194993
 20
30.950630131771334
 30
0.0
 10
-90.280791628344616
 20
30.478026681461216
 30
0.0
 10
-90.160257782166468
 20
30.100394779625333
 30
0.0
 10
-89.970795063024696
 20
29.745368181855667
 30
0.0
 10
-89.689944831337584
 20
29.369725610687851
 30
0.0
 10
-89.283146325294865
 20
28.981497291989285
 30
0.0
 10
-88.754543770194118
 20
28.62689215537776
 30
0.0
 10
-88.144452473000186
 20
28.425628846244251
 30
0.0
 10
-87.857078081714576
 20
28.351390691023511
 30
0.0
 10
-87.847522108281197
 20
28.348851044815362
 30
0.0
 10
-87.837966134847804
 20
28.346311398607213
 30
0.0
  0
LINE
  5
E3
100
AcDbEntity
  8
0
  6
CONTINUOUS
 62
               7
100
AcDbLine
 10
30.193715499149988
 20
20.155572242250003
 30
0.0
 11
30.171686902049998
 21
20.133193958649997
 31
0.0
  0
ARC
  5
E4
100
AcDbEntity
  8
0
  6
CONTINUOUS
 62
               7
100
AcDbCircle
 10
28.568755200949994
 20
37.514720157550016
 30
0.0
 40
1.0996256934009028
100
AcDbArc
 50
1.1260930180007123
 51
81.118913587100323
  0
ARC
  5
E5
100
AcDbEntity
  8
0
  6
CONTINUOUS
 62
               7
100
AcDbCircle
 10
-44.298474863749988
 20
30.648722193850006
 30
0.0
 40
1.0996234400643881
100
AcDbArc
 50
181.12594802069958
 51
261.11891881539964
  0
LINE
  5
E6
100
AcDbEntity
  8
0
  6
CONTINUOUS
 62
               7
100
AcDbLine
 10
-45.264630318749994
 20
48.302060156250008
 30
0.0
 11
-45.397885983549997
 21
30.627114334449999
 31
0.0
  0
ARC
  5
E7
100
AcDbEntity
  8
0
  6
CONTINUOUS
 62
               7
100
AcDbCircle
 10
-44.463858567050011
 20
48.309792353549994
 30
0.0
 40
0.8008090815681229
100
AcDbArc
 50
79.720695262300012
 51
180.55322693639937
  0
LINE
  5
E8
100
AcDbEntity
  8
0
  6
CONTINUOUS
 62
               7
100
AcDbLine
 10
28.738520086649999
 20
38.601162309350002
 30
0.0
 11
-44.32095673005
 21
49.097748094749988
 31
0.0
  0
LINE
  5
E9
100
AcDbEntity
  8
0
  6
CONTINUOUS
 62
               7
100
AcDbLine
 10
29.534912854150008
 20
19.86138502175001
 30
0.0
 11
29.668168518950012
 21
37.53633084354999
 31
0.0
  0
ARC
  5
EA
100
AcDbEntity
  8
0
  6
CONTINUOUS
 62
               7
100
AcDbCircle
 10
28.734136967849992
 20
19.853656803850015
 30
0.0
 40
0.800813177599551
100
AcDbArc
 50
259.72092172039913
 51
0.5529393805003338
  0
LINE
  5
EB
100
AcDbEntity
  8
0
  6
CONTINUOUS
 62
               7
100
AcDbLine
 10
-44.468239302450002
 20
29.562282252950013
 30
0.0
 11
28.591237514249997
 21
19.065696467549998
 31
0.0
  0
SPLINE
  5
EC
100
AcDbEntity
  8
0
  6
CONTINUOUS
 62
               7
100
AcDbSpline
210
0.0
220
0.0
230
1.0
 70
               8
 71
               2
 72
              15
 73
              12
 74
               0
 42
0.000001
 43
0.000001
 40
0.0
 40
0.0
 40
0.0
 40
1.0
 40
1.0
 40
2.0
 40
3.0
 40
4.0
 40
5.0
 40
6.0
 40
7.0
 40
7.0
 40
8.0
 40
8.0
 40
8.0
 10
-81.246930705513307
 20
80.764064717107289
 30
0.0
 10
-81.240029160838162
 20
80.769047892564416
 30
0.0
 10
-81.233127616163017
 20
80.774031068021543
 30
0.0
 10
-81.027020123310763
 20
80.9249027204051
 30
0.0
 10
-80.545151098044855
 20
81.249819095011986
 30
0.0
 10
-79.965173025348406
 20
81.499738775257413
 30
0.0
 10
-79.464938385625231
 20
81.61927308940642
 30
0.0
 10
-79.013575813688647
 20
81.666384164337956
 30
0.0
 10
-78.387883359452104
 20
81.673063378844915
 30
0.0
 10
-77.95484861834737
 20
81.651357615728756
 30
0.0
 10
-77.940435814466127
 20
81.650722679897683
 30
0.0
 10
-77.926023010584899
 20
81.65008774406661
 30
0.0
  0
SPLINE
  5
ED
100
AcDbEntity
  8
0
  6
CONTINUOUS
 62
               7
100
AcDbSpline
210
0.0
220
0.0
230
1.0
 70
               8
 71
               2
 72
              14
 73
              11
 74
               0
 42
0.000001
 43
0.000001
 40
0.0
 40
0.0
 40
0.0
 40
1.0
 40
1.0
 40
2.0
 40
3.0
 40
4.0
 40
5.0
 40
6.0
 40
6.0
 40
7.0
 40
7.0
 40
7.0
 10
92.103078025693492
 20
55.858558726276812
 30
0.0
 10
92.096266406609686
 20
55.865512091105785
 30
0.0
 10
92.089454787525881
 20
55.872465455934758
 30
0.0
 10
91.886063744203966
 20
56.082170312171968
 30
0.0
 10
91.410127606623348
 20
56.544695707257119
 30
0.0
 10
90.835167650773201
 20
56.96054779321571
 30
0.0
 10
90.122222330720433
 20
57.332066259644449
 30
0.0
 10
89.263902311197967
 20
57.586231440462598
 30
0.0
 10
88.83147761246147
 20
57.688867644991063
 30
0.0
 10
88.817086431036529
 20
57.692371025005826
 30
0.0
 10
88.802695249611588
 20
57.695874405020589
 30
0.0
  0
SPLINE
  5
EE
100
AcDbEntity
  8
0
  6
CONTINUOUS
 62
               7
100
AcDbSpline
210
0.0
220
0.0
230
1.0
 70
               8
 71
               2
 72
              14
 73
              11
 74
               0
 42
0.000001
 43
0.000001
 40
0.0
 40
0.0
 40
0.0
 40
1.0
 40
1.0
 40
2.0
 40
3.0
 40
4.0
 40
5.0
 40
6.0
 40
6.0
 40
7.0
 40
7.0
 40
7.0
 10
93.44932348633921
 20
52.373556078264301
 30
0.0
 10
93.448792808425935
 20
52.382679860753072
 30
0.0
 10
93.44826213051266
 20
52.391803643241843
 30
0.0
 10
93.433896600808168
 20
52.665504707375931
 30
0.0
 10
93.380239124116088
 20
53.28874165734851
 30
0.0
 10
93.213811826887991
 20
53.954388715385505
 30
0.0
 10
92.904968048419619
 20
54.691676715145434
 30
0.0
 10
92.39581306506193
 20
55.461398193618493
 30
0.0
 10
92.121229742020716
 20
55.833673055605004
 30
0.0
 10
92.112153883857104
 20
55.846115890940908
 30
0.0
 10
92.103078025693492
 20
55.858558726276812
 30
0.0
  0
LINE
  5
EF
100
AcDbEntity
  8
0
  6
CONTINUOUS
 62
               7
100
AcDbLine
 10
93.232291529349993
 20
23.586576651650006
 30
0.0
 11
93.274543035650026
 21
29.190789318050008
 31
0.0
  0
LINE
  5
F0
100
AcDbEntity
  8
0
  6
CONTINUOUS
 62
               7
100
AcDbLine
 10
93.316357055750018
 20
34.736974093149996
 30
0.0
 11
93.392602860449983
 21
44.850168680249993
 31
0.0
  0
SPLINE
  5
F1
100
AcDbEntity
  8
0
  6
CONTINUOUS
 62
               7
100
AcDbSpline
210
0.0
220
0.0
230
1.0
 70
               8
 71
               2
 72
              14
 73
              11
 74
               0
 42
0.000001
 43
0.000001
 40
0.0
 40
0.0
 40
0.0
 40
1.0
 40
1.0
 40
2.0
 40
3.0
 40
4.0
 40
5.0
 40
6.0
 40
6.0
 40
7.0
 40
7.0
 40
7.0
 10
89.853204151810985
 20
58.719864388373395
 30
0.0
 10
89.862299590691975
 20
58.717962274849995
 30
0.0
 10
89.871395029572966
 20
58.716060161326595
 30
0.0
 10
90.144482011444211
 20
58.660508867002761
 30
0.0
 10
90.763136975476357
 20
58.513669141369547
 30
0.0
 10
91.407305913879838
 20
58.25084800456338
 30
0.0
 10
92.101883900706923
 20
57.838803720935459
 30
0.0
 10
92.798638511366732
 20
57.227256390076604
 30
0.0
 10
93.131317230902312
 20
56.903962442846506
 30
0.0
 10
93.142452079397543
 20
56.893255576238047
 30
0.0
 10
93.153586927892775
 20
56.882548709629589
 30
0.0
  0
SPLINE
  5
F2
100
AcDbEntity
  8
0
  6
CONTINUOUS
 62
               7
100
AcDbSpline
210
0.0
220
0.0
230
1.0
 70
               8
 71
               2
 72
              14
 73
              11
 74
               0
 42
0.000001
 43
0.000001
 40
0.0
 40
0.0
 40
0.0
 40
1.0
 40
1.0
 40
2.0
 40
3.0
 40
4.0
 40
5.0
 40
6.0
 40
6.0
 40
7.0
 40
7.0
 40
7.0
 10
93.153586927892775
 20
56.882548709629589
 30
0.0
 10
93.159544829732795
 20
56.874875635174263
 30
0.0
 10
93.165502731572815
 20
56.867202560718937
 30
0.0
 10
93.345495488692677
 20
56.63777259904532
 30
0.0
 10
93.738335014262645
 20
56.10518774326124
 30
0.0
 10
94.069189266297542
 20
55.483509744555278
 30
0.0
 10
94.334485237754222
 20
54.734538151133137
 30
0.0
 10
94.459657158352286
 20
53.862195282199423
 30
0.0
 10
94.497159928427152
 20
53.426568210140545
 30
0.0
 10
94.498496158482766
 20
53.412057135878825
 30
0.0
 10
94.49983238853838
 20
53.397546061617106
 30
0.0
  0
LINE
  5
F3
100
AcDbEntity
  8
0
  6
CONTINUOUS
 62
               7
100
AcDbLine
 10
-76.875514108350004
 20
82.674077727449998
 30
0.0
 11
89.85320415184998
 21
58.719864388350004
 31
0.0
  0
LINE
  5
F4
100
AcDbEntity
  8
0
  6
CONTINUOUS
 62
               7
100
AcDbLine
 10
94.499832388549976
 20
53.39754606164999
 30
0.0
 11
94.226283342850024
 21
17.114176267650009
 31
0.0
  0
SPLINE
  5
F5
100
AcDbEntity
  8
0
  6
CONTINUOUS
 62
               7
100
AcDbSpline
210
0.0
220
0.0
230
1.0
 70
               8
 71
               2
 72
              14
 73
              11
 74
               0
 42
0.000001
 43
0.000001
 40
0.0
 40
0.0
 40
0.0
 40
1.0
 40
1.0
 40
2.0
 40
3.0
 40
4.0
 40
5.0
 40
6.0
 40
6.0
 40
7.0
 40
7.0
 40
7.0
 10
93.015879661070301
 20
14.224070873416707
 30
0.0
 10
93.019873207661391
 20
14.228052677266021
 30
0.0
 10
93.023866754252481
 20
14.232034481115335
 30
0.0
 10
93.210277791451574
 20
14.412514436506967
 30
0.0
 10
93.542566579003335
 20
14.792576290200714
 30
0.0
 10
93.923405379330177
 20
15.4404091954747
 30
0.0
 10
94.089818550004622
 20
16.125525742168691
 30
0.0
 10
94.18116002870147
 20
16.693109332841857
 30
0.0
 10
94.223336096181924
 20
17.087908946005115
 30
0.0
 10
94.224809719503924
 20
17.101042606841006
 30
0.0
 10
94.226283342825923
 20
17.114176267676896
 30
0.0
  0
SPLINE
  5
F6
100
AcDbEntity
  8
0
  6
CONTINUOUS
 62
               7
100
AcDbSpline
210
0.0
220
0.0
230
1.0
 70
               8
 71
               2
 72
              15
 73
              12
 74
               0
 42
0.000001
 43
0.000001
 40
0.0
 40
0.0
 40
0.0
 40
1.0
 40
1.0
 40
2.0
 40
3.0
 40
4.0
 40
5.0
 40
6.0
 40
7.0
 40
7.0
 40
8.0
 40
8.0
 40
8.0
 10
-76.875514108385602
 20
82.674077727419416
 30
0.0
 10
-76.884618513827434
 20
82.674790416947829
 30
0.0
 10
-76.893722919269266
 20
82.675503106476242
 30
0.0
 10
-77.167054807362064
 20
82.698450918759391
 30
0.0
 10
-77.786583477204175
 20
82.72950708760834
 30
0.0
 10
-78.433317329316409
 20
82.652154413311109
 30
0.0
 10
-78.923787534280791
 20
82.507369500255663
 30
0.0
 10
-79.323729034538331
 20
82.327346667961308
 30
0.0
 10
-79.837051585015004
 20
82.030135115354142
 30
0.0
 10
-80.173877893500219
 20
81.803029992496278
 30
0.0
 10
-80.185149848407107
 20
81.795542346478186
 30
0.0
 10
-80.196421803313996
 20
81.788054700460094
 30
0.0
  0
LINE
  5
F7
100
AcDbEntity
  8
0
  6
CONTINUOUS
 62
               7
100
AcDbLine
 10
-80.196421803350006
 20
81.788054700450004
 30
0.0
 11
-80.381848948850006
 21
81.587118188950001
 31
0.0
  0
SPLINE
  5
F8
100
AcDbEntity
  8
0
  6
CONTINUOUS
 62
               7
100
AcDbSpline
210
0.0
220
0.0
230
1.0
 70
               8
 71
               2
 72
              17
 73
              14
 74
               0
 42
0.000001
 43
0.000001
 40
0.0
 40
0.0
 40
0.0
 40
1.0
 40
1.0
 40
2.0
 40
3.0
 40
4.0
 40
5.0
 40
6.0
 40
7.0
 40
8.0
 40
9.0
 40
9.0
 40
10.0
 40
10.0
 40
10.0
 10
89.90286478826971
 20
15.35037040164471
 30
0.0
 10
89.90059933170744
 20
15.351123288120149
 30
0.0
 10
89.89833387514517
 20
15.351876174595589
 30
0.0
 10
89.830031491878401
 20
15.373080988513152
 30
0.0
 10
89.73325832341942
 20
15.41806771197372
 30
0.0
 10
89.623356018064612
 20
15.491560313073819
 30
0.0
 10
89.504346168520101
 20
15.691870281396973
 30
0.0
 10
89.39596137597664
 20
16.00764723601813
 30
0.0
 10
89.323060230342776
 20
16.407033083218494
 30
0.0
 10
89.296859846108589
 20
16.812384530692327
 30
0.0
 10
89.311141363623392
 20
17.153303994254259
 30
0.0
 10
89.317002378914196
 20
17.267275537378111
 30
0.0
 10
89.317192992958638
 20
17.271070291322658
 30
0.0
 10
89.31738360700308
 20
17.274865045267205
 30
0.0
  0
SPLINE
  5
F9
100
AcDbEntity
  8
0
  6
CONTINUOUS
 62
               7
100
AcDbSpline
210
0.0
220
0.0
230
1.0
 70
               8
 71
               2
 72
              15
 73
              12
 74
               0
 42
0.000001
 43
0.000001
 40
0.0
 40
0.0
 40
0.0
 40
1.0
 40
1.0
 40
2.0
 40
3.0
 40
4.0
 40
5.0
 40
6.0
 40
7.0
 40
7.0
 40
8.0
 40
8.0
 40
8.0
 10
90.180800293015011
 20
15.481241812515293
 30
0.0
 10
90.180646671966997
 20
15.481070390131805
 30
0.0
 10
90.180493050918983
 20
15.480898967748317
 30
0.0
 10
90.166659534645817
 20
15.465259294588236
 30
0.0
 10
90.13396466319108
 20
15.430857652440807
 30
0.0
 10
90.084657311524609
 20
15.392196153868895
 30
0.0
 10
90.024855388786193
 20
15.366289623120082
 30
0.0
 10
89.980385343384398
 20
15.357450961440492
 30
0.0
 10
89.936043341020877
 20
15.352168005014676
 30
0.0
 10
89.90470849278131
 20
15.350482808726127
 30
0.0
 10
89.90378664052551
 20
15.350426605185419
 30
0.0
 10
89.90286478826971
 20
15.35037040164471
 30
0.0
  0
SPLINE
  5
FA
100
AcDbEntity
  8
0
  6
CONTINUOUS
 62
               7
100
AcDbSpline
210
0.0
220
0.0
230
1.0
 70
               8
 71
               2
 72
              15
 73
              12
 74
               0
 42
0.000001
 43
0.000001
 40
0.0
 40
0.0
 40
0.0
 40
1.0
 40
1.0
 40
2.0
 40
3.0
 40
4.0
 40
5.0
 40
6.0
 40
7.0
 40
7.0
 40
8.0
 40
8.0
 40
8.0
 10
90.8932341223815
 20
17.506301834617403
 30
0.0
 10
90.892739552029582
 20
17.502465506724135
 30
0.0
 10
90.892244981677663
 20
17.498629178830868
 30
0.0
 10
90.863645013894768
 20
17.260070552204439
 30
0.0
 10
90.790915800060986
 20
16.8367163028486
 30
0.0
 10
90.688562507037545
 20
16.431822259524154
 30
0.0
 10
90.582714415763405
 20
16.122513491389384
 30
0.0
 10
90.500791115151912
 20
15.930981329062064
 30
0.0
 10
90.424922325547243
 20
15.777799336802758
 30
0.0
 10
90.386471753968294
 20
15.703382341031272
 30
0.0
 10
90.385191869627135
 20
15.700894153526832
 30
0.0
 10
90.383911985285977
 20
15.698405966022392
 30
0.0
  0
LINE
  5
FB
100
AcDbEntity
  8
0
  6
CONTINUOUS
 62
               7
100
AcDbLine
 10
89.29170986554999
 20
16.489211369650008
 30
0.0
 11
89.354222609750025
 21
16.23442619894999
 31
0.0
  0
SPLINE
  5
FC
100
AcDbEntity
  8
0
  6
CONTINUOUS
 62
               7
100
AcDbSpline
210
0.0
220
0.0
230
1.0
 70
               8
 71
               2
 72
              15
 73
              12
 74
               0
 42
0.000001
 43
0.000001
 40
0.0
 40
0.0
 40
0.0
 40
1.0
 40
1.0
 40
2.0
 40
3.0
 40
4.0
 40
5.0
 40
6.0
 40
7.0
 40
7.0
 40
8.0
 40
8.0
 40
8.0
 10
89.868866079245379
 20
15.370492642328799
 30
0.0
 10
89.868691903828164
 20
15.370249605726556
 30
0.0
 10
89.86851772841095
 20
15.370006569124314
 30
0.0
 10
89.852840457613297
 20
15.34775743810178
 30
0.0
 10
89.818826852551354
 20
15.3038465042452
 30
0.0
 10
89.772599017616244
 20
15.26138811137767
 30
0.0
 10
89.717570232569472
 20
15.235340582975908
 30
0.0
 10
89.676346184498868
 20
15.227851174220064
 30
0.0
 10
89.63513809701783
 20
15.224405984404939
 30
0.0
 10
89.605958267900689
 20
15.224305132840698
 30
0.0
 10
89.605100007832135
 20
15.224294615562002
 30
0.0
 10
89.604241747763581
 20
15.224284098283306
 30
0.0
  0
LINE
  5
FD
100
AcDbEntity
  8
0
  6
CONTINUOUS
 62
               7
100
AcDbLine
 10
89.952727792449991
 20
15.390089571549993
 30
0.0
 11
89.902864788249985
 21
15.350370401649997
 31
0.0
  0
POLYLINE
  5
FE
100
AcDbEntity
  8
0
  6
CONTINUOUS
 62
               7
100
AcDb2dPolyline
 66
               1
 10
0.0
 20
0.0
 30
0.0
 75
               5
  0
VERTEX
  5
FF
100
AcDbEntity
  8
0
  6
CONTINUOUS
 62
               7
100
AcDbVertex
100
AcDb2dVertex
 10
89.952727792449991
 20
15.390089571549993
 30
0.0
  0
VERTEX
  5
100
100
AcDbEntity
  8
0
  6
CONTINUOUS
 62
               7
100
AcDbVertex
100
AcDb2dVertex
 10
89.765345816050001
 20
15.497959743249993
 30
0.0
  0
VERTEX
  5
101
100
AcDbEntity
  8
0
  6
CONTINUOUS
 62
               7
100
AcDbVertex
100
AcDb2dVertex
 10
89.617666555350013
 20
15.773615486650016
 30
0.0
  0
VERTEX
  5
102
100
AcDbEntity
  8
0
  6
CONTINUOUS
 62
               7
100
AcDbVertex
100
AcDb2dVertex
 10
89.521646998050016
 20
16.194715931250016
 30
0.0
  0
VERTEX
  5
103
100
AcDbEntity
  8
0
  6
CONTINUOUS
 62
               7
100
AcDbVertex
100
AcDb2dVertex
 10
89.485068707649987
 20
16.727151416350011
 30
0.0
  0
VERTEX
  5
104
100
AcDbEntity
  8
0
  6
CONTINUOUS
 62
               7
100
AcDbVertex
100
AcDb2dVertex
 10
89.510895505349993
 20
17.327785170449999
 30
0.0
  0
VERTEX
  5
105
100
AcDbEntity
  8
0
  6
CONTINUOUS
 62
               7
100
AcDbVertex
100
AcDb2dVertex
 10
89.597035756250023
 20
17.94796090074999
 30
0.0
  0
VERTEX
  5
106
100
AcDbEntity
  8
0
  6
CONTINUOUS
 62
               7
100
AcDbVertex
100
AcDb2dVertex
 10
89.736506637649995
 20
18.537428880350006
 30
0.0
  0
VERTEX
  5
107
100
AcDbEntity
  8
0
  6
CONTINUOUS
 62
               7
100
AcDbVertex
100
AcDb2dVertex
 10
89.918014041150002
 20
19.048439812249995
 30
0.0
  0
VERTEX
  5
108
100
AcDbEntity
  8
0
  6
CONTINUOUS
 62
               7
100
AcDbVertex
100
AcDb2dVertex
 10
90.12685175255001
 20
19.439592631050004
 30
0.0
  0
VERTEX
  5
109
100
AcDbEntity
  8
0
  6
CONTINUOUS
 62
               7
100
AcDbVertex
100
AcDb2dVertex
 10
90.346097381349978
 20
19.679195835650006
 30
0.0
  0
VERTEX
  5
10A
100
AcDbEntity
  8
0
  6
CONTINUOUS
 62
               7
100
AcDbVertex
100
AcDb2dVertex
 10
90.557994005849991
 20
19.747842344550008
 30
0.0
  0
SEQEND
  5
10B
100
AcDbEntity
  8
0
  6
CONTINUOUS
 62
               7
  0
LINE
  5
10C
100
AcDbEntity
  8
0
  6
CONTINUOUS
 62
               7
100
AcDbLine
 10
90.757254420950005
 20
18.24416980174999
 30
0.0
 11
90.558701248850014
 21
16.814651327349992
 31
0.0
  0
LINE
  5
10D
100
AcDbEntity
  8
0
  6
CONTINUOUS
 62
               7
100
AcDbLine
 10
90.453911465649981
 20
18.998482322549989
 30
0.0
 11
90.757254420950005
 21
18.24416980174999
 31
0.0
  0
LINE
  5
10E
100
AcDbEntity
  8
0
  6
CONTINUOUS
 62
               7
100
AcDbLine
 10
89.952020549550014
 20
18.323280588750009
 30
0.0
 11
90.453911465649981
 21
18.998482322549989
 31
0.0
  0
LINE
  5
10F
100
AcDbEntity
  8
0
  6
CONTINUOUS
 62
               7
100
AcDbLine
 10
89.75346738395001
 20
16.893762980750012
 30
0.0
 11
89.952020549550014
 21
18.323280588750009
 31
0.0
  0
LINE
  5
110
100
AcDbEntity
  8
0
  6
CONTINUOUS
 62
               7
100
AcDbLine
 10
90.056810339249978
 20
16.139450459950012
 30
0.0
 11
89.75346738395001
 21
16.893762980750012
 31
0.0
  0
LINE
  5
111
100
AcDbEntity
  8
0
  6
CONTINUOUS
 62
               7
100
AcDbLine
 10
90.558701248850014
 20
16.814651327349992
 30
0.0
 11
90.056810339249978
 21
16.139450459950012
 31
0.0
  0
POLYLINE
  5
112
100
AcDbEntity
  8
0
  6
CONTINUOUS
 62
               7
100
AcDb2dPolyline
 66
               1
 10
0.0
 20
0.0
 30
0.0
 75
               5
  0
VERTEX
  5
113
100
AcDbEntity
  8
0
  6
CONTINUOUS
 62
               7
100
AcDbVertex
100
AcDb2dVertex
 10
90.557994005849991
 20
19.747842344550008
 30
0.0
  0
VERTEX
  5
114
100
AcDbEntity
  8
0
  6
CONTINUOUS
 62
               7
100
AcDbVertex
100
AcDb2dVertex
 10
90.690422109749989
 20
19.692395207850012
 30
0.0
  0
VERTEX
  5
115
100
AcDbEntity
  8
0
  6
CONTINUOUS
 62
               7
100
AcDbVertex
100
AcDb2dVertex
 10
90.806131650849977
 20
19.555346171650001
 30
0.0
  0
VERTEX
  5
116
100
AcDbEntity
  8
0
  6
CONTINUOUS
 62
               7
100
AcDbVertex
100
AcDb2dVertex
 10
90.900671605750006
 20
19.34195853495001
 30
0.0
  0
VERTEX
  5
117
100
AcDbEntity
  8
0
  6
CONTINUOUS
 62
               7
100
AcDbVertex
100
AcDb2dVertex
 10
90.970415975549997
 20
19.060438628450015
 30
0.0
  0
VERTEX
  5
118
100
AcDbEntity
  8
0
  6
CONTINUOUS
 62
               7
100
AcDbVertex
100
AcDb2dVertex
 10
91.012680395650023
 20
18.721601417149998
 30
0.0
  0
VERTEX
  5
119
100
AcDbEntity
  8
0
  6
CONTINUOUS
 62
               7
100
AcDbVertex
100
AcDb2dVertex
 10
91.025843440449989
 20
18.338471880149996
 30
0.0
  0
VERTEX
  5
11A
100
AcDbEntity
  8
0
  6
CONTINUOUS
 62
               7
100
AcDbVertex
100
AcDb2dVertex
 10
91.009394518049987
 20
17.925767532349994
 30
0.0
  0
VERTEX
  5
11B
100
AcDbEntity
  8
0
  6
CONTINUOUS
 62
               7
100
AcDbVertex
100
AcDb2dVertex
 10
90.963971191550002
 20
17.499352579749996
 30
0.0
  0
SEQEND
  5
11C
100
AcDbEntity
  8
0
  6
CONTINUOUS
 62
               7
  0
LINE
  5
11D
100
AcDbEntity
  8
0
  6
CONTINUOUS
 62
               7
100
AcDbLine
 10
90.893234122350009
 20
17.506301834650003
 30
0.0
 11
90.963971191550002
 21
17.499352579749996
 31
0.0
  0
ARC
  5
11E
100
AcDbEntity
  8
0
  6
CONTINUOUS
 62
               7
100
AcDbCircle
 10
89.892612504349984
 20
15.929831707850013
 30
0.0
 40
0.5430795719770323
100
AcDbArc
 50
276.35528474020072
 51
334.77680577929749
  0
LINE
  5
11F
100
AcDbEntity
  8
0
  6
CONTINUOUS
 62
               7
100
AcDbLine
 10
89.976579562350025
 20
18.356330755849996
 30
0.0
 11
90.757254420950005
 21
18.24416980174999
 31
0.0
  0
LINE
  5
120
100
AcDbEntity
  8
0
  6
CONTINUOUS
 62
               7
100
AcDbLine
 10
89.758444268250003
 20
16.929625679949993
 30
0.0
 11
90.558701248850014
 21
16.814651327349992
 31
0.0
  0
SPLINE
  5
121
100
AcDbEntity
  8
0
  6
CONTINUOUS
 62
               7
100
AcDbSpline
210
0.0
220
0.0
230
1.0
 70
               8
 71
               2
 72
              16
 73
              13
 74
               0
 42
0.000001
 43
0.000001
 40
0.0
 40
0.0
 40
0.0
 40
1.0
 40
1.0
 40
2.0
 40
3.0
 40
4.0
 40
5.0
 40
6.0
 40
7.0
 40
8.0
 40
8.0
 40
9.0
 40
9.0
 40
9.0
 10
90.134219607515774
 20
47.117116656960206
 30
0.0
 10
90.135825900560008
 20
47.12033133110539
 30
0.0
 10
90.137432193604241
 20
47.123546005250574
 30
0.0
 10
90.204819090492208
 20
47.260443516812671
 30
0.0
 10
90.321325857647537
 20
47.474885153367836
 30
0.0
 10
90.441609020223382
 20
47.648399578696257
 30
0.0
 10
90.564341103554682
 20
47.74534527230594
 30
0.0
 10
90.684244197606063
 20
47.774027839618725
 30
0.0
 10
90.783849083322764
 20
47.713419396365396
 30
0.0
 10
90.855105457201432
 20
47.640945145844114
 30
0.0
 10
90.890076112438294
 20
47.600924611135525
 30
0.0
 10
90.891244105211399
 20
47.599603852184657
 30
0.0
 10
90.892412097984504
 20
47.598283093233789
 30
0.0
  0
SPLINE
  5
122
100
AcDbEntity
  8
0
  6
CONTINUOUS
 62
               7
100
AcDbSpline
210
0.0
220
0.0
230
1.0
 70
               8
 71
               2
 72
              13
 73
              10
 74
               0
 42
0.000001
 43
0.000001
 40
0.0
 40
0.0
 40
0.0
 40
1.0
 40
1.0
 40
2.0
 40
3.0
 40
4.0
 40
5.0
 40
5.0
 40
6.0
 40
6.0
 40
6.0
 10
89.837610978839678
 20
46.029402619868108
 30
0.0
 10
89.838305748610566
 20
46.033016446856095
 30
0.0
 10
89.839000518381454
 20
46.036630273844082
 30
0.0
 10
89.88089787334161
 20
46.263214019776854
 30
0.0
 10
89.962890548101768
 20
46.619341617511395
 30
0.0
 10
90.036718915548761
 20
46.85177242856858
 30
0.0
 10
90.099845529221852
 20
47.025810972754272
 30
0.0
 10
90.132075557864198
 20
47.11140076749129
 30
0.0
 10
90.133147582689986
 20
47.114258712225748
 30
0.0
 10
90.134219607515774
 20
47.117116656960206
 30
0.0
  0
SPLINE
  5
123
100
AcDbEntity
  8
0
  6
CONTINUOUS
 62
               7
100
AcDbSpline
210
0.0
220
0.0
230
1.0
 70
               8
 71
               2
 72
              14
 73
              11
 74
               0
 42
0.000001
 43
0.000001
 40
0.0
 40
0.0
 40
0.0
 40
1.0
 40
1.0
 40
2.0
 40
3.0
 40
4.0
 40
5.0
 40
6.0
 40
6.0
 40
7.0
 40
7.0
 40
7.0
 10
89.809225785576473
 20
44.143641406064404
 30
0.0
 10
89.808705369203949
 20
44.146407303933387
 30
0.0
 10
89.808184952831425
 20
44.14917320180237
 30
0.0
 10
89.783415393427617
 20
44.274860318177474
 30
0.0
 10
89.74179802535059
 20
44.555449300674212
 30
0.0
 10
89.727293702405973
 20
44.940149965243506
 30
0.0
 10
89.745176510778037
 20
45.358708954969217
 30
0.0
 10
89.797168355052804
 20
45.785132114098758
 30
0.0
 10
89.836379166778443
 20
46.02177337180683
 30
0.0
 10
89.836991586744631
 20
46.02558893034201
 30
0.0
 10
89.837604006710819
 20
46.029404488877191
 30
0.0
  0
SPLINE
  5
124
100
AcDbEntity
  8
0
  6
CONTINUOUS
 62
               7
100
AcDbSpline
210
0.0
220
0.0
230
1.0
 70
               8
 71
               2
 72
              17
 73
              14
 74
               0
 42
0.000001
 43
0.000001
 40
0.0
 40
0.0
 40
0.0
 40
1.0
 40
1.0
 40
2.0
 40
3.0
 40
4.0
 40
5.0
 40
6.0
 40
7.0
 40
8.0
 40
9.0
 40
9.0
 40
10.0
 40
10.0
 40
10.0
 10
90.171270831652976
 20
47.238428086991092
 30
0.0
 10
90.171224442831061
 20
47.238380908823487
 30
0.0
 10
90.171178054009147
 20
47.238333730655881
 30
0.0
 10
90.116720552802406
 20
47.181376395800157
 30
0.0
 10
90.024110666934916
 20
46.961331804753144
 30
0.0
 10
89.929959867965465
 20
46.678911833942493
 30
0.0
 10
89.808408364923082
 20
46.206575943420262
 30
0.0
 10
89.738705571075741
 20
45.684900977434978
 30
0.0
 10
89.710310286145045
 20
45.294503342752904
 30
0.0
 10
89.70876553971749
 20
44.74410522976018
 30
0.0
 10
89.780037626119793
 20
44.300439043285905
 30
0.0
 10
89.807423669668935
 20
44.153468297358216
 30
0.0
 10
89.808324727622704
 20
44.14855485171131
 30
0.0
 10
89.809225785576473
 20
44.143641406064404
 30
0.0
  0
LINE
  5
125
100
AcDbEntity
  8
0
  6
CONTINUOUS
 62
               7
100
AcDbLine
 10
89.530170972849987
 20
43.954956903950006
 30
0.0
 11
89.809225785549984
 21
44.143641406049994
 31
0.0
  0
SPLINE
  5
126
100
AcDbEntity
  8
0
  6
CONTINUOUS
 62
               7
100
AcDbSpline
210
0.0
220
0.0
230
1.0
 70
               8
 71
               2
 72
              16
 73
              13
 74
               0
 42
0.000001
 43
0.000001
 40
0.0
 40
0.0
 40
0.0
 40
1.0
 40
1.0
 40
2.0
 40
3.0
 40
4.0
 40
5.0
 40
6.0
 40
7.0
 40
8.0
 40
8.0
 40
9.0
 40
9.0
 40
9.0
 10
90.442663136621775
 20
47.828207525284597
 30
0.0
 10
90.442837128249124
 20
47.82808707228051
 30
0.0
 10
90.443011119876473
 20
47.827966619276424
 30
0.0
 10
90.451049256042324
 20
47.822547083324025
 30
0.0
 10
90.469535756692665
 20
47.808467861428426
 30
0.0
 10
90.488988932375662
 20
47.782212615846589
 30
0.0
 10
90.500465703574434
 20
47.751731838595276
 30
0.0
 10
90.510444243119991
 20
47.717689965878691
 30
0.0
 10
90.521291332064493
 20
47.663665090218927
 30
0.0
 10
90.530121697660206
 20
47.608312513990796
 30
0.0
 10
90.534344924216839
 20
47.579961722993971
 30
0.0
 10
90.534486368031907
 20
47.579019049480181
 30
0.0
 10
90.534627811846974
 20
47.57807637596639
 30
0.0
  0
LINE
  5
127
100
AcDbEntity
  8
0
  6
CONTINUOUS
 62
               7
100
AcDbLine
 10
90.138200505349971
 20
44.098748987249991
 30
0.0
 11
89.958421970250015
 21
45.159486313949998
 31
0.0
  0
LINE
  5
128
100
AcDbEntity
  8
0
  6
CONTINUOUS
 62
               7
100
AcDbLine
 10
90.637271575050022
 20
44.399241076650014
 30
0.0
 11
90.138200505349971
 21
44.098748987249991
 31
0.0
  0
LINE
  5
129
100
AcDbEntity
  8
0
  6
CONTINUOUS
 62
               7
100
AcDbLine
 10
90.956564116050004
 20
45.760471359149989
 30
0.0
 11
90.637271575050022
 21
44.399241076650014
 31
0.0
  0
LINE
  5
12A
100
AcDbEntity
  8
0
  6
CONTINUOUS
 62
               7
100
AcDbLine
 10
90.776785580949991
 20
46.821208685849996
 30
0.0
 11
90.956564116050004
 21
45.760471359149989
 31
0.0
  0
LINE
  5
12B
100
AcDbEntity
  8
0
  6
CONTINUOUS
 62
               7
100
AcDbLine
 10
90.277714504750008
 20
46.52071573005
 30
0.0
 11
90.776785580949991
 21
46.821208685849996
 31
0.0
  0
LINE
  5
12C
100
AcDbEntity
  8
0
  6
CONTINUOUS
 62
               7
100
AcDbLine
 10
89.958421970250015
 20
45.159486313949998
 30
0.0
 11
90.277714504750008
 21
46.52071573005
 31
0.0
  0
POLYLINE
  5
12D
100
AcDbEntity
  8
0
  6
CONTINUOUS
 62
               7
100
AcDb2dPolyline
 66
               1
 10
0.0
 20
0.0
 30
0.0
 75
               5
  0
VERTEX
  5
12E
100
AcDbEntity
  8
0
  6
CONTINUOUS
 62
               7
100
AcDbVertex
100
AcDb2dVertex
 10
90.183473712750015
 20
47.076758869850011
 30
0.0
  0
VERTEX
  5
12F
100
AcDbEntity
  8
0
  6
CONTINUOUS
 62
               7
100
AcDbVertex
100
AcDb2dVertex
 10
90.397465075750006
 20
47.423250143950014
 30
0.0
  0
VERTEX
  5
130
100
AcDbEntity
  8
0
  6
CONTINUOUS
 62
               7
100
AcDbVertex
100
AcDb2dVertex
 10
90.61632261074999
 20
47.610689820250002
 30
0.0
  0
VERTEX
  5
131
100
AcDbEntity
  8
0
  6
CONTINUOUS
 62
               7
100
AcDbVertex
100
AcDb2dVertex
 10
90.822310854850002
 20
47.623891141049995
 30
0.0
  0
VERTEX
  5
132
100
AcDbEntity
  8
0
  6
CONTINUOUS
 62
               7
100
AcDbVertex
100
AcDb2dVertex
 10
90.998738244749973
 20
47.461779340050015
 30
0.0
  0
VERTEX
  5
133
100
AcDbEntity
  8
0
  6
CONTINUOUS
 62
               7
100
AcDbVertex
100
AcDb2dVertex
 10
91.131325356850027
 20
47.137501555249997
 30
0.0
  0
VERTEX
  5
134
100
AcDbEntity
  8
0
  6
CONTINUOUS
 62
               7
100
AcDbVertex
100
AcDb2dVertex
 10
91.209315306650012
 20
46.677313602650003
 30
0.0
  0
VERTEX
  5
135
100
AcDbEntity
  8
0
  6
CONTINUOUS
 62
               7
100
AcDbVertex
100
AcDb2dVertex
 10
91.226400812550025
 20
46.118508019350003
 30
0.0
  0
VERTEX
  5
136
100
AcDbEntity
  8
0
  6
CONTINUOUS
 62
               7
100
AcDbVertex
100
AcDb2dVertex
 10
91.181193172049973
 20
45.50635205735
 30
0.0
  0
VERTEX
  5
137
100
AcDbEntity
  8
0
  6
CONTINUOUS
 62
               7
100
AcDbVertex
100
AcDb2dVertex
 10
91.077355317150023
 20
44.890438516849997
 30
0.0
  0
VERTEX
  5
138
100
AcDbEntity
  8
0
  6
CONTINUOUS
 62
               7
100
AcDbVertex
100
AcDb2dVertex
 10
90.923302185650016
 20
44.32066813694999
 30
0.0
  0
VERTEX
  5
139
100
AcDbEntity
  8
0
  6
CONTINUOUS
 62
               7
100
AcDbVertex
100
AcDb2dVertex
 10
90.731507149149991
 20
43.843192850650013
 30
0.0
  0
SEQEND
  5
13A
100
AcDbEntity
  8
0
  6
CONTINUOUS
 62
               7
  0
POLYLINE
  5
13B
100
AcDbEntity
  8
0
  6
CONTINUOUS
 62
               7
100
AcDb2dPolyline
 66
               1
 10
0.0
 20
0.0
 30
0.0
 75
               5
  0
VERTEX
  5
13C
100
AcDbEntity
  8
0
  6
CONTINUOUS
 62
               7
100
AcDbVertex
100
AcDb2dVertex
 10
90.731507149149991
 20
43.843192850650013
 30
0.0
  0
VERTEX
  5
13D
100
AcDbEntity
  8
0
  6
CONTINUOUS
 62
               7
100
AcDbVertex
100
AcDb2dVertex
 10
90.585748153150007
 20
43.588977259050012
 30
0.0
  0
VERTEX
  5
13E
100
AcDbEntity
  8
0
  6
CONTINUOUS
 62
               7
100
AcDbVertex
100
AcDb2dVertex
 10
90.435056388250018
 20
43.406659891850012
 30
0.0
  0
VERTEX
  5
13F
100
AcDbEntity
  8
0
  6
CONTINUOUS
 62
               7
100
AcDbVertex
100
AcDb2dVertex
 10
90.285228879249985
 20
43.303251963250005
 30
0.0
  0
VERTEX
  5
140
100
AcDbEntity
  8
0
  6
CONTINUOUS
 62
               7
100
AcDbVertex
100
AcDb2dVertex
 10
90.142024227450008
 20
43.282729254650008
 30
0.0
  0
VERTEX
  5
141
100
AcDbEntity
  8
0
  6
CONTINUOUS
 62
               7
100
AcDbVertex
100
AcDb2dVertex
 10
90.010938683449979
 20
43.345872320750004
 30
0.0
  0
VERTEX
  5
142
100
AcDbEntity
  8
0
  6
CONTINUOUS
 62
               7
100
AcDbVertex
100
AcDb2dVertex
 10
89.89701444855001
 20
43.490259370950014
 30
0.0
  0
VERTEX
  5
143
100
AcDbEntity
  8
0
  6
CONTINUOUS
 62
               7
100
AcDbVertex
100
AcDb2dVertex
 10
89.804627875249992
 20
43.710341038949991
 30
0.0
  0
VERTEX
  5
144
100
AcDbEntity
  8
0
  6
CONTINUOUS
 62
               7
100
AcDbVertex
100
AcDb2dVertex
 10
89.737335777150008
 20
43.99766553424999
 30
0.0
  0
SEQEND
  5
145
100
AcDbEntity
  8
0
  6
CONTINUOUS
 62
               7
  0
LINE
  5
146
100
AcDbEntity
  8
0
  6
CONTINUOUS
 62
               7
100
AcDbLine
 10
89.809225785549984
 20
44.143641406049994
 30
0.0
 11
89.737335777150008
 21
43.99766553424999
 31
0.0
  0
ARC
  5
147
100
AcDbEntity
  8
0
  6
CONTINUOUS
 62
               7
100
AcDbCircle
 10
94.422559927650013
 20
45.096089116049995
 30
0.0
 40
4.6789854253902243
100
AcDbArc
 50
154.95614729390013
 51
168.49401201750004
  0
LINE
  5
148
100
AcDbEntity
  8
0
  6
CONTINUOUS
 62
               7
100
AcDbLine
 10
90.183473712750015
 20
47.076758869850011
 30
0.0
 11
90.134219607549994
 21
47.117116656950003
 31
0.0
  0
LINE
  5
149
100
AcDbEntity
  8
0
  6
CONTINUOUS
 62
               7
100
AcDbLine
 10
89.737335777150008
 20
43.99766553424999
 30
0.0
 11
89.532899945450026
 21
43.911928136450001
 31
0.0
  0
LINE
  5
14A
100
AcDbEntity
  8
0
  6
CONTINUOUS
 62
               7
100
AcDbLine
 10
90.637271575050022
 20
44.399241076650014
 30
0.0
 11
90.073542341749999
 21
44.480233064450005
 31
0.0
  0
LINE
  5
14B
100
AcDbEntity
  8
0
  6
CONTINUOUS
 62
               7
100
AcDbLine
 10
90.956564116050004
 20
45.760471359149989
 30
0.0
 11
90.127331736149983
 21
45.87960865925001
 31
0.0
  0
ARC
  5
14C
100
AcDbEntity
  8
0
  6
CONTINUOUS
 62
               8
100
AcDbCircle
 10
91.307145468950011
 20
36.669705402749997
 30
0.0
 40
1.8107577864309208
100
AcDbArc
 50
336.65673303390054
 51
13.571777011700194
  0
LINE
  5
14D
100
AcDbEntity
  8
0
  6
CONTINUOUS
 62
               8
100
AcDbLine
 10
92.96968806404999
 20
35.952212628950008
 30
0.0
 11
93.082216123750015
 21
35.365693228449999
 31
0.0
  0
SPLINE
  5
14E
100
AcDbEntity
  8
0
  6
CONTINUOUS
 62
               8
100
AcDbSpline
210
0.0
220
0.0
230
1.0
 70
               8
 71
               2
 72
              18
 73
              15
 74
               0
 42
0.000001
 43
0.000001
 40
0.0
 40
0.0
 40
0.0
 40
1.0
 40
1.0
 40
2.0
 40
3.0
 40
4.0
 40
5.0
 40
6.0
 40
7.0
 40
8.0
 40
9.0
 40
10.0
 40
10.0
 40
11.0
 40
11.0
 40
11.0
 10
91.524461853022785
 20
24.712423435996499
 30
0.0
 10
91.522279973049507
 20
24.707766664145879
 30
0.0
 10
91.520098093076228
 20
24.703109892295259
 30
0.0
 10
91.454727709073325
 20
24.562747039447885
 30
0.0
 10
91.177138722282905
 20
23.991662464876953
 30
0.0
 10
90.854365123184039
 20
23.57914977491123
 30
0.0
 10
90.457032588920811
 20
23.144941880498635
 30
0.0
 10
89.961461942546634
 20
22.872946540312569
 30
0.0
 10
89.46141101597118
 20
22.827756894345356
 30
0.0
 10
88.971521178355545
 20
23.183871530874285
 30
0.0
 10
88.601172908863305
 20
23.774700190610105
 30
0.0
 10
88.396148195210856
 20
24.40894372158516
 30
0.0
 10
88.330288063582316
 20
24.630696760598994
 30
0.0
 10
88.328081823198914
 20
24.638056247161643
 30
0.0
 10
88.325875582815513
 20
24.645415733724292
 30
0.0
  0
SPLINE
  5
14F
100
AcDbEntity
  8
0
  6
CONTINUOUS
 62
               8
100
AcDbSpline
210
0.0
220
0.0
230
1.0
 70
               8
 71
               2
 72
              14
 73
              11
 74
               0
 42
0.000001
 43
0.000001
 40
0.0
 40
0.0
 40
0.0
 40
1.0
 40
1.0
 40
2.0
 40
3.0
 40
4.0
 40
5.0
 40
6.0
 40
6.0
 40
7.0
 40
7.0
 40
7.0
 10
78.808368638885895
 20
4.0261834000388887
 30
0.0
 10
78.807793016893584
 20
4.0177542123585113
 30
0.0
 10
78.807217394901272
 20
4.0093250246781338
 30
0.0
 10
78.791379813342132
 20
3.7559905651340273
 30
0.0
 10
78.736626808518793
 20
3.1909432367796455
 30
0.0
 10
78.535402163659796
 20
2.4789978868538753
 30
0.0
 10
78.104141761299331
 20
1.6297596712138329
 30
0.0
 10
77.591398971320586
 20
1.1067896120197247
 30
0.0
 10
77.4359873778061
 20
0.9592644766321712
 30
0.0
 10
77.430827503861963
 20
0.9543290591774394
 30
0.0
 10
77.425667629917825
 20
0.9493936417227076
 30
0.0
  0
LINE
  5
150
100
AcDbEntity
  8
0
  6
CONTINUOUS
 62
               8
100
AcDbLine
 10
90.132887067750005
 20
43.149869866649993
 30
0.0
 11
90.425962902749973
 21
43.107763136950012
 31
0.0
  0
LINE
  5
151
100
AcDbEntity
  8
0
  6
CONTINUOUS
 62
               8
100
AcDbLine
 10
29.828795986249986
 20
19.146546914350012
 30
0.0
 11
30.120344151950007
 21
19.16337607425001
 31
0.0
  0
LINE
  5
152
100
AcDbEntity
  8
0
  6
CONTINUOUS
 62
               8
100
AcDbLine
 10
29.828795986249986
 20
19.146546914350012
 30
0.0
 11
29.241004330849989
 21
19.230995993449994
 31
0.0
  0
SPLINE
  5
153
100
AcDbEntity
  8
0
  6
CONTINUOUS
 62
               8
100
AcDbSpline
210
0.0
220
0.0
230
1.0
 70
               8
 71
               2
 72
              16
 73
              13
 74
               0
 42
0.000001
 43
0.000001
 40
0.0
 40
0.0
 40
0.0
 40
1.0
 40
1.0
 40
2.0
 40
3.0
 40
4.0
 40
5.0
 40
6.0
 40
7.0
 40
8.0
 40
8.0
 40
9.0
 40
9.0
 40
9.0
 10
29.889722100936808
 20
19.167657892526307
 30
0.0
 10
29.889707949298298
 20
19.167667252175676
 30
0.0
 10
29.889693797659788
 20
19.167676611825044
 30
0.0
 10
29.88791368600036
 20
19.168878538471915
 30
0.0
 10
29.879206611871524
 20
19.174018509927521
 30
0.0
 10
29.86751758073342
 20
19.172277057127985
 30
0.0
 10
29.859100335209575
 20
19.168810326305845
 30
0.0
 10
29.850447818863159
 20
19.16356728973085
 30
0.0
 10
29.841628285931876
 20
19.157063270103265
 30
0.0
 10
29.83326847771778
 20
19.150274951921318
 30
0.0
 10
29.829075449121007
 20
19.146781702317412
 30
0.0
 10
29.828935727493558
 20
19.146665607909014
 30
0.0
 10
29.82879600586611
 20
19.146549513500617
 30
0.0
  0
LINE
  5
154
100
AcDbEntity
  8
0
  6
CONTINUOUS
 62
               8
100
AcDbLine
 10
89.560967827549973
 20
15.294000489950008
 30
0.0
 11
90.215559223250011
 21
15.199954172649996
 31
0.0
  0
LINE
  5
155
100
AcDbEntity
  8
0
  6
CONTINUOUS
 62
               8
100
AcDbLine
 10
-45.044613271850011
 20
49.802177807550009
 30
0.0
 11
-45.088713335750015
 21
49.598929887550014
 31
0.0
  0
LINE
  5
156
100
AcDbEntity
  8
0
  6
CONTINUOUS
 62
               8
100
AcDbLine
 10
-45.094684711149995
 20
48.80689049854999
 30
0.0
 11
-45.088713335750015
 21
49.598929887550014
 31
0.0
  0
LINE
  5
157
100
AcDbEntity
  8
0
  6
CONTINUOUS
 62
               8
100
AcDbLine
 10
-45.088713335750015
 20
49.598929887550014
 30
0.0
 11
-45.070480596349995
 21
49.65681682204999
 31
0.0
  0
SPLINE
  5
158
100
AcDbEntity
  8
0
  6
CONTINUOUS
 62
               8
100
AcDbSpline
210
0.0
220
0.0
230
1.0
 70
               8
 71
               2
 72
              15
 73
              12
 74
               0
 42
0.000001
 43
0.000001
 40
0.0
 40
0.0
 40
0.0
 40
1.0
 40
1.0
 40
2.0
 40
3.0
 40
4.0
 40
5.0
 40
6.0
 40
7.0
 40
7.0
 40
8.0
 40
8.0
 40
8.0
 10
-94.172984786284104
 20
66.195231871063299
 30
0.0
 10
-94.169656128854896
 20
66.198989016318009
 30
0.0
 10
-94.166327471425689
 20
66.202746161572719
 30
0.0
 10
-94.066970743149923
 20
66.315994904092463
 30
0.0
 10
-93.648652360220069
 20
66.759088738735812
 30
0.0
 10
-92.727603920426304
 20
67.275686691652112
 30
0.0
 10
-91.901438728794943
 20
67.481205051718348
 30
0.0
 10
-91.312903725873383
 20
67.543690679058329
 30
0.0
 10
-90.7367087617923
 20
67.512950198840315
 30
0.0
 10
-90.479832994905479
 20
67.490590694433592
 30
0.0
 10
-90.471275117476949
 20
67.489876461403298
 30
0.0
 10
-90.462717240048406
 20
67.489162228373004
 30
0.0
  0
LINE
  5
159
100
AcDbEntity
  8
0
  6
CONTINUOUS
 62
               8
100
AcDbLine
 10
30.323416118750004
 20
38.175037452650002
 30
0.0
 11
29.668168518950012
 21
37.53633084354999
 31
0.0
  0
LINE
  5
15A
100
AcDbEntity
  8
0
  6
CONTINUOUS
 62
               8
100
AcDbLine
 10
28.738520086649999
 20
38.601162309350002
 30
0.0
 11
29.342037063550009
 21
39.189444177149994
 31
0.0
  0
LINE
  5
15B
100
AcDbEntity
  8
0
  6
CONTINUOUS
 62
               8
100
AcDbLine
 10
-81.102036434550001
 20
80.905301294749989
 30
0.0
 11
-80.196421803350006
 21
81.788054700450004
 31
0.0
  0
LINE
  5
15C
100
AcDbEntity
  8
0
  6
CONTINUOUS
 62
               8
100
AcDbLine
 10
90.557994005849991
 20
19.747842344550008
 30
0.0
 11
90.371624493849993
 21
20.01021453125
 31
0.0
  0
ENDBLK
  5
15D
100
AcDbEntity
  8
__
100
AcDbBlockEnd
  0
ENDSEC
  0
SECTION
  2
ENTITIES
  0
INSERT
  5
15E
100
AcDbEntity
  8
__
 62
               7
100
AcDbBlockReference
  2
*U0
 10
210.0
 20
148.5
 30
0.0
  0
MTEXT
  5
15F
100
AcDbEntity
  8
0
 62
               7
100
AcDbMText
 10
270.0
 20
125.26975
 30
0.0
 40
2.910416666666666
 41
0.0
 71
               1
 72
               1
  1
HBA-D26G\PHBA-D26S
  7
________
  0
ENDSEC
  0
SECTION
  2
OBJECTS
  0
DICTIONARY
  5
19
100
AcDbDictionary
  3
ACAD_GROUP
350
1A
  3
ACAD_MLINESTYLE
350
1B
  0
DICTIONARY
  5
1A
102
{ACAD_REACTORS
330
19
102
}
100
AcDbDictionary
  0
DICTIONARY
  5
1B
102
{ACAD_REACTORS
330
19
102
}
100
AcDbDictionary
  3
STANDARD
350
1C
  0
MLINESTYLE
  5
1C
102
{ACAD_REACTORS
330
1B
102
}
100
AcDbMlineStyle
  2
STANDARD
 70
               0
  3

 62
               0
 51
90.0
 52
90.0
 71
               2
 49
0.5
 62
             256
  6
BYLAYER
 49
-0.5
 62
             256
  6
BYLAYER
  0
ENDSEC
  0
EOF
