  0
SECTION
  2
HEADER
  9
$ACADVER
  1
AC1015
  9
$ACADMAINTVER
 70
     6
  9
$DWGCODEPAGE
  3
DOS932
  9
$INSBASE
 10
0.0
 20
0.0
 30
0.0
  9
$EXTMIN
 10
0.0
 20
0.0
 30
0.0
  9
$EXTMAX
 10
210.0
 20
297.0
 30
0.0
  9
$LIMMIN
 10
0.0
 20
0.0
  9
$LIMMAX
 10
210.0
 20
297.0
  9
$ORTHOMODE
 70
     0
  9
$REGENMODE
 70
     1
  9
$FILLMODE
 70
     1
  9
$QTEXTMODE
 70
     0
  9
$MIRRTEXT
 70
     1
  9
$LTSCALE
 40
1.0
  9
$ATTMODE
 70
     1
  9
$TEXTSIZE
 40
3.5
  9
$TRACEWID
 40
1.0
  9
$TEXTSTYLE
  7
Standard
  9
$CLAYER
  8
0
  9
$CELTYPE
  6
ByLayer
  9
$CECOLOR
 62
   256
  9
$CELTSCALE
 40
1.0
  9
$DISPSILH
 70
     0
  9
$DIMSCALE
 40
1.0
  9
$DIMASZ
 40
1.5
  9
$DIMEXO
 40
1.0
  9
$DIMDLI
 40
3.75
  9
$DIMRND
 40
0.0
  9
$DIMDLE
 40
0.0
  9
$DIMEXE
 40
1.0
  9
$DIMTP
 40
0.0
  9
$DIMTM
 40
0.0
  9
$DIMTXT
 40
3.5
  9
$DIMCEN
 40
2.5
  9
$DIMTSZ
 40
0.0
  9
$DIMTOL
 70
     0
  9
$DIMLIM
 70
     0
  9
$DIMTIH
 70
     1
  9
$DIMTOH
 70
     1
  9
$DIMSE1
 70
     0
  9
$DIMSE2
 70
     0
  9
$DIMTAD
 70
     1
  9
$DIMZIN
 70
     0
  9
$DIMBLK
  1

  9
$DIMASO
 70
     1
  9
$DIMSHO
 70
     1
  9
$DIMPOST
  1

  9
$DIMAPOST
  1

  9
$DIMALT
 70
     0
  9
$DIMALTD
 70
     3
  9
$DIMALTF
 40
0.0393700787
  9
$DIMLFAC
 40
5.0
  9
$DIMTOFL
 70
     1
  9
$DIMTVP
 40
0.0
  9
$DIMTIX
 70
     0
  9
$DIMSOXD
 70
     0
  9
$DIMSAH
 70
     0
  9
$DIMBLK1
  1

  9
$DIMBLK2
  1

  9
$DIMSTYLE
  2
ISO-25
  9
$DIMCLRD
 70
     0
  9
$DIMCLRE
 70
     0
  9
$DIMCLRT
 70
     0
  9
$DIMTFAC
 40
1.0
  9
$DIMGAP
 40
1.5
  9
$DIMJUST
 70
     0
  9
$DIMSD1
 70
     0
  9
$DIMSD2
 70
     0
  9
$DIMTOLJ
 70
     0
  9
$DIMTZIN
 70
     0
  9
$DIMALTZ
 70
     0
  9
$DIMALTTZ
 70
     0
  9
$DIMUPT
 70
     0
  9
$DIMDEC
 70
     1
  9
$DIMTDEC
 70
     1
  9
$DIMALTU
 70
     2
  9
$DIMALTTD
 70
     3
  9
$DIMTXSTY
  7
Standard
  9
$DIMAUNIT
 70
     0
  9
$DIMADEC
 70
     2
  9
$DIMALTRND
 40
0.0
  9
$DIMAZIN
 70
     0
  9
$DIMDSEP
 70
    44
  9
$DIMATFIT
 70
     3
  9
$DIMFRAC
 70
     0
  9
$DIMLDRBLK
  1

  9
$DIMLUNIT
 70
     2
  9
$DIMLWD
 70
    -2
  9
$DIMLWE
 70
    -2
  9
$DIMTMOVE
 70
     0
  9
$LUNITS
 70
     2
  9
$LUPREC
 70
     2
  9
$SKETCHINC
 40
1.0
  9
$FILLETRAD
 40
10.0
  9
$AUNITS
 70
     0
  9
$AUPREC
 70
     2
  9
$MENU
  1
.
  9
$ELEVATION
 40
0.0
  9
$PELEVATION
 40
0.0
  9
$THICKNESS
 40
0.0
  9
$LIMCHECK
 70
     0
  9
$CHAMFERA
 40
0.0
  9
$CHAMFERB
 40
0.0
  9
$CHAMFERC
 40
0.0
  9
$CHAMFERD
 40
0.0
  9
$SKPOLY
 70
     0
  9
$TDCREATE
 40
2460018.597882025
  9
$TDUCREATE
 40
2460018.222882025
  9
$TDUPDATE
 40
2460018.597882245
  9
$TDUUPDATE
 40
2460018.222882245
  9
$TDINDWG
 40
0.0000000116
  9
$TDUSRTIMER
 40
0.0000000116
  9
$USRTIMER
 70
     1
  9
$ANGBASE
 50
0.0
  9
$ANGDIR
 70
     0
  9
$PDMODE
 70
     0
  9
$PDSIZE
 40
-1.0
  9
$PLINEWID
 40
0.0
  9
$SPLFRAME
 70
     0
  9
$SPLINETYPE
 70
     6
  9
$SPLINESEGS
 70
     8
  9
$HANDSEED
  5
107
  9
$SURFTAB1
 70
     6
  9
$SURFTAB2
 70
     6
  9
$SURFTYPE
 70
     6
  9
$SURFU
 70
     6
  9
$SURFV
 70
     6
  9
$UCSBASE
  2

  9
$UCSNAME
  2

  9
$UCSORG
 10
0.0
 20
0.0
 30
0.0
  9
$UCSXDIR
 10
1.0
 20
0.0
 30
0.0
  9
$UCSYDIR
 10
0.0
 20
1.0
 30
0.0
  9
$UCSORTHOREF
  2

  9
$UCSORTHOVIEW
 70
     0
  9
$UCSORGTOP
 10
0.0
 20
0.0
 30
0.0
  9
$UCSORGBOTTOM
 10
0.0
 20
0.0
 30
0.0
  9
$UCSORGLEFT
 10
0.0
 20
0.0
 30
0.0
  9
$UCSORGRIGHT
 10
0.0
 20
0.0
 30
0.0
  9
$UCSORGFRONT
 10
0.0
 20
0.0
 30
0.0
  9
$UCSORGBACK
 10
0.0
 20
0.0
 30
0.0
  9
$PUCSBASE
  2

  9
$PUCSNAME
  2

  9
$PUCSORG
 10
0.0
 20
0.0
 30
0.0
  9
$PUCSXDIR
 10
1.0
 20
0.0
 30
0.0
  9
$PUCSYDIR
 10
0.0
 20
1.0
 30
0.0
  9
$PUCSORTHOREF
  2

  9
$PUCSORTHOVIEW
 70
     0
  9
$PUCSORGTOP
 10
0.0
 20
0.0
 30
0.0
  9
$PUCSORGBOTTOM
 10
0.0
 20
0.0
 30
0.0
  9
$PUCSORGLEFT
 10
0.0
 20
0.0
 30
0.0
  9
$PUCSORGRIGHT
 10
0.0
 20
0.0
 30
0.0
  9
$PUCSORGFRONT
 10
0.0
 20
0.0
 30
0.0
  9
$PUCSORGBACK
 10
0.0
 20
0.0
 30
0.0
  9
$USERI1
 70
     0
  9
$USERI2
 70
     0
  9
$USERI3
 70
     0
  9
$USERI4
 70
     0
  9
$USERI5
 70
     0
  9
$USERR1
 40
0.0
  9
$USERR2
 40
0.0
  9
$USERR3
 40
0.0
  9
$USERR4
 40
0.0
  9
$USERR5
 40
0.0
  9
$WORLDVIEW
 70
     1
  9
$SHADEDGE
 70
     3
  9
$SHADEDIF
 70
    70
  9
$TILEMODE
 70
     1
  9
$MAXACTVP
 70
    64
  9
$PINSBASE
 10
0.0
 20
0.0
 30
0.0
  9
$PLIMCHECK
 70
     0
  9
$PEXTMIN
 10
1.0000000000E+20
 20
1.0000000000E+20
 30
1.0000000000E+20
  9
$PEXTMAX
 10
-1.0000000000E+20
 20
-1.0000000000E+20
 30
-1.0000000000E+20
  9
$PLIMMIN
 10
0.0
 20
0.0
  9
$PLIMMAX
 10
420.0
 20
297.0
  9
$UNITMODE
 70
     0
  9
$VISRETAIN
 70
     1
  9
$PLINEGEN
 70
     0
  9
$PSLTSCALE
 70
     1
  9
$TREEDEPTH
 70
  3020
  9
$CMLSTYLE
  2
Standard
  9
$CMLJUST
 70
     0
  9
$CMLSCALE
 40
20.0
  9
$PROXYGRAPHICS
 70
     1
  9
$MEASUREMENT
 70
     1
  9
$CELWEIGHT
370
    -1
  9
$ENDCAPS
280
     0
  9
$JOINSTYLE
280
     0
  9
$LWDISPLAY
290
     1
  9
$INSUNITS
 70
     4
  9
$HYPERLINKBASE
  1

  9
$STYLESHEET
  1

  9
$XEDIT
290
     1
  9
$CEPSNTYPE
380
     0
  9
$PSTYLEMODE
290
     1
  9
$FINGERPRINTGUID
  2
{976925db-841b-40c2-82a7-8c813023c900}
  9
$VERSIONGUID
  2
{FAEB1C32-E019-11D5-929B-00C0DF256EC4}
  9
$EXTNAMES
290
     1
  9
$PSVPSCALE
 40
0.0
  9
$OLESTARTUP
290
     0
  0
ENDSEC
  0
SECTION
  2
CLASSES
  0
CLASS
  1
ACDBDICTIONARYWDFLT
  2
AcDbDictionaryWithDefault
  3
ObjectDBX Classes
 90
        0
280
     0
281
     0
  0
CLASS
  1
VISUALSTYLE
  2
AcDbVisualStyle
  3
ObjectDBX Classes
 90
     4095
280
     0
281
     0
  0
CLASS
  1
MATERIAL
  2
AcDbMaterial
  3
ObjectDBX Classes
 90
     1153
280
     0
281
     0
  0
CLASS
  1
SCALE
  2
AcDbScale
  3
ObjectDBX Classes
 90
     1153
280
     0
281
     0
  0
CLASS
  1
TABLESTYLE
  2
AcDbTableStyle
  3
ObjectDBX Classes
 90
     4095
280
     0
281
     0
  0
CLASS
  1
MLEADERSTYLE
  2
AcDbMLeaderStyle
  3
ACDB_MLEADERSTYLE_CLASS
 90
     4095
280
     0
281
     0
  0
CLASS
  1
SUN
  2
AcDbSun
  3
SCENEOE
 90
     1153
280
     0
281
     0
  0
CLASS
  1
ACDBPLACEHOLDER
  2
AcDbPlaceHolder
  3
ObjectDBX Classes
 90
        0
280
     0
281
     0
  0
CLASS
  1
LAYOUT
  2
AcDbLayout
  3
ObjectDBX Classes
 90
        0
280
     0
281
     0
  0
ENDSEC
  0
SECTION
  2
TABLES
  0
TABLE
  2
VPORT
  5
8
330
0
100
AcDbSymbolTable
 70
     1
  0
VPORT
  5
29
330
8
100
AcDbSymbolTableRecord
100
AcDbViewportTableRecord
  2
*Active
 70
     0
 10
0.0
 20
0.0
 11
1.0
 21
1.0
 12
105.0
 22
148.5
 13
0.0
 23
0.0
 14
10.0
 24
10.0
 15
10.0
 25
10.0
 16
0.0
 26
0.0
 36
1.0
 17
0.0
 27
0.0
 37
0.0
 40
297.0
 41
0.7070707071
 42
50.0
 43
0.0
 44
0.0
 50
0.0
 51
0.0
 71
     0
 72
  2000
 73
     1
 74
     3
 75
     0
 76
     0
 77
     0
 78
     0
281
     0
 65
     1
110
0.0
120
0.0
130
0.0
111
1.0
121
0.0
131
0.0
112
0.0
122
1.0
132
0.0
 79
     0
146
0.0
  0
ENDTAB
  0
TABLE
  2
LTYPE
  5
5
330
0
100
AcDbSymbolTable
 70
     6
  0
LTYPE
  5
14
330
5
100
AcDbSymbolTableRecord
100
AcDbLinetypeTableRecord
  2
ByBlock
 70
     0
  3

 72
    65
 73
     0
 40
0.0
  0
LTYPE
  5
15
330
5
100
AcDbSymbolTableRecord
100
AcDbLinetypeTableRecord
  2
ByLayer
 70
     0
  3

 72
    65
 73
     0
 40
0.0
  0
LTYPE
  5
16
330
5
100
AcDbSymbolTableRecord
100
AcDbLinetypeTableRecord
  2
Continuous
 70
     0
  3
Solid line
 72
    65
 73
     0
 40
0.0
  0
LTYPE
  5
6E
330
5
100
AcDbSymbolTableRecord
100
AcDbLinetypeTableRecord
  2
HIDDEN
 70
     0
  3
Hidden __ __ __ __ __ __ __ __ __ __ __ __ __ __
 72
    65
 73
     2
 40
1.905
 49
1.27
 74
     0
 49
-0.635
 74
     0
  0
LTYPE
  5
6F
330
5
100
AcDbSymbolTableRecord
100
AcDbLinetypeTableRecord
  2
PHANTOM
 70
     0
  3
Phantom ______  __  __  ______  __  __  ______
 72
    65
 73
     6
 40
12.7
 49
6.35
 74
     0
 49
-1.27
 74
     0
 49
1.27
 74
     0
 49
-1.27
 74
     0
 49
1.27
 74
     0
 49
-1.27
 74
     0
  0
LTYPE
  5
70
330
5
100
AcDbSymbolTableRecord
100
AcDbLinetypeTableRecord
  2
CENTER
 70
     0
  3
Center ____ _ ____ _ ____ _ ____ _ ____ _ ____
 72
    65
 73
     4
 40
10.16
 49
6.35
 74
     0
 49
-1.27
 74
     0
 49
1.27
 74
     0
 49
-1.27
 74
     0
  0
LTYPE
  5
71
330
5
100
AcDbSymbolTableRecord
100
AcDbLinetypeTableRecord
  2
CENTERX2
 70
     0
  3
Center (2x) ________  __  ________  __  _____
 72
    65
 73
     4
 40
20.32
 49
12.7
 74
     0
 49
-2.54
 74
     0
 49
2.54
 74
     0
 49
-2.54
 74
     0
  0
LTYPE
  5
72
330
5
100
AcDbSymbolTableRecord
100
AcDbLinetypeTableRecord
  2
DOT2
 70
     0
  3
Dot (.5x) ........................................
 72
    65
 73
     2
 40
0.635
 49
0.0
 74
     0
 49
-0.635
 74
     0
  0
ENDTAB
  0
TABLE
  2
LAYER
  5
2
330
0
100
AcDbSymbolTable
 70
     1
  0
LAYER
  5
10
330
2
100
AcDbSymbolTableRecord
100
AcDbLayerTableRecord
  2
0
 70
     0
 62
     7
  6
Continuous
370
    -3
390
F
  0
ENDTAB
  0
TABLE
  2
STYLE
  5
3
330
0
100
AcDbSymbolTable
 70
     2
  0
STYLE
  5
11
330
3
100
AcDbSymbolTableRecord
100
AcDbTextStyleTableRecord
  2
Standard
 70
     0
 40
0.0
 41
1.0
 50
0.0
 71
     0
 42
3.5
  3
txt
  4
bigfont
  0
STYLE
  5
76
330
3
100
AcDbSymbolTableRecord
100
AcDbTextStyleTableRecord
  2
SLDTEXTSTYLE0
 70
     0
 40
0.0
 41
0.7
 50
0.0
 71
     0
 42
3.5
  3
TXT
  4
bigfont
  0
ENDTAB
  0
TABLE
  2
VIEW
  5
6
330
0
100
AcDbSymbolTable
 70
     0
  0
ENDTAB
  0
TABLE
  2
UCS
  5
7
330
0
100
AcDbSymbolTable
 70
     0
  0
ENDTAB
  0
TABLE
  2
APPID
  5
9
330
0
100
AcDbSymbolTable
 70
     1
  0
APPID
  5
12
330
9
100
AcDbSymbolTableRecord
100
AcDbRegAppTableRecord
  2
ACAD
 70
     0
  0
ENDTAB
  0
TABLE
  2
DIMSTYLE
  5
A
330
0
100
AcDbSymbolTable
 70
     1
100
AcDbDimStyleTable
  0
DIMSTYLE
105
27
330
A
100
AcDbSymbolTableRecord
100
AcDbDimStyleTableRecord
  2
ISO-25
 70
     0
 41
2.5
 42
0.625
 43
3.75
 44
1.25
 73
     0
 74
     0
 77
     1
 78
     8
140
2.5
141
2.5
143
0.0393700787
147
0.625
171
     3
172
     1
178
     0
271
     2
272
     2
274
     3
278
    44
283
     0
284
     8
340
11
  0
ENDTAB
  0
TABLE
  2
BLOCK_RECORD
  5
1
330
0
100
AcDbSymbolTable
 70
     2
  0
BLOCK_RECORD
  5
1F
330
1
100
AcDbSymbolTableRecord
100
AcDbBlockTableRecord
  2
*Model_Space
340
22
  0
BLOCK_RECORD
  5
1B
330
1
100
AcDbSymbolTableRecord
100
AcDbBlockTableRecord
  2
*Paper_Space
340
1E
  0
BLOCK_RECORD
  5
23
330
1
100
AcDbSymbolTableRecord
100
AcDbBlockTableRecord
  2
*Paper_Space0
340
26
  0
BLOCK_RECORD
  5
73
330
1
100
AcDbSymbolTableRecord
100
AcDbBlockTableRecord
  2
SW_NOTE_0
340
0
102
{BLKREFS
331
7F
102
}
  0
ENDTAB
  0
ENDSEC
  0
SECTION
  2
BLOCKS
  0
BLOCK
  5
20
330
1F
100
AcDbEntity
  8
0
100
AcDbBlockBegin
  2
*Model_Space
 70
     0
 10
0.0
 20
0.0
 30
0.0
  3
*Model_Space
  1

  0
ENDBLK
  5
21
330
1F
100
AcDbEntity
  8
0
100
AcDbBlockEnd
  0
BLOCK
  5
1C
330
1B
100
AcDbEntity
 67
     1
  8
0
100
AcDbBlockBegin
  2
*Paper_Space
 70
     0
 10
0.0
 20
0.0
 30
0.0
  3
*Paper_Space
  1

  0
ENDBLK
  5
1D
330
1B
100
AcDbEntity
 67
     1
  8
0
100
AcDbBlockEnd
  0
BLOCK
  5
24
330
23
100
AcDbEntity
  8
0
100
AcDbBlockBegin
  2
*Paper_Space0
 70
     0
 10
0.0
 20
0.0
 30
0.0
  3
*Paper_Space0
  1

  0
ENDBLK
  5
25
330
23
100
AcDbEntity
  8
0
100
AcDbBlockEnd
  0
BLOCK
  5
74
330
73
100
AcDbEntity
  8
0
100
AcDbBlockBegin
  2
SW_NOTE_0
 70
     0
 10
0.0
 20
0.0
 30
0.0
  3
SW_NOTE_0
  1

  0
MTEXT
  5
77
330
73
100
AcDbEntity
  8
0
  6
Continuous
 62
     0
370
     0
100
AcDbMText
 10
0.0
 20
4.5117370892
 30
0.0
 40
3.5
 41
0.0
 71
     1
 72
     1
  1
HBA-D38S/K
  7
SLDTEXTSTYLE0
 73
     1
 44
1.0
  0
MTEXT
  5
78
330
73
100
AcDbEntity
  8
0
  6
Continuous
 62
     0
370
     0
100
AcDbMText
 10
0.0
 20
0.0117372829
 30
0.0
 40
3.5
 41
0.0
 71
     1
 72
     1
  1
HBA-D41S/K
  7
SLDTEXTSTYLE0
 73
     1
 44
1.0
  0
MTEXT
  5
79
330
73
100
AcDbEntity
  8
0
  6
Continuous
 62
     0
370
     0
100
AcDbMText
 10
0.0
 20
-4.4882625234
 30
0.0
 40
3.5
 41
0.0
 71
     1
 72
     1
  1
HBA-D39S/K
  7
SLDTEXTSTYLE0
 73
     1
 44
1.0
  0
MTEXT
  5
7A
330
73
100
AcDbEntity
  8
0
  6
Continuous
 62
     0
370
     0
100
AcDbMText
 10
0.0
 20
-8.9882623297
 30
0.0
 40
3.5
 41
0.0
 71
     1
 72
     1
  1
HBA-D42S/K
  7
SLDTEXTSTYLE0
 73
     1
 44
1.0
  0
MTEXT
  5
7B
330
73
100
AcDbEntity
  8
0
  6
Continuous
 62
     0
370
     0
100
AcDbMText
 10
0.0
 20
-13.4882621359
 30
0.0
 40
3.5
 41
0.0
 71
     1
 72
     1
  1
HFB-D33S/K
  7
SLDTEXTSTYLE0
 73
     1
 44
1.0
  0
MTEXT
  5
7C
330
73
100
AcDbEntity
  8
0
  6
Continuous
 62
     0
370
     0
100
AcDbMText
 10
0.0
 20
-17.9882619422
 30
0.0
 40
3.5
 41
0.0
 71
     1
 72
     1
  1
HFB-D36S/K
  7
SLDTEXTSTYLE0
 73
     1
 44
1.0
  0
MTEXT
  5
7D
330
73
100
AcDbEntity
  8
0
  6
Continuous
 62
     0
370
     0
100
AcDbMText
 10
0.0
 20
-22.4882617485
 30
0.0
 40
3.5
 41
0.0
 71
     1
 72
     1
  1
HFB-D34S/K
  7
SLDTEXTSTYLE0
 73
     1
 44
1.0
  0
MTEXT
  5
7E
330
73
100
AcDbEntity
  8
0
  6
Continuous
 62
     0
370
     0
100
AcDbMText
 10
0.0
 20
-26.9882615548
 30
0.0
 40
3.5
 41
0.0
 71
     1
 72
     1
  1
HFB-D37S/K
  7
SLDTEXTSTYLE0
 73
     1
 44
1.0
  0
ENDBLK
  5
75
330
73
100
AcDbEntity
  8
0
100
AcDbBlockEnd
  0
ENDSEC
  0
SECTION
  2
ENTITIES
  0
INSERT
  5
7F
330
1F
100
AcDbEntity
  8
0
  6
Continuous
 62
     7
370
     0
100
AcDbBlockReference
  2
SW_NOTE_0
 10
143.1857142857
 20
109.9965305731
 30
0.0
  0
LINE
  5
80
330
1F
100
AcDbEntity
  8
0
  6
Continuous
 62
     7
370
    25
100
AcDbLine
 10
117.1799861388
 20
173.4786881591
 30
0.0
 11
117.5381638302
 21
173.4474949777
 31
0.0
  0
LINE
  5
81
330
1F
100
AcDbEntity
  8
0
  6
Continuous
 62
     7
370
    25
100
AcDbLine
 10
118.7528062732
 20
187.3947041514
 30
0.0
 11
118.3946285818
 21
187.4258973329
 31
0.0
  0
LINE
  5
82
330
1F
100
AcDbEntity
  8
0
  6
Continuous
 62
     7
370
    25
100
AcDbLine
 10
139.4704839619
 20
191.6007291504
 30
0.0
 11
128.5215336576
 21
192.2622567758
 31
0.0
  0
LINE
  5
83
330
1F
100
AcDbEntity
  8
0
  6
Continuous
 62
     7
370
    25
100
AcDbLine
 10
126.7346897781
 20
192.2478440385
 30
0.0
 11
110.5394274208
 21
190.9600316349
 31
0.0
  0
SPLINE
  5
84
330
1F
100
AcDbEntity
  8
0
  6
Continuous
 62
     7
370
    25
100
AcDbSpline
210
0.0
220
0.0
230
1.0
 70
     8
 71
     3
 72
    12
 73
     8
 74
     0
 42
0.00000001
 43
0.00000001
 40
0.0
 40
0.0
 40
0.0
 40
0.0
 40
0.0757054612749784
 40
0.1661130631604043
 40
0.3895247884041301
 40
0.6679154009834829
 40
1.0
 40
1.0
 40
1.0
 40
1.0
 10
109.1130007644912
 20
139.340262199144
 30
0.0
 10
109.114555697352
 20
139.3192388184619
 30
0.0
 10
109.1179675339113
 20
139.2731092776827
 30
0.0
 10
109.1549400090162
 20
139.190424131446
 30
0.0
 10
109.2468982930855
 20
139.1070318150514
 30
0.0
 10
109.4177762734168
 20
139.0425591921562
 30
0.0
 10
109.5871917420291
 20
139.0168923397773
 30
0.0
 10
109.6793498950428
 20
139.0029301571721
 30
0.0
  0
LINE
  5
85
330
1F
100
AcDbEntity
  8
0
  6
Continuous
 62
     7
370
    25
100
AcDbLine
 10
109.3165112348
 20
173.1259788855
 30
0.0
 11
109.1128706428
 21
139.3187906185
 31
0.0
  0
LINE
  5
86
330
1F
100
AcDbEntity
  8
0
  6
Continuous
 62
     7
370
    25
100
AcDbLine
 10
109.6967637328
 20
138.9996675198
 30
0.0
 11
120.2766614363
 21
137.7862758682
 31
0.0
  0
SPLINE
  5
87
330
1F
100
AcDbEntity
  8
0
  6
Continuous
 62
     7
370
    25
100
AcDbSpline
210
0.0
220
0.0
230
1.0
 70
     8
 71
     3
 72
    30
 73
    26
 74
     0
 42
0.00000001
 43
0.00000001
 40
0.0
 40
0.0
 40
0.0
 40
0.0
 40
0.0178505941289412
 40
0.0623651683406797
 40
0.1069342915478679
 40
0.1517525203471913
 40
0.1969037556896034
 40
0.2423606841038111
 40
0.2880349072497158
 40
0.3338321250883854
 40
0.3796828875327553
 40
0.4255418876120162
 40
0.4714008193089205
 40
0.5172647897343454
 40
0.5631455852967997
 40
0.6090526834646007
 40
0.6549984248244002
 40
0.700989244613393
 40
0.7470182552340993
 40
0.7930398286651175
 40
0.8389761339177019
 40
0.8847132306556502
 40
0.9301291375522126
 40
0.9751564192788575
 40
0.9999999999999999
 40
0.9999999999999999
 40
0.9999999999999999
 40
0.9999999999999999
 10
114.5519088778934
 20
173.5653578463887
 30
0.0
 10
114.6620842756715
 20
173.5740925003294
 30
0.0
 10
115.0470074429227
 20
173.6046090287692
 30
0.0
 10
115.6854955110361
 20
173.8210614437906
 30
0.0
 10
116.4461282821014
 20
174.2050105574656
 30
0.0
 10
117.1512456760204
 20
174.7411944377511
 30
0.0
 10
117.7896807428551
 20
175.4080263528837
 30
0.0
 10
118.3487834014575
 20
176.1970342065007
 30
0.0
 10
118.8171948693891
 20
177.0921600880049
 30
0.0
 10
119.18520098563
 20
178.0756280514879
 30
0.0
 10
119.4453939013953
 20
179.127288222392
 30
0.0
 10
119.5927909740475
 20
180.2259154969956
 30
0.0
 10
119.6247311872919
 20
181.3496799879189
 30
0.0
 10
119.5407151226825
 20
182.4766142703166
 30
0.0
 10
119.3422993783246
 20
183.5847737684284
 30
0.0
 10
119.0330293265075
 20
184.652597970503
 30
0.0
 10
118.6183534352589
 20
185.6592236964887
 30
0.0
 10
118.1055194274963
 20
186.5848087516514
 30
0.0
 10
117.5036225358182
 20
187.4105414995179
 30
0.0
 10
116.8237028109922
 20
188.1192390764446
 30
0.0
 10
116.0790508830977
 20
188.6946092404251
 30
0.0
 10
115.2850188635844
 20
189.1262938248738
 30
0.0
 10
114.4599235086179
 20
189.3949570220723
 30
0.0
 10
113.7434947640011
 20
189.511773831741
 30
0.0
 10
113.3123240673711
 20
189.4750237710606
 30
0.0
 10
113.1590151825077
 20
189.4619567633404
 30
0.0
  0
LINE
  5
88
330
1F
100
AcDbEntity
  8
0
  6
Continuous
 62
     7
370
    25
100
AcDbLine
 10
113.1013380529
 20
189.4774451611
 30
0.0
 11
110.9532580608
 21
189.3066344637
 31
0.0
  0
LINE
  5
89
330
1F
100
AcDbEntity
  8
0
  6
Continuous
 62
     7
370
    25
100
AcDbLine
 10
109.1367968653
 20
173.1116883856
 30
0.0
 11
114.3696202028
 21
173.5277912342
 31
0.0
  0
LINE
  5
8A
330
1F
100
AcDbEntity
  8
0
  6
Continuous
 62
     7
370
    25
100
AcDbLine
 10
118.3946285818
 20
187.4258973329
 30
0.0
 11
117.678273199
 21
187.4882836957
 31
0.0
  0
LINE
  5
8B
330
1F
100
AcDbEntity
  8
0
  6
Continuous
 62
     7
370
    25
100
AcDbLine
 10
116.463630756
 20
173.541074522
 30
0.0
 11
117.1799861388
 21
173.4786881591
 31
0.0
  0
LINE
  5
8C
330
1F
100
AcDbEntity
  8
0
  6
Continuous
 62
     7
370
    25
100
AcDbLine
 10
62.4613420879
 20
162.6568383193
 30
0.0
 11
61.972847274
 21
161.7398755788
 31
0.0
  0
LINE
  5
8D
330
1F
100
AcDbEntity
  8
0
  6
Continuous
 62
     7
370
    25
100
AcDbLine
 10
86.4642603677
 20
148.6925316088
 30
0.0
 11
86.9527551816
 21
149.6094943492
 31
0.0
  0
SPLINE
  5
8E
330
1F
100
AcDbEntity
  8
0
  6
Continuous
 62
     7
370
    25
100
AcDbSpline
210
0.0
220
0.0
230
1.0
 70
     8
 71
     3
 72
    10
 73
     6
 74
     0
 42
0.00000001
 43
0.00000001
 40
0.0
 40
0.0
 40
0.0
 40
0.0
 40
0.2613834892869205
 40
0.8828327696649056
 40
1.0
 40
1.0
 40
1.0
 40
1.0
 10
60.87768183211126
 20
158.6277330758071
 30
0.0
 10
60.9235133312099
 20
158.4985577211078
 30
0.0
 10
61.0783109789019
 20
158.0622630015267
 30
0.0
 10
61.33142936306288
 20
157.55046162284
 30
0.0
 10
61.57736537591285
 20
157.1666534416606
 30
0.0
 10
61.61637836986483
 20
157.1057696935769
 30
0.0
  0
LINE
  5
8F
330
1F
100
AcDbEntity
  8
0
  6
Continuous
 62
     7
370
    25
100
AcDbLine
 10
87.7817492484
 20
148.2411688188
 30
0.0
 11
89.7568067359
 21
151.948586123
 31
0.0
  0
LINE
  5
90
330
1F
100
AcDbEntity
  8
0
  6
Continuous
 62
     7
370
    25
100
AcDbLine
 10
62.8383166689
 20
166.2889101262
 30
0.0
 11
60.8632591814
 21
162.5814928219
 31
0.0
  0
LINE
  5
91
330
1F
100
AcDbEntity
  8
0
  6
Continuous
 62
     7
370
    25
100
AcDbLine
 10
89.964707524
 20
152.3388405761
 30
0.0
 11
105.973068212
 21
182.3884334634
 31
0.0
  0
LINE
  5
92
330
1F
100
AcDbEntity
  8
0
  6
Continuous
 62
     7
370
    25
100
AcDbLine
 10
79.054578145
 20
196.7287574665
 30
0.0
 11
63.0462174571
 21
166.6791645793
 31
0.0
  0
LINE
  5
93
330
1F
100
AcDbEntity
  8
0
  6
Continuous
 62
     7
370
    25
100
AcDbLine
 10
105.973068212
 20
182.3884334634
 30
0.0
 11
112.5219430388
 21
194.6814487354
 31
0.0
  0
LINE
  5
94
330
1F
100
AcDbEntity
  8
0
  6
Continuous
 62
     7
370
    25
100
AcDbLine
 10
85.6034529719
 20
209.0217727386
 30
0.0
 11
79.054578145
 21
196.7287574665
 31
0.0
  0
SPLINE
  5
95
330
1F
100
AcDbEntity
  8
0
  6
Continuous
 62
     7
370
    25
100
AcDbSpline
210
0.0
220
0.0
230
1.0
 70
     8
 71
     3
 72
     9
 73
     5
 74
     0
 42
0.00000001
 43
0.00000001
 40
0.0
 40
0.0
 40
0.0
 40
0.0
 40
0.7424450701408356
 40
1.0
 40
1.0
 40
1.0
 40
1.0
 10
112.3182081605699
 20
199.1148647242432
 30
0.0
 10
112.1885145116703
 20
199.3995141109683
 30
0.0
 10
112.0138300075696
 20
199.7829086517538
 30
0.0
 10
111.75796535668
 20
200.1769218436427
 30
0.0
 10
111.6920661544667
 20
200.2784018836433
 30
0.0
  0
LINE
  5
96
330
1F
100
AcDbEntity
  8
0
  6
Continuous
 62
     7
370
    25
100
AcDbLine
 10
104.252828417
 20
172.723325727
 30
0.0
 11
108.439087087
 21
173.0562080058
 31
0.0
  0
SPLINE
  5
97
330
1F
100
AcDbEntity
  8
0
  6
Continuous
 62
     7
370
    25
100
AcDbSpline
210
0.0
220
0.0
230
1.0
 70
     8
 71
     3
 72
    13
 73
     9
 74
     0
 42
0.00000001
 43
0.00000001
 40
0.0
 40
0.0
 40
0.0
 40
0.0
 40
0.0568780805459519
 40
0.274800982300516
 40
0.4972894679414822
 40
0.7257829543483466
 40
0.9624700610095802
 40
1.0
 40
1.0
 40
1.0
 40
1.0
 10
101.266522458986
 20
173.5536885110988
 30
0.0
 10
101.3232008772925
 20
173.5125726944567
 30
0.0
 10
101.597037210663
 20
173.3139255760428
 30
0.0
 10
102.13139111967
 20
173.0621353750399
 30
0.0
 10
102.866796243673
 20
172.8087137242719
 30
0.0
 10
103.6407997801463
 20
172.703237912629
 30
0.0
 10
104.2131254913015
 20
172.6887996678367
 30
0.0
 10
104.5150358414808
 20
172.7591475261449
 30
0.0
 10
104.5563559461295
 20
172.7687754864496
 30
0.0
  0
LINE
  5
98
330
1F
100
AcDbEntity
  8
0
  6
Continuous
 62
     7
370
    25
100
AcDbLine
 10
117.3539343179
 20
173.4680467008
 30
0.0
 11
117.1799861388
 21
173.4786881591
 31
0.0
  0
LWPOLYLINE
  5
99
330
1F
100
AcDbEntity
  8
0
  6
Continuous
 62
     7
370
    25
100
AcDbPolyline
 90
       21
 70
   128
 43
0.0
 10
118.3946285818
 20
187.4258973329
 10
118.6107356697
 20
187.4000479007
 10
119.3723304335
 20
187.1924184264
 10
120.0928739322
 20
186.8102232375
 10
120.7537044679
 20
186.2633609885
 10
121.3377068766
 20
185.5659951244
 10
121.8297558027
 20
184.7361870548
 10
122.2171074376
 20
183.7954283729
 10
122.4897295774
 20
182.7680842342
 10
122.6405614518
 20
181.6807623125
 10
122.6656965946
 20
180.5616236743
 10
122.5644840186
 20
179.4396534225
 10
122.3395450766
 20
178.3439099972
 10
121.9967055689
 20
177.3027725776
 10
121.5448448587
 20
176.3432060761
 10
120.995665901
 20
175.4900627608
 10
120.3633921424
 20
174.7654385957
 10
119.6643991411
 20
174.1881009659
 10
118.9167904486
 20
173.7730026127
 10
118.1399287375
 20
173.5308943656
 10
117.3539343179
 20
173.4680467008
  0
LINE
  5
9A
330
1F
100
AcDbEntity
  8
0
  6
Continuous
 62
     7
370
    25
100
AcDbLine
 10
117.7121120093
 20
173.4368535194
 30
0.0
 11
117.5381638302
 21
173.4474949777
 31
0.0
  0
LWPOLYLINE
  5
9B
330
1F
100
AcDbEntity
  8
0
  6
Continuous
 62
     7
370
    25
100
AcDbPolyline
 90
       21
 70
   128
 43
0.0
 10
118.7528062732
 20
187.3947041514
 10
118.9689133611
 20
187.3688547193
 10
119.7305081249
 20
187.161225245
 10
120.4510516237
 20
186.7790300561
 10
121.1118821593
 20
186.232167807
 10
121.695884568
 20
185.534801943
 10
122.1879334941
 20
184.7049938734
 10
122.575285129
 20
183.7642351914
 10
122.8479072688
 20
182.7368910528
 10
122.9987391432
 20
181.6495691311
 10
123.023874286
 20
180.5304304929
 10
122.9226617101
 20
179.408460241
 10
122.697722768
 20
178.3127168158
 10
122.3548832603
 20
177.2715793962
 10
121.9030225501
 20
176.3120128946
 10
121.3538435924
 20
175.4588695794
 10
120.7215698338
 20
174.7342454143
 10
120.0225768325
 20
174.1569077845
 10
119.27496814
 20
173.7418094313
 10
118.4981064289
 20
173.4997011842
 10
117.7121120093
 20
173.4368535194
  0
SPLINE
  5
9C
330
1F
100
AcDbEntity
  8
0
  6
Continuous
 62
     7
370
    25
100
AcDbSpline
210
0.0
220
0.0
230
1.0
 70
     8
 71
     3
 72
    13
 73
     9
 74
     0
 42
0.00000001
 43
0.00000001
 40
0.0
 40
0.0
 40
0.0
 40
0.0
 40
0.2396665004881429
 40
0.3698887732387822
 40
0.4999755604407159
 40
0.6302053730790643
 40
0.7602997463690845
 40
1.0
 40
1.0
 40
1.0
 40
1.0
 10
126.4411533104851
 20
140.4967389310855
 30
0.0
 10
126.561488981541
 20
140.5040597741216
 30
0.0
 10
126.7472087782298
 20
140.5153583813287
 30
0.0
 10
127.0578652763367
 20
140.5192197360083
 30
0.0
 10
127.3090783923183
 20
140.5175735825602
 30
0.0
 10
127.5613302050675
 20
140.5109845153629
 30
0.0
 10
127.8760622093191
 20
140.4968927802681
 30
0.0
 10
128.0682620068246
 20
140.4794197029136
 30
0.0
 10
128.1928455914847
 20
140.4680936836351
 30
0.0
  0
ARC
  5
9D
330
1F
100
AcDbEntity
  8
0
  6
Continuous
 62
     7
370
    25
100
AcDbCircle
 10
126.5117121603
 20
140.733057455
 30
0.0
 40
0.2466272410716085
100
AcDbArc
 50
173.4588133606
 51
253.3756797965
  0
SPLINE
  5
9E
330
1F
100
AcDbEntity
  8
0
  6
Continuous
 62
     7
370
    25
100
AcDbSpline
210
0.0
220
0.0
230
1.0
 70
     8
 71
     3
 72
    12
 73
     8
 74
     0
 42
0.00000001
 43
0.00000001
 40
0.0
 40
0.0
 40
0.0
 40
0.0
 40
0.2429974594478838
 40
0.4991900435693847
 40
0.7111873668370945
 40
0.8460952011209187
 40
1.0
 40
1.0
 40
1.0
 40
1.0
 10
126.2666904073578
 20
140.7611525906015
 30
0.0
 10
126.413423905775
 20
140.7700098221325
 30
0.0
 10
126.714858750544
 20
140.7882052460842
 30
0.0
 10
127.2754979792348
 20
140.7899256555059
 30
0.0
 10
127.7422550463132
 20
140.775817588671
 30
0.0
 10
128.1027334228781
 20
140.7556989924792
 30
0.0
 10
128.2762708573408
 20
140.739619501453
 30
0.0
 10
128.3687468811785
 20
140.7310509329476
 30
0.0
  0
ARC
  5
9F
330
1F
100
AcDbEntity
  8
0
  6
Continuous
 62
     7
370
    25
100
AcDbCircle
 10
128.1214954114
 20
140.7061341948
 30
0.0
 40
0.248503788998801
100
AcDbArc
 50
286.6855581015
 51
5.7545477539
  0
LINE
  5
A0
330
1F
100
AcDbEntity
  8
0
  6
Continuous
 62
     7
370
    25
100
AcDbLine
 10
126.575417841
 20
192.0142272866
 30
0.0
 11
126.2666904074
 21
140.7611525906
 31
0.0
  0
SPLINE
  5
A1
330
1F
100
AcDbEntity
  8
0
  6
Continuous
 62
     7
370
    25
100
AcDbSpline
210
0.0
220
0.0
230
1.0
 70
     8
 71
     3
 72
    12
 73
     8
 74
     0
 42
0.00000001
 43
0.00000001
 40
0.0
 40
0.0
 40
0.0
 40
0.0
 40
0.1539004914433571
 40
0.2888068902018139
 40
0.5008099328756626
 40
0.756998859356633
 40
1.0
 40
1.0
 40
1.0
 40
1.0
 10
128.6777316810629
 20
192.0268520218253
 30
0.0
 10
128.5852378097887
 20
192.0319999750579
 30
0.0
 10
128.4116654769462
 20
192.0416605313698
 30
0.0
 10
128.0511255682219
 20
192.0513298429864
 30
0.0
 10
127.5842992174512
 20
192.0540517812313
 30
0.0
 10
127.0236009354236
 20
192.0432285024694
 30
0.0
 10
126.7221576595777
 20
192.0237225870947
 30
0.0
 10
126.5754178410316
 20
192.014227286612
 30
0.0
  0
LINE
  5
A2
330
1F
100
AcDbEntity
  8
0
  6
Continuous
 62
     7
370
    25
100
AcDbLine
 10
128.3687468812
 20
140.7310509329
 30
0.0
 11
128.6777316811
 21
192.0268520218
 31
0.0
  0
LINE
  5
A3
330
1F
100
AcDbEntity
  8
0
  6
Continuous
 62
     7
370
    25
100
AcDbLine
 10
110.7750012438
 20
139.1136684533
 30
0.0
 11
126.8178430986
 21
140.3893607067
 31
0.0
  0
ELLIPSE
  5
A4
330
1F
100
AcDbEntity
  8
0
  6
Continuous
 62
     7
370
    25
100
AcDbEllipse
 10
111.3121891996
 20
139.0538330863
 30
0.0
 11
0.7499290161096326
 21
-0.01395348096849602
 31
0.0
210
0.0
220
0.0
230
1.0
 40
0.0953865218
 41
2.37108123054613
 42
3.92442533021947
  0
LINE
  5
A5
330
1F
100
AcDbEntity
  8
0
  6
Continuous
 62
     7
370
    25
100
AcDbLine
 10
120.9978717104
 20
137.8413573696
 30
0.0
 11
110.7796119043
 21
139.0132733455
 31
0.0
  0
LINE
  5
A6
330
1F
100
AcDbEntity
  8
0
  6
Continuous
 62
     7
370
    25
100
AcDbLine
 10
120.3001361961
 20
137.7858749433
 30
0.0
 11
120.9978717104
 21
137.8413573696
 31
0.0
  0
LINE
  5
A7
330
1F
100
AcDbEntity
  8
0
  6
Continuous
 62
     7
370
    25
100
AcDbLine
 10
109.7206231646
 20
138.9992223162
 30
0.0
 11
120.3001361961
 21
137.7858749433
 31
0.0
  0
SPLINE
  5
A8
330
1F
100
AcDbEntity
  8
0
  6
Continuous
 62
     7
370
    25
100
AcDbSpline
210
0.0
220
0.0
230
1.0
 70
     8
 71
     3
 72
    13
 73
     9
 74
     0
 42
0.00000001
 43
0.00000001
 40
0.0
 40
0.0
 40
0.0
 40
0.0
 40
0.2397002536162104
 40
0.3699338437953054
 40
0.5000245588799946
 40
0.6302504349962674
 40
0.7603334995265598
 40
1.0
 40
1.0
 40
1.0
 40
1.0
 10
109.7206231646397
 20
138.9992223162392
 30
0.0
 10
109.6227648697439
 20
139.0126734060642
 30
0.0
 10
109.4717383496134
 20
139.0334327222817
 30
0.0
 10
109.3766793264262
 20
139.0649909487543
 30
0.0
 10
109.3497790370731
 20
139.0895058892093
 30
0.0
 10
109.374490375799
 20
139.1130825075857
 30
0.0
 10
109.4668360613792
 20
139.1412620013197
 30
0.0
 10
109.6161539193423
 20
139.1566033442835
 30
0.0
 10
109.712939668031
 20
139.1665473883844
 30
0.0
  0
LINE
  5
A9
330
1F
100
AcDbEntity
  8
0
  6
Continuous
 62
     7
370
    25
100
AcDbLine
 10
109.712939668
 20
139.1665473884
 30
0.0
 11
126.4411533105
 21
140.4967389311
 31
0.0
  0
LINE
  5
AA
330
1F
100
AcDbEntity
  8
0
  6
Continuous
 62
     7
370
    25
100
AcDbLine
 10
139.1383516832
 20
139.2838492911
 30
0.0
 11
128.1928455915
 21
140.4680936836
 31
0.0
  0
LINE
  5
AB
330
1F
100
AcDbEntity
  8
0
  6
Continuous
 62
     7
370
    25
100
AcDbLine
 10
138.4406161687
 20
139.2283668648
 30
0.0
 11
139.1383516832
 21
139.2838492911
 31
0.0
  0
LINE
  5
AC
330
1F
100
AcDbEntity
  8
0
  6
Continuous
 62
     7
370
    25
100
AcDbLine
 10
127.8688590492
 20
140.3721734952
 30
0.0
 11
138.4406161687
 21
139.2283668648
 31
0.0
  0
ELLIPSE
  5
AD
330
1F
100
AcDbEntity
  8
0
  6
Continuous
 62
     7
370
    25
100
AcDbEllipse
 10
127.3550310544
 20
140.3295253396
 30
0.0
 11
0.7499290161096043
 21
-0.01395348096846761
 31
0.0
210
0.0
220
0.0
230
1.0
 40
0.0953865218
 41
0.8177371308431466
 42
2.371081230545764
  0
LINE
  5
AE
330
1F
100
AcDbEntity
  8
0
  6
Continuous
 62
     7
370
    25
100
AcDbLine
 10
128.3687468812
 20
140.7310509329
 30
0.0
 11
139.3142538101
 21
139.5468077921
 31
0.0
  0
ELLIPSE
  5
AF
330
1F
100
AcDbEntity
  8
0
  6
Continuous
 62
     7
370
    25
100
AcDbEllipse
 10
139.1398002453
 20
139.533010291
 30
0.0
 11
0.02159333229857907
 21
0.2490951522069623
 31
0.0
210
0.0
220
0.0
230
1.0
 40
0.6949895469
 41
3.257380049630674
 42
4.827881306581863
  0
LINE
  5
B0
330
1F
100
AcDbEntity
  8
0
  6
Continuous
 62
     7
370
    25
100
AcDbLine
 10
139.6263873332
 20
191.3653410129
 30
0.0
 11
128.6777316811
 21
192.0268520218
 31
0.0
  0
LINE
  5
B1
330
1F
100
AcDbEntity
  8
0
  6
Continuous
 62
     7
370
    25
100
AcDbLine
 10
139.3142538101
 20
139.5468077921
 30
0.0
 11
139.6263873332
 21
191.3653410129
 31
0.0
  0
ARC
  5
B2
330
1F
100
AcDbEntity
  8
0
  6
Continuous
 62
     7
370
    25
100
AcDbCircle
 10
109.7834985178
 20
139.4028659123
 30
0.0
 40
0.2466272410717122
100
AcDbArc
 50
173.4588133606
 51
253.3756797965
  0
LINE
  5
B3
330
1F
100
AcDbEntity
  8
0
  6
Continuous
 62
     7
370
    25
100
AcDbLine
 10
126.2666904074
 20
140.7611525906
 30
0.0
 11
109.5384767649
 21
139.4309610479
 31
0.0
  0
SPLINE
  5
B4
330
1F
100
AcDbEntity
  8
0
  6
Continuous
 62
     7
370
    25
100
AcDbSpline
210
0.0
220
0.0
230
1.0
 70
     8
 71
     3
 72
    13
 73
     9
 74
     0
 42
0.00000001
 43
0.00000001
 40
0.0
 40
0.0
 40
0.0
 40
0.0
 40
0.2397002536162289
 40
0.3699338437970702
 40
0.5000245588800266
 40
0.6302504349959874
 40
0.7603334995265414
 40
1.0
 40
1.0
 40
1.0
 40
1.0
 10
128.5048312138785
 20
192.2620733061991
 30
0.0
 10
128.3802147279061
 20
192.2679972259537
 30
0.0
 10
128.1878917955739
 20
192.2771397210997
 30
0.0
 10
127.8730818605828
 20
192.2812763943372
 30
0.0
 10
127.6207017258969
 20
192.2810835854519
 30
0.0
 10
127.3695438686061
 20
192.2772278695948
 30
0.0
 10
127.0588748596125
 20
192.2680618409651
 30
0.0
 10
126.8732202742322
 20
192.2558850114758
 30
0.0
 10
126.7528815666682
 20
192.2479921607823
 30
0.0
  0
LINE
  5
B5
330
1F
100
AcDbEntity
  8
0
  6
Continuous
 62
     7
370
    25
100
AcDbLine
 10
128.5048295837
 20
192.2620731723
 30
0.0
 11
128.5215336576
 21
192.2622567758
 31
0.0
  0
LINE
  5
B6
330
1F
100
AcDbEntity
  8
0
  6
Continuous
 62
     7
370
    25
100
AcDbLine
 10
126.7346897781
 20
192.2478440385
 30
0.0
 11
126.7528815667
 21
192.2479921608
 31
0.0
  0
ELLIPSE
  5
B7
330
1F
100
AcDbEntity
  8
0
  6
Continuous
 62
     7
370
    25
100
AcDbEllipse
 10
139.4519328684
 20
191.3513940986
 30
0.0
 11
0.02179332833458147
 21
0.2490953214337708
 31
0.0
210
0.0
220
0.0
230
1.0
 40
0.6948921573
 41
4.829026512397457
 42
6.399527770609746
  0
LINE
  5
B8
330
1F
100
AcDbEntity
  8
0
  6
Continuous
 62
     7
370
    25
100
AcDbLine
 10
109.7206248543
 20
138.9992224449
 30
0.0
 11
109.6967637328
 21
138.9996675198
 31
0.0
  0
LINE
  5
B9
330
1F
100
AcDbEntity
  8
0
  6
Continuous
 62
     7
370
    25
100
AcDbLine
 10
121.010438187
 20
139.9275683681
 30
0.0
 11
120.9978717104
 21
137.8413573696
 31
0.0
  0
LWPOLYLINE
  5
BA
330
1F
100
AcDbEntity
  8
0
  6
Continuous
 62
     7
370
    25
100
AcDbPolyline
 90
       42
 70
   128
 43
0.0
 10
108.7116686459
 20
181.9982561089
 10
108.7677618594
 20
180.8518998368
 10
108.9484710182
 20
179.721446058
 10
109.2495604527
 20
178.6333916511
 10
109.6639728818
 20
177.6132396891
 10
110.1819948294
 20
176.6849016695
 10
110.7914843001
 20
175.8701370484
 10
111.4781553773
 20
175.1880432182
 10
112.2259130729
 20
174.6546078801
 10
113.0172305803
 20
174.2823343062
 10
113.8335600878
 20
174.0799482737
 10
114.6557675236
 20
174.0521935395
 10
115.4645810424
 20
174.1997206512
 10
116.2410427408
 20
174.5190716983
 10
116.9669530146
 20
175.0027613629
 10
117.6252971423
 20
175.6394523692
 10
118.2006440956
 20
176.4142212197
 10
118.6795082294
 20
177.3089079891
 10
119.0506653744
 20
178.302541978
 10
119.3054159216
 20
179.3718332477
 10
119.4377887341
 20
180.4917185172
 10
119.4446811055
 20
181.635948625
 10
119.3259314843
 20
182.7777037871
 10
119.0843232611
 20
183.8902222302
 10
118.7255195278
 20
184.947427465
 10
118.2579303398
 20
185.9245394968
 10
117.6925155914
 20
186.7986556477
 10
117.042528125
 20
187.5492873761
 10
116.323203096
 20
188.1588405104
 10
115.5514008733
 20
188.6130276417
 10
114.745211847
 20
188.9012030087
 10
113.9235324045
 20
189.0166120251
 10
113.1056220154
 20
188.9565496012
 10
112.3106518062
 20
188.7224235494
 10
111.5572552047
 20
188.319721586
 10
110.8630911887
 20
187.7578827035
 10
110.2444303744
 20
187.0500759294
 10
109.7157736469
 20
186.2128916543
 10
109.2895122719
 20
185.2659527682
 10
108.9756374547
 20
184.2314547159
 10
108.781506155
 20
183.1336452551
 10
108.7116686459
 20
181.9982561089
  0
LINE
  5
BB
330
1F
100
AcDbEntity
  8
0
  6
Continuous
 62
     7
370
    25
100
AcDbLine
 10
114.5436459625
 20
173.5453888137
 30
0.0
 11
114.3696202028
 21
173.5277912342
 31
0.0
  0
LWPOLYLINE
  5
BC
330
1F
100
AcDbEntity
  8
0
  6
Continuous
 62
     7
370
    25
100
AcDbPolyline
 90
       10
 70
   128
 43
0.0
 10
103.4612532551
 20
177.6734586865
 10
103.536342432
 20
177.4805649259
 10
104.0255535299
 20
176.4449809753
 10
104.6175792442
 20
175.5159877496
 10
105.2988239736
 20
174.7149191557
 10
106.0536432429
 20
174.0601713692
 10
106.864702971
 20
173.5667803751
 10
107.7133775404
 20
173.2460766732
 10
108.5801775256
 20
173.105425078
 10
109.1367968653
 20
173.1116883856
  0
LWPOLYLINE
  5
BD
330
1F
100
AcDbEntity
  8
0
  6
Continuous
 62
     7
370
    25
100
AcDbPolyline
 90
       41
 70
   128
 43
0.0
 10
108.8907574916
 20
181.9826595182
 10
108.9478912351
 20
180.8469005673
 10
109.1315012467
 20
179.7279706162
 10
109.4370664387
 20
178.6534214338
 10
109.8570627818
 20
177.6497119872
 10
110.3811485723
 20
176.7415569341
 10
110.9964190786
 20
175.951318066
 10
111.6877242988
 20
175.2984536863
 10
112.4380420043
 20
174.7990394828
 10
113.2288968828
 20
174.4653726908
 10
114.0408154626
 20
174.305669294
 10
114.8538056136
 20
174.32386172
 10
115.6478488202
 20
174.5195020109
 10
116.4033931033
 20
174.8877728536
 10
117.1018344552
 20
175.4196061975
 10
117.7259749318
 20
176.1019065409
 10
118.2604461232
 20
176.9178733846
 10
118.6920875748
 20
177.8474149172
 10
119.0102708415
 20
178.8676427409
 10
119.2071611954
 20
179.9534354609
 10
119.2779105425
 20
181.0780572569
 10
119.220776799
 20
182.2138162078
 10
119.0371667873
 20
183.3327461589
 10
118.7316015954
 20
184.4072953413
 10
118.3116052522
 20
185.4110047879
 10
117.7875194618
 20
186.319159841
 10
117.1722489555
 20
187.1093987091
 10
116.4809437352
 20
187.7622630888
 10
115.7306260298
 20
188.2616772923
 10
114.9397711513
 20
188.5953440843
 10
114.1278525715
 20
188.7550474811
 10
113.3148624205
 20
188.7368550551
 10
112.5208192139
 20
188.5412147642
 10
111.7652749308
 20
188.1729439215
 10
111.0668335788
 20
187.6411105776
 10
110.4426931022
 20
186.9588102342
 10
109.9082219109
 20
186.1428433905
 10
109.4765804593
 20
185.2133018579
 10
109.1583971925
 20
184.1930740342
 10
108.9615068386
 20
183.1072813142
 10
108.8907574916
 20
181.9826595182
  0
LWPOLYLINE
  5
BE
330
1F
100
AcDbEntity
  8
0
  6
Continuous
 62
     7
370
    25
100
AcDbPolyline
 90
       36
 70
   128
 43
0.0
 10
109.6164356766
 20
181.861339784
 10
109.676467559
 20
180.8324572164
 10
109.866959413
 20
179.8251141742
 10
110.1817886737
 20
178.8716874915
 10
110.6108364695
 20
178.0028210864
 10
111.1403128513
 20
177.2464410401
 10
111.7532000126
 20
176.6268580297
 10
112.4297992557
 20
176.1639859629
 10
113.1483641241
 20
175.8727019287
 10
113.8857993519
 20
175.7623680357
 10
114.618403164
 20
175.836530506
 10
115.3226290711
 20
176.0928056968
 10
115.9758426731
 20
176.5229567126
 10
116.5570491474
 20
177.1131581458
 10
117.0475680396
 20
177.8444404367
 10
117.4316336691
 20
178.6932995708
 10
117.6969018504
 20
179.6324525171
 10
117.8348466459
 20
180.6317141272
 10
117.8410343964
 20
181.6589673106
 10
117.7152662225
 20
182.6811953049
 10
117.4615844168
 20
183.6655428613
 10
117.0881425213
 20
184.5803722393
 10
116.6069432657
 20
185.39628007
 10
116.0334527901
 20
186.0870424044
 10
115.3861035502
 20
186.6304575728
 10
114.6857018833
 20
187.0090597644
 10
113.9547592751
 20
187.2106803933
 10
113.2167688226
 20
187.2288392067
 10
112.4954501461
 20
187.0629525653
 10
111.8139870213
 20
186.7183522023
 10
111.1942822339
 20
186.2061138568
 10
110.6562536055
 20
185.5427012908
 10
110.2171938191
 20
184.74943713
 10
109.8912146173
 20
183.8518175372
 10
109.6887932399
 20
182.8786927447
 10
109.6164356766
 20
181.861339784
  0
LINE
  5
BF
330
1F
100
AcDbEntity
  8
0
  6
Continuous
 62
     7
370
    25
100
AcDbLine
 10
103.7434791231
 20
177.1565100202
 30
0.0
 11
103.3141507268
 21
177.3973297829
 31
0.0
  0
LINE
  5
C0
330
1F
100
AcDbEntity
  8
0
  6
Continuous
 62
     7
370
    25
100
AcDbLine
 10
103.5221531717
 20
176.4372006993
 30
0.0
 11
103.9282422936
 21
177.0528722844
 31
0.0
  0
LINE
  5
C1
330
1F
100
AcDbEntity
  8
0
  6
Continuous
 62
     7
370
    25
100
AcDbLine
 10
104.2379040492
 20
176.1081910214
 30
0.0
 11
103.5221531717
 21
176.4372006993
 31
0.0
  0
LINE
  5
C2
330
1F
100
AcDbEntity
  8
0
  6
Continuous
 62
     7
370
    25
100
AcDbLine
 10
104.200710929
 20
175.4257011591
 30
0.0
 11
104.4214615558
 21
175.7739922498
 31
0.0
  0
LINE
  5
C3
330
1F
100
AcDbEntity
  8
0
  6
Continuous
 62
     7
370
    25
100
AcDbLine
 10
105.0112607532
 20
175.1342665824
 30
0.0
 11
104.200710929
 21
175.4257011591
 31
0.0
  0
LINE
  5
C4
330
1F
100
AcDbEntity
  8
0
  6
Continuous
 62
     7
370
    25
100
AcDbLine
 10
104.9887815455
 20
174.5845168503
 30
0.0
 11
105.2801935739
 21
175.0375713263
 31
0.0
  0
LINE
  5
C5
330
1F
100
AcDbEntity
  8
0
  6
Continuous
 62
     7
370
    25
100
AcDbLine
 10
105.5454001876
 20
174.4395895868
 30
0.0
 11
104.9887815455
 21
174.5845168503
 31
0.0
  0
LINE
  5
C6
330
1F
100
AcDbEntity
  8
0
  6
Continuous
 62
     7
370
    25
100
AcDbLine
 10
106.4311555879
 20
173.8472269873
 30
0.0
 11
105.8624198942
 21
173.9392067325
 31
0.0
  0
LINE
  5
C7
330
1F
100
AcDbEntity
  8
0
  6
Continuous
 62
     7
370
    25
100
AcDbLine
 10
107.0753421453
 20
173.4916967819
 30
0.0
 11
106.7950809161
 21
173.509378227
 31
0.0
  0
ARC
  5
C8
330
1F
100
AcDbEntity
  8
0
  6
Continuous
 62
     7
370
    25
100
AcDbCircle
 10
113.9759062115
 20
180.7822727581
 30
0.0
 40
6.270026758211995
100
AcDbArc
 50
315.1847147752
 51
35.266254173
  0
LWPOLYLINE
  5
C9
330
1F
100
AcDbEntity
  8
0
  6
Continuous
 62
     7
370
    25
100
AcDbPolyline
 90
       23
 70
   128
 43
0.0
 10
117.4485227198
 20
187.5004384639
 10
117.8958694057
 20
187.4622070495
 10
118.6574039911
 20
187.2542357824
 10
119.3778503027
 20
186.8717135375
 10
120.0385491594
 20
186.3245474402
 10
120.622388808
 20
185.6269088048
 10
121.1142481081
 20
184.7968661057
 10
121.5013881622
 20
183.8559170127
 10
121.7737822464
 20
182.828431613
 10
121.9243754969
 20
181.7410212388
 10
121.9492676277
 20
180.6218492477
 10
121.8478139455
 20
179.4999016062
 10
121.6226420476
 20
178.404236169
 10
121.2795837677
 20
177.3632300954
 10
120.8275241352
 20
176.4038448959
 10
120.278171257
 20
175.5509281431
 10
119.6457530841
 20
174.826569933
 10
118.9466489151
 20
174.2495307628
 10
118.1989651806
 20
173.8347556438
 10
117.4220664967
 20
173.5929870337
 10
116.6360741312
 20
173.5304866126
 10
115.8613448735
 20
173.6488731085
 10
115.5078580081
 20
173.7659095319
  0
LWPOLYLINE
  5
CA
330
1F
100
AcDbEntity
  8
0
  6
Continuous
 62
     7
370
    25
100
AcDbPolyline
 90
       20
 70
   128
 43
0.0
 10
116.2456782521
 20
174.0634552374
 10
116.673757651
 20
174.0685648271
 10
117.4207449452
 20
174.2162633658
 10
118.1484206454
 20
174.5366171359
 10
118.8369356553
 20
175.0208877218
 10
119.4675090804
 20
175.655865484
 10
120.0229405213
 20
176.4242298847
 10
120.4880792563
 20
177.3050219458
 10
120.8502375131
 20
178.2742159561
 10
121.0995365587
 20
179.3053748294
 10
121.229176165
 20
180.3703712397
 10
121.2356201014
 20
181.4401548612
 10
121.1186925941
 20
182.4855447854
 10
120.8815831207
 20
183.4780255002
 10
120.5307594096
 20
184.390524719
 10
120.0757910171
 20
185.1981518419
 10
119.5290882949
 20
185.8788769061
 10
118.9055638681
 20
186.4141315065
 10
118.2222258577
 20
186.789315293
 10
117.9186380246
 20
186.8975022025
  0
LWPOLYLINE
  5
CB
330
1F
100
AcDbEntity
  8
0
  6
Continuous
 62
     7
370
    25
100
AcDbPolyline
 90
       22
 70
   128
 43
0.0
 10
118.3946285818
 20
187.4258973329
 10
118.6122247885
 20
187.3998206866
 10
119.3737593739
 20
187.1918494195
 10
120.0942056855
 20
186.8093271747
 10
120.7549045422
 20
186.2621610773
 10
121.3387441908
 20
185.564522442
 10
121.8306034909
 20
184.7344797428
 10
122.217743545
 20
183.7935306498
 10
122.4901376292
 20
182.7660452501
 10
122.6407308797
 20
181.678634876
 10
122.6656230105
 20
180.5594628848
 10
122.5641693283
 20
179.4375152433
 10
122.3389974304
 20
178.3418498061
 10
121.9959391505
 20
177.3008437325
 10
121.543879518
 20
176.341458533
 10
120.9945266398
 20
175.4885417803
 10
120.3621084669
 20
174.7641835702
 10
119.6630042979
 20
174.1871443999
 10
118.9153205635
 20
173.7723692809
 10
118.1384218796
 20
173.5306006709
 10
117.352429514
 20
173.4681002497
 10
117.1799861388
 20
173.4786881591
  0
LWPOLYLINE
  5
CC
330
1F
100
AcDbEntity
  8
0
  6
Continuous
 62
     7
370
    25
100
AcDbPolyline
 90
       56
 70
   128
 43
0.0
 10
66.1244192557
 20
163.8558595422
 10
65.0736596835
 20
163.7117945
 10
64.1421177917
 20
163.4569764381
 10
63.3419376535
 20
163.0947272995
 10
62.6835508406
 20
162.6297695557
 10
62.1755404321
 20
162.0681646421
 10
61.8245291206
 20
161.4172339374
 10
61.6350928752
 20
160.685463319
 10
61.6097012872
 20
159.8823925359
 10
61.7486853747
 20
159.0184908439
 10
62.0502332676
 20
158.1050205228
 10
62.510413828
 20
157.1538900551
 10
63.1232278985
 20
156.1774988811
 10
63.8806865104
 20
155.1885757529
 10
64.7729150325
 20
154.2000127958
 10
65.7882819015
 20
153.2246974399
 10
66.9135502574
 20
152.2753444123
 10
68.1340505062
 20
151.3643299816
 10
69.4338715609
 20
150.5035306142
 10
70.796068266
 20
149.7041681461
 10
72.2028823043
 20
148.9766634896
 10
73.6359737034
 20
148.3305007806
 10
75.0766599254
 20
147.774103738
 10
76.5061594219
 20
147.3147258483
 10
77.9058364809
 20
146.9583558048
 10
79.2574441716
 20
146.7096394359
 10
80.5433622205
 20
146.57181914
 10
81.7468267194
 20
146.5466916153
 10
82.852148668
 20
146.6345844375
 10
83.8449185044
 20
146.8343517893
 10
84.7121939556
 20
147.1433893978
 10
85.4426687596
 20
147.5576684852
 10
86.0268200603
 20
148.0717882898
 10
86.4570325522
 20
148.679046474
 10
86.7276977575
 20
149.3715264985
 10
86.8352871413
 20
150.1402008272
 10
86.7783981115
 20
150.9750486147
 10
86.5577723035
 20
151.8651863434
 10
86.1762859122
 20
152.7990097067
 10
85.6389121961
 20
153.7643448889
 10
84.9526566434
 20
154.7486072696
 10
84.1264656447
 20
155.7389654835
 10
83.1711098631
 20
156.7225086968
 10
82.0990438224
 20
157.6864149194
 10
80.9242435429
 20
158.6181181597
 10
79.6620243428
 20
159.5054722411
 10
78.3288411798
 20
160.3369091461
 10
76.9420741351
 20
161.101589823
 10
75.5198018381
 20
161.78954549
 10
74.0805657831
 20
162.3918075927
 10
72.6431286133
 20
162.9005247236
 10
71.2262295203
 20
163.3090649769
 10
69.8483399508
 20
163.6121024057
 10
68.5274228024
 20
163.8056864535
 10
67.2806982503
 20
163.8872934564
 10
66.1244192557
 20
163.8558595422
  0
LWPOLYLINE
  5
CD
330
1F
100
AcDbEntity
  8
0
  6
Continuous
 62
     7
370
    25
100
AcDbPolyline
 90
       20
 70
   128
 43
0.0
 10
61.7310535391
 20
157.0163554313
 10
61.7933958594
 20
156.9130915858
 10
62.4751163763
 20
155.9060320628
 10
63.2945179601
 20
154.8908849316
 10
64.2419938764
 20
153.8795518644
 10
65.3064358364
 20
152.8838898166
 10
66.4753642314
 20
151.9155720153
 10
67.7350744446
 20
150.9859511015
 10
69.0707975256
 20
150.1059260305
 10
70.4668733426
 20
149.2858142915
 10
71.9069341829
 20
148.5352309448
 10
73.37409665
 20
147.862975894
 10
74.8511596053
 20
147.2769307149
 10
76.3208058362
 20
146.7839662513
 10
77.7658050843
 20
146.3898620609
 10
79.1692160546
 20
146.0992386549
 10
80.5145850367
 20
145.9155033272
 10
81.7861388092
 20
145.8408102063
 10
82.9689695669
 20
145.876035001
 10
83.9734606992
 20
146.0064043446
  0
LWPOLYLINE
  5
CE
330
1F
100
AcDbEntity
  8
0
  6
Continuous
 62
     7
370
    25
100
AcDbPolyline
 90
       21
 70
   128
 43
0.0
 10
87.7080144272
 20
151.070811161
 10
87.5638473062
 20
151.5764535442
 10
87.1797586825
 20
152.532150539
 10
86.6437117823
 20
153.5193156018
 10
85.9619912654
 20
154.5263751248
 10
85.1425896816
 20
155.541522256
 10
84.1951137652
 20
156.5528553232
 10
83.1306718052
 20
157.548517371
 10
81.9617434103
 20
158.5168351723
 10
80.702033197
 20
159.4464560861
 10
79.366310116
 20
160.3264811571
 10
77.9702342991
 20
161.1465928961
 10
76.5301734587
 20
161.8971762428
 10
75.0630109917
 20
162.5694312936
 10
73.5859480364
 20
163.1554764727
 10
72.1163018055
 20
163.6484409363
 10
70.6713025574
 20
164.0425451267
 10
69.2678915871
 20
164.3331685327
 10
67.922522605
 20
164.5169038604
 10
66.6509688324
 20
164.5915969813
 10
65.6743096236
 20
164.5708503546
  0
LWPOLYLINE
  5
CF
330
1F
100
AcDbEntity
  8
0
  6
Continuous
 62
     7
370
    25
100
AcDbPolyline
 90
       12
 70
   128
 43
0.0
 10
87.6049047872
 20
152.4524419926
 10
87.8902192584
 20
151.7109182699
 10
88.1216403054
 20
150.7826769457
 10
88.1912790985
 20
149.9087023562
 10
88.0983191863
 20
149.0992410543
 10
87.843850439
 20
148.3637832337
 10
87.4308562699
 20
147.7109514649
 10
86.864178658
 20
147.1483996036
 10
86.1504613802
 20
146.6827230559
 10
85.2980721191
 20
146.3193814535
 10
84.3170043593
 20
146.0626346447
 10
84.1551258294
 20
146.0327636379
  0
LWPOLYLINE
  5
D0
330
1F
100
AcDbEntity
  8
0
  6
Continuous
 62
     7
370
    25
100
AcDbPolyline
 90
       12
 70
   128
 43
0.0
 10
60.8723497849
 20
158.7792291118
 10
60.7547891714
 20
159.1117433707
 10
60.5233681244
 20
160.039984695
 10
60.4537293314
 20
160.9139592845
 10
60.5466892435
 20
161.7234205864
 10
60.8011579908
 20
162.458878407
 10
61.21415216
 20
163.1117101758
 10
61.7808297718
 20
163.6742620371
 10
62.4945470496
 20
164.1399385848
 10
63.3469363107
 20
164.5032801871
 10
64.3280040705
 20
164.760026996
 10
64.3414504756
 20
164.7626278238
  0
LWPOLYLINE
  5
D1
330
1F
100
AcDbEntity
  8
0
  6
Continuous
 62
     7
370
    25
100
AcDbPolyline
 90
        7
 70
   128
 43
0.0
 10
67.4013056939
 20
168.614586194
 10
66.303061558
 20
168.4674443002
 10
65.3219937982
 20
168.2106974914
 10
64.4696045371
 20
167.8473558891
 10
63.7558872593
 20
167.3816793414
 10
63.1892096474
 20
166.81912748
 10
62.8383166689
 20
166.2889101262
  0
LWPOLYLINE
  5
D2
330
1F
100
AcDbEntity
  8
0
  6
Continuous
 62
     7
370
    25
100
AcDbPolyline
 90
       25
 70
   128
 43
0.0
 10
89.7568067359
 20
151.948586123
 10
89.8189079265
 20
152.071200538
 10
90.0733766738
 20
152.8066583586
 10
90.1663365859
 20
153.6161196605
 10
90.0966977929
 20
154.49009425
 10
89.8652767459
 20
155.4183355742
 10
89.4747866451
 20
156.3899608522
 10
88.9298056298
 20
157.3935786661
 10
88.2367231043
 20
158.4174225145
 10
87.4036648275
 20
159.4494887645
 10
86.4403976459
 20
160.4776773828
 10
85.3582149865
 20
161.4899337981
 10
84.1698044516
 20
162.4743902294
 10
82.8890990682
 20
163.4195048251
 10
81.5311139358
 20
164.3141969807
 10
80.1117701886
 20
165.1479772486
 10
78.6477083343
 20
165.9110703177
 10
77.1560931594
 20
166.5945296194
 10
75.6544124882
 20
167.1903422182
 10
74.1602721535
 20
167.6915227562
 10
72.6911895846
 20
168.0921953498
 10
71.2643884314
 20
168.3876624791
 10
69.896596633
 20
168.5744600624
 10
68.6038502975
 20
168.6503980685
 10
67.4013056939
 20
168.614586194
  0
LWPOLYLINE
  5
D3
330
1F
100
AcDbEntity
  8
0
  6
Continuous
 62
     7
370
    25
100
AcDbPolyline
 90
       57
 70
   128
 43
0.0
 10
66.0209474311
 20
163.9663050701
 10
67.1702454175
 20
163.9985772369
 10
68.4081799716
 20
163.9204059595
 10
69.7191833481
 20
163.732774287
 10
71.086768919
 20
163.4380417967
 10
72.493738502
 20
163.0399149205
 10
73.9223986385
 20
162.543400335
 10
75.3547830982
 20
161.9547419991
 10
76.7728788155
 20
161.281342633
 10
78.1588524139
 20
160.5316706244
 10
79.4952744713
 20
159.7151535337
 10
80.7653387049
 20
158.8420595373
 10
81.9530733201
 20
157.9233682985
 10
83.0435418648
 20
156.9706328929
 10
84.0230310646
 20
155.9958345209
 10
84.8792232743
 20
155.0112318376
 10
85.6013513802
 20
154.0292067931
 10
86.1803342023
 20
153.0621089221
 10
86.6088906957
 20
152.1221000414
 10
86.8816315139
 20
151.2210013081
 10
86.9951267828
 20
150.3701445616
 10
86.9479492336
 20
149.5802298192
 10
86.7406921513
 20
148.8611907171
 10
86.3759619139
 20
148.2220695892
 10
85.8583452159
 20
147.6709037544
 10
85.1943513876
 20
147.2146244431
 10
84.3923305365
 20
146.8589696322
 10
83.4623685403
 20
146.6084118873
 10
82.4161602106
 20
146.4661021175
 10
81.2668622242
 20
146.4338299507
 10
80.02892767
 20
146.5120012281
 10
78.7179242935
 20
146.6996329006
 10
77.3503387227
 20
146.9943653909
 10
75.9433691396
 20
147.3924922671
 10
74.5147090032
 20
147.8890068526
 10
73.0823245435
 20
148.4776651885
 10
71.6642288262
 20
149.1510645546
 10
70.2782552278
 20
149.9007365632
 10
68.9418331703
 20
150.7172536539
 10
67.6717689367
 20
151.5903476503
 10
66.4840343216
 20
152.5090388891
 10
65.3935657768
 20
153.4617742947
 10
64.4140765771
 20
154.4365726667
 10
63.5578843674
 20
155.42117535
 10
62.8357562615
 20
156.4032003945
 10
62.2567734394
 20
157.3702982655
 10
61.828216946
 20
158.3103071462
 10
61.5554761278
 20
159.2114058795
 10
61.4419808589
 20
160.062262626
 10
61.4891584081
 20
160.8521773684
 10
61.6964154904
 20
161.5712164705
 10
62.0611457277
 20
162.2103375984
 10
62.5787624257
 20
162.7615034332
 10
63.2427562541
 20
163.2177827445
 10
64.0447771052
 20
163.5734375554
 10
64.9747391014
 20
163.8239953003
 10
66.0209474311
 20
163.9663050701
  0
LINE
  5
D4
330
1F
100
AcDbEntity
  8
0
  6
Continuous
 62
     7
370
    25
100
AcDbLine
 10
62.4123744678
 20
162.6102905816
 30
0.0
 11
62.3947513089
 21
162.531839524
 31
0.0
  0
LINE
  5
D5
330
1F
100
AcDbEntity
  8
0
  6
Continuous
 62
     7
370
    25
100
AcDbLine
 10
86.8861644026
 20
149.4844955539
 30
0.0
 11
86.9414416029
 21
149.5428871225
 31
0.0
  0
LWPOLYLINE
  5
D6
330
1F
100
AcDbEntity
  8
0
  6
Continuous
 62
     7
370
    25
100
AcDbPolyline
 90
        8
 70
   128
 43
0.0
 10
67.609206482
 20
169.0048406471
 10
66.5109623461
 20
168.8576987533
 10
65.5298945864
 20
168.6009519445
 10
64.6775053252
 20
168.2376103422
 10
63.9637880475
 20
167.7719337945
 10
63.3971104356
 20
167.2093819331
 10
62.9841162665
 20
166.5565501643
 10
62.9487594274
 20
166.4805786666
  0
LWPOLYLINE
  5
D7
330
1F
100
AcDbEntity
  8
0
  6
Continuous
 62
     7
370
    25
100
AcDbPolyline
 90
       25
 70
   128
 43
0.0
 10
89.8542647655
 20
152.1471720357
 10
90.0268087146
 20
152.4614549911
 10
90.2812774619
 20
153.1969128116
 10
90.3742373741
 20
154.0063741135
 10
90.3045985811
 20
154.8803487031
 10
90.073177534
 20
155.8085900273
 10
89.6826874332
 20
156.7802153053
 10
89.137706418
 20
157.7838331192
 10
88.4446238925
 20
158.8076769676
 10
87.6115656156
 20
159.8397432176
 10
86.648298434
 20
160.8679318359
 10
85.5661157747
 20
161.8801882512
 10
84.3777052398
 20
162.8646446825
 10
83.0969998563
 20
163.8097592781
 10
81.739014724
 20
164.7044514337
 10
80.3196709768
 20
165.5382317017
 10
78.8556091224
 20
166.3013247708
 10
77.3639939476
 20
166.9847840725
 10
75.8623132763
 20
167.5805966713
 10
74.3681729416
 20
168.0817772093
 10
72.8990903727
 20
168.4824498028
 10
71.4722892195
 20
168.7779169322
 10
70.1044974211
 20
168.9647145154
 10
68.8117510857
 20
169.0406525216
 10
67.609206482
 20
169.0048406471
  0
ARC
  5
D8
330
1F
100
AcDbEntity
  8
0
  6
Continuous
 62
     7
370
    25
100
AcDbCircle
 10
68.0042584334
 20
162.1138560948
 30
0.0
 40
6.739924008108678
100
AcDbArc
 50
92.1190199753
 51
122.2434591185
  0
LWPOLYLINE
  5
D9
330
1F
100
AcDbEntity
  8
0
  6
Continuous
 62
     7
370
    25
100
AcDbPolyline
 90
       22
 70
   128
 43
0.0
 10
90.1469603389
 20
154.1026630133
 10
90.0783832353
 20
154.9562282748
 10
89.8507559759
 20
155.8692525281
 10
89.4666673522
 20
156.8249495229
 10
88.930620452
 20
157.8121145857
 10
88.2488999351
 20
158.8191741087
 10
87.4294983513
 20
159.8343212399
 10
86.4820224349
 20
160.8456543071
 10
85.4175804749
 20
161.8413163549
 10
84.24865208
 20
162.8096341562
 10
82.9889418667
 20
163.7392550699
 10
81.6532187857
 20
164.619280141
 10
80.2571429688
 20
165.43939188
 10
78.8170821285
 20
166.1899752267
 10
77.3499196614
 20
166.8622302775
 10
75.8728567061
 20
167.4482754566
 10
74.4032104752
 20
167.9412399202
 10
72.9582112271
 20
168.3353441106
 10
71.5548002568
 20
168.6259675166
 10
70.2094312747
 20
168.8097028443
 10
68.9378775021
 20
168.8843959652
 10
67.7550467444
 20
168.8491711705
  0
LWPOLYLINE
  5
DA
330
1F
100
AcDbEntity
  8
0
  6
Continuous
 62
     7
370
    25
100
AcDbPolyline
 90
        7
 70
   128
 43
0.0
 10
83.61756717
 20
199.0544335344
 10
82.5193230341
 20
198.9072916406
 10
81.5382552743
 20
198.6505448317
 10
80.6858660132
 20
198.2872032294
 10
79.9721487354
 20
197.8215266817
 10
79.4054711235
 20
197.2589748204
 10
79.054578145
 20
196.7287574665
  0
LWPOLYLINE
  5
DB
330
1F
100
AcDbEntity
  8
0
  6
Continuous
 62
     7
370
    25
100
AcDbPolyline
 90
       25
 70
   128
 43
0.0
 10
105.973068212
 20
182.3884334634
 10
106.0351694026
 20
182.5110478783
 10
106.2896381499
 20
183.2465056989
 10
106.382598062
 20
184.0559670008
 10
106.312959269
 20
184.9299415903
 10
106.081538222
 20
185.8581829145
 10
105.6910481212
 20
186.8298081926
 10
105.1460671059
 20
187.8334260064
 10
104.4529845804
 20
188.8572698549
 10
103.6199263036
 20
189.8893361048
 10
102.656659122
 20
190.9175247232
 10
101.5744764626
 20
191.9297811385
 10
100.3860659277
 20
192.9142375697
 10
99.1053605443
 20
193.8593521654
 10
97.7473754119
 20
194.754044321
 10
96.3280316647
 20
195.587824589
 10
94.8639698104
 20
196.3509176581
 10
93.3723546355
 20
197.0343769597
 10
91.8706739643
 20
197.6301895585
 10
90.3765336296
 20
198.1313700965
 10
88.9074510607
 20
198.5320426901
 10
87.4806499075
 20
198.8275098195
 10
86.1128581091
 20
199.0143074027
 10
84.8201117736
 20
199.0902454089
 10
83.61756717
 20
199.0544335344
  0
LWPOLYLINE
  5
DC
330
1F
100
AcDbEntity
  8
0
  6
Continuous
 62
     7
370
    25
100
AcDbPolyline
 90
        7
 70
   128
 43
0.0
 10
83.61756717
 20
199.0544335344
 10
82.5193230341
 20
198.9072916406
 10
81.5382552743
 20
198.6505448317
 10
80.6858660132
 20
198.2872032294
 10
79.9721487354
 20
197.8215266817
 10
79.4054711235
 20
197.2589748204
 10
79.054578145
 20
196.7287574665
  0
LWPOLYLINE
  5
DD
330
1F
100
AcDbEntity
  8
0
  6
Continuous
 62
     7
370
    25
100
AcDbPolyline
 90
       25
 70
   128
 43
0.0
 10
105.973068212
 20
182.3884334634
 10
106.0351694026
 20
182.5110478783
 10
106.2896381499
 20
183.2465056989
 10
106.382598062
 20
184.0559670008
 10
106.312959269
 20
184.9299415903
 10
106.081538222
 20
185.8581829145
 10
105.6910481212
 20
186.8298081926
 10
105.1460671059
 20
187.8334260064
 10
104.4529845804
 20
188.8572698549
 10
103.6199263036
 20
189.8893361048
 10
102.656659122
 20
190.9175247232
 10
101.5744764626
 20
191.9297811385
 10
100.3860659277
 20
192.9142375697
 10
99.1053605443
 20
193.8593521654
 10
97.7473754119
 20
194.754044321
 10
96.3280316647
 20
195.587824589
 10
94.8639698104
 20
196.3509176581
 10
93.3723546355
 20
197.0343769597
 10
91.8706739643
 20
197.6301895585
 10
90.3765336296
 20
198.1313700965
 10
88.9074510607
 20
198.5320426901
 10
87.4806499075
 20
198.8275098195
 10
86.1128581091
 20
199.0143074027
 10
84.8201117736
 20
199.0902454089
 10
83.61756717
 20
199.0544335344
  0
ARC
  5
DE
330
1F
100
AcDbEntity
  8
0
  6
Continuous
 62
     7
370
    25
100
AcDbCircle
 10
108.1418685225
 20
196.6144236294
 30
0.0
 40
4.78763456307621
100
AcDbArc
 50
336.1876065294
 51
29.3875661527
  0
ARC
  5
DF
330
1F
100
AcDbEntity
  8
0
  6
Continuous
 62
     7
370
    25
100
AcDbCircle
 10
89.5672013039
 20
206.5603698271
 30
0.0
 40
4.665812376422237
100
AcDbArc
 50
96.2663597449
 51
148.1606036522
  0
LWPOLYLINE
  5
E0
330
1F
100
AcDbEntity
  8
0
  6
Continuous
 62
     7
370
    25
100
AcDbPolyline
 90
       20
 70
   128
 43
0.0
 10
89.2658575724
 20
211.2282460179
 10
89.3359925197
 20
211.2421768248
 10
90.4162326534
 20
211.3869065564
 10
91.599063411
 20
211.422131351
 10
92.8706171836
 20
211.3474382302
 10
94.2159861657
 20
211.1637029024
 10
95.619397136
 20
210.8730794965
 10
97.0643963841
 20
210.4789753061
 10
98.534042615
 20
209.9860108425
 10
100.0111055703
 20
209.3999656633
 10
101.4782680374
 20
208.7277106125
 10
102.9183288777
 20
207.9771272659
 10
104.3144046946
 20
207.1570155269
 10
105.6501277757
 20
206.2769904558
 10
106.9098379889
 20
205.347369542
 10
108.0787663838
 20
204.3790517408
 10
109.1432083439
 20
203.383389693
 10
110.0906842602
 20
202.3720566257
 10
110.910085844
 20
201.3569094946
 10
111.591349686
 20
200.3505977643
  0
LINE
  5
E1
330
1F
100
AcDbEntity
  8
0
  6
Continuous
 62
     7
370
    25
100
AcDbLine
 10
106.2712433331
 20
182.9481435533
 30
0.0
 11
107.3775606316
 21
181.7672636518
 31
0.0
  0
LINE
  5
E2
330
1F
100
AcDbEntity
  8
0
  6
Continuous
 62
     7
370
    25
100
AcDbLine
 10
105.5436211623
 20
181.5823103844
 30
0.0
 11
107.3775606316
 21
181.7672636518
 31
0.0
  0
LWPOLYLINE
  5
E3
330
1F
100
AcDbEntity
  8
0
  6
Continuous
 62
     7
370
    25
100
AcDbPolyline
 90
        9
 70
   128
 43
0.0
 10
111.5355763947
 20
189.5723527134
 10
110.6502709309
 20
189.128511593
 10
109.8345351952
 20
188.4900825861
 10
109.109108656
 20
187.6732972706
 10
108.4924347384
 20
186.6989218
 10
108.0001919137
 20
185.5917289388
 10
107.644895086
 20
184.3798682341
 10
107.4355774104
 20
183.0941503344
 10
107.3775606316
 20
181.7672636518
  0
LINE
  5
E4
330
1F
100
AcDbEntity
  8
0
  6
Continuous
 62
     7
370
    25
100
AcDbLine
 10
110.4292590962
 20
190.753232615
 30
0.0
 11
111.5355763947
 21
189.5723527134
 31
0.0
  0
LWPOLYLINE
  5
E5
330
1F
100
AcDbEntity
  8
0
  6
Continuous
 62
     7
370
    25
100
AcDbPolyline
 90
       10
 70
   128
 43
0.0
 10
108.7867514582
 20
173.0989199028
 10
108.544465467
 20
173.065963877
 10
107.6898502085
 20
173.065352145
 10
106.8378019821
 20
173.242402527
 10
106.0073243927
 20
173.5931661909
 10
105.2169399459
 20
174.1098199008
 10
104.4842769323
 20
174.7808405029
 10
103.825676256
 20
175.5912619305
 10
103.2558269766
 20
176.5230089996
 10
103.0588982313
 20
176.9181905554
  0
LINE
  5
E6
330
1F
100
AcDbEntity
  8
0
  6
Continuous
 62
     7
370
    25
100
AcDbLine
 10
103.1700731826
 20
177.1268791331
 30
0.0
 11
103.2305325152
 21
176.9973919046
 31
0.0
  0
ARC
  5
E7
330
1F
100
AcDbEntity
  8
0
  6
Continuous
 62
     7
370
    25
100
AcDbCircle
 10
110.952926916
 20
180.6614391973
 30
0.0
 40
8.547550400245461
100
AcDbArc
 50
205.3829535533
 51
213.7556699482
  0
ARC
  5
E8
330
1F
100
AcDbEntity
  8
0
  6
Continuous
 62
     7
370
    25
100
AcDbCircle
 10
109.9494292316
 20
179.9869953045
 30
0.0
 40
7.338471976213446
100
AcDbArc
 50
213.7311032866
 51
223.0008380868
  0
ARC
  5
E9
330
1F
100
AcDbEntity
  8
0
  6
Continuous
 62
     7
370
    25
100
AcDbCircle
 10
109.094611109
 20
179.1868559678
 30
0.0
 40
6.167604216926653
100
AcDbArc
 50
222.9805567802
 51
233.3905102319
  0
ARC
  5
EA
330
1F
100
AcDbEntity
  8
0
  6
Continuous
 62
     7
370
    25
100
AcDbCircle
 10
108.5014537426
 20
178.3875144889
 30
0.0
 40
5.172223840411951
100
AcDbArc
 50
233.384361764
 51
245.0920529268
  0
ARC
  5
EB
330
1F
100
AcDbEntity
  8
0
  6
Continuous
 62
     7
370
    25
100
AcDbCircle
 10
108.1943762993
 20
177.730240526
 30
0.0
 40
4.446756906867
100
AcDbArc
 50
245.113908913
 51
258.0644382443
  0
SPLINE
  5
EC
330
1F
100
AcDbEntity
  8
0
  6
Continuous
 62
     7
370
    25
100
AcDbSpline
210
0.0
220
0.0
230
1.0
 70
     8
 71
     3
 72
     9
 73
     5
 74
     0
 42
0.00000001
 43
0.00000001
 40
0.0
 40
0.0
 40
0.0
 40
0.0
 40
0.6396014754550248
 40
1.0
 40
1.0
 40
1.0
 40
1.0
 10
103.2305325152172
 20
176.9973919046241
 30
0.0
 10
103.276484076425
 20
177.0660827061848
 30
0.0
 10
103.3483281277151
 20
177.1734789586901
 30
0.0
 10
103.424949818688
 20
177.2809560498599
 30
0.0
 10
103.4525641630628
 20
177.3196906349399
 30
0.0
  0
LINE
  5
ED
330
1F
100
AcDbEntity
  8
0
  6
Continuous
 62
     7
370
    25
100
AcDbLine
 10
103.2305325152
 20
176.9973919046
 30
0.0
 11
103.5402569266
 21
177.270501829
 31
0.0
  0
SPLINE
  5
EE
330
1F
100
AcDbEntity
  8
0
  6
Continuous
 62
     7
370
    25
100
AcDbSpline
210
0.0
220
0.0
230
1.0
 70
     8
 71
     3
 72
     9
 73
     5
 74
     0
 42
0.00000001
 43
0.00000001
 40
0.0
 40
0.0
 40
0.0
 40
0.0
 40
0.2286440065877912
 40
1.0
 40
1.0
 40
1.0
 40
1.0
 10
103.732332985879
 20
176.7558542470388
 30
0.0
 10
103.6936935101012
 20
176.7735587831964
 30
0.0
 10
103.5246994640539
 20
176.8509915417534
 30
0.0
 10
103.3586306727264
 20
176.9336402941302
 30
0.0
 10
103.2305325152172
 20
176.9973919046241
 30
0.0
  0
SPLINE
  5
EF
330
1F
100
AcDbEntity
  8
0
  6
Continuous
 62
     7
370
    25
100
AcDbSpline
210
0.0
220
0.0
230
1.0
 70
     8
 71
     3
 72
     9
 73
     5
 74
     0
 42
0.00000001
 43
0.00000001
 40
0.0
 40
0.0
 40
0.0
 40
0.0
 40
0.6451614201535306
 40
1.0
 40
1.0
 40
1.0
 40
1.0
 10
103.8463684676391
 20
175.9119713466679
 30
0.0
 10
103.8850712305334
 20
175.9741777356564
 30
0.0
 10
103.9450605009474
 20
176.0705976191854
 30
0.0
 10
104.0096960923192
 20
176.1679902289521
 30
0.0
 10
104.0326312937691
 20
176.2025488842893
 30
0.0
  0
LINE
  5
F0
330
1F
100
AcDbEntity
  8
0
  6
Continuous
 62
     7
370
    25
100
AcDbLine
 10
103.8463684676
 20
175.9119713467
 30
0.0
 11
104.0609914038
 21
176.1895125728
 31
0.0
  0
SPLINE
  5
F1
330
1F
100
AcDbEntity
  8
0
  6
Continuous
 62
     7
370
    25
100
AcDbSpline
210
0.0
220
0.0
230
1.0
 70
     8
 71
     3
 72
     9
 73
     5
 74
     0
 42
0.00000001
 43
0.00000001
 40
0.0
 40
0.0
 40
0.0
 40
0.0
 40
0.2321308388902956
 40
1.0
 40
1.0
 40
1.0
 40
1.0
 10
104.3803082889596
 20
175.7090623494599
 30
0.0
 10
104.3386857291342
 20
175.7239897786812
 30
0.0
 10
104.1593792654845
 20
175.7882958798985
 30
0.0
 10
103.9823238562206
 20
175.8582532441028
 30
0.0
 10
103.8463684676391
 20
175.9119713466679
 30
0.0
  0
SPLINE
  5
F2
330
1F
100
AcDbEntity
  8
0
  6
Continuous
 62
     7
370
    25
100
AcDbSpline
210
0.0
220
0.0
230
1.0
 70
     8
 71
     3
 72
     9
 73
     5
 74
     0
 42
0.00000001
 43
0.00000001
 40
0.0
 40
0.0
 40
0.0
 40
0.0
 40
0.6528023634018444
 40
1.0
 40
1.0
 40
1.0
 40
1.0
 10
104.58248379561
 20
174.9820909465128
 30
0.0
 10
104.614923389634
 20
175.0360919043617
 30
0.0
 10
104.6646162152773
 20
175.1188136604036
 30
0.0
 10
104.7187040123223
 20
175.2033522005654
 30
0.0
 10
104.7374831676251
 20
175.232703781911
 30
0.0
  0
SPLINE
  5
F3
330
1F
100
AcDbEntity
  8
0
  6
Continuous
 62
     7
370
    25
100
AcDbSpline
210
0.0
220
0.0
230
1.0
 70
     8
 71
     3
 72
     9
 73
     5
 74
     0
 42
0.00000001
 43
0.00000001
 40
0.0
 40
0.0
 40
0.0
 40
0.0
 40
0.2368569134978638
 40
1.0
 40
1.0
 40
1.0
 40
1.0
 10
105.1440483292683
 20
174.8249626745649
 30
0.0
 10
105.0994973355494
 20
174.836542785978
 30
0.0
 10
104.9114049000743
 20
174.8854335328938
 30
0.0
 10
104.7248510650609
 20
174.9402546159692
 30
0.0
 10
104.58248379561
 20
174.9820909465128
 30
0.0
  0
SPLINE
  5
F4
330
1F
100
AcDbEntity
  8
0
  6
Continuous
 62
     7
370
    25
100
AcDbSpline
210
0.0
220
0.0
230
1.0
 70
     8
 71
     3
 72
     9
 73
     5
 74
     0
 42
0.00000001
 43
0.00000001
 40
0.0
 40
0.0
 40
0.0
 40
0.0
 40
0.664338670456255
 40
1.0
 40
1.0
 40
1.0
 40
1.0
 10
105.4165120073819
 20
174.2360046495759
 30
0.0
 10
105.4438633090325
 20
174.2803264188388
 30
0.0
 10
105.4850340294301
 20
174.3470420433146
 30
0.0
 10
105.5302297364756
 20
174.4163317213623
 30
0.0
 10
105.5454001875922
 20
174.4395895868195
 30
0.0
  0
SPLINE
  5
F5
330
1F
100
AcDbEntity
  8
0
  6
Continuous
 62
     7
370
    25
100
AcDbSpline
210
0.0
220
0.0
230
1.0
 70
     8
 71
     3
 72
     9
 73
     5
 74
     0
 42
0.00000001
 43
0.00000001
 40
0.0
 40
0.0
 40
0.0
 40
0.0
 40
0.2368569134984506
 40
1.0
 40
1.0
 40
1.0
 40
1.0
 10
105.9959131439446
 20
174.1314773265451
 30
0.0
 10
105.9500567779836
 20
174.1388952005323
 30
0.0
 10
105.7564531154024
 20
174.1702131548098
 30
0.0
 10
105.5636490766247
 20
174.2075280473275
 30
0.0
 10
105.4165120073819
 20
174.2360046495759
 30
0.0
  0
SPLINE
  5
F6
330
1F
100
AcDbEntity
  8
0
  6
Continuous
 62
     7
370
    25
100
AcDbSpline
210
0.0
220
0.0
230
1.0
 70
     8
 71
     3
 72
     9
 73
     5
 74
     0
 42
0.00000001
 43
0.00000001
 40
0.0
 40
0.0
 40
0.0
 40
0.0
 40
0.6844524734008025
 40
1.0
 40
1.0
 40
1.0
 40
1.0
 10
106.3231115777781
 20
173.6963819104521
 30
0.0
 10
106.3467014560848
 20
173.7298397214623
 30
0.0
 10
106.3811667830776
 20
173.7787223134763
 30
0.0
 10
106.419165261923
 20
173.8307954407645
 30
0.0
 10
106.4311555879371
 20
173.8472269872826
 30
0.0
  0
SPLINE
  5
F7
330
1F
100
AcDbEntity
  8
0
  6
Continuous
 62
     7
370
    25
100
AcDbSpline
210
0.0
220
0.0
230
1.0
 70
     8
 71
     3
 72
     9
 73
     5
 74
     0
 42
0.00000001
 43
0.00000001
 40
0.0
 40
0.0
 40
0.0
 40
0.0
 40
0.0893279264257726
 40
1.0
 40
1.0
 40
1.0
 40
1.0
 10
106.8177116052654
 20
173.6547807583273
 30
0.0
 10
106.8029810449696
 20
173.655738947955
 30
0.0
 10
106.6380767324527
 20
173.6664656004816
 30
0.0
 10
106.4732315143586
 20
173.6821230805821
 30
0.0
 10
106.3231115777781
 20
173.6963819104521
 30
0.0
  0
LINE
  5
F8
330
1F
100
AcDbEntity
  8
0
  6
Continuous
 62
     8
370
    25
100
AcDbLine
 10
109.5384767649
 20
139.4309610479
 30
0.0
 11
109.7416453203
 21
173.1597846329
 31
0.0
  0
LINE
  5
F9
330
1F
100
AcDbEntity
  8
0
  6
Continuous
 62
     8
370
    25
100
AcDbLine
 10
110.4492371408
 20
190.7319081077
 30
0.0
 11
126.575417841
 21
192.0142272866
 31
0.0
  0
ARC
  5
FA
330
1F
100
AcDbEntity
  8
0
  6
Continuous
 62
     8
370
    25
100
AcDbCircle
 10
128.469774993
 20
192.0583899861
 30
0.0
 40
0.2103345604400092
100
AcDbArc
 50
351.3764402379
 51
75.7544630423
  0
ARC
  5
FB
330
1F
100
AcDbEntity
  8
0
  6
Continuous
 62
     8
370
    25
100
AcDbCircle
 10
126.7845071473
 20
192.0427787902
 30
0.0
 40
0.2110296811775098
100
AcDbArc
 50
103.6545900809
 51
187.7757451971
  0
SPLINE
  5
FC
330
1F
100
AcDbEntity
  8
0
  6
Continuous
 62
     8
370
    25
100
AcDbSpline
210
0.0
220
0.0
230
1.0
 70
     8
 71
     3
 72
     9
 73
     5
 74
     0
 42
0.00000001
 43
0.00000001
 40
0.0
 40
0.0
 40
0.0
 40
0.0
 40
0.5103475897102885
 40
1.0
 40
1.0
 40
1.0
 40
1.0
 10
109.1143248039983
 20
139.3401605219691
 30
0.0
 10
109.1344140548041
 20
139.3584403038957
 30
0.0
 10
109.1737779142813
 20
139.3942586016502
 30
0.0
 10
109.4185993559164
 20
139.4188968635673
 30
0.0
 10
109.5384767649037
 20
139.4309610479004
 30
0.0
  0
LINE
  5
FD
330
1F
100
AcDbEntity
  8
0
  6
Continuous
 62
     8
370
    25
100
AcDbLine
 10
110.7802191424
 20
139.1140833694
 30
0.0
 11
110.7796119043
 21
139.0132733455
 31
0.0
  0
LWPOLYLINE
  5
FE
330
1F
100
AcDbEntity
  8
0
  6
Continuous
 62
     8
370
    25
100
AcDbPolyline
 90
       11
 70
   128
 43
0.0
 10
108.0046360653
 20
182.0017091005
 10
108.0758019276
 20
183.1843101543
 10
108.2733956262
 20
184.3293449887
 10
108.5930032444
 20
185.4112354176
 10
109.0274852762
 20
186.4058137966
 10
109.5671361109
 20
187.2908628882
 10
110.1999008406
 20
188.0466121582
 10
110.9116445469
 20
188.6561794168
 10
111.6864680514
 20
189.1059479386
 10
112.5070630776
 20
189.3858706382
 10
113.1532972824
 20
189.4812432634
  0
LWPOLYLINE
  5
FF
330
1F
100
AcDbEntity
  8
0
  6
Continuous
 62
     8
370
    25
100
AcDbPolyline
 90
       13
 70
   128
 43
0.0
 10
114.3696202028
 20
173.5277912342
 10
114.1158593673
 20
173.5155418904
 10
113.2593264906
 20
173.5901361102
 10
112.4134300769
 20
173.8414821048
 10
111.5970660543
 20
174.2639652201
 10
110.8284706463
 20
174.8481478813
 10
110.124813004
 20
175.5809804133
 10
109.5018116765
 20
176.4460925481
 10
108.9733834839
 20
177.4241591103
 10
108.5513326389
 20
178.4933317091
 10
108.2450870599
 20
179.6297267953
 10
108.0614877671
 20
180.8079591806
 10
108.0046360653
 20
182.0017091005
  0
LWPOLYLINE
  5
100
330
1F
100
AcDbEntity
  8
0
  6
Continuous
 62
     8
370
    25
100
AcDbPolyline
 90
       13
 70
   128
 43
0.0
 10
65.4681380747
 20
164.5563721866
 10
64.3878979411
 20
164.4116424551
 10
63.4229132594
 20
164.1591046103
 10
62.5844975927
 20
163.8017194277
 10
61.8824805981
 20
163.3436769218
 10
61.3250927832
 20
162.7903472221
 10
60.9188690103
 20
162.1482176134
 10
60.6685718817
 20
161.4248164784
 10
60.5771359026
 20
160.6286250339
 10
60.6456330761
 20
159.7689778967
 10
60.8732603354
 20
158.8559536434
 10
61.2573489592
 20
157.9002566486
 10
61.7310535391
 20
157.0163554313
  0
LWPOLYLINE
  5
101
330
1F
100
AcDbEntity
  8
0
  6
Continuous
 62
     8
370
    25
100
AcDbPolyline
 90
       11
 70
   128
 43
0.0
 10
83.9734606992
 20
146.0064043446
 10
84.0492097006
 20
146.0207647325
 10
85.0141943823
 20
146.2733025773
 10
85.852610049
 20
146.6306877599
 10
86.5546270435
 20
147.0887302658
 10
87.1120148585
 20
147.6420599655
 10
87.5182386314
 20
148.2841895741
 10
87.7685357599
 20
149.0075907092
 10
87.8599717391
 20
149.8037821537
 10
87.7914745656
 20
150.6634292909
 10
87.7080144272
 20
151.070811161
  0
LINE
  5
102
330
1F
100
AcDbEntity
  8
0
  6
Continuous
 62
     8
370
    25
100
AcDbLine
 10
65.6743096236
 20
164.5708503546
 30
0.0
 11
65.4681380747
 21
164.5563721866
 31
0.0
  0
LWPOLYLINE
  5
103
330
1F
100
AcDbEntity
  8
0
  6
Continuous
 62
     8
370
    25
100
AcDbPolyline
 90
       21
 70
   128
 43
0.0
 10
64.3414504756
 20
164.7626278238
 10
65.4262482064
 20
164.9071688897
 10
66.62879281
 20
164.9429807643
 10
67.9215391455
 20
164.8670427581
 10
69.2893309439
 20
164.6802451749
 10
70.7161320971
 20
164.3847780455
 10
72.185214666
 20
163.9841054519
 10
73.6793550007
 20
163.4829249139
 10
75.1810356719
 20
162.8871123151
 10
76.6726508468
 20
162.2036530135
 10
78.1367127011
 20
161.4405599444
 10
79.5560564484
 20
160.6067796764
 10
80.9140415807
 20
159.7120875208
 10
82.1947469642
 20
158.7669729251
 10
83.383157499
 20
157.7825164939
 10
84.4653401584
 20
156.7702600786
 10
85.42860734
 20
155.7420714602
 10
86.2616656169
 20
154.7100052102
 10
86.9547481424
 20
153.6861613618
 10
87.4997291576
 20
152.682543548
 10
87.6049047872
 20
152.4524419926
  0
LWPOLYLINE
  5
104
330
1F
100
AcDbEntity
  8
0
  6
Continuous
 62
     8
370
    25
100
AcDbPolyline
 90
       22
 70
   128
 43
0.0
 10
112.3134318135
 20
198.9637861852
 10
112.239922948
 20
199.1228234646
 10
111.6949419328
 20
200.1264412785
 10
111.0018594073
 20
201.1502851269
 10
110.1688011305
 20
202.1823513769
 10
109.2055339489
 20
203.2105399952
 10
108.1233512895
 20
204.2227964105
 10
106.9349407546
 20
205.2072528418
 10
105.6542353712
 20
206.1523674375
 10
104.2962502388
 20
207.0470595931
 10
102.8769064916
 20
207.8808398611
 10
101.4128446372
 20
208.6439329301
 10
99.9212294624
 20
209.3273922318
 10
98.4195487912
 20
209.9232048306
 10
96.9254084564
 20
210.4243853686
 10
95.4563258875
 20
210.8250579622
 10
94.0295247344
 20
211.1205250915
 10
92.6617329359
 20
211.3073226748
 10
91.3689866005
 20
211.3832606809
 10
90.1664419968
 20
211.3474488064
 10
89.068197861
 20
211.2003069126
 10
89.0579245949
 20
211.1983049674
  0
ARC
  5
105
330
1F
100
AcDbEntity
  8
0
  6
Continuous
 62
     8
370
    25
100
AcDbCircle
 10
103.9719365999
 20
177.2787231943
 30
0.0
 40
4.56404933122084
100
AcDbArc
 50
233.9402082942
 51
273.528465989
  0
ENDSEC
  0
SECTION
  2
OBJECTS
  0
DICTIONARY
  5
C
330
0
100
AcDbDictionary
281
     1
  3
ACAD_GROUP
350
D
  3
ACAD_LAYOUT
350
1A
  3
ACAD_MLINESTYLE
350
17
  3
ACAD_PLOTSETTINGS
350
19
  3
ACAD_PLOTSTYLENAME
350
E
  3
ACAD_SCALELIST
350
47
  3
DWGPROPS
350
106
  0
DICTIONARY
  5
D
102
{ACAD_REACTORS
330
C
102
}
330
C
100
AcDbDictionary
281
     1
  0
DICTIONARY
  5
1A
102
{ACAD_REACTORS
330
C
102
}
330
C
100
AcDbDictionary
281
     1
  3
Layout1
350
1E
  3
Layout2
350
26
  3
Model
350
22
  0
DICTIONARY
  5
17
102
{ACAD_REACTORS
330
C
102
}
330
C
100
AcDbDictionary
281
     1
  3
Standard
350
18
  0
DICTIONARY
  5
19
102
{ACAD_REACTORS
330
C
102
}
330
C
100
AcDbDictionary
281
     1
  0
ACDBDICTIONARYWDFLT
  5
E
102
{ACAD_REACTORS
330
C
102
}
330
C
100
AcDbDictionary
281
     1
  3
Normal
350
F
100
AcDbDictionaryWithDefault
340
F
  0
DICTIONARY
  5
47
102
{ACAD_REACTORS
330
C
102
}
330
C
100
AcDbDictionary
281
     1
  3
A0
350
48
  3
A1
350
49
  3
A2
350
4A
  3
A3
350
4B
  3
A4
350
4C
  3
A5
350
4D
  3
A6
350
4E
  3
A7
350
4F
  3
A8
350
50
  3
A9
350
51
  3
B0
350
52
  3
B1
350
53
  3
B2
350
54
  3
B3
350
55
  3
B4
350
56
  3
B5
350
57
  3
B6
350
58
  3
B7
350
59
  3
B8
350
5A
  3
B9
350
5B
  3
C0
350
5C
  3
C1
350
5D
  3
C2
350
5E
  3
C3
350
5F
  3
C4
350
60
  3
C5
350
61
  3
C6
350
62
  3
C7
350
63
  3
C8
350
64
  3
C9
350
65
  3
D0
350
66
  3
D1
350
67
  3
D2
350
68
  0
XRECORD
  5
106
102
{ACAD_REACTORS
330
C
102
}
330
C
100
AcDbXrecord
280
     1
  1
DWGPROPS COOKIE
  2

  3

  4

  6

  7

  8
9128
  9

300
=
301
=
302
=
303
=
304
=
305
=
306
=
307
=
308
=
309
=
 40
0.0
 41
2460018.222882025
 42
2460018.222882245
  1

 90
        0
  0
LAYOUT
  5
1E
102
{ACAD_REACTORS
330
1A
102
}
330
1A
100
AcDbPlotSettings
  1

  2
none_device
  4

  6

 40
0.0
 41
0.0
 42
0.0
 43
0.0
 44
0.0
 45
0.0
 46
0.0
 47
0.0
 48
0.0
 49
0.0
140
0.0
141
0.0
142
1.0
143
1.0
 70
   688
 72
     1
 73
     0
 74
     5
  7

 75
    16
147
1.0
148
0.0
149
0.0
100
AcDbLayout
  1
Layout1
 70
     1
 71
     1
 10
0.0
 20
0.0
 11
420.0
 21
297.0
 12
0.0
 22
0.0
 32
0.0
 14
1.0000000000E+20
 24
1.0000000000E+20
 34
1.0000000000E+20
 15
-1.0000000000E+20
 25
-1.0000000000E+20
 35
-1.0000000000E+20
146
0.0
 13
0.0
 23
0.0
 33
0.0
 16
1.0
 26
0.0
 36
0.0
 17
0.0
 27
1.0
 37
0.0
 76
     0
330
1B
  0
LAYOUT
  5
26
102
{ACAD_REACTORS
330
1A
102
}
330
1A
100
AcDbPlotSettings
  1

  2
none_device
  4

  6

 40
0.0
 41
0.0
 42
0.0
 43
0.0
 44
0.0
 45
0.0
 46
0.0
 47
0.0
 48
0.0
 49
0.0
140
0.0
141
0.0
142
1.0
143
1.0
 70
   688
 72
     1
 73
     0
 74
     5
  7

 75
    16
147
1.0
148
0.0
149
0.0
100
AcDbLayout
  1
Layout2
 70
     1
 71
     2
 10
0.0
 20
0.0
 11
0.0
 21
0.0
 12
0.0
 22
0.0
 32
0.0
 14
0.0
 24
0.0
 34
0.0
 15
0.0
 25
0.0
 35
0.0
146
0.0
 13
0.0
 23
0.0
 33
0.0
 16
1.0
 26
0.0
 36
0.0
 17
0.0
 27
1.0
 37
0.0
 76
     0
330
23
  0
LAYOUT
  5
22
102
{ACAD_REACTORS
330
1A
102
}
330
1A
100
AcDbPlotSettings
  1

  2
none_device
  4
Letter_(8.50_x_11.00_Inches)
  6

 40
6.35
 41
6.35
 42
6.35000508
 43
6.35000508
 44
215.9
 45
279.4
 46
0.0
 47
0.0
 48
0.0
 49
0.0
140
0.0
141
0.0
142
1.0
143
1.0
 70
  1712
 72
     1
 73
     0
 74
     0
  7

 75
     0
147
1.0
148
0.0
149
0.0
100
AcDbLayout
  1
Model
 70
     1
 71
     0
 10
0.0
 20
0.0
 11
210.0
 21
297.0
 12
0.0
 22
0.0
 32
0.0
 14
0.0
 24
0.0
 34
0.0
 15
210.0
 25
297.0
 35
0.0
146
0.0
 13
0.0
 23
0.0
 33
0.0
 16
1.0
 26
0.0
 36
0.0
 17
0.0
 27
1.0
 37
0.0
 76
     0
330
1F
331
29
  0
MLINESTYLE
  5
18
102
{ACAD_REACTORS
330
17
102
}
330
17
100
AcDbMlineStyle
  2
Standard
 70
     0
  3

 62
   256
 51
90.0
 52
90.0
 71
     2
 49
0.5
 62
   256
  6
BYLAYER
 49
-0.5
 62
   256
  6
BYLAYER
  0
ACDBPLACEHOLDER
  5
F
102
{ACAD_REACTORS
330
E
102
}
330
E
  0
SCALE
  5
48
102
{ACAD_REACTORS
330
47
102
}
330
47
100
AcDbScale
 70
     0
300
1:1
140
1.0
141
1.0
290
     1
  0
SCALE
  5
49
102
{ACAD_REACTORS
330
47
102
}
330
47
100
AcDbScale
 70
     0
300
1:2
140
1.0
141
2.0
290
     0
  0
SCALE
  5
4A
102
{ACAD_REACTORS
330
47
102
}
330
47
100
AcDbScale
 70
     0
300
1:4
140
1.0
141
4.0
290
     0
  0
SCALE
  5
4B
102
{ACAD_REACTORS
330
47
102
}
330
47
100
AcDbScale
 70
     0
300
1:5
140
1.0
141
5.0
290
     0
  0
SCALE
  5
4C
102
{ACAD_REACTORS
330
47
102
}
330
47
100
AcDbScale
 70
     0
300
1:8
140
1.0
141
8.0
290
     0
  0
SCALE
  5
4D
102
{ACAD_REACTORS
330
47
102
}
330
47
100
AcDbScale
 70
     0
300
1:10
140
1.0
141
10.0
290
     0
  0
SCALE
  5
4E
102
{ACAD_REACTORS
330
47
102
}
330
47
100
AcDbScale
 70
     0
300
1:16
140
1.0
141
16.0
290
     0
  0
SCALE
  5
4F
102
{ACAD_REACTORS
330
47
102
}
330
47
100
AcDbScale
 70
     0
300
1:20
140
1.0
141
20.0
290
     0
  0
SCALE
  5
50
102
{ACAD_REACTORS
330
47
102
}
330
47
100
AcDbScale
 70
     0
300
1:30
140
1.0
141
30.0
290
     0
  0
SCALE
  5
51
102
{ACAD_REACTORS
330
47
102
}
330
47
100
AcDbScale
 70
     0
300
1:40
140
1.0
141
40.0
290
     0
  0
SCALE
  5
52
102
{ACAD_REACTORS
330
47
102
}
330
47
100
AcDbScale
 70
     0
300
1:50
140
1.0
141
50.0
290
     0
  0
SCALE
  5
53
102
{ACAD_REACTORS
330
47
102
}
330
47
100
AcDbScale
 70
     0
300
1:100
140
1.0
141
100.0
290
     0
  0
SCALE
  5
54
102
{ACAD_REACTORS
330
47
102
}
330
47
100
AcDbScale
 70
     0
300
2:1
140
2.0
141
1.0
290
     0
  0
SCALE
  5
55
102
{ACAD_REACTORS
330
47
102
}
330
47
100
AcDbScale
 70
     0
300
4:1
140
4.0
141
1.0
290
     0
  0
SCALE
  5
56
102
{ACAD_REACTORS
330
47
102
}
330
47
100
AcDbScale
 70
     0
300
8:1
140
8.0
141
1.0
290
     0
  0
SCALE
  5
57
102
{ACAD_REACTORS
330
47
102
}
330
47
100
AcDbScale
 70
     0
300
10:1
140
10.0
141
1.0
290
     0
  0
SCALE
  5
58
102
{ACAD_REACTORS
330
47
102
}
330
47
100
AcDbScale
 70
     0
300
100:1
140
100.0
141
1.0
290
     0
  0
SCALE
  5
59
102
{ACAD_REACTORS
330
47
102
}
330
47
100
AcDbScale
 70
     0
300
1/128" = 1'-0"
140
0.0078125
141
12.0
290
     0
  0
SCALE
  5
5A
102
{ACAD_REACTORS
330
47
102
}
330
47
100
AcDbScale
 70
     0
300
1/64" = 1'-0"
140
0.015625
141
12.0
290
     0
  0
SCALE
  5
5B
102
{ACAD_REACTORS
330
47
102
}
330
47
100
AcDbScale
 70
     0
300
1/32" = 1'-0"
140
0.03125
141
12.0
290
     0
  0
SCALE
  5
5C
102
{ACAD_REACTORS
330
47
102
}
330
47
100
AcDbScale
 70
     0
300
1/16" = 1'-0"
140
0.0625
141
12.0
290
     0
  0
SCALE
  5
5D
102
{ACAD_REACTORS
330
47
102
}
330
47
100
AcDbScale
 70
     0
300
3/32" = 1'-0"
140
0.09375
141
12.0
290
     0
  0
SCALE
  5
5E
102
{ACAD_REACTORS
330
47
102
}
330
47
100
AcDbScale
 70
     0
300
1/8" = 1'-0"
140
0.125
141
12.0
290
     0
  0
SCALE
  5
5F
102
{ACAD_REACTORS
330
47
102
}
330
47
100
AcDbScale
 70
     0
300
3/16" = 1'-0"
140
0.1875
141
12.0
290
     0
  0
SCALE
  5
60
102
{ACAD_REACTORS
330
47
102
}
330
47
100
AcDbScale
 70
     0
300
1/4" = 1'-0"
140
0.25
141
12.0
290
     0
  0
SCALE
  5
61
102
{ACAD_REACTORS
330
47
102
}
330
47
100
AcDbScale
 70
     0
300
3/8" = 1'-0"
140
0.375
141
12.0
290
     0
  0
SCALE
  5
62
102
{ACAD_REACTORS
330
47
102
}
330
47
100
AcDbScale
 70
     0
300
1/2" = 1'-0"
140
0.5
141
12.0
290
     0
  0
SCALE
  5
63
102
{ACAD_REACTORS
330
47
102
}
330
47
100
AcDbScale
 70
     0
300
3/4" = 1'-0"
140
0.75
141
12.0
290
     0
  0
SCALE
  5
64
102
{ACAD_REACTORS
330
47
102
}
330
47
100
AcDbScale
 70
     0
300
1" = 1'-0"
140
1.0
141
12.0
290
     0
  0
SCALE
  5
65
102
{ACAD_REACTORS
330
47
102
}
330
47
100
AcDbScale
 70
     0
300
1-1/2" = 1'-0"
140
1.5
141
12.0
290
     0
  0
SCALE
  5
66
102
{ACAD_REACTORS
330
47
102
}
330
47
100
AcDbScale
 70
     0
300
3" = 1'-0"
140
3.0
141
12.0
290
     0
  0
SCALE
  5
67
102
{ACAD_REACTORS
330
47
102
}
330
47
100
AcDbScale
 70
     0
300
6" = 1'-0"
140
6.0
141
12.0
290
     0
  0
SCALE
  5
68
102
{ACAD_REACTORS
330
47
102
}
330
47
100
AcDbScale
 70
     0
300
1'-0" = 1'-0"
140
12.0
141
12.0
290
     0
  0
ENDSEC
  0
EOF
