  0
SECTION
  2
HEADER
  9
$ACADVER
  1
AC1015
  9
$ACADMAINTVER
 70
     6
  9
$DWGCODEPAGE
  3
DOS932
  9
$INSBASE
 10
0.0
 20
0.0
 30
0.0
  9
$EXTMIN
 10
0.0
 20
0.0
 30
0.0
  9
$EXTMAX
 10
210.0
 20
297.0
 30
0.0
  9
$LIMMIN
 10
0.0
 20
0.0
  9
$LIMMAX
 10
210.0
 20
297.0
  9
$ORTHOMODE
 70
     0
  9
$REGENMODE
 70
     1
  9
$FILLMODE
 70
     1
  9
$QTEXTMODE
 70
     0
  9
$MIRRTEXT
 70
     1
  9
$LTSCALE
 40
1.0
  9
$ATTMODE
 70
     1
  9
$TEXTSIZE
 40
3.5
  9
$TRACEWID
 40
1.0
  9
$TEXTSTYLE
  7
Standard
  9
$CLAYER
  8
0
  9
$CELTYPE
  6
ByLayer
  9
$CECOLOR
 62
   256
  9
$CELTSCALE
 40
1.0
  9
$DISPSILH
 70
     0
  9
$DIMSCALE
 40
1.0
  9
$DIMASZ
 40
1.5
  9
$DIMEXO
 40
1.0
  9
$DIMDLI
 40
3.75
  9
$DIMRND
 40
0.0
  9
$DIMDLE
 40
0.0
  9
$DIMEXE
 40
1.0
  9
$DIMTP
 40
0.0
  9
$DIMTM
 40
0.0
  9
$DIMTXT
 40
3.5
  9
$DIMCEN
 40
2.5
  9
$DIMTSZ
 40
0.0
  9
$DIMTOL
 70
     0
  9
$DIMLIM
 70
     0
  9
$DIMTIH
 70
     1
  9
$DIMTOH
 70
     1
  9
$DIMSE1
 70
     0
  9
$DIMSE2
 70
     0
  9
$DIMTAD
 70
     1
  9
$DIMZIN
 70
     0
  9
$DIMBLK
  1

  9
$DIMASO
 70
     1
  9
$DIMSHO
 70
     1
  9
$DIMPOST
  1

  9
$DIMAPOST
  1

  9
$DIMALT
 70
     0
  9
$DIMALTD
 70
     3
  9
$DIMALTF
 40
0.0393700787
  9
$DIMLFAC
 40
5.0
  9
$DIMTOFL
 70
     1
  9
$DIMTVP
 40
0.0
  9
$DIMTIX
 70
     0
  9
$DIMSOXD
 70
     0
  9
$DIMSAH
 70
     0
  9
$DIMBLK1
  1

  9
$DIMBLK2
  1

  9
$DIMSTYLE
  2
ISO-25
  9
$DIMCLRD
 70
     0
  9
$DIMCLRE
 70
     0
  9
$DIMCLRT
 70
     0
  9
$DIMTFAC
 40
1.0
  9
$DIMGAP
 40
1.5
  9
$DIMJUST
 70
     0
  9
$DIMSD1
 70
     0
  9
$DIMSD2
 70
     0
  9
$DIMTOLJ
 70
     0
  9
$DIMTZIN
 70
     0
  9
$DIMALTZ
 70
     0
  9
$DIMALTTZ
 70
     0
  9
$DIMUPT
 70
     0
  9
$DIMDEC
 70
     1
  9
$DIMTDEC
 70
     1
  9
$DIMALTU
 70
     2
  9
$DIMALTTD
 70
     3
  9
$DIMTXSTY
  7
Standard
  9
$DIMAUNIT
 70
     0
  9
$DIMADEC
 70
     2
  9
$DIMALTRND
 40
0.0
  9
$DIMAZIN
 70
     0
  9
$DIMDSEP
 70
    44
  9
$DIMATFIT
 70
     3
  9
$DIMFRAC
 70
     0
  9
$DIMLDRBLK
  1

  9
$DIMLUNIT
 70
     2
  9
$DIMLWD
 70
    -2
  9
$DIMLWE
 70
    -2
  9
$DIMTMOVE
 70
     0
  9
$LUNITS
 70
     2
  9
$LUPREC
 70
     2
  9
$SKETCHINC
 40
1.0
  9
$FILLETRAD
 40
10.0
  9
$AUNITS
 70
     0
  9
$AUPREC
 70
     2
  9
$MENU
  1
.
  9
$ELEVATION
 40
0.0
  9
$PELEVATION
 40
0.0
  9
$THICKNESS
 40
0.0
  9
$LIMCHECK
 70
     0
  9
$CHAMFERA
 40
0.0
  9
$CHAMFERB
 40
0.0
  9
$CHAMFERC
 40
0.0
  9
$CHAMFERD
 40
0.0
  9
$SKPOLY
 70
     0
  9
$TDCREATE
 40
2460018.593708947
  9
$TDUCREATE
 40
2460018.218708947
  9
$TDUPDATE
 40
2460018.593709178
  9
$TDUUPDATE
 40
2460018.218709178
  9
$TDINDWG
 40
0.0000000116
  9
$TDUSRTIMER
 40
0.0000000116
  9
$USRTIMER
 70
     1
  9
$ANGBASE
 50
0.0
  9
$ANGDIR
 70
     0
  9
$PDMODE
 70
     0
  9
$PDSIZE
 40
-1.0
  9
$PLINEWID
 40
0.0
  9
$SPLFRAME
 70
     0
  9
$SPLINETYPE
 70
     6
  9
$SPLINESEGS
 70
     8
  9
$HANDSEED
  5
EB
  9
$SURFTAB1
 70
     6
  9
$SURFTAB2
 70
     6
  9
$SURFTYPE
 70
     6
  9
$SURFU
 70
     6
  9
$SURFV
 70
     6
  9
$UCSBASE
  2

  9
$UCSNAME
  2

  9
$UCSORG
 10
0.0
 20
0.0
 30
0.0
  9
$UCSXDIR
 10
1.0
 20
0.0
 30
0.0
  9
$UCSYDIR
 10
0.0
 20
1.0
 30
0.0
  9
$UCSORTHOREF
  2

  9
$UCSORTHOVIEW
 70
     0
  9
$UCSORGTOP
 10
0.0
 20
0.0
 30
0.0
  9
$UCSORGBOTTOM
 10
0.0
 20
0.0
 30
0.0
  9
$UCSORGLEFT
 10
0.0
 20
0.0
 30
0.0
  9
$UCSORGRIGHT
 10
0.0
 20
0.0
 30
0.0
  9
$UCSORGFRONT
 10
0.0
 20
0.0
 30
0.0
  9
$UCSORGBACK
 10
0.0
 20
0.0
 30
0.0
  9
$PUCSBASE
  2

  9
$PUCSNAME
  2

  9
$PUCSORG
 10
0.0
 20
0.0
 30
0.0
  9
$PUCSXDIR
 10
1.0
 20
0.0
 30
0.0
  9
$PUCSYDIR
 10
0.0
 20
1.0
 30
0.0
  9
$PUCSORTHOREF
  2

  9
$PUCSORTHOVIEW
 70
     0
  9
$PUCSORGTOP
 10
0.0
 20
0.0
 30
0.0
  9
$PUCSORGBOTTOM
 10
0.0
 20
0.0
 30
0.0
  9
$PUCSORGLEFT
 10
0.0
 20
0.0
 30
0.0
  9
$PUCSORGRIGHT
 10
0.0
 20
0.0
 30
0.0
  9
$PUCSORGFRONT
 10
0.0
 20
0.0
 30
0.0
  9
$PUCSORGBACK
 10
0.0
 20
0.0
 30
0.0
  9
$USERI1
 70
     0
  9
$USERI2
 70
     0
  9
$USERI3
 70
     0
  9
$USERI4
 70
     0
  9
$USERI5
 70
     0
  9
$USERR1
 40
0.0
  9
$USERR2
 40
0.0
  9
$USERR3
 40
0.0
  9
$USERR4
 40
0.0
  9
$USERR5
 40
0.0
  9
$WORLDVIEW
 70
     1
  9
$SHADEDGE
 70
     3
  9
$SHADEDIF
 70
    70
  9
$TILEMODE
 70
     1
  9
$MAXACTVP
 70
    64
  9
$PINSBASE
 10
0.0
 20
0.0
 30
0.0
  9
$PLIMCHECK
 70
     0
  9
$PEXTMIN
 10
1.0000000000E+20
 20
1.0000000000E+20
 30
1.0000000000E+20
  9
$PEXTMAX
 10
-1.0000000000E+20
 20
-1.0000000000E+20
 30
-1.0000000000E+20
  9
$PLIMMIN
 10
0.0
 20
0.0
  9
$PLIMMAX
 10
420.0
 20
297.0
  9
$UNITMODE
 70
     0
  9
$VISRETAIN
 70
     1
  9
$PLINEGEN
 70
     0
  9
$PSLTSCALE
 70
     1
  9
$TREEDEPTH
 70
  3020
  9
$CMLSTYLE
  2
Standard
  9
$CMLJUST
 70
     0
  9
$CMLSCALE
 40
20.0
  9
$PROXYGRAPHICS
 70
     1
  9
$MEASUREMENT
 70
     1
  9
$CELWEIGHT
370
    -1
  9
$ENDCAPS
280
     0
  9
$JOINSTYLE
280
     0
  9
$LWDISPLAY
290
     1
  9
$INSUNITS
 70
     4
  9
$HYPERLINKBASE
  1

  9
$STYLESHEET
  1

  9
$XEDIT
290
     1
  9
$CEPSNTYPE
380
     0
  9
$PSTYLEMODE
290
     1
  9
$FINGERPRINTGUID
  2
{d02f3aae-6ae6-4f4f-a9d6-5cf1bdebcf3b}
  9
$VERSIONGUID
  2
{FAEB1C32-E019-11D5-929B-00C0DF256EC4}
  9
$EXTNAMES
290
     1
  9
$PSVPSCALE
 40
0.0
  9
$OLESTARTUP
290
     0
  0
ENDSEC
  0
SECTION
  2
CLASSES
  0
CLASS
  1
ACDBDICTIONARYWDFLT
  2
AcDbDictionaryWithDefault
  3
ObjectDBX Classes
 90
        0
280
     0
281
     0
  0
CLASS
  1
VISUALSTYLE
  2
AcDbVisualStyle
  3
ObjectDBX Classes
 90
     4095
280
     0
281
     0
  0
CLASS
  1
MATERIAL
  2
AcDbMaterial
  3
ObjectDBX Classes
 90
     1153
280
     0
281
     0
  0
CLASS
  1
SCALE
  2
AcDbScale
  3
ObjectDBX Classes
 90
     1153
280
     0
281
     0
  0
CLASS
  1
TABLESTYLE
  2
AcDbTableStyle
  3
ObjectDBX Classes
 90
     4095
280
     0
281
     0
  0
CLASS
  1
MLEADERSTYLE
  2
AcDbMLeaderStyle
  3
ACDB_MLEADERSTYLE_CLASS
 90
     4095
280
     0
281
     0
  0
CLASS
  1
SUN
  2
AcDbSun
  3
SCENEOE
 90
     1153
280
     0
281
     0
  0
CLASS
  1
ACDBPLACEHOLDER
  2
AcDbPlaceHolder
  3
ObjectDBX Classes
 90
        0
280
     0
281
     0
  0
CLASS
  1
LAYOUT
  2
AcDbLayout
  3
ObjectDBX Classes
 90
        0
280
     0
281
     0
  0
ENDSEC
  0
SECTION
  2
TABLES
  0
TABLE
  2
VPORT
  5
8
330
0
100
AcDbSymbolTable
 70
     1
  0
VPORT
  5
29
330
8
100
AcDbSymbolTableRecord
100
AcDbViewportTableRecord
  2
*Active
 70
     0
 10
0.0
 20
0.0
 11
1.0
 21
1.0
 12
105.0
 22
148.5
 13
0.0
 23
0.0
 14
10.0
 24
10.0
 15
10.0
 25
10.0
 16
0.0
 26
0.0
 36
1.0
 17
0.0
 27
0.0
 37
0.0
 40
297.0
 41
0.7070707071
 42
50.0
 43
0.0
 44
0.0
 50
0.0
 51
0.0
 71
     0
 72
  2000
 73
     1
 74
     3
 75
     0
 76
     0
 77
     0
 78
     0
281
     0
 65
     1
110
0.0
120
0.0
130
0.0
111
1.0
121
0.0
131
0.0
112
0.0
122
1.0
132
0.0
 79
     0
146
0.0
  0
ENDTAB
  0
TABLE
  2
LTYPE
  5
5
330
0
100
AcDbSymbolTable
 70
     6
  0
LTYPE
  5
14
330
5
100
AcDbSymbolTableRecord
100
AcDbLinetypeTableRecord
  2
ByBlock
 70
     0
  3

 72
    65
 73
     0
 40
0.0
  0
LTYPE
  5
15
330
5
100
AcDbSymbolTableRecord
100
AcDbLinetypeTableRecord
  2
ByLayer
 70
     0
  3

 72
    65
 73
     0
 40
0.0
  0
LTYPE
  5
16
330
5
100
AcDbSymbolTableRecord
100
AcDbLinetypeTableRecord
  2
Continuous
 70
     0
  3
Solid line
 72
    65
 73
     0
 40
0.0
  0
LTYPE
  5
6E
330
5
100
AcDbSymbolTableRecord
100
AcDbLinetypeTableRecord
  2
HIDDEN
 70
     0
  3
Hidden __ __ __ __ __ __ __ __ __ __ __ __ __ __
 72
    65
 73
     2
 40
1.905
 49
1.27
 74
     0
 49
-0.635
 74
     0
  0
LTYPE
  5
6F
330
5
100
AcDbSymbolTableRecord
100
AcDbLinetypeTableRecord
  2
PHANTOM
 70
     0
  3
Phantom ______  __  __  ______  __  __  ______
 72
    65
 73
     6
 40
12.7
 49
6.35
 74
     0
 49
-1.27
 74
     0
 49
1.27
 74
     0
 49
-1.27
 74
     0
 49
1.27
 74
     0
 49
-1.27
 74
     0
  0
LTYPE
  5
70
330
5
100
AcDbSymbolTableRecord
100
AcDbLinetypeTableRecord
  2
CENTER
 70
     0
  3
Center ____ _ ____ _ ____ _ ____ _ ____ _ ____
 72
    65
 73
     4
 40
10.16
 49
6.35
 74
     0
 49
-1.27
 74
     0
 49
1.27
 74
     0
 49
-1.27
 74
     0
  0
LTYPE
  5
71
330
5
100
AcDbSymbolTableRecord
100
AcDbLinetypeTableRecord
  2
CENTERX2
 70
     0
  3
Center (2x) ________  __  ________  __  _____
 72
    65
 73
     4
 40
20.32
 49
12.7
 74
     0
 49
-2.54
 74
     0
 49
2.54
 74
     0
 49
-2.54
 74
     0
  0
LTYPE
  5
72
330
5
100
AcDbSymbolTableRecord
100
AcDbLinetypeTableRecord
  2
DOT2
 70
     0
  3
Dot (.5x) ........................................
 72
    65
 73
     2
 40
0.635
 49
0.0
 74
     0
 49
-0.635
 74
     0
  0
ENDTAB
  0
TABLE
  2
LAYER
  5
2
330
0
100
AcDbSymbolTable
 70
     1
  0
LAYER
  5
10
330
2
100
AcDbSymbolTableRecord
100
AcDbLayerTableRecord
  2
0
 70
     0
 62
     7
  6
Continuous
370
    -3
390
F
  0
ENDTAB
  0
TABLE
  2
STYLE
  5
3
330
0
100
AcDbSymbolTable
 70
     2
  0
STYLE
  5
11
330
3
100
AcDbSymbolTableRecord
100
AcDbTextStyleTableRecord
  2
Standard
 70
     0
 40
0.0
 41
1.0
 50
0.0
 71
     0
 42
3.5
  3
txt
  4
bigfont
  0
STYLE
  5
76
330
3
100
AcDbSymbolTableRecord
100
AcDbTextStyleTableRecord
  2
SLDTEXTSTYLE0
 70
     0
 40
0.0
 41
0.7
 50
0.0
 71
     0
 42
3.5
  3
TXT
  4
bigfont
  0
ENDTAB
  0
TABLE
  2
VIEW
  5
6
330
0
100
AcDbSymbolTable
 70
     0
  0
ENDTAB
  0
TABLE
  2
UCS
  5
7
330
0
100
AcDbSymbolTable
 70
     0
  0
ENDTAB
  0
TABLE
  2
APPID
  5
9
330
0
100
AcDbSymbolTable
 70
     1
  0
APPID
  5
12
330
9
100
AcDbSymbolTableRecord
100
AcDbRegAppTableRecord
  2
ACAD
 70
     0
  0
ENDTAB
  0
TABLE
  2
DIMSTYLE
  5
A
330
0
100
AcDbSymbolTable
 70
     1
100
AcDbDimStyleTable
  0
DIMSTYLE
105
27
330
A
100
AcDbSymbolTableRecord
100
AcDbDimStyleTableRecord
  2
ISO-25
 70
     0
 41
2.5
 42
0.625
 43
3.75
 44
1.25
 73
     0
 74
     0
 77
     1
 78
     8
140
2.5
141
2.5
143
0.0393700787
147
0.625
171
     3
172
     1
178
     0
271
     2
272
     2
274
     3
278
    44
283
     0
284
     8
340
11
  0
ENDTAB
  0
TABLE
  2
BLOCK_RECORD
  5
1
330
0
100
AcDbSymbolTable
 70
     2
  0
BLOCK_RECORD
  5
1F
330
1
100
AcDbSymbolTableRecord
100
AcDbBlockTableRecord
  2
*Model_Space
340
22
  0
BLOCK_RECORD
  5
1B
330
1
100
AcDbSymbolTableRecord
100
AcDbBlockTableRecord
  2
*Paper_Space
340
1E
  0
BLOCK_RECORD
  5
23
330
1
100
AcDbSymbolTableRecord
100
AcDbBlockTableRecord
  2
*Paper_Space0
340
26
  0
BLOCK_RECORD
  5
73
330
1
100
AcDbSymbolTableRecord
100
AcDbBlockTableRecord
  2
SW_NOTE_0
340
0
102
{BLKREFS
331
7B
102
}
  0
ENDTAB
  0
ENDSEC
  0
SECTION
  2
BLOCKS
  0
BLOCK
  5
20
330
1F
100
AcDbEntity
  8
0
100
AcDbBlockBegin
  2
*Model_Space
 70
     0
 10
0.0
 20
0.0
 30
0.0
  3
*Model_Space
  1

  0
ENDBLK
  5
21
330
1F
100
AcDbEntity
  8
0
100
AcDbBlockEnd
  0
BLOCK
  5
1C
330
1B
100
AcDbEntity
 67
     1
  8
0
100
AcDbBlockBegin
  2
*Paper_Space
 70
     0
 10
0.0
 20
0.0
 30
0.0
  3
*Paper_Space
  1

  0
ENDBLK
  5
1D
330
1B
100
AcDbEntity
 67
     1
  8
0
100
AcDbBlockEnd
  0
BLOCK
  5
24
330
23
100
AcDbEntity
  8
0
100
AcDbBlockBegin
  2
*Paper_Space0
 70
     0
 10
0.0
 20
0.0
 30
0.0
  3
*Paper_Space0
  1

  0
ENDBLK
  5
25
330
23
100
AcDbEntity
  8
0
100
AcDbBlockEnd
  0
BLOCK
  5
74
330
73
100
AcDbEntity
  8
0
100
AcDbBlockBegin
  2
SW_NOTE_0
 70
     0
 10
0.0
 20
0.0
 30
0.0
  3
SW_NOTE_0
  1

  0
MTEXT
  5
77
330
73
100
AcDbEntity
  8
0
  6
Continuous
 62
     0
370
     0
100
AcDbMText
 10
0.0
 20
4.5117370892
 30
0.0
 40
3.5
 41
0.0
 71
     1
 72
     1
  1
HBA-D40S/K
  7
SLDTEXTSTYLE0
 73
     1
 44
1.0
  0
MTEXT
  5
78
330
73
100
AcDbEntity
  8
0
  6
Continuous
 62
     0
370
     0
100
AcDbMText
 10
0.0
 20
0.0117372829
 30
0.0
 40
3.5
 41
0.0
 71
     1
 72
     1
  1
HBA-D43S/K
  7
SLDTEXTSTYLE0
 73
     1
 44
1.0
  0
MTEXT
  5
79
330
73
100
AcDbEntity
  8
0
  6
Continuous
 62
     0
370
     0
100
AcDbMText
 10
0.0
 20
-4.4882625234
 30
0.0
 40
3.5
 41
0.0
 71
     1
 72
     1
  1
HFB-D35S/K
  7
SLDTEXTSTYLE0
 73
     1
 44
1.0
  0
MTEXT
  5
7A
330
73
100
AcDbEntity
  8
0
  6
Continuous
 62
     0
370
     0
100
AcDbMText
 10
0.0
 20
-8.9882623297
 30
0.0
 40
3.5
 41
0.0
 71
     1
 72
     1
  1
HFB-D38S/K
  7
SLDTEXTSTYLE0
 73
     1
 44
1.0
  0
ENDBLK
  5
75
330
73
100
AcDbEntity
  8
0
100
AcDbBlockEnd
  0
ENDSEC
  0
SECTION
  2
ENTITIES
  0
INSERT
  5
7B
330
1F
100
AcDbEntity
  8
0
  6
Continuous
 62
     7
370
     0
100
AcDbBlockReference
  2
SW_NOTE_0
 10
143.1857142857
 20
109.9965305731
 30
0.0
  0
LINE
  5
7C
330
1F
100
AcDbEntity
  8
0
  6
Continuous
 62
     7
370
    25
100
AcDbLine
 10
117.1799861388
 20
173.4786881591
 30
0.0
 11
117.5381638302
 21
173.4474949777
 31
0.0
  0
LINE
  5
7D
330
1F
100
AcDbEntity
  8
0
  6
Continuous
 62
     7
370
    25
100
AcDbLine
 10
118.7528062732
 20
187.3947041514
 30
0.0
 11
118.3946285818
 21
187.4258973329
 31
0.0
  0
LINE
  5
7E
330
1F
100
AcDbEntity
  8
0
  6
Continuous
 62
     7
370
    25
100
AcDbLine
 10
139.4704839619
 20
191.6007291504
 30
0.0
 11
128.5215336576
 21
192.2622567758
 31
0.0
  0
LINE
  5
7F
330
1F
100
AcDbEntity
  8
0
  6
Continuous
 62
     7
370
    25
100
AcDbLine
 10
126.7346897781
 20
192.2478440385
 30
0.0
 11
112.3079146206
 21
191.1006579305
 31
0.0
  0
SPLINE
  5
80
330
1F
100
AcDbEntity
  8
0
  6
Continuous
 62
     7
370
    25
100
AcDbSpline
210
0.0
220
0.0
230
1.0
 70
     8
 71
     3
 72
    12
 73
     8
 74
     0
 42
0.00000001
 43
0.00000001
 40
0.0
 40
0.0
 40
0.0
 40
0.0
 40
0.0757054612749784
 40
0.1661130631604043
 40
0.3895247884041301
 40
0.6679154009834829
 40
1.0
 40
1.0
 40
1.0
 40
1.0
 10
109.1130007644912
 20
139.340262199144
 30
0.0
 10
109.114555697352
 20
139.3192388184619
 30
0.0
 10
109.1179675339113
 20
139.2731092776827
 30
0.0
 10
109.1549400090162
 20
139.190424131446
 30
0.0
 10
109.2468982930855
 20
139.1070318150514
 30
0.0
 10
109.4177762734168
 20
139.0425591921562
 30
0.0
 10
109.5871917420291
 20
139.0168923397773
 30
0.0
 10
109.6793498950428
 20
139.0029301571721
 30
0.0
  0
LINE
  5
81
330
1F
100
AcDbEntity
  8
0
  6
Continuous
 62
     7
370
    25
100
AcDbLine
 10
109.3165112348
 20
173.1259788855
 30
0.0
 11
109.1128706428
 21
139.3187906185
 31
0.0
  0
LINE
  5
82
330
1F
100
AcDbEntity
  8
0
  6
Continuous
 62
     7
370
    25
100
AcDbLine
 10
109.6967637328
 20
138.9996675198
 30
0.0
 11
120.2766614363
 21
137.7862758682
 31
0.0
  0
SPLINE
  5
83
330
1F
100
AcDbEntity
  8
0
  6
Continuous
 62
     7
370
    25
100
AcDbSpline
210
0.0
220
0.0
230
1.0
 70
     8
 71
     3
 72
    30
 73
    26
 74
     0
 42
0.00000001
 43
0.00000001
 40
0.0
 40
0.0
 40
0.0
 40
0.0
 40
0.0178505941289412
 40
0.0623651683406797
 40
0.1069342915478679
 40
0.1517525203471913
 40
0.1969037556896034
 40
0.2423606841038111
 40
0.2880349072497158
 40
0.3338321250883854
 40
0.3796828875327553
 40
0.4255418876120162
 40
0.4714008193089205
 40
0.5172647897343454
 40
0.5631455852967997
 40
0.6090526834646007
 40
0.6549984248244002
 40
0.700989244613393
 40
0.7470182552340993
 40
0.7930398286651175
 40
0.8389761339177019
 40
0.8847132306556502
 40
0.9301291375522126
 40
0.9751564192788575
 40
0.9999999999999999
 40
0.9999999999999999
 40
0.9999999999999999
 40
0.9999999999999999
 10
114.5519088778934
 20
173.5653578463887
 30
0.0
 10
114.6620842756715
 20
173.5740925003294
 30
0.0
 10
115.0470074429227
 20
173.6046090287692
 30
0.0
 10
115.6854955110361
 20
173.8210614437906
 30
0.0
 10
116.4461282821014
 20
174.2050105574656
 30
0.0
 10
117.1512456760204
 20
174.7411944377511
 30
0.0
 10
117.7896807428551
 20
175.4080263528837
 30
0.0
 10
118.3487834014575
 20
176.1970342065007
 30
0.0
 10
118.8171948693891
 20
177.0921600880049
 30
0.0
 10
119.18520098563
 20
178.0756280514879
 30
0.0
 10
119.4453939013953
 20
179.127288222392
 30
0.0
 10
119.5927909740475
 20
180.2259154969956
 30
0.0
 10
119.6247311872919
 20
181.3496799879189
 30
0.0
 10
119.5407151226825
 20
182.4766142703166
 30
0.0
 10
119.3422993783246
 20
183.5847737684284
 30
0.0
 10
119.0330293265075
 20
184.652597970503
 30
0.0
 10
118.6183534352589
 20
185.6592236964887
 30
0.0
 10
118.1055194274963
 20
186.5848087516514
 30
0.0
 10
117.5036225358182
 20
187.4105414995179
 30
0.0
 10
116.8237028109922
 20
188.1192390764446
 30
0.0
 10
116.0790508830977
 20
188.6946092404251
 30
0.0
 10
115.2850188635844
 20
189.1262938248738
 30
0.0
 10
114.4599235086179
 20
189.3949570220723
 30
0.0
 10
113.7434947640011
 20
189.511773831741
 30
0.0
 10
113.3123240673711
 20
189.4750237710606
 30
0.0
 10
113.1590151825077
 20
189.4619567633404
 30
0.0
  0
LINE
  5
84
330
1F
100
AcDbEntity
  8
0
  6
Continuous
 62
     7
370
    25
100
AcDbLine
 10
113.1013380529
 20
189.4774451611
 30
0.0
 11
111.5753596504
 21
189.3561026431
 31
0.0
  0
LINE
  5
85
330
1F
100
AcDbEntity
  8
0
  6
Continuous
 62
     7
370
    25
100
AcDbLine
 10
109.1367968653
 20
173.1116883856
 30
0.0
 11
114.3696202028
 21
173.5277912342
 31
0.0
  0
LINE
  5
86
330
1F
100
AcDbEntity
  8
0
  6
Continuous
 62
     7
370
    25
100
AcDbLine
 10
118.3946285818
 20
187.4258973329
 30
0.0
 11
117.678273199
 21
187.4882836957
 31
0.0
  0
LINE
  5
87
330
1F
100
AcDbEntity
  8
0
  6
Continuous
 62
     7
370
    25
100
AcDbLine
 10
116.463630756
 20
173.541074522
 30
0.0
 11
117.1799861388
 21
173.4786881591
 31
0.0
  0
LINE
  5
88
330
1F
100
AcDbEntity
  8
0
  6
Continuous
 62
     7
370
    25
100
AcDbLine
 10
108.860869109
 20
182.8916337372
 30
0.0
 11
113.7157683006
 21
194.4534146265
 31
0.0
  0
LINE
  5
89
330
1F
100
AcDbEntity
  8
0
  6
Continuous
 62
     7
370
    25
100
AcDbLine
 10
79.1403196893
 20
208.9719666661
 30
0.0
 11
74.2854204977
 21
197.4101857768
 31
0.0
  0
SPLINE
  5
8A
330
1F
100
AcDbEntity
  8
0
  6
Continuous
 62
     7
370
    25
100
AcDbSpline
210
0.0
220
0.0
230
1.0
 70
     8
 71
     3
 72
     9
 73
     5
 74
     0
 42
0.00000001
 43
0.00000001
 40
0.0
 40
0.0
 40
0.0
 40
0.0
 40
0.3857805370461097
 40
1.0
 40
1.0
 40
1.0
 40
1.0
 10
113.409525137543
 20
198.1363729722751
 30
0.0
 10
113.3608128248444
 20
198.2535664453095
 30
0.0
 10
113.2345433321644
 20
198.5573491968493
 30
0.0
 10
113.0346887274621
 20
198.873040447451
 30
0.0
 10
112.911934139493
 20
199.0669441578549
 30
0.0
  0
SPLINE
  5
8B
330
1F
100
AcDbEntity
  8
0
  6
Continuous
 62
     7
370
    25
100
AcDbSpline
210
0.0
220
0.0
230
1.0
 70
     8
 71
     3
 72
    10
 73
     6
 74
     0
 42
0.00000001
 43
0.00000001
 40
0.0
 40
0.0
 40
0.0
 40
0.0
 40
0.2155474114180927
 40
0.6267854084759421
 40
1.0
 40
1.0
 40
1.0
 40
1.0
 10
84.87672947305906
 20
211.9224280812014
 30
0.0
 10
84.66722113152287
 20
211.9029808476733
 30
0.0
 10
84.05799659681402
 20
211.846430680216
 30
0.0
 10
83.1517888758884
 20
211.698147499163
 30
0.0
 10
82.52945176771537
 20
211.514217179599
 30
0.0
 10
82.23336594557928
 20
211.4267096870059
 30
0.0
  0
LINE
  5
8C
330
1F
100
AcDbEntity
  8
0
  6
Continuous
 62
     7
370
    25
100
AcDbLine
 10
104.602787351
 20
172.7511537081
 30
0.0
 11
108.7879419761
 21
173.0839481957
 31
0.0
  0
LINE
  5
8D
330
1F
100
AcDbEntity
  8
0
  6
Continuous
 62
     7
370
    25
100
AcDbLine
 10
59.0792507774
 20
157.6457080132
 30
0.0
 11
58.6051752234
 21
156.5167128551
 31
0.0
  0
LINE
  5
8E
330
1F
100
AcDbEntity
  8
0
  6
Continuous
 62
     7
370
    25
100
AcDbLine
 10
90.6450909366
 20
143.0628546317
 30
0.0
 11
91.1191664906
 21
144.1918497898
 31
0.0
  0
SPLINE
  5
8F
330
1F
100
AcDbEntity
  8
0
  6
Continuous
 62
     7
370
    25
100
AcDbSpline
210
0.0
220
0.0
230
1.0
 70
     8
 71
     3
 72
     9
 73
     5
 74
     0
 42
0.00000001
 43
0.00000001
 40
0.0
 40
0.0
 40
0.0
 40
0.0
 40
0.5444712264230083
 40
1.0
 40
1.0
 40
1.0
 40
1.0
 10
88.36586438162124
 20
140.1394174086298
 30
0.0
 10
88.53609637348274
 20
140.1777317168992
 30
0.0
 10
88.84875199897809
 20
140.2481014745834
 30
0.0
 10
89.10895277297028
 20
140.3568936807319
 30
0.0
 10
89.22748171243074
 20
140.4064516609735
 30
0.0
  0
SPLINE
  5
90
330
1F
100
AcDbEntity
  8
0
  6
Continuous
 62
     7
370
    25
100
AcDbSpline
210
0.0
220
0.0
230
1.0
 70
     8
 71
     3
 72
     9
 73
     5
 74
     0
 42
0.00000001
 43
0.00000001
 40
0.0
 40
0.0
 40
0.0
 40
0.0
 40
0.420565512948738
 40
1.0
 40
1.0
 40
1.0
 40
1.0
 10
57.90341697981467
 20
153.2098388658141
 30
0.0
 10
57.9206822428164
 20
153.1701840101881
 30
0.0
 10
57.96173473635224
 20
153.0758946440725
 30
0.0
 10
58.02543776067807
 20
152.9780623351715
 30
0.0
 10
58.06234948990195
 20
152.9213749214464
 30
0.0
  0
LINE
  5
91
330
1F
100
AcDbEntity
  8
0
  6
Continuous
 62
     7
370
    25
100
AcDbLine
 10
92.0011282801
 20
142.7407219216
 30
0.0
 11
93.6782752735
 21
146.7347916833
 31
0.0
  0
LINE
  5
92
330
1F
100
AcDbEntity
  8
0
  6
Continuous
 62
     7
370
    25
100
AcDbLine
 10
59.1028266622
 20
161.2533437229
 30
0.0
 11
57.4256796687
 21
157.2592739612
 31
0.0
  0
SPLINE
  5
93
330
1F
100
AcDbEntity
  8
0
  6
Continuous
 62
     7
370
    25
100
AcDbSpline
210
0.0
220
0.0
230
1.0
 70
     8
 71
     3
 72
    10
 73
     6
 74
     0
 42
0.00000001
 43
0.00000001
 40
0.0
 40
0.0
 40
0.0
 40
0.0
 40
0.1343896486735822
 40
0.5899087935417744
 40
1.0
 40
1.0
 40
1.0
 40
1.0
 10
61.3962346125255
 20
158.9283057686673
 30
0.0
 10
61.4812580816535
 20
158.9568484793846
 30
0.0
 10
61.85447203519137
 20
159.0821378614899
 30
0.0
 10
62.59946367478052
 20
159.2240633505837
 30
0.0
 10
63.30591218394382
 20
159.2974532938566
 30
0.0
 10
63.64059894107356
 20
159.3322224834032
 30
0.0
  0
LINE
  5
94
330
1F
100
AcDbEntity
  8
0
  6
Continuous
 62
     7
370
    25
100
AcDbLine
 10
94.0313588511
 20
147.5756484753
 30
0.0
 11
108.860869109
 21
182.8916337372
 31
0.0
  0
LINE
  5
95
330
1F
100
AcDbEntity
  8
0
  6
Continuous
 62
     7
370
    25
100
AcDbLine
 10
74.2854204977
 20
197.4101857768
 30
0.0
 11
59.4559102398
 21
162.0942005149
 31
0.0
  0
LINE
  5
96
330
1F
100
AcDbEntity
  8
0
  6
Continuous
 62
     7
370
    25
100
AcDbLine
 10
117.3539343179
 20
173.4680467008
 30
0.0
 11
117.1799861388
 21
173.4786881591
 31
0.0
  0
LWPOLYLINE
  5
97
330
1F
100
AcDbEntity
  8
0
  6
Continuous
 62
     7
370
    25
100
AcDbPolyline
 90
       21
 70
   128
 43
0.0
 10
118.3946285818
 20
187.4258973329
 10
118.6107356697
 20
187.4000479007
 10
119.3723304335
 20
187.1924184264
 10
120.0928739322
 20
186.8102232375
 10
120.7537044679
 20
186.2633609885
 10
121.3377068766
 20
185.5659951244
 10
121.8297558027
 20
184.7361870548
 10
122.2171074376
 20
183.7954283729
 10
122.4897295774
 20
182.7680842342
 10
122.6405614518
 20
181.6807623125
 10
122.6656965946
 20
180.5616236743
 10
122.5644840186
 20
179.4396534225
 10
122.3395450766
 20
178.3439099972
 10
121.9967055689
 20
177.3027725776
 10
121.5448448587
 20
176.3432060761
 10
120.995665901
 20
175.4900627608
 10
120.3633921424
 20
174.7654385957
 10
119.6643991411
 20
174.1881009659
 10
118.9167904486
 20
173.7730026127
 10
118.1399287375
 20
173.5308943656
 10
117.3539343179
 20
173.4680467008
  0
LINE
  5
98
330
1F
100
AcDbEntity
  8
0
  6
Continuous
 62
     7
370
    25
100
AcDbLine
 10
117.7121120093
 20
173.4368535194
 30
0.0
 11
117.5381638302
 21
173.4474949777
 31
0.0
  0
LWPOLYLINE
  5
99
330
1F
100
AcDbEntity
  8
0
  6
Continuous
 62
     7
370
    25
100
AcDbPolyline
 90
       21
 70
   128
 43
0.0
 10
118.7528062732
 20
187.3947041514
 10
118.9689133611
 20
187.3688547193
 10
119.7305081249
 20
187.161225245
 10
120.4510516237
 20
186.7790300561
 10
121.1118821593
 20
186.232167807
 10
121.695884568
 20
185.534801943
 10
122.1879334941
 20
184.7049938734
 10
122.575285129
 20
183.7642351914
 10
122.8479072688
 20
182.7368910528
 10
122.9987391432
 20
181.6495691311
 10
123.023874286
 20
180.5304304929
 10
122.9226617101
 20
179.408460241
 10
122.697722768
 20
178.3127168158
 10
122.3548832603
 20
177.2715793962
 10
121.9030225501
 20
176.3120128946
 10
121.3538435924
 20
175.4588695794
 10
120.7215698338
 20
174.7342454143
 10
120.0225768325
 20
174.1569077845
 10
119.27496814
 20
173.7418094313
 10
118.4981064289
 20
173.4997011842
 10
117.7121120093
 20
173.4368535194
  0
SPLINE
  5
9A
330
1F
100
AcDbEntity
  8
0
  6
Continuous
 62
     7
370
    25
100
AcDbSpline
210
0.0
220
0.0
230
1.0
 70
     8
 71
     3
 72
    13
 73
     9
 74
     0
 42
0.00000001
 43
0.00000001
 40
0.0
 40
0.0
 40
0.0
 40
0.0
 40
0.2396665004881429
 40
0.3698887732387822
 40
0.4999755604407159
 40
0.6302053730790643
 40
0.7602997463690845
 40
1.0
 40
1.0
 40
1.0
 40
1.0
 10
126.4411533104851
 20
140.4967389310855
 30
0.0
 10
126.561488981541
 20
140.5040597741216
 30
0.0
 10
126.7472087782298
 20
140.5153583813287
 30
0.0
 10
127.0578652763367
 20
140.5192197360083
 30
0.0
 10
127.3090783923183
 20
140.5175735825602
 30
0.0
 10
127.5613302050675
 20
140.5109845153629
 30
0.0
 10
127.8760622093191
 20
140.4968927802681
 30
0.0
 10
128.0682620068246
 20
140.4794197029136
 30
0.0
 10
128.1928455914847
 20
140.4680936836351
 30
0.0
  0
ARC
  5
9B
330
1F
100
AcDbEntity
  8
0
  6
Continuous
 62
     7
370
    25
100
AcDbCircle
 10
126.5117121603
 20
140.733057455
 30
0.0
 40
0.2466272410716085
100
AcDbArc
 50
173.4588133606
 51
253.3756797965
  0
SPLINE
  5
9C
330
1F
100
AcDbEntity
  8
0
  6
Continuous
 62
     7
370
    25
100
AcDbSpline
210
0.0
220
0.0
230
1.0
 70
     8
 71
     3
 72
    12
 73
     8
 74
     0
 42
0.00000001
 43
0.00000001
 40
0.0
 40
0.0
 40
0.0
 40
0.0
 40
0.2429974594478838
 40
0.4991900435693847
 40
0.7111873668370945
 40
0.8460952011209187
 40
1.0
 40
1.0
 40
1.0
 40
1.0
 10
126.2666904073578
 20
140.7611525906015
 30
0.0
 10
126.413423905775
 20
140.7700098221325
 30
0.0
 10
126.714858750544
 20
140.7882052460842
 30
0.0
 10
127.2754979792348
 20
140.7899256555059
 30
0.0
 10
127.7422550463132
 20
140.775817588671
 30
0.0
 10
128.1027334228781
 20
140.7556989924792
 30
0.0
 10
128.2762708573408
 20
140.739619501453
 30
0.0
 10
128.3687468811785
 20
140.7310509329476
 30
0.0
  0
ARC
  5
9D
330
1F
100
AcDbEntity
  8
0
  6
Continuous
 62
     7
370
    25
100
AcDbCircle
 10
128.1214954114
 20
140.7061341948
 30
0.0
 40
0.248503788998801
100
AcDbArc
 50
286.6855581015
 51
5.7545477539
  0
LINE
  5
9E
330
1F
100
AcDbEntity
  8
0
  6
Continuous
 62
     7
370
    25
100
AcDbLine
 10
126.575417841
 20
192.0142272866
 30
0.0
 11
126.2666904074
 21
140.7611525906
 31
0.0
  0
SPLINE
  5
9F
330
1F
100
AcDbEntity
  8
0
  6
Continuous
 62
     7
370
    25
100
AcDbSpline
210
0.0
220
0.0
230
1.0
 70
     8
 71
     3
 72
    12
 73
     8
 74
     0
 42
0.00000001
 43
0.00000001
 40
0.0
 40
0.0
 40
0.0
 40
0.0
 40
0.1539004914433571
 40
0.2888068902018139
 40
0.5008099328756626
 40
0.756998859356633
 40
1.0
 40
1.0
 40
1.0
 40
1.0
 10
128.6777316810629
 20
192.0268520218253
 30
0.0
 10
128.5852378097887
 20
192.0319999750579
 30
0.0
 10
128.4116654769462
 20
192.0416605313698
 30
0.0
 10
128.0511255682219
 20
192.0513298429864
 30
0.0
 10
127.5842992174512
 20
192.0540517812313
 30
0.0
 10
127.0236009354236
 20
192.0432285024694
 30
0.0
 10
126.7221576595777
 20
192.0237225870947
 30
0.0
 10
126.5754178410316
 20
192.014227286612
 30
0.0
  0
LINE
  5
A0
330
1F
100
AcDbEntity
  8
0
  6
Continuous
 62
     7
370
    25
100
AcDbLine
 10
128.3687468812
 20
140.7310509329
 30
0.0
 11
128.6777316811
 21
192.0268520218
 31
0.0
  0
LINE
  5
A1
330
1F
100
AcDbEntity
  8
0
  6
Continuous
 62
     7
370
    25
100
AcDbLine
 10
110.7750012438
 20
139.1136684533
 30
0.0
 11
126.8178430986
 21
140.3893607067
 31
0.0
  0
ELLIPSE
  5
A2
330
1F
100
AcDbEntity
  8
0
  6
Continuous
 62
     7
370
    25
100
AcDbEllipse
 10
111.3121891996
 20
139.0538330863
 30
0.0
 11
0.7499290161096326
 21
-0.01395348096849602
 31
0.0
210
0.0
220
0.0
230
1.0
 40
0.0953865218
 41
2.37108123054613
 42
3.92442533021947
  0
LINE
  5
A3
330
1F
100
AcDbEntity
  8
0
  6
Continuous
 62
     7
370
    25
100
AcDbLine
 10
120.9978717104
 20
137.8413573696
 30
0.0
 11
110.7796119043
 21
139.0132733455
 31
0.0
  0
LINE
  5
A4
330
1F
100
AcDbEntity
  8
0
  6
Continuous
 62
     7
370
    25
100
AcDbLine
 10
120.3001361961
 20
137.7858749433
 30
0.0
 11
120.9978717104
 21
137.8413573696
 31
0.0
  0
LINE
  5
A5
330
1F
100
AcDbEntity
  8
0
  6
Continuous
 62
     7
370
    25
100
AcDbLine
 10
109.7206231646
 20
138.9992223162
 30
0.0
 11
120.3001361961
 21
137.7858749433
 31
0.0
  0
SPLINE
  5
A6
330
1F
100
AcDbEntity
  8
0
  6
Continuous
 62
     7
370
    25
100
AcDbSpline
210
0.0
220
0.0
230
1.0
 70
     8
 71
     3
 72
    13
 73
     9
 74
     0
 42
0.00000001
 43
0.00000001
 40
0.0
 40
0.0
 40
0.0
 40
0.0
 40
0.2397002536162104
 40
0.3699338437953054
 40
0.5000245588799946
 40
0.6302504349962674
 40
0.7603334995265598
 40
1.0
 40
1.0
 40
1.0
 40
1.0
 10
109.7206231646397
 20
138.9992223162392
 30
0.0
 10
109.6227648697439
 20
139.0126734060642
 30
0.0
 10
109.4717383496134
 20
139.0334327222817
 30
0.0
 10
109.3766793264262
 20
139.0649909487543
 30
0.0
 10
109.3497790370731
 20
139.0895058892093
 30
0.0
 10
109.374490375799
 20
139.1130825075857
 30
0.0
 10
109.4668360613792
 20
139.1412620013197
 30
0.0
 10
109.6161539193423
 20
139.1566033442835
 30
0.0
 10
109.712939668031
 20
139.1665473883844
 30
0.0
  0
LINE
  5
A7
330
1F
100
AcDbEntity
  8
0
  6
Continuous
 62
     7
370
    25
100
AcDbLine
 10
109.712939668
 20
139.1665473884
 30
0.0
 11
126.4411533105
 21
140.4967389311
 31
0.0
  0
LINE
  5
A8
330
1F
100
AcDbEntity
  8
0
  6
Continuous
 62
     7
370
    25
100
AcDbLine
 10
139.1383516832
 20
139.2838492911
 30
0.0
 11
128.1928455915
 21
140.4680936836
 31
0.0
  0
LINE
  5
A9
330
1F
100
AcDbEntity
  8
0
  6
Continuous
 62
     7
370
    25
100
AcDbLine
 10
138.4406161687
 20
139.2283668648
 30
0.0
 11
139.1383516832
 21
139.2838492911
 31
0.0
  0
LINE
  5
AA
330
1F
100
AcDbEntity
  8
0
  6
Continuous
 62
     7
370
    25
100
AcDbLine
 10
127.8688590492
 20
140.3721734952
 30
0.0
 11
138.4406161687
 21
139.2283668648
 31
0.0
  0
ELLIPSE
  5
AB
330
1F
100
AcDbEntity
  8
0
  6
Continuous
 62
     7
370
    25
100
AcDbEllipse
 10
127.3550310544
 20
140.3295253396
 30
0.0
 11
0.7499290161096043
 21
-0.01395348096846761
 31
0.0
210
0.0
220
0.0
230
1.0
 40
0.0953865218
 41
0.8177371308431466
 42
2.371081230545764
  0
LINE
  5
AC
330
1F
100
AcDbEntity
  8
0
  6
Continuous
 62
     7
370
    25
100
AcDbLine
 10
128.3687468812
 20
140.7310509329
 30
0.0
 11
139.3142538101
 21
139.5468077921
 31
0.0
  0
ELLIPSE
  5
AD
330
1F
100
AcDbEntity
  8
0
  6
Continuous
 62
     7
370
    25
100
AcDbEllipse
 10
139.1398002453
 20
139.533010291
 30
0.0
 11
0.02159333229857907
 21
0.2490951522069623
 31
0.0
210
0.0
220
0.0
230
1.0
 40
0.6949895469
 41
3.257380049630674
 42
4.827881306581863
  0
LINE
  5
AE
330
1F
100
AcDbEntity
  8
0
  6
Continuous
 62
     7
370
    25
100
AcDbLine
 10
139.6263873332
 20
191.3653410129
 30
0.0
 11
128.6777316811
 21
192.0268520218
 31
0.0
  0
LINE
  5
AF
330
1F
100
AcDbEntity
  8
0
  6
Continuous
 62
     7
370
    25
100
AcDbLine
 10
139.3142538101
 20
139.5468077921
 30
0.0
 11
139.6263873332
 21
191.3653410129
 31
0.0
  0
ARC
  5
B0
330
1F
100
AcDbEntity
  8
0
  6
Continuous
 62
     7
370
    25
100
AcDbCircle
 10
109.7834985178
 20
139.4028659123
 30
0.0
 40
0.2466272410717122
100
AcDbArc
 50
173.4588133606
 51
253.3756797965
  0
LINE
  5
B1
330
1F
100
AcDbEntity
  8
0
  6
Continuous
 62
     7
370
    25
100
AcDbLine
 10
126.2666904074
 20
140.7611525906
 30
0.0
 11
109.5384767649
 21
139.4309610479
 31
0.0
  0
SPLINE
  5
B2
330
1F
100
AcDbEntity
  8
0
  6
Continuous
 62
     7
370
    25
100
AcDbSpline
210
0.0
220
0.0
230
1.0
 70
     8
 71
     3
 72
    13
 73
     9
 74
     0
 42
0.00000001
 43
0.00000001
 40
0.0
 40
0.0
 40
0.0
 40
0.0
 40
0.2397002536162289
 40
0.3699338437970702
 40
0.5000245588800266
 40
0.6302504349959874
 40
0.7603334995265414
 40
1.0
 40
1.0
 40
1.0
 40
1.0
 10
128.5048312138785
 20
192.2620733061991
 30
0.0
 10
128.3802147279061
 20
192.2679972259537
 30
0.0
 10
128.1878917955739
 20
192.2771397210997
 30
0.0
 10
127.8730818605828
 20
192.2812763943372
 30
0.0
 10
127.6207017258969
 20
192.2810835854519
 30
0.0
 10
127.3695438686061
 20
192.2772278695948
 30
0.0
 10
127.0588748596125
 20
192.2680618409651
 30
0.0
 10
126.8732202742322
 20
192.2558850114758
 30
0.0
 10
126.7528815666682
 20
192.2479921607823
 30
0.0
  0
LINE
  5
B3
330
1F
100
AcDbEntity
  8
0
  6
Continuous
 62
     7
370
    25
100
AcDbLine
 10
128.5048295837
 20
192.2620731723
 30
0.0
 11
128.5215336576
 21
192.2622567758
 31
0.0
  0
LINE
  5
B4
330
1F
100
AcDbEntity
  8
0
  6
Continuous
 62
     7
370
    25
100
AcDbLine
 10
126.7346897781
 20
192.2478440385
 30
0.0
 11
126.7528815667
 21
192.2479921608
 31
0.0
  0
ELLIPSE
  5
B5
330
1F
100
AcDbEntity
  8
0
  6
Continuous
 62
     7
370
    25
100
AcDbEllipse
 10
139.4519328684
 20
191.3513940986
 30
0.0
 11
0.02179332833458147
 21
0.2490953214337708
 31
0.0
210
0.0
220
0.0
230
1.0
 40
0.6948921573
 41
4.829026512397457
 42
6.399527770609746
  0
LINE
  5
B6
330
1F
100
AcDbEntity
  8
0
  6
Continuous
 62
     7
370
    25
100
AcDbLine
 10
109.7206248543
 20
138.9992224449
 30
0.0
 11
109.6967637328
 21
138.9996675198
 31
0.0
  0
LINE
  5
B7
330
1F
100
AcDbEntity
  8
0
  6
Continuous
 62
     7
370
    25
100
AcDbLine
 10
121.010438187
 20
139.9275683681
 30
0.0
 11
120.9978717104
 21
137.8413573696
 31
0.0
  0
LINE
  5
B8
330
1F
100
AcDbEntity
  8
0
  6
Continuous
 62
     7
370
    25
100
AcDbLine
 10
114.5436459625
 20
173.5453888137
 30
0.0
 11
114.3696202028
 21
173.5277912342
 31
0.0
  0
ARC
  5
B9
330
1F
100
AcDbEntity
  8
0
  6
Continuous
 62
     7
370
    25
100
AcDbCircle
 10
108.8971653399
 20
177.9110240612
 30
0.0
 40
4.80531437002334
100
AcDbArc
 50
223.4843405037
 51
272.8584127869
  0
LWPOLYLINE
  5
BA
330
1F
100
AcDbEntity
  8
0
  6
Continuous
 62
     7
370
    25
100
AcDbPolyline
 90
       36
 70
   128
 43
0.0
 10
108.8907574916
 20
181.9826595182
 10
108.9478912351
 20
180.8469005673
 10
109.1315012467
 20
179.7279706162
 10
109.4370664387
 20
178.6534214338
 10
109.8570627818
 20
177.6497119872
 10
110.3811485723
 20
176.7415569341
 10
110.9964190786
 20
175.951318066
 10
111.6877242988
 20
175.2984536863
 10
112.4380420043
 20
174.7990394828
 10
113.2288968828
 20
174.4653726908
 10
114.0408154626
 20
174.305669294
 10
114.8538056136
 20
174.32386172
 10
115.6478488202
 20
174.5195020109
 10
116.4033931033
 20
174.8877728536
 10
117.1018344552
 20
175.4196061975
 10
117.7259749318
 20
176.1019065409
 10
118.2604461232
 20
176.9178733846
 10
118.6920875748
 20
177.8474149172
 10
119.0102708415
 20
178.8676427409
 10
119.2071611954
 20
179.9534354609
 10
119.2779105425
 20
181.0780572569
 10
119.220776799
 20
182.2138162078
 10
119.0371667873
 20
183.3327461589
 10
118.7316015954
 20
184.4072953413
 10
118.3116052522
 20
185.4110047879
 10
117.7875194618
 20
186.319159841
 10
117.1722489555
 20
187.1093987091
 10
116.4809437352
 20
187.7622630888
 10
115.7306260298
 20
188.2616772923
 10
114.9397711513
 20
188.5953440843
 10
114.1278525715
 20
188.7550474811
 10
113.3148624205
 20
188.7368550551
 10
112.5208192139
 20
188.5412147642
 10
111.7652749308
 20
188.1729439215
 10
111.0668335788
 20
187.6411105776
 10
110.6977247121
 20
187.2660442387
  0
LWPOLYLINE
  5
BB
330
1F
100
AcDbEntity
  8
0
  6
Continuous
 62
     7
370
    25
100
AcDbPolyline
 90
        3
 70
   128
 43
0.0
 10
108.9656796043
 20
183.1412364444
 10
108.9615068386
 20
183.1072813142
 10
108.8907574916
 20
181.9826595182
  0
LWPOLYLINE
  5
BC
330
1F
100
AcDbEntity
  8
0
  6
Continuous
 62
     7
370
    25
100
AcDbPolyline
 90
       36
 70
   128
 43
0.0
 10
109.6164356766
 20
181.861339784
 10
109.676467559
 20
180.8324572164
 10
109.866959413
 20
179.8251141742
 10
110.1817886737
 20
178.8716874915
 10
110.6108364695
 20
178.0028210864
 10
111.1403128513
 20
177.2464410401
 10
111.7532000126
 20
176.6268580297
 10
112.4297992557
 20
176.1639859629
 10
113.1483641241
 20
175.8727019287
 10
113.8857993519
 20
175.7623680357
 10
114.618403164
 20
175.836530506
 10
115.3226290711
 20
176.0928056968
 10
115.9758426731
 20
176.5229567126
 10
116.5570491474
 20
177.1131581458
 10
117.0475680396
 20
177.8444404367
 10
117.4316336691
 20
178.6932995708
 10
117.6969018504
 20
179.6324525171
 10
117.8348466459
 20
180.6317141272
 10
117.8410343964
 20
181.6589673106
 10
117.7152662225
 20
182.6811953049
 10
117.4615844168
 20
183.6655428613
 10
117.0881425213
 20
184.5803722393
 10
116.6069432657
 20
185.39628007
 10
116.0334527901
 20
186.0870424044
 10
115.3861035502
 20
186.6304575728
 10
114.6857018833
 20
187.0090597644
 10
113.9547592751
 20
187.2106803933
 10
113.2167688226
 20
187.2288392067
 10
112.4954501461
 20
187.0629525653
 10
111.8139870213
 20
186.7183522023
 10
111.1942822339
 20
186.2061138568
 10
110.6562536055
 20
185.5427012908
 10
110.2171938191
 20
184.74943713
 10
109.8912146173
 20
183.8518175372
 10
109.6887932399
 20
182.8786927447
 10
109.6164356766
 20
181.861339784
  0
ARC
  5
BD
330
1F
100
AcDbEntity
  8
0
  6
Continuous
 62
     7
370
    25
100
AcDbCircle
 10
113.9759062115
 20
180.7822727581
 30
0.0
 40
6.270026758211995
100
AcDbArc
 50
315.1847147752
 51
35.266254173
  0
LWPOLYLINE
  5
BE
330
1F
100
AcDbEntity
  8
0
  6
Continuous
 62
     7
370
    25
100
AcDbPolyline
 90
       23
 70
   128
 43
0.0
 10
117.4485227198
 20
187.5004384639
 10
117.8958694057
 20
187.4622070495
 10
118.6574039911
 20
187.2542357824
 10
119.3778503027
 20
186.8717135375
 10
120.0385491594
 20
186.3245474402
 10
120.622388808
 20
185.6269088048
 10
121.1142481081
 20
184.7968661057
 10
121.5013881622
 20
183.8559170127
 10
121.7737822464
 20
182.828431613
 10
121.9243754969
 20
181.7410212388
 10
121.9492676277
 20
180.6218492477
 10
121.8478139455
 20
179.4999016062
 10
121.6226420476
 20
178.404236169
 10
121.2795837677
 20
177.3632300954
 10
120.8275241352
 20
176.4038448959
 10
120.278171257
 20
175.5509281431
 10
119.6457530841
 20
174.826569933
 10
118.9466489151
 20
174.2495307628
 10
118.1989651806
 20
173.8347556438
 10
117.4220664967
 20
173.5929870337
 10
116.6360741312
 20
173.5304866126
 10
115.8613448735
 20
173.6488731085
 10
115.5078580081
 20
173.7659095319
  0
LWPOLYLINE
  5
BF
330
1F
100
AcDbEntity
  8
0
  6
Continuous
 62
     7
370
    25
100
AcDbPolyline
 90
       20
 70
   128
 43
0.0
 10
116.2456782521
 20
174.0634552374
 10
116.673757651
 20
174.0685648271
 10
117.4207449452
 20
174.2162633658
 10
118.1484206454
 20
174.5366171359
 10
118.8369356553
 20
175.0208877218
 10
119.4675090804
 20
175.655865484
 10
120.0229405213
 20
176.4242298847
 10
120.4880792563
 20
177.3050219458
 10
120.8502375131
 20
178.2742159561
 10
121.0995365587
 20
179.3053748294
 10
121.229176165
 20
180.3703712397
 10
121.2356201014
 20
181.4401548612
 10
121.1186925941
 20
182.4855447854
 10
120.8815831207
 20
183.4780255002
 10
120.5307594096
 20
184.390524719
 10
120.0757910171
 20
185.1981518419
 10
119.5290882949
 20
185.8788769061
 10
118.9055638681
 20
186.4141315065
 10
118.2222258577
 20
186.789315293
 10
117.9186380246
 20
186.8975022025
  0
LWPOLYLINE
  5
C0
330
1F
100
AcDbEntity
  8
0
  6
Continuous
 62
     7
370
    25
100
AcDbPolyline
 90
       22
 70
   128
 43
0.0
 10
118.3946285818
 20
187.4258973329
 10
118.6122247885
 20
187.3998206866
 10
119.3737593739
 20
187.1918494195
 10
120.0942056855
 20
186.8093271747
 10
120.7549045422
 20
186.2621610773
 10
121.3387441908
 20
185.564522442
 10
121.8306034909
 20
184.7344797428
 10
122.217743545
 20
183.7935306498
 10
122.4901376292
 20
182.7660452501
 10
122.6407308797
 20
181.678634876
 10
122.6656230105
 20
180.5594628848
 10
122.5641693283
 20
179.4375152433
 10
122.3389974304
 20
178.3418498061
 10
121.9959391505
 20
177.3008437325
 10
121.543879518
 20
176.341458533
 10
120.9945266398
 20
175.4885417803
 10
120.3621084669
 20
174.7641835702
 10
119.6630042979
 20
174.1871443999
 10
118.9153205635
 20
173.7723692809
 10
118.1384218796
 20
173.5306006709
 10
117.352429514
 20
173.4681002497
 10
117.1799861388
 20
173.4786881591
  0
LWPOLYLINE
  5
C1
330
1F
100
AcDbEntity
  8
0
  6
Continuous
 62
     7
370
    25
100
AcDbPolyline
 90
        8
 70
   128
 43
0.0
 10
79.8858161412
 20
200.2460355262
 10
78.6777761162
 20
200.098508498
 10
77.5901366741
 20
199.8581034206
 10
76.6330528115
 20
199.5270648914
 10
75.8154605623
 20
199.108483728
 10
75.1449935653
 20
198.6062681099
 10
74.62791179
 20
198.025107089
 10
74.2854204977
 20
197.4101857768
  0
LWPOLYLINE
  5
C2
330
1F
100
AcDbEntity
  8
0
  6
Continuous
 62
     7
370
    25
100
AcDbPolyline
 90
       27
 70
   128
 43
0.0
 10
108.860869109
 20
182.8916337372
 10
108.9962452286
 20
183.2844176822
 10
109.1119823889
 20
184.0377167069
 10
109.0639641483
 20
184.848092968
 10
108.8526388401
 20
185.7079802007
 10
108.4799795517
 20
186.6093498696
 10
107.9494657027
 20
187.543786129
 10
107.2660505577
 20
188.5025643992
 10
106.4361149799
 20
189.4767328259
 10
105.4674078542
 20
190.4571958609
 10
104.3689737381
 20
191.4347991852
 10
103.1510684147
 20
192.4004151797
 10
101.8250631382
 20
193.3450281482
 10
100.4033384623
 20
194.259818494
 10
98.8991686475
 20
195.1362450659
 10
97.3265977219
 20
195.9661249052
 10
95.7003083566
 20
196.7417096476
 10
94.0354847772
 20
197.4557578672
 10
92.3476709929
 20
198.1016026881
 10
90.6526256662
 20
198.6732140313
 10
88.9661749787
 20
199.1652549158
 10
87.3040648661
 20
199.5731312883
 10
85.6818140026
 20
199.893034917
 10
84.1145689074
 20
200.121978948
 10
82.6169625258
 20
200.2578257924
 10
81.202977605
 20
200.2993070851
 10
79.8858161412
 20
200.2460355262
  0
ARC
  5
C3
330
1F
100
AcDbEntity
  8
0
  6
Continuous
 62
     7
370
    25
100
AcDbCircle
 10
83.1729842877
 20
206.9223181801
 30
0.0
 40
4.523653686883671
100
AcDbArc
 50
103.563789275
 51
153.0575185713
  0
ARC
  5
C4
330
1F
100
AcDbEntity
  8
0
  6
Continuous
 62
     7
370
    25
100
AcDbCircle
 10
109.5506087316
 20
195.8858526241
 30
0.0
 40
4.404592245912209
100
AcDbArc
 50
341.0214190132
 51
28.3334925401
  0
LWPOLYLINE
  5
C5
330
1F
100
AcDbEntity
  8
0
  6
Continuous
 62
     7
370
    25
100
AcDbPolyline
 90
       21
 70
   128
 43
0.0
 10
84.984817276
 20
211.8834289366
 10
86.3055136581
 20
211.9360698118
 10
87.7245456378
 20
211.8922784346
 10
89.2282471615
 20
211.7524765399
 10
90.8021367614
 20
211.5180104965
 10
92.4310570204
 20
211.1911383403
 10
94.099320546
 20
210.7750080291
 10
95.7908610483
 20
210.2736271251
 10
97.4893880676
 20
209.6918242006
 10
99.1785438604
 20
209.0352023358
 10
100.8420609328
 20
208.3100851582
 10
102.4639187061
 20
207.5234559426
 10
104.0284978034
 20
206.6828903583
 10
105.5207304726
 20
205.7964835114
 10
106.9262456975
 20
204.8727719844
 10
108.231507598
 20
203.9206516244
 10
109.4239457886
 20
202.9492918707
 10
110.4920764376
 20
201.968047449
 10
111.4256128629
 20
200.9863682792
 10
112.2155645985
 20
200.0137084686
 10
112.7901506934
 20
199.1656917404
  0
ARC
  5
C6
330
1F
100
AcDbEntity
  8
0
  6
Continuous
 62
     7
370
    25
100
AcDbCircle
 10
108.5406975337
 20
177.8431361911
 30
0.0
 40
4.760264139029369
100
AcDbArc
 50
226.8209044999
 51
275.0784197733
  0
ARC
  5
C7
330
1F
100
AcDbEntity
  8
0
  6
Continuous
 62
     7
370
    25
100
AcDbCircle
 10
109.1467195573
 20
178.8472402201
 30
0.0
 40
5.695764342849082
100
AcDbArc
 50
229.0991082939
 51
236.5126025303
  0
LINE
  5
C8
330
1F
100
AcDbEntity
  8
0
  6
Continuous
 62
     7
370
    25
100
AcDbLine
 10
105.5297915055
 20
174.5149940974
 30
0.0
 11
105.417403175
 21
174.5421350216
 31
0.0
  0
LWPOLYLINE
  5
C9
330
1F
100
AcDbEntity
  8
0
  6
Continuous
 62
     7
370
    25
100
AcDbPolyline
 90
       63
 70
   128
 43
0.0
 10
63.7948751864
 20
159.1446002895
 10
62.6240077718
 20
158.999080362
 10
61.5762881429
 20
158.7590605889
 10
60.6624673211
 20
158.4270038981
 10
59.8919223444
 20
158.0063176404
 10
59.272560047
 20
157.5013186262
 10
58.8107359244
 20
156.9171888288
 10
58.5111889169
 20
156.2599222102
 10
58.3769927821
 20
155.5362632155
 10
58.409524554
 20
154.7536375652
 10
58.6084504126
 20
153.9200760575
 10
58.9717291095
 20
153.0441321614
 10
59.4956329135
 20
152.1347942468
 10
60.1747858627
 20
151.2013933511
 10
61.0022189288
 20
150.2535074306
 10
61.9694415288
 20
149.3008630775
 10
63.0665286501
 20
148.3532357121
 10
64.2822226941
 20
147.4203492735
 10
65.6040489948
 20
146.5117764389
 10
67.0184438257
 20
145.636840395
 10
68.5108935819
 20
144.8045191698
 10
70.0660837092
 20
144.0233535052
 10
71.6680558524
 20
143.3013592181
 10
73.3003716096
 20
142.6459449469
 10
74.9462812121
 20
142.0638361289
 10
76.5888954002
 20
141.5610059882
 10
78.2113587295
 20
141.1426142427
 10
79.7970225308
 20
140.8129541577
 10
81.3296157475
 20
140.5754084919
 10
82.7934118995
 20
140.4324147852
 10
84.1733904573
 20
140.3854403465
 10
85.4553909736
 20
140.4349671972
 10
86.6262583882
 20
140.5804871248
 10
87.6739780171
 20
140.8205068978
 10
88.587798839
 20
141.1525635887
 10
89.3583438157
 20
141.5732498463
 10
89.977706113
 20
142.0782488605
 10
90.4395302356
 20
142.662378658
 10
90.7390772432
 20
143.3196452765
 10
90.8732733779
 20
144.0433042712
 10
90.840741606
 20
144.8259299216
 10
90.6418157474
 20
145.6594914293
 10
90.2785370505
 20
146.5354353253
 10
89.7546332465
 20
147.4447732399
 10
89.0754802973
 20
148.3781741357
 10
88.2480472312
 20
149.3260600562
 10
87.2808246312
 20
150.2787044092
 10
86.1837375099
 20
151.2263317746
 10
84.968043466
 20
152.1592182132
 10
83.6462171652
 20
153.0677910479
 10
82.2318223343
 20
153.9427270917
 10
80.7393725781
 20
154.7750483169
 10
79.1841824508
 20
155.5562139815
 10
77.5822103076
 20
156.2782082686
 10
75.9498945504
 20
156.9336225399
 10
74.3039849479
 20
157.5157313579
 10
72.6613707598
 20
158.0185614985
 10
71.0389074305
 20
158.436953244
 10
69.4532436293
 20
158.766613329
 10
67.9206504125
 20
159.0041589948
 10
66.4568542605
 20
159.1471527016
 10
65.0768757027
 20
159.1941271402
 10
63.7948751864
 20
159.1446002895
  0
LWPOLYLINE
  5
CA
330
1F
100
AcDbEntity
  8
0
  6
Continuous
 62
     7
370
    25
100
AcDbPolyline
 90
       24
 70
   128
 43
0.0
 10
58.2190380237
 20
152.7693879472
 10
58.2871239921
 20
152.653253325
 10
58.9258833709
 20
151.6989801191
 10
59.7158351065
 20
150.7263203084
 10
60.6493715318
 20
149.7446411387
 10
61.7175021808
 20
148.7633967169
 10
62.9099403714
 20
147.7920369633
 10
64.2152022719
 20
146.8399166032
 10
65.6207174968
 20
145.9162050763
 10
67.112950166
 20
145.0297982294
 10
68.6775292633
 20
144.1892326451
 10
70.2993870366
 20
143.4026034295
 10
71.962904109
 20
142.6774862518
 10
73.6520599018
 20
142.020864387
 10
75.3505869211
 20
141.4390614625
 10
77.0421274234
 20
140.9376805586
 10
78.710390949
 20
140.5215502473
 10
80.339311208
 20
140.1946780912
 10
81.9132008079
 20
139.9602120477
 10
83.4169023316
 20
139.820410153
 10
84.8359343113
 20
139.7766187759
 10
86.1566306933
 20
139.8292596511
 10
87.3662724496
 20
139.9778258183
 10
88.1913144389
 20
140.1508050047
  0
LWPOLYLINE
  5
CB
330
1F
100
AcDbEntity
  8
0
  6
Continuous
 62
     7
370
    25
100
AcDbPolyline
 90
       23
 70
   128
 43
0.0
 10
91.6865944214
 20
145.3684015916
 10
91.444557588
 20
145.9996177333
 10
90.963142168
 20
146.9263141618
 10
90.3243827891
 20
147.8805873676
 10
89.5344310535
 20
148.8532471783
 10
88.6008946282
 20
149.834926348
 10
87.5327639792
 20
150.8161707698
 10
86.3403257886
 20
151.7875305235
 10
85.0350638881
 20
152.7396508835
 10
83.6295486632
 20
153.6633624105
 10
82.137315994
 20
154.5497692573
 10
80.5727368967
 20
155.3903348416
 10
78.9508791234
 20
156.1769640573
 10
77.287362051
 20
156.9020812349
 10
75.5982062583
 20
157.5587030997
 10
73.8996792389
 20
158.1405060242
 10
72.2081387366
 20
158.6418869282
 10
70.5398752111
 20
159.0580172394
 10
68.9109549521
 20
159.3848893955
 10
67.3370653521
 20
159.619355439
 10
65.8333638284
 20
159.7591573337
 10
64.4143318487
 20
159.8029487109
 10
63.0936354667
 20
159.7503078357
  0
LWPOLYLINE
  5
CC
330
1F
100
AcDbEntity
  8
0
  6
Continuous
 62
     7
370
    25
100
AcDbPolyline
 90
       11
 70
   128
 43
0.0
 10
91.5530005021
 20
146.5920801715
 10
91.6202387228
 20
146.458438054
 10
91.9928980111
 20
145.5570683851
 10
92.2042233193
 20
144.6971811524
 10
92.2522415599
 20
143.8868048913
 10
92.1365043996
 20
143.1335058666
 10
91.858092445
 20
142.4443174283
 10
91.4196051536
 20
141.8256743431
 10
90.825136563
 20
141.283352715
 10
90.0802370662
 20
140.8224160548
 10
89.3535750466
 20
140.505090347
  0
LWPOLYLINE
  5
CD
330
1F
100
AcDbEntity
  8
0
  6
Continuous
 62
     7
370
    25
100
AcDbPolyline
 90
       11
 70
   128
 43
0.0
 10
57.8930887668
 20
153.3706414653
 10
57.6002553061
 20
153.99691015
 10
57.3079216284
 20
154.8785681774
 10
57.1780982497
 20
155.7146763089
 10
57.2119972959
 20
156.4974280283
 10
57.4093022608
 20
157.2195149936
 10
57.7681709611
 20
157.8741952734
 10
58.2852527363
 20
158.4553562942
 10
58.9557197334
 20
158.9575719123
 10
59.7733119825
 20
159.3761530758
 10
60.536377594
 20
159.6506279876
  0
LWPOLYLINE
  5
CE
330
1F
100
AcDbEntity
  8
0
  6
Continuous
 62
     7
370
    25
100
AcDbPolyline
 90
       35
 70
   128
 43
0.0
 10
93.6782752735
 20
146.7347916833
 10
93.6946526815
 20
146.7745506509
 10
93.8919576464
 20
147.4966376162
 10
93.9258566926
 20
148.2793893355
 10
93.7960333139
 20
149.1154974671
 10
93.5036996362
 20
149.9971554945
 10
93.0515851003
 20
150.9161316143
 10
92.4439109777
 20
151.863845594
 10
91.6863509581
 20
152.8314488836
 10
90.7859781752
 20
153.8099072319
 10
89.7511991671
 20
154.7900850369
 10
88.5916753866
 20
155.7628306425
 10
87.3182329948
 20
156.7190617851
 10
85.9427617802
 20
157.6498503922
 10
84.478104147
 20
158.5465059413
 10
82.9379352088
 20
159.4006566011
 10
81.336635108
 20
160.2043273972
 10
79.6891547523
 20
160.9500146717
 10
78.0108762218
 20
161.6307561436
 10
76.317469151
 20
162.2401959131
 10
74.6247444254
 20
162.7726438053
 10
72.9485065598
 20
163.2231284977
 10
71.3044061353
 20
163.5874439361
 10
69.7077936748
 20
163.8621886054
 10
68.1735763186
 20
164.0447972887
 10
66.7160786407
 20
164.1335650178
 10
65.3489089042
 20
164.1276629925
 10
64.0848320048
 20
164.0271463182
 10
62.9356502877
 20
163.8329534922
 10
61.912093353
 20
163.5468976406
 10
61.023717876
 20
163.1716495897
 10
60.2788183793
 20
162.7107129295
 10
59.6843497887
 20
162.1683913013
 10
59.2458624972
 20
161.5497482162
 10
59.1028266622
 20
161.2533437229
  0
LWPOLYLINE
  5
CF
330
1F
100
AcDbEntity
  8
0
  6
Continuous
 62
     7
370
    25
100
AcDbPolyline
 90
       23
 70
   128
 43
0.0
 10
63.5325111381
 20
159.371221628
 10
64.8239052031
 20
159.4219150259
 10
66.2127082741
 20
159.3768799757
 10
67.6851178023
 20
159.236564056
 10
69.2265003202
 20
159.0023617894
 10
70.821536876
 20
158.6766007832
 10
72.4543752796
 20
158.2625185967
 10
74.1087876496
 20
157.7642305647
 10
75.7683316924
 20
157.1866888975
 10
77.4165141138
 20
156.5356334637
 10
79.0369545364
 20
155.8175347446
 10
80.6135482952
 20
155.0395295281
 10
82.1306264933
 20
154.2093499793
 10
83.5731117258
 20
153.3352467958
 10
84.9266679265
 20
152.4259072075
 10
86.1778428457
 20
151.49036864
 10
87.314201745
 20
150.5379288957
 10
88.3244509791
 20
149.5780537488
 10
89.1985502372
 20
148.6202828697
 10
89.9278123283
 20
147.6741350157
 10
90.5049895179
 20
146.7490134292
 10
90.9243455599
 20
145.8541123843
 10
91.0385613135
 20
145.5326400258
  0
LWPOLYLINE
  5
D0
330
1F
100
AcDbEntity
  8
0
  6
Continuous
 62
     7
370
    25
100
AcDbPolyline
 90
       24
 70
   128
 43
0.0
 10
87.6369625541
 20
140.5081405679
 10
87.4444251859
 20
140.4625155957
 10
86.3228715347
 20
140.2694703753
 10
85.0850605033
 20
140.1710423064
 10
83.7432940138
 20
140.1682096113
 10
82.3109071445
 20
140.2610004425
 10
80.8021355995
 20
140.4484926032
 10
79.2319742284
 20
140.7288227121
 10
77.6160280002
 20
141.0992047224
 10
75.9703569146
 20
141.5559576115
 10
74.3113163902
 20
142.0945419639
 10
72.655394717
 20
142.7096050863
 10
71.0190491886
 20
143.3950342051
 10
69.418542542
 20
144.1440172178
 10
67.8697813313
 20
144.9491103947
 10
66.3881578413
 20
145.8023123581
 10
64.9883971119
 20
146.6951436036
 10
63.6844105939
 20
147.6187307731
 10
62.4891578914
 20
148.5638948424
 10
61.4145179626
 20
149.5212423464
 10
60.471171062
 20
150.4812587354
 10
59.6684925948
 20
151.4344029353
 10
59.0144599404
 20
152.3712021708
 10
58.6369579666
 20
153.0349222803
  0
LWPOLYLINE
  5
D1
330
1F
100
AcDbEntity
  8
0
  6
Continuous
 62
     7
370
    25
100
AcDbPolyline
 90
        9
 70
   128
 43
0.0
 10
61.3640252514
 20
159.0005338737
 10
60.6110134416
 20
158.7167188637
 10
59.832885117
 20
158.291892406
 10
59.2074273418
 20
157.7819234247
 10
58.7410581593
 20
157.1920448914
 10
58.4385631484
 20
156.5283097582
 10
58.3030463172
 20
155.7975288457
 10
58.3358982519
 20
155.0072009549
 10
58.5196071149
 20
154.2185337491
  0
ARC
  5
D2
330
1F
100
AcDbEntity
  8
0
  6
Continuous
 62
     7
370
    25
100
AcDbCircle
 10
87.6047976526
 20
144.6145713082
 30
0.0
 40
3.53715007234104
100
AcDbArc
 50
294.3688155929
 51
29.6707199414
  0
LINE
  5
D3
330
1F
100
AcDbEntity
  8
0
  6
Continuous
 62
     7
370
    25
100
AcDbLine
 10
91.0196419322
 20
143.9548353655
 30
0.0
 11
91.1086750331
 21
144.0695516156
 31
0.0
  0
LINE
  5
D4
330
1F
100
AcDbEntity
  8
0
  6
Continuous
 62
     7
370
    25
100
AcDbLine
 10
58.999284093
 20
157.5525831321
 30
0.0
 11
58.9797262191
 21
157.4086935889
 31
0.0
  0
LWPOLYLINE
  5
D5
330
1F
100
AcDbEntity
  8
0
  6
Continuous
 62
     7
370
    25
100
AcDbPolyline
 90
        8
 70
   128
 43
0.0
 10
65.2121369321
 20
164.7954485874
 10
64.0024951758
 20
164.6468824202
 10
62.9155575567
 20
164.4038217344
 10
61.9617918781
 20
164.0686073373
 10
61.1503834251
 20
163.6444675268
 10
60.4891465044
 20
163.1354870011
 10
59.9844491892
 20
162.546567521
 10
59.8666303832
 20
162.359092561
  0
LWPOLYLINE
  5
D6
330
1F
100
AcDbEntity
  8
0
  6
Continuous
 62
     7
370
    25
100
AcDbPolyline
 90
       26
 70
   128
 43
0.0
 10
93.9328832954
 20
148.0543565254
 10
94.0247080429
 20
148.5175355918
 10
94.0368728009
 20
149.3094428048
 10
93.882494221
 20
150.1545634271
 10
93.5630590534
 20
151.044758485
 10
93.0816436334
 20
151.9714549135
 10
92.4428842546
 20
152.9257281193
 10
91.652932519
 20
153.89838793
 10
90.7193960936
 20
154.8800670997
 10
89.6512654446
 20
155.8613115215
 10
88.4588272541
 20
156.8326712752
 10
87.1535653535
 20
157.7847916352
 10
85.7480501287
 20
158.7085031622
 10
84.2558174594
 20
159.594910009
 10
82.6912383622
 20
160.4354755933
 10
81.0693805888
 20
161.222104809
 10
79.4058635164
 20
161.9472219866
 10
77.7167077237
 20
162.6038438514
 10
76.0181807043
 20
163.1856467759
 10
74.326640202
 20
163.6870276799
 10
72.6583766765
 20
164.1031579911
 10
71.0294564175
 20
164.4300301472
 10
69.4555668175
 20
164.6644961907
 10
67.9518652939
 20
164.8042980854
 10
66.5328333142
 20
164.8480894626
 10
65.2121369321
 20
164.7954485874
  0
LWPOLYLINE
  5
D7
330
1F
100
AcDbEntity
  8
0
  6
Continuous
 62
     7
370
    25
100
AcDbPolyline
 90
       35
 70
   128
 43
0.0
 10
108.860869109
 20
182.8916337372
 10
108.877246517
 20
182.9313927047
 10
109.0745514819
 20
183.65347967
 10
109.1084505281
 20
184.4362313894
 10
108.9786271494
 20
185.272339521
 10
108.6862934717
 20
186.1539975484
 10
108.2341789358
 20
187.0729736681
 10
107.6265048133
 20
188.0206876479
 10
106.8689447936
 20
188.9882909375
 10
105.9685720107
 20
189.9667492858
 10
104.9337930026
 20
190.9469270907
 10
103.7742692221
 20
191.9196726964
 10
102.5008268303
 20
192.875903839
 10
101.1253556157
 20
193.806692446
 10
99.6606979825
 20
194.7033479951
 10
98.1205290443
 20
195.557498655
 10
96.5192289436
 20
196.3611694511
 10
94.8717485879
 20
197.1068567256
 10
93.1934700574
 20
197.7875981975
 10
91.5000629865
 20
198.397037967
 10
89.807338261
 20
198.9294858592
 10
88.1311003953
 20
199.3799705516
 10
86.4869999709
 20
199.74428599
 10
84.8903875103
 20
200.0190306593
 10
83.3561701541
 20
200.2016393425
 10
81.8986724762
 20
200.2904070717
 10
80.5315027398
 20
200.2845050463
 10
79.2674258403
 20
200.1839883721
 10
78.1182441232
 20
199.9897955461
 10
77.0946871885
 20
199.7037396945
 10
76.2063117116
 20
199.3284916435
 10
75.4614122148
 20
198.8675549833
 10
74.8669436242
 20
198.3252333552
 10
74.4284563328
 20
197.7065902701
 10
74.2854204977
 20
197.4101857768
  0
LWPOLYLINE
  5
D8
330
1F
100
AcDbEntity
  8
0
  6
Continuous
 62
     7
370
    25
100
AcDbPolyline
 90
       36
 70
   128
 43
0.0
 10
93.8244127446
 20
147.1679871347
 10
94.047736259
 20
147.6154074428
 10
94.2450412239
 20
148.3374944081
 10
94.2789402702
 20
149.1202461275
 10
94.1491168915
 20
149.9563542591
 10
93.8567832138
 20
150.8380122865
 10
93.4046686779
 20
151.7569884062
 10
92.7969945553
 20
152.704702386
 10
92.0394345357
 20
153.6723056756
 10
91.1390617528
 20
154.6507640239
 10
90.1042827447
 20
155.6309418288
 10
88.9447589642
 20
156.6036874344
 10
87.6713165724
 20
157.559918577
 10
86.2958453578
 20
158.4907071841
 10
84.8311877246
 20
159.3873627332
 10
83.2910187864
 20
160.2415133931
 10
81.6897186856
 20
161.0451841891
 10
80.0422383299
 20
161.7908714637
 10
78.3639597994
 20
162.4716129356
 10
76.6705527286
 20
163.0810527051
 10
74.977828003
 20
163.6135005973
 10
73.3015901373
 20
164.0639852897
 10
71.6574897129
 20
164.4283007281
 10
70.0608772524
 20
164.7030453974
 10
68.5266598961
 20
164.8856540806
 10
67.0691622182
 20
164.9744218098
 10
65.7019924818
 20
164.9685197844
 10
64.4379155823
 20
164.8680031102
 10
63.2887338652
 20
164.6738102842
 10
62.2651769305
 20
164.3877544325
 10
61.3768014536
 20
164.0125063816
 10
60.6319019569
 20
163.5515697214
 10
60.0374333662
 20
163.0092480933
 10
59.5989460748
 20
162.3906050082
 10
59.3205341202
 20
161.7014165699
 10
59.3097727687
 20
161.6610050635
  0
LINE
  5
D9
330
1F
100
AcDbEntity
  8
0
  6
Continuous
 62
     8
370
    25
100
AcDbLine
 10
109.5384767649
 20
139.4309610479
 30
0.0
 11
109.7416453203
 21
173.1597846329
 31
0.0
  0
LINE
  5
DA
330
1F
100
AcDbEntity
  8
0
  6
Continuous
 62
     8
370
    25
100
AcDbLine
 10
112.2119299564
 20
190.8720736463
 30
0.0
 11
126.575417841
 21
192.0142272866
 31
0.0
  0
ARC
  5
DB
330
1F
100
AcDbEntity
  8
0
  6
Continuous
 62
     8
370
    25
100
AcDbCircle
 10
128.469774993
 20
192.0583899861
 30
0.0
 40
0.2103345604400092
100
AcDbArc
 50
351.3764402379
 51
75.7544630423
  0
ARC
  5
DC
330
1F
100
AcDbEntity
  8
0
  6
Continuous
 62
     8
370
    25
100
AcDbCircle
 10
126.7845071473
 20
192.0427787902
 30
0.0
 40
0.2110296811775098
100
AcDbArc
 50
103.6545900809
 51
187.7757451971
  0
SPLINE
  5
DD
330
1F
100
AcDbEntity
  8
0
  6
Continuous
 62
     8
370
    25
100
AcDbSpline
210
0.0
220
0.0
230
1.0
 70
     8
 71
     3
 72
     9
 73
     5
 74
     0
 42
0.00000001
 43
0.00000001
 40
0.0
 40
0.0
 40
0.0
 40
0.0
 40
0.5103475897102885
 40
1.0
 40
1.0
 40
1.0
 40
1.0
 10
109.1143248039983
 20
139.3401605219691
 30
0.0
 10
109.1344140548041
 20
139.3584403038957
 30
0.0
 10
109.1737779142813
 20
139.3942586016502
 30
0.0
 10
109.4185993559164
 20
139.4188968635673
 30
0.0
 10
109.5384767649037
 20
139.4309610479004
 30
0.0
  0
LINE
  5
DE
330
1F
100
AcDbEntity
  8
0
  6
Continuous
 62
     8
370
    25
100
AcDbLine
 10
110.7802191424
 20
139.1140833694
 30
0.0
 11
110.7796119043
 21
139.0132733455
 31
0.0
  0
LWPOLYLINE
  5
DF
330
1F
100
AcDbEntity
  8
0
  6
Continuous
 62
     8
370
    25
100
AcDbPolyline
 90
       37
 70
   128
 43
0.0
 10
108.7345548021
 20
182.6261361353
 10
108.7116686459
 20
181.9982561089
 10
108.7677618594
 20
180.8518998368
 10
108.9484710182
 20
179.721446058
 10
109.2495604527
 20
178.6333916511
 10
109.6639728818
 20
177.6132396891
 10
110.1819948294
 20
176.6849016695
 10
110.7914843001
 20
175.8701370484
 10
111.4781553773
 20
175.1880432182
 10
112.2259130729
 20
174.6546078801
 10
113.0172305803
 20
174.2823343062
 10
113.8335600878
 20
174.0799482737
 10
114.6557675236
 20
174.0521935395
 10
115.4645810424
 20
174.1997206512
 10
116.2410427408
 20
174.5190716983
 10
116.9669530146
 20
175.0027613629
 10
117.6252971423
 20
175.6394523692
 10
118.2006440956
 20
176.4142212197
 10
118.6795082294
 20
177.3089079891
 10
119.0506653744
 20
178.302541978
 10
119.3054159216
 20
179.3718332477
 10
119.4377887341
 20
180.4917185172
 10
119.4446811055
 20
181.635948625
 10
119.3259314843
 20
182.7777037871
 10
119.0843232611
 20
183.8902222302
 10
118.7255195278
 20
184.947427465
 10
118.2579303398
 20
185.9245394968
 10
117.6925155914
 20
186.7986556477
 10
117.042528125
 20
187.5492873761
 10
116.323203096
 20
188.1588405104
 10
115.5514008733
 20
188.6130276417
 10
114.745211847
 20
188.9012030087
 10
113.9235324045
 20
189.0166120251
 10
113.1056220154
 20
188.9565496012
 10
112.3106518062
 20
188.7224235494
 10
111.5572552047
 20
188.319721586
 10
110.931569587
 20
187.8229380276
  0
ARC
  5
E0
330
1F
100
AcDbEntity
  8
0
  6
Continuous
 62
     8
370
    25
100
AcDbCircle
 10
113.4564915436
 20
185.2352050997
 30
0.0
 40
4.256849403950866
100
AcDbArc
 50
94.0843523829
 51
118.6881540402
  0
LWPOLYLINE
  5
E1
330
1F
100
AcDbEntity
  8
0
  6
Continuous
 62
     8
370
    25
100
AcDbPolyline
 90
       13
 70
   128
 43
0.0
 10
114.3696202028
 20
173.5277912342
 10
114.1158593673
 20
173.5155418904
 10
113.2593264906
 20
173.5901361102
 10
112.4134300769
 20
173.8414821048
 10
111.5970660543
 20
174.2639652201
 10
110.8284706463
 20
174.8481478813
 10
110.124813004
 20
175.5809804133
 10
109.5018116765
 20
176.4460925481
 10
108.9733834839
 20
177.4241591103
 10
108.5513326389
 20
178.4933317091
 10
108.2450870599
 20
179.6297267953
 10
108.0614877671
 20
180.8079591806
 10
108.0475781498
 20
180.954808378
  0
ARC
  5
E2
330
1F
100
AcDbEntity
  8
0
  6
Continuous
 62
     8
370
    25
100
AcDbCircle
 10
85.4689265923
 20
200.5617736051
 30
0.0
 40
11.26959495862289
100
AcDbArc
 50
93.704882203
 51
107.3296649233
  0
LWPOLYLINE
  5
E3
330
1F
100
AcDbEntity
  8
0
  6
Continuous
 62
     8
370
    25
100
AcDbPolyline
 90
       23
 70
   128
 43
0.0
 10
113.4275311454
 20
197.9762845053
 10
113.3348787433
 20
198.171130759
 10
112.8043648943
 20
199.1055670183
 10
112.1209497493
 20
200.0643452885
 10
111.2910141715
 20
201.0385137152
 10
110.3223070458
 20
202.0189767503
 10
109.2238729296
 20
202.9965800745
 10
108.0059676063
 20
203.962196069
 10
106.6799623298
 20
204.9068090376
 10
105.2582376539
 20
205.8215993833
 10
103.7540678391
 20
206.6980259552
 10
102.1814969135
 20
207.5279057946
 10
100.5552075482
 20
208.3034905369
 10
98.8903839688
 20
209.0175387565
 10
97.2025701844
 20
209.6633835774
 10
95.5075248578
 20
210.2349949207
 10
93.8210741703
 20
210.7270358051
 10
92.1589640577
 20
211.1349121776
 10
90.5367131942
 20
211.4548158063
 10
88.969468099
 20
211.6837598373
 10
87.4718617174
 20
211.8196066818
 10
86.0578767966
 20
211.8610879744
 10
84.7407153328
 20
211.8078164155
  0
LWPOLYLINE
  5
E4
330
1F
100
AcDbEntity
  8
0
  6
Continuous
 62
     8
370
    25
100
AcDbPolyline
 90
       13
 70
   128
 43
0.0
 10
63.0936354667
 20
159.7503078357
 10
61.8839937104
 20
159.6017416685
 10
60.7970560913
 20
159.3586809827
 10
59.8432904127
 20
159.0234665856
 10
59.0318819596
 20
158.5993267751
 10
58.370645039
 20
158.0903462494
 10
57.8659477238
 20
157.5014267693
 10
57.5226505251
 20
156.8382399511
 10
57.3440595825
 20
156.1071726467
 10
57.3318948245
 20
155.3152654336
 10
57.4862734044
 20
154.4701448114
 10
57.805708572
 20
153.5799497535
 10
58.2190380237
 20
152.7693879472
  0
LWPOLYLINE
  5
E5
330
1F
100
AcDbEntity
  8
0
  6
Continuous
 62
     8
370
    25
100
AcDbPolyline
 90
       11
 70
   128
 43
0.0
 10
88.1913144389
 20
140.1508050047
 10
88.4532100688
 20
140.220886504
 10
89.4069757473
 20
140.5561009011
 10
90.2183842004
 20
140.9802407116
 10
90.879621121
 20
141.4892212373
 10
91.3843184362
 20
142.0781407175
 10
91.727615635
 20
142.7413275356
 10
91.9062065775
 20
143.4723948401
 10
91.9183713355
 20
144.2643020531
 10
91.7639927556
 20
145.1094226754
 10
91.6865944214
 20
145.3684015916
  0
LWPOLYLINE
  5
E6
330
1F
100
AcDbEntity
  8
0
  6
Continuous
 62
     8
370
    25
100
AcDbPolyline
 90
       22
 70
   128
 43
0.0
 10
63.0260753122
 20
160.0951237106
 10
64.343236776
 20
160.1483952695
 10
65.7572216968
 20
160.1069139768
 10
67.2548280784
 20
159.9710671323
 10
68.8220731736
 20
159.7421231014
 10
70.4443240371
 20
159.4222194726
 10
72.1064341497
 20
159.0143431002
 10
73.7928848372
 20
158.5223022157
 10
75.4879301639
 20
157.9506908725
 10
77.1757439482
 20
157.3048460515
 10
78.8405675276
 20
156.590797832
 10
80.4668568929
 20
155.8152130896
 10
82.0394278185
 20
154.9853332503
 10
83.5435976334
 20
154.1089066783
 10
84.9653223092
 20
153.1941163326
 10
86.2913275858
 20
152.2495033641
 10
87.5092329091
 20
151.2838873695
 10
88.6076670253
 20
150.3062840453
 10
89.576374151
 20
149.3258210103
 10
90.4063097287
 20
148.3516525836
 10
91.0897248737
 20
147.3928743134
 10
91.5530005021
 20
146.5920801715
  0
ARC
  5
E7
330
1F
100
AcDbEntity
  8
0
  6
Continuous
 62
     8
370
    25
100
AcDbCircle
 10
63.7753607268
 20
148.7033835585
 30
0.0
 40
11.41635547465952
100
AcDbArc
 50
93.7631776377
 51
106.4820105516
  0
LWPOLYLINE
  5
E8
330
1F
100
AcDbEntity
  8
0
  6
Continuous
 62
     8
370
    25
100
AcDbPolyline
 90
       10
 70
   128
 43
0.0
 10
91.0385613135
 20
145.5326400258
 10
91.1817127056
 20
144.9983258095
 10
91.2745331246
 20
144.1901588963
 10
91.2018843259
 20
143.4376435705
 10
90.9644883259
 20
142.7482586676
 10
90.5647044727
 20
142.1288556045
 10
90.0065059978
 20
141.585590287
 10
89.2954405285
 20
141.12386193
 10
88.4385749528
 20
140.7482593973
 10
87.6369625541
 20
140.5081405679
  0
LWPOLYLINE
  5
E9
330
1F
100
AcDbEntity
  8
0
  6
Continuous
 62
     8
370
    25
100
AcDbPolyline
 90
       13
 70
   128
 43
0.0
 10
58.6369579666
 20
153.0349222803
 10
58.515573169
 20
153.2823461102
 10
58.1767904415
 20
154.1587793957
 10
58.0014787329
 20
154.9917916395
 10
57.9913803697
 20
155.7731039918
 10
58.146595714
 20
156.4949514193
 10
58.4655821659
 20
157.1501598781
 10
58.9451694948
 20
157.732217612
 10
59.5805913463
 20
158.2353398698
 10
60.3655326126
 20
158.6545263965
 10
61.2921921948
 20
158.9856111281
 10
62.3513605335
 20
159.2253035958
 10
63.5325111381
 20
159.371221628
  0
ENDSEC
  0
SECTION
  2
OBJECTS
  0
DICTIONARY
  5
C
330
0
100
AcDbDictionary
281
     1
  3
ACAD_GROUP
350
D
  3
ACAD_LAYOUT
350
1A
  3
ACAD_MLINESTYLE
350
17
  3
ACAD_PLOTSETTINGS
350
19
  3
ACAD_PLOTSTYLENAME
350
E
  3
ACAD_SCALELIST
350
47
  3
DWGPROPS
350
EA
  0
DICTIONARY
  5
D
102
{ACAD_REACTORS
330
C
102
}
330
C
100
AcDbDictionary
281
     1
  0
DICTIONARY
  5
1A
102
{ACAD_REACTORS
330
C
102
}
330
C
100
AcDbDictionary
281
     1
  3
Layout1
350
1E
  3
Layout2
350
26
  3
Model
350
22
  0
DICTIONARY
  5
17
102
{ACAD_REACTORS
330
C
102
}
330
C
100
AcDbDictionary
281
     1
  3
Standard
350
18
  0
DICTIONARY
  5
19
102
{ACAD_REACTORS
330
C
102
}
330
C
100
AcDbDictionary
281
     1
  0
ACDBDICTIONARYWDFLT
  5
E
102
{ACAD_REACTORS
330
C
102
}
330
C
100
AcDbDictionary
281
     1
  3
Normal
350
F
100
AcDbDictionaryWithDefault
340
F
  0
DICTIONARY
  5
47
102
{ACAD_REACTORS
330
C
102
}
330
C
100
AcDbDictionary
281
     1
  3
A0
350
48
  3
A1
350
49
  3
A2
350
4A
  3
A3
350
4B
  3
A4
350
4C
  3
A5
350
4D
  3
A6
350
4E
  3
A7
350
4F
  3
A8
350
50
  3
A9
350
51
  3
B0
350
52
  3
B1
350
53
  3
B2
350
54
  3
B3
350
55
  3
B4
350
56
  3
B5
350
57
  3
B6
350
58
  3
B7
350
59
  3
B8
350
5A
  3
B9
350
5B
  3
C0
350
5C
  3
C1
350
5D
  3
C2
350
5E
  3
C3
350
5F
  3
C4
350
60
  3
C5
350
61
  3
C6
350
62
  3
C7
350
63
  3
C8
350
64
  3
C9
350
65
  3
D0
350
66
  3
D1
350
67
  3
D2
350
68
  0
XRECORD
  5
EA
102
{ACAD_REACTORS
330
C
102
}
330
C
100
AcDbXrecord
280
     1
  1
DWGPROPS COOKIE
  2

  3

  4

  6

  7

  8
9128
  9

300
=
301
=
302
=
303
=
304
=
305
=
306
=
307
=
308
=
309
=
 40
0.0
 41
2460018.218708947
 42
2460018.218709178
  1

 90
        0
  0
LAYOUT
  5
1E
102
{ACAD_REACTORS
330
1A
102
}
330
1A
100
AcDbPlotSettings
  1

  2
none_device
  4

  6

 40
0.0
 41
0.0
 42
0.0
 43
0.0
 44
0.0
 45
0.0
 46
0.0
 47
0.0
 48
0.0
 49
0.0
140
0.0
141
0.0
142
1.0
143
1.0
 70
   688
 72
     1
 73
     0
 74
     5
  7

 75
    16
147
1.0
148
0.0
149
0.0
100
AcDbLayout
  1
Layout1
 70
     1
 71
     1
 10
0.0
 20
0.0
 11
420.0
 21
297.0
 12
0.0
 22
0.0
 32
0.0
 14
1.0000000000E+20
 24
1.0000000000E+20
 34
1.0000000000E+20
 15
-1.0000000000E+20
 25
-1.0000000000E+20
 35
-1.0000000000E+20
146
0.0
 13
0.0
 23
0.0
 33
0.0
 16
1.0
 26
0.0
 36
0.0
 17
0.0
 27
1.0
 37
0.0
 76
     0
330
1B
  0
LAYOUT
  5
26
102
{ACAD_REACTORS
330
1A
102
}
330
1A
100
AcDbPlotSettings
  1

  2
none_device
  4

  6

 40
0.0
 41
0.0
 42
0.0
 43
0.0
 44
0.0
 45
0.0
 46
0.0
 47
0.0
 48
0.0
 49
0.0
140
0.0
141
0.0
142
1.0
143
1.0
 70
   688
 72
     1
 73
     0
 74
     5
  7

 75
    16
147
1.0
148
0.0
149
0.0
100
AcDbLayout
  1
Layout2
 70
     1
 71
     2
 10
0.0
 20
0.0
 11
0.0
 21
0.0
 12
0.0
 22
0.0
 32
0.0
 14
0.0
 24
0.0
 34
0.0
 15
0.0
 25
0.0
 35
0.0
146
0.0
 13
0.0
 23
0.0
 33
0.0
 16
1.0
 26
0.0
 36
0.0
 17
0.0
 27
1.0
 37
0.0
 76
     0
330
23
  0
LAYOUT
  5
22
102
{ACAD_REACTORS
330
1A
102
}
330
1A
100
AcDbPlotSettings
  1

  2
none_device
  4
Letter_(8.50_x_11.00_Inches)
  6

 40
6.35
 41
6.35
 42
6.35000508
 43
6.35000508
 44
215.9
 45
279.4
 46
0.0
 47
0.0
 48
0.0
 49
0.0
140
0.0
141
0.0
142
1.0
143
1.0
 70
  1712
 72
     1
 73
     0
 74
     0
  7

 75
     0
147
1.0
148
0.0
149
0.0
100
AcDbLayout
  1
Model
 70
     1
 71
     0
 10
0.0
 20
0.0
 11
210.0
 21
297.0
 12
0.0
 22
0.0
 32
0.0
 14
0.0
 24
0.0
 34
0.0
 15
210.0
 25
297.0
 35
0.0
146
0.0
 13
0.0
 23
0.0
 33
0.0
 16
1.0
 26
0.0
 36
0.0
 17
0.0
 27
1.0
 37
0.0
 76
     0
330
1F
331
29
  0
MLINESTYLE
  5
18
102
{ACAD_REACTORS
330
17
102
}
330
17
100
AcDbMlineStyle
  2
Standard
 70
     0
  3

 62
   256
 51
90.0
 52
90.0
 71
     2
 49
0.5
 62
   256
  6
BYLAYER
 49
-0.5
 62
   256
  6
BYLAYER
  0
ACDBPLACEHOLDER
  5
F
102
{ACAD_REACTORS
330
E
102
}
330
E
  0
SCALE
  5
48
102
{ACAD_REACTORS
330
47
102
}
330
47
100
AcDbScale
 70
     0
300
1:1
140
1.0
141
1.0
290
     1
  0
SCALE
  5
49
102
{ACAD_REACTORS
330
47
102
}
330
47
100
AcDbScale
 70
     0
300
1:2
140
1.0
141
2.0
290
     0
  0
SCALE
  5
4A
102
{ACAD_REACTORS
330
47
102
}
330
47
100
AcDbScale
 70
     0
300
1:4
140
1.0
141
4.0
290
     0
  0
SCALE
  5
4B
102
{ACAD_REACTORS
330
47
102
}
330
47
100
AcDbScale
 70
     0
300
1:5
140
1.0
141
5.0
290
     0
  0
SCALE
  5
4C
102
{ACAD_REACTORS
330
47
102
}
330
47
100
AcDbScale
 70
     0
300
1:8
140
1.0
141
8.0
290
     0
  0
SCALE
  5
4D
102
{ACAD_REACTORS
330
47
102
}
330
47
100
AcDbScale
 70
     0
300
1:10
140
1.0
141
10.0
290
     0
  0
SCALE
  5
4E
102
{ACAD_REACTORS
330
47
102
}
330
47
100
AcDbScale
 70
     0
300
1:16
140
1.0
141
16.0
290
     0
  0
SCALE
  5
4F
102
{ACAD_REACTORS
330
47
102
}
330
47
100
AcDbScale
 70
     0
300
1:20
140
1.0
141
20.0
290
     0
  0
SCALE
  5
50
102
{ACAD_REACTORS
330
47
102
}
330
47
100
AcDbScale
 70
     0
300
1:30
140
1.0
141
30.0
290
     0
  0
SCALE
  5
51
102
{ACAD_REACTORS
330
47
102
}
330
47
100
AcDbScale
 70
     0
300
1:40
140
1.0
141
40.0
290
     0
  0
SCALE
  5
52
102
{ACAD_REACTORS
330
47
102
}
330
47
100
AcDbScale
 70
     0
300
1:50
140
1.0
141
50.0
290
     0
  0
SCALE
  5
53
102
{ACAD_REACTORS
330
47
102
}
330
47
100
AcDbScale
 70
     0
300
1:100
140
1.0
141
100.0
290
     0
  0
SCALE
  5
54
102
{ACAD_REACTORS
330
47
102
}
330
47
100
AcDbScale
 70
     0
300
2:1
140
2.0
141
1.0
290
     0
  0
SCALE
  5
55
102
{ACAD_REACTORS
330
47
102
}
330
47
100
AcDbScale
 70
     0
300
4:1
140
4.0
141
1.0
290
     0
  0
SCALE
  5
56
102
{ACAD_REACTORS
330
47
102
}
330
47
100
AcDbScale
 70
     0
300
8:1
140
8.0
141
1.0
290
     0
  0
SCALE
  5
57
102
{ACAD_REACTORS
330
47
102
}
330
47
100
AcDbScale
 70
     0
300
10:1
140
10.0
141
1.0
290
     0
  0
SCALE
  5
58
102
{ACAD_REACTORS
330
47
102
}
330
47
100
AcDbScale
 70
     0
300
100:1
140
100.0
141
1.0
290
     0
  0
SCALE
  5
59
102
{ACAD_REACTORS
330
47
102
}
330
47
100
AcDbScale
 70
     0
300
1/128" = 1'-0"
140
0.0078125
141
12.0
290
     0
  0
SCALE
  5
5A
102
{ACAD_REACTORS
330
47
102
}
330
47
100
AcDbScale
 70
     0
300
1/64" = 1'-0"
140
0.015625
141
12.0
290
     0
  0
SCALE
  5
5B
102
{ACAD_REACTORS
330
47
102
}
330
47
100
AcDbScale
 70
     0
300
1/32" = 1'-0"
140
0.03125
141
12.0
290
     0
  0
SCALE
  5
5C
102
{ACAD_REACTORS
330
47
102
}
330
47
100
AcDbScale
 70
     0
300
1/16" = 1'-0"
140
0.0625
141
12.0
290
     0
  0
SCALE
  5
5D
102
{ACAD_REACTORS
330
47
102
}
330
47
100
AcDbScale
 70
     0
300
3/32" = 1'-0"
140
0.09375
141
12.0
290
     0
  0
SCALE
  5
5E
102
{ACAD_REACTORS
330
47
102
}
330
47
100
AcDbScale
 70
     0
300
1/8" = 1'-0"
140
0.125
141
12.0
290
     0
  0
SCALE
  5
5F
102
{ACAD_REACTORS
330
47
102
}
330
47
100
AcDbScale
 70
     0
300
3/16" = 1'-0"
140
0.1875
141
12.0
290
     0
  0
SCALE
  5
60
102
{ACAD_REACTORS
330
47
102
}
330
47
100
AcDbScale
 70
     0
300
1/4" = 1'-0"
140
0.25
141
12.0
290
     0
  0
SCALE
  5
61
102
{ACAD_REACTORS
330
47
102
}
330
47
100
AcDbScale
 70
     0
300
3/8" = 1'-0"
140
0.375
141
12.0
290
     0
  0
SCALE
  5
62
102
{ACAD_REACTORS
330
47
102
}
330
47
100
AcDbScale
 70
     0
300
1/2" = 1'-0"
140
0.5
141
12.0
290
     0
  0
SCALE
  5
63
102
{ACAD_REACTORS
330
47
102
}
330
47
100
AcDbScale
 70
     0
300
3/4" = 1'-0"
140
0.75
141
12.0
290
     0
  0
SCALE
  5
64
102
{ACAD_REACTORS
330
47
102
}
330
47
100
AcDbScale
 70
     0
300
1" = 1'-0"
140
1.0
141
12.0
290
     0
  0
SCALE
  5
65
102
{ACAD_REACTORS
330
47
102
}
330
47
100
AcDbScale
 70
     0
300
1-1/2" = 1'-0"
140
1.5
141
12.0
290
     0
  0
SCALE
  5
66
102
{ACAD_REACTORS
330
47
102
}
330
47
100
AcDbScale
 70
     0
300
3" = 1'-0"
140
3.0
141
12.0
290
     0
  0
SCALE
  5
67
102
{ACAD_REACTORS
330
47
102
}
330
47
100
AcDbScale
 70
     0
300
6" = 1'-0"
140
6.0
141
12.0
290
     0
  0
SCALE
  5
68
102
{ACAD_REACTORS
330
47
102
}
330
47
100
AcDbScale
 70
     0
300
1'-0" = 1'-0"
140
12.0
141
12.0
290
     0
  0
ENDSEC
  0
EOF
