  0
SECTION
  2
HEADER
  9
$ACADVER
  1
AC1015
  9
$ACADMAINTVER
 70
     6
  9
$DWGCODEPAGE
  3
DOS932
  9
$INSBASE
 10
0.0
 20
0.0
 30
0.0
  9
$EXTMIN
 10
0.0
 20
0.0
 30
0.0
  9
$EXTMAX
 10
210.0
 20
297.0
 30
0.0
  9
$LIMMIN
 10
0.0
 20
0.0
  9
$LIMMAX
 10
210.0
 20
297.0
  9
$ORTHOMODE
 70
     0
  9
$REGENMODE
 70
     1
  9
$FILLMODE
 70
     1
  9
$QTEXTMODE
 70
     0
  9
$MIRRTEXT
 70
     1
  9
$LTSCALE
 40
1.0
  9
$ATTMODE
 70
     1
  9
$TEXTSIZE
 40
3.5
  9
$TRACEWID
 40
1.0
  9
$TEXTSTYLE
  7
STANDARD
  9
$CLAYER
  8
0
  9
$CELTYPE
  6
ByLayer
  9
$CECOLOR
 62
   256
  9
$CELTSCALE
 40
1.0
  9
$DISPSILH
 70
     0
  9
$DIMSCALE
 40
1.0
  9
$DIMASZ
 40
3.302
  9
$DIMEXO
 40
1.0
  9
$DIMDLI
 40
3.75
  9
$DIMRND
 40
0.0
  9
$DIMDLE
 40
0.0
  9
$DIMEXE
 40
1.0
  9
$DIMTP
 40
0.0
  9
$DIMTM
 40
0.0
  9
$DIMTXT
 40
3.5
  9
$DIMCEN
 40
2.5
  9
$DIMTSZ
 40
0.0
  9
$DIMTOL
 70
     0
  9
$DIMLIM
 70
     0
  9
$DIMTIH
 70
     1
  9
$DIMTOH
 70
     1
  9
$DIMSE1
 70
     0
  9
$DIMSE2
 70
     0
  9
$DIMTAD
 70
     1
  9
$DIMZIN
 70
     1
  9
$DIMBLK
  1

  9
$DIMASO
 70
     1
  9
$DIMSHO
 70
     1
  9
$DIMPOST
  1

  9
$DIMAPOST
  1

  9
$DIMALT
 70
     0
  9
$DIMALTD
 70
     3
  9
$DIMALTF
 40
0.0393700787
  9
$DIMLFAC
 40
1.0
  9
$DIMTOFL
 70
     1
  9
$DIMTVP
 40
0.0
  9
$DIMTIX
 70
     0
  9
$DIMSOXD
 70
     0
  9
$DIMSAH
 70
     0
  9
$DIMBLK1
  1

  9
$DIMBLK2
  1

  9
$DIMSTYLE
  2
ISO-25
  9
$DIMCLRD
 70
     0
  9
$DIMCLRE
 70
     0
  9
$DIMCLRT
 70
     0
  9
$DIMTFAC
 40
1.0
  9
$DIMGAP
 40
1.524
  9
$DIMJUST
 70
     0
  9
$DIMSD1
 70
     0
  9
$DIMSD2
 70
     0
  9
$DIMTOLJ
 70
     0
  9
$DIMTZIN
 70
     1
  9
$DIMALTZ
 70
     0
  9
$DIMALTTZ
 70
     0
  9
$DIMUPT
 70
     0
  9
$DIMDEC
 70
     2
  9
$DIMTDEC
 70
     2
  9
$DIMALTU
 70
     2
  9
$DIMALTTD
 70
     3
  9
$DIMTXSTY
  7
STANDARD
  9
$DIMAUNIT
 70
     0
  9
$DIMADEC
 70
     2
  9
$DIMALTRND
 40
0.0
  9
$DIMAZIN
 70
     0
  9
$DIMDSEP
 70
    44
  9
$DIMATFIT
 70
     3
  9
$DIMFRAC
 70
     0
  9
$DIMLDRBLK
  1

  9
$DIMLUNIT
 70
     2
  9
$DIMLWD
 70
    -2
  9
$DIMLWE
 70
    -2
  9
$DIMTMOVE
 70
     0
  9
$LUNITS
 70
     2
  9
$LUPREC
 70
     2
  9
$SKETCHINC
 40
1.0
  9
$FILLETRAD
 40
10.0
  9
$AUNITS
 70
     0
  9
$AUPREC
 70
     2
  9
$MENU
  1
.
  9
$ELEVATION
 40
0.0
  9
$PELEVATION
 40
0.0
  9
$THICKNESS
 40
0.0
  9
$LIMCHECK
 70
     0
  9
$CHAMFERA
 40
0.0
  9
$CHAMFERB
 40
0.0
  9
$CHAMFERC
 40
0.0
  9
$CHAMFERD
 40
0.0
  9
$SKPOLY
 70
     0
  9
$TDCREATE
 40
2458876.393088819
  9
$TDUCREATE
 40
2458876.018088819
  9
$TDUPDATE
 40
2458876.393089572
  9
$TDUUPDATE
 40
2458876.018089572
  9
$TDINDWG
 40
0.0000000116
  9
$TDUSRTIMER
 40
0.0000000116
  9
$USRTIMER
 70
     1
  9
$ANGBASE
 50
0.0
  9
$ANGDIR
 70
     0
  9
$PDMODE
 70
     0
  9
$PDSIZE
 40
-1.0
  9
$PLINEWID
 40
0.0
  9
$SPLFRAME
 70
     0
  9
$SPLINETYPE
 70
     6
  9
$SPLINESEGS
 70
     8
  9
$HANDSEED
  5
273
  9
$SURFTAB1
 70
     6
  9
$SURFTAB2
 70
     6
  9
$SURFTYPE
 70
     6
  9
$SURFU
 70
     6
  9
$SURFV
 70
     6
  9
$UCSBASE
  2

  9
$UCSNAME
  2

  9
$UCSORG
 10
0.0
 20
0.0
 30
0.0
  9
$UCSXDIR
 10
1.0
 20
0.0
 30
0.0
  9
$UCSYDIR
 10
0.0
 20
1.0
 30
0.0
  9
$UCSORTHOREF
  2

  9
$UCSORTHOVIEW
 70
     0
  9
$UCSORGTOP
 10
0.0
 20
0.0
 30
0.0
  9
$UCSORGBOTTOM
 10
0.0
 20
0.0
 30
0.0
  9
$UCSORGLEFT
 10
0.0
 20
0.0
 30
0.0
  9
$UCSORGRIGHT
 10
0.0
 20
0.0
 30
0.0
  9
$UCSORGFRONT
 10
0.0
 20
0.0
 30
0.0
  9
$UCSORGBACK
 10
0.0
 20
0.0
 30
0.0
  9
$PUCSBASE
  2

  9
$PUCSNAME
  2

  9
$PUCSORG
 10
0.0
 20
0.0
 30
0.0
  9
$PUCSXDIR
 10
1.0
 20
0.0
 30
0.0
  9
$PUCSYDIR
 10
0.0
 20
1.0
 30
0.0
  9
$PUCSORTHOREF
  2

  9
$PUCSORTHOVIEW
 70
     0
  9
$PUCSORGTOP
 10
0.0
 20
0.0
 30
0.0
  9
$PUCSORGBOTTOM
 10
0.0
 20
0.0
 30
0.0
  9
$PUCSORGLEFT
 10
0.0
 20
0.0
 30
0.0
  9
$PUCSORGRIGHT
 10
0.0
 20
0.0
 30
0.0
  9
$PUCSORGFRONT
 10
0.0
 20
0.0
 30
0.0
  9
$PUCSORGBACK
 10
0.0
 20
0.0
 30
0.0
  9
$USERI1
 70
     0
  9
$USERI2
 70
     0
  9
$USERI3
 70
     0
  9
$USERI4
 70
     0
  9
$USERI5
 70
     0
  9
$USERR1
 40
0.0
  9
$USERR2
 40
0.0
  9
$USERR3
 40
0.0
  9
$USERR4
 40
0.0
  9
$USERR5
 40
0.0
  9
$WORLDVIEW
 70
     1
  9
$SHADEDGE
 70
     3
  9
$SHADEDIF
 70
    70
  9
$TILEMODE
 70
     1
  9
$MAXACTVP
 70
    64
  9
$PINSBASE
 10
0.0
 20
0.0
 30
0.0
  9
$PLIMCHECK
 70
     0
  9
$PEXTMIN
 10
1.0000000000E+20
 20
1.0000000000E+20
 30
1.0000000000E+20
  9
$PEXTMAX
 10
-1.0000000000E+20
 20
-1.0000000000E+20
 30
-1.0000000000E+20
  9
$PLIMMIN
 10
0.0
 20
0.0
  9
$PLIMMAX
 10
420.0
 20
297.0
  9
$UNITMODE
 70
     0
  9
$VISRETAIN
 70
     1
  9
$PLINEGEN
 70
     0
  9
$PSLTSCALE
 70
     1
  9
$TREEDEPTH
 70
  3020
  9
$CMLSTYLE
  2
Standard
  9
$CMLJUST
 70
     0
  9
$CMLSCALE
 40
20.0
  9
$PROXYGRAPHICS
 70
     1
  9
$MEASUREMENT
 70
     1
  9
$CELWEIGHT
370
    -1
  9
$ENDCAPS
280
     0
  9
$JOINSTYLE
280
     0
  9
$LWDISPLAY
290
     1
  9
$INSUNITS
 70
     4
  9
$HYPERLINKBASE
  1

  9
$STYLESHEET
  1

  9
$XEDIT
290
     1
  9
$CEPSNTYPE
380
     0
  9
$PSTYLEMODE
290
     1
  9
$FINGERPRINTGUID
  2
{E9382E31-587E-4BCD-A14E-6C77C11A2CBA}
  9
$VERSIONGUID
  2
{FAEB1C32-E019-11D5-929B-00C0DF256EC4}
  9
$EXTNAMES
290
     1
  9
$PSVPSCALE
 40
0.0
  9
$OLESTARTUP
290
     0
  0
ENDSEC
  0
SECTION
  2
CLASSES
  0
CLASS
  1
ACDBDICTIONARYWDFLT
  2
AcDbDictionaryWithDefault
  3
ObjectDBX Classes
 90
        0
280
     0
281
     0
  0
CLASS
  1
VISUALSTYLE
  2
AcDbVisualStyle
  3
ObjectDBX Classes
 90
     4095
280
     0
281
     0
  0
CLASS
  1
MATERIAL
  2
AcDbMaterial
  3
ObjectDBX Classes
 90
     1153
280
     0
281
     0
  0
CLASS
  1
SCALE
  2
AcDbScale
  3
ObjectDBX Classes
 90
     1153
280
     0
281
     0
  0
CLASS
  1
TABLESTYLE
  2
AcDbTableStyle
  3
ObjectDBX Classes
 90
     4095
280
     0
281
     0
  0
CLASS
  1
MLEADERSTYLE
  2
AcDbMLeaderStyle
  3
ACDB_MLEADERSTYLE_CLASS
 90
     4095
280
     0
281
     0
  0
CLASS
  1
SUN
  2
AcDbSun
  3
SCENEOE
 90
     1153
280
     0
281
     0
  0
CLASS
  1
ACDBPLACEHOLDER
  2
AcDbPlaceHolder
  3
ObjectDBX Classes
 90
        0
280
     0
281
     0
  0
CLASS
  1
LAYOUT
  2
AcDbLayout
  3
ObjectDBX Classes
 90
        0
280
     0
281
     0
  0
ENDSEC
  0
SECTION
  2
TABLES
  0
TABLE
  2
VPORT
  5
8
330
0
100
AcDbSymbolTable
 70
     1
  0
VPORT
  5
29
330
8
100
AcDbSymbolTableRecord
100
AcDbViewportTableRecord
  2
*Active
 70
     0
 10
0.0
 20
0.0
 11
1.0
 21
1.0
 12
105.0
 22
148.5
 13
0.0
 23
0.0
 14
10.0
 24
10.0
 15
10.0
 25
10.0
 16
0.0
 26
0.0
 36
1.0
 17
0.0
 27
0.0
 37
0.0
 40
297.0
 41
0.7070707071
 42
50.0
 43
0.0
 44
0.0
 50
0.0
 51
0.0
 71
     0
 72
  2000
 73
     1
 74
     3
 75
     0
 76
     0
 77
     0
 78
     0
281
     0
 65
     1
110
0.0
120
0.0
130
0.0
111
1.0
121
0.0
131
0.0
112
0.0
122
1.0
132
0.0
 79
     0
146
0.0
  0
ENDTAB
  0
TABLE
  2
LTYPE
  5
5
330
0
100
AcDbSymbolTable
 70
     8
  0
LTYPE
  5
14
330
5
100
AcDbSymbolTableRecord
100
AcDbLinetypeTableRecord
  2
ByBlock
 70
     0
  3

 72
    65
 73
     0
 40
0.0
  0
LTYPE
  5
15
330
5
100
AcDbSymbolTableRecord
100
AcDbLinetypeTableRecord
  2
ByLayer
 70
     0
  3

 72
    65
 73
     0
 40
0.0
  0
LTYPE
  5
16
330
5
100
AcDbSymbolTableRecord
100
AcDbLinetypeTableRecord
  2
Continuous
 70
     0
  3
Solid line
 72
    65
 73
     0
 40
0.0
  0
LTYPE
  5
6E
330
5
100
AcDbSymbolTableRecord
100
AcDbLinetypeTableRecord
  2
SLD-実線
 70
     0
  3
SolidWorks Line Style
 72
    65
 73
     0
 40
0.0
  0
LTYPE
  5
6F
330
5
100
AcDbSymbolTableRecord
100
AcDbLinetypeTableRecord
  2
SLD-破線
 70
     0
  3
SolidWorks Line Style
 72
    65
 73
     2
 40
1.905
 49
1.27
 74
     0
 49
-0.635
 74
     0
  0
LTYPE
  5
70
330
5
100
AcDbSymbolTableRecord
100
AcDbLinetypeTableRecord
  2
SLD-2点鎖線
 70
     0
  3
SolidWorks Line Style
 72
    65
 73
     6
 40
12.7
 49
6.35
 74
     0
 49
-1.27
 74
     0
 49
1.27
 74
     0
 49
-1.27
 74
     0
 49
1.27
 74
     0
 49
-1.27
 74
     0
  0
LTYPE
  5
71
330
5
100
AcDbSymbolTableRecord
100
AcDbLinetypeTableRecord
  2
SLD-鎖線
 70
     0
  3
SolidWorks Line Style
 72
    65
 73
     4
 40
10.16
 49
6.35
 74
     0
 49
-1.27
 74
     0
 49
1.27
 74
     0
 49
-1.27
 74
     0
  0
LTYPE
  5
72
330
5
100
AcDbSymbolTableRecord
100
AcDbLinetypeTableRecord
  2
SLD-1点鎖線(中心線)
 70
     0
  3
SolidWorks Line Style
 72
    65
 73
     4
 40
34.29
 49
30.48
 74
     0
 49
-1.27
 74
     0
 49
1.27
 74
     0
 49
-1.27
 74
     0
  0
LTYPE
  5
73
330
5
100
AcDbSymbolTableRecord
100
AcDbLinetypeTableRecord
  2
SLD-点線
 70
     0
  3
SolidWorks Line Style
 72
    65
 73
     2
 40
0.635
 49
0.0
 74
     0
 49
-0.635
 74
     0
  0
LTYPE
  5
74
330
5
100
AcDbSymbolTableRecord
100
AcDbLinetypeTableRecord
  2
SLD-細-太鎖線(切断面)
 70
     0
  3
SolidWorks Line Style
 72
    65
 73
     4
 40
10.16
 49
6.35
 74
     0
 49
-1.27
 74
     0
 49
1.27
 74
     0
 49
-1.27
 74
     0
  0
ENDTAB
  0
TABLE
  2
LAYER
  5
2
330
0
100
AcDbSymbolTable
 70
     1
  0
LAYER
  5
10
330
2
100
AcDbSymbolTableRecord
100
AcDbLayerTableRecord
  2
0
 70
     0
 62
     7
  6
Continuous
370
    -3
390
F
  0
ENDTAB
  0
TABLE
  2
STYLE
  5
3
330
0
100
AcDbSymbolTable
 70
     2
  0
STYLE
  5
11
330
3
100
AcDbSymbolTableRecord
100
AcDbTextStyleTableRecord
  2
STANDARD
 70
     0
 40
0.0
 41
1.0
 50
0.0
 71
     0
 42
3.5
  3
MSGOTHIC.TTC
  4

1001
ACAD
1000
ＭＳ Ｐゴシック
1071
    32818
  0
STYLE
  5
78
330
3
100
AcDbSymbolTableRecord
100
AcDbTextStyleTableRecord
  2
SLDTEXTSTYLE0
 70
     0
 40
0.0
 41
1.0
 50
0.0
 71
     0
 42
3.5
  3
MSGOTHIC.TTC
  4

1001
ACAD
1000
ＭＳ Ｐゴシック
1071
      306
  0
ENDTAB
  0
TABLE
  2
VIEW
  5
6
330
0
100
AcDbSymbolTable
 70
     0
  0
ENDTAB
  0
TABLE
  2
UCS
  5
7
330
0
100
AcDbSymbolTable
 70
     0
  0
ENDTAB
  0
TABLE
  2
APPID
  5
9
330
0
100
AcDbSymbolTable
 70
     1
  0
APPID
  5
12
330
9
100
AcDbSymbolTableRecord
100
AcDbRegAppTableRecord
  2
ACAD
 70
     0
  0
ENDTAB
  0
TABLE
  2
DIMSTYLE
  5
A
330
0
100
AcDbSymbolTable
 70
     1
100
AcDbDimStyleTable
  0
DIMSTYLE
105
27
330
A
100
AcDbSymbolTableRecord
100
AcDbDimStyleTableRecord
  2
ISO-25
 70
     0
 41
2.5
 42
0.625
 43
3.75
 44
1.25
 73
     0
 74
     0
 77
     1
 78
     8
140
2.5
141
2.5
143
0.0393700787
147
0.625
171
     3
172
     1
178
     0
271
     2
272
     2
274
     3
278
    44
283
     0
284
     8
340
11
  0
ENDTAB
  0
TABLE
  2
BLOCK_RECORD
  5
1
330
0
100
AcDbSymbolTable
 70
     2
  0
BLOCK_RECORD
  5
1F
330
1
100
AcDbSymbolTableRecord
100
AcDbBlockTableRecord
  2
*Model_Space
340
22
  0
BLOCK_RECORD
  5
1B
330
1
100
AcDbSymbolTableRecord
100
AcDbBlockTableRecord
  2
*Paper_Space
340
1E
  0
BLOCK_RECORD
  5
23
330
1
100
AcDbSymbolTableRecord
100
AcDbBlockTableRecord
  2
*Paper_Space0
340
26
  0
BLOCK_RECORD
  5
75
330
1
100
AcDbSymbolTableRecord
100
AcDbBlockTableRecord
  2
SW_NOTE_0
340
0
102
{BLKREFS
331
7B
102
}
  0
ENDTAB
  0
ENDSEC
  0
SECTION
  2
BLOCKS
  0
BLOCK
  5
20
330
1F
100
AcDbEntity
  8
0
100
AcDbBlockBegin
  2
*Model_Space
 70
     0
 10
0.0
 20
0.0
 30
0.0
  3
*Model_Space
  1

  0
ENDBLK
  5
21
330
1F
100
AcDbEntity
  8
0
100
AcDbBlockEnd
  0
BLOCK
  5
1C
330
1B
100
AcDbEntity
 67
     1
  8
0
100
AcDbBlockBegin
  2
*Paper_Space
 70
     0
 10
0.0
 20
0.0
 30
0.0
  3
*Paper_Space
  1

  0
ENDBLK
  5
1D
330
1B
100
AcDbEntity
 67
     1
  8
0
100
AcDbBlockEnd
  0
BLOCK
  5
24
330
23
100
AcDbEntity
  8
0
100
AcDbBlockBegin
  2
*Paper_Space0
 70
     0
 10
0.0
 20
0.0
 30
0.0
  3
*Paper_Space0
  1

  0
ENDBLK
  5
25
330
23
100
AcDbEntity
  8
0
100
AcDbBlockEnd
  0
BLOCK
  5
76
330
75
100
AcDbEntity
  8
0
100
AcDbBlockBegin
  2
SW_NOTE_0
 70
     0
 10
0.0
 20
0.0
 30
0.0
  3
SW_NOTE_0
  1

  0
MTEXT
  5
79
330
75
100
AcDbEntity
  8
0
  6
Continuous
 62
     0
370
     0
100
AcDbMText
 10
0.0
 20
4.0727272727
 30
0.0
 40
3.5
 41
0.0
 71
     1
 72
     1
  1
HBB-C53C
  7
SLDTEXTSTYLE0
 73
     1
 44
1.0
  0
MTEXT
  5
7A
330
75
100
AcDbEntity
  8
0
  6
Continuous
 62
     0
370
     0
100
AcDbMText
 10
0.0
 20
-0.4272725336
 30
0.0
 40
3.5
 41
0.0
 71
     1
 72
     1
  1
HBB-C53S
  7
SLDTEXTSTYLE0
 73
     1
 44
1.0
  0
ENDBLK
  5
77
330
75
100
AcDbEntity
  8
0
100
AcDbBlockEnd
  0
ENDSEC
  0
SECTION
  2
ENTITIES
  0
INSERT
  5
7B
330
1F
100
AcDbEntity
  8
0
  6
Continuous
 62
     7
370
     0
100
AcDbBlockReference
  2
SW_NOTE_0
 10
155.5042932175
 20
67.2648557494
 30
0.0
  0
LINE
  5
7C
330
1F
100
AcDbEntity
  8
0
  6
SLD-実線
 62
     7
370
    25
100
AcDbLine
 10
119.6839514514
 20
155.5241867808
 30
0.0
 11
119.6839514514
 21
157.1572686722
 31
0.0
  0
LINE
  5
7D
330
1F
100
AcDbEntity
  8
0
  6
SLD-実線
 62
     7
370
    25
100
AcDbLine
 10
99.6839514512
 20
157.1572690524
 30
0.0
 11
99.6839514512
 21
155.524187161
 31
0.0
  0
LINE
  5
7E
330
1F
100
AcDbEntity
  8
0
  6
SLD-実線
 62
     7
370
    25
100
AcDbLine
 10
115.6839511221
 20
148.9918594051
 30
0.0
 11
115.6839511221
 21
150.9058836652
 31
0.0
  0
LINE
  5
7F
330
1F
100
AcDbEntity
  8
0
  6
SLD-実線
 62
     7
370
    25
100
AcDbLine
 10
77.7216211847
 20
211.29843574
 30
0.0
 11
56.0471209663
 21
198.7860130983
 31
0.0
  0
LINE
  5
80
330
1F
100
AcDbEntity
  8
0
  6
SLD-実線
 62
     7
370
    25
100
AcDbLine
 10
88.978053971
 20
168.1458583195
 30
0.0
 11
99.2198738194
 21
174.0583350673
 31
0.0
  0
LINE
  5
81
330
1F
100
AcDbEntity
  8
0
  6
SLD-実線
 62
     7
370
    25
100
AcDbLine
 10
79.6297283769
 20
172.0628198341
 30
0.0
 11
79.9832250216
 21
171.8586849751
 31
0.0
  0
LINE
  5
82
330
1F
100
AcDbEntity
  8
0
  6
SLD-実線
 62
     7
370
    25
100
AcDbLine
 10
88.5686855827
 20
172.0952110645
 30
0.0
 11
88.6942147027
 21
172.167677483
 31
0.0
  0
LINE
  5
83
330
1F
100
AcDbEntity
  8
0
  6
SLD-実線
 62
     7
370
    25
100
AcDbLine
 10
103.6566251469
 20
183.083762433
 30
0.0
 11
107.4341622267
 21
188.238681639
 31
0.0
  0
LINE
  5
84
330
1F
100
AcDbEntity
  8
0
  6
SLD-実線
 62
     7
370
    25
100
AcDbLine
 10
94.1093079831
 20
211.3205069069
 30
0.0
 11
87.7561832469
 21
210.6271196421
 31
0.0
  0
LINE
  5
85
330
1F
100
AcDbEntity
  8
0
  6
SLD-実線
 62
     7
370
    25
100
AcDbLine
 10
107.6159843897
 20
187.2766587708
 30
0.0
 11
110.0747969582
 21
188.696101053
 31
0.0
  0
LINE
  5
86
330
1F
100
AcDbEntity
  8
0
  6
SLD-実線
 62
     7
370
    25
100
AcDbLine
 10
107.5092777889
 20
220.1231323166
 30
0.0
 11
93.3671424813
 21
211.9590513808
 31
0.0
  0
LINE
  5
87
330
1F
100
AcDbEntity
  8
0
  6
SLD-実線
 62
     7
370
    25
100
AcDbLine
 10
124.7099703803
 20
201.9650278316
 30
0.0
 11
124.7099703803
 21
202.7814360772
 31
0.0
  0
LINE
  5
88
330
1F
100
AcDbEntity
  8
0
  6
SLD-実線
 62
     7
370
    25
100
AcDbLine
 10
115.342328393
 20
219.0084270779
 30
0.0
 11
114.6353364206
 21
219.4166975562
 31
0.0
  0
LINE
  5
89
330
1F
100
AcDbEntity
  8
0
  6
SLD-実線
 62
     7
370
    25
100
AcDbLine
 10
104.1598844483
 20
183.7705224899
 30
0.0
 11
109.9269168377
 21
180.4412855563
 31
0.0
  0
LINE
  5
8A
330
1F
100
AcDbEntity
  8
0
  6
SLD-実線
 62
     7
370
    25
100
AcDbLine
 10
110.0796290286
 20
185.7130210929
 30
0.0
 11
110.4331824771
 21
185.5089190315
 31
0.0
  0
LINE
  5
8B
330
1F
100
AcDbEntity
  8
0
  6
SLD-実線
 62
     7
370
    25
100
AcDbLine
 10
111.0289861327
 20
185.8765603365
 30
0.0
 11
110.6754326842
 21
186.0806623979
 31
0.0
  0
LINE
  5
8C
330
1F
100
AcDbEntity
  8
0
  6
SLD-実線
 62
     7
370
    25
100
AcDbLine
 10
111.4101628892
 20
186.4811871509
 30
0.0
 11
111.7637163378
 21
186.2770850895
 31
0.0
  0
LINE
  5
8D
330
1F
100
AcDbEntity
  8
0
  6
SLD-実線
 62
     7
370
    25
100
AcDbLine
 10
110.1159135139
 20
183.6916682547
 30
0.0
 11
110.4694669624
 21
183.4875661932
 31
0.0
  0
LINE
  5
8E
330
1F
100
AcDbEntity
  8
0
  6
SLD-実線
 62
     7
370
    25
100
AcDbLine
 10
112.7553913474
 20
186.9017340709
 30
0.0
 11
112.4018378988
 21
187.1058361323
 31
0.0
  0
LINE
  5
8F
330
1F
100
AcDbEntity
  8
0
  6
SLD-実線
 62
     7
370
    25
100
AcDbLine
 10
112.50683179
 20
186.6225216644
 30
0.0
 11
112.7002305069
 21
186.5108749615
 31
0.0
  0
LINE
  5
90
330
1F
100
AcDbEntity
  8
0
  6
SLD-実線
 62
     7
370
    25
100
AcDbLine
 10
111.5573452818
 20
184.4862181475
 30
0.0
 11
111.2037918333
 21
184.6903202089
 31
0.0
  0
LINE
  5
91
330
1F
100
AcDbEntity
  8
0
  6
SLD-実線
 62
     7
370
    25
100
AcDbLine
 10
112.7259048524
 20
187.2407514801
 30
0.0
 11
113.0794583009
 21
187.0366494187
 31
0.0
  0
LINE
  5
92
330
1F
100
AcDbEntity
  8
0
  6
SLD-実線
 62
     7
370
    25
100
AcDbLine
 10
112.7173498653
 20
186.0135144883
 30
0.0
 11
112.3637964168
 21
186.2176165497
 31
0.0
  0
LINE
  5
93
330
1F
100
AcDbEntity
  8
0
  6
SLD-実線
 62
     7
370
    25
100
AcDbLine
 10
111.5584625026
 20
184.3951551894
 30
0.0
 11
111.8000146525
 21
184.2557101014
 31
0.0
  0
LINE
  5
94
330
1F
100
AcDbEntity
  8
0
  6
SLD-実線
 62
     7
370
    25
100
AcDbLine
 10
112.4837241218
 20
185.6914086385
 30
0.0
 11
112.6655258699
 21
185.5864567232
 31
0.0
  0
LINE
  5
95
330
1F
100
AcDbEntity
  8
0
  6
SLD-実線
 62
     7
370
    25
100
AcDbLine
 10
112.8113274593
 20
185.1990824471
 30
0.0
 11
112.4577740108
 21
185.4031845085
 31
0.0
  0
LINE
  5
96
330
1F
100
AcDbEntity
  8
0
  6
SLD-実線
 62
     7
370
    25
100
AcDbLine
 10
112.8159007217
 20
185.1884588133
 30
0.0
 11
113.1158354764
 21
185.015310165
 31
0.0
  0
LINE
  5
97
330
1F
100
AcDbEntity
  8
0
  6
SLD-実線
 62
     7
370
    25
100
AcDbLine
 10
114.7804833749
 20
188.4268193005
 30
0.0
 11
115.1340368234
 21
188.2227172391
 31
0.0
  0
LINE
  5
98
330
1F
100
AcDbEntity
  8
0
  6
SLD-実線
 62
     7
370
    25
100
AcDbLine
 10
115.6773211429
 20
188.5599870195
 30
0.0
 11
115.3237676944
 21
188.7640890809
 31
0.0
  0
LINE
  5
99
330
1F
100
AcDbEntity
  8
0
  6
SLD-実線
 62
     7
370
    25
100
AcDbLine
 10
115.5904604394
 20
188.8944091069
 30
0.0
 11
115.9440138879
 21
188.6903070455
 31
0.0
  0
LINE
  5
9A
330
1F
100
AcDbEntity
  8
0
  6
SLD-実線
 62
     7
370
    25
100
AcDbLine
 10
116.523256384
 20
189.0483558571
 30
0.0
 11
116.1697029354
 21
189.2524579185
 31
0.0
  0
LINE
  5
9B
330
1F
100
AcDbEntity
  8
0
  6
SLD-実線
 62
     7
370
    25
100
AcDbLine
 10
114.7879307724
 20
186.3888847557
 30
0.0
 11
115.1414842209
 21
186.1847826943
 31
0.0
  0
LINE
  5
9C
330
1F
100
AcDbEntity
  8
0
  6
SLD-実線
 62
     7
370
    25
100
AcDbLine
 10
116.850508388
 20
189.6218344185
 30
0.0
 11
117.2040618366
 21
189.4177323571
 31
0.0
  0
LINE
  5
9D
330
1F
100
AcDbEntity
  8
0
  6
SLD-実線
 62
     7
370
    25
100
AcDbLine
 10
115.737679052
 20
186.5528971605
 30
0.0
 11
115.5183764868
 21
186.6794978366
 31
0.0
  0
LINE
  5
9E
330
1F
100
AcDbEntity
  8
0
  6
SLD-実線
 62
     7
370
    25
100
AcDbLine
 10
114.6839512867
 20
157.1572688623
 30
0.0
 11
114.6839512867
 21
181.3333742964
 31
0.0
  0
LINE
  5
9F
330
1F
100
AcDbEntity
  8
0
  6
SLD-実線
 62
     7
370
    25
100
AcDbLine
 10
104.6839515336
 20
183.4679853144
 30
0.0
 11
104.6839515336
 21
157.1572689099
 31
0.0
  0
LINE
  5
A0
330
1F
100
AcDbEntity
  8
0
  6
SLD-実線
 62
     7
370
    25
100
AcDbLine
 10
117.7259386028
 20
189.7426642575
 30
0.0
 11
117.3723851543
 21
189.9467663189
 31
0.0
  0
LINE
  5
A1
330
1F
100
AcDbEntity
  8
0
  6
SLD-実線
 62
     7
370
    25
100
AcDbLine
 10
117.7785062596
 20
189.3046494242
 30
0.0
 11
118.2204482349
 21
189.0495217524
 31
0.0
  0
LINE
  5
A2
330
1F
100
AcDbEntity
  8
0
  6
SLD-実線
 62
     7
370
    25
100
AcDbLine
 10
118.8005340795
 20
190.3631336539
 30
0.0
 11
118.446980631
 21
190.5672357153
 31
0.0
  0
LINE
  5
A3
330
1F
100
AcDbEntity
  8
0
  6
SLD-実線
 62
     7
370
    25
100
AcDbLine
 10
118.4999608659
 20
190.1332259761
 30
0.0
 11
118.766861711
 21
189.9791473979
 31
0.0
  0
LINE
  5
A4
330
1F
100
AcDbEntity
  8
0
  6
SLD-実線
 62
     7
370
    25
100
AcDbLine
 10
118.6928044298
 20
189.2007132396
 30
0.0
 11
118.2508624545
 21
189.4558409114
 31
0.0
  0
LINE
  5
A5
330
1F
100
AcDbEntity
  8
0
  6
SLD-実線
 62
     7
370
    25
100
AcDbLine
 10
117.9665365217
 20
188.2792163519
 30
0.0
 11
117.6129830732
 21
188.4833184133
 31
0.0
  0
LINE
  5
A6
330
1F
100
AcDbEntity
  8
0
  6
SLD-実線
 62
     7
370
    25
100
AcDbLine
 10
117.5838131735
 20
188.0462980034
 30
0.0
 11
117.937366622
 21
187.842195942
 31
0.0
  0
ARC
  5
A7
330
1F
100
AcDbEntity
  8
0
  6
SLD-実線
 62
     7
370
    25
100
AcDbCircle
 10
112.2682788192
 20
157.3446542348
 30
0.0
 40
2.422929373317659
100
AcDbArc
 50
293.1154688318
 51
355.5644094277
  0
LWPOLYLINE
  5
A8
330
1F
100
AcDbEntity
  8
0
  6
SLD-実線
 62
     7
370
    25
100
AcDbPolyline
 90
       14
 70
   128
 43
0.0
 10
104.6839515336
 20
157.1572689099
 10
104.73189919
 20
156.7584889919
 10
104.9431480665
 20
156.2399834073
 10
105.3158395593
 20
155.7527149742
 10
105.8372816861
 20
155.3132768731
 10
106.4897175353
 20
154.9366336745
 10
107.2509291321
 20
154.6356115421
 10
108.094994189
 20
154.4204613704
 10
108.9931695433
 20
154.2985099791
 10
109.9148687659
 20
154.2739101513
 10
110.828704144
 20
154.3474996859
 10
111.7035564036
 20
154.5167726472
 10
112.5096334441
 20
154.7759644039
 10
113.2194856075
 20
155.1162484383
  0
LWPOLYLINE
  5
A9
330
1F
100
AcDbEntity
  8
0
  6
SLD-実線
 62
     7
370
    25
100
AcDbPolyline
 90
        8
 70
   128
 43
0.0
 10
116.7550194344
 20
151.4421463129
 10
117.601194221
 20
151.9976595706
 10
118.3173677119
 20
152.6110783688
 10
118.8917808541
 20
153.2723304454
 10
119.31500222
 20
153.9705575372
 10
119.5800818603
 20
154.6942954383
 10
119.6826669603
 20
155.4316601404
 10
119.6839514514
 20
155.5241867808
  0
LWPOLYLINE
  5
AA
330
1F
100
AcDbEntity
  8
0
  6
SLD-実線
 62
     7
370
    25
100
AcDbPolyline
 90
       20
 70
   128
 43
0.0
 10
99.6839514512
 20
155.524187161
 10
99.6955103891
 20
155.2467016169
 10
99.8389817187
 20
154.5116138458
 10
100.1441076975
 20
153.7931525569
 10
100.6058778306
 20
153.103114961
 10
101.2167092661
 20
152.4528310878
 10
101.9665727416
 20
151.8529789287
 10
102.8431552446
 20
151.3134076578
 10
103.8320637087
 20
150.8429774613
 10
104.9170595788
 20
150.4494127213
 10
106.0803280735
 20
150.1391754667
 10
107.3027674508
 20
149.9173599705
 10
108.5643062619
 20
149.7876084484
 10
109.8442299893
 20
149.7520513709
 10
111.1215215143
 20
149.8112724886
 10
112.3752081699
 20
149.9642997076
 10
113.5847040195
 20
150.2086202017
 10
114.7301503242
 20
150.5402218503
 10
115.7927379827
 20
150.9536600063
 10
116.7550194344
 20
151.4421463129
  0
LWPOLYLINE
  5
AB
330
1F
100
AcDbEntity
  8
0
  6
SLD-実線
 62
     7
370
    25
100
AcDbPolyline
 90
       16
 70
   128
 43
0.0
 10
116.7550194344
 20
153.0752282044
 10
117.601194221
 20
153.630741462
 10
118.3173677119
 20
154.2441602603
 10
118.8917808541
 20
154.9054123368
 10
119.31500222
 20
155.6036394286
 10
119.5800818603
 20
156.3273773297
 10
119.6826669603
 20
157.0647420318
 10
119.6210736218
 20
157.8036262721
 10
119.3963130397
 20
158.531897126
 10
119.0120756976
 20
159.2375963573
 10
118.4746707812
 20
159.9091369651
 10
117.7929227867
 20
160.5354917486
 10
116.9780254892
 20
161.1063764533
 10
116.0433593606
 20
161.612416761
 10
115.0042723568
 20
162.0453037311
 10
114.6839516983
 20
162.1567272744
  0
LWPOLYLINE
  5
AC
330
1F
100
AcDbEntity
  8
0
  6
SLD-実線
 62
     7
370
    25
100
AcDbPolyline
 90
       29
 70
   128
 43
0.0
 10
104.6839514513
 20
162.1567270367
 10
104.0949758321
 20
161.9443503453
 10
103.080456819
 20
161.4924596446
 10
102.1743670768
 20
160.9693851704
 10
101.3915846077
 20
160.3837158105
 10
100.7449623072
 20
159.7450683838
 10
100.2451182999
 20
159.0639293477
 10
99.9002592852
 20
158.3514828654
 10
99.716048252
 20
157.6194276126
 10
99.6955103891
 20
156.8797835083
 10
99.8389817187
 20
156.1446957373
 10
100.1441076975
 20
155.4262344484
 10
100.6058778306
 20
154.7361968524
 10
101.2167092661
 20
154.0859129792
 10
101.9665727416
 20
153.4860608202
 10
102.8431552446
 20
152.9464895492
 10
103.8320637087
 20
152.4760593527
 10
104.9170595788
 20
152.0824946128
 10
106.0803280735
 20
151.7722573581
 10
107.3027674508
 20
151.550441862
 10
108.5643062619
 20
151.4206903398
 10
109.8442299893
 20
151.3851332623
 10
111.1215215143
 20
151.44435438
 10
112.3752081699
 20
151.5973815991
 10
113.5847040195
 20
151.8417020931
 10
114.7301503242
 20
152.1733037418
 10
115.7927379827
 20
152.5867418978
 10
116.7550194344
 20
153.0752282044
 10
116.7550194344
 20
153.0752282044
  0
LWPOLYLINE
  5
AD
330
1F
100
AcDbEntity
  8
0
  6
SLD-実線
 62
     7
370
    25
100
AcDbPolyline
 90
       14
 70
   128
 43
0.0
 10
104.6839515336
 20
157.1572689099
 10
104.73189919
 20
156.7584889919
 10
104.9431480665
 20
156.2399834073
 10
105.3158395593
 20
155.7527149742
 10
105.8372816861
 20
155.3132768731
 10
106.4897175353
 20
154.9366336745
 10
107.2509291321
 20
154.6356115421
 10
108.094994189
 20
154.4204613704
 10
108.9931695433
 20
154.2985099791
 10
109.9148687659
 20
154.2739101513
 10
110.828704144
 20
154.3474996859
 10
111.7035564036
 20
154.5167726472
 10
112.5096334441
 20
154.7759644039
 10
113.2194856075
 20
155.1162484383
  0
LINE
  5
AE
330
1F
100
AcDbEntity
  8
0
  6
SLD-実線
 62
     7
370
    25
100
AcDbLine
 10
110.4377916301
 20
128.2488500839
 30
0.0
 11
113.2194853605
 21
126.6424924408
 31
0.0
  0
LINE
  5
AF
330
1F
100
AcDbEntity
  8
0
  6
SLD-実線
 62
     7
370
    25
100
AcDbLine
 10
108.2835894823
 20
149.8081917251
 30
0.0
 11
110.4377916301
 21
128.2488500839
 31
0.0
  0
LINE
  5
B0
330
1F
100
AcDbEntity
  8
0
  6
SLD-実線
 62
     7
370
    25
100
AcDbLine
 10
111.4517183647
 20
129.3954782306
 30
0.0
 11
109.4175659173
 21
149.7533591789
 31
0.0
  0
LINE
  5
B1
330
1F
100
AcDbEntity
  8
0
  6
SLD-実線
 62
     7
370
    25
100
AcDbLine
 10
113.2194853605
 20
128.3746383121
 30
0.0
 11
111.4517183647
 21
129.3954782306
 31
0.0
  0
LINE
  5
B2
330
1F
100
AcDbEntity
  8
0
  6
SLD-実線
 62
     7
370
    25
100
AcDbLine
 10
114.2801455415
 20
128.9869444013
 30
0.0
 11
113.2194853605
 21
128.3746383121
 31
0.0
  0
LINE
  5
B3
330
1F
100
AcDbEntity
  8
0
  6
SLD-実線
 62
     7
370
    25
100
AcDbLine
 10
116.0479125373
 20
132.0488046487
 30
0.0
 11
114.2801455415
 21
128.9869444013
 31
0.0
  0
LINE
  5
B4
330
1F
100
AcDbEntity
  8
0
  6
SLD-実線
 62
     7
370
    25
100
AcDbLine
 10
117.8526372978
 20
152.1942535759
 30
0.0
 11
116.0479125373
 21
132.0488046487
 31
0.0
  0
LINE
  5
B5
330
1F
100
AcDbEntity
  8
0
  6
SLD-実線
 62
     7
370
    25
100
AcDbLine
 10
117.0618392719
 20
132.0728313917
 30
0.0
 11
118.970941032
 21
153.3834032872
 31
0.0
  0
LINE
  5
B6
330
1F
100
AcDbEntity
  8
0
  6
SLD-実線
 62
     7
370
    25
100
AcDbLine
 10
114.2801455415
 20
127.2547985299
 30
0.0
 11
117.0618392719
 21
132.0728313917
 31
0.0
  0
LINE
  5
B7
330
1F
100
AcDbEntity
  8
0
  6
SLD-実線
 62
     7
370
    25
100
AcDbLine
 10
114.2801455415
 20
114.2892043364
 30
0.0
 11
114.2801455415
 21
127.2547985299
 31
0.0
  0
LINE
  5
B8
330
1F
100
AcDbEntity
  8
0
  6
SLD-実線
 62
     7
370
    25
100
AcDbLine
 10
113.2194853605
 20
113.6768982472
 30
0.0
 11
114.2801455415
 21
114.2892043364
 31
0.0
  0
LINE
  5
B9
330
1F
100
AcDbEntity
  8
0
  6
SLD-実線
 62
     7
370
    25
100
AcDbLine
 10
113.2194853605
 20
126.6424924408
 30
0.0
 11
113.2194853605
 21
113.6768982472
 31
0.0
  0
LINE
  5
BA
330
1F
100
AcDbEntity
  8
0
  6
SLD-実線
 62
     7
370
    25
100
AcDbLine
 10
106.9022576386
 20
130.2898704128
 30
0.0
 11
104.8869784182
 21
150.458866958
 31
0.0
  0
LINE
  5
BB
330
1F
100
AcDbEntity
  8
0
  6
SLD-実線
 62
     7
370
    25
100
AcDbLine
 10
110.4377916301
 20
128.2488500839
 30
0.0
 11
106.9022576386
 21
130.2898704128
 31
0.0
  0
LWPOLYLINE
  5
BC
330
1F
100
AcDbEntity
  8
0
  6
SLD-実線
 62
     7
370
    25
100
AcDbPolyline
 90
       11
 70
   128
 43
0.0
 10
109.8396326901
 20
145.5292993029
 10
110.799914883
 20
145.5885722187
 10
111.786533094
 20
145.7477720623
 10
112.7118568633
 20
146.0015430512
 10
113.5489114258
 20
146.3424873928
 10
114.2732956497
 20
146.7606655041
 10
114.8638925643
 20
147.2438868174
 10
115.3034844412
 20
147.7780648591
 10
115.5792565394
 20
148.3476274288
 10
115.6831704176
 20
148.9359700942
 10
115.6839511221
 20
148.9918594051
  0
LINE
  5
BD
330
1F
100
AcDbEntity
  8
0
  6
SLD-実線
 62
     7
370
    25
100
AcDbLine
 10
103.5186809813
 20
150.9790059583
 30
0.0
 11
105.7948640112
 21
113.4727962333
 31
0.0
  0
LINE
  5
BE
330
1F
100
AcDbEntity
  8
0
  6
SLD-実線
 62
     7
370
    25
100
AcDbLine
 10
105.7948640112
 20
113.4727962333
 30
0.0
 11
104.7342038302
 21
114.0851023225
 31
0.0
  0
LINE
  5
BF
330
1F
100
AcDbEntity
  8
0
  6
SLD-実線
 62
     7
370
    25
100
AcDbLine
 10
102.4616592587
 20
151.5313526292
 30
0.0
 11
104.7342038302
 21
114.0851023225
 31
0.0
  0
LINE
  5
C0
330
1F
100
AcDbEntity
  8
0
  6
SLD-実線
 62
     7
370
    25
100
AcDbLine
 10
109.683951369
 20
128.6835127697
 30
0.0
 11
106.9022576386
 21
130.2898704128
 31
0.0
  0
LINE
  5
C1
330
1F
100
AcDbEntity
  8
0
  6
SLD-実線
 62
     7
370
    25
100
AcDbLine
 10
109.683951369
 20
95.3043994958
 30
0.0
 11
109.683951369
 21
128.6835127697
 31
0.0
  0
LINE
  5
C2
330
1F
100
AcDbEntity
  8
0
  6
SLD-実線
 62
     7
370
    25
100
AcDbLine
 10
105.7948640112
 20
113.4727962333
 30
0.0
 11
109.683951369
 21
95.3043994958
 31
0.0
  0
LINE
  5
C3
330
1F
100
AcDbEntity
  8
0
  6
SLD-実線
 62
     7
370
    25
100
AcDbLine
 10
103.6363465447
 20
132.1752407561
 30
0.0
 11
102.3060636307
 21
132.943196736
 31
0.0
  0
LINE
  5
C4
330
1F
100
AcDbEntity
  8
0
  6
SLD-実線
 62
     7
370
    25
100
AcDbLine
 10
100.2393359498
 20
153.6270936539
 30
0.0
 11
102.3060636307
 21
132.943196736
 31
0.0
  0
LINE
  5
C5
330
1F
100
AcDbEntity
  8
0
  6
SLD-実線
 62
     7
370
    25
100
AcDbLine
 10
116.0479125373
 20
132.0488046487
 30
0.0
 11
110.8890217995
 21
135.0269688796
 31
0.0
  0
LINE
  5
C6
330
1F
100
AcDbEntity
  8
0
  6
SLD-実線
 62
     7
370
    25
100
AcDbLine
 10
114.6336989077
 20
118.5753470082
 30
0.0
 11
115.2180827431
 21
128.8793495187
 31
0.0
  0
LINE
  5
C7
330
1F
100
AcDbEntity
  8
0
  6
SLD-実線
 62
     7
370
    25
100
AcDbLine
 10
114.2801454592
 20
116.5154721441
 30
0.0
 11
114.6336989077
 21
118.5753470082
 31
0.0
  0
LINE
  5
C8
330
1F
100
AcDbEntity
  8
0
  6
SLD-実線
 62
     7
370
    25
100
AcDbLine
 10
113.2194853605
 20
126.6424924408
 30
0.0
 11
109.683951369
 21
128.6835127697
 31
0.0
  0
LINE
  5
C9
330
1F
100
AcDbEntity
  8
0
  6
SLD-実線
 62
     7
370
    25
100
AcDbLine
 10
114.2801455415
 20
128.9869444013
 30
0.0
 11
111.3219003914
 21
130.6947029758
 31
0.0
  0
LINE
  5
CA
330
1F
100
AcDbEntity
  8
0
  6
SLD-実線
 62
     7
370
    25
100
AcDbLine
 10
102.3060636307
 20
132.943196736
 30
0.0
 11
103.6363623909
 21
132.1749842375
 31
0.0
  0
LINE
  5
CB
330
1F
100
AcDbEntity
  8
0
  6
SLD-実線
 62
     7
370
    25
100
AcDbLine
 10
113.2194853605
 20
113.6768982472
 30
0.0
 11
109.683951369
 21
95.3043994958
 31
0.0
  0
LINE
  5
CC
330
1F
100
AcDbEntity
  8
0
  6
SLD-実線
 62
     7
370
    25
100
AcDbLine
 10
109.683951369
 20
95.3043994958
 30
0.0
 11
108.623291188
 21
95.9167055849
 31
0.0
  0
LINE
  5
CD
330
1F
100
AcDbEntity
  8
0
  6
SLD-実線
 62
     7
370
    25
100
AcDbLine
 10
104.7342038302
 20
114.0851023225
 30
0.0
 11
108.623291188
 21
95.9167055849
 31
0.0
  0
LINE
  5
CE
330
1F
100
AcDbEntity
  8
0
  6
SLD-実線
 62
     7
370
    25
100
AcDbLine
 10
110.74461155
 20
95.9167055849
 30
0.0
 11
109.683951369
 21
95.3043994958
 31
0.0
  0
LINE
  5
CF
330
1F
100
AcDbEntity
  8
0
  6
SLD-実線
 62
     7
370
    25
100
AcDbLine
 10
110.74461155
 20
95.9167055849
 30
0.0
 11
114.2801455415
 21
114.2892043364
 31
0.0
  0
LWPOLYLINE
  5
D0
330
1F
100
AcDbEntity
  8
0
  6
SLD-実線
 62
     7
370
    25
100
AcDbPolyline
 90
        3
 70
   128
 43
0.0
 10
85.4479825239
 20
168.1723886426
 10
86.0419900817
 20
168.0621848261
 10
86.3773893514
 20
168.0485748001
  0
LINE
  5
D1
330
1F
100
AcDbEntity
  8
0
  6
SLD-実線
 62
     7
370
    25
100
AcDbLine
 10
85.4479825239
 20
168.3066491265
 30
0.0
 11
85.4479825239
 21
168.1723886426
 31
0.0
  0
LWPOLYLINE
  5
D2
330
1F
100
AcDbEntity
  8
0
  6
SLD-実線
 62
     7
370
    25
100
AcDbPolyline
 90
        3
 70
   128
 43
0.0
 10
86.6054925408
 20
167.9995215046
 10
86.1420266967
 20
167.9957673293
 10
85.6355412681
 20
168.0765283842
  0
LINE
  5
D3
330
1F
100
AcDbEntity
  8
0
  6
SLD-実線
 62
     7
370
    25
100
AcDbLine
 10
85.6355412681
 20
168.0765283842
 30
0.0
 11
85.4479825239
 21
168.1723886426
 31
0.0
  0
LWPOLYLINE
  5
D4
330
1F
100
AcDbEntity
  8
0
  6
SLD-実線
 62
     7
370
    25
100
AcDbPolyline
 90
       39
 70
   128
 43
0.0
 10
99.2198738194
 20
174.0583350673
 10
99.2694931724
 20
174.0872456544
 10
100.1594212445
 20
174.7050831564
 10
100.9607342506
 20
175.4591814475
 10
101.6673564589
 20
176.3438237004
 10
102.2739312685
 20
177.3523030806
 10
102.7758594045
 20
178.4769744131
 10
103.1693384309
 20
179.7093095102
 10
103.4513811899
 20
181.0399680864
 10
103.6198526801
 20
182.4588608803
 10
103.6734740081
 20
183.9552302637
 10
103.6118381934
 20
185.5177323735
 10
103.4354141198
 20
187.1345222837
 10
103.1455386324
 20
188.793341458
 10
102.744409953
 20
190.4816143278
 10
102.2350666058
 20
192.1865418272
 10
101.6213742472
 20
193.8951972104
 10
100.9079808842
 20
195.594627949
 10
100.1002984357
 20
197.2719500281
 10
99.2044493899
 20
198.9144471815
 10
98.2272246578
 20
200.5096651851
 10
97.1760328651
 20
202.0455141346
 10
96.058844376
 20
203.5103479085
 10
94.8841280728
 20
204.8930599805
 10
93.6607897823
 20
206.1831706768
 10
92.3981044452
 20
207.3708967521
 10
91.1056448292
 20
208.4472351289
 10
89.7932090887
 20
209.4040260093
 10
88.470747502
 20
210.2340134197
 10
87.1482859153
 20
210.9309076568
 10
85.8358501749
 20
211.4894228281
 10
84.5433905589
 20
211.9053265606
 10
83.2807052218
 20
212.175465944
 10
82.0573669313
 20
212.2977915734
 10
80.8826506281
 20
212.2713780754
 10
79.765462139
 20
212.0964226752
 10
78.7142703463
 20
211.7742539356
 10
77.7370456142
 20
211.3073155915
 10
77.7216211847
 20
211.29843574
  0
ELLIPSE
  5
D5
330
1F
100
AcDbEntity
  8
0
  6
SLD-実線
 62
     7
370
    25
100
AcDbEllipse
 10
72.512587349
 20
183.465935811
 30
0.0
 11
16.81743317130702
 21
-15.03629744057616
 31
0.0
210
0.0
220
0.0
230
1.0
 40
0.2456342933
 41
0.0
 42
6.283185307179586
  0
ELLIPSE
  5
D6
330
1F
100
AcDbEntity
  8
0
  6
SLD-実線
 62
     7
370
    25
100
AcDbEllipse
 10
72.4398253265
 20
183.5819552775
 30
0.0
 11
16.31006331504265
 21
-14.582989328004
 31
0.0
210
0.0
220
0.0
230
1.0
 40
0.2456359894
 41
0.0
 42
6.283185307179586
  0
LWPOLYLINE
  5
D7
330
1F
100
AcDbEntity
  8
0
  6
SLD-実線
 62
     7
370
    25
100
AcDbPolyline
 90
       10
 70
   128
 43
0.0
 10
79.6319119469
 20
172.0615589057
 10
80.8899880487
 20
171.4034572062
 10
82.137008176
 20
170.8874787099
 10
83.3620134073
 20
170.5181580268
 10
84.5542384333
 20
170.2987409904
 10
85.7032056462
 20
170.231155627
 10
86.7988182416
 20
170.3159959562
 10
87.8314476402
 20
170.552516415
 10
88.7920197573
 20
170.9386381158
 10
89.0345248211
 20
171.0662546618
  0
LWPOLYLINE
  5
D8
330
1F
100
AcDbEntity
  8
0
  6
SLD-実線
 62
     7
370
    25
100
AcDbPolyline
 90
       18
 70
   128
 43
0.0
 10
66.1981782349
 20
195.1155891145
 10
66.2301005214
 20
194.2222512563
 10
66.3774011228
 20
192.6928190694
 10
66.6411824425
 20
191.118419474
 10
67.0191277211
 20
189.5128858333
 10
67.5079139429
 20
187.8903305057
 10
68.1032460807
 20
186.2650113873
 10
68.7998926568
 20
184.6512117616
 10
69.5917318415
 20
183.0631134971
 10
70.4718041366
 20
181.5146734765
 10
71.4323762537
 20
180.0194988161
 10
72.4650056523
 20
178.5907298313
 10
73.5606182477
 20
177.240922125
 10
74.7095854606
 20
175.9819381813
 10
75.9018104866
 20
174.8248415025
 10
77.1268157179
 20
173.7798012511
 10
78.3738358452
 20
172.8560009551
 10
79.6319119469
 20
172.0615589057
  0
LWPOLYLINE
  5
D9
330
1F
100
AcDbEntity
  8
0
  6
SLD-実線
 62
     7
370
    25
100
AcDbPolyline
 90
        9
 70
   128
 43
0.0
 10
89.1165116368
 20
170.5777524007
 10
88.2949431187
 20
170.2765119839
 10
87.2442195512
 20
170.0519263261
 10
86.1315657995
 20
169.9785903915
 10
84.9664764293
 20
170.0571289002
 10
83.7588908526
 20
170.2868721516
 10
82.5191113399
 20
170.6658602589
 10
81.2577159269
 20
171.1908596806
 10
79.985466054
 20
171.8573908744
  0
LWPOLYLINE
  5
DA
330
1F
100
AcDbEntity
  8
0
  6
SLD-実線
 62
     7
370
    25
100
AcDbPolyline
 90
       27
 70
   128
 43
0.0
 10
66.9060055797
 20
194.6607542353
 10
66.9184059728
 20
194.2158389797
 10
67.0335419433
 20
192.7570127541
 10
67.2627694327
 20
191.2512660272
 10
67.604015343
 20
189.7122329436
 10
68.054187149
 20
188.1538532584
 10
68.6092078018
 20
186.5902388792
 10
69.2640526067
 20
185.0355495338
 10
70.0127900534
 20
183.5038659668
 10
70.8486397676
 20
182.0090587653
 10
71.7640324388
 20
180.5646647894
 10
72.7506776501
 20
179.1837652429
 10
73.7996402696
 20
177.8788656461
 10
74.9014211222
 20
176.6617831052
 10
76.0460419413
 20
175.5435399973
 10
77.2231369072
 20
174.5342633373
 10
78.4220459953
 20
173.6430930788
 10
79.6319119469
 20
172.8780998514
 10
80.8417778986
 20
172.2462115845
 10
82.0406869867
 20
171.753150874
 10
83.2177819526
 20
171.4033826145
 10
84.3624027717
 20
171.2000746546
 10
85.4641836243
 20
171.1450681004
 10
86.5131462438
 20
171.2388612358
 10
87.4997914551
 20
171.4806044689
 10
88.4151841263
 20
171.8681085632
 10
88.7385887487
 20
172.0504585567
  0
LWPOLYLINE
  5
DB
330
1F
100
AcDbEntity
  8
0
  6
SLD-実線
 62
     7
370
    25
100
AcDbPolyline
 90
       26
 70
   128
 43
0.0
 10
66.9945165957
 20
194.6028038613
 10
67.0255801402
 20
193.7960803644
 10
67.1727938137
 20
192.3110470348
 10
67.4363354232
 20
190.781801422
 10
67.8137420124
 20
189.2226240276
 10
68.3014930022
 20
187.6480697811
 10
68.8950332404
 20
186.0728414247
 10
69.5888204163
 20
184.5116457908
 10
70.3763777446
 20
182.9790599649
 10
71.2503506004
 20
181.4893930774
 10
72.2025802757
 20
180.0565536091
 10
73.2241757611
 20
178.6939195495
 10
74.3055983688
 20
177.4142135932
 10
75.4367512942
 20
176.2293840415
 10
76.6070734591
 20
175.1504930223
 10
77.8056377991
 20
174.1876141227
 10
79.0212533382
 20
173.3497376256
 10
80.2425705557
 20
172.6446862034
 10
81.4581860948
 20
172.0790428738
 10
82.6567504348
 20
171.6580888421
 10
83.8270725997
 20
171.3857546513
 10
84.9582255251
 20
171.2645828344
 10
86.0396481328
 20
171.2957048248
 10
87.0612436182
 20
171.4788298435
 10
88.0134732935
 20
171.8122483305
 10
88.693569329
 20
172.1693477624
  0
LWPOLYLINE
  5
DC
330
1F
100
AcDbEntity
  8
0
  6
SLD-実線
 62
     7
370
    25
100
AcDbPolyline
 90
       23
 70
   128
 43
0.0
 10
69.9240663275
 20
192.5592860604
 10
69.9424015237
 20
192.2423154408
 10
70.0895355133
 20
190.9321121421
 10
70.3525008964
 20
189.5811687873
 10
70.7281057078
 20
188.2058825579
 10
71.2117908438
 20
186.8229486087
 10
71.7976847217
 20
185.4491539873
 10
72.4786757192
 20
184.1011742172
 10
73.2464971272
 20
182.7953721631
 10
74.0918285653
 20
181.5475984192
 10
75.0044095807
 20
180.3729993029
 10
75.9731618084
 20
179.285832834
 10
76.9863266071
 20
178.2992957427
 10
78.031605164
 20
177.42536331
 10
79.0963091787
 20
176.6746438245
 10
80.1675147152
 20
176.0562500312
 10
81.2322187299
 20
175.5776884273
 10
82.2774972868
 20
175.2447679267
 10
83.2906620855
 20
175.0615298409
 10
84.2594143132
 20
175.0301987955
 10
85.1719953286
 20
175.1511542989
 10
86.0173267667
 20
175.4229291391
 10
86.6997178298
 20
175.7857529807
  0
LWPOLYLINE
  5
DD
330
1F
100
AcDbEntity
  8
0
  6
SLD-実線
 62
     7
370
    25
100
AcDbPolyline
 90
       23
 70
   128
 43
0.0
 10
69.9240663275
 20
192.5592860604
 10
69.9424015237
 20
192.2423154408
 10
70.0895355133
 20
190.9321121421
 10
70.3525008964
 20
189.5811687873
 10
70.7281057078
 20
188.2058825579
 10
71.2117908438
 20
186.8229486087
 10
71.7976847217
 20
185.4491539873
 10
72.4786757192
 20
184.1011742172
 10
73.2464971272
 20
182.7953721631
 10
74.0918285653
 20
181.5475984192
 10
75.0044095807
 20
180.3729993029
 10
75.9731618084
 20
179.285832834
 10
76.9863266071
 20
178.2992957427
 10
78.031605164
 20
177.42536331
 10
79.0963091787
 20
176.6746438245
 10
80.1675147152
 20
176.0562500312
 10
81.2322187299
 20
175.5776884273
 10
82.2774972868
 20
175.2447679267
 10
83.2906620855
 20
175.0615298409
 10
84.2594143132
 20
175.0301987955
 10
85.1719953286
 20
175.1511542989
 10
86.0173267667
 20
175.4229291391
 10
86.7141353447
 20
175.7950924376
  0
LWPOLYLINE
  5
DE
330
1F
100
AcDbEntity
  8
0
  6
SLD-実線
 62
     7
370
    25
100
AcDbPolyline
 90
       26
 70
   128
 43
0.0
 10
94.1093079831
 20
211.3205069069
 10
94.449847275
 20
211.3470816773
 10
95.4185995028
 20
211.315750822
 10
96.4317643014
 20
211.1325123559
 10
97.4770428583
 20
210.7995931862
 10
98.541746873
 20
210.3210313921
 10
99.6129524096
 20
209.7026375988
 10
100.6776564243
 20
208.9519183034
 10
101.7229349812
 20
208.0779845399
 10
102.7360997798
 20
207.0914478289
 10
103.7048520076
 20
206.0042811699
 10
104.617433023
 20
204.8296818634
 10
105.462764461
 20
203.5819084998
 10
106.230585869
 20
202.2761072062
 10
106.9115768665
 20
200.9281270558
 10
107.4974707444
 20
199.5543328146
 10
107.9811558805
 20
198.1713988654
 10
108.3567606919
 20
196.7961126361
 10
108.619726075
 20
195.4451685208
 10
108.7668600646
 20
194.1349659825
 10
108.7963760294
 20
192.8814072734
 10
108.7079170384
 20
191.6997099829
 10
108.5025552019
 20
190.6042188231
 10
108.1827844281
 20
189.6082303415
 10
107.7524861782
 20
188.7238347412
 10
107.4341622267
 20
188.238681639
  0
LWPOLYLINE
  5
DF
330
1F
100
AcDbEntity
  8
0
  6
SLD-実線
 62
     7
370
    25
100
AcDbPolyline
 90
       34
 70
   128
 43
0.0
 10
92.3005684059
 20
211.1230995407
 10
92.811811654
 20
211.5840781392
 10
93.5621170952
 20
212.0656101467
 10
94.3936638796
 20
212.40120288
 10
95.2967025851
 20
212.5869225003
 10
96.2606467794
 20
212.6205929002
 10
97.2741945216
 20
212.501816818
 10
98.3254628701
 20
212.2319879228
 10
99.4021268351
 20
211.8142714355
 10
100.4915634355
 20
211.2535620315
 10
101.5810000358
 20
210.5564347105
 10
102.6576640008
 20
209.7310614438
 10
103.7089323493
 20
208.7871217396
 10
104.7224800916
 20
207.7356805073
 10
105.6864242859
 20
206.5890638304
 10
106.5894629914
 20
205.3607179138
 10
107.4210097758
 20
204.0650416991
 10
108.1713152169
 20
202.7172254686
 10
108.8315824774
 20
201.3330730969
 10
109.3940710249
 20
199.9288098545
 10
109.8521848777
 20
198.5209021859
 10
110.2005549224
 20
197.1258550542
 10
110.4350955489
 20
195.7600241118
 10
110.5530573339
 20
194.439422548
 10
110.5530573339
 20
193.1795340181
 10
110.4350955489
 20
191.9951282323
 10
110.2005549224
 20
190.9000921332
 10
109.8521848777
 20
189.9072644936
 10
109.3940710249
 20
189.028283821
 10
108.8315824774
 20
188.2734564121
 10
108.1713152169
 20
187.6516316323
 10
107.4210097758
 20
187.1701000049
 10
106.5894629914
 20
186.8345072716
 10
106.3586945078
 20
186.7710721384
  0
LWPOLYLINE
  5
E0
330
1F
100
AcDbEntity
  8
0
  6
SLD-実線
 62
     7
370
    25
100
AcDbPolyline
 90
       28
 70
   128
 43
0.0
 10
123.4104434293
 20
196.9994436728
 10
123.8995846066
 20
197.8610107555
 10
124.2773310047
 20
198.8418478913
 10
124.5391419593
 20
199.9301617758
 10
124.6818702861
 20
201.112870251
 10
124.7037991597
 20
202.3757544007
 10
124.6046664793
 20
203.7036292775
 10
124.3856622348
 20
205.0805355383
 10
124.0494206043
 20
206.4899181534
 10
123.5999830754
 20
207.9148324875
 10
123.0427530058
 20
209.3381484803
 10
122.3844297687
 20
210.7427574862
 10
121.6329277522
 20
212.1117696064
 10
120.7972808697
 20
213.4287300322
 10
119.8875355469
 20
214.677804017
 10
118.9146288912
 20
215.843976487
 10
117.8902566528
 20
216.9132271247
 10
116.826734602
 20
217.8727016508
 10
115.7368476395
 20
218.7108658508
 10
114.6336987431
 20
219.4176429673
 10
113.5305498467
 20
219.9845344558
 10
112.4406628842
 20
220.4047269579
 10
111.3771408334
 20
220.6731688547
 10
110.3527685951
 20
220.7866332285
 10
109.3798619393
 20
220.7437548733
 10
108.4701166166
 20
220.5450504804
 10
107.634469734
 20
220.1929074084
 10
107.5092777889
 20
220.1231323166
  0
LINE
  5
E1
330
1F
100
AcDbEntity
  8
0
  6
SLD-実線
 62
     7
370
    25
100
AcDbLine
 10
116.3393757754
 20
192.9174032049
 30
0.0
 11
123.4104434293
 21
196.9994436728
 31
0.0
  0
SPLINE
  5
E2
330
1F
100
AcDbEntity
  8
0
  6
SLD-実線
 62
     7
370
    25
100
AcDbSpline
210
0.0
220
0.0
230
1.0
 70
     8
 71
     3
 72
    14
 73
    10
 74
     0
 42
0.000000001
 43
0.00000001
 40
0.0
 40
0.0
 40
0.0
 40
0.0
 40
0.0482771238071584
 40
0.2206104193020511
 40
0.3884695051809891
 40
0.5620615183833723
 40
0.7171049077715933
 40
0.8767236170075278
 40
1.0
 40
1.0
 40
1.0
 40
1.0
 10
110.0699658757284
 20
188.7046672141413
 30
0.0
 10
110.170319545522
 20
188.7593635187837
 30
0.0
 10
110.6289024814092
 20
189.0093074622058
 30
0.0
 10
111.460066964126
 20
189.5714441628158
 30
0.0
 10
112.5654737732938
 20
190.3504032947896
 30
0.0
 10
113.6349112619434
 20
191.1303542580405
 30
0.0
 10
114.6655479899412
 20
191.8583104886651
 30
0.0
 10
115.5632335597471
 20
192.4562597402713
 30
0.0
 10
116.1038102301629
 20
192.7774423710384
 30
0.0
 10
116.3393757754469
 20
192.9174032048906
 30
0.0
  0
LWPOLYLINE
  5
E3
330
1F
100
AcDbEntity
  8
0
  6
SLD-実線
 62
     7
370
    25
100
AcDbPolyline
 90
       16
 70
   128
 43
0.0
 10
115.342328393
 20
219.0084270779
 10
116.3876634692
 20
218.3372198653
 10
117.4214106648
 20
217.5380531134
 10
118.4291008183
 20
216.6218150745
 10
119.3981138297
 20
215.5999813279
 10
120.3163142054
 20
214.4853477094
 10
121.1722021119
 20
213.2918746681
 10
121.9550587495
 20
212.0345075261
 10
122.6550803663
 20
210.7289956907
 10
123.2634991005
 20
209.3916875308
 10
123.7726962508
 20
208.0393311464
 10
124.1762938136
 20
206.688863349
 10
124.4692381183
 20
205.3571971194
 10
124.6478590965
 20
204.0610109656
 10
124.7099209895
 20
202.816536378
 10
124.7099703803
 20
202.7814360772
  0
LWPOLYLINE
  5
E4
330
1F
100
AcDbEntity
  8
0
  6
SLD-実線
 62
     7
370
    25
100
AcDbPolyline
 90
       33
 70
   128
 43
0.0
 10
110.7795798518
 20
189.1857590183
 10
110.3436464365
 20
188.3581364473
 10
109.9317314566
 20
187.3858326069
 10
109.6217397394
 20
186.4083661161
 10
109.4209370066
 20
185.4486478994
 10
109.334030205
 20
184.5291731242
 10
109.3630558834
 20
183.6714931891
 10
109.5073340948
 20
182.8957116837
 10
109.7634828837
 20
182.220011997
 10
110.1254982999
 20
181.6602320925
 10
110.5848953267
 20
181.2294930326
 10
111.1309057735
 20
180.9378902123
 10
111.7507318157
 20
180.7922593025
 10
112.4298451382
 20
180.7960137683
 10
113.1523279794
 20
180.9490649409
 10
113.9012458262
 20
181.2478257614
 10
114.659044763
 20
181.6852937758
 10
115.4079626097
 20
182.251215096
 10
116.1304454509
 20
182.9323248561
 10
116.8095587734
 20
183.7126579427
 10
117.4293848156
 20
184.5739247682
 10
117.9753952625
 20
185.4959378317
 10
118.4347922892
 20
186.4570854086
 10
118.7968077054
 20
187.4348394158
 10
119.0529564943
 20
188.4062821992
 10
119.1972347057
 20
189.3486437817
 10
119.2262603841
 20
190.2398360517
 10
119.1393535825
 20
191.0589703696
 10
118.9385508497
 20
191.7868466859
 10
118.6285591325
 20
192.4064043584
 10
118.2166441526
 20
192.903121286
 10
117.7124611602
 20
193.2653550167
 10
117.2610098022
 20
193.4494510707
  0
LWPOLYLINE
  5
E5
330
1F
100
AcDbEntity
  8
0
  6
SLD-実線
 62
     7
370
    25
100
AcDbPolyline
 90
       32
 70
   128
 43
0.0
 10
118.2917129582
 20
194.0444631477
 10
118.7552436688
 20
193.56015023
 10
119.1328560531
 20
192.9300125463
 10
119.3995059928
 20
192.1813659923
 10
119.5495102486
 20
191.3301665633
 10
119.5796722456
 20
190.3945565184
 10
119.4893482565
 20
189.3944761818
 10
119.2804635362
 20
188.3512406012
 10
118.9574708334
 20
187.2870848421
 10
118.5272532552
 20
186.2246893496
 10
117.998981034
 20
185.1866973767
 10
117.3839123173
 20
184.1952316335
 10
116.6951574093
 20
183.2714237734
 10
115.9473949378
 20
182.4349628947
 10
115.1565626676
 20
181.7036771246
 10
114.3395157161
 20
181.0931522796
 10
113.5136679759
 20
180.6164005271
 10
112.6966210245
 20
180.2835830416
 10
111.9057887543
 20
180.1017933079
 10
111.1580262827
 20
180.0749060138
 10
110.4692713747
 20
180.2034943838
 10
109.854202658
 20
180.4848169026
 10
109.3259304368
 20
180.9128787516
 10
108.8957128586
 20
181.4785556013
 10
108.5727201558
 20
182.1697919235
 10
108.3638354355
 20
182.9718543396
 10
108.2735114464
 20
183.8676488181
 10
108.3036734434
 20
184.8380831635
 10
108.4536776993
 20
185.8624738199
 10
108.7203276389
 20
186.918987841
 10
109.0979400232
 20
187.9851075035
 10
109.1780078402
 20
188.1783959691
  0
SPLINE
  5
E6
330
1F
100
AcDbEntity
  8
0
  6
SLD-実線
 62
     7
370
    25
100
AcDbSpline
210
0.0
220
0.0
230
1.0
 70
     8
 71
     3
 72
    10
 73
     6
 74
     0
 42
0.000000001
 43
0.00000001
 40
0.0
 40
0.0
 40
0.0
 40
0.0
 40
0.1519602979038552
 40
0.5011962457842419
 40
1.0
 40
1.0
 40
1.0
 40
1.0
 10
118.4468153363065
 20
190.5669218497573
 30
0.0
 10
118.4460285640048
 20
190.5673571385145
 30
0.0
 10
118.4434336275024
 20
190.56879281016
 30
0.0
 10
118.4360641461769
 20
190.5663463552981
 30
0.0
 10
118.4300453357529
 20
190.5631031636484
 30
0.0
 10
118.4265051651359
 20
190.5611955687959
 30
0.0
  0
SPLINE
  5
E7
330
1F
100
AcDbEntity
  8
0
  6
SLD-実線
 62
     7
370
    25
100
AcDbSpline
210
0.0
220
0.0
230
1.0
 70
     8
 71
     3
 72
     9
 73
     5
 74
     0
 42
0.000000001
 43
0.00000001
 40
0.0
 40
0.0
 40
0.0
 40
0.0
 40
0.4352472362802388
 40
1.0
 40
1.0
 40
1.0
 40
1.0
 10
118.4265051651359
 20
190.5611955687959
 30
0.0
 10
118.4142683584355
 20
190.5550565504905
 30
0.0
 10
118.3861537475193
 20
190.5409518812503
 30
0.0
 10
118.3585858911319
 20
190.5318248331968
 30
0.0
 10
118.3430168680473
 20
190.5266703075839
 30
0.0
  0
SPLINE
  5
E8
330
1F
100
AcDbEntity
  8
0
  6
SLD-実線
 62
     7
370
    25
100
AcDbSpline
210
0.0
220
0.0
230
1.0
 70
     8
 71
     3
 72
     9
 73
     5
 74
     0
 42
0.000000001
 43
0.00000001
 40
0.0
 40
0.0
 40
0.0
 40
0.0
 40
0.5060474499364245
 40
1.0
 40
1.0
 40
1.0
 40
1.0
 10
118.3430168680473
 20
190.5266703075839
 30
0.0
 10
118.3059424984897
 20
190.5138893205342
 30
0.0
 10
118.2326798636076
 20
190.4886328212646
 30
0.0
 10
118.1579612384976
 20
190.4468972119146
 30
0.0
 10
118.1210537830872
 20
190.4262818012477
 30
0.0
  0
SPLINE
  5
E9
330
1F
100
AcDbEntity
  8
0
  6
SLD-実線
 62
     7
370
    25
100
AcDbSpline
210
0.0
220
0.0
230
1.0
 70
     8
 71
     3
 72
    12
 73
     8
 74
     0
 42
0.000000001
 43
0.00000001
 40
0.0
 40
0.0
 40
0.0
 40
0.0
 40
0.2564402968420129
 40
0.4834588899363456
 40
0.6919195567930295
 40
0.9315088192786021
 40
1.0
 40
1.0
 40
1.0
 40
1.0
 10
118.1210537830872
 20
190.4262818012477
 30
0.0
 10
118.0681310664078
 20
190.3922375827318
 30
0.0
 10
117.9683575199982
 20
190.3280550798447
 30
0.0
 10
117.8321889827745
 20
190.1899652797873
 30
0.0
 10
117.7229744903222
 20
190.0270120606683
 30
0.0
 10
117.6573720080705
 20
189.8833967335519
 30
0.0
 10
117.6488720785217
 20
189.8055509475628
 30
0.0
 10
117.6469824090419
 20
189.7882445916608
 30
0.0
  0
SPLINE
  5
EA
330
1F
100
AcDbEntity
  8
0
  6
SLD-実線
 62
     7
370
    25
100
AcDbSpline
210
0.0
220
0.0
230
1.0
 70
     8
 71
     3
 72
    10
 73
     6
 74
     0
 42
0.000000001
 43
0.00000001
 40
0.0
 40
0.0
 40
0.0
 40
0.0
 40
0.2880704485960511
 40
0.6085282851597652
 40
1.0
 40
1.0
 40
1.0
 40
1.0
 10
117.627314977311
 20
189.6450284608167
 30
0.0
 10
117.630256997144
 20
189.5944612429373
 30
0.0
 10
117.6364718042948
 20
189.487641600272
 30
0.0
 10
117.702915599634
 20
189.3556361228718
 30
0.0
 10
117.7861321849916
 20
189.3161678722842
 30
0.0
 10
117.8318908408991
 20
189.2944652983304
 30
0.0
  0
SPLINE
  5
EB
330
1F
100
AcDbEntity
  8
0
  6
SLD-実線
 62
     7
370
    25
100
AcDbSpline
210
0.0
220
0.0
230
1.0
 70
     8
 71
     3
 72
     9
 73
     5
 74
     0
 42
0.000000001
 43
0.00000001
 40
0.0
 40
0.0
 40
0.0
 40
0.0
 40
0.4562377319193267
 40
1.0
 40
1.0
 40
1.0
 40
1.0
 10
118.2774986042204
 20
189.0309513200077
 30
0.0
 10
118.2894707524977
 20
189.0080427918104
 30
0.0
 10
118.3157117830827
 20
188.9578309689063
 30
0.0
 10
118.3179474160347
 20
188.8869598556705
 30
0.0
 10
118.3191630688792
 20
188.8484228183959
 30
0.0
  0
SPLINE
  5
EC
330
1F
100
AcDbEntity
  8
0
  6
SLD-実線
 62
     7
370
    25
100
AcDbSpline
210
0.0
220
0.0
230
1.0
 70
     8
 71
     3
 72
    11
 73
     7
 74
     0
 42
0.000000001
 43
0.00000001
 40
0.0
 40
0.0
 40
0.0
 40
0.0
 40
0.2507460400238493
 40
0.512505084171294
 40
0.737274396748445
 40
1.0
 40
1.0
 40
1.0
 40
1.0
 10
118.3191630688792
 20
188.8484228183959
 30
0.0
 10
118.3139361617217
 20
188.7950538541742
 30
0.0
 10
118.3032527766823
 20
188.6859719101563
 30
0.0
 10
118.2230415209769
 20
188.5169390976399
 30
0.0
 10
118.1086749512812
 20
188.3728240312739
 30
0.0
 10
118.023717241227
 20
188.3157147594277
 30
0.0
 10
117.9779309880784
 20
188.2849368632695
 30
0.0
  0
SPLINE
  5
ED
330
1F
100
AcDbEntity
  8
0
  6
SLD-実線
 62
     7
370
    25
100
AcDbSpline
210
0.0
220
0.0
230
1.0
 70
     8
 71
     3
 72
    11
 73
     7
 74
     0
 42
0.000000001
 43
0.00000001
 40
0.0
 40
0.0
 40
0.0
 40
0.0
 40
0.0488189947777795
 40
0.3180764950178927
 40
0.6259764319858969
 40
1.0
 40
1.0
 40
1.0
 40
1.0
 10
117.6129168894607
 20
188.4832180384154
 30
0.0
 10
117.6127855759655
 20
188.48333714118
 30
0.0
 10
117.6119300127469
 20
188.4841131463004
 30
0.0
 10
117.6093769203083
 20
188.4841238975015
 30
0.0
 10
117.6053808645521
 20
188.4831089678122
 30
0.0
 10
117.6023855732774
 20
188.4814729806117
 30
0.0
 10
117.6007427064139
 20
188.4805756691603
 30
0.0
  0
SPLINE
  5
EE
330
1F
100
AcDbEntity
  8
0
  6
SLD-実線
 62
     7
370
    25
100
AcDbSpline
210
0.0
220
0.0
230
1.0
 70
     8
 71
     3
 72
    13
 73
     9
 74
     0
 42
0.000000001
 43
0.00000001
 40
0.0
 40
0.0
 40
0.0
 40
0.0
 40
0.0887711014351385
 40
0.1721713266810358
 40
0.2604976832236208
 40
0.3626421759072044
 40
0.6297200836148497
 40
1.0
 40
1.0
 40
1.0
 40
1.0
 10
117.6007427064139
 20
188.4805756691603
 30
0.0
 10
117.5993594824577
 20
188.4796683597015
 30
0.0
 10
117.5966767230935
 20
188.4779086353012
 30
0.0
 10
117.5929747766091
 20
188.4736284961012
 30
0.0
 10
117.589952414181
 20
188.4683554819916
 30
0.0
 10
117.586429514557
 20
188.459144404756
 30
0.0
 10
117.5835574646042
 20
188.444521169555
 30
0.0
 10
117.5825566245814
 20
188.432609213997
 30
0.0
 10
117.5819751757532
 20
188.4256888346727
 30
0.0
  0
SPLINE
  5
EF
330
1F
100
AcDbEntity
  8
0
  6
SLD-実線
 62
     7
370
    25
100
AcDbSpline
210
0.0
220
0.0
230
1.0
 70
     8
 71
     3
 72
     9
 73
     5
 74
     0
 42
0.000000001
 43
0.00000001
 40
0.0
 40
0.0
 40
0.0
 40
0.0
 40
0.4438095961024555
 40
1.0
 40
1.0
 40
1.0
 40
1.0
 10
117.5819751757532
 20
188.4256888346727
 30
0.0
 10
117.578982115449
 20
188.380809135415
 30
0.0
 10
117.5722380965488
 20
188.2796853660062
 30
0.0
 10
117.5707746465792
 20
188.1813061023587
 30
0.0
 10
117.5699606897495
 20
188.1265884999754
 30
0.0
  0
SPLINE
  5
F0
330
1F
100
AcDbEntity
  8
0
  6
SLD-実線
 62
     7
370
    25
100
AcDbSpline
210
0.0
220
0.0
230
1.0
 70
     8
 71
     3
 72
    10
 73
     6
 74
     0
 42
0.000000001
 43
0.00000001
 40
0.0
 40
0.0
 40
0.0
 40
0.0
 40
0.536648910233051
 40
0.8604893705402891
 40
0.9999999999999999
 40
0.9999999999999999
 40
0.9999999999999999
 40
0.9999999999999999
 10
117.5699606897495
 20
188.1265884999754
 30
0.0
 10
117.5700461618405
 20
188.110503929001
 30
0.0
 10
117.570183212013
 20
188.0847131334002
 30
0.0
 10
117.5731269808593
 20
188.0541320801779
 30
0.0
 10
117.5818000746688
 20
188.0488282526745
 30
0.0
 10
117.5844114611604
 20
188.0472313203916
 30
0.0
  0
SPLINE
  5
F1
330
1F
100
AcDbEntity
  8
0
  6
SLD-実線
 62
     7
370
    25
100
AcDbSpline
210
0.0
220
0.0
230
1.0
 70
     8
 71
     3
 72
    11
 73
     7
 74
     0
 42
0.000000001
 43
0.00000001
 40
0.0
 40
0.0
 40
0.0
 40
0.0
 40
0.0341003470318654
 40
0.1714042874043728
 40
0.5196837681370435
 40
1.0
 40
1.0
 40
1.0
 40
1.0
 10
115.3236652907024
 20
188.7639275872282
 30
0.0
 10
115.323408795679
 20
188.7641398554127
 30
0.0
 10
115.3221195317702
 20
188.7652068145513
 30
0.0
 10
115.3165503178374
 20
188.7654355469278
 30
0.0
 10
115.3054167594827
 20
188.762172771892
 30
0.0
 10
115.2955973308764
 20
188.7566908560236
 30
0.0
 10
115.2899052534549
 20
188.7535131263621
 30
0.0
  0
SPLINE
  5
F2
330
1F
100
AcDbEntity
  8
0
  6
SLD-実線
 62
     7
370
    25
100
AcDbSpline
210
0.0
220
0.0
230
1.0
 70
     8
 71
     3
 72
    10
 73
     6
 74
     0
 42
0.000000001
 43
0.00000001
 40
0.0
 40
0.0
 40
0.0
 40
0.0
 40
0.6680349662956325
 40
0.9104990236071847
 40
1.0
 40
1.0
 40
1.0
 40
1.0
 10
115.2899052534549
 20
188.7535131263621
 30
0.0
 10
115.2377657534693
 20
188.7220432889109
 30
0.0
 10
115.1667021621554
 20
188.6791514378583
 30
0.0
 10
115.088721836914
 20
188.6298726471384
 30
0.0
 10
115.0628224826307
 20
188.6138888500751
 30
0.0
 10
115.0558397667993
 20
188.6095794641508
 30
0.0
  0
SPLINE
  5
F3
330
1F
100
AcDbEntity
  8
0
  6
SLD-実線
 62
     7
370
    25
100
AcDbSpline
210
0.0
220
0.0
230
1.0
 70
     8
 71
     3
 72
    10
 73
     6
 74
     0
 42
0.000000001
 43
0.00000001
 40
0.0
 40
0.0
 40
0.0
 40
0.0
 40
0.1891538061377747
 40
0.4708997817033925
 40
1.0
 40
1.0
 40
1.0
 40
1.0
 10
115.0558397667993
 20
188.6095794641508
 30
0.0
 10
115.0406645496967
 20
188.6014907022714
 30
0.0
 10
115.0028857359003
 20
188.5813536705035
 30
0.0
 10
114.9226747992142
 20
188.5391369383696
 30
0.0
 10
114.8575833433067
 20
188.5029997861235
 30
0.0
 10
114.8151093158146
 20
188.4794192658142
 30
0.0
  0
SPLINE
  5
F4
330
1F
100
AcDbEntity
  8
0
  6
SLD-実線
 62
     7
370
    25
100
AcDbSpline
210
0.0
220
0.0
230
1.0
 70
     8
 71
     3
 72
    13
 73
     9
 74
     0
 42
0.000000001
 43
0.00000001
 40
0.0
 40
0.0
 40
0.0
 40
0.0
 40
0.3558572994504892
 40
0.6127718499000142
 40
0.7137304011479767
 40
0.8053450727865594
 40
0.8975179779846015
 40
1.0
 40
1.0
 40
1.0
 40
1.0
 10
114.8151093158146
 20
188.4794192658142
 30
0.0
 10
114.8093961052509
 20
188.47598732849
 30
0.0
 10
114.7995581881661
 20
188.4700776714839
 30
0.0
 10
114.7881520788424
 20
188.4605556228367
 30
0.0
 10
114.78191610965
 20
188.4525610196325
 30
0.0
 10
114.7788515770842
 20
188.4467547810159
 30
0.0
 10
114.7770480772425
 20
188.4407041428692
 30
0.0
 10
114.7768759702866
 20
188.4369777292812
 30
0.0
 10
114.7767853593316
 20
188.4350158452188
 30
0.0
  0
SPLINE
  5
F5
330
1F
100
AcDbEntity
  8
0
  6
SLD-実線
 62
     7
370
    25
100
AcDbSpline
210
0.0
220
0.0
230
1.0
 70
     8
 71
     3
 72
    10
 73
     6
 74
     0
 42
0.000000001
 43
0.00000001
 40
0.0
 40
0.0
 40
0.0
 40
0.0
 40
0.5013228257373907
 40
0.9722858596503403
 40
1.0
 40
1.0
 40
1.0
 40
1.0
 10
114.7767853593316
 20
188.4350158452188
 30
0.0
 10
114.7769797749019
 20
188.4332339496833
 30
0.0
 10
114.777356832359
 20
188.4297780690738
 30
0.0
 10
114.7791156748438
 20
188.427262362701
 30
0.0
 10
114.7804347226232
 20
188.4268917717
 30
0.0
 10
114.7805080291172
 20
188.4268711759889
 30
0.0
  0
SPLINE
  5
F6
330
1F
100
AcDbEntity
  8
0
  6
SLD-実線
 62
     7
370
    25
100
AcDbSpline
210
0.0
220
0.0
230
1.0
 70
     8
 71
     3
 72
     9
 73
     5
 74
     0
 42
0.000000001
 43
0.00000001
 40
0.0
 40
0.0
 40
0.0
 40
0.0
 40
0.3089134039668749
 40
1.0
 40
1.0
 40
1.0
 40
1.0
 10
114.9514865159512
 20
188.3281012789064
 30
0.0
 10
114.9528777552466
 20
188.2702679613294
 30
0.0
 10
114.9573814099198
 20
188.0830526549216
 30
0.0
 10
114.9562768571981
 20
187.8925187809406
 30
0.0
 10
114.9555135156175
 20
187.7608433745421
 30
0.0
  0
LINE
  5
F7
330
1F
100
AcDbEntity
  8
0
  6
SLD-実線
 62
     7
370
    25
100
AcDbLine
 10
114.9555135156
 20
187.7608433745
 30
0.0
 11
114.9555135156
 21
187.2761642045
 31
0.0
  0
SPLINE
  5
F8
330
1F
100
AcDbEntity
  8
0
  6
SLD-実線
 62
     7
370
    25
100
AcDbSpline
210
0.0
220
0.0
230
1.0
 70
     8
 71
     3
 72
     9
 73
     5
 74
     0
 42
0.000000001
 43
0.00000001
 40
0.0
 40
0.0
 40
0.0
 40
0.0
 40
0.6532696459763657
 40
1.0
 40
1.0
 40
1.0
 40
1.0
 10
114.9555135156175
 20
187.2761642044615
 30
0.0
 10
114.9565801810523
 20
187.1464152657691
 30
0.0
 10
114.9582129913955
 20
186.9478005903565
 30
0.0
 10
114.9475476887325
 20
186.7425096305338
 30
0.0
 10
114.9438497045643
 20
186.6713290233567
 30
0.0
  0
SPLINE
  5
F9
330
1F
100
AcDbEntity
  8
0
  6
SLD-実線
 62
     7
370
    25
100
AcDbSpline
210
0.0
220
0.0
230
1.0
 70
     8
 71
     3
 72
    10
 73
     6
 74
     0
 42
0.000000001
 43
0.00000001
 40
0.0
 40
0.0
 40
0.0
 40
0.0
 40
0.6278754837508286
 40
0.8145610431596377
 40
1.0
 40
1.0
 40
1.0
 40
1.0
 10
114.9438497045643
 20
186.6713290233567
 30
0.0
 10
114.9397511526733
 20
186.6305611203975
 30
0.0
 10
114.9344339826448
 20
186.5776717395868
 30
0.0
 10
114.9030441954446
 20
186.5073783608743
 30
0.0
 10
114.8840391331437
 20
186.4889946721916
 30
0.0
 10
114.8745684351007
 20
186.4798336201691
 30
0.0
  0
SPLINE
  5
FA
330
1F
100
AcDbEntity
  8
0
  6
SLD-実線
 62
     7
370
    25
100
AcDbSpline
210
0.0
220
0.0
230
1.0
 70
     8
 71
     3
 72
     9
 73
     5
 74
     0
 42
0.000000001
 43
0.00000001
 40
0.0
 40
0.0
 40
0.0
 40
0.0
 40
0.5665792624831741
 40
1.0
 40
1.0
 40
1.0
 40
1.0
 10
114.8745684351007
 20
186.4798336201691
 30
0.0
 10
114.8611770945378
 20
186.4688752981033
 30
0.0
 10
114.8375416714827
 20
186.4495340994547
 30
0.0
 10
114.8134491813006
 20
186.4340096373741
 30
0.0
 10
114.8030069964372
 20
186.4272810135696
 30
0.0
  0
SPLINE
  5
FB
330
1F
100
AcDbEntity
  8
0
  6
SLD-実線
 62
     7
370
    25
100
AcDbSpline
210
0.0
220
0.0
230
1.0
 70
     8
 71
     3
 72
    12
 73
     8
 74
     0
 42
0.000000001
 43
0.00000001
 40
0.0
 40
0.0
 40
0.0
 40
0.0
 40
0.2619404442335202
 40
0.4696601902387936
 40
0.6420889970065173
 40
0.8236187315194108
 40
1.0
 40
1.0
 40
1.0
 40
1.0
 10
114.8030069964372
 20
186.4272810135696
 30
0.0
 10
114.8006348125218
 20
186.4257870247179
 30
0.0
 10
114.7963814779433
 20
186.4231082971534
 30
0.0
 10
114.7908096825361
 20
186.4176482845141
 30
0.0
 10
114.7867115654815
 20
186.4116834964382
 30
0.0
 10
114.7841356036189
 20
186.4052837660216
 30
0.0
 10
114.7838528417249
 20
186.401364834994
 30
0.0
 10
114.7837134945098
 20
186.3994335559332
 30
0.0
  0
SPLINE
  5
FC
330
1F
100
AcDbEntity
  8
0
  6
SLD-実線
 62
     7
370
    25
100
AcDbSpline
210
0.0
220
0.0
230
1.0
 70
     8
 71
     3
 72
    10
 73
     6
 74
     0
 42
0.000000001
 43
0.00000001
 40
0.0
 40
0.0
 40
0.0
 40
0.0
 40
0.3967263733666644
 40
0.754968730781742
 40
1.0
 40
1.0
 40
1.0
 40
1.0
 10
114.7837134945098
 20
186.3994335559332
 30
0.0
 10
114.7838152239008
 20
186.3976140925589
 30
0.0
 10
114.7840088145324
 20
186.3941516609019
 30
0.0
 10
114.7855750126665
 20
186.3905049661896
 30
0.0
 10
114.787328438122
 20
186.3894780238727
 30
0.0
 10
114.7880406258356
 20
186.3890609113583
 30
0.0
  0
SPLINE
  5
FD
330
1F
100
AcDbEntity
  8
0
  6
SLD-実線
 62
     7
370
    25
100
AcDbSpline
210
0.0
220
0.0
230
1.0
 70
     8
 71
     3
 72
    11
 73
     7
 74
     0
 42
0.000000001
 43
0.00000001
 40
0.0
 40
0.0
 40
0.0
 40
0.0
 40
0.0340958102103761
 40
0.1714037739220476
 40
0.5196880158500845
 40
0.9999999999999999
 40
0.9999999999999999
 40
0.9999999999999999
 40
0.9999999999999999
 10
110.6753302805135
 20
186.0805009041891
 30
0.0
 10
110.6750738713733
 20
186.0807132254362
 30
0.0
 10
110.6737848715222
 20
186.0817805901014
 30
0.0
 10
110.6682151445459
 20
186.0820084986859
 30
0.0
 10
110.6570818836863
 20
186.0787462600672
 30
0.0
 10
110.6472623880152
 20
186.0732642468589
 30
0.0
 10
110.641570325584
 20
186.0700864908442
 30
0.0
  0
SPLINE
  5
FE
330
1F
100
AcDbEntity
  8
0
  6
SLD-実線
 62
     7
370
    25
100
AcDbSpline
210
0.0
220
0.0
230
1.0
 70
     8
 71
     3
 72
    10
 73
     6
 74
     0
 42
0.000000001
 43
0.00000001
 40
0.0
 40
0.0
 40
0.0
 40
0.0
 40
0.6607605880893315
 40
0.9097934919352916
 40
1.0
 40
1.0
 40
1.0
 40
1.0
 10
110.641570325584
 20
186.0700864908442
 30
0.0
 10
110.5847868806274
 20
186.0358897190651
 30
0.0
 10
110.5066024222889
 20
185.9888045857043
 30
0.0
 10
110.4207208599818
 20
185.9351128841667
 30
0.0
 10
110.3915763130288
 20
185.9172369850897
 30
0.0
 10
110.3838265418717
 20
185.9124836386989
 30
0.0
  0
SPLINE
  5
FF
330
1F
100
AcDbEntity
  8
0
  6
SLD-実線
 62
     7
370
    25
100
AcDbSpline
210
0.0
220
0.0
230
1.0
 70
     8
 71
     3
 72
    10
 73
     6
 74
     0
 42
0.000000001
 43
0.00000001
 40
0.0
 40
0.0
 40
0.0
 40
0.0
 40
0.17256206661773
 40
0.4394591810126278
 40
1.0
 40
1.0
 40
1.0
 40
1.0
 10
110.3838265418717
 20
185.9124836386989
 30
0.0
 10
110.3683142195402
 20
185.9042055459495
 30
0.0
 10
110.3288094048321
 20
185.8831239494475
 30
0.0
 10
110.238923951259
 20
185.8355258081521
 30
0.0
 10
110.1644915456014
 20
185.7938194596952
 30
0.0
 10
110.1140679428835
 20
185.7655658472153
 30
0.0
  0
SPLINE
  5
100
330
1F
100
AcDbEntity
  8
0
  6
SLD-実線
 62
     7
370
    25
100
AcDbSpline
210
0.0
220
0.0
230
1.0
 70
     8
 71
     3
 72
    13
 73
     9
 74
     0
 42
0.000000001
 43
0.00000001
 40
0.0
 40
0.0
 40
0.0
 40
0.0
 40
0.3556546713951426
 40
0.6122596595136062
 40
0.7131515097297351
 40
0.8048203908799432
 40
0.8972000824602341
 40
1.0
 40
1.0
 40
1.0
 40
1.0
 10
110.1140679428835
 20
185.7655658472153
 30
0.0
 10
110.1083761826204
 20
185.7621466908346
 30
0.0
 10
110.0985778150437
 20
185.7562606117533
 30
0.0
 10
110.0872178209642
 20
185.7467632834954
 30
0.0
 10
110.0810151089773
 20
185.7387865602524
 30
0.0
 10
110.077969948351
 20
185.7329896510888
 30
0.0
 10
110.0761798642114
 20
185.7269484217677
 30
0.0
 10
110.0760092885305
 20
185.7232248832488
 30
0.0
 10
110.0759194473528
 20
185.7212637180716
 30
0.0
  0
SPLINE
  5
101
330
1F
100
AcDbEntity
  8
0
  6
SLD-実線
 62
     7
370
    25
100
AcDbSpline
210
0.0
220
0.0
230
1.0
 70
     8
 71
     3
 72
    10
 73
     6
 74
     0
 42
0.000000001
 43
0.00000001
 40
0.0
 40
0.0
 40
0.0
 40
0.0
 40
0.4987293498331727
 40
0.9661298770085238
 40
1.0
 40
1.0
 40
1.0
 40
1.0
 10
110.0759194473528
 20
185.7212637180716
 30
0.0
 10
110.0761112884862
 20
185.7194802233201
 30
0.0
 10
110.0764829198143
 20
185.7160252681116
 30
0.0
 10
110.0782400886582
 20
185.7134910345775
 30
0.0
 10
110.0795691871076
 20
185.7131095121724
 30
0.0
 10
110.0796589923414
 20
185.7130837332628
 30
0.0
  0
SPLINE
  5
102
330
1F
100
AcDbEntity
  8
0
  6
SLD-実線
 62
     7
370
    25
100
AcDbSpline
210
0.0
220
0.0
230
1.0
 70
     8
 71
     3
 72
     9
 73
     5
 74
     0
 42
0.000000001
 43
0.00000001
 40
0.0
 40
0.0
 40
0.0
 40
0.0
 40
0.2652627489294137
 40
1.0
 40
1.0
 40
1.0
 40
1.0
 10
110.2798934012606
 20
185.5974109914723
 30
0.0
 10
110.2810603782191
 20
185.5507266279668
 30
0.0
 10
110.2854597029008
 20
185.3747337164332
 30
0.0
 10
110.2842794843631
 20
185.1954345496226
 30
0.0
 10
110.283412333839
 20
185.063696772681
 30
0.0
  0
LINE
  5
103
330
1F
100
AcDbEntity
  8
0
  6
SLD-実線
 62
     7
370
    25
100
AcDbLine
 10
110.2834123338
 20
185.0636967727
 30
0.0
 11
110.2834123338
 21
184.5790176026
 31
0.0
  0
SPLINE
  5
104
330
1F
100
AcDbEntity
  8
0
  6
SLD-実線
 62
     7
370
    25
100
AcDbSpline
210
0.0
220
0.0
230
1.0
 70
     8
 71
     3
 72
     9
 73
     5
 74
     0
 42
0.000000001
 43
0.00000001
 40
0.0
 40
0.0
 40
0.0
 40
0.0
 40
0.6532599491607005
 40
0.9999999999999999
 40
0.9999999999999999
 40
0.9999999999999999
 40
0.9999999999999999
 10
110.283412333839
 20
184.5790176026004
 30
0.0
 10
110.2844949715318
 20
184.4492760659686
 30
0.0
 10
110.2861522561919
 20
184.2506697733304
 30
0.0
 10
110.2753269256197
 20
184.0452934820484
 30
0.0
 10
110.2715733499467
 20
183.9740812963681
 30
0.0
  0
SPLINE
  5
105
330
1F
100
AcDbEntity
  8
0
  6
SLD-実線
 62
     7
370
    25
100
AcDbSpline
210
0.0
220
0.0
230
1.0
 70
     8
 71
     3
 72
    10
 73
     6
 74
     0
 42
0.000000001
 43
0.00000001
 40
0.0
 40
0.0
 40
0.0
 40
0.0
 40
0.6277756281814826
 40
0.8146059642571208
 40
1.0
 40
1.0
 40
1.0
 40
1.0
 10
110.2715733499467
 20
183.9740812963681
 30
0.0
 10
110.2675628430639
 20
183.9333512376375
 30
0.0
 10
110.2623587818042
 20
183.8804996338525
 30
0.0
 10
110.2309273758948
 20
183.8102356830724
 30
0.0
 10
110.2119295801585
 20
183.7918462852176
 30
0.0
 10
110.2024673356403
 20
183.7826870658292
 30
0.0
  0
SPLINE
  5
106
330
1F
100
AcDbEntity
  8
0
  6
SLD-実線
 62
     7
370
    25
100
AcDbSpline
210
0.0
220
0.0
230
1.0
 70
     8
 71
     3
 72
     9
 73
     5
 74
     0
 42
0.000000001
 43
0.00000001
 40
0.0
 40
0.0
 40
0.0
 40
0.0
 40
0.5659393691233758
 40
1.0
 40
1.0
 40
1.0
 40
1.0
 10
110.2024673356403
 20
183.7826870658292
 30
0.0
 10
110.1890415396643
 20
183.7717084260984
 30
0.0
 10
110.1653185108232
 20
183.7523094580644
 30
0.0
 10
110.14113845841
 20
183.7367404839433
 30
0.0
 10
110.1306428496049
 20
183.7299826052142
 30
0.0
  0
SPLINE
  5
107
330
1F
100
AcDbEntity
  8
0
  6
SLD-実線
 62
     7
370
    25
100
AcDbSpline
210
0.0
220
0.0
230
1.0
 70
     8
 71
     3
 72
    12
 73
     8
 74
     0
 42
0.000000001
 43
0.00000001
 40
0.0
 40
0.0
 40
0.0
 40
0.0
 40
0.2610416528453584
 40
0.4677484957486121
 40
0.6397221593954207
 40
0.8219361340370777
 40
1.0
 40
1.0
 40
1.0
 40
1.0
 10
110.1306428496049
 20
183.7299826052142
 30
0.0
 10
110.1283026849427
 20
183.7285075882544
 30
0.0
 10
110.1241094518374
 20
183.7258645734075
 30
0.0
 10
110.1186221253619
 20
183.7204499118237
 30
0.0
 10
110.1146027798562
 20
183.7145186423799
 30
0.0
 10
110.1121043318706
 20
183.7081606471505
 30
0.0
 10
110.1118338360628
 20
183.704263691928
 30
0.0
 10
110.111700146105
 20
183.7023376591995
 30
0.0
  0
SPLINE
  5
108
330
1F
100
AcDbEntity
  8
0
  6
SLD-実線
 62
     7
370
    25
100
AcDbSpline
210
0.0
220
0.0
230
1.0
 70
     8
 71
     3
 72
    10
 73
     6
 74
     0
 42
0.000000001
 43
0.00000001
 40
0.0
 40
0.0
 40
0.0
 40
0.0
 40
0.3934157844466147
 40
0.7473591294314962
 40
1.0
 40
1.0
 40
1.0
 40
1.0
 10
110.111700146105
 20
183.7023376591995
 30
0.0
 10
110.1117977748046
 20
183.7005166827624
 30
0.0
 10
110.1119832368599
 20
183.6970574332393
 30
0.0
 10
110.1135216378425
 20
183.6933458699817
 30
0.0
 10
110.1152834458278
 20
183.6922774176734
 30
0.0
 10
110.1160172346271
 20
183.6918324098503
 30
0.0
  0
SPLINE
  5
109
330
1F
100
AcDbEntity
  8
0
  6
SLD-実線
 62
     7
370
    25
100
AcDbSpline
210
0.0
220
0.0
230
1.0
 70
     8
 71
     3
 72
    10
 73
     6
 74
     0
 42
0.000000001
 43
0.00000001
 40
0.0
 40
0.0
 40
0.0
 40
0.0
 40
0.1915525016279329
 40
0.5674486742741323
 40
1.0
 40
1.0
 40
1.0
 40
1.0
 10
111.2036811978125
 20
184.6901268715571
 30
0.0
 10
111.2032738021568
 20
184.6904078356786
 30
0.0
 10
111.202066946998
 20
184.6912401543219
 30
0.0
 10
111.1989969713867
 20
184.6907960032788
 30
0.0
 10
111.1964705417227
 20
184.6895023670259
 30
0.0
 10
111.1951188021197
 20
184.6888102205633
 30
0.0
  0
SPLINE
  5
10A
330
1F
100
AcDbEntity
  8
0
  6
SLD-実線
 62
     7
370
    25
100
AcDbSpline
210
0.0
220
0.0
230
1.0
 70
     8
 71
     3
 72
    10
 73
     6
 74
     0
 42
0.000000001
 43
0.00000001
 40
0.0
 40
0.0
 40
0.0
 40
0.0
 40
0.2239732313417811
 40
0.4329573960383626
 40
1.0
 40
1.0
 40
1.0
 40
1.0
 10
111.1951188021197
 20
184.6888102205633
 30
0.0
 10
111.1919314574648
 20
184.6865755810937
 30
0.0
 10
111.1857700763311
 20
184.6822558519904
 30
0.0
 10
111.1759296079644
 20
184.6638626671977
 30
0.0
 10
111.1746533077396
 20
184.6504844319335
 30
0.0
 10
111.1737207154218
 20
184.6407089581135
 30
0.0
  0
SPLINE
  5
10B
330
1F
100
AcDbEntity
  8
0
  6
SLD-実線
 62
     7
370
    25
100
AcDbSpline
210
0.0
220
0.0
230
1.0
 70
     8
 71
     3
 72
     9
 73
     5
 74
     0
 42
0.000000001
 43
0.00000001
 40
0.0
 40
0.0
 40
0.0
 40
0.0
 40
0.555838370066193
 40
1.0
 40
1.0
 40
1.0
 40
1.0
 10
111.1737207154218
 20
184.6407089581135
 30
0.0
 10
111.1667844600478
 20
184.6036982659942
 30
0.0
 10
111.1543055529633
 20
184.5371129165247
 30
0.0
 10
111.1246948546417
 20
184.4695502538338
 30
0.0
 10
111.1115429186116
 20
184.4395415114504
 30
0.0
  0
SPLINE
  5
10C
330
1F
100
AcDbEntity
  8
0
  6
SLD-実線
 62
     7
370
    25
100
AcDbSpline
210
0.0
220
0.0
230
1.0
 70
     8
 71
     3
 72
    10
 73
     6
 74
     0
 42
0.000000001
 43
0.00000001
 40
0.0
 40
0.0
 40
0.0
 40
0.0
 40
0.2391752209479253
 40
0.5021111997932239
 40
1.0
 40
1.0
 40
1.0
 40
1.0
 10
111.1115429186116
 20
184.4395415114504
 30
0.0
 10
111.0929407884124
 20
184.4098544587492
 30
0.0
 10
111.0538885075112
 20
184.347531106058
 30
0.0
 10
110.9507657028145
 20
184.2645169183033
 30
0.0
 10
110.8734956008962
 20
184.219713186286
 30
0.0
 10
110.8229295318154
 20
184.1903933257964
 30
0.0
  0
SPLINE
  5
10D
330
1F
100
AcDbEntity
  8
0
  6
SLD-実線
 62
     7
370
    25
100
AcDbSpline
210
0.0
220
0.0
230
1.0
 70
     8
 71
     3
 72
     9
 73
     5
 74
     0
 42
0.000000001
 43
0.00000001
 40
0.0
 40
0.0
 40
0.0
 40
0.0
 40
0.6532550466423073
 40
1.0
 40
1.0
 40
1.0
 40
1.0
 10
111.6141391480202
 20
185.34722984057
 30
0.0
 10
111.6152296376847
 20
185.2174919174327
 30
0.0
 10
111.6168989545466
 20
185.0188896658248
 30
0.0
 10
111.6059936186299
 20
184.8134707530262
 30
0.0
 10
111.6022122484362
 20
184.7422427816891
 30
0.0
  0
SPLINE
  5
10E
330
1F
100
AcDbEntity
  8
0
  6
SLD-実線
 62
     7
370
    25
100
AcDbSpline
210
0.0
220
0.0
230
1.0
 70
     8
 71
     3
 72
    10
 73
     6
 74
     0
 42
0.000000001
 43
0.00000001
 40
0.0
 40
0.0
 40
0.0
 40
0.0
 40
0.6273497773307345
 40
0.8141056246683257
 40
1.0
 40
1.0
 40
1.0
 40
1.0
 10
111.6022122484362
 20
184.7422427816891
 30
0.0
 10
111.598216883967
 20
184.7015206642779
 30
0.0
 10
111.5930321388622
 20
184.6486759737548
 30
0.0
 10
111.5615672147087
 20
184.5783615673972
 30
0.0
 10
111.5425201594029
 20
184.5599716772825
 30
0.0
 10
111.5330186477102
 20
184.5507979885865
 30
0.0
  0
LINE
  5
10F
330
1F
100
AcDbEntity
  8
0
  6
SLD-実線
 62
     7
370
    25
100
AcDbLine
 10
111.5330186477
 20
184.5507979886
 30
0.0
 11
111.4959106525
 21
184.5216834415
 31
0.0
  0
SPLINE
  5
110
330
1F
100
AcDbEntity
  8
0
  6
SLD-実線
 62
     7
370
    25
100
AcDbSpline
210
0.0
220
0.0
230
1.0
 70
     8
 71
     3
 72
     9
 73
     5
 74
     0
 42
0.000000001
 43
0.00000001
 40
0.0
 40
0.0
 40
0.0
 40
0.0
 40
0.4666965839335188
 40
1.0
 40
1.0
 40
1.0
 40
1.0
 10
112.4577657789741
 20
185.4031656878524
 30
0.0
 10
112.4566402178164
 20
185.4035702764871
 30
0.0
 10
112.4542284556642
 20
185.404437196556
 30
0.0
 10
112.4511189953536
 20
185.4029066861231
 30
0.0
 10
112.4494607095478
 20
185.4020904596808
 30
0.0
  0
SPLINE
  5
111
330
1F
100
AcDbEntity
  8
0
  6
SLD-実線
 62
     7
370
    25
100
AcDbSpline
210
0.0
220
0.0
230
1.0
 70
     8
 71
     3
 72
    13
 73
     9
 74
     0
 42
0.000000001
 43
0.00000001
 40
0.0
 40
0.0
 40
0.0
 40
0.0
 40
0.0932232790027632
 40
0.1783348193787182
 40
0.265294028255786
 40
0.3640932338039307
 40
0.6251347018441948
 40
1.0
 40
1.0
 40
1.0
 40
1.0
 10
112.4494607095478
 20
185.4020904596808
 30
0.0
 10
112.4480369694725
 20
185.4011841064876
 30
0.0
 10
112.4453133747665
 20
185.3994502655981
 30
0.0
 10
112.4414915077429
 20
185.3954775933969
 30
0.0
 10
112.4382802509211
 20
185.39053728144
 30
0.0
 10
112.4343991071295
 20
185.3817694612448
 30
0.0
 10
112.4308082242478
 20
185.3673129612725
 30
0.0
 10
112.4289704711561
 20
185.3552989841608
 30
0.0
 10
112.4278871207385
 20
185.3482167775365
 30
0.0
  0
SPLINE
  5
112
330
1F
100
AcDbEntity
  8
0
  6
SLD-実線
 62
     7
370
    25
100
AcDbSpline
210
0.0
220
0.0
230
1.0
 70
     8
 71
     3
 72
    11
 73
     7
 74
     0
 42
0.000000001
 43
0.00000001
 40
0.0
 40
0.0
 40
0.0
 40
0.0
 40
0.3433809609102533
 40
0.6129867966692978
 40
0.8023280905469689
 40
1.0
 40
1.0
 40
1.0
 40
1.0
 10
112.4278871207385
 20
185.3482167775365
 30
0.0
 10
112.4232200968871
 20
185.3178987010795
 30
0.0
 10
112.4148887555307
 20
185.2637763626734
 30
0.0
 10
112.3903723192424
 20
185.1893340665046
 30
0.0
 10
112.357747133983
 20
185.1307443794017
 30
0.0
 10
112.3330062454488
 20
185.1023592585595
 30
0.0
 10
112.3203695223705
 20
185.0878611975408
 30
0.0
  0
SPLINE
  5
113
330
1F
100
AcDbEntity
  8
0
  6
SLD-実線
 62
     7
370
    25
100
AcDbSpline
210
0.0
220
0.0
230
1.0
 70
     8
 71
     3
 72
     9
 73
     5
 74
     0
 42
0.000000001
 43
0.00000001
 40
0.0
 40
0.0
 40
0.0
 40
0.0
 40
0.8497892294260551
 40
1.0
 40
1.0
 40
1.0
 40
1.0
 10
112.3203695223705
 20
185.0878611975408
 30
0.0
 10
112.2775277117359
 20
185.0504977560444
 30
0.0
 10
112.2271130804942
 20
185.0065298635334
 30
0.0
 10
112.1754296324205
 20
184.9760736929297
 30
0.0
 10
112.1676662218595
 20
184.9714988480746
 30
0.0
  0
SPLINE
  5
114
330
1F
100
AcDbEntity
  8
0
  6
SLD-実線
 62
     7
370
    25
100
AcDbSpline
210
0.0
220
0.0
230
1.0
 70
     8
 71
     3
 72
     9
 73
     5
 74
     0
 42
0.000000001
 43
0.00000001
 40
0.0
 40
0.0
 40
0.0
 40
0.0
 40
0.452854541710374
 40
1.0
 40
1.0
 40
1.0
 40
1.0
 10
112.3637302330457
 20
186.2174685626756
 30
0.0
 10
112.3627578191556
 20
186.21785694828
 30
0.0
 10
112.360610520629
 20
186.2187145870329
 30
0.0
 10
112.3577843167791
 20
186.217259620159
 30
0.0
 10
112.3562379721784
 20
186.216463541642
 30
0.0
  0
SPLINE
  5
115
330
1F
100
AcDbEntity
  8
0
  6
SLD-実線
 62
     7
370
    25
100
AcDbSpline
210
0.0
220
0.0
230
1.0
 70
     8
 71
     3
 72
    11
 73
     7
 74
     0
 42
0.000000001
 43
0.00000001
 40
0.0
 40
0.0
 40
0.0
 40
0.0
 40
0.1139298500637797
 40
0.2519890744594939
 40
0.4262990083894074
 40
1.0
 40
1.0
 40
1.0
 40
1.0
 10
112.3562379721784
 20
186.216463541642
 30
0.0
 10
112.3543971139364
 20
186.2150626336885
 30
0.0
 10
112.350325519316
 20
186.2119641173788
 30
0.0
 10
112.3446380143821
 20
186.2038244003797
 30
0.0
 10
112.3343405558001
 20
186.1865101158205
 30
0.0
 10
112.3264337755776
 20
186.1713399658877
 30
0.0
 10
112.3203695223705
 20
186.1597049352188
 30
0.0
  0
SPLINE
  5
116
330
1F
100
AcDbEntity
  8
0
  6
SLD-実線
 62
     7
370
    25
100
AcDbSpline
210
0.0
220
0.0
230
1.0
 70
     8
 71
     3
 72
    10
 73
     6
 74
     0
 42
0.000000001
 43
0.00000001
 40
0.0
 40
0.0
 40
0.0
 40
0.0
 40
0.2209141216938241
 40
0.4698895128243841
 40
1.0
 40
1.0
 40
1.0
 40
1.0
 10
112.3203695223705
 20
186.1597049352188
 30
0.0
 10
112.31369386535
 20
186.149034331296
 30
0.0
 10
112.2994945864577
 20
186.1263377067416
 30
0.0
 10
112.2601248548218
 20
186.0913752599784
 30
0.0
 10
112.2292796915283
 20
186.0706943145789
 30
0.0
 10
112.2082918325569
 20
186.0566224563329
 30
0.0
  0
LINE
  5
117
330
1F
100
AcDbEntity
  8
0
  6
SLD-実線
 62
     7
370
    25
100
AcDbLine
 10
112.2082918326
 20
186.0566224563
 30
0.0
 11
112.1682574302
 21
186.0326027505
 31
0.0
  0
SPLINE
  5
118
330
1F
100
AcDbEntity
  8
0
  6
SLD-実線
 62
     7
370
    25
100
AcDbSpline
210
0.0
220
0.0
230
1.0
 70
     8
 71
     3
 72
    10
 73
     6
 74
     0
 42
0.000000001
 43
0.00000001
 40
0.0
 40
0.0
 40
0.0
 40
0.0
 40
0.0786252625642341
 40
0.5290960960039185
 40
1.0
 40
1.0
 40
1.0
 40
1.0
 10
112.4017973983297
 20
187.1057743485082
 30
0.0
 10
112.4017107723684
 20
187.1058511375056
 30
0.0
 10
112.4011278368534
 20
187.1063678767498
 30
0.0
 10
112.3994835631439
 20
187.1064806919656
 30
0.0
 10
112.3978515967059
 20
187.10573833095
 30
0.0
 10
112.3970175176546
 20
187.1053589188757
 30
0.0
  0
SPLINE
  5
119
330
1F
100
AcDbEntity
  8
0
  6
SLD-実線
 62
     7
370
    25
100
AcDbSpline
210
0.0
220
0.0
230
1.0
 70
     8
 71
     3
 72
     9
 73
     5
 74
     0
 42
0.000000001
 43
0.00000001
 40
0.0
 40
0.0
 40
0.0
 40
0.0
 40
0.554361041321129
 40
1.0
 40
1.0
 40
1.0
 40
1.0
 10
112.3970175176546
 20
187.1053589188757
 30
0.0
 10
112.3907553540455
 20
187.0995012720436
 30
0.0
 10
112.3794591713373
 20
187.0889347884789
 30
0.0
 10
112.3684920100269
 20
187.0774960858631
 30
0.0
 10
112.3636046156808
 20
187.0723985543409
 30
0.0
  0
SPLINE
  5
11A
330
1F
100
AcDbEntity
  8
0
  6
SLD-実線
 62
     7
370
    25
100
AcDbSpline
210
0.0
220
0.0
230
1.0
 70
     8
 71
     3
 72
     9
 73
     5
 74
     0
 42
0.000000001
 43
0.00000001
 40
0.0
 40
0.0
 40
0.0
 40
0.0
 40
0.4697239760656872
 40
1.0
 40
1.0
 40
1.0
 40
1.0
 10
112.3636046156808
 20
187.0723985543409
 30
0.0
 10
112.3476459938939
 20
187.0598319813702
 30
0.0
 10
112.3136715267597
 20
187.033078880377
 30
0.0
 10
112.2791934330217
 20
187.0108339326658
 30
0.0
 10
112.2609105265615
 20
186.9990379702408
 30
0.0
  0
SPLINE
  5
11B
330
1F
100
AcDbEntity
  8
0
  6
SLD-実線
 62
     7
370
    25
100
AcDbSpline
210
0.0
220
0.0
230
1.0
 70
     8
 71
     3
 72
    11
 73
     7
 74
     0
 42
0.000000001
 43
0.00000001
 40
0.0
 40
0.0
 40
0.0
 40
0.0
 40
0.2299882211667642
 40
0.6096581693371963
 40
0.8752050628537509
 40
1.0
 40
1.0
 40
1.0
 40
1.0
 10
112.2609105265615
 20
186.9990379702408
 30
0.0
 10
112.2190014996495
 20
186.9741443738503
 30
0.0
 10
112.1079080684458
 20
186.9081558448435
 30
0.0
 10
111.9484067788969
 20
186.8160313557065
 30
0.0
 10
111.8080808952519
 20
186.7347114861676
 30
0.0
 10
111.7369449857437
 20
186.6936279364198
 30
0.0
 10
111.7142023518302
 20
186.6804932462437
 30
0.0
  0
LINE
  5
11C
330
1F
100
AcDbEntity
  8
0
  6
SLD-実線
 62
     7
370
    25
100
AcDbLine
 10
111.7142023518
 20
186.6804932462
 30
0.0
 11
111.6165946959
 21
186.6299179345
 31
0.0
  0
SPLINE
  5
11D
330
1F
100
AcDbEntity
  8
0
  6
SLD-実線
 62
     7
370
    25
100
AcDbSpline
210
0.0
220
0.0
230
1.0
 70
     8
 71
     3
 72
     9
 73
     5
 74
     0
 42
0.000000001
 43
0.00000001
 40
0.0
 40
0.0
 40
0.0
 40
0.0
 40
0.5571647914855414
 40
1.0
 40
1.0
 40
1.0
 40
1.0
 10
111.6165946958544
 20
186.629917934477
 30
0.0
 10
111.584678581646
 20
186.6126474340865
 30
0.0
 10
111.527395503648
 20
186.581650320388
 30
0.0
 10
111.4700856585686
 20
186.5484358634847
 30
0.0
 10
111.4447068413729
 20
186.5337273325363
 30
0.0
  0
SPLINE
  5
11E
330
1F
100
AcDbEntity
  8
0
  6
SLD-実線
 62
     7
370
    25
100
AcDbSpline
210
0.0
220
0.0
230
1.0
 70
     8
 71
     3
 72
    13
 73
     9
 74
     0
 42
0.000000001
 43
0.00000001
 40
0.0
 40
0.0
 40
0.0
 40
0.0
 40
0.3547565676086476
 40
0.6117560390275004
 40
0.7129798701984945
 40
0.8048823203092906
 40
0.8973022810224242
 40
1.0
 40
1.0
 40
1.0
 40
1.0
 10
111.4447068413729
 20
186.5337273325363
 30
0.0
 10
111.4390226110077
 20
186.5303113485706
 30
0.0
 10
111.4292205028282
 20
186.5244206928054
 30
0.0
 10
111.4178524480073
 20
186.5149172588966
 30
0.0
 10
111.4116199547158
 20
186.5069293354543
 30
0.0
 10
111.4085485478397
 20
186.5011213640189
 30
0.0
 10
111.4067355960628
 20
186.495065821063
 30
0.0
 10
111.406562084851
 20
186.4913371693984
 30
0.0
 10
111.4064707594227
 20
186.4893746408288
 30
0.0
  0
SPLINE
  5
11F
330
1F
100
AcDbEntity
  8
0
  6
SLD-実線
 62
     7
370
    25
100
AcDbSpline
210
0.0
220
0.0
230
1.0
 70
     8
 71
     3
 72
    10
 73
     6
 74
     0
 42
0.000000001
 43
0.00000001
 40
0.0
 40
0.0
 40
0.0
 40
0.0
 40
0.5019699301304484
 40
0.973765040351883
 40
1.0
 40
1.0
 40
1.0
 40
1.0
 10
111.4064707594227
 20
186.4893746408288
 30
0.0
 10
111.4066652121179
 20
186.4875928322275
 30
0.0
 10
111.4070424284115
 20
186.4841363245357
 30
0.0
 10
111.4088007120149
 20
186.4816242754516
 30
0.0
 10
111.4101169323891
 20
186.4812558893776
 30
0.0
 10
111.4101862675367
 20
186.4812364837345
 30
0.0
  0
SPLINE
  5
120
330
1F
100
AcDbEntity
  8
0
  6
SLD-実線
 62
     7
370
    25
100
AcDbSpline
210
0.0
220
0.0
230
1.0
 70
     8
 71
     3
 72
     9
 73
     5
 74
     0
 42
0.000000001
 43
0.00000001
 40
0.0
 40
0.0
 40
0.0
 40
0.0
 40
0.2647231151347578
 40
1.0
 40
1.0
 40
1.0
 40
1.0
 10
111.6108200837
 20
186.3653502995675
 30
0.0
 10
111.6119200490215
 20
186.3187564672317
 30
0.0
 10
111.6160752030623
 20
186.1427467813678
 30
0.0
 10
111.6149594992464
 20
185.9636181515634
 30
0.0
 10
111.6141391480202
 20
185.8319090106506
 30
0.0
  0
LINE
  5
121
330
1F
100
AcDbEntity
  8
0
  6
SLD-実線
 62
     7
370
    25
100
AcDbLine
 10
111.614139148
 20
185.8319090107
 30
0.0
 11
111.614139148
 21
185.3472298406
 31
0.0
  0
SPLINE
  5
122
330
1F
100
AcDbEntity
  8
0
  6
SLD-実線
 62
     7
370
    25
100
AcDbSpline
210
0.0
220
0.0
230
1.0
 70
     8
 71
     3
 72
     9
 73
     5
 74
     0
 42
0.000000001
 43
0.00000001
 40
0.0
 40
0.0
 40
0.0
 40
0.0
 40
0.6532500949924662
 40
1.0
 40
1.0
 40
1.0
 40
1.0
 10
112.9297816709739
 20
186.1067341025684
 30
0.0
 10
112.9308802269747
 20
185.9769999075024
 30
0.0
 10
112.9325619044963
 20
185.7784018574441
 30
0.0
 10
112.9215763445277
 20
185.5729402325256
 30
0.0
 10
112.9177671026522
 20
185.5016964336025
 30
0.0
  0
SPLINE
  5
123
330
1F
100
AcDbEntity
  8
0
  6
SLD-実線
 62
     7
370
    25
100
AcDbSpline
210
0.0
220
0.0
230
1.0
 70
     8
 71
     3
 72
    10
 73
     6
 74
     0
 42
0.000000001
 43
0.00000001
 40
0.0
 40
0.0
 40
0.0
 40
0.0
 40
0.6271194745454772
 40
0.8138605888827579
 40
1.0
 40
1.0
 40
1.0
 40
1.0
 10
112.9177671026522
 20
185.5016964336025
 30
0.0
 10
112.9138893197878
 20
185.461039735227
 30
0.0
 10
112.9088568263417
 20
185.408276448764
 30
0.0
 10
112.8774097744479
 20
185.3379651561711
 30
0.0
 10
112.8583507884108
 20
185.3195808739145
 30
0.0
 10
112.8488366727752
 20
185.3104035657971
 30
0.0
  0
SPLINE
  5
124
330
1F
100
AcDbEntity
  8
0
  6
SLD-実線
 62
     7
370
    25
100
AcDbSpline
210
0.0
220
0.0
230
1.0
 70
     8
 71
     3
 72
     9
 73
     5
 74
     0
 42
0.000000001
 43
0.00000001
 40
0.0
 40
0.0
 40
0.0
 40
0.0
 40
0.5666046011751232
 40
1.0
 40
1.0
 40
1.0
 40
1.0
 10
112.8488366727752
 20
185.3104035657971
 30
0.0
 10
112.8354279968308
 20
185.2994352532351
 30
0.0
 10
112.811763035557
 20
185.2800772873109
 30
0.0
 10
112.7876416302767
 20
185.2645358937937
 30
0.0
 10
112.7771875242151
 20
185.2578003253521
 30
0.0
  0
SPLINE
  5
125
330
1F
100
AcDbEntity
  8
0
  6
SLD-実線
 62
     7
370
    25
100
AcDbSpline
210
0.0
220
0.0
230
1.0
 70
     8
 71
     3
 72
    13
 73
     9
 74
     0
 42
0.000000001
 43
0.00000001
 40
0.0
 40
0.0
 40
0.0
 40
0.0
 40
0.2036408106115526
 40
0.3730046930301126
 40
0.516439104584765
 40
0.6425579671029804
 40
0.82331176494692
 40
1.0
 40
1.0
 40
1.0
 40
1.0
 10
112.7771875242151
 20
185.2578003253521
 30
0.0
 10
112.7753507170526
 20
185.2566645831463
 30
0.0
 10
112.771986275074
 20
185.2545842674594
 30
0.0
 10
112.7674376732684
 20
185.2506544551528
 30
0.0
 10
112.7638498386602
 20
185.2465648975703
 30
0.0
 10
112.7607505807115
 20
185.2416934747992
 30
0.0
 10
112.758463851883
 20
185.2358704828593
 30
0.0
 10
112.7581998286928
 20
185.2319781130362
 30
0.0
 10
112.7580693186038
 20
185.230054064125
 30
0.0
  0
SPLINE
  5
126
330
1F
100
AcDbEntity
  8
0
  6
SLD-実線
 62
     7
370
    25
100
AcDbSpline
210
0.0
220
0.0
230
1.0
 70
     8
 71
     3
 72
    10
 73
     6
 74
     0
 42
0.000000001
 43
0.00000001
 40
0.0
 40
0.0
 40
0.0
 40
0.0
 40
0.3147864150930192
 40
0.6100723291183298
 40
1.0
 40
1.0
 40
1.0
 40
1.0
 10
114.3090052178898
 20
187.8728075980464
 30
0.0
 10
114.2239808295031
 20
187.901769328275
 30
0.0
 10
114.0591991738537
 20
187.9578986571428
 30
0.0
 10
113.7180219898171
 20
187.8461523936759
 30
0.0
 10
113.4850006426687
 20
187.7115885931372
 30
0.0
 10
113.3523975052519
 20
187.635013711254
 30
0.0
  0
SPLINE
  5
127
330
1F
100
AcDbEntity
  8
0
  6
SLD-実線
 62
     7
370
    25
100
AcDbSpline
210
0.0
220
0.0
230
1.0
 70
     8
 71
     3
 72
     9
 73
     5
 74
     0
 42
0.000000001
 43
0.00000001
 40
0.0
 40
0.0
 40
0.0
 40
0.0
 40
0.6975897906302383
 40
1.0
 40
1.0
 40
1.0
 40
1.0
 10
113.3523975052519
 20
187.635013711254
 30
0.0
 10
113.2774809000514
 20
187.5903996887167
 30
0.0
 10
113.170087405756
 20
187.5264451653901
 30
0.0
 10
113.0627448637196
 20
187.4602643944927
 30
0.0
 10
113.0302833831081
 20
187.4402506537094
 30
0.0
  0
SPLINE
  5
128
330
1F
100
AcDbEntity
  8
0
  6
SLD-実線
 62
     7
370
    25
100
AcDbSpline
210
0.0
220
0.0
230
1.0
 70
     8
 71
     3
 72
    10
 73
     6
 74
     0
 42
0.000000001
 43
0.00000001
 40
0.0
 40
0.0
 40
0.0
 40
0.0
 40
0.1726862195096515
 40
0.4395159151013147
 40
0.9999999999999999
 40
0.9999999999999999
 40
0.9999999999999999
 40
0.9999999999999999
 10
113.0302833831081
 20
187.4402506537094
 30
0.0
 10
113.0147649368164
 20
187.4319688744019
 30
0.0
 10
112.9752678412046
 20
187.4108903319374
 30
0.0
 10
112.8854117631587
 20
187.3633116586889
 30
0.0
 10
112.8110147233757
 20
187.3216251313868
 30
0.0
 10
112.7606126174936
 20
187.2933835673532
 30
0.0
  0
SPLINE
  5
129
330
1F
100
AcDbEntity
  8
0
  6
SLD-実線
 62
     7
370
    25
100
AcDbSpline
210
0.0
220
0.0
230
1.0
 70
     8
 71
     3
 72
    13
 73
     9
 74
     0
 42
0.000000001
 43
0.00000001
 40
0.0
 40
0.0
 40
0.0
 40
0.0
 40
0.3542981920530518
 40
0.6117572425702283
 40
0.7132489290084789
 40
0.8052686910096788
 40
0.8975815037808677
 40
1.0
 40
1.0
 40
1.0
 40
1.0
 10
112.7606126174936
 20
187.2933835673532
 30
0.0
 10
112.7549190525203
 20
187.2899612064955
 30
0.0
 10
112.7450881256721
 20
187.2840519072433
 30
0.0
 10
112.7336841199944
 20
187.2745276526984
 30
0.0
 10
112.7274094968367
 20
187.2665205976743
 30
0.0
 10
112.7243080884608
 20
187.2606989459051
 30
0.0
 10
112.7224703980453
 20
187.2546276313081
 30
0.0
 10
112.722293875218
 20
187.2508935120837
 30
0.0
 10
112.722201033432
 20
187.2489295604334
 30
0.0
  0
SPLINE
  5
12A
330
1F
100
AcDbEntity
  8
0
  6
SLD-実線
 62
     7
370
    25
100
AcDbSpline
210
0.0
220
0.0
230
1.0
 70
     8
 71
     3
 72
    10
 73
     6
 74
     0
 42
0.000000001
 43
0.00000001
 40
0.0
 40
0.0
 40
0.0
 40
0.0
 40
0.5019806556126066
 40
0.9740843325970079
 40
1.0
 40
1.0
 40
1.0
 40
1.0
 10
112.722201033432
 20
187.2489295604334
 30
0.0
 10
112.7223973280636
 20
187.2471481668832
 30
0.0
 10
112.722778234226
 20
187.2436914050976
 30
0.0
 10
112.7245440295578
 20
187.2411900698496
 30
0.0
 10
112.7258592937784
 20
187.2408190731125
 30
0.0
 10
112.7259277368027
 20
187.2407997673803
 30
0.0
  0
SPLINE
  5
12B
330
1F
100
AcDbEntity
  8
0
  6
SLD-実線
 62
     7
370
    25
100
AcDbSpline
210
0.0
220
0.0
230
1.0
 70
     8
 71
     3
 72
     9
 73
     5
 74
     0
 42
0.000000001
 43
0.00000001
 40
0.0
 40
0.0
 40
0.0
 40
0.0
 40
0.2651002859568181
 40
0.9999999999999999
 40
0.9999999999999999
 40
0.9999999999999999
 40
0.9999999999999999
 10
112.9263290867547
 20
187.12504901495
 30
0.0
 10
112.9274737915901
 20
187.078390645304
 30
0.0
 10
112.9317917983824
 20
186.9023879319249
 30
0.0
 10
112.9306331565357
 20
186.7231414563167
 30
0.0
 10
112.9297816709739
 20
186.591413272649
 30
0.0
  0
LINE
  5
12C
330
1F
100
AcDbEntity
  8
0
  6
SLD-実線
 62
     7
370
    25
100
AcDbLine
 10
112.929781671
 20
186.5914132726
 30
0.0
 11
112.929781671
 21
186.1067341026
 31
0.0
  0
SPLINE
  5
12D
330
1F
100
AcDbEntity
  8
0
  6
SLD-実線
 62
     7
370
    25
100
AcDbSpline
210
0.0
220
0.0
230
1.0
 70
     8
 71
     3
 72
    10
 73
     6
 74
     0
 42
0.000000001
 43
0.00000001
 40
0.0
 40
0.0
 40
0.0
 40
0.0
 40
0.3736792125289775
 40
0.6564318726496348
 40
1.0
 40
1.0
 40
1.0
 40
1.0
 10
115.7946939421667
 20
187.843046692693
 30
0.0
 10
115.7978458306846
 20
187.7474156387849
 30
0.0
 10
115.8033826655228
 20
187.5794232279266
 30
0.0
 10
115.860767319289
 20
187.3541079191925
 30
0.0
 10
115.952147824236
 20
187.2791218918374
 30
0.0
 10
116.0022745797085
 20
187.2379883233671
 30
0.0
  0
SPLINE
  5
12E
330
1F
100
AcDbEntity
  8
0
  6
SLD-実線
 62
     7
370
    25
100
AcDbSpline
210
0.0
220
0.0
230
1.0
 70
     8
 71
     3
 72
    11
 73
     7
 74
     0
 42
0.000000001
 43
0.00000001
 40
0.0
 40
0.0
 40
0.0
 40
0.0
 40
0.032941502021509
 40
0.1704257620521404
 40
0.5189933403283785
 40
0.9999999999999999
 40
0.9999999999999999
 40
0.9999999999999999
 40
0.9999999999999999
 10
117.3722850555161
 20
189.9466091026246
 30
0.0
 10
117.3720392825389
 20
189.9468141278577
 30
0.0
 10
117.3707677543944
 20
189.9478748439591
 30
0.0
 10
117.3652379737039
 20
189.9481158391004
 30
0.0
 10
117.3541530778671
 20
189.9448847904158
 30
0.0
 10
117.3443725630826
 20
189.9394242348781
 30
0.0
 10
117.3387015905148
 20
189.9362580763126
 30
0.0
  0
SPLINE
  5
12F
330
1F
100
AcDbEntity
  8
0
  6
SLD-実線
 62
     7
370
    25
100
AcDbSpline
210
0.0
220
0.0
230
1.0
 70
     8
 71
     3
 72
     9
 73
     5
 74
     0
 42
0.000000001
 43
0.00000001
 40
0.0
 40
0.0
 40
0.0
 40
0.0
 40
0.6709875484155688
 40
1.0
 40
1.0
 40
1.0
 40
1.0
 10
117.3387015905148
 20
189.9362580763126
 30
0.0
 10
117.293806222189
 20
189.9088528701706
 30
0.0
 10
117.226896831051
 20
189.8680097782134
 30
0.0
 10
117.1600443157776
 20
189.8255748813016
 30
0.0
 10
117.138049005833
 20
189.8116132718359
 30
0.0
  0
SPLINE
  5
130
330
1F
100
AcDbEntity
  8
0
  6
SLD-実線
 62
     7
370
    25
100
AcDbSpline
210
0.0
220
0.0
230
1.0
 70
     8
 71
     3
 72
    10
 73
     6
 74
     0
 42
0.000000001
 43
0.00000001
 40
0.0
 40
0.0
 40
0.0
 40
0.0
 40
0.1721586245576831
 40
0.4321003118444765
 40
1.0
 40
1.0
 40
1.0
 40
1.0
 10
117.138049005833
 20
189.8116132718359
 30
0.0
 10
117.1235343348684
 20
189.8039071063176
 30
0.0
 10
117.0871040144809
 20
189.7845654292325
 30
0.0
 10
117.0028094544746
 20
189.7403514544654
 30
0.0
 10
116.9329585670368
 20
189.7012137646282
 30
0.0
 10
116.8850408156776
 20
189.6743652855439
 30
0.0
  0
SPLINE
  5
131
330
1F
100
AcDbEntity
  8
0
  6
SLD-実線
 62
     7
370
    25
100
AcDbSpline
210
0.0
220
0.0
230
1.0
 70
     8
 71
     3
 72
    13
 73
     9
 74
     0
 42
0.000000001
 43
0.00000001
 40
0.0
 40
0.0
 40
0.0
 40
0.0
 40
0.3534259835670927
 40
0.6107350134326038
 40
0.7123604507611995
 40
0.8046103417748763
 40
0.8972257833108618
 40
1.0
 40
1.0
 40
1.0
 40
1.0
 10
116.8850408156776
 20
189.6743652855439
 30
0.0
 10
116.8793808379025
 20
189.6709620492364
 30
0.0
 10
116.8696001574681
 20
189.6650811132875
 30
0.0
 10
116.8582522716209
 20
189.6555857873283
 30
0.0
 10
116.8520021587474
 20
189.6475951096175
 30
0.0
 10
116.8489089210262
 20
189.6417784940394
 30
0.0
 10
116.8470739466445
 20
189.6357101452114
 30
0.0
 10
116.84689742094
 20
189.6319764226519
 30
0.0
 10
116.8468045690912
 20
189.630012498794
 30
0.0
  0
SPLINE
  5
132
330
1F
100
AcDbEntity
  8
0
  6
SLD-実線
 62
     7
370
    25
100
AcDbSpline
210
0.0
220
0.0
230
1.0
 70
     8
 71
     3
 72
    10
 73
     6
 74
     0
 42
0.000000001
 43
0.00000001
 40
0.0
 40
0.0
 40
0.0
 40
0.0
 40
0.5019739766432619
 40
0.9740713721784662
 40
1.0
 40
1.0
 40
1.0
 40
1.0
 10
116.8468045690912
 20
189.630012498794
 30
0.0
 10
116.8470009159092
 20
189.6282312152601
 30
0.0
 10
116.8473819233385
 20
189.624774666959
 30
0.0
 10
116.8491472409157
 20
189.6222722417269
 30
0.0
 10
116.8504629382164
 20
189.6219020728125
 30
0.0
 10
116.850531437098
 20
189.6218828007834
 30
0.0
  0
SPLINE
  5
133
330
1F
100
AcDbEntity
  8
0
  6
SLD-実線
 62
     7
370
    25
100
AcDbSpline
210
0.0
220
0.0
230
1.0
 70
     8
 71
     3
 72
     9
 73
     5
 74
     0
 42
0.000000001
 43
0.00000001
 40
0.0
 40
0.0
 40
0.0
 40
0.0
 40
0.2649212733660977
 40
1.0
 40
1.0
 40
1.0
 40
1.0
 10
117.0510470445221
 20
189.5060659724182
 30
0.0
 10
117.0522117462059
 20
189.4594632271314
 30
0.0
 10
117.056608152991
 20
189.2835515508257
 30
0.0
 10
117.0554281233963
 20
189.1043354611864
 30
0.0
 10
117.0545607087445
 20
188.972597526222
 30
0.0
  0
LINE
  5
134
330
1F
100
AcDbEntity
  8
0
  6
SLD-実線
 62
     7
370
    25
100
AcDbLine
 10
117.0545607087
 20
188.9725975262
 30
0.0
 11
117.0545607087
 21
188.6282788456
 31
0.0
  0
SPLINE
  5
135
330
1F
100
AcDbEntity
  8
0
  6
SLD-実線
 62
     7
370
    25
100
AcDbSpline
210
0.0
220
0.0
230
1.0
 70
     8
 71
     3
 72
     9
 73
     5
 74
     0
 42
0.000000001
 43
0.00000001
 40
0.0
 40
0.0
 40
0.0
 40
0.0
 40
0.6073708707387455
 40
1.0
 40
1.0
 40
1.0
 40
1.0
 10
117.0545607087445
 20
188.6282788455992
 30
0.0
 10
117.0548989771055
 20
188.4827064685207
 30
0.0
 10
117.0554559158349
 20
188.2430302112425
 30
0.0
 10
116.9553160127642
 20
187.9774101635697
 30
0.0
 10
116.9159981698172
 20
187.8731199955376
 30
0.0
  0
SPLINE
  5
136
330
1F
100
AcDbEntity
  8
0
  6
SLD-実線
 62
     7
370
    25
100
AcDbSpline
210
0.0
220
0.0
230
1.0
 70
     8
 71
     3
 72
    10
 73
     6
 74
     0
 42
0.000000001
 43
0.00000001
 40
0.0
 40
0.0
 40
0.0
 40
0.0
 40
0.270733549502294
 40
0.5514212784588222
 40
1.0
 40
1.0
 40
1.0
 40
1.0
 10
116.9159981698172
 20
187.8731199955376
 30
0.0
 10
116.8890853964348
 20
187.8261283657415
 30
0.0
 10
116.8342703358977
 20
187.7304173442348
 30
0.0
 10
116.7080031483993
 20
187.5775955604236
 30
0.0
 10
116.6048755431415
 20
187.5038598350149
 30
0.0
 10
116.5414407734622
 20
187.458504289846
 30
0.0
  0
LINE
  5
137
330
1F
100
AcDbEntity
  8
0
  6
SLD-実線
 62
     7
370
    25
100
AcDbLine
 10
116.5414407735
 20
187.4585042898
 30
0.0
 11
116.3948816932
 21
187.399863349
 31
0.0
  0
SPLINE
  5
138
330
1F
100
AcDbEntity
  8
0
  6
SLD-実線
 62
     7
370
    25
100
AcDbSpline
210
0.0
220
0.0
230
1.0
 70
     8
 71
     3
 72
    11
 73
     7
 74
     0
 42
0.000000001
 43
0.00000001
 40
0.0
 40
0.0
 40
0.0
 40
0.0
 40
0.0333250302216449
 40
0.170409453819761
 40
0.5186053993216571
 40
0.9999999999999999
 40
0.9999999999999999
 40
0.9999999999999999
 40
0.9999999999999999
 10
116.1696018488361
 20
189.252298801098
 30
0.0
 10
116.169351657842
 20
189.2525068897505
 30
0.0
 10
116.168072291841
 20
189.2535709630129
 30
0.0
 10
116.1625146951491
 20
189.253802684442
 30
0.0
 10
116.1513736860287
 20
189.2505361646973
 30
0.0
 10
116.1415429902861
 20
189.2450458668871
 30
0.0
 10
116.1358384365479
 20
189.2418599582071
 30
0.0
  0
SPLINE
  5
139
330
1F
100
AcDbEntity
  8
0
  6
SLD-実線
 62
     7
370
    25
100
AcDbSpline
210
0.0
220
0.0
230
1.0
 70
     8
 71
     3
 72
     9
 73
     5
 74
     0
 42
0.000000001
 43
0.00000001
 40
0.0
 40
0.0
 40
0.0
 40
0.0
 40
0.6496584740247551
 40
0.9999999999999999
 40
0.9999999999999999
 40
0.9999999999999999
 40
0.9999999999999999
 10
116.1358384365479
 20
189.2418599582071
 30
0.0
 10
116.0846282259094
 20
189.2107290702497
 30
0.0
 10
116.0058018691604
 20
189.1628102187268
 30
0.0
 10
115.9270092980694
 20
189.1137478767311
 30
0.0
 10
115.8994049884778
 20
189.0965593009685
 30
0.0
  0
SPLINE
  5
13A
330
1F
100
AcDbEntity
  8
0
  6
SLD-実線
 62
     7
370
    25
100
AcDbSpline
210
0.0
220
0.0
230
1.0
 70
     8
 71
     3
 72
     9
 73
     5
 74
     0
 42
0.000000001
 43
0.00000001
 40
0.0
 40
0.0
 40
0.0
 40
0.0
 40
0.4534665658361386
 40
0.9999999999999999
 40
0.9999999999999999
 40
0.9999999999999999
 40
0.9999999999999999
 10
115.8994049884778
 20
189.0965593009685
 30
0.0
 10
115.8579674285553
 20
189.0745351668759
 30
0.0
 10
115.7665879023798
 20
189.0259667921559
 30
0.0
 10
115.6751486017645
 20
188.9749448384106
 30
0.0
 10
115.6251739667817
 20
188.9470596348124
 30
0.0
  0
SPLINE
  5
13B
330
1F
100
AcDbEntity
  8
0
  6
SLD-実線
 62
     7
370
    25
100
AcDbSpline
210
0.0
220
0.0
230
1.0
 70
     8
 71
     3
 72
    13
 73
     9
 74
     0
 42
0.000000001
 43
0.00000001
 40
0.0
 40
0.0
 40
0.0
 40
0.0
 40
0.3556259687509894
 40
0.6127718799137404
 40
0.7138647278830219
 40
0.8055381553098682
 40
0.8976569860638001
 40
1.0
 40
1.0
 40
1.0
 40
1.0
 10
115.6251739667817
 20
188.9470596348124
 30
0.0
 10
115.6194561141828
 20
188.9436245193643
 30
0.0
 10
115.6096037985647
 20
188.9377055417422
 30
0.0
 10
115.5981797415602
 20
188.9281731009273
 30
0.0
 10
115.5919227004408
 20
188.920168940673
 30
0.0
 10
115.5888431171062
 20
188.914355858631
 30
0.0
 10
115.5870273809696
 20
188.9082973419644
 30
0.0
 10
115.5868537583117
 20
188.9045682210094
 30
0.0
 10
115.5867623827201
 20
188.9026056278926
 30
0.0
  0
SPLINE
  5
13C
330
1F
100
AcDbEntity
  8
0
  6
SLD-実線
 62
     7
370
    25
100
AcDbSpline
210
0.0
220
0.0
230
1.0
 70
     8
 71
     3
 72
    10
 73
     6
 74
     0
 42
0.000000001
 43
0.00000001
 40
0.0
 40
0.0
 40
0.0
 40
0.0
 40
0.5013212817755115
 40
0.9722859014420063
 40
1.0
 40
1.0
 40
1.0
 40
1.0
 10
115.5867623827201
 20
188.9026056278926
 30
0.0
 10
115.5869567768787
 20
188.9008237159216
 30
0.0
 10
115.5873337939865
 20
188.8973677926446
 30
0.0
 10
115.5890926927324
 20
188.8948521478113
 30
0.0
 10
115.5904117460418
 20
188.8944815544123
 30
0.0
 10
115.5904850525057
 20
188.8944609586627
 30
0.0
  0
SPLINE
  5
13D
330
1F
100
AcDbEntity
  8
0
  6
SLD-実線
 62
     7
370
    25
100
AcDbSpline
210
0.0
220
0.0
230
1.0
 70
     8
 71
     3
 72
     9
 73
     5
 74
     0
 42
0.000000001
 43
0.00000001
 40
0.0
 40
0.0
 40
0.0
 40
0.0
 40
0.2650303162510592
 40
1.0
 40
1.0
 40
1.0
 40
1.0
 10
115.7909229516778
 20
188.7786844421224
 30
0.0
 10
115.7921730566111
 20
188.7321070935634
 30
0.0
 10
115.7968898941072
 20
188.5563636193153
 30
0.0
 10
115.7956241936393
 20
188.37706844245
 30
0.0
 10
115.7946939421667
 20
188.2452919230117
 30
0.0
  0
LINE
  5
13E
330
1F
100
AcDbEntity
  8
0
  6
SLD-実線
 62
     7
370
    25
100
AcDbLine
 10
115.7946939422
 20
188.245291923
 30
0.0
 11
115.7946939422
 21
187.8430466927
 31
0.0
  0
LINE
  5
13F
330
1F
100
AcDbEntity
  8
0
  6
SLD-実線
 62
     7
370
    25
100
AcDbLine
 10
110.4676213914
 20
185.5614637858
 30
0.0
 11
110.1140679429
 21
185.7655658472
 31
0.0
  0
SPLINE
  5
140
330
1F
100
AcDbEntity
  8
0
  6
SLD-実線
 62
     7
370
    25
100
AcDbSpline
210
0.0
220
0.0
230
1.0
 70
     8
 71
     3
 72
    13
 73
     9
 74
     0
 42
0.000000001
 43
0.00000001
 40
0.0
 40
0.0
 40
0.0
 40
0.0
 40
0.3556546713951426
 40
0.6122596595136062
 40
0.7131515097297351
 40
0.8048203908799432
 40
0.8972000824602341
 40
1.0
 40
1.0
 40
1.0
 40
1.0
 10
110.4676213914287
 20
185.5614637858047
 30
0.0
 10
110.4619296311656
 20
185.558044629424
 30
0.0
 10
110.4521312635889
 20
185.5521585503427
 30
0.0
 10
110.4407712695094
 20
185.5426612220848
 30
0.0
 10
110.4345685575225
 20
185.5346844988418
 30
0.0
 10
110.4315233968962
 20
185.5288875896782
 30
0.0
 10
110.4297333127566
 20
185.5228463603571
 30
0.0
 10
110.4295627370757
 20
185.5191228218382
 30
0.0
 10
110.429472895898
 20
185.517161656661
 30
0.0
  0
LINE
  5
141
330
1F
100
AcDbEntity
  8
0
  6
SLD-実線
 62
     7
370
    25
100
AcDbLine
 10
110.4294728959
 20
185.5171616567
 30
0.0
 11
110.0759194474
 21
185.7212637181
 31
0.0
  0
SPLINE
  5
142
330
1F
100
AcDbEntity
  8
0
  6
SLD-実線
 62
     7
370
    25
100
AcDbSpline
210
0.0
220
0.0
230
1.0
 70
     8
 71
     3
 72
    10
 73
     6
 74
     0
 42
0.000000001
 43
0.00000001
 40
0.0
 40
0.0
 40
0.0
 40
0.0
 40
0.7205601889513397
 40
0.8753613220419385
 40
1.0
 40
1.0
 40
1.0
 40
1.0
 10
111.1764829803606
 20
183.9862912643857
 30
0.0
 10
111.1045263288962
 20
183.9439178188999
 30
0.0
 10
111.0171109116675
 20
183.8924410986638
 30
0.0
 10
110.9208795141272
 20
183.8721766778309
 30
0.0
 10
110.8995068379354
 20
183.8806225038652
 30
0.0
 10
110.8899739725396
 20
183.8843895998536
 30
0.0
  0
SPLINE
  5
143
330
1F
100
AcDbEntity
  8
0
  6
SLD-実線
 62
     7
370
    25
100
AcDbSpline
210
0.0
220
0.0
230
1.0
 70
     8
 71
     3
 72
    10
 73
     6
 74
     0
 42
0.000000001
 43
0.00000001
 40
0.0
 40
0.0
 40
0.0
 40
0.0
 40
0.2391752209479253
 40
0.5021111997932239
 40
1.0
 40
1.0
 40
1.0
 40
1.0
 10
111.4650963671568
 20
184.2354394500398
 30
0.0
 10
111.4464942369576
 20
184.2057523973386
 30
0.0
 10
111.4074419560564
 20
184.1434290446474
 30
0.0
 10
111.3043191513597
 20
184.0604148568927
 30
0.0
 10
111.2270490494414
 20
184.0156111248754
 30
0.0
 10
111.1764829803606
 20
183.9862912643857
 30
0.0
  0
SPLINE
  5
144
330
1F
100
AcDbEntity
  8
0
  6
SLD-実線
 62
     7
370
    25
100
AcDbSpline
210
0.0
220
0.0
230
1.0
 70
     8
 71
     3
 72
     9
 73
     5
 74
     0
 42
0.000000001
 43
0.00000001
 40
0.0
 40
0.0
 40
0.0
 40
0.0
 40
0.555838370066193
 40
1.0
 40
1.0
 40
1.0
 40
1.0
 10
111.527274163967
 20
184.4366068967029
 30
0.0
 10
111.520337908593
 20
184.3995962045836
 30
0.0
 10
111.5078590015085
 20
184.3330108551141
 30
0.0
 10
111.4782483031869
 20
184.2654481924232
 30
0.0
 10
111.4650963671568
 20
184.2354394500398
 30
0.0
  0
SPLINE
  5
145
330
1F
100
AcDbEntity
  8
0
  6
SLD-実線
 62
     7
370
    25
100
AcDbSpline
210
0.0
220
0.0
230
1.0
 70
     8
 71
     3
 72
    10
 73
     6
 74
     0
 42
0.000000001
 43
0.00000001
 40
0.0
 40
0.0
 40
0.0
 40
0.0
 40
0.2239732313417811
 40
0.4329573960383626
 40
1.0
 40
1.0
 40
1.0
 40
1.0
 10
111.5486722506649
 20
184.4847081591527
 30
0.0
 10
111.54548490601
 20
184.4824735196832
 30
0.0
 10
111.5393235248763
 20
184.4781537905798
 30
0.0
 10
111.5294830565096
 20
184.4597606057871
 30
0.0
 10
111.5282067562848
 20
184.4463823705229
 30
0.0
 10
111.527274163967
 20
184.4366068967029
 30
0.0
  0
SPLINE
  5
146
330
1F
100
AcDbEntity
  8
0
  6
SLD-実線
 62
     7
370
    25
100
AcDbSpline
210
0.0
220
0.0
230
1.0
 70
     8
 71
     3
 72
    13
 73
     9
 74
     0
 42
0.000000001
 43
0.00000001
 40
0.0
 40
0.0
 40
0.0
 40
0.0
 40
0.3863534883808674
 40
0.6468885153910373
 40
0.7414872325818449
 40
0.8234199430189376
 40
0.9055226988793824
 40
1.0
 40
1.0
 40
1.0
 40
1.0
 10
111.5630548627193
 20
184.4518953548653
 30
0.0
 10
111.5630035324727
 20
184.4582568418489
 30
0.0
 10
111.5629175879996
 20
184.4689081572744
 30
0.0
 10
111.5614823708236
 20
184.4804265290399
 30
0.0
 10
111.5587495859054
 20
184.4854652806833
 30
0.0
 10
111.5560819004287
 20
184.4870411742322
 30
0.0
 10
111.5525804848168
 20
184.4867465221183
 30
0.0
 10
111.5500344694123
 20
184.4854186325117
 30
0.0
 10
111.5486722506649
 20
184.4847081591527
 30
0.0
  0
SPLINE
  5
147
330
1F
100
AcDbEntity
  8
0
  6
SLD-実線
 62
     7
370
    25
100
AcDbSpline
210
0.0
220
0.0
230
1.0
 70
     8
 71
     3
 72
     9
 73
     5
 74
     0
 42
0.000000001
 43
0.00000001
 40
0.0
 40
0.0
 40
0.0
 40
0.0
 40
0.6406355012376195
 40
1.0
 40
1.0
 40
1.0
 40
1.0
 10
111.527274163967
 20
184.1556833970136
 30
0.0
 10
111.5376830987657
 20
184.2200933550611
 30
0.0
 10
111.5539309257728
 20
184.3206340805174
 30
0.0
 10
111.5606428392844
 20
184.417194844365
 30
0.0
 10
111.5630548627193
 20
184.4518953548653
 30
0.0
  0
SPLINE
  5
148
330
1F
100
AcDbEntity
  8
0
  6
SLD-実線
 62
     7
370
    25
100
AcDbSpline
210
0.0
220
0.0
230
1.0
 70
     8
 71
     3
 72
    12
 73
     8
 74
     0
 42
0.000000001
 43
0.00000001
 40
0.0
 40
0.0
 40
0.0
 40
0.0
 40
0.4818518630198694
 40
0.5965139330710415
 40
0.6852778855233299
 40
0.8240464723195361
 40
1.0
 40
1.0
 40
1.0
 40
1.0
 10
111.376960062931
 20
183.9941714761055
 30
0.0
 10
111.4063883112506
 20
184.0108468282346
 30
0.0
 10
111.4428193422287
 20
184.0314902679456
 30
0.0
 10
111.483777079795
 20
184.0643735904833
 30
0.0
 10
111.5032683505217
 20
184.085176666991
 30
0.0
 10
111.5190945603236
 20
184.1177286198155
 30
0.0
 10
111.5243410040699
 20
184.1420730272162
 30
0.0
 10
111.527274163967
 20
184.1556833970136
 30
0.0
  0
SPLINE
  5
149
330
1F
100
AcDbEntity
  8
0
  6
SLD-実線
 62
     7
370
    25
100
AcDbSpline
210
0.0
220
0.0
230
1.0
 70
     8
 71
     3
 72
     9
 73
     5
 74
     0
 42
0.000000001
 43
0.00000001
 40
0.0
 40
0.0
 40
0.0
 40
0.0
 40
0.4923553993917502
 40
1.0
 40
1.0
 40
1.0
 40
1.0
 10
110.9807414913471
 20
183.7738448548244
 30
0.0
 10
111.0457555418519
 20
183.8092014090554
 30
0.0
 10
111.177802535924
 20
183.8810124509872
 30
0.0
 10
111.3099009939602
 20
183.9560692814051
 30
0.0
 10
111.376960062931
 20
183.9941714761055
 30
0.0
  0
SPLINE
  5
14A
330
1F
100
AcDbEntity
  8
0
  6
SLD-実線
 62
     7
370
    25
100
AcDbSpline
210
0.0
220
0.0
230
1.0
 70
     8
 71
     3
 72
     9
 73
     5
 74
     0
 42
0.000000001
 43
0.00000001
 40
0.0
 40
0.0
 40
0.0
 40
0.0
 40
0.511241068623197
 40
1.0
 40
1.0
 40
1.0
 40
1.0
 10
110.7373799904169
 20
183.6414568421541
 30
0.0
 10
110.7788745796625
 20
183.664921424234
 30
0.0
 10
110.860039008329
 20
183.710818719111
 30
0.0
 10
110.9411149169091
 20
183.7531534009624
 30
0.0
 10
110.9807414913471
 20
183.7738448548244
 30
0.0
  0
SPLINE
  5
14B
330
1F
100
AcDbEntity
  8
0
  6
SLD-実線
 62
     7
370
    25
100
AcDbSpline
210
0.0
220
0.0
230
1.0
 70
     8
 71
     3
 72
     9
 73
     5
 74
     0
 42
0.000000001
 43
0.00000001
 40
0.0
 40
0.0
 40
0.0
 40
0.0
 40
0.7078094510130583
 40
1.0
 40
1.0
 40
1.0
 40
1.0
 10
110.6394214948544
 20
183.5825774035936
 30
0.0
 10
110.662537528048
 20
183.596268541081
 30
0.0
 10
110.6951960820706
 20
183.6156115118026
 30
0.0
 10
110.7278413512837
 20
183.6356126876135
 30
0.0
 10
110.7373799904169
 20
183.6414568421541
 30
0.0
  0
SPLINE
  5
14C
330
1F
100
AcDbEntity
  8
0
  6
SLD-実線
 62
     7
370
    25
100
AcDbSpline
210
0.0
220
0.0
230
1.0
 70
     8
 71
     3
 72
     9
 73
     5
 74
     0
 42
0.000000001
 43
0.00000001
 40
0.0
 40
0.0
 40
0.0
 40
0.0
 40
0.5297580606782825
 40
0.9999999999999999
 40
0.9999999999999999
 40
0.9999999999999999
 40
0.9999999999999999
 10
110.5033145037613
 20
183.4982321214731
 30
0.0
 10
110.5273645032319
 20
183.5126597578798
 30
0.0
 10
110.5727625844613
 20
183.5398941455705
 30
0.0
 10
110.6181013199513
 20
183.5689255973891
 30
0.0
 10
110.6394214948544
 20
183.5825774035936
 30
0.0
  0
SPLINE
  5
14D
330
1F
100
AcDbEntity
  8
0
  6
SLD-実線
 62
     7
370
    25
100
AcDbSpline
210
0.0
220
0.0
230
1.0
 70
     8
 71
     3
 72
    13
 73
     9
 74
     0
 42
0.000000001
 43
0.00000001
 40
0.0
 40
0.0
 40
0.0
 40
0.0
 40
0.10208250950227
 40
0.1939228125763001
 40
0.2853392746183647
 40
0.3862517903639207
 40
0.643472670584815
 40
1.0
 40
1.0
 40
1.0
 40
1.0
 10
110.4652535946502
 20
183.4982355977889
 30
0.0
 10
110.4653436141581
 20
183.4964017559568
 30
0.0
 10
110.4655146212802
 20
183.4929180664626
 30
0.0
 10
110.4673062966619
 20
183.4890055567123
 30
0.0
 10
110.4703507678657
 20
183.4867812018741
 30
0.0
 10
110.4765462680977
 20
183.4860250659746
 30
0.0
 10
110.487871580188
 20
183.4896749612005
 30
0.0
 10
110.4976400081378
 20
183.4950877966122
 30
0.0
 10
110.5033145037613
 20
183.4982321214731
 30
0.0
  0
SPLINE
  5
14E
330
1F
100
AcDbEntity
  8
0
  6
SLD-実線
 62
     7
370
    25
100
AcDbSpline
210
0.0
220
0.0
230
1.0
 70
     8
 71
     3
 72
    12
 73
     8
 74
     0
 42
0.000000001
 43
0.00000001
 40
0.0
 40
0.0
 40
0.0
 40
0.0
 40
0.2610416528453584
 40
0.4677484957486121
 40
0.6397221593954207
 40
0.8219361340370777
 40
1.0
 40
1.0
 40
1.0
 40
1.0
 10
110.4841962981501
 20
183.5258805438036
 30
0.0
 10
110.4818561334879
 20
183.5244055268439
 30
0.0
 10
110.4776629003826
 20
183.5217625119969
 30
0.0
 10
110.4721755739071
 20
183.5163478504131
 30
0.0
 10
110.4681562284014
 20
183.5104165809693
 30
0.0
 10
110.4656577804158
 20
183.5040585857398
 30
0.0
 10
110.4653872846079
 20
183.5001616305175
 30
0.0
 10
110.4652535946502
 20
183.4982355977889
 30
0.0
  0
SPLINE
  5
14F
330
1F
100
AcDbEntity
  8
0
  6
SLD-実線
 62
     7
370
    25
100
AcDbSpline
210
0.0
220
0.0
230
1.0
 70
     8
 71
     3
 72
     9
 73
     5
 74
     0
 42
0.000000001
 43
0.00000001
 40
0.0
 40
0.0
 40
0.0
 40
0.0
 40
0.5659393691233758
 40
1.0
 40
1.0
 40
1.0
 40
1.0
 10
110.5560207841855
 20
183.5785850044186
 30
0.0
 10
110.5425949882095
 20
183.5676063646878
 30
0.0
 10
110.5188719593684
 20
183.5482073966538
 30
0.0
 10
110.4946919069552
 20
183.5326384225327
 30
0.0
 10
110.4841962981501
 20
183.5258805438036
 30
0.0
  0
SPLINE
  5
150
330
1F
100
AcDbEntity
  8
0
  6
SLD-実線
 62
     7
370
    25
100
AcDbSpline
210
0.0
220
0.0
230
1.0
 70
     8
 71
     3
 72
    10
 73
     6
 74
     0
 42
0.000000001
 43
0.00000001
 40
0.0
 40
0.0
 40
0.0
 40
0.0
 40
0.6277756281814826
 40
0.8146059642571208
 40
1.0
 40
1.0
 40
1.0
 40
1.0
 10
110.6251267984919
 20
183.7699792349575
 30
0.0
 10
110.6211162916091
 20
183.7292491762269
 30
0.0
 10
110.6159122303494
 20
183.6763975724419
 30
0.0
 10
110.58448082444
 20
183.6061336216617
 30
0.0
 10
110.5654830287037
 20
183.587744223807
 30
0.0
 10
110.5560207841855
 20
183.5785850044186
 30
0.0
  0
SPLINE
  5
151
330
1F
100
AcDbEntity
  8
0
  6
SLD-実線
 62
     7
370
    25
100
AcDbSpline
210
0.0
220
0.0
230
1.0
 70
     8
 71
     3
 72
     9
 73
     5
 74
     0
 42
0.000000001
 43
0.00000001
 40
0.0
 40
0.0
 40
0.0
 40
0.0
 40
0.6532599491607005
 40
0.9999999999999999
 40
0.9999999999999999
 40
0.9999999999999999
 40
0.9999999999999999
 10
110.6369657823842
 20
184.3749155411898
 30
0.0
 10
110.638048420077
 20
184.245174004558
 30
0.0
 10
110.6397057047371
 20
184.0465677119199
 30
0.0
 10
110.6288803741649
 20
183.8411914206378
 30
0.0
 10
110.6251267984919
 20
183.7699792349575
 30
0.0
  0
LINE
  5
152
330
1F
100
AcDbEntity
  8
0
  6
SLD-実線
 62
     7
370
    25
100
AcDbLine
 10
110.6369657824
 20
184.8595947113
 30
0.0
 11
110.6369657824
 21
184.3749155412
 31
0.0
  0
SPLINE
  5
153
330
1F
100
AcDbEntity
  8
0
  6
SLD-実線
 62
     7
370
    25
100
AcDbSpline
210
0.0
220
0.0
230
1.0
 70
     8
 71
     3
 72
     9
 73
     5
 74
     0
 42
0.000000001
 43
0.00000001
 40
0.0
 40
0.0
 40
0.0
 40
0.0
 40
0.3388569337977373
 40
1.0
 40
1.0
 40
1.0
 40
1.0
 10
110.6321426024077
 20
185.4521778156615
 30
0.0
 10
110.633850781747
 20
185.3859335709194
 30
0.0
 10
110.6388917862801
 20
185.1904403165844
 30
0.0
 10
110.6377323413562
 20
184.9912728805909
 30
0.0
 10
110.6369657823842
 20
184.8595947112705
 30
0.0
  0
SPLINE
  5
154
330
1F
100
AcDbEntity
  8
0
  6
SLD-実線
 62
     7
370
    25
100
AcDbSpline
210
0.0
220
0.0
230
1.0
 70
     8
 71
     3
 72
    12
 73
     8
 74
     0
 42
0.000000001
 43
0.00000001
 40
0.0
 40
0.0
 40
0.0
 40
0.0
 40
0.2124448406883847
 40
0.3841107386006349
 40
0.5415516800268073
 40
0.7460721964073767
 40
1.0
 40
1.0
 40
1.0
 40
1.0
 10
110.529536099708
 20
185.5499131988877
 30
0.0
 10
110.5425407300861
 20
185.5536999961723
 30
0.0
 10
110.566053742516
 20
185.560546712229
 30
0.0
 10
110.5959806586659
 20
185.5574631887448
 30
0.0
 10
110.6172152774182
 20
185.5386540923985
 30
0.0
 10
110.6288147296622
 20
185.5018592113878
 30
0.0
 10
110.6309563759341
 20
185.469886842226
 30
0.0
 10
110.6321426024077
 20
185.4521778156615
 30
0.0
  0
SPLINE
  5
155
330
1F
100
AcDbEntity
  8
0
  6
SLD-実線
 62
     7
370
    25
100
AcDbSpline
210
0.0
220
0.0
230
1.0
 70
     8
 71
     3
 72
     9
 73
     5
 74
     0
 42
0.000000001
 43
0.00000001
 40
0.0
 40
0.0
 40
0.0
 40
0.0
 40
0.5765480560493984
 40
1.0
 40
1.0
 40
1.0
 40
1.0
 10
110.4485031858174
 20
185.5114380531383
 30
0.0
 10
110.4641851970073
 20
185.520196802413
 30
0.0
 10
110.4913850306123
 20
185.5353885096486
 30
0.0
 10
110.5181868269482
 20
185.545592359031
 30
0.0
 10
110.529536099708
 20
185.5499131988877
 30
0.0
  0
SPLINE
  5
156
330
1F
100
AcDbEntity
  8
0
  6
SLD-実線
 62
     7
370
    25
100
AcDbSpline
210
0.0
220
0.0
230
1.0
 70
     8
 71
     3
 72
    12
 73
     8
 74
     0
 42
0.000000001
 43
0.00000001
 40
0.0
 40
0.0
 40
0.0
 40
0.0
 40
0.1864928305667291
 40
0.3612706882373681
 40
0.5407592565552872
 40
0.7651854983925743
 40
0.9999999999999999
 40
0.9999999999999999
 40
0.9999999999999999
 40
0.9999999999999999
 10
110.429472895898
 20
185.517161656661
 30
0.0
 10
110.4296445189509
 20
185.5153367806786
 30
0.0
 10
110.4299769841627
 20
185.5118016624647
 30
0.0
 10
110.432800151596
 20
185.5087141741721
 30
0.0
 10
110.4369590128154
 20
185.5075711096815
 30
0.0
 10
110.4423468894418
 20
185.5083341446328
 30
0.0
 10
110.4464203722727
 20
185.510387931071
 30
0.0
 10
110.4485031858174
 20
185.5114380531383
 30
0.0
  0
SPLINE
  5
157
330
1F
100
AcDbEntity
  8
0
  6
SLD-実線
 62
     7
370
    25
100
AcDbSpline
210
0.0
220
0.0
230
1.0
 70
     8
 71
     3
 72
    10
 73
     6
 74
     0
 42
0.000000001
 43
0.00000001
 40
0.0
 40
0.0
 40
0.0
 40
0.0
 40
0.17256206661773
 40
0.4394591810126278
 40
1.0
 40
1.0
 40
1.0
 40
1.0
 10
110.7373799904169
 20
185.7083815772883
 30
0.0
 10
110.7218676680854
 20
185.7001034845389
 30
0.0
 10
110.6823628533773
 20
185.6790218880369
 30
0.0
 10
110.5924773998042
 20
185.6314237467415
 30
0.0
 10
110.5180449941465
 20
185.5897173982846
 30
0.0
 10
110.4676213914287
 20
185.5614637858047
 30
0.0
  0
SPLINE
  5
158
330
1F
100
AcDbEntity
  8
0
  6
SLD-実線
 62
     7
370
    25
100
AcDbSpline
210
0.0
220
0.0
230
1.0
 70
     8
 71
     3
 72
    10
 73
     6
 74
     0
 42
0.000000001
 43
0.00000001
 40
0.0
 40
0.0
 40
0.0
 40
0.0
 40
0.6607605880893315
 40
0.9097934919352916
 40
1.0
 40
1.0
 40
1.0
 40
1.0
 10
110.9951237741292
 20
185.8659844294336
 30
0.0
 10
110.9383403291726
 20
185.8317876576545
 30
0.0
 10
110.8601558708341
 20
185.7847025242937
 30
0.0
 10
110.774274308527
 20
185.731010822756
 30
0.0
 10
110.7451297615739
 20
185.7131349236791
 30
0.0
 10
110.7373799904169
 20
185.7083815772883
 30
0.0
  0
SPLINE
  5
159
330
1F
100
AcDbEntity
  8
0
  6
SLD-実線
 62
     7
370
    25
100
AcDbSpline
210
0.0
220
0.0
230
1.0
 70
     8
 71
     3
 72
    13
 73
     9
 74
     0
 42
0.000000001
 43
0.00000001
 40
0.0
 40
0.0
 40
0.0
 40
0.0
 40
0.1028765259378814
 40
0.1954467964956161
 40
0.2874643436297391
 40
0.3887547418725182
 40
0.6456797490822535
 40
1.0
 40
1.0
 40
1.0
 40
1.0
 10
111.0332722696599
 20
185.8657276156986
 30
0.0
 10
111.0331808517907
 20
185.8675846217808
 30
0.0
 10
111.03300717437
 20
185.8711125975412
 30
0.0
 10
111.0311958710251
 20
185.8750753081097
 30
0.0
 10
111.028128489173
 20
185.8773392105542
 30
0.0
 10
111.0219082706475
 20
185.8781372542342
 30
0.0
 10
111.0105682180888
 20
185.8745332926333
 30
0.0
 10
111.0007912086096
 20
185.8691214877954
 30
0.0
 10
110.9951237741292
 20
185.8659844294336
 30
0.0
  0
SPLINE
  5
15A
330
1F
100
AcDbEntity
  8
0
  6
SLD-実線
 62
     7
370
    25
100
AcDbSpline
210
0.0
220
0.0
230
1.0
 70
     8
 71
     3
 72
    11
 73
     7
 74
     0
 42
0.000000001
 43
0.00000001
 40
0.0
 40
0.0
 40
0.0
 40
0.0
 40
0.2987532918587235
 40
0.5768423581400812
 40
0.782787467346172
 40
0.9999999999999999
 40
0.9999999999999999
 40
0.9999999999999999
 40
0.9999999999999999
 10
111.0141540640486
 20
185.8379813544716
 30
0.0
 10
111.016813854248
 20
185.8397564996652
 30
0.0
 10
111.0219494617629
 20
185.8431840064657
 30
0.0
 10
111.0283049787124
 20
185.8505577086555
 30
0.0
 10
111.0325615687453
 20
185.8586747177884
 30
0.0
 10
111.0330312010534
 20
185.8633352840776
 30
0.0
 10
111.0332722696599
 20
185.8657276156986
 30
0.0
  0
SPLINE
  5
15B
330
1F
100
AcDbEntity
  8
0
  6
SLD-実線
 62
     7
370
    25
100
AcDbSpline
210
0.0
220
0.0
230
1.0
 70
     8
 71
     3
 72
     9
 73
     5
 74
     0
 42
0.000000001
 43
0.00000001
 40
0.0
 40
0.0
 40
0.0
 40
0.0
 40
0.6211194534969412
 40
1.0
 40
1.0
 40
1.0
 40
1.0
 10
110.9354892762088
 20
185.7842649793638
 30
0.0
 10
110.9517050094075
 20
185.796345243965
 30
0.0
 10
110.9778122792852
 20
185.8157944248484
 30
0.0
 10
111.0041682858701
 20
185.8318849626977
 30
0.0
 10
111.0141540640486
 20
185.8379813544716
 30
0.0
  0
SPLINE
  5
15C
330
1F
100
AcDbEntity
  8
0
  6
SLD-実線
 62
     7
370
    25
100
AcDbSpline
210
0.0
220
0.0
230
1.0
 70
     8
 71
     3
 72
    11
 73
     7
 74
     0
 42
0.000000001
 43
0.00000001
 40
0.0
 40
0.0
 40
0.0
 40
0.0
 40
0.3346098964626484
 40
0.5895231219303745
 40
0.7766899352113402
 40
1.0
 40
1.0
 40
1.0
 40
1.0
 10
110.8423542898951
 20
185.5735304397847
 30
0.0
 10
110.8438939694227
 20
185.5978207976559
 30
0.0
 10
110.846606610894
 20
185.6406160878025
 30
0.0
 10
110.8647610191643
 20
185.7033989513627
 30
0.0
 10
110.8975560747158
 20
185.7525981478587
 30
0.0
 10
110.9221237978276
 20
185.7731074093401
 30
0.0
 10
110.9354892762088
 20
185.7842649793638
 30
0.0
  0
SPLINE
  5
15D
330
1F
100
AcDbEntity
  8
0
  6
SLD-実線
 62
     7
370
    25
100
AcDbSpline
210
0.0
220
0.0
230
1.0
 70
     8
 71
     3
 72
    10
 73
     6
 74
     0
 42
0.000000001
 43
0.00000001
 40
0.0
 40
0.0
 40
0.0
 40
0.0
 40
0.4806403779511438
 40
0.7630416974794699
 40
1.0
 40
1.0
 40
1.0
 40
1.0
 10
110.837355278535
 20
184.9752771050293
 30
0.0
 10
110.8374714818732
 20
185.0707389626264
 30
0.0
 10
110.8376559607404
 20
185.2222896462704
 30
0.0
 10
110.8371095248771
 20
185.4204914900415
 30
0.0
 10
110.8407110779925
 20
185.5255825483324
 30
0.0
 10
110.8423542898951
 20
185.5735304397847
 30
0.0
  0
LINE
  5
15E
330
1F
100
AcDbEntity
  8
0
  6
SLD-実線
 62
     7
370
    25
100
AcDbLine
 10
110.8373552785
 20
184.4848255226
 30
0.0
 11
110.8373552785
 21
184.975277105
 31
0.0
  0
SPLINE
  5
15F
330
1F
100
AcDbEntity
  8
0
  6
SLD-実線
 62
     7
370
    25
100
AcDbSpline
210
0.0
220
0.0
230
1.0
 70
     8
 71
     3
 72
    12
 73
     8
 74
     0
 42
0.000000001
 43
0.00000001
 40
0.0
 40
0.0
 40
0.0
 40
0.0
 40
0.0380414291119799
 40
0.0867112851242554
 40
0.1487867437117716
 40
0.3584137540793245
 40
1.0
 40
1.0
 40
1.0
 40
1.0
 10
110.8899739725396
 20
183.8843895998536
 30
0.0
 10
110.8855644427445
 20
183.8882214572214
 30
0.0
 10
110.8755134009133
 20
183.8969557578125
 30
0.0
 10
110.865952760328
 20
183.9216476947285
 30
0.0
 10
110.8518092204649
 20
183.9797808520489
 30
0.0
 10
110.8374095582841
 20
184.1665792420049
 30
0.0
 10
110.837378607281
 20
184.3480473174994
 30
0.0
 10
110.837355278535
 20
184.4848255225507
 30
0.0
  0
LINE
  5
160
330
1F
100
AcDbEntity
  8
0
  6
SLD-実線
 62
     7
370
    25
100
AcDbLine
 10
110.7373799904
 20
185.7083815773
 30
0.0
 11
110.3838265419
 21
185.9124836387
 31
0.0
  0
LINE
  5
161
330
1F
100
AcDbEntity
  8
0
  6
SLD-実線
 62
     7
370
    25
100
AcDbLine
 10
110.9951237741
 20
185.8659844294
 30
0.0
 11
110.6415703256
 21
186.0700864908
 31
0.0
  0
LINE
  5
162
330
1F
100
AcDbEntity
  8
0
  6
SLD-実線
 62
     7
370
    25
100
AcDbLine
 10
110.6369657824
 20
184.8595947113
 30
0.0
 11
110.2834123338
 21
185.0636967727
 31
0.0
  0
LINE
  5
163
330
1F
100
AcDbEntity
  8
0
  6
SLD-実線
 62
     7
370
    25
100
AcDbLine
 10
110.6369657824
 20
184.3749155412
 30
0.0
 11
110.2834123338
 21
184.5790176026
 31
0.0
  0
LINE
  5
164
330
1F
100
AcDbEntity
  8
0
  6
SLD-実線
 62
     7
370
    25
100
AcDbLine
 10
110.6251267985
 20
183.769979235
 30
0.0
 11
110.2715733499
 21
183.9740812964
 31
0.0
  0
SPLINE
  5
165
330
1F
100
AcDbEntity
  8
0
  6
SLD-実線
 62
     7
370
    25
100
AcDbSpline
210
0.0
220
0.0
230
1.0
 70
     8
 71
     3
 72
    12
 73
     8
 74
     0
 42
0.000000001
 43
0.00000001
 40
0.0
 40
0.0
 40
0.0
 40
0.0
 40
0.2116079618670443
 40
0.382938100439943
 40
0.5405397636625217
 40
0.7455719455999814
 40
1.0
 40
1.0
 40
1.0
 40
1.0
 10
111.8602625846169
 20
186.3181252467725
 30
0.0
 10
111.8731998829583
 20
186.3218709467922
 30
0.0
 10
111.8966119720306
 20
186.3286493838498
 30
0.0
 10
111.9264101936789
 20
186.3254647402293
 30
0.0
 10
111.9476150143471
 20
186.3066493896776
 30
0.0
 10
111.9593925015165
 20
186.2700049271042
 30
0.0
 10
111.9617994709514
 20
186.2381703618704
 30
0.0
 10
111.9631323404838
 20
186.2205418363647
 30
0.0
  0
SPLINE
  5
166
330
1F
100
AcDbEntity
  8
0
  6
SLD-実線
 62
     7
370
    25
100
AcDbSpline
210
0.0
220
0.0
230
1.0
 70
     8
 71
     3
 72
     9
 73
     5
 74
     0
 42
0.000000001
 43
0.00000001
 40
0.0
 40
0.0
 40
0.0
 40
0.0
 40
0.5761834486788919
 40
1.0
 40
1.0
 40
1.0
 40
1.0
 10
111.7793175864182
 20
186.2797008536717
 30
0.0
 10
111.7949727188897
 20
186.2884426134763
 30
0.0
 10
111.8221431148935
 20
186.3036144477674
 30
0.0
 10
111.8489158544631
 20
186.313805928539
 30
0.0
 10
111.8602625846169
 20
186.3181252467725
 30
0.0
  0
SPLINE
  5
167
330
1F
100
AcDbEntity
  8
0
  6
SLD-実線
 62
     7
370
    25
100
AcDbSpline
210
0.0
220
0.0
230
1.0
 70
     8
 71
     3
 72
    12
 73
     8
 74
     0
 42
0.000000001
 43
0.00000001
 40
0.0
 40
0.0
 40
0.0
 40
0.0
 40
0.1849681238971053
 40
0.3588172952584425
 40
0.5381374585438964
 40
0.763364347305806
 40
1.0
 40
1.0
 40
1.0
 40
1.0
 10
111.7600242079679
 20
186.2852725794182
 30
0.0
 10
111.760197927972
 20
186.2834479411385
 30
0.0
 10
111.7605349251838
 20
186.279908348702
 30
0.0
 10
111.7633934513667
 20
186.2768402953351
 30
0.0
 10
111.7676049594989
 20
186.2757298447558
 30
0.0
 10
111.7730689103779
 20
186.2765410393899
 30
0.0
 10
111.7772006739542
 20
186.2786303788713
 30
0.0
 10
111.7793175864182
 20
186.2797008536717
 30
0.0
  0
SPLINE
  5
168
330
1F
100
AcDbEntity
  8
0
  6
SLD-実線
 62
     7
370
    25
100
AcDbSpline
210
0.0
220
0.0
230
1.0
 70
     8
 71
     3
 72
    13
 73
     9
 74
     0
 42
0.000000001
 43
0.00000001
 40
0.0
 40
0.0
 40
0.0
 40
0.0
 40
0.3547565676086476
 40
0.6117560390275004
 40
0.7129798701984945
 40
0.8048823203092906
 40
0.8973022810224242
 40
1.0
 40
1.0
 40
1.0
 40
1.0
 10
111.7982602899181
 20
186.3296252711257
 30
0.0
 10
111.7925760595529
 20
186.32620928716
 30
0.0
 10
111.7827739513734
 20
186.3203186313948
 30
0.0
 10
111.7714058965525
 20
186.3108151974861
 30
0.0
 10
111.765173403261
 20
186.3028272740437
 30
0.0
 10
111.7621019963849
 20
186.2970193026083
 30
0.0
 10
111.760289044608
 20
186.2909637596524
 30
0.0
 10
111.7601155333962
 20
186.2872351079878
 30
0.0
 10
111.7600242079679
 20
186.2852725794182
 30
0.0
  0
SPLINE
  5
169
330
1F
100
AcDbEntity
  8
0
  6
SLD-実線
 62
     7
370
    25
100
AcDbSpline
210
0.0
220
0.0
230
1.0
 70
     8
 71
     3
 72
     9
 73
     5
 74
     0
 42
0.000000001
 43
0.00000001
 40
0.0
 40
0.0
 40
0.0
 40
0.0
 40
0.5571647914855414
 40
1.0
 40
1.0
 40
1.0
 40
1.0
 10
111.9701481443996
 20
186.4258158730664
 30
0.0
 10
111.9382320301912
 20
186.4085453726759
 30
0.0
 10
111.8809489521932
 20
186.3775482589774
 30
0.0
 10
111.8236391071138
 20
186.3443338020741
 30
0.0
 10
111.7982602899181
 20
186.3296252711257
 30
0.0
  0
LINE
  5
16A
330
1F
100
AcDbEntity
  8
0
  6
SLD-実線
 62
     7
370
    25
100
AcDbLine
 10
112.0677558004
 20
186.4763911848
 30
0.0
 11
111.9701481444
 21
186.4258158731
 31
0.0
  0
SPLINE
  5
16B
330
1F
100
AcDbEntity
  8
0
  6
SLD-実線
 62
     7
370
    25
100
AcDbSpline
210
0.0
220
0.0
230
1.0
 70
     8
 71
     3
 72
    11
 73
     7
 74
     0
 42
0.000000001
 43
0.00000001
 40
0.0
 40
0.0
 40
0.0
 40
0.0
 40
0.2299882211667642
 40
0.6096581693371963
 40
0.8752050628537509
 40
1.0
 40
1.0
 40
1.0
 40
1.0
 10
112.6144639751067
 20
186.7949359088302
 30
0.0
 10
112.5725549481947
 20
186.7700423124397
 30
0.0
 10
112.461461516991
 20
186.7040537834329
 30
0.0
 10
112.3019602274421
 20
186.6119292942959
 30
0.0
 10
112.1616343437971
 20
186.530609424757
 30
0.0
 10
112.0904984342889
 20
186.4895258750092
 30
0.0
 10
112.0677558003754
 20
186.4763911848331
 30
0.0
  0
SPLINE
  5
16C
330
1F
100
AcDbEntity
  8
0
  6
SLD-実線
 62
     7
370
    25
100
AcDbSpline
210
0.0
220
0.0
230
1.0
 70
     8
 71
     3
 72
     9
 73
     5
 74
     0
 42
0.000000001
 43
0.00000001
 40
0.0
 40
0.0
 40
0.0
 40
0.0
 40
0.4697239760656872
 40
1.0
 40
1.0
 40
1.0
 40
1.0
 10
112.717158064226
 20
186.8682964929303
 30
0.0
 10
112.7011994424391
 20
186.8557299199596
 30
0.0
 10
112.6672249753049
 20
186.8289768189663
 30
0.0
 10
112.6327468815669
 20
186.8067318712551
 30
0.0
 10
112.6144639751067
 20
186.7949359088302
 30
0.0
  0
SPLINE
  5
16D
330
1F
100
AcDbEntity
  8
0
  6
SLD-実線
 62
     7
370
    25
100
AcDbSpline
210
0.0
220
0.0
230
1.0
 70
     8
 71
     3
 72
     9
 73
     5
 74
     0
 42
0.000000001
 43
0.00000001
 40
0.0
 40
0.0
 40
0.0
 40
0.0
 40
0.554361041321129
 40
1.0
 40
1.0
 40
1.0
 40
1.0
 10
112.7505709661998
 20
186.9012568574651
 30
0.0
 10
112.7443088025907
 20
186.895399210633
 30
0.0
 10
112.7330126198825
 20
186.8848327270682
 30
0.0
 10
112.7220454585721
 20
186.8733940244526
 30
0.0
 10
112.717158064226
 20
186.8682964929303
 30
0.0
  0
SPLINE
  5
16E
330
1F
100
AcDbEntity
  8
0
  6
SLD-実線
 62
     7
370
    25
100
AcDbSpline
210
0.0
220
0.0
230
1.0
 70
     8
 71
     3
 72
    12
 73
     8
 74
     0
 42
0.000000001
 43
0.00000001
 40
0.0
 40
0.0
 40
0.0
 40
0.0
 40
0.5955186806210049
 40
0.7092700676447402
 40
0.8095643864895471
 40
0.9026705745031206
 40
1.0
 40
1.0
 40
1.0
 40
1.0
 10
112.7600423179497
 20
186.8818120733049
 30
0.0
 10
112.7599329327561
 20
186.8877793167329
 30
0.0
 10
112.7598026536462
 20
186.8948863769941
 30
0.0
 10
112.7568839034613
 20
186.9005765888248
 30
0.0
 10
112.7552301985452
 20
186.9020357511705
 30
0.0
 10
112.7530675441379
 20
186.902425618002
 30
0.0
 10
112.7514153720987
 20
186.9016521618843
 30
0.0
 10
112.7505709661998
 20
186.9012568574651
 30
0.0
  0
SPLINE
  5
16F
330
1F
100
AcDbEntity
  8
0
  6
SLD-実線
 62
     7
370
    25
100
AcDbSpline
210
0.0
220
0.0
230
1.0
 70
     8
 71
     3
 72
     9
 73
     5
 74
     0
 42
0.000000001
 43
0.00000001
 40
0.0
 40
0.0
 40
0.0
 40
0.0
 40
0.722035793538015
 40
1.0
 40
1.0
 40
1.0
 40
1.0
 10
112.7410118633942
 20
186.7413014195424
 30
0.0
 10
112.7454307548104
 20
186.7750581985469
 30
0.0
 10
112.7515507996277
 20
186.8218104223377
 30
0.0
 10
112.7581953662588
 20
186.8687613859592
 30
0.0
 10
112.7600423179497
 20
186.8818120733049
 30
0.0
  0
SPLINE
  5
170
330
1F
100
AcDbEntity
  8
0
  6
SLD-実線
 62
     7
370
    25
100
AcDbSpline
210
0.0
220
0.0
230
1.0
 70
     8
 71
     3
 72
     9
 73
     5
 74
     0
 42
0.000000001
 43
0.00000001
 40
0.0
 40
0.0
 40
0.0
 40
0.0
 40
0.5858353485109525
 40
1.0
 40
1.0
 40
1.0
 40
1.0
 10
112.7289096263349
 20
186.5524337063
 30
0.0
 10
112.7316704500625
 20
186.5895104356539
 30
0.0
 10
112.7363830774835
 20
186.6527990874024
 30
0.0
 10
112.7396562365925
 20
186.7153818510479
 30
0.0
 10
112.7410118633942
 20
186.7413014195424
 30
0.0
  0
SPLINE
  5
171
330
1F
100
AcDbEntity
  8
0
  6
SLD-実線
 62
     7
370
    25
100
AcDbSpline
210
0.0
220
0.0
230
1.0
 70
     8
 71
     3
 72
    11
 73
     7
 74
     0
 42
0.000000001
 43
0.00000001
 40
0.0
 40
0.0
 40
0.0
 40
0.0
 40
0.1022794711465415
 40
0.2058514988441938
 40
0.44268994192393
 40
0.9999999999999999
 40
0.9999999999999999
 40
0.9999999999999999
 40
0.9999999999999999
 10
112.7123347196134
 20
186.5126866742437
 30
0.0
 10
112.7134661075381
 20
186.5134877864175
 30
0.0
 10
112.7157431812993
 20
186.5151001348182
 30
0.0
 10
112.7198998431072
 20
186.5207208026095
 30
0.0
 10
112.7255285916175
 20
186.533632882018
 30
0.0
 10
112.7275153663024
 20
186.5446806839073
 30
0.0
 10
112.7289096263349
 20
186.5524337063
 30
0.0
  0
SPLINE
  5
172
330
1F
100
AcDbEntity
  8
0
  6
SLD-実線
 62
     7
370
    25
100
AcDbSpline
210
0.0
220
0.0
230
1.0
 70
     8
 71
     3
 72
    13
 73
     9
 74
     0
 42
0.000000001
 43
0.00000001
 40
0.0
 40
0.0
 40
0.0
 40
0.0
 40
0.3140919536427901
 40
0.5631026192988062
 40
0.6697807483795702
 40
0.7721331189305446
 40
0.8790878641744194
 40
1.0
 40
1.0
 40
1.0
 40
1.0
 10
112.6932165140022
 20
186.5373983790041
 30
0.0
 10
112.6933376495376
 20
186.5324872884109
 30
0.0
 10
112.6935548207719
 20
186.5236827076361
 30
0.0
 10
112.6961121500459
 20
186.5147043567422
 30
0.0
 10
112.6997699879464
 20
186.5108074548502
 30
0.0
 10
112.7032253988379
 20
186.5096581820214
 30
0.0
 10
112.7075280777635
 20
186.5102099281127
 30
0.0
 10
112.7106683884867
 20
186.5118280541717
 30
0.0
 10
112.7123347196134
 20
186.5126866742437
 30
0.0
  0
SPLINE
  5
173
330
1F
100
AcDbEntity
  8
0
  6
SLD-実線
 62
     7
370
    25
100
AcDbSpline
210
0.0
220
0.0
230
1.0
 70
     8
 71
     3
 72
     9
 73
     5
 74
     0
 42
0.000000001
 43
0.00000001
 40
0.0
 40
0.0
 40
0.0
 40
0.0
 40
0.624005486921031
 40
1.0
 40
1.0
 40
1.0
 40
1.0
 10
112.678834066584
 20
186.6283403488036
 30
0.0
 10
112.6839244168352
 20
186.6109890548928
 30
0.0
 10
112.6920819576868
 20
186.5831827386431
 30
0.0
 10
112.6929064931806
 20
186.549909088782
 30
0.0
 10
112.6932165140022
 20
186.5373983790041
 30
0.0
  0
SPLINE
  5
174
330
1F
100
AcDbEntity
  8
0
  6
SLD-実線
 62
     7
370
    25
100
AcDbSpline
210
0.0
220
0.0
230
1.0
 70
     8
 71
     3
 72
    11
 73
     7
 74
     0
 42
0.000000001
 43
0.00000001
 40
0.0
 40
0.0
 40
0.0
 40
0.0
 40
0.4406930100055384
 40
0.7123183379532727
 40
0.8630795757721257
 40
1.0
 40
1.0
 40
1.0
 40
1.0
 10
112.5094019245728
 20
186.6239003623671
 30
0.0
 10
112.5381702158967
 20
186.6362121903804
 30
0.0
 10
112.5846701171802
 20
186.656112530682
 30
0.0
 10
112.6390151234319
 20
186.664303009171
 30
0.0
 10
112.6666614828613
 20
186.6505945358792
 30
0.0
 10
112.6749088024811
 20
186.6355166035459
 30
0.0
 10
112.678834066584
 20
186.6283403488036
 30
0.0
  0
SPLINE
  5
175
330
1F
100
AcDbEntity
  8
0
  6
SLD-実線
 62
     7
370
    25
100
AcDbSpline
210
0.0
220
0.0
230
1.0
 70
     8
 71
     3
 72
     9
 73
     5
 74
     0
 42
0.000000001
 43
0.00000001
 40
0.0
 40
0.0
 40
0.0
 40
0.0
 40
0.5642344619390638
 40
0.9999999999999999
 40
0.9999999999999999
 40
0.9999999999999999
 40
0.9999999999999999
 10
112.182552126554
 20
186.4436194816676
 30
0.0
 10
112.2440500441082
 20
186.4787358220005
 30
0.0
 10
112.3530435950211
 20
186.5409729640077
 30
0.0
 10
112.4619460065965
 20
186.5987312791093
 30
0.0
 10
112.5094019245728
 20
186.6239003623671
 30
0.0
  0
SPLINE
  5
176
330
1F
100
AcDbEntity
  8
0
  6
SLD-実線
 62
     7
370
    25
100
AcDbSpline
210
0.0
220
0.0
230
1.0
 70
     8
 71
     3
 72
    13
 73
     9
 74
     0
 42
0.000000001
 43
0.00000001
 40
0.0
 40
0.0
 40
0.0
 40
0.0
 40
0.3434655201494075
 40
0.594984845234355
 40
0.6979089925529138
 40
0.7944200720766629
 40
0.8926964627254125
 40
1.0
 40
1.0
 40
1.0
 40
1.0
 10
112.1682574301915
 20
186.407720510584
 30
0.0
 10
112.1683652669042
 20
186.4119446884763
 30
0.0
 10
112.1685520722923
 20
186.4192622259933
 30
0.0
 10
112.1707629797618
 20
186.4288247132769
 30
0.0
 10
112.173673263957
 20
186.434890814231
 30
0.0
 10
112.1762329732814
 20
186.4385150653166
 30
0.0
 10
112.1792606565255
 20
186.4415255973758
 30
0.0
 10
112.1814233152994
 20
186.4429013830265
 30
0.0
 10
112.182552126554
 20
186.4436194816676
 30
0.0
  0
LINE
  5
177
330
1F
100
AcDbEntity
  8
0
  6
SLD-実線
 62
     7
370
    25
100
AcDbLine
 10
112.1682574302
 20
185.6472825958
 30
0.0
 11
112.1682574302
 21
186.4077205106
 31
0.0
  0
SPLINE
  5
178
330
1F
100
AcDbEntity
  8
0
  6
SLD-実線
 62
     7
370
    25
100
AcDbSpline
210
0.0
220
0.0
230
1.0
 70
     8
 71
     3
 72
    13
 73
     9
 74
     0
 42
0.000000001
 43
0.00000001
 40
0.0
 40
0.0
 40
0.0
 40
0.0
 40
0.1273151566064998
 40
0.2333885070839846
 40
0.3289220547563796
 40
0.4265649529507462
 40
0.6665991426928943
 40
1.0
 40
1.0
 40
1.0
 40
1.0
 10
112.182552126554
 20
185.6278879892768
 30
0.0
 10
112.1811810484048
 20
185.6271554401245
 30
0.0
 10
112.1786676486582
 20
185.6258125634587
 30
0.0
 10
112.1752406668006
 20
185.6250570087735
 30
0.0
 10
112.1725631777115
 20
185.6256920139991
 30
0.0
 10
112.169867993453
 20
185.6286295391065
 30
0.0
 10
112.1683680237253
 20
185.6361230185108
 30
0.0
 10
112.1682980902258
 20
185.6431797447786
 30
0.0
 10
112.1682574301915
 20
185.647282595833
 30
0.0
  0
SPLINE
  5
179
330
1F
100
AcDbEntity
  8
0
  6
SLD-実線
 62
     7
370
    25
100
AcDbSpline
210
0.0
220
0.0
230
1.0
 70
     8
 71
     3
 72
     9
 73
     5
 74
     0
 42
0.000000001
 43
0.00000001
 40
0.0
 40
0.0
 40
0.0
 40
0.0
 40
0.6029034813172196
 40
1.0
 40
1.0
 40
1.0
 40
1.0
 10
112.5618452811021
 20
185.8525203949223
 30
0.0
 10
112.485629630848
 20
185.8063450775844
 30
0.0
 10
112.3592152832518
 20
185.7297568362343
 30
0.0
 10
112.2327650671534
 20
185.6568421552547
 30
0.0
 10
112.182552126554
 20
185.6278879892768
 30
0.0
  0
SPLINE
  5
17A
330
1F
100
AcDbEntity
  8
0
  6
SLD-実線
 62
     7
370
    25
100
AcDbSpline
210
0.0
220
0.0
230
1.0
 70
     8
 71
     3
 72
    10
 73
     6
 74
     0
 42
0.000000001
 43
0.00000001
 40
0.0
 40
0.0
 40
0.0
 40
0.0
 40
0.2209141216938241
 40
0.4698895128243841
 40
1.0
 40
1.0
 40
1.0
 40
1.0
 10
112.6739229709157
 20
185.9556028738082
 30
0.0
 10
112.6672473138952
 20
185.9449322698854
 30
0.0
 10
112.653048035003
 20
185.922235645331
 30
0.0
 10
112.613678303367
 20
185.8872731985678
 30
0.0
 10
112.5828331400735
 20
185.8665922531683
 30
0.0
 10
112.5618452811021
 20
185.8525203949223
 30
0.0
  0
SPLINE
  5
17B
330
1F
100
AcDbEntity
  8
0
  6
SLD-実線
 62
     7
370
    25
100
AcDbSpline
210
0.0
220
0.0
230
1.0
 70
     8
 71
     3
 72
    11
 73
     7
 74
     0
 42
0.000000001
 43
0.00000001
 40
0.0
 40
0.0
 40
0.0
 40
0.0
 40
0.1139298500637797
 40
0.2519890744594939
 40
0.4262990083894074
 40
1.0
 40
1.0
 40
1.0
 40
1.0
 10
112.7097914207236
 20
186.0123614802313
 30
0.0
 10
112.7079505624816
 20
186.0109605722779
 30
0.0
 10
112.7038789678612
 20
186.0078620559682
 30
0.0
 10
112.6981914629273
 20
185.9997223389691
 30
0.0
 10
112.6878940043453
 20
185.9824080544099
 30
0.0
 10
112.6799872241227
 20
185.9672379044771
 30
0.0
 10
112.6739229709157
 20
185.9556028738082
 30
0.0
  0
SPLINE
  5
17C
330
1F
100
AcDbEntity
  8
0
  6
SLD-実線
 62
     7
370
    25
100
AcDbSpline
210
0.0
220
0.0
230
1.0
 70
     8
 71
     3
 72
    12
 73
     8
 74
     0
 42
0.000000001
 43
0.00000001
 40
0.0
 40
0.0
 40
0.0
 40
0.0
 40
0.2763793891017383
 40
0.4886842627241027
 40
0.6546116319200114
 40
0.8228935576458963
 40
1.0
 40
1.0
 40
1.0
 40
1.0
 10
112.7217183203077
 20
185.9972711019369
 30
0.0
 10
112.7216527516128
 20
185.9999389622647
 30
0.0
 10
112.7215368153651
 20
186.0046561785579
 30
0.0
 10
112.7202568186394
 20
186.0102070035222
 30
0.0
 10
112.7179808795377
 20
186.0136508025435
 30
0.0
 10
112.7142713610993
 20
186.014565825647
 30
0.0
 10
112.711309955044
 20
186.0131086719096
 30
0.0
 10
112.7097914207236
 20
186.0123614802313
 30
0.0
  0
SPLINE
  5
17D
330
1F
100
AcDbEntity
  8
0
  6
SLD-実線
 62
     7
370
    25
100
AcDbSpline
210
0.0
220
0.0
230
1.0
 70
     8
 71
     3
 72
     9
 73
     5
 74
     0
 42
0.000000001
 43
0.00000001
 40
0.0
 40
0.0
 40
0.0
 40
0.0
 40
0.7351156105346491
 40
1.0
 40
1.0
 40
1.0
 40
1.0
 10
112.7029509542831
 20
185.8318986072153
 30
0.0
 10
112.7071465006681
 20
185.8722559533566
 30
0.0
 10
112.712853829318
 20
185.9271552719982
 30
0.0
 10
112.719861972563
 20
185.9825878716276
 30
0.0
 10
112.7217183203077
 20
185.9972711019369
 30
0.0
  0
SPLINE
  5
17E
330
1F
100
AcDbEntity
  8
0
  6
SLD-実線
 62
     7
370
    25
100
AcDbSpline
210
0.0
220
0.0
230
1.0
 70
     8
 71
     3
 72
     9
 73
     5
 74
     0
 42
0.000000001
 43
0.00000001
 40
0.0
 40
0.0
 40
0.0
 40
0.0
 40
0.4960333101084949
 40
1.0
 40
1.0
 40
1.0
 40
1.0
 10
112.6932165140022
 20
185.6499676172593
 30
0.0
 10
112.6942497382084
 20
185.6797585464394
 30
0.0
 10
112.6963327116403
 20
185.739816870292
 30
0.0
 10
112.7007332363908
 20
185.8010427854285
 30
0.0
 10
112.7029509542831
 20
185.8318986072153
 30
0.0
  0
SPLINE
  5
17F
330
1F
100
AcDbEntity
  8
0
  6
SLD-実線
 62
     7
370
    25
100
AcDbSpline
210
0.0
220
0.0
230
1.0
 70
     8
 71
     3
 72
    12
 73
     8
 74
     0
 42
0.000000001
 43
0.00000001
 40
0.0
 40
0.0
 40
0.0
 40
0.0
 40
0.106422517066003
 40
0.205477500273747
 40
0.3134552971419963
 40
0.435898774210376
 40
1.0
 40
1.0
 40
1.0
 40
1.0
 10
112.6764662698055
 20
185.5879412133918
 30
0.0
 10
112.6783774193743
 20
185.5892802176141
 30
0.0
 10
112.6820674113692
 20
185.5918655280169
 30
0.0
 10
112.6865336690149
 20
185.5987372994063
 30
0.0
 10
112.6894447978566
 20
185.6063200705008
 30
0.0
 10
112.6934835716781
 20
185.6243111643601
 30
0.0
 10
112.6933369698074
 20
185.638395327934
 30
0.0
 10
112.6932165140022
 20
185.6499676172593
 30
0.0
  0
SPLINE
  5
180
330
1F
100
AcDbEntity
  8
0
  6
SLD-実線
 62
     7
370
    25
100
AcDbSpline
210
0.0
220
0.0
230
1.0
 70
     8
 71
     3
 72
    12
 73
     8
 74
     0
 42
0.000000001
 43
0.00000001
 40
0.0
 40
0.0
 40
0.0
 40
0.0
 40
0.3051276809567156
 40
0.572049341664788
 40
0.7052057807099151
 40
0.8440182955543698
 40
1.0
 40
1.0
 40
1.0
 40
1.0
 10
112.6598913630841
 20
185.6029813738653
 30
0.0
 10
112.6600717245879
 20
185.5995046248303
 30
0.0
 10
112.6604098639502
 20
185.5929864617112
 30
0.0
 10
112.6636626573372
 20
185.5871335530917
 30
0.0
 10
112.6678294911729
 20
185.5853538739508
 30
0.0
 10
112.67188036435
 20
185.5856305077849
 30
0.0
 10
112.6748794118752
 20
185.5871416414092
 30
0.0
 10
112.6764662698055
 20
185.5879412133918
 30
0.0
  0
SPLINE
  5
181
330
1F
100
AcDbEntity
  8
0
  6
SLD-実線
 62
     7
370
    25
100
AcDbSpline
210
0.0
220
0.0
230
1.0
 70
     8
 71
     3
 72
     9
 73
     5
 74
     0
 42
0.000000001
 43
0.00000001
 40
0.0
 40
0.0
 40
0.0
 40
0.0
 40
0.5960598301820782
 40
1.0
 40
1.0
 40
1.0
 40
1.0
 10
112.6501569228032
 20
185.6885049896594
 30
0.0
 10
112.6538885113866
 20
185.6727733243584
 30
0.0
 10
112.6601489375963
 20
185.646380562249
 30
0.0
 10
112.6599654721483
 20
185.6154681421069
 30
0.0
 10
112.6598913630841
 20
185.6029813738653
 30
0.0
  0
SPLINE
  5
182
330
1F
100
AcDbEntity
  8
0
  6
SLD-実線
 62
     7
370
    25
100
AcDbSpline
210
0.0
220
0.0
230
1.0
 70
     8
 71
     3
 72
    12
 73
     8
 74
     0
 42
0.000000001
 43
0.00000001
 40
0.0
 40
0.0
 40
0.0
 40
0.0
 40
0.2863390232512265
 40
0.5051268361291841
 40
0.6783223964805589
 40
0.8491297478835496
 40
1.0
 40
1.0
 40
1.0
 40
1.0
 10
112.5260645823499
 20
185.7133785063435
 30
0.0
 10
112.5412552378608
 20
185.7196805999913
 30
0.0
 10
112.5680528698072
 20
185.7307980389947
 30
0.0
 10
112.6021445157559
 20
185.7348874330572
 30
0.0
 10
112.6265641862028
 20
185.7280362493989
 30
0.0
 10
112.6422821497507
 20
185.7117704168869
 30
0.0
 10
112.6476427457064
 20
185.6959329376006
 30
0.0
 10
112.6501569228032
 20
185.6885049896594
 30
0.0
  0
SPLINE
  5
183
330
1F
100
AcDbEntity
  8
0
  6
SLD-実線
 62
     7
370
    25
100
AcDbSpline
210
0.0
220
0.0
230
1.0
 70
     8
 71
     3
 72
     9
 73
     5
 74
     0
 42
0.000000001
 43
0.00000001
 40
0.0
 40
0.0
 40
0.0
 40
0.0
 40
0.549924160925968
 40
1.0
 40
1.0
 40
1.0
 40
1.0
 10
112.1848323369129
 20
185.53006080118
 30
0.0
 10
112.2474302028352
 20
185.5652014946017
 30
0.0
 10
112.3612602004423
 20
185.6291024757161
 30
0.0
 10
112.4749124505293
 20
185.6872208363952
 30
0.0
 10
112.5260645823499
 20
185.7133785063435
 30
0.0
  0
SPLINE
  5
184
330
1F
100
AcDbEntity
  8
0
  6
SLD-実線
 62
     7
370
    25
100
AcDbSpline
210
0.0
220
0.0
230
1.0
 70
     8
 71
     3
 72
    12
 73
     8
 74
     0
 42
0.000000001
 43
0.00000001
 40
0.0
 40
0.0
 40
0.0
 40
0.0
 40
0.2777876514111608
 40
0.5294790122431889
 40
0.6671368015326699
 40
0.820688084661201
 40
1.0
 40
1.0
 40
1.0
 40
1.0
 10
112.1682574301915
 20
185.5012509721874
 30
0.0
 10
112.168428719343
 20
185.5042250621763
 30
0.0
 10
112.1687552061766
 20
185.5098938463055
 30
0.0
 10
112.1721508083732
 20
185.5179253088728
 30
0.0
 10
112.1762403121988
 20
185.523347775856
 30
0.0
 10
112.1802704832496
 20
185.5271863905838
 30
0.0
 10
112.1832352372183
 20
185.5290544733527
 30
0.0
 10
112.1848323369129
 20
185.53006080118
 30
0.0
  0
LINE
  5
185
330
1F
100
AcDbEntity
  8
0
  6
SLD-実線
 62
     7
370
    25
100
AcDbLine
 10
112.1682574302
 20
185.2589113931
 30
0.0
 11
112.1682574302
 21
185.5012509722
 31
0.0
  0
SPLINE
  5
186
330
1F
100
AcDbEntity
  8
0
  6
SLD-実線
 62
     7
370
    25
100
AcDbSpline
210
0.0
220
0.0
230
1.0
 70
     8
 71
     3
 72
     9
 73
     5
 74
     0
 42
0.000000001
 43
0.00000001
 40
0.0
 40
0.0
 40
0.0
 40
0.0
 40
0.5472855394908719
 40
0.9999999999999999
 40
0.9999999999999999
 40
0.9999999999999999
 40
0.9999999999999999
 10
112.1682574301915
 20
184.7873973328157
 30
0.0
 10
112.1678150665607
 20
184.8731597681642
 30
0.0
 10
112.1670067798458
 20
185.0298648684457
 30
0.0
 10
112.167867685674
 20
185.1875328278892
 30
0.0
 10
112.1682574301915
 20
185.2589113930882
 30
0.0
  0
SPLINE
  5
187
330
1F
100
AcDbEntity
  8
0
  6
SLD-実線
 62
     7
370
    25
100
AcDbSpline
210
0.0
220
0.0
230
1.0
 70
     8
 71
     3
 72
    13
 73
     9
 74
     0
 42
0.000000001
 43
0.00000001
 40
0.0
 40
0.0
 40
0.0
 40
0.0
 40
0.4155274275402828
 40
0.521670354330428
 40
0.6105758014140169
 40
0.7148924802858589
 40
0.8400355599743685
 40
1.0
 40
1.0
 40
1.0
 40
1.0
 10
112.4449440820398
 20
184.7213938476492
 30
0.0
 10
112.3886776656257
 20
184.6884589481768
 30
0.0
 10
112.3180384744622
 20
184.6471111103715
 30
0.0
 10
112.2390494533226
 20
184.6294751765022
 30
0.0
 10
112.2052173012989
 20
184.6368177719298
 30
0.0
 10
112.1826848731521
 20
184.6673672617497
 30
0.0
 10
112.171632224553
 20
184.7204799275975
 30
0.0
 10
112.1694703735783
 20
184.7633463787633
 30
0.0
 10
112.1682574301915
 20
184.7873973328157
 30
0.0
  0
SPLINE
  5
188
330
1F
100
AcDbEntity
  8
0
  6
SLD-実線
 62
     7
370
    25
100
AcDbSpline
210
0.0
220
0.0
230
1.0
 70
     8
 71
     3
 72
     9
 73
     5
 74
     0
 42
0.000000001
 43
0.00000001
 40
0.0
 40
0.0
 40
0.0
 40
0.0
 40
0.5693553794947203
 40
1.0
 40
1.0
 40
1.0
 40
1.0
 10
112.6739229709157
 20
184.8837591361303
 30
0.0
 10
112.6309803697264
 20
184.8474690252252
 30
0.0
 10
112.5555571758199
 20
184.7837300807767
 30
0.0
 10
112.4782402152032
 20
184.7401579509591
 30
0.0
 10
112.4449440820398
 20
184.7213938476492
 30
0.0
  0
SPLINE
  5
189
330
1F
100
AcDbEntity
  8
0
  6
SLD-実線
 62
     7
370
    25
100
AcDbSpline
210
0.0
220
0.0
230
1.0
 70
     8
 71
     3
 72
    11
 73
     7
 74
     0
 42
0.000000001
 43
0.00000001
 40
0.0
 40
0.0
 40
0.0
 40
0.0
 40
0.3433809609102533
 40
0.6129867966692978
 40
0.8023280905469689
 40
1.0
 40
1.0
 40
1.0
 40
1.0
 10
112.7814405692837
 20
185.1441147161259
 30
0.0
 10
112.7767735454323
 20
185.1137966396689
 30
0.0
 10
112.7684422040759
 20
185.0596743012628
 30
0.0
 10
112.7439257677875
 20
184.985232005094
 30
0.0
 10
112.7113005825282
 20
184.9266423179911
 30
0.0
 10
112.686559693994
 20
184.8982571971489
 30
0.0
 10
112.6739229709157
 20
184.8837591361303
 30
0.0
  0
SPLINE
  5
18A
330
1F
100
AcDbEntity
  8
0
  6
SLD-実線
 62
     7
370
    25
100
AcDbSpline
210
0.0
220
0.0
230
1.0
 70
     8
 71
     3
 72
    13
 73
     9
 74
     0
 42
0.000000001
 43
0.00000001
 40
0.0
 40
0.0
 40
0.0
 40
0.0
 40
0.0932232790027632
 40
0.1783348193787182
 40
0.265294028255786
 40
0.3640932338039307
 40
0.6251347018441948
 40
1.0
 40
1.0
 40
1.0
 40
1.0
 10
112.803014158093
 20
185.1979883982702
 30
0.0
 10
112.8015904180177
 20
185.197082045077
 30
0.0
 10
112.7988668233117
 20
185.1953482041875
 30
0.0
 10
112.7950449562881
 20
185.1913755319863
 30
0.0
 10
112.7918336994663
 20
185.1864352200294
 30
0.0
 10
112.7879525556747
 20
185.1776673998342
 30
0.0
 10
112.784361672793
 20
185.1632108998618
 30
0.0
 10
112.7825239197013
 20
185.1511969227502
 30
0.0
 10
112.7814405692837
 20
185.1441147161259
 30
0.0
  0
SPLINE
  5
18B
330
1F
100
AcDbEntity
  8
0
  6
SLD-実線
 62
     7
370
    25
100
AcDbSpline
210
0.0
220
0.0
230
1.0
 70
     8
 71
     3
 72
    12
 73
     8
 74
     0
 42
0.000000001
 43
0.00000001
 40
0.0
 40
0.0
 40
0.0
 40
0.0
 40
0.5645026414211879
 40
0.6816992501535944
 40
0.7864814855494178
 40
0.8870345597079262
 40
0.9999999999999999
 40
0.9999999999999999
 40
0.9999999999999999
 40
0.9999999999999999
 10
112.8174843565669
 20
185.1649223516215
 30
0.0
 10
112.8176373383803
 20
185.1744677194874
 30
0.0
 10
112.8178220808064
 20
185.1859948048173
 30
0.0
 10
112.8142199688577
 20
185.1963410258343
 30
0.0
 10
112.8116402136506
 20
185.1993649729467
 30
0.0
 10
112.8077455410999
 20
185.2002491360747
 30
0.0
 10
112.8046512454806
 20
185.1987706273439
 30
0.0
 10
112.803014158093
 20
185.1979883982702
 30
0.0
  0
SPLINE
  5
18C
330
1F
100
AcDbEntity
  8
0
  6
SLD-実線
 62
     7
370
    25
100
AcDbSpline
210
0.0
220
0.0
230
1.0
 70
     8
 71
     3
 72
    10
 73
     6
 74
     0
 42
0.000000001
 43
0.00000001
 40
0.0
 40
0.0
 40
0.0
 40
0.0
 40
0.627477135703049
 40
0.8913519533548946
 40
1.0
 40
1.0
 40
1.0
 40
1.0
 10
112.7862639138963
 20
184.8796471332838
 30
0.0
 10
112.7941586187735
 20
184.9398903783939
 30
0.0
 10
112.8053733072666
 20
185.0254678937325
 30
0.0
 10
112.8147248828028
 20
185.1201771363604
 30
0.0
 10
112.8168612693698
 20
185.1548189141022
 30
0.0
 10
112.8174843565669
 20
185.1649223516215
 30
0.0
  0
SPLINE
  5
18D
330
1F
100
AcDbEntity
  8
0
  6
SLD-実線
 62
     7
370
    25
100
AcDbSpline
210
0.0
220
0.0
230
1.0
 70
     8
 71
     3
 72
    13
 73
     9
 74
     0
 42
0.000000001
 43
0.00000001
 40
0.0
 40
0.0
 40
0.0
 40
0.0
 40
0.4215040230646691
 40
0.5327038724759974
 40
0.6250170879073766
 40
0.7278239401788406
 40
0.8464721274816724
 40
1.0
 40
1.0
 40
1.0
 40
1.0
 10
112.6573482288304
 20
184.733323830979
 30
0.0
 10
112.6801018262054
 20
184.7460020519618
 30
0.0
 10
112.7088582051987
 20
184.7620250008404
 30
0.0
 10
112.7421979353393
 20
184.7873195320163
 30
0.0
 10
112.7577786633303
 20
184.8032936909905
 30
0.0
 10
112.7706292099022
 20
184.8241376676307
 30
0.0
 10
112.7799757294188
 20
184.8505546491196
 30
0.0
 10
112.7839961134099
 20
184.8691550826808
 30
0.0
 10
112.7862639138963
 20
184.8796471332838
 30
0.0
  0
SPLINE
  5
18E
330
1F
100
AcDbEntity
  8
0
  6
SLD-実線
 62
     7
370
    25
100
AcDbSpline
210
0.0
220
0.0
230
1.0
 70
     8
 71
     3
 72
     9
 73
     5
 74
     0
 42
0.000000001
 43
0.00000001
 40
0.0
 40
0.0
 40
0.0
 40
0.0
 40
0.481098929769589
 40
1.0
 40
1.0
 40
1.0
 40
1.0
 10
112.2541136886946
 20
184.5089469772644
 30
0.0
 10
112.3187657427275
 20
184.5440913847271
 30
0.0
 10
112.4531498579941
 20
184.6171416562782
 30
0.0
 10
112.5875880876053
 20
184.693632598959
 30
0.0
 10
112.6573482288304
 20
184.733323830979
 30
0.0
  0
SPLINE
  5
18F
330
1F
100
AcDbEntity
  8
0
  6
SLD-実線
 62
     7
370
    25
100
AcDbSpline
210
0.0
220
0.0
230
1.0
 70
     8
 71
     3
 72
     9
 73
     5
 74
     0
 42
0.000000001
 43
0.00000001
 40
0.0
 40
0.0
 40
0.0
 40
0.0
 40
0.4450418557975926
 40
1.0
 40
1.0
 40
1.0
 40
1.0
 10
112.0677558003754
 20
184.409466449699
 30
0.0
 10
112.0954194173051
 20
184.4248035166108
 30
0.0
 10
112.1575790020033
 20
184.4592655940806
 30
0.0
 10
112.2196608574225
 20
184.4912158966461
 30
0.0
 10
112.2541136886946
 20
184.5089469772644
 30
0.0
  0
SPLINE
  5
190
330
1F
100
AcDbEntity
  8
0
  6
SLD-実線
 62
     7
370
    25
100
AcDbSpline
210
0.0
220
0.0
230
1.0
 70
     8
 71
     3
 72
     9
 73
     5
 74
     0
 42
0.000000001
 43
0.00000001
 40
0.0
 40
0.0
 40
0.0
 40
0.0
 40
0.7412769228121423
 40
1.0
 40
1.0
 40
1.0
 40
1.0
 10
111.9724281901223
 20
184.3521057888995
 30
0.0
 10
111.9959782150781
 20
184.3666042315998
 30
0.0
 10
112.0277477525222
 20
184.3861629717334
 30
0.0
 10
112.0595323829769
 20
184.404676557754
 30
0.0
 10
112.0677558003754
 20
184.409466449699
 30
0.0
  0
SPLINE
  5
191
330
1F
100
AcDbEntity
  8
0
  6
SLD-実線
 62
     7
370
    25
100
AcDbSpline
210
0.0
220
0.0
230
1.0
 70
     8
 71
     3
 72
     9
 73
     5
 74
     0
 42
0.000000001
 43
0.00000001
 40
0.0
 40
0.0
 40
0.0
 40
0.0
 40
0.5309207184141929
 40
1.0
 40
1.0
 40
1.0
 40
1.0
 10
111.8340409886703
 20
184.2664441693578
 30
0.0
 10
111.8585263797795
 20
184.2817775253219
 30
0.0
 10
111.904645113255
 20
184.3106582139675
 30
0.0
 10
111.9507849490807
 20
184.3388715142649
 30
0.0
 10
111.9724281901223
 20
184.3521057888995
 30
0.0
  0
SPLINE
  5
192
330
1F
100
AcDbEntity
  8
0
  6
SLD-実線
 62
     7
370
    25
100
AcDbSpline
210
0.0
220
0.0
230
1.0
 70
     8
 71
     3
 72
    13
 73
     9
 74
     0
 42
0.000000001
 43
0.00000001
 40
0.0
 40
0.0
 40
0.0
 40
0.0
 40
0.1017644510989636
 40
0.1934041163040084
 40
0.2847629054967736
 40
0.3857467012829195
 40
0.6432769585003518
 40
1.0
 40
1.0
 40
1.0
 40
1.0
 10
111.7958049067201
 20
184.2663465205461
 30
0.0
 10
111.7958954898848
 20
184.2645126832433
 30
0.0
 10
111.7960676438808
 20
184.2610274614475
 30
0.0
 10
111.7978738172327
 20
184.2571222486656
 30
0.0
 10
111.8009369623434
 20
184.2549099939242
 30
0.0
 10
111.807166002756
 20
184.2541749932834
 30
0.0
 10
111.8185371348873
 20
184.2578528730011
 30
0.0
 10
111.8283450909977
 20
184.2632878479936
 30
0.0
 10
111.8340409886703
 20
184.2664441693578
 30
0.0
  0
SPLINE
  5
193
330
1F
100
AcDbEntity
  8
0
  6
SLD-実線
 62
     7
370
    25
100
AcDbSpline
210
0.0
220
0.0
230
1.0
 70
     8
 71
     3
 72
    12
 73
     8
 74
     0
 42
0.000000001
 43
0.00000001
 40
0.0
 40
0.0
 40
0.0
 40
0.0
 40
0.261941168825112
 40
0.4696600624951505
 40
0.6420869542810151
 40
0.8236187342020385
 40
1.0
 40
1.0
 40
1.0
 40
1.0
 10
111.8150982851705
 20
184.2941939069007
 30
0.0
 10
111.8127261033825
 20
184.2926999187642
 30
0.0
 10
111.808472785541
 20
184.2900212006202
 30
0.0
 10
111.8029009996983
 20
184.2845612182416
 30
0.0
 10
111.7988029923395
 20
184.2785964068927
 30
0.0
 10
111.7962268934263
 20
184.2721967016211
 30
0.0
 10
111.7959442129934
 20
184.2682777826257
 30
0.0
 10
111.7958049067201
 20
184.2663465205461
 30
0.0
  0
SPLINE
  5
194
330
1F
100
AcDbEntity
  8
0
  6
SLD-実線
 62
     7
370
    25
100
AcDbSpline
210
0.0
220
0.0
230
1.0
 70
     8
 71
     3
 72
     9
 73
     5
 74
     0
 42
0.000000001
 43
0.00000001
 40
0.0
 40
0.0
 40
0.0
 40
0.0
 40
0.5682267685714517
 40
1.0
 40
1.0
 40
1.0
 40
1.0
 10
111.8865720962553
 20
184.3466959271758
 30
0.0
 10
111.873157284355
 20
184.3357251768942
 30
0.0
 10
111.8495490831187
 20
184.3164181838268
 30
0.0
 10
111.8254874529722
 20
184.3008959793057
 30
0.0
 10
111.8150982851705
 20
184.2941939069007
 30
0.0
  0
SPLINE
  5
195
330
1F
100
AcDbEntity
  8
0
  6
SLD-実線
 62
     7
370
    25
100
AcDbSpline
210
0.0
220
0.0
230
1.0
 70
     8
 71
     3
 72
    10
 73
     6
 74
     0
 42
0.000000001
 43
0.00000001
 40
0.0
 40
0.0
 40
0.0
 40
0.0
 40
0.6273497773307345
 40
0.8141056246683257
 40
1.0
 40
1.0
 40
1.0
 40
1.0
 10
111.9557656969813
 20
184.5381407202785
 30
0.0
 10
111.9517703325122
 20
184.4974186028673
 30
0.0
 10
111.9465855874074
 20
184.4445739123441
 30
0.0
 10
111.9151206632538
 20
184.3742595059865
 30
0.0
 10
111.8960736079481
 20
184.3558696158719
 30
0.0
 10
111.8865720962553
 20
184.3466959271758
 30
0.0
  0
SPLINE
  5
196
330
1F
100
AcDbEntity
  8
0
  6
SLD-実線
 62
     7
370
    25
100
AcDbSpline
210
0.0
220
0.0
230
1.0
 70
     8
 71
     3
 72
     9
 73
     5
 74
     0
 42
0.000000001
 43
0.00000001
 40
0.0
 40
0.0
 40
0.0
 40
0.0
 40
0.6532550466423073
 40
1.0
 40
1.0
 40
1.0
 40
1.0
 10
111.9676925965654
 20
185.1431277791594
 30
0.0
 10
111.9687830862299
 20
185.013389856022
 30
0.0
 10
111.9704524030918
 20
184.8147876044141
 30
0.0
 10
111.9595470671752
 20
184.6093686916156
 30
0.0
 10
111.9557656969813
 20
184.5381407202785
 30
0.0
  0
LINE
  5
197
330
1F
100
AcDbEntity
  8
0
  6
SLD-実線
 62
     7
370
    25
100
AcDbLine
 10
111.9676925966
 20
185.6278069492
 30
0.0
 11
111.9676925966
 21
185.1431277792
 31
0.0
  0
SPLINE
  5
198
330
1F
100
AcDbEntity
  8
0
  6
SLD-実線
 62
     7
370
    25
100
AcDbSpline
210
0.0
220
0.0
230
1.0
 70
     8
 71
     3
 72
     9
 73
     5
 74
     0
 42
0.000000001
 43
0.00000001
 40
0.0
 40
0.0
 40
0.0
 40
0.0
 40
0.3388493640247646
 40
1.0
 40
1.0
 40
1.0
 40
1.0
 10
111.9631323404838
 20
186.2205418363647
 30
0.0
 10
111.9647472632242
 20
186.154243370645
 30
0.0
 10
111.9695131648663
 20
185.9585857340709
 30
0.0
 10
111.9684171966492
 20
185.7594594310931
 30
0.0
 10
111.9676925965654
 20
185.62780694924
 30
0.0
  0
LINE
  5
199
330
1F
100
AcDbEntity
  8
0
  6
SLD-実線
 62
     7
370
    25
100
AcDbLine
 10
111.7982602899
 20
186.3296252711
 30
0.0
 11
111.4447068414
 21
186.5337273325
 31
0.0
  0
LINE
  5
19A
330
1F
100
AcDbEntity
  8
0
  6
SLD-実線
 62
     7
370
    25
100
AcDbLine
 10
111.760024208
 20
186.2852725794
 30
0.0
 11
111.4064707594
 21
186.4893746408
 31
0.0
  0
LINE
  5
19B
330
1F
100
AcDbEntity
  8
0
  6
SLD-実線
 62
     7
370
    25
100
AcDbLine
 10
111.9701481444
 20
186.4258158731
 30
0.0
 11
111.6165946959
 21
186.6299179345
 31
0.0
  0
LINE
  5
19C
330
1F
100
AcDbEntity
  8
0
  6
SLD-実線
 62
     7
370
    25
100
AcDbLine
 10
112.0677558004
 20
186.4763911848
 30
0.0
 11
111.7142023518
 21
186.6804932462
 31
0.0
  0
LINE
  5
19D
330
1F
100
AcDbEntity
  8
0
  6
SLD-実線
 62
     7
370
    25
100
AcDbLine
 10
112.6144639751
 20
186.7949359088
 30
0.0
 11
112.2609105266
 21
186.9990379702
 31
0.0
  0
LINE
  5
19E
330
1F
100
AcDbEntity
  8
0
  6
SLD-実線
 62
     7
370
    25
100
AcDbLine
 10
111.9676925966
 20
185.6278069492
 30
0.0
 11
111.614139148
 21
185.8319090107
 31
0.0
  0
LINE
  5
19F
330
1F
100
AcDbEntity
  8
0
  6
SLD-実線
 62
     7
370
    25
100
AcDbLine
 10
110.5560207842
 20
183.5785850044
 30
0.0
 11
110.2024673356
 21
183.7826870658
 31
0.0
  0
LINE
  5
1A0
330
1F
100
AcDbEntity
  8
0
  6
SLD-実線
 62
     7
370
    25
100
AcDbLine
 10
110.4841962982
 20
183.5258805438
 30
0.0
 11
110.1306428496
 21
183.7299826052
 31
0.0
  0
LINE
  5
1A1
330
1F
100
AcDbEntity
  8
0
  6
SLD-実線
 62
     7
370
    25
100
AcDbLine
 10
110.4652535947
 20
183.4982355978
 30
0.0
 11
110.1117001461
 21
183.7023376592
 31
0.0
  0
LINE
  5
1A2
330
1F
100
AcDbEntity
  8
0
  6
SLD-実線
 62
     7
370
    25
100
AcDbLine
 10
112.7171580642
 20
186.8682964929
 30
0.0
 11
112.3636046157
 21
187.0723985543
 31
0.0
  0
LINE
  5
1A3
330
1F
100
AcDbEntity
  8
0
  6
SLD-実線
 62
     7
370
    25
100
AcDbLine
 10
112.6788340666
 20
186.6283403488
 30
0.0
 11
112.6270810293
 21
186.6582167413
 31
0.0
  0
LINE
  5
1A4
330
1F
100
AcDbEntity
  8
0
  6
SLD-実線
 62
     7
370
    25
100
AcDbLine
 10
111.9676925966
 20
185.1431277792
 30
0.0
 11
111.614139148
 21
185.3472298406
 31
0.0
  0
LINE
  5
1A5
330
1F
100
AcDbEntity
  8
0
  6
SLD-実線
 62
     7
370
    25
100
AcDbLine
 10
112.7505709662
 20
186.9012568575
 30
0.0
 11
112.3970175177
 21
187.1053589189
 31
0.0
  0
LINE
  5
1A6
330
1F
100
AcDbEntity
  8
0
  6
SLD-実線
 62
     7
370
    25
100
AcDbLine
 10
111.4650963672
 20
184.23543945
 30
0.0
 11
111.1115429186
 21
184.4395415115
 31
0.0
  0
LINE
  5
1A7
330
1F
100
AcDbEntity
  8
0
  6
SLD-実線
 62
     7
370
    25
100
AcDbLine
 10
111.527274164
 20
184.4366068967
 30
0.0
 11
111.1737207154
 21
184.6407089581
 31
0.0
  0
LINE
  5
1A8
330
1F
100
AcDbEntity
  8
0
  6
SLD-実線
 62
     7
370
    25
100
AcDbLine
 10
112.5618452811
 20
185.8525203949
 30
0.0
 11
112.2082918326
 21
186.0566224563
 31
0.0
  0
LINE
  5
1A9
330
1F
100
AcDbEntity
  8
0
  6
SLD-実線
 62
     7
370
    25
100
AcDbLine
 10
111.5486722507
 20
184.4847081592
 30
0.0
 11
111.1951188021
 21
184.6888102206
 31
0.0
  0
SPLINE
  5
1AA
330
1F
100
AcDbEntity
  8
0
  6
SLD-実線
 62
     7
370
    25
100
AcDbSpline
210
0.0
220
0.0
230
1.0
 70
     8
 71
     3
 72
    11
 73
     7
 74
     0
 42
0.000000001
 43
0.00000001
 40
0.0
 40
0.0
 40
0.0
 40
0.0
 40
0.6277867317949409
 40
0.8685237789853524
 40
0.9417449465983999
 40
1.0
 40
1.0
 40
1.0
 40
1.0
 10
113.4888111311315
 20
185.6103975990677
 30
0.0
 10
113.4904668999793
 20
185.5667631474379
 30
0.0
 10
113.4927576056345
 20
185.5063962156376
 30
0.0
 10
113.5024048870865
 20
185.44593057382
 30
0.0
 10
113.5092349227312
 20
185.424479864215
 30
0.0
 10
113.5133741292992
 20
185.4188190148295
 30
0.0
 10
113.5152081468714
 20
185.4163107811679
 30
0.0
  0
SPLINE
  5
1AB
330
1F
100
AcDbEntity
  8
0
  6
SLD-実線
 62
     7
370
    25
100
AcDbSpline
210
0.0
220
0.0
230
1.0
 70
     8
 71
     3
 72
    11
 73
     7
 74
     0
 42
0.000000001
 43
0.00000001
 40
0.0
 40
0.0
 40
0.0
 40
0.0
 40
0.0830037429749301
 40
0.1977804268011761
 40
0.3586630151141792
 40
0.9999999999999999
 40
0.9999999999999999
 40
0.9999999999999999
 40
0.9999999999999999
 10
113.5152081468714
 20
185.4163107811679
 30
0.0
 10
113.5229736662975
 20
185.4103652108796
 30
0.0
 10
113.5414772625374
 20
185.3961981698878
 30
0.0
 10
113.5879495313499
 20
185.3956886459478
 30
0.0
 10
113.7130353707369
 20
185.4238536728859
 30
0.0
 10
113.8284523927012
 20
185.4884691423867
 30
0.0
 10
113.9207228973661
 20
185.5401261846369
 30
0.0
  0
SPLINE
  5
1AC
330
1F
100
AcDbEntity
  8
0
  6
SLD-実線
 62
     7
370
    25
100
AcDbSpline
210
0.0
220
0.0
230
1.0
 70
     8
 71
     3
 72
     9
 73
     5
 74
     0
 42
0.000000001
 43
0.00000001
 40
0.0
 40
0.0
 40
0.0
 40
0.0
 40
0.5732064075005735
 40
1.0
 40
1.0
 40
1.0
 40
1.0
 10
113.9207228973661
 20
185.5401261846369
 30
0.0
 10
114.042143356132
 20
185.6240628804339
 30
0.0
 10
114.2539701207618
 20
185.7704965118425
 30
0.0
 10
114.4183305334349
 20
186.0184680578026
 30
0.0
 10
114.4884785044243
 20
186.1243007247406
 30
0.0
  0
SPLINE
  5
1AD
330
1F
100
AcDbEntity
  8
0
  6
SLD-実線
 62
     7
370
    25
100
AcDbSpline
210
0.0
220
0.0
230
1.0
 70
     8
 71
     3
 72
    10
 73
     6
 74
     0
 42
0.000000001
 43
0.00000001
 40
0.0
 40
0.0
 40
0.0
 40
0.0
 40
0.2513916401070668
 40
0.5312695801423621
 40
0.9999999999999999
 40
0.9999999999999999
 40
0.9999999999999999
 40
0.9999999999999999
 10
114.4884785044243
 20
186.1243007247406
 30
0.0
 10
114.5210025227584
 20
186.1894949350695
 30
0.0
 10
114.5897359999637
 20
186.3272708003863
 30
0.0
 10
114.6607571533735
 20
186.5943647662822
 30
0.0
 10
114.6723274605221
 20
186.7779338120048
 30
0.0
 10
114.6795720428941
 20
186.8928729450474
 30
0.0
  0
SPLINE
  5
1AE
330
1F
100
AcDbEntity
  8
0
  6
SLD-実線
 62
     7
370
    25
100
AcDbSpline
210
0.0
220
0.0
230
1.0
 70
     8
 71
     3
 72
    10
 73
     6
 74
     0
 42
0.000000001
 43
0.00000001
 40
0.0
 40
0.0
 40
0.0
 40
0.0
 40
0.3516783804531221
 40
0.6453643907615911
 40
1.0
 40
1.0
 40
1.0
 40
1.0
 10
114.6795720428941
 20
186.8928729450474
 30
0.0
 10
114.674449197246
 20
186.9790757419839
 30
0.0
 10
114.6650482720132
 20
187.1372663462947
 30
0.0
 10
114.5884374891991
 20
187.3351644726826
 30
0.0
 10
114.4993334641817
 20
187.4128203073472
 30
0.0
 10
114.4505930562655
 20
187.4552984900993
 30
0.0
  0
SPLINE
  5
1AF
330
1F
100
AcDbEntity
  8
0
  6
SLD-実線
 62
     7
370
    25
100
AcDbSpline
210
0.0
220
0.0
230
1.0
 70
     8
 71
     3
 72
    10
 73
     6
 74
     0
 42
0.000000001
 43
0.00000001
 40
0.0
 40
0.0
 40
0.0
 40
0.0
 40
0.2964782879874734
 40
0.5688503390813616
 40
0.9999999999999999
 40
0.9999999999999999
 40
0.9999999999999999
 40
0.9999999999999999
 10
114.4505930562655
 20
187.4552984900993
 30
0.0
 10
114.3873726532049
 20
187.4838853904875
 30
0.0
 10
114.2660722100527
 20
187.5387348301868
 30
0.0
 10
113.9927772431182
 20
187.4916746211258
 30
0.0
 10
113.7928080281463
 20
187.3829556187774
 30
0.0
 10
113.6702579237824
 20
187.3163277376509
 30
0.0
  0
SPLINE
  5
1B0
330
1F
100
AcDbEntity
  8
0
  6
SLD-実線
 62
     7
370
    25
100
AcDbSpline
210
0.0
220
0.0
230
1.0
 70
     8
 71
     3
 72
    11
 73
     7
 74
     0
 42
0.000000001
 43
0.00000001
 40
0.0
 40
0.0
 40
0.0
 40
0.0
 40
0.6359203312038026
 40
0.8804389359391024
 40
0.9501814506301318
 40
1.0
 40
1.0
 40
1.0
 40
1.0
 10
113.6702579237824
 20
187.3163277376509
 30
0.0
 10
113.6370782503345
 20
187.2958586506979
 30
0.0
 10
113.591140614829
 20
187.2675189668533
 30
0.0
 10
113.5420523712224
 20
187.2313248918217
 30
0.0
 10
113.5234186249861
 20
187.2160177711439
 30
0.0
 10
113.5176230426255
 20
187.2099888647694
 30
0.0
 10
113.5152081468714
 20
187.2074767478672
 30
0.0
  0
SPLINE
  5
1B1
330
1F
100
AcDbEntity
  8
0
  6
SLD-実線
 62
     7
370
    25
100
AcDbSpline
210
0.0
220
0.0
230
1.0
 70
     8
 71
     3
 72
    11
 73
     7
 74
     0
 42
0.000000001
 43
0.00000001
 40
0.0
 40
0.0
 40
0.0
 40
0.0
 40
0.2872922781257935
 40
0.5317504975060717
 40
0.7412908226585145
 40
0.9999999999999999
 40
0.9999999999999999
 40
0.9999999999999999
 40
0.9999999999999999
 10
113.5152081468714
 20
187.2074767478672
 30
0.0
 10
113.5099598861851
 20
187.2015268136362
 30
0.0
 10
113.5002458581953
 20
187.1905140551028
 30
0.0
 10
113.4905927135073
 20
187.1710113636863
 30
0.0
 10
113.4866781532273
 20
187.1525959734775
 30
0.0
 10
113.4864139098015
 20
187.1415689320677
 30
0.0
 10
113.4862679145597
 20
187.1354764604336
 30
0.0
  0
SPLINE
  5
1B2
330
1F
100
AcDbEntity
  8
0
  6
SLD-実線
 62
     7
370
    25
100
AcDbSpline
210
0.0
220
0.0
230
1.0
 70
     8
 71
     3
 72
     9
 73
     5
 74
     0
 42
0.000000001
 43
0.00000001
 40
0.0
 40
0.0
 40
0.0
 40
0.0
 40
0.4912224123327356
 40
0.9999999999999999
 40
0.9999999999999999
 40
0.9999999999999999
 40
0.9999999999999999
 10
113.4862679145597
 20
187.1354764604336
 30
0.0
 10
113.4854171743037
 20
187.0388616181477
 30
0.0
 10
113.4836852902637
 20
186.8421791381543
 30
0.0
 10
113.4838857812159
 20
186.6466020375024
 30
0.0
 10
113.4839877865189
 20
186.5470967920298
 30
0.0
  0
LINE
  5
1B3
330
1F
100
AcDbEntity
  8
0
  6
SLD-実線
 62
     7
370
    25
100
AcDbLine
 10
113.4839877865
 20
186.547096792
 30
0.0
 11
113.4839877865
 21
186.2057149537
 31
0.0
  0
SPLINE
  5
1B4
330
1F
100
AcDbEntity
  8
0
  6
SLD-実線
 62
     7
370
    25
100
AcDbSpline
210
0.0
220
0.0
230
1.0
 70
     8
 71
     3
 72
     9
 73
     5
 74
     0
 42
0.000000001
 43
0.00000001
 40
0.0
 40
0.0
 40
0.0
 40
0.0
 40
0.7121556055639695
 40
1.0
 40
1.0
 40
1.0
 40
1.0
 10
113.4839877865189
 20
186.2057149537405
 30
0.0
 10
113.483906829128
 20
186.0636698636139
 30
0.0
 10
113.4837931497715
 20
185.8642119234997
 30
0.0
 10
113.4876895687657
 20
185.6671273024627
 30
0.0
 10
113.4888111311315
 20
185.6103975990677
 30
0.0
  0
SPLINE
  5
1B5
330
1F
100
AcDbEntity
  8
0
  6
SLD-実線
 62
     7
370
    25
100
AcDbSpline
210
0.0
220
0.0
230
1.0
 70
     8
 71
     3
 72
    12
 73
     8
 74
     0
 42
0.000000001
 43
0.00000001
 40
0.0
 40
0.0
 40
0.0
 40
0.0
 40
0.2117300905832976
 40
0.3831752705494593
 40
0.540765525667566
 40
0.7456658583888577
 40
1.0
 40
1.0
 40
1.0
 40
1.0
 10
113.1760807743181
 20
187.0777309190256
 30
0.0
 10
113.1890217352807
 20
187.0814779191693
 30
0.0
 10
113.2124414400772
 20
187.0882589949712
 30
0.0
 10
113.2422511758552
 20
187.0850930004092
 30
0.0
 10
113.2634489893995
 20
187.0662757143957
 30
0.0
 10
113.2751262853754
 20
187.029552089052
 30
0.0
 10
113.2773615210292
 20
186.9976261288623
 30
0.0
 10
113.2785994436441
 20
186.9799448306719
 30
0.0
  0
SPLINE
  5
1B6
330
1F
100
AcDbEntity
  8
0
  6
SLD-実線
 62
     7
370
    25
100
AcDbSpline
210
0.0
220
0.0
230
1.0
 70
     8
 71
     3
 72
     9
 73
     5
 74
     0
 42
0.000000001
 43
0.00000001
 40
0.0
 40
0.0
 40
0.0
 40
0.0
 40
0.5753469804151193
 40
1.0
 40
1.0
 40
1.0
 40
1.0
 10
113.0948725229523
 20
187.0391545531063
 30
0.0
 10
113.1105546200904
 20
187.0479085134629
 30
0.0
 10
113.137811384568
 20
187.0631236108816
 30
0.0
 10
113.1646736374984
 20
187.0733768500515
 30
0.0
 10
113.1760807743181
 20
187.0777309190256
 30
0.0
  0
SPLINE
  5
1B7
330
1F
100
AcDbEntity
  8
0
  6
SLD-実線
 62
     7
370
    25
100
AcDbSpline
210
0.0
220
0.0
230
1.0
 70
     8
 71
     3
 72
    12
 73
     8
 74
     0
 42
0.000000001
 43
0.00000001
 40
0.0
 40
0.0
 40
0.0
 40
0.0
 40
0.1862507442934697
 40
0.3614161819231748
 40
0.5416884262530173
 40
0.7665398731389496
 40
0.9999999999999999
 40
0.9999999999999999
 40
0.9999999999999999
 40
0.9999999999999999
 10
113.0757544819772
 20
187.0448274990228
 30
0.0
 10
113.0759302370196
 20
187.0430036557773
 30
0.0
 10
113.0762712864829
 20
187.0394645211299
 30
0.0
 10
113.0791372811833
 20
187.0364079476467
 30
0.0
 10
113.0833285987985
 20
187.0352929205184
 30
0.0
 10
113.0887254412173
 20
187.0360617407497
 30
0.0
 10
113.0927979968039
 20
187.0381107862617
 30
0.0
 10
113.0948725229523
 20
187.0391545531063
 30
0.0
  0
SPLINE
  5
1B8
330
1F
100
AcDbEntity
  8
0
  6
SLD-実線
 62
     7
370
    25
100
AcDbSpline
210
0.0
220
0.0
230
1.0
 70
     8
 71
     3
 72
    13
 73
     9
 74
     0
 42
0.000000001
 43
0.00000001
 40
0.0
 40
0.0
 40
0.0
 40
0.0
 40
0.3542981920530518
 40
0.6117572425702283
 40
0.7132489290084789
 40
0.8052686910096788
 40
0.8975815037808677
 40
1.0
 40
1.0
 40
1.0
 40
1.0
 10
113.1141660660388
 20
187.0892815059426
 30
0.0
 10
113.1084725010655
 20
187.0858591450849
 30
0.0
 10
113.0986415742173
 20
187.0799498458327
 30
0.0
 10
113.0872375685396
 20
187.0704255912877
 30
0.0
 10
113.0809629453819
 20
187.0624185362637
 30
0.0
 10
113.077861537006
 20
187.0565968844946
 30
0.0
 10
113.0760238465904
 20
187.0505255698975
 30
0.0
 10
113.0758473237632
 20
187.0467914506731
 30
0.0
 10
113.0757544819772
 20
187.0448274990228
 30
0.0
  0
SPLINE
  5
1B9
330
1F
100
AcDbEntity
  8
0
  6
SLD-実線
 62
     7
370
    25
100
AcDbSpline
210
0.0
220
0.0
230
1.0
 70
     8
 71
     3
 72
    10
 73
     6
 74
     0
 42
0.000000001
 43
0.00000001
 40
0.0
 40
0.0
 40
0.0
 40
0.0
 40
0.1726862195096515
 40
0.4395159151013147
 40
0.9999999999999999
 40
0.9999999999999999
 40
0.9999999999999999
 40
0.9999999999999999
 10
113.3838368316533
 20
187.2361485922987
 30
0.0
 10
113.3683183853616
 20
187.2278668129913
 30
0.0
 10
113.3288212897498
 20
187.2067882705267
 30
0.0
 10
113.2389652117039
 20
187.1592095972783
 30
0.0
 10
113.1645681719209
 20
187.1175230699761
 30
0.0
 10
113.1141660660388
 20
187.0892815059426
 30
0.0
  0
SPLINE
  5
1BA
330
1F
100
AcDbEntity
  8
0
  6
SLD-実線
 62
     7
370
    25
100
AcDbSpline
210
0.0
220
0.0
230
1.0
 70
     8
 71
     3
 72
     9
 73
     5
 74
     0
 42
0.000000001
 43
0.00000001
 40
0.0
 40
0.0
 40
0.0
 40
0.0
 40
0.6975897906302383
 40
1.0
 40
1.0
 40
1.0
 40
1.0
 10
113.7059509537971
 20
187.4309116498434
 30
0.0
 10
113.6310343485965
 20
187.3862976273061
 30
0.0
 10
113.5236408543012
 20
187.3223431039795
 30
0.0
 10
113.4162983122648
 20
187.2561623330821
 30
0.0
 10
113.3838368316533
 20
187.2361485922987
 30
0.0
  0
SPLINE
  5
1BB
330
1F
100
AcDbEntity
  8
0
  6
SLD-実線
 62
     7
370
    25
100
AcDbSpline
210
0.0
220
0.0
230
1.0
 70
     8
 71
     3
 72
    10
 73
     6
 74
     0
 42
0.000000001
 43
0.00000001
 40
0.0
 40
0.0
 40
0.0
 40
0.0
 40
0.3147864150930192
 40
0.6100723291183298
 40
1.0
 40
1.0
 40
1.0
 40
1.0
 10
114.662558666435
 20
187.6687055366358
 30
0.0
 10
114.5775342780483
 20
187.6976672668644
 30
0.0
 10
114.4127526223989
 20
187.7537965957322
 30
0.0
 10
114.0715754383623
 20
187.6420503322653
 30
0.0
 10
113.8385540912139
 20
187.5074865317266
 30
0.0
 10
113.7059509537971
 20
187.4309116498434
 30
0.0
  0
SPLINE
  5
1BC
330
1F
100
AcDbEntity
  8
0
  6
SLD-実線
 62
     7
370
    25
100
AcDbSpline
210
0.0
220
0.0
230
1.0
 70
     8
 71
     3
 72
    10
 73
     6
 74
     0
 42
0.000000001
 43
0.00000001
 40
0.0
 40
0.0
 40
0.0
 40
0.0
 40
0.3313837058207169
 40
0.6183663736337333
 40
0.9999999999999999
 40
0.9999999999999999
 40
0.9999999999999999
 40
0.9999999999999999
 10
114.894343991608
 20
187.1024314711478
 30
0.0
 10
114.8898431296299
 20
187.1845592383757
 30
0.0
 10
114.881444461709
 20
187.337810737177
 30
0.0
 10
114.8086204917967
 20
187.5418517444857
 30
0.0
 10
114.7156337517038
 20
187.6226101532709
 30
0.0
 10
114.662558666435
 20
187.6687055366358
 30
0.0
  0
SPLINE
  5
1BD
330
1F
100
AcDbEntity
  8
0
  6
SLD-実線
 62
     7
370
    25
100
AcDbSpline
210
0.0
220
0.0
230
1.0
 70
     8
 71
     3
 72
    10
 73
     6
 74
     0
 42
0.000000001
 43
0.00000001
 40
0.0
 40
0.0
 40
0.0
 40
0.0
 40
0.2390589146858879
 40
0.5102144408857519
 40
1.0
 40
1.0
 40
1.0
 40
1.0
 10
114.636424718325
 20
186.17659290137
 30
0.0
 10
114.6740714813565
 20
186.2503313857211
 30
0.0
 10
114.7544195502688
 20
186.4077086565681
 30
0.0
 10
114.8643524017944
 20
186.729300611473
 30
0.0
 10
114.8825992609341
 20
186.9563131266296
 30
0.0
 10
114.894343991608
 20
187.1024314711478
 30
0.0
  0
SPLINE
  5
1BE
330
1F
100
AcDbEntity
  8
0
  6
SLD-実線
 62
     7
370
    25
100
AcDbSpline
210
0.0
220
0.0
230
1.0
 70
     8
 71
     3
 72
    10
 73
     6
 74
     0
 42
0.000000001
 43
0.00000001
 40
0.0
 40
0.0
 40
0.0
 40
0.0
 40
0.3778563650143676
 40
0.6721102586491563
 40
1.0
 40
1.0
 40
1.0
 40
1.0
 10
113.913531673657
 20
185.4421985832995
 30
0.0
 10
114.0135372274392
 20
185.5069016205364
 30
0.0
 10
114.1914216429005
 20
185.6219918482503
 30
0.0
 10
114.4450433458985
 20
185.875125168707
 30
0.0
 10
114.5703723139913
 20
186.0725458443396
 30
0.0
 10
114.636424718325
 20
186.17659290137
 30
0.0
  0
SPLINE
  5
1BF
330
1F
100
AcDbEntity
  8
0
  6
SLD-実線
 62
     7
370
    25
100
AcDbSpline
210
0.0
220
0.0
230
1.0
 70
     8
 71
     3
 72
     9
 73
     5
 74
     0
 42
0.000000001
 43
0.00000001
 40
0.0
 40
0.0
 40
0.0
 40
0.0
 40
0.5624587130364581
 40
0.9999999999999999
 40
0.9999999999999999
 40
0.9999999999999999
 40
0.9999999999999999
 10
113.5818585310256
 20
185.2670322681328
 30
0.0
 10
113.6439823454415
 20
185.2981177151291
 30
0.0
 10
113.754432789138
 20
185.3533847885618
 30
0.0
 10
113.8651070953035
 20
185.4151665234887
 30
0.0
 10
113.913531673657
 20
185.4421985832995
 30
0.0
  0
SPLINE
  5
1C0
330
1F
100
AcDbEntity
  8
0
  6
SLD-実線
 62
     7
370
    25
100
AcDbSpline
210
0.0
220
0.0
230
1.0
 70
     8
 71
     3
 72
    10
 73
     6
 74
     0
 42
0.000000001
 43
0.00000001
 40
0.0
 40
0.0
 40
0.0
 40
0.0
 40
0.1523015582659204
 40
0.3893391004124725
 40
1.0
 40
1.0
 40
1.0
 40
1.0
 10
113.3838368316533
 20
185.1692238571646
 30
0.0
 10
113.3938989953593
 20
185.1743498741515
 30
0.0
 10
113.4196216065402
 20
185.187453869049
 30
0.0
 10
113.4855873481566
 20
185.2193470555275
 30
0.0
 10
113.5415467604836
 20
185.2470649706352
 30
0.0
 10
113.5818585310256
 20
185.2670322681328
 30
0.0
  0
SPLINE
  5
1C1
330
1F
100
AcDbEntity
  8
0
  6
SLD-実線
 62
     7
370
    25
100
AcDbSpline
210
0.0
220
0.0
230
1.0
 70
     8
 71
     3
 72
     9
 73
     5
 74
     0
 42
0.000000001
 43
0.00000001
 40
0.0
 40
0.0
 40
0.0
 40
0.0
 40
0.7382832936763075
 40
1.0
 40
1.0
 40
1.0
 40
1.0
 10
113.2882462151874
 20
185.1117113661103
 30
0.0
 10
113.3117658110359
 20
185.1261925421416
 30
0.0
 10
113.3436229532061
 20
185.1458072024697
 30
0.0
 10
113.3754953047773
 20
185.1643665625681
 30
0.0
 10
113.3838368316533
 20
185.1692238571646
 30
0.0
  0
SPLINE
  5
1C2
330
1F
100
AcDbEntity
  8
0
  6
SLD-実線
 62
     7
370
    25
100
AcDbSpline
210
0.0
220
0.0
230
1.0
 70
     8
 71
     3
 72
     9
 73
     5
 74
     0
 42
0.000000001
 43
0.00000001
 40
0.0
 40
0.0
 40
0.0
 40
0.0
 40
0.5310697460762948
 40
1.0
 40
1.0
 40
1.0
 40
1.0
 10
113.1497714273158
 20
185.0259991840048
 30
0.0
 10
113.1742792140786
 20
185.0413453445522
 30
0.0
 10
113.2204271766462
 20
185.0702420396864
 30
0.0
 10
113.2665961750449
 20
185.0984730100222
 30
0.0
 10
113.2882462151874
 20
185.1117113661103
 30
0.0
  0
SPLINE
  5
1C3
330
1F
100
AcDbEntity
  8
0
  6
SLD-実線
 62
     7
370
    25
100
AcDbSpline
210
0.0
220
0.0
230
1.0
 70
     8
 71
     3
 72
    13
 73
     9
 74
     0
 42
0.000000001
 43
0.00000001
 40
0.0
 40
0.0
 40
0.0
 40
0.0
 40
0.1019421223516967
 40
0.1937310690362083
 40
0.2852063053049015
 40
0.3862559839659292
 40
0.6437049638467528
 40
1.0
 40
1.0
 40
1.0
 40
1.0
 10
113.111622767149
 20
185.0259520027144
 30
0.0
 10
113.1117134456783
 20
185.0241182508027
 30
0.0
 10
113.1118857713864
 20
185.0206333839978
 30
0.0
 10
113.1136902641442
 20
185.016727716403
 30
0.0
 10
113.1167495686744
 20
185.014513584059
 30
0.0
 10
113.1229662097042
 20
185.0137724511496
 30
0.0
 10
113.1343093716297
 20
185.0174323752806
 30
0.0
 10
113.1440922191672
 20
185.022852597878
 30
0.0
 10
113.1497714273158
 20
185.0259991840048
 30
0.0
  0
SPLINE
  5
1C4
330
1F
100
AcDbEntity
  8
0
  6
SLD-実線
 62
     7
370
    25
100
AcDbSpline
210
0.0
220
0.0
230
1.0
 70
     8
 71
     3
 72
    13
 73
     9
 74
     0
 42
0.000000001
 43
0.00000001
 40
0.0
 40
0.0
 40
0.0
 40
0.0
 40
0.2036408106115526
 40
0.3730046930301126
 40
0.516439104584765
 40
0.6425579671029804
 40
0.82331176494692
 40
1.0
 40
1.0
 40
1.0
 40
1.0
 10
113.1307409727602
 20
185.0536982639415
 30
0.0
 10
113.1289041655978
 20
185.0525625217358
 30
0.0
 10
113.1255397236192
 20
185.0504822060488
 30
0.0
 10
113.1209911218135
 20
185.0465523937422
 30
0.0
 10
113.1174032872054
 20
185.0424628361597
 30
0.0
 10
113.1143040292567
 20
185.0375914133886
 30
0.0
 10
113.1120173004282
 20
185.0317684214488
 30
0.0
 10
113.111753277238
 20
185.0278760516256
 30
0.0
 10
113.111622767149
 20
185.0259520027144
 30
0.0
  0
SPLINE
  5
1C5
330
1F
100
AcDbEntity
  8
0
  6
SLD-実線
 62
     7
370
    25
100
AcDbSpline
210
0.0
220
0.0
230
1.0
 70
     8
 71
     3
 72
     9
 73
     5
 74
     0
 42
0.000000001
 43
0.00000001
 40
0.0
 40
0.0
 40
0.0
 40
0.0
 40
0.5666046011751232
 40
1.0
 40
1.0
 40
1.0
 40
1.0
 10
113.2023901213204
 20
185.1063015043866
 30
0.0
 10
113.188981445376
 20
185.0953331918245
 30
0.0
 10
113.1653164841022
 20
185.0759752259002
 30
0.0
 10
113.1411950788219
 20
185.0604338323831
 30
0.0
 10
113.1307409727602
 20
185.0536982639415
 30
0.0
  0
SPLINE
  5
1C6
330
1F
100
AcDbEntity
  8
0
  6
SLD-実線
 62
     7
370
    25
100
AcDbSpline
210
0.0
220
0.0
230
1.0
 70
     8
 71
     3
 72
    10
 73
     6
 74
     0
 42
0.000000001
 43
0.00000001
 40
0.0
 40
0.0
 40
0.0
 40
0.0
 40
0.6271194745454772
 40
0.8138605888827579
 40
1.0
 40
1.0
 40
1.0
 40
1.0
 10
113.2713205511974
 20
185.2975943721919
 30
0.0
 10
113.267442768333
 20
185.2569376738163
 30
0.0
 10
113.2624102748869
 20
185.2041743873534
 30
0.0
 10
113.2309632229931
 20
185.1338630947605
 30
0.0
 10
113.211904236956
 20
185.1154788125039
 30
0.0
 10
113.2023901213204
 20
185.1063015043866
 30
0.0
  0
SPLINE
  5
1C7
330
1F
100
AcDbEntity
  8
0
  6
SLD-実線
 62
     7
370
    25
100
AcDbSpline
210
0.0
220
0.0
230
1.0
 70
     8
 71
     3
 72
     9
 73
     5
 74
     0
 42
0.000000001
 43
0.00000001
 40
0.0
 40
0.0
 40
0.0
 40
0.0
 40
0.6532500949924662
 40
1.0
 40
1.0
 40
1.0
 40
1.0
 10
113.2833351195191
 20
185.9026320411578
 30
0.0
 10
113.2844336755198
 20
185.7728978460918
 30
0.0
 10
113.2861153530415
 20
185.5742997960335
 30
0.0
 10
113.2751297930729
 20
185.368838171115
 30
0.0
 10
113.2713205511974
 20
185.2975943721919
 30
0.0
  0
LINE
  5
1C8
330
1F
100
AcDbEntity
  8
0
  6
SLD-実線
 62
     7
370
    25
100
AcDbLine
 10
113.2833351195
 20
186.3873112112
 30
0.0
 11
113.2833351195
 21
185.9026320412
 31
0.0
  0
SPLINE
  5
1C9
330
1F
100
AcDbEntity
  8
0
  6
SLD-実線
 62
     7
370
    25
100
AcDbSpline
210
0.0
220
0.0
230
1.0
 70
     8
 71
     3
 72
     9
 73
     5
 74
     0
 42
0.000000001
 43
0.00000001
 40
0.0
 40
0.0
 40
0.0
 40
0.0
 40
0.3388543641745129
 40
0.9999999999999999
 40
0.9999999999999999
 40
0.9999999999999999
 40
0.9999999999999999
 10
113.2785994436441
 20
186.9799448306719
 30
0.0
 10
113.2802765448806
 20
186.9136825141983
 30
0.0
 10
113.2852258724201
 20
186.7181344455317
 30
0.0
 10
113.2840876501835
 20
186.5189807848541
 30
0.0
 10
113.2833351195191
 20
186.3873112112384
 30
0.0
  0
LINE
  5
1CA
330
1F
100
AcDbEntity
  8
0
  6
SLD-実線
 62
     7
370
    25
100
AcDbLine
 10
111.955765697
 20
184.5381407203
 30
0.0
 11
111.6022122484
 21
184.7422427817
 31
0.0
  0
LINE
  5
1CB
330
1F
100
AcDbEntity
  8
0
  6
SLD-実線
 62
     7
370
    25
100
AcDbLine
 10
113.114166066
 20
187.0892815059
 30
0.0
 11
112.7606126175
 21
187.2933835674
 31
0.0
  0
LINE
  5
1CC
330
1F
100
AcDbEntity
  8
0
  6
SLD-実線
 62
     7
370
    25
100
AcDbLine
 10
113.075754482
 20
187.044827499
 30
0.0
 11
112.7222010334
 21
187.2489295604
 31
0.0
  0
LINE
  5
1CD
330
1F
100
AcDbEntity
  8
0
  6
SLD-実線
 62
     7
370
    25
100
AcDbLine
 10
113.3838368317
 20
187.2361485923
 30
0.0
 11
113.0302833831
 21
187.4402506537
 31
0.0
  0
LINE
  5
1CE
330
1F
100
AcDbEntity
  8
0
  6
SLD-実線
 62
     7
370
    25
100
AcDbLine
 10
112.6739229709
 20
185.9556028738
 30
0.0
 11
112.3203695224
 21
186.1597049352
 31
0.0
  0
LINE
  5
1CF
330
1F
100
AcDbEntity
  8
0
  6
SLD-実線
 62
     7
370
    25
100
AcDbLine
 10
113.7059509538
 20
187.4309116498
 30
0.0
 11
113.3523975053
 21
187.6350137113
 31
0.0
  0
LINE
  5
1D0
330
1F
100
AcDbEntity
  8
0
  6
SLD-実線
 62
     7
370
    25
100
AcDbLine
 10
112.7097914207
 20
186.0123614802
 30
0.0
 11
112.3562379722
 21
186.2164635416
 31
0.0
  0
LINE
  5
1D1
330
1F
100
AcDbEntity
  8
0
  6
SLD-実線
 62
     7
370
    25
100
AcDbLine
 10
112.6501569228
 20
185.6885049897
 30
0.0
 11
112.5776847582
 21
185.7303422797
 31
0.0
  0
LINE
  5
1D2
330
1F
100
AcDbEntity
  8
0
  6
SLD-実線
 62
     7
370
    25
100
AcDbLine
 10
113.2833351195
 20
186.3873112112
 30
0.0
 11
112.929781671
 21
186.5914132726
 31
0.0
  0
LINE
  5
1D3
330
1F
100
AcDbEntity
  8
0
  6
SLD-実線
 62
     7
370
    25
100
AcDbLine
 10
111.8865720963
 20
184.3466959272
 30
0.0
 11
111.5330186477
 21
184.5507979886
 31
0.0
  0
LINE
  5
1D4
330
1F
100
AcDbEntity
  8
0
  6
SLD-実線
 62
     7
370
    25
100
AcDbLine
 10
114.6625586664
 20
187.6687055366
 30
0.0
 11
114.3090052179
 21
187.872807598
 31
0.0
  0
SPLINE
  5
1D5
330
1F
100
AcDbEntity
  8
0
  6
SLD-実線
 62
     7
370
    25
100
AcDbSpline
210
0.0
220
0.0
230
1.0
 70
     8
 71
     3
 72
     9
 73
     5
 74
     0
 42
0.000000001
 43
0.00000001
 40
0.0
 40
0.0
 40
0.0
 40
0.0
 40
0.546062345179546
 40
1.0
 40
1.0
 40
1.0
 40
1.0
 10
114.3260185943489
 20
187.096975006458
 30
0.0
 10
114.3217859011631
 20
187.1843166868658
 30
0.0
 10
114.3140346009258
 20
187.3442648707662
 30
0.0
 10
114.2574525190783
 20
187.4624069237304
 30
0.0
 10
114.2317677815396
 20
187.5160360501886
 30
0.0
  0
SPLINE
  5
1D6
330
1F
100
AcDbEntity
  8
0
  6
SLD-実線
 62
     7
370
    25
100
AcDbSpline
210
0.0
220
0.0
230
1.0
 70
     8
 71
     3
 72
    10
 73
     6
 74
     0
 42
0.000000001
 43
0.00000001
 40
0.0
 40
0.0
 40
0.0
 40
0.0
 40
0.2513916401070668
 40
0.5312695801423621
 40
0.9999999999999999
 40
0.9999999999999999
 40
0.9999999999999999
 40
0.9999999999999999
 10
114.1349250558791
 20
186.3284027861512
 30
0.0
 10
114.1674490742132
 20
186.3935969964801
 30
0.0
 10
114.2361825514185
 20
186.5313728617968
 30
0.0
 10
114.3072037048283
 20
186.7984668276928
 30
0.0
 10
114.3187740119769
 20
186.9820358734155
 30
0.0
 10
114.3260185943489
 20
187.096975006458
 30
0.0
  0
SPLINE
  5
1D7
330
1F
100
AcDbEntity
  8
0
  6
SLD-実線
 62
     7
370
    25
100
AcDbSpline
210
0.0
220
0.0
230
1.0
 70
     8
 71
     3
 72
     9
 73
     5
 74
     0
 42
0.000000001
 43
0.00000001
 40
0.0
 40
0.0
 40
0.0
 40
0.0
 40
0.5732064075005735
 40
1.0
 40
1.0
 40
1.0
 40
1.0
 10
113.5671694488209
 20
185.7442282460475
 30
0.0
 10
113.6885899075868
 20
185.8281649418445
 30
0.0
 10
113.9004166722166
 20
185.9745985732531
 30
0.0
 10
114.0647770848897
 20
186.2225701192132
 30
0.0
 10
114.1349250558791
 20
186.3284027861512
 30
0.0
  0
LINE
  5
1D8
330
1F
100
AcDbEntity
  8
0
  6
SLD-実線
 62
     7
370
    25
100
AcDbLine
 10
113.48710476
 20
185.706269744
 30
0.0
 11
113.5671694488
 21
185.744228246
 31
0.0
  0
LINE
  5
1D9
330
1F
100
AcDbEntity
  8
0
  6
SLD-実線
 62
     7
370
    25
100
AcDbLine
 10
113.2833351195
 20
185.9026320412
 30
0.0
 11
112.929781671
 21
186.1067341026
 31
0.0
  0
LINE
  5
1DA
330
1F
100
AcDbEntity
  8
0
  6
SLD-実線
 62
     7
370
    25
100
AcDbLine
 10
112.6739229709
 20
184.8837591361
 30
0.0
 11
112.3203695224
 21
185.0878611975
 31
0.0
  0
LINE
  5
1DB
330
1F
100
AcDbEntity
  8
0
  6
SLD-実線
 62
     7
370
    25
100
AcDbLine
 10
112.7814405693
 20
185.1441147161
 30
0.0
 11
112.4278871207
 21
185.3482167775
 31
0.0
  0
LINE
  5
1DC
330
1F
100
AcDbEntity
  8
0
  6
SLD-実線
 62
     7
370
    25
100
AcDbLine
 10
112.8030141581
 20
185.1979883983
 30
0.0
 11
112.4494607095
 21
185.4020904597
 31
0.0
  0
LINE
  5
1DD
330
1F
100
AcDbEntity
  8
0
  6
SLD-実線
 62
     7
370
    25
100
AcDbLine
 10
113.2713205512
 20
185.2975943722
 30
0.0
 11
112.9177671027
 21
185.5016964336
 31
0.0
  0
LINE
  5
1DE
330
1F
100
AcDbEntity
  8
0
  6
SLD-実線
 62
     7
370
    25
100
AcDbLine
 10
114.6795720429
 20
186.892872945
 30
0.0
 11
114.3260185943
 21
187.0969750065
 31
0.0
  0
LINE
  5
1DF
330
1F
100
AcDbEntity
  8
0
  6
SLD-実線
 62
     7
370
    25
100
AcDbLine
 10
113.2023901213
 20
185.1063015044
 30
0.0
 11
112.8488366728
 21
185.3104035658
 31
0.0
  0
LINE
  5
1E0
330
1F
100
AcDbEntity
  8
0
  6
SLD-実線
 62
     7
370
    25
100
AcDbLine
 10
113.1307409728
 20
185.0536982639
 30
0.0
 11
112.7771875242
 21
185.2578003254
 31
0.0
  0
LINE
  5
1E1
330
1F
100
AcDbEntity
  8
0
  6
SLD-実線
 62
     7
370
    25
100
AcDbLine
 10
113.1116227671
 20
185.0259520027
 30
0.0
 11
112.7580693186
 21
185.2300540641
 31
0.0
  0
SPLINE
  5
1E2
330
1F
100
AcDbEntity
  8
0
  6
SLD-実線
 62
     7
370
    25
100
AcDbSpline
210
0.0
220
0.0
230
1.0
 70
     8
 71
     3
 72
    11
 73
     7
 74
     0
 42
0.000000001
 43
0.00000001
 40
0.0
 40
0.0
 40
0.0
 40
0.0
 40
0.2025302755455954
 40
0.3726405939839204
 40
0.5392906066146775
 40
1.0
 40
1.0
 40
1.0
 40
1.0
 10
115.6147815582193
 20
186.4989454376487
 30
0.0
 10
115.6029476016537
 20
186.494783605738
 30
0.0
 10
115.5811740046351
 20
186.4871261455826
 30
0.0
 10
115.5545468310713
 20
186.4938987053846
 30
0.0
 10
115.529040381447
 20
186.5259834293646
 30
0.0
 10
115.5247772065378
 20
186.5667456368608
 30
0.0
 10
115.5216464895875
 20
186.5966798846119
 30
0.0
  0
SPLINE
  5
1E3
330
1F
100
AcDbEntity
  8
0
  6
SLD-実線
 62
     7
370
    25
100
AcDbSpline
210
0.0
220
0.0
230
1.0
 70
     8
 71
     3
 72
     9
 73
     5
 74
     0
 42
0.000000001
 43
0.00000001
 40
0.0
 40
0.0
 40
0.0
 40
0.0
 40
0.525362864925001
 40
1.0
 40
1.0
 40
1.0
 40
1.0
 10
115.7222113232136
 20
186.5497222534922
 30
0.0
 10
115.7033363341526
 20
186.5400177371089
 30
0.0
 10
115.6674088061122
 20
186.5215457113316
 30
0.0
 10
115.6317205363399
 20
186.506219721537
 30
0.0
 10
115.6147815582193
 20
186.4989454376487
 30
0.0
  0
SPLINE
  5
1E4
330
1F
100
AcDbEntity
  8
0
  6
SLD-実線
 62
     7
370
    25
100
AcDbSpline
210
0.0
220
0.0
230
1.0
 70
     8
 71
     3
 72
    12
 73
     8
 74
     0
 42
0.000000001
 43
0.00000001
 40
0.0
 40
0.0
 40
0.0
 40
0.0
 40
0.150095379727249
 40
0.3022609215580171
 40
0.4663335611162381
 40
0.6974885272033976
 40
1.0
 40
1.0
 40
1.0
 40
1.0
 10
115.7414171975625
 20
186.5441000127031
 30
0.0
 10
115.7413187291875
 20
186.5456109952481
 30
0.0
 10
115.7411204343311
 20
186.5486538002788
 30
0.0
 10
115.7392686575387
 20
186.5520781183357
 30
0.0
 10
115.7357121873996
 20
186.5541124858668
 30
0.0
 10
115.7297789855907
 20
186.5536467507484
 30
0.0
 10
115.7249491433107
 20
186.5511420535472
 30
0.0
 10
115.7222113232136
 20
186.5497222534922
 30
0.0
  0
SPLINE
  5
1E5
330
1F
100
AcDbEntity
  8
0
  6
SLD-実線
 62
     7
370
    25
100
AcDbSpline
210
0.0
220
0.0
230
1.0
 70
     8
 71
     3
 72
    13
 73
     9
 74
     0
 42
0.000000001
 43
0.00000001
 40
0.0
 40
0.0
 40
0.0
 40
0.0
 40
0.3593956525891507
 40
0.62356111753836
 40
0.7280582646087891
 40
0.8207199012857423
 40
0.9087623721878902
 40
1.0
 40
1.0
 40
1.0
 40
1.0
 10
115.7032686197138
 20
186.5001017360211
 30
0.0
 10
115.708924610029
 20
186.5035643467879
 30
0.0
 10
115.7187379052549
 20
186.5095720695408
 30
0.0
 10
115.7299989956646
 20
186.5196018235823
 30
0.0
 10
115.7361809146686
 20
186.5277027687153
 30
0.0
 10
115.7392391641184
 20
186.5333408247974
 30
0.0
 10
115.7411145271558
 20
186.5389878687803
 30
0.0
 10
115.7413151157867
 20
186.5423758377644
 30
0.0
 10
115.7414171975625
 20
186.5441000127031
 30
0.0
  0
SPLINE
  5
1E6
330
1F
100
AcDbEntity
  8
0
  6
SLD-実線
 62
     7
370
    25
100
AcDbSpline
210
0.0
220
0.0
230
1.0
 70
     8
 71
     3
 72
    10
 73
     6
 74
     0
 42
0.000000001
 43
0.00000001
 40
0.0
 40
0.0
 40
0.0
 40
0.0
 40
0.160809268520088
 40
0.4175493251456259
 40
1.0
 40
1.0
 40
1.0
 40
1.0
 10
115.4093932153445
 20
186.338552667606
 30
0.0
 10
115.4251414635546
 20
186.3470173500581
 30
0.0
 10
115.4660325793021
 20
186.3689963222777
 30
0.0
 10
115.5639621370631
 20
186.421459848872
 30
0.0
 10
115.6461943431276
 20
186.4678819230375
 30
0.0
 10
115.7032686197138
 20
186.5001017360211
 30
0.0
  0
SPLINE
  5
1E7
330
1F
100
AcDbEntity
  8
0
  6
SLD-実線
 62
     7
370
    25
100
AcDbSpline
210
0.0
220
0.0
230
1.0
 70
     8
 71
     3
 72
    10
 73
     6
 74
     0
 42
0.000000001
 43
0.00000001
 40
0.0
 40
0.0
 40
0.0
 40
0.0
 40
0.6680854251188246
 40
0.9107953089109847
 40
0.9999999999999999
 40
0.9999999999999999
 40
0.9999999999999999
 40
0.9999999999999999
 10
115.1755031896413
 20
186.1954292383767
 30
0.0
 10
115.2276046909713
 20
186.2267689037941
 30
0.0
 10
115.2986342348207
 20
186.269494009255
 30
0.0
 10
115.3765627491432
 20
186.3183906080011
 30
0.0
 10
115.4024388158847
 20
186.3342817865419
 30
0.0
 10
115.4093932153445
 20
186.338552667606
 30
0.0
  0
SPLINE
  5
1E8
330
1F
100
AcDbEntity
  8
0
  6
SLD-実線
 62
     7
370
    25
100
AcDbSpline
210
0.0
220
0.0
230
1.0
 70
     8
 71
     3
 72
    13
 73
     9
 74
     0
 42
0.000000001
 43
0.00000001
 40
0.0
 40
0.0
 40
0.0
 40
0.0
 40
0.1019163554934353
 40
0.1939464243322851
 40
0.2860074790204336
 40
0.3877983472520464
 40
0.6459482073611588
 40
1.0
 40
1.0
 40
1.0
 40
1.0
 10
115.137266943055
 20
186.1953314945226
 30
0.0
 10
115.1373606543295
 20
186.1934984467096
 30
0.0
 10
115.1375389865169
 20
186.1900101639188
 30
0.0
 10
115.1393886424884
 20
186.1861296989287
 30
0.0
 10
115.1424955621326
 20
186.1839509452298
 30
0.0
 10
115.1487595455781
 20
186.1832505877833
 30
0.0
 10
115.1600906704786
 20
186.1868982957818
 30
0.0
 10
115.1698557789493
 20
186.1923033550663
 30
0.0
 10
115.1755031896413
 20
186.1954292383767
 30
0.0
  0
SPLINE
  5
1E9
330
1F
100
AcDbEntity
  8
0
  6
SLD-実線
 62
     7
370
    25
100
AcDbSpline
210
0.0
220
0.0
230
1.0
 70
     8
 71
     3
 72
    12
 73
     8
 74
     0
 42
0.000000001
 43
0.00000001
 40
0.0
 40
0.0
 40
0.0
 40
0.0
 40
0.2619404442335202
 40
0.4696601902387936
 40
0.6420889970065173
 40
0.8236187315194108
 40
1.0
 40
1.0
 40
1.0
 40
1.0
 10
115.1565604449824
 20
186.2231789521589
 30
0.0
 10
115.154188261067
 20
186.2216849633074
 30
0.0
 10
115.1499349264885
 20
186.2190062357427
 30
0.0
 10
115.1443631310812
 20
186.2135462231035
 30
0.0
 10
115.1402650140267
 20
186.2075814350276
 30
0.0
 10
115.1376890521641
 20
186.2011817046109
 30
0.0
 10
115.1374062902701
 20
186.1972627735834
 30
0.0
 10
115.137266943055
 20
186.1953314945226
 30
0.0
  0
SPLINE
  5
1EA
330
1F
100
AcDbEntity
  8
0
  6
SLD-実線
 62
     7
370
    25
100
AcDbSpline
210
0.0
220
0.0
230
1.0
 70
     8
 71
     3
 72
     9
 73
     5
 74
     0
 42
0.000000001
 43
0.00000001
 40
0.0
 40
0.0
 40
0.0
 40
0.0
 40
0.5665792624831741
 40
1.0
 40
1.0
 40
1.0
 40
1.0
 10
115.2281218836459
 20
186.2757315587585
 30
0.0
 10
115.2147305430829
 20
186.2647732366926
 30
0.0
 10
115.1910951200279
 20
186.245432038044
 30
0.0
 10
115.1670026298458
 20
186.2299075759635
 30
0.0
 10
115.1565604449824
 20
186.2231789521589
 30
0.0
  0
SPLINE
  5
1EB
330
1F
100
AcDbEntity
  8
0
  6
SLD-実線
 62
     7
370
    25
100
AcDbSpline
210
0.0
220
0.0
230
1.0
 70
     8
 71
     3
 72
    10
 73
     6
 74
     0
 42
0.000000001
 43
0.00000001
 40
0.0
 40
0.0
 40
0.0
 40
0.0
 40
0.6278754837508286
 40
0.8145610431596377
 40
1.0
 40
1.0
 40
1.0
 40
1.0
 10
115.2974031531095
 20
186.4672269619461
 30
0.0
 10
115.2933046012185
 20
186.4264590589869
 30
0.0
 10
115.28798743119
 20
186.3735696781762
 30
0.0
 10
115.2565976439897
 20
186.3032762994637
 30
0.0
 10
115.2375925816888
 20
186.284892610781
 30
0.0
 10
115.2281218836459
 20
186.2757315587585
 30
0.0
  0
SPLINE
  5
1EC
330
1F
100
AcDbEntity
  8
0
  6
SLD-実線
 62
     7
370
    25
100
AcDbSpline
210
0.0
220
0.0
230
1.0
 70
     8
 71
     3
 72
     9
 73
     5
 74
     0
 42
0.000000001
 43
0.00000001
 40
0.0
 40
0.0
 40
0.0
 40
0.0
 40
0.6532696459763657
 40
1.0
 40
1.0
 40
1.0
 40
1.0
 10
115.3090669641627
 20
187.0720621430509
 30
0.0
 10
115.3101336295975
 20
186.9423132043584
 30
0.0
 10
115.3117664399407
 20
186.7436985289459
 30
0.0
 10
115.3011011372777
 20
186.5384075691233
 30
0.0
 10
115.2974031531095
 20
186.4672269619461
 30
0.0
  0
LINE
  5
1ED
330
1F
100
AcDbEntity
  8
0
  6
SLD-実線
 62
     7
370
    25
100
AcDbLine
 10
115.3090669642
 20
187.5567413131
 30
0.0
 11
115.3090669642
 21
187.0720621431
 31
0.0
  0
SPLINE
  5
1EE
330
1F
100
AcDbEntity
  8
0
  6
SLD-実線
 62
     7
370
    25
100
AcDbSpline
210
0.0
220
0.0
230
1.0
 70
     8
 71
     3
 72
     9
 73
     5
 74
     0
 42
0.000000001
 43
0.00000001
 40
0.0
 40
0.0
 40
0.0
 40
0.0
 40
0.3388493678667675
 40
1.0
 40
1.0
 40
1.0
 40
1.0
 10
115.304506666922
 20
188.1494761764956
 30
0.0
 10
115.3061216401798
 20
188.0831777401344
 30
0.0
 10
115.3108876908529
 20
187.8875201924204
 30
0.0
 10
115.3097916272841
 20
187.6883938321191
 30
0.0
 10
115.3090669641627
 20
187.5567413131315
 30
0.0
  0
SPLINE
  5
1EF
330
1F
100
AcDbEntity
  8
0
  6
SLD-実線
 62
     7
370
    25
100
AcDbSpline
210
0.0
220
0.0
230
1.0
 70
     8
 71
     3
 72
    11
 73
     7
 74
     0
 42
0.000000001
 43
0.00000001
 40
0.0
 40
0.0
 40
0.0
 40
0.0
 40
0.2438101359791849
 40
0.4855998604428637
 40
0.714830201719485
 40
1.0
 40
1.0
 40
1.0
 40
1.0
 10
115.2232984978743
 20
188.2569315470954
 30
0.0
 10
115.2366213511142
 20
188.2594823656964
 30
0.0
 10
115.2631566534633
 20
188.2645628647155
 30
0.0
 10
115.2880357379377
 20
188.2392117947614
 30
0.0
 10
115.3005091806528
 20
188.1991454167899
 30
0.0
 10
115.3030809475458
 20
188.1671909085849
 30
0.0
 10
115.304506666922
 20
188.1494761764956
 30
0.0
  0
SPLINE
  5
1F0
330
1F
100
AcDbEntity
  8
0
  6
SLD-実線
 62
     7
370
    25
100
AcDbSpline
210
0.0
220
0.0
230
1.0
 70
     8
 71
     3
 72
     9
 73
     5
 74
     0
 42
0.000000001
 43
0.00000001
 40
0.0
 40
0.0
 40
0.0
 40
0.0
 40
0.5109408773551442
 40
1.0
 40
1.0
 40
1.0
 40
1.0
 10
115.1495446410666
 20
188.2252915192584
 30
0.0
 10
115.1622577467764
 20
188.2321184439233
 30
0.0
 10
115.1871395017371
 20
188.2454799206956
 30
0.0
 10
115.2114226182281
 20
188.253170432258
 30
0.0
 10
115.2232984978743
 20
188.2569315470954
 30
0.0
  0
SPLINE
  5
1F1
330
1F
100
AcDbEntity
  8
0
  6
SLD-実線
 62
     7
370
    25
100
AcDbSpline
210
0.0
220
0.0
230
1.0
 70
     8
 71
     3
 72
    12
 73
     8
 74
     0
 42
0.000000001
 43
0.00000001
 40
0.0
 40
0.0
 40
0.0
 40
0.0
 40
0.1855272500816552
 40
0.3598190877682031
 40
0.5393670472488649
 40
0.7643569451845675
 40
1.0
 40
1.0
 40
1.0
 40
1.0
 10
115.1303388078768
 20
188.2309137838081
 30
0.0
 10
115.1305125734131
 20
188.2290893057694
 30
0.0
 10
115.1308495813552
 20
188.2255508389227
 30
0.0
 10
115.1337022726484
 20
188.2224808090432
 30
0.0
 10
115.1378994083745
 20
188.2213632629248
 30
0.0
 10
115.1433347039961
 20
188.2221561893228
 30
0.0
 10
115.1474429909658
 20
188.2242304188961
 30
0.0
 10
115.1495446410666
 20
188.2252915192584
 30
0.0
  0
SPLINE
  5
1F2
330
1F
100
AcDbEntity
  8
0
  6
SLD-実線
 62
     7
370
    25
100
AcDbSpline
210
0.0
220
0.0
230
1.0
 70
     8
 71
     3
 72
    13
 73
     9
 74
     0
 42
0.000000001
 43
0.00000001
 40
0.0
 40
0.0
 40
0.0
 40
0.0
 40
0.3558572994504892
 40
0.6127718499000142
 40
0.7137304011479767
 40
0.8053450727865594
 40
0.8975179779846015
 40
1.0
 40
1.0
 40
1.0
 40
1.0
 10
115.1686627643598
 20
188.2753172044036
 30
0.0
 10
115.1629495537961
 20
188.2718852670795
 30
0.0
 10
115.1531116367113
 20
188.2659756100733
 30
0.0
 10
115.1417055273876
 20
188.2564535614261
 30
0.0
 10
115.1354695581952
 20
188.2484589582219
 30
0.0
 10
115.1324050256294
 20
188.2426527196053
 30
0.0
 10
115.1306015257877
 20
188.2366020814585
 30
0.0
 10
115.1304294188318
 20
188.2328756678706
 30
0.0
 10
115.1303388078768
 20
188.2309137838081
 30
0.0
  0
SPLINE
  5
1F3
330
1F
100
AcDbEntity
  8
0
  6
SLD-実線
 62
     7
370
    25
100
AcDbSpline
210
0.0
220
0.0
230
1.0
 70
     8
 71
     3
 72
    10
 73
     6
 74
     0
 42
0.000000001
 43
0.00000001
 40
0.0
 40
0.0
 40
0.0
 40
0.0
 40
0.1891538061377747
 40
0.4708997817033925
 40
1.0
 40
1.0
 40
1.0
 40
1.0
 10
115.4093932153445
 20
188.4054774027401
 30
0.0
 10
115.3942179982419
 20
188.3973886408608
 30
0.0
 10
115.3564391844455
 20
188.377251609093
 30
0.0
 10
115.2762282477594
 20
188.335034876959
 30
0.0
 10
115.2111367918519
 20
188.2988977247129
 30
0.0
 10
115.1686627643598
 20
188.2753172044036
 30
0.0
  0
SPLINE
  5
1F4
330
1F
100
AcDbEntity
  8
0
  6
SLD-実線
 62
     7
370
    25
100
AcDbSpline
210
0.0
220
0.0
230
1.0
 70
     8
 71
     3
 72
    10
 73
     6
 74
     0
 42
0.000000001
 43
0.00000001
 40
0.0
 40
0.0
 40
0.0
 40
0.0
 40
0.6680349662956325
 40
0.9104990236071847
 40
1.0
 40
1.0
 40
1.0
 40
1.0
 10
115.6434587020001
 20
188.5494110649515
 30
0.0
 10
115.5913192020145
 20
188.5179412275003
 30
0.0
 10
115.5202556107006
 20
188.4750493764477
 30
0.0
 10
115.4422752854592
 20
188.4257705857277
 30
0.0
 10
115.4163759311759
 20
188.4097867886645
 30
0.0
 10
115.4093932153445
 20
188.4054774027401
 30
0.0
  0
SPLINE
  5
1F5
330
1F
100
AcDbEntity
  8
0
  6
SLD-実線
 62
     7
370
    25
100
AcDbSpline
210
0.0
220
0.0
230
1.0
 70
     8
 71
     3
 72
    13
 73
     9
 74
     0
 42
0.000000001
 43
0.00000001
 40
0.0
 40
0.0
 40
0.0
 40
0.0
 40
0.1028765587674329
 40
0.1954481838026567
 40
0.2874668828034504
 40
0.3887544278774722
 40
0.6456762140065664
 40
1.0
 40
1.0
 40
1.0
 40
1.0
 10
115.6816072798488
 20
188.5491542987378
 30
0.0
 10
115.681515877914
 20
188.5510113206833
 30
0.0
 10
115.6813422295886
 20
188.5545393504977
 30
0.0
 10
115.679530691029
 20
188.5585018781774
 30
0.0
 10
115.6764632825393
 20
188.5607656832793
 30
0.0
 10
115.6702432530869
 20
188.5615640017413
 30
0.0
 10
115.6589031836753
 20
188.5579599457976
 30
0.0
 10
115.6491261842724
 20
188.5525481485819
 30
0.0
 10
115.6434587020001
 20
188.5494110649515
 30
0.0
  0
SPLINE
  5
1F6
330
1F
100
AcDbEntity
  8
0
  6
SLD-実線
 62
     7
370
    25
100
AcDbSpline
210
0.0
220
0.0
230
1.0
 70
     8
 71
     3
 72
    11
 73
     7
 74
     0
 42
0.000000001
 43
0.00000001
 40
0.0
 40
0.0
 40
0.0
 40
0.0
 40
0.2951022984323233
 40
0.5741622748223947
 40
0.7817106170014154
 40
1.0
 40
1.0
 40
1.0
 40
1.0
 10
115.6625768252932
 20
188.5214586951169
 30
0.0
 10
115.6651926067216
 20
188.523213865622
 30
0.0
 10
115.6702819707265
 20
188.5266287922264
 30
0.0
 10
115.6765888413418
 20
188.5339693529631
 30
0.0
 10
115.6808786322414
 20
188.5420804626537
 30
0.0
 10
115.6813603471632
 20
188.5467570338274
 30
0.0
 10
115.6816072798488
 20
188.5491542987378
 30
0.0
  0
SPLINE
  5
1F7
330
1F
100
AcDbEntity
  8
0
  6
SLD-実線
 62
     7
370
    25
100
AcDbSpline
210
0.0
220
0.0
230
1.0
 70
     8
 71
     3
 72
     9
 73
     5
 74
     0
 42
0.000000001
 43
0.00000001
 40
0.0
 40
0.0
 40
0.0
 40
0.0
 40
0.631150265493981
 40
1.0
 40
1.0
 40
1.0
 40
1.0
 10
115.6025915701043
 20
188.4785257846759
 30
0.0
 10
115.6151217688768
 20
188.4884743991037
 30
0.0
 10
115.6349747253875
 20
188.5042370708028
 30
0.0
 10
115.6551391738364
 20
188.5168181627079
 30
0.0
 10
115.6625768252932
 20
188.5214586951169
 30
0.0
  0
SPLINE
  5
1F8
330
1F
100
AcDbEntity
  8
0
  6
SLD-実線
 62
     7
370
    25
100
AcDbSpline
210
0.0
220
0.0
230
1.0
 70
     8
 71
     3
 72
    11
 73
     7
 74
     0
 42
0.000000001
 43
0.00000001
 40
0.0
 40
0.0
 40
0.0
 40
0.0
 40
0.3421281923525805
 40
0.6010923928106775
 40
0.7860256572451864
 40
1.0
 40
1.0
 40
1.0
 40
1.0
 10
115.5145429346161
 20
188.2707275329277
 30
0.0
 10
115.516094706217
 20
188.2950170638897
 30
0.0
 10
115.5188210471778
 20
188.3376918641912
 30
0.0
 10
115.5360862129909
 20
188.3995090400963
 30
0.0
 10
115.566841097254
 20
188.447836060689
 30
0.0
 10
115.5901100735746
 20
188.4678111380461
 30
0.0
 10
115.6025915701043
 20
188.4785257846759
 30
0.0
  0
SPLINE
  5
1F9
330
1F
100
AcDbEntity
  8
0
  6
SLD-実線
 62
     7
370
    25
100
AcDbSpline
210
0.0
220
0.0
230
1.0
 70
     8
 71
     3
 72
    10
 73
     6
 74
     0
 42
0.000000001
 43
0.00000001
 40
0.0
 40
0.0
 40
0.0
 40
0.0
 40
0.4806472063739737
 40
0.763052137487561
 40
1.0
 40
1.0
 40
1.0
 40
1.0
 10
115.5098072587411
 20
187.6726262185121
 30
0.0
 10
115.5099172872889
 20
187.7680849552042
 30
0.0
 10
115.5100919632622
 20
187.9196306047136
 30
0.0
 10
115.5095740256142
 20
188.1178426062297
 30
0.0
 10
115.51298618287
 20
188.2228289144386
 30
0.0
 10
115.5145429346161
 20
188.2707275329277
 30
0.0
  0
LINE
  5
1FA
330
1F
100
AcDbEntity
  8
0
  6
SLD-実線
 62
     7
370
    25
100
AcDbLine
 10
115.5098072587
 20
187.1879470484
 30
0.0
 11
115.5098072587
 21
187.6726262185
 31
0.0
  0
SPLINE
  5
1FB
330
1F
100
AcDbEntity
  8
0
  6
SLD-実線
 62
     7
370
    25
100
AcDbSpline
210
0.0
220
0.0
230
1.0
 70
     8
 71
     3
 72
     9
 73
     5
 74
     0
 42
0.000000001
 43
0.00000001
 40
0.0
 40
0.0
 40
0.0
 40
0.0
 40
0.4693486932797046
 40
1.0
 40
1.0
 40
1.0
 40
1.0
 10
115.5216464895875
 20
186.5966798846119
 30
0.0
 10
115.5172587802122
 20
186.6876490842172
 30
0.0
 10
115.5079102735727
 20
186.8814691606504
 30
0.0
 10
115.5091496055878
 20
187.0816962707933
 30
0.0
 10
115.5098072587411
 20
187.1879470484315
 30
0.0
  0
LINE
  5
1FC
330
1F
100
AcDbEntity
  8
0
  6
SLD-実線
 62
     7
370
    25
100
AcDbLine
 10
115.1686627644
 20
188.2753172044
 30
0.0
 11
114.8151093158
 21
188.4794192658
 31
0.0
  0
LINE
  5
1FD
330
1F
100
AcDbEntity
  8
0
  6
SLD-実線
 62
     7
370
    25
100
AcDbLine
 10
115.1303388079
 20
188.2309137838
 30
0.0
 11
114.7767853593
 21
188.4350158452
 31
0.0
  0
LINE
  5
1FE
330
1F
100
AcDbEntity
  8
0
  6
SLD-実線
 62
     7
370
    25
100
AcDbLine
 10
113.9207228974
 20
185.5401261846
 30
0.0
 11
113.5671694488
 21
185.744228246
 31
0.0
  0
LINE
  5
1FF
330
1F
100
AcDbEntity
  8
0
  6
SLD-実線
 62
     7
370
    25
100
AcDbLine
 10
115.4093932153
 20
188.4054774027
 30
0.0
 11
115.0558397668
 21
188.6095794642
 31
0.0
  0
LINE
  5
200
330
1F
100
AcDbEntity
  8
0
  6
SLD-実線
 62
     7
370
    25
100
AcDbLine
 10
115.643458702
 20
188.549411065
 30
0.0
 11
115.2899052535
 21
188.7535131264
 31
0.0
  0
LINE
  5
201
330
1F
100
AcDbEntity
  8
0
  6
SLD-実線
 62
     7
370
    25
100
AcDbLine
 10
114.4884785044
 20
186.1243007247
 30
0.0
 11
114.1349250559
 21
186.3284027862
 31
0.0
  0
LINE
  5
202
330
1F
100
AcDbEntity
  8
0
  6
SLD-実線
 62
     7
370
    25
100
AcDbLine
 10
115.3090669642
 20
187.5567413131
 30
0.0
 11
114.9555135156
 21
187.7608433745
 31
0.0
  0
SPLINE
  5
203
330
1F
100
AcDbEntity
  8
0
  6
SLD-実線
 62
     7
370
    25
100
AcDbSpline
210
0.0
220
0.0
230
1.0
 70
     8
 71
     3
 72
    12
 73
     8
 74
     0
 42
0.000000001
 43
0.00000001
 40
0.0
 40
0.0
 40
0.0
 40
0.0
 40
0.2118796994184174
 40
0.3833803348222906
 40
0.5409423712613575
 40
0.7457573459053235
 40
1.0
 40
1.0
 40
1.0
 40
1.0
 10
116.0405544548686
 20
188.7313563763998
 30
0.0
 10
116.053508505274
 20
188.7351114183448
 30
0.0
 10
116.076947882408
 20
188.7419058835156
 30
0.0
 10
116.1067829343859
 20
188.738758604359
 30
0.0
 10
116.1279893825932
 20
188.7199441129935
 30
0.0
 10
116.139646544477
 20
188.683202152766
 30
0.0
 10
116.1418518363946
 20
188.6512606761375
 30
0.0
 10
116.1430732065126
 20
188.6335703355674
 30
0.0
  0
SPLINE
  5
204
330
1F
100
AcDbEntity
  8
0
  6
SLD-実線
 62
     7
370
    25
100
AcDbSpline
210
0.0
220
0.0
230
1.0
 70
     8
 71
     3
 72
     9
 73
     5
 74
     0
 42
0.000000001
 43
0.00000001
 40
0.0
 40
0.0
 40
0.0
 40
0.0
 40
0.5765456208113112
 40
0.9999999999999999
 40
0.9999999999999999
 40
0.9999999999999999
 40
0.9999999999999999
 10
115.9595216232961
 20
188.6928812781717
 30
0.0
 10
115.9752035512379
 20
188.7016399695406
 30
0.0
 10
116.0024033553397
 20
188.7168316405079
 30
0.0
 10
116.029205127203
 20
188.7270355052079
 30
0.0
 10
116.0405544548686
 20
188.7313563763998
 30
0.0
  0
SPLINE
  5
205
330
1F
100
AcDbEntity
  8
0
  6
SLD-実線
 62
     7
370
    25
100
AcDbSpline
210
0.0
220
0.0
230
1.0
 70
     8
 71
     3
 72
    12
 73
     8
 74
     0
 42
0.000000001
 43
0.00000001
 40
0.0
 40
0.0
 40
0.0
 40
0.0
 40
0.1855271224647866
 40
0.3598199638937171
 40
0.5393680820883784
 40
0.7643567368845021
 40
1.0
 40
1.0
 40
1.0
 40
1.0
 10
115.9403158312653
 20
188.698503566482
 30
0.0
 10
115.9404895765883
 20
188.6966790736229
 30
0.0
 10
115.9408265463803
 20
188.6931405669833
 30
0.0
 10
115.9436793035157
 20
188.6900706097088
 30
0.0
 10
115.947876417502
 20
188.6889530463423
 30
0.0
 10
115.9533116983227
 20
188.6897459481729
 30
0.0
 10
115.9574199729367
 20
188.6918201755904
 30
0.0
 10
115.9595216232961
 20
188.6928812781717
 30
0.0
  0
SPLINE
  5
206
330
1F
100
AcDbEntity
  8
0
  6
SLD-実線
 62
     7
370
    25
100
AcDbSpline
210
0.0
220
0.0
230
1.0
 70
     8
 71
     3
 72
    13
 73
     9
 74
     0
 42
0.000000001
 43
0.00000001
 40
0.0
 40
0.0
 40
0.0
 40
0.0
 40
0.3556259687509894
 40
0.6127718799137404
 40
0.7138647278830219
 40
0.8055381553098682
 40
0.8976569860638001
 40
1.0
 40
1.0
 40
1.0
 40
1.0
 10
115.9787274153269
 20
188.7429575734018
 30
0.0
 10
115.973009562728
 20
188.7395224579537
 30
0.0
 10
115.9631572471099
 20
188.7336034803316
 30
0.0
 10
115.9517331901054
 20
188.7240710395167
 30
0.0
 10
115.945476148986
 20
188.7160668792624
 30
0.0
 10
115.9423965656514
 20
188.7102537972204
 30
0.0
 10
115.9405808295148
 20
188.7041952805537
 30
0.0
 10
115.9404072068569
 20
188.7004661595987
 30
0.0
 10
115.9403158312653
 20
188.698503566482
 30
0.0
  0
SPLINE
  5
207
330
1F
100
AcDbEntity
  8
0
  6
SLD-実線
 62
     7
370
    25
100
AcDbSpline
210
0.0
220
0.0
230
1.0
 70
     8
 71
     3
 72
     9
 73
     5
 74
     0
 42
0.000000001
 43
0.00000001
 40
0.0
 40
0.0
 40
0.0
 40
0.0
 40
0.4534665658361386
 40
0.9999999999999999
 40
0.9999999999999999
 40
0.9999999999999999
 40
0.9999999999999999
 10
116.252958437023
 20
188.8924572395579
 30
0.0
 10
116.2115208771005
 20
188.8704331054653
 30
0.0
 10
116.120141350925
 20
188.8218647307453
 30
0.0
 10
116.0287020503097
 20
188.770842777
 30
0.0
 10
115.9787274153269
 20
188.7429575734018
 30
0.0
  0
SPLINE
  5
208
330
1F
100
AcDbEntity
  8
0
  6
SLD-実線
 62
     7
370
    25
100
AcDbSpline
210
0.0
220
0.0
230
1.0
 70
     8
 71
     3
 72
     9
 73
     5
 74
     0
 42
0.000000001
 43
0.00000001
 40
0.0
 40
0.0
 40
0.0
 40
0.0
 40
0.6496584740247551
 40
0.9999999999999999
 40
0.9999999999999999
 40
0.9999999999999999
 40
0.9999999999999999
 10
116.4893918850931
 20
189.0377578967965
 30
0.0
 10
116.4381816744546
 20
189.0066270088391
 30
0.0
 10
116.3593553177056
 20
188.9587081573162
 30
0.0
 10
116.2805627466146
 20
188.9096458153205
 30
0.0
 10
116.252958437023
 20
188.8924572395579
 30
0.0
  0
SPLINE
  5
209
330
1F
100
AcDbEntity
  8
0
  6
SLD-実線
 62
     7
370
    25
100
AcDbSpline
210
0.0
220
0.0
230
1.0
 70
     8
 71
     3
 72
    13
 73
     9
 74
     0
 42
0.000000001
 43
0.00000001
 40
0.0
 40
0.0
 40
0.0
 40
0.0
 40
0.1028382902977671
 40
0.1953131936867097
 40
0.2871585329075874
 40
0.3882467628589686
 40
0.6450119801109597
 40
1.0
 40
1.0
 40
1.0
 40
1.0
 10
116.5275403806238
 20
189.0375010830616
 30
0.0
 10
116.5274497484859
 20
189.0393582988488
 30
0.0
 10
116.5272776175389
 20
189.0428855720632
 30
0.0
 10
116.5254769550984
 20
189.0468542591365
 30
0.0
 10
116.5224205028826
 20
189.0491264268477
 30
0.0
 10
116.5162092269735
 20
189.0499334242836
 30
0.0
 10
116.5048591345853
 20
189.0463218966341
 30
0.0
 10
116.4950714691912
 20
189.0409026031206
 30
0.0
 10
116.4893918850931
 20
189.0377578967965
 30
0.0
  0
SPLINE
  5
20A
330
1F
100
AcDbEntity
  8
0
  6
SLD-実線
 62
     7
370
    25
100
AcDbSpline
210
0.0
220
0.0
230
1.0
 70
     8
 71
     3
 72
    11
 73
     7
 74
     0
 42
0.000000001
 43
0.00000001
 40
0.0
 40
0.0
 40
0.0
 40
0.0
 40
0.2987537714182326
 40
0.5768377954906635
 40
0.7827871186760876
 40
1.0
 40
1.0
 40
1.0
 40
1.0
 10
116.5084221750126
 20
189.0097548218345
 30
0.0
 10
116.5110819759484
 20
189.0115299556586
 30
0.0
 10
116.5162175553286
 20
189.0149574078942
 30
0.0
 10
116.5225729302661
 20
189.0223312118271
 30
0.0
 10
116.5268297062763
 20
189.0304481276041
 30
0.0
 10
116.5272993224906
 20
189.0351087464285
 30
0.0
 10
116.5275403806238
 20
189.0375010830616
 30
0.0
  0
SPLINE
  5
20B
330
1F
100
AcDbEntity
  8
0
  6
SLD-実線
 62
     7
370
    25
100
AcDbSpline
210
0.0
220
0.0
230
1.0
 70
     8
 71
     3
 72
     9
 73
     5
 74
     0
 42
0.000000001
 43
0.00000001
 40
0.0
 40
0.0
 40
0.0
 40
0.0
 40
0.6320713040774061
 40
1.0
 40
1.0
 40
1.0
 40
1.0
 10
116.4487000906726
 20
188.9669738366909
 30
0.0
 10
116.4611931741557
 20
188.9769006053122
 30
0.0
 10
116.4809584813331
 20
188.9926057457881
 30
0.0
 10
116.5010353272691
 20
189.0051422735308
 30
0.0
 10
116.5084221750126
 20
189.0097548218345
 30
0.0
  0
SPLINE
  5
20C
330
1F
100
AcDbEntity
  8
0
  6
SLD-実線
 62
     7
370
    25
100
AcDbSpline
210
0.0
220
0.0
230
1.0
 70
     8
 71
     3
 72
    11
 73
     7
 74
     0
 42
0.000000001
 43
0.00000001
 40
0.0
 40
0.0
 40
0.0
 40
0.0
 40
0.3426435257875721
 40
0.6033942456650729
 40
0.7878060385792246
 40
1.0
 40
1.0
 40
1.0
 40
1.0
 10
116.3605637864468
 20
188.7591249748577
 30
0.0
 10
116.3620662832707
 20
188.7835314726311
 30
0.0
 10
116.3647121757784
 20
188.8265112437488
 30
0.0
 10
116.3817762053338
 20
188.888689987914
 30
0.0
 10
116.4126985764021
 20
188.9374010142357
 30
0.0
 10
116.4361519508945
 20
188.9566663838706
 30
0.0
 10
116.4487000906726
 20
188.9669738366909
 30
0.0
  0
SPLINE
  5
20D
330
1F
100
AcDbEntity
  8
0
  6
SLD-実線
 62
     7
370
    25
100
AcDbSpline
210
0.0
220
0.0
230
1.0
 70
     8
 71
     3
 72
    10
 73
     6
 74
     0
 42
0.000000001
 43
0.00000001
 40
0.0
 40
0.0
 40
0.0
 40
0.0
 40
0.4806472064087681
 40
0.7630521375034354
 40
1.0
 40
1.0
 40
1.0
 40
1.0
 10
116.3558280282537
 20
188.1610236129209
 30
0.0
 10
116.3559380933408
 20
188.2564823707023
 30
0.0
 10
116.356112827322
 20
188.4080280536841
 30
0.0
 10
116.3555948755257
 20
188.6062400470527
 30
0.0
 10
116.3590070340994
 20
188.7112263560217
 30
0.0
 10
116.3605637864468
 20
188.7591249748577
 30
0.0
  0
LINE
  5
20E
330
1F
100
AcDbEntity
  8
0
  6
SLD-実線
 62
     7
370
    25
100
AcDbLine
 10
116.3558280283
 20
187.7752854179
 30
0.0
 11
116.3558280283
 21
188.1610236129
 31
0.0
  0
SPLINE
  5
20F
330
1F
100
AcDbEntity
  8
0
  6
SLD-実線
 62
     7
370
    25
100
AcDbSpline
210
0.0
220
0.0
230
1.0
 70
     8
 71
     3
 72
    10
 73
     6
 74
     0
 42
0.000000001
 43
0.00000001
 40
0.0
 40
0.0
 40
0.0
 40
0.0
 40
0.1979905240802097
 40
0.4387895999631402
 40
1.0
 40
1.0
 40
1.0
 40
1.0
 10
116.5345561845396
 20
187.1980285243882
 30
0.0
 10
116.5063220820331
 20
187.2175795174612
 30
0.0
 10
116.4437492361774
 20
187.2609087245998
 30
0.0
 10
116.3655684971267
 20
187.4472614479309
 30
0.0
 10
116.3598379847759
 20
187.6402444999441
 30
0.0
 10
116.3558280282537
 20
187.775285417879
 30
0.0
  0
SPLINE
  5
210
330
1F
100
AcDbEntity
  8
0
  6
SLD-実線
 62
     7
370
    25
100
AcDbSpline
210
0.0
220
0.0
230
1.0
 70
     8
 71
     3
 72
     9
 73
     5
 74
     0
 42
0.000000001
 43
0.00000001
 40
0.0
 40
0.0
 40
0.0
 40
0.0
 40
0.5370498874281258
 40
0.9999999999999999
 40
0.9999999999999999
 40
0.9999999999999999
 40
0.9999999999999999
 10
116.8949942220074
 20
187.2544022284354
 30
0.0
 10
116.8226907055808
 20
187.2163509863694
 30
0.0
 10
116.6880597930359
 20
187.145498644796
 30
0.0
 10
116.5831323541731
 20
187.1814054601691
 30
0.0
 10
116.5345561845396
 20
187.1980285243882
 30
0.0
  0
SPLINE
  5
211
330
1F
100
AcDbEntity
  8
0
  6
SLD-実線
 62
     7
370
    25
100
AcDbSpline
210
0.0
220
0.0
230
1.0
 70
     8
 71
     3
 72
    10
 73
     6
 74
     0
 42
0.000000001
 43
0.00000001
 40
0.0
 40
0.0
 40
0.0
 40
0.0
 40
0.270733549502294
 40
0.5514212784588222
 40
1.0
 40
1.0
 40
1.0
 40
1.0
 10
117.2695516183624
 20
187.669017934127
 30
0.0
 10
117.24263884498
 20
187.6220263043309
 30
0.0
 10
117.1878237844429
 20
187.5263152828242
 30
0.0
 10
117.0615565969445
 20
187.373493499013
 30
0.0
 10
116.9584289916867
 20
187.2997577736043
 30
0.0
 10
116.8949942220074
 20
187.2544022284354
 30
0.0
  0
SPLINE
  5
212
330
1F
100
AcDbEntity
  8
0
  6
SLD-実線
 62
     7
370
    25
100
AcDbSpline
210
0.0
220
0.0
230
1.0
 70
     8
 71
     3
 72
     9
 73
     5
 74
     0
 42
0.000000001
 43
0.00000001
 40
0.0
 40
0.0
 40
0.0
 40
0.0
 40
0.6073708707387455
 40
1.0
 40
1.0
 40
1.0
 40
1.0
 10
117.4081141572897
 20
188.4241767841886
 30
0.0
 10
117.4084524256507
 20
188.2786044071102
 30
0.0
 10
117.4090093643801
 20
188.0389281498319
 30
0.0
 10
117.3088694613094
 20
187.7733081021591
 30
0.0
 10
117.2695516183624
 20
187.669017934127
 30
0.0
  0
LINE
  5
213
330
1F
100
AcDbEntity
  8
0
  6
SLD-実線
 62
     7
370
    25
100
AcDbLine
 10
117.4081141573
 20
188.7684954648
 30
0.0
 11
117.4081141573
 21
188.4241767842
 31
0.0
  0
SPLINE
  5
214
330
1F
100
AcDbEntity
  8
0
  6
SLD-実線
 62
     7
370
    25
100
AcDbSpline
210
0.0
220
0.0
230
1.0
 70
     8
 71
     3
 72
     9
 73
     5
 74
     0
 42
0.000000001
 43
0.00000001
 40
0.0
 40
0.0
 40
0.0
 40
0.0
 40
0.338856933537006
 40
1.0
 40
1.0
 40
1.0
 40
1.0
 10
117.403290648041
 20
189.3610783791176
 30
0.0
 10
117.404998817849
 20
189.2948341288599
 30
0.0
 10
117.4100397942584
 20
189.0993408580977
 30
0.0
 10
117.4088805702231
 20
188.900173549775
 30
0.0
 10
117.4081141572897
 20
188.7684954648114
 30
0.0
  0
SPLINE
  5
215
330
1F
100
AcDbEntity
  8
0
  6
SLD-実線
 62
     7
370
    25
100
AcDbSpline
210
0.0
220
0.0
230
1.0
 70
     8
 71
     3
 72
    12
 73
     8
 74
     0
 42
0.000000001
 43
0.00000001
 40
0.0
 40
0.0
 40
0.0
 40
0.0
 40
0.2116328797912701
 40
0.3829410091473644
 40
0.5404664557022653
 40
0.7454513921691274
 40
1.0
 40
1.0
 40
1.0
 40
1.0
 10
117.3010351495639
 20
189.4590163927685
 30
0.0
 10
117.3139579222897
 20
189.4627539138608
 30
0.0
 10
117.3373411490997
 20
189.4695168048644
 30
0.0
 10
117.367092562542
 20
189.4663091663968
 30
0.0
 10
117.3882175307036
 20
189.4474379206335
 30
0.0
 10
117.399828427007
 20
189.4106819241817
 30
0.0
 10
117.4020564713547
 20
189.3787605369784
 30
0.0
 10
117.403290648041
 20
189.3610783791176
 30
0.0
  0
SPLINE
  5
216
330
1F
100
AcDbEntity
  8
0
  6
SLD-実線
 62
     7
370
    25
100
AcDbSpline
210
0.0
220
0.0
230
1.0
 70
     8
 71
     3
 72
     9
 73
     5
 74
     0
 42
0.000000001
 43
0.00000001
 40
0.0
 40
0.0
 40
0.0
 40
0.0
 40
0.5746326473183764
 40
0.9999999999999999
 40
0.9999999999999999
 40
0.9999999999999999
 40
0.9999999999999999
 10
117.2194760586115
 20
189.4202374914669
 30
0.0
 10
117.2352050483261
 20
189.4290156620497
 30
0.0
 10
117.2625773004735
 20
189.4442918052061
 30
0.0
 10
117.2895583092766
 20
189.4546221860267
 30
0.0
 10
117.3010351495639
 20
189.4590163927685
 30
0.0
  0
SPLINE
  5
217
330
1F
100
AcDbEntity
  8
0
  6
SLD-実線
 62
     7
370
    25
100
AcDbSpline
210
0.0
220
0.0
230
1.0
 70
     8
 71
     3
 72
    12
 73
     8
 74
     0
 42
0.000000001
 43
0.00000001
 40
0.0
 40
0.0
 40
0.0
 40
0.0
 40
0.1862507442934697
 40
0.3614161819231748
 40
0.5416884262530173
 40
0.7665398731389496
 40
0.9999999999999999
 40
0.9999999999999999
 40
0.9999999999999999
 40
0.9999999999999999
 10
117.2003580176364
 20
189.4259104373834
 30
0.0
 10
117.2005337726788
 20
189.4240865941379
 30
0.0
 10
117.2008748221421
 20
189.4205474594906
 30
0.0
 10
117.2037408168425
 20
189.4174908860073
 30
0.0
 10
117.2079321344577
 20
189.416375858879
 30
0.0
 10
117.2133289768765
 20
189.4171446791104
 30
0.0
 10
117.2174015324631
 20
189.4191937246223
 30
0.0
 10
117.2194760586115
 20
189.4202374914669
 30
0.0
  0
SPLINE
  5
218
330
1F
100
AcDbEntity
  8
0
  6
SLD-実線
 62
     7
370
    25
100
AcDbSpline
210
0.0
220
0.0
230
1.0
 70
     8
 71
     3
 72
    13
 73
     9
 74
     0
 42
0.000000001
 43
0.00000001
 40
0.0
 40
0.0
 40
0.0
 40
0.0
 40
0.3534259835670927
 40
0.6107350134326038
 40
0.7123604507611995
 40
0.8046103417748763
 40
0.8972257833108618
 40
1.0
 40
1.0
 40
1.0
 40
1.0
 10
117.2385942642228
 20
189.4702632241333
 30
0.0
 10
117.2329342864477
 20
189.4668599878258
 30
0.0
 10
117.2231536060132
 20
189.4609790518769
 30
0.0
 10
117.2118057201661
 20
189.4514837259177
 30
0.0
 10
117.2055556072926
 20
189.4434930482069
 30
0.0
 10
117.2024623695714
 20
189.4376764326287
 30
0.0
 10
117.2006273951897
 20
189.4316080838007
 30
0.0
 10
117.2004508694852
 20
189.4278743612414
 30
0.0
 10
117.2003580176364
 20
189.4259104373834
 30
0.0
  0
SPLINE
  5
219
330
1F
100
AcDbEntity
  8
0
  6
SLD-実線
 62
     7
370
    25
100
AcDbSpline
210
0.0
220
0.0
230
1.0
 70
     8
 71
     3
 72
    10
 73
     6
 74
     0
 42
0.000000001
 43
0.00000001
 40
0.0
 40
0.0
 40
0.0
 40
0.0
 40
0.1721586245576831
 40
0.4321003118444765
 40
1.0
 40
1.0
 40
1.0
 40
1.0
 10
117.4916024543782
 20
189.6075112104253
 30
0.0
 10
117.4770877834136
 20
189.599805044907
 30
0.0
 10
117.4406574630261
 20
189.5804633678219
 30
0.0
 10
117.3563629030198
 20
189.5362493930548
 30
0.0
 10
117.286512015582
 20
189.4971117032176
 30
0.0
 10
117.2385942642228
 20
189.4702632241333
 30
0.0
  0
SPLINE
  5
21A
330
1F
100
AcDbEntity
  8
0
  6
SLD-実線
 62
     7
370
    25
100
AcDbSpline
210
0.0
220
0.0
230
1.0
 70
     8
 71
     3
 72
     9
 73
     5
 74
     0
 42
0.000000001
 43
0.00000001
 40
0.0
 40
0.0
 40
0.0
 40
0.0
 40
0.6709875484155688
 40
1.0
 40
1.0
 40
1.0
 40
1.0
 10
117.6922550390599
 20
189.732156014902
 30
0.0
 10
117.6473596707342
 20
189.70475080876
 30
0.0
 10
117.5804502795961
 20
189.6639077168028
 30
0.0
 10
117.5135977643228
 20
189.621472819891
 30
0.0
 10
117.4916024543782
 20
189.6075112104253
 30
0.0
  0
SPLINE
  5
21B
330
1F
100
AcDbEntity
  8
0
  6
SLD-実線
 62
     7
370
    25
100
AcDbSpline
210
0.0
220
0.0
230
1.0
 70
     8
 71
     3
 72
    13
 73
     9
 74
     0
 42
0.000000001
 43
0.00000001
 40
0.0
 40
0.0
 40
0.0
 40
0.0
 40
0.1031957706253608
 40
0.1959750223020601
 40
0.2880534369761244
 40
0.389269078639268
 40
0.6458838437791975
 40
1.0
 40
1.0
 40
1.0
 40
1.0
 10
117.7302280324792
 20
189.7317978859548
 30
0.0
 10
117.7301375254492
 20
189.7336551412732
 30
0.0
 10
117.7299656471141
 20
189.7371821816767
 30
0.0
 10
117.7281676157608
 20
189.7411510491906
 30
0.0
 10
117.7251192123202
 20
189.7434272492636
 30
0.0
 10
117.7189327669347
 20
189.7442468085448
 30
0.0
 10
117.70763856978
 20
189.7406706908903
 30
0.0
 10
117.6979010703267
 20
189.7352810534729
 30
0.0
 10
117.6922550390599
 20
189.732156014902
 30
0.0
  0
SPLINE
  5
21C
330
1F
100
AcDbEntity
  8
0
  6
SLD-実線
 62
     7
370
    25
100
AcDbSpline
210
0.0
220
0.0
230
1.0
 70
     8
 71
     3
 72
    11
 73
     7
 74
     0
 42
0.000000001
 43
0.00000001
 40
0.0
 40
0.0
 40
0.0
 40
0.0
 40
0.2999910960112979
 40
0.5776029455904502
 40
0.7829962481346571
 40
1.0
 40
1.0
 40
1.0
 40
1.0
 10
117.7111101561403
 20
189.7040518148125
 30
0.0
 10
117.7137826937466
 20
189.7058321952165
 30
0.0
 10
117.7189283984495
 20
189.7092601401766
 30
0.0
 10
117.725292481685
 20
189.7166423383772
 30
0.0
 10
117.7295268167879
 20
189.7247566603612
 30
0.0
 10
117.729990049614
 20
189.7294081917965
 30
0.0
 10
117.7302280324792
 20
189.7317978859548
 30
0.0
  0
SPLINE
  5
21D
330
1F
100
AcDbEntity
  8
0
  6
SLD-実線
 62
     7
370
    25
100
AcDbSpline
210
0.0
220
0.0
230
1.0
 70
     8
 71
     3
 72
     9
 73
     5
 74
     0
 42
0.000000001
 43
0.00000001
 40
0.0
 40
0.0
 40
0.0
 40
0.0
 40
0.6334684490860047
 40
1.0
 40
1.0
 40
1.0
 40
1.0
 10
117.651650831059
 20
189.6614225173601
 30
0.0
 10
117.6641163217909
 20
189.6713327042596
 30
0.0
 10
117.6837944774274
 20
189.6869770302143
 30
0.0
 10
117.7037835356343
 20
189.6994720103608
 30
0.0
 10
117.7111101561403
 20
189.7040518148125
 30
0.0
  0
SPLINE
  5
21E
330
1F
100
AcDbEntity
  8
0
  6
SLD-実線
 62
     7
370
    25
100
AcDbSpline
210
0.0
220
0.0
230
1.0
 70
     8
 71
     3
 72
    11
 73
     7
 74
     0
 42
0.000000001
 43
0.00000001
 40
0.0
 40
0.0
 40
0.0
 40
0.0
 40
0.340233813083092
 40
0.596451607069991
 40
0.7822915337775462
 40
1.0
 40
1.0
 40
1.0
 40
1.0
 10
117.563339353994
 20
189.4534725303995
 30
0.0
 10
117.5648132757184
 20
189.4775638481074
 30
0.0
 10
117.5673971546492
 20
189.5197974669035
 30
0.0
 10
117.5848840036999
 20
189.581353456055
 30
0.0
 10
117.6158027529877
 20
189.6294369519392
 30
0.0
 10
117.6390885068304
 20
189.6502137422996
 30
0.0
 10
117.651650831059
 20
189.6614225173601
 30
0.0
  0
SPLINE
  5
21F
330
1F
100
AcDbEntity
  8
0
  6
SLD-実線
 62
     7
370
    25
100
AcDbSpline
210
0.0
220
0.0
230
1.0
 70
     8
 71
     3
 72
    10
 73
     6
 74
     0
 42
0.000000001
 43
0.00000001
 40
0.0
 40
0.0
 40
0.0
 40
0.0
 40
0.4806426898112064
 40
0.7630452319303067
 40
1.0
 40
1.0
 40
1.0
 40
1.0
 10
117.5584282583257
 20
188.8552699482927
 30
0.0
 10
117.5585422797965
 20
188.9507306965169
 30
0.0
 10
117.5587232948029
 20
189.1022795920126
 30
0.0
 10
117.5581863291541
 20
189.3004847721953
 30
0.0
 10
117.5617248963635
 20
189.4055410219589
 30
0.0
 10
117.563339353994
 20
189.4534725303995
 30
0.0
  0
LINE
  5
220
330
1F
100
AcDbEntity
  8
0
  6
SLD-実線
 62
     7
370
    25
100
AcDbLine
 10
117.5584282583
 20
188.560371125
 30
0.0
 11
117.5584282583
 21
188.8552699483
 31
0.0
  0
SPLINE
  5
221
330
1F
100
AcDbEntity
  8
0
  6
SLD-実線
 62
     7
370
    25
100
AcDbSpline
210
0.0
220
0.0
230
1.0
 70
     8
 71
     3
 72
    10
 73
     6
 74
     0
 42
0.000000001
 43
0.00000001
 40
0.0
 40
0.0
 40
0.0
 40
0.0
 40
0.271619481353883
 40
0.549415642878394
 40
1.0
 40
1.0
 40
1.0
 40
1.0
 10
117.3389205565637
 20
187.610021463032
 30
0.0
 10
117.3850333315457
 20
187.6977841902458
 30
0.0
 10
117.4783074950386
 20
187.8753053862683
 30
0.0
 10
117.5494116072368
 20
188.2074018589979
 30
0.0
 10
117.5549822167873
 20
188.4254710672652
 30
0.0
 10
117.5584282583257
 20
188.5603711249958
 30
0.0
  0
SPLINE
  5
222
330
1F
100
AcDbEntity
  8
0
  6
SLD-実線
 62
     7
370
    25
100
AcDbSpline
210
0.0
220
0.0
230
1.0
 70
     8
 71
     3
 72
     9
 73
     5
 74
     0
 42
0.000000001
 43
0.00000001
 40
0.0
 40
0.0
 40
0.0
 40
0.0
 40
0.5030270798394764
 40
1.0
 40
1.0
 40
1.0
 40
1.0
 10
116.8472866236711
 20
187.1221478544705
 30
0.0
 10
116.9384122528536
 20
187.1811524744879
 30
0.0
 10
117.1195667728282
 20
187.298451567086
 30
0.0
 10
117.266098337148
 20
187.5065848551034
 30
0.0
 10
117.3389205565637
 20
187.610021463032
 30
0.0
  0
SPLINE
  5
223
330
1F
100
AcDbEntity
  8
0
  6
SLD-実線
 62
     7
370
    25
100
AcDbSpline
210
0.0
220
0.0
230
1.0
 70
     8
 71
     3
 72
    10
 73
     6
 74
     0
 42
0.000000001
 43
0.00000001
 40
0.0
 40
0.0
 40
0.0
 40
0.0
 40
0.3480547031762641
 40
0.6587751719798275
 40
1.0
 40
1.0
 40
1.0
 40
1.0
 10
116.3558280282537
 20
187.0338862619565
 30
0.0
 10
116.4052741152175
 20
187.0191650808794
 30
0.0
 10
116.498862433795
 20
186.9913017924158
 30
0.0
 10
116.6717375540782
 20
187.0321388072687
 30
0.0
 10
116.7869729879882
 20
187.0912233221236
 30
0.0
 10
116.8472866236711
 20
187.1221478544705
 30
0.0
  0
SPLINE
  5
224
330
1F
100
AcDbEntity
  8
0
  6
SLD-実線
 62
     7
370
    25
100
AcDbSpline
210
0.0
220
0.0
230
1.0
 70
     8
 71
     3
 72
    10
 73
     6
 74
     0
 42
0.000000001
 43
0.00000001
 40
0.0
 40
0.0
 40
0.0
 40
0.0
 40
0.3736792125289775
 40
0.6564318726496348
 40
1.0
 40
1.0
 40
1.0
 40
1.0
 10
116.1482473907119
 20
187.6389446312823
 30
0.0
 10
116.1513992792298
 20
187.5433135773742
 30
0.0
 10
116.1569361140679
 20
187.375321166516
 30
0.0
 10
116.2143207678342
 20
187.1500058577818
 30
0.0
 10
116.3057012727811
 20
187.0750198304268
 30
0.0
 10
116.3558280282537
 20
187.0338862619565
 30
0.0
  0
LINE
  5
225
330
1F
100
AcDbEntity
  8
0
  6
SLD-実線
 62
     7
370
    25
100
AcDbLine
 10
116.1482473907
 20
188.0411898616
 30
0.0
 11
116.1482473907
 21
187.6389446313
 31
0.0
  0
SPLINE
  5
226
330
1F
100
AcDbEntity
  8
0
  6
SLD-実線
 62
     7
370
    25
100
AcDbSpline
210
0.0
220
0.0
230
1.0
 70
     8
 71
     3
 72
     9
 73
     5
 74
     0
 42
0.000000001
 43
0.00000001
 40
0.0
 40
0.0
 40
0.0
 40
0.0
 40
0.3388676709058157
 40
1.0
 40
1.0
 40
1.0
 40
1.0
 10
116.1430732065126
 20
188.6335703355674
 30
0.0
 10
116.1449055327081
 20
188.567398305542
 30
0.0
 10
116.1503127354388
 20
188.3721243514097
 30
0.0
 10
116.1490693999798
 20
188.1729021196751
 30
0.0
 10
116.1482473907119
 20
188.0411898616011
 30
0.0
  0
LINE
  5
227
330
1F
100
AcDbEntity
  8
0
  6
SLD-実線
 62
     7
370
    25
100
AcDbLine
 10
115.9787274153
 20
188.7429575734
 30
0.0
 11
115.6251739668
 21
188.9470596348
 31
0.0
  0
LINE
  5
228
330
1F
100
AcDbEntity
  8
0
  6
SLD-実線
 62
     7
370
    25
100
AcDbLine
 10
115.9403158313
 20
188.6985035665
 30
0.0
 11
115.5867623827
 21
188.9026056279
 31
0.0
  0
LINE
  5
229
330
1F
100
AcDbEntity
  8
0
  6
SLD-実線
 62
     7
370
    25
100
AcDbLine
 10
116.252958437
 20
188.8924572396
 30
0.0
 11
115.8994049885
 21
189.096559301
 31
0.0
  0
LINE
  5
22A
330
1F
100
AcDbEntity
  8
0
  6
SLD-実線
 62
     7
370
    25
100
AcDbLine
 10
115.3090669642
 20
187.0720621431
 30
0.0
 11
114.9555135156
 21
187.2761642045
 31
0.0
  0
LINE
  5
22B
330
1F
100
AcDbEntity
  8
0
  6
SLD-実線
 62
     7
370
    25
100
AcDbLine
 10
116.4893918851
 20
189.0377578968
 30
0.0
 11
116.1358384365
 21
189.2418599582
 31
0.0
  0
LINE
  5
22C
330
1F
100
AcDbEntity
  8
0
  6
SLD-実線
 62
     7
370
    25
100
AcDbLine
 10
116.1482473907
 20
188.0411898616
 30
0.0
 11
115.7946939422
 21
188.245291923
 31
0.0
  0
LINE
  5
22D
330
1F
100
AcDbEntity
  8
0
  6
SLD-実線
 62
     7
370
    25
100
AcDbLine
 10
115.2974031531
 20
186.4672269619
 30
0.0
 11
114.9438497046
 21
186.6713290234
 31
0.0
  0
LINE
  5
22E
330
1F
100
AcDbEntity
  8
0
  6
SLD-実線
 62
     7
370
    25
100
AcDbLine
 10
116.1482473907
 20
187.6389446313
 30
0.0
 11
115.7946939422
 21
187.8430466927
 31
0.0
  0
LINE
  5
22F
330
1F
100
AcDbEntity
  8
0
  6
SLD-実線
 62
     7
370
    25
100
AcDbLine
 10
115.2281218836
 20
186.2757315588
 30
0.0
 11
114.8745684351
 21
186.4798336202
 31
0.0
  0
LINE
  5
230
330
1F
100
AcDbEntity
  8
0
  6
SLD-実線
 62
     7
370
    25
100
AcDbLine
 10
115.156560445
 20
186.2231789522
 30
0.0
 11
114.8030069964
 21
186.4272810136
 31
0.0
  0
LINE
  5
231
330
1F
100
AcDbEntity
  8
0
  6
SLD-実線
 62
     7
370
    25
100
AcDbLine
 10
115.1372669431
 20
186.1953314945
 30
0.0
 11
114.7837134945
 21
186.3994335559
 31
0.0
  0
LINE
  5
232
330
1F
100
AcDbEntity
  8
0
  6
SLD-実線
 62
     7
370
    25
100
AcDbLine
 10
116.3558280283
 20
187.033886262
 30
0.0
 11
116.0022745797
 21
187.2379883234
 31
0.0
  0
LINE
  5
233
330
1F
100
AcDbEntity
  8
0
  6
SLD-実線
 62
     7
370
    25
100
AcDbLine
 10
117.2385942642
 20
189.4702632241
 30
0.0
 11
116.8850408157
 21
189.6743652855
 31
0.0
  0
LINE
  5
234
330
1F
100
AcDbEntity
  8
0
  6
SLD-実線
 62
     7
370
    25
100
AcDbLine
 10
117.2003580176
 20
189.4259104374
 30
0.0
 11
116.8468045691
 21
189.6300124988
 31
0.0
  0
LINE
  5
235
330
1F
100
AcDbEntity
  8
0
  6
SLD-実線
 62
     7
370
    25
100
AcDbLine
 10
117.4916024544
 20
189.6075112104
 30
0.0
 11
117.1380490058
 21
189.8116132718
 31
0.0
  0
LINE
  5
236
330
1F
100
AcDbEntity
  8
0
  6
SLD-実線
 62
     7
370
    25
100
AcDbLine
 10
117.6922550391
 20
189.7321560149
 30
0.0
 11
117.3387015905
 21
189.9362580763
 31
0.0
  0
LWPOLYLINE
  5
237
330
1F
100
AcDbEntity
  8
0
  6
SLD-実線
 62
     7
370
    25
100
AcDbPolyline
 90
       19
 70
   128
 43
0.0
 10
104.6839515336
 20
157.1572689099
 10
104.6892865055
 20
157.0239631222
 10
104.8167611512
 20
156.4964171757
 10
105.1099821681
 20
155.9913757876
 10
105.5589641488
 20
155.5260373934
 10
106.1484176244
 20
155.1162486284
 10
106.858269335
 20
154.7759644752
 10
107.6643465813
 20
154.5167725997
 10
108.539198594
 20
154.347499781
 10
109.4530341367
 20
154.2739101513
 10
110.3747333593
 20
154.2985099791
 10
111.2729087136
 20
154.4204613704
 10
112.1169737705
 20
154.6356115421
 10
112.8781857172
 20
154.9366334963
 10
113.5306215251
 20
155.3132766711
 10
114.0520633433
 20
155.7527149742
 10
114.4247547538
 20
156.2399833598
 10
114.6360036489
 20
156.7584889551
 10
114.6839512867
 20
157.1572688623
  0
LINE
  5
238
330
1F
100
AcDbEntity
  8
0
  6
SLD-実線
 62
     7
370
    25
100
AcDbLine
 10
104.8543223073
 20
183.3378523543
 30
0.0
 11
104.8543223073
 21
183.3696320985
 31
0.0
  0
LINE
  5
239
330
1F
100
AcDbEntity
  8
0
  6
SLD-実線
 62
     7
370
    25
100
AcDbLine
 10
117.4081141573
 20
188.7684954648
 30
0.0
 11
117.0545607087
 21
188.9725975262
 31
0.0
  0
SPLINE
  5
23A
330
1F
100
AcDbEntity
  8
0
  6
SLD-実線
 62
     7
370
    25
100
AcDbSpline
210
0.0
220
0.0
230
1.0
 70
     8
 71
     3
 72
    11
 73
     7
 74
     0
 42
0.000000001
 43
0.00000001
 40
0.0
 40
0.0
 40
0.0
 40
0.0
 40
0.403127005797473
 40
0.6463937536290093
 40
0.8026530553346171
 40
1.0
 40
1.0
 40
1.0
 40
1.0
 10
117.9235141382947
 20
187.9224864385648
 30
0.0
 10
117.9234713769966
 20
187.9061954460336
 30
0.0
 10
117.9234028114191
 20
187.8800736639124
 30
0.0
 10
117.9275211038617
 20
187.8489637311784
 30
0.0
 10
117.9419705397043
 20
187.8384518368114
 30
0.0
 10
117.9531456285495
 20
187.8384045495052
 30
0.0
 10
117.9593824234665
 20
187.8383781585534
 30
0.0
  0
SPLINE
  5
23B
330
1F
100
AcDbEntity
  8
0
  6
SLD-実線
 62
     7
370
    25
100
AcDbSpline
210
0.0
220
0.0
230
1.0
 70
     8
 71
     3
 72
     9
 73
     5
 74
     0
 42
0.000000001
 43
0.00000001
 40
0.0
 40
0.0
 40
0.0
 40
0.0
 40
0.4438095961024555
 40
1.0
 40
1.0
 40
1.0
 40
1.0
 10
117.9355286242983
 20
188.2215867732621
 30
0.0
 10
117.9325355639942
 20
188.1767070740044
 30
0.0
 10
117.925791545094
 20
188.0755833045957
 30
0.0
 10
117.9243280951244
 20
187.9772040409481
 30
0.0
 10
117.9235141382947
 20
187.9224864385648
 30
0.0
  0
SPLINE
  5
23C
330
1F
100
AcDbEntity
  8
0
  6
SLD-実線
 62
     7
370
    25
100
AcDbSpline
210
0.0
220
0.0
230
1.0
 70
     8
 71
     3
 72
    13
 73
     9
 74
     0
 42
0.000000001
 43
0.00000001
 40
0.0
 40
0.0
 40
0.0
 40
0.0
 40
0.0887711014351385
 40
0.1721713266810358
 40
0.2604976832236208
 40
0.3626421759072044
 40
0.6297200836148497
 40
1.0
 40
1.0
 40
1.0
 40
1.0
 10
117.9542961549591
 20
188.2764736077497
 30
0.0
 10
117.9529129310029
 20
188.2755662982909
 30
0.0
 10
117.9502301716387
 20
188.2738065738907
 30
0.0
 10
117.9465282251543
 20
188.2695264346906
 30
0.0
 10
117.9435058627262
 20
188.264253420581
 30
0.0
 10
117.9399829631022
 20
188.2550423433454
 30
0.0
 10
117.9371109131494
 20
188.2404191081444
 30
0.0
 10
117.9361100731265
 20
188.2285071525864
 30
0.0
 10
117.9355286242983
 20
188.2215867732621
 30
0.0
  0
SPLINE
  5
23D
330
1F
100
AcDbEntity
  8
0
  6
SLD-実線
 62
     7
370
    25
100
AcDbSpline
210
0.0
220
0.0
230
1.0
 70
     8
 71
     3
 72
    13
 73
     9
 74
     0
 42
0.000000001
 43
0.00000001
 40
0.0
 40
0.0
 40
0.0
 40
0.0
 40
0.331105240143522
 40
0.5635363265090141
 40
0.6590331573062027
 40
0.7555530407189787
 40
0.8659249560507747
 40
0.9999999999999999
 40
0.9999999999999999
 40
0.9999999999999999
 40
0.9999999999999999
 10
117.9713972387424
 20
188.2560660270528
 30
0.0
 10
117.9713560161671
 20
188.2606868958179
 30
0.0
 10
117.9712858559407
 20
188.2685515475767
 30
0.0
 10
117.9694643417289
 20
188.2768311100107
 30
0.0
 10
117.9661971953059
 20
188.2797258620365
 30
0.0
 10
117.9629840919089
 20
188.2801088953094
 30
0.0
 10
117.958916560302
 20
188.278978137664
 30
0.0
 10
117.9559327336629
 20
188.2773607291203
 30
0.0
 10
117.9542961549591
 20
188.2764736077497
 30
0.0
  0
SPLINE
  5
23E
330
1F
100
AcDbEntity
  8
0
  6
SLD-実線
 62
     7
370
    25
100
AcDbSpline
210
0.0
220
0.0
230
1.0
 70
     8
 71
     3
 72
     9
 73
     5
 74
     0
 42
0.000000001
 43
0.00000001
 40
0.0
 40
0.0
 40
0.0
 40
0.0
 40
0.6128973321439742
 40
1.0
 40
1.0
 40
1.0
 40
1.0
 10
117.9784130426582
 20
188.1581370926257
 30
0.0
 10
117.9757146935885
 20
188.1773143007654
 30
0.0
 10
117.9713120817183
 20
188.2086037307138
 30
0.0
 10
117.9713734737306
 20
188.2428205896665
 30
0.0
 10
117.9713972387424
 20
188.2560660270528
 30
0.0
  0
SPLINE
  5
23F
330
1F
100
AcDbEntity
  8
0
  6
SLD-実線
 62
     7
370
    25
100
AcDbSpline
210
0.0
220
0.0
230
1.0
 70
     8
 71
     3
 72
    11
 73
     7
 74
     0
 42
0.000000001
 43
0.00000001
 40
0.0
 40
0.0
 40
0.0
 40
0.0
 40
0.2837066199415481
 40
0.5546664160438279
 40
0.7666856022773454
 40
1.0
 40
1.0
 40
1.0
 40
1.0
 10
118.3314844366235
 20
188.0808348018588
 30
0.0
 10
118.2872303140559
 20
188.0585526492888
 30
0.0
 10
118.2007103887724
 20
188.0149894722635
 30
0.0
 10
118.0897009605384
 20
188.0096229524359
 30
0.0
 10
118.0092774775712
 20
188.0577914468462
 30
0.0
 10
117.989024018064
 20
188.1236389661431
 30
0.0
 10
117.9784130426582
 20
188.1581370926257
 30
0.0
  0
SPLINE
  5
240
330
1F
100
AcDbEntity
  8
0
  6
SLD-実線
 62
     7
370
    25
100
AcDbSpline
210
0.0
220
0.0
230
1.0
 70
     8
 71
     3
 72
    11
 73
     7
 74
     0
 42
0.000000001
 43
0.00000001
 40
0.0
 40
0.0
 40
0.0
 40
0.0
 40
0.2507460400238493
 40
0.512505084171294
 40
0.737274396748445
 40
1.0
 40
1.0
 40
1.0
 40
1.0
 10
118.6727165174244
 20
188.6443207569853
 30
0.0
 10
118.6674896102669
 20
188.5909517927636
 30
0.0
 10
118.6568062252275
 20
188.4818698487457
 30
0.0
 10
118.5765949695221
 20
188.3128370362292
 30
0.0
 10
118.4622283998264
 20
188.1687219698633
 30
0.0
 10
118.3772706897722
 20
188.1116126980171
 30
0.0
 10
118.3314844366235
 20
188.0808348018588
 30
0.0
  0
SPLINE
  5
241
330
1F
100
AcDbEntity
  8
0
  6
SLD-実線
 62
     7
370
    25
100
AcDbSpline
210
0.0
220
0.0
230
1.0
 70
     8
 71
     3
 72
    11
 73
     7
 74
     0
 42
0.000000001
 43
0.00000001
 40
0.0
 40
0.0
 40
0.0
 40
0.0
 40
0.3607790646619725
 40
0.6284781283291846
 40
0.8096564571753183
 40
1.0
 40
1.0
 40
1.0
 40
1.0
 10
118.3986609155216
 20
188.9824370451954
 30
0.0
 10
118.4473322156934
 20
188.9630851601268
 30
0.0
 10
118.5321177551868
 20
188.9293741228221
 30
0.0
 10
118.6243725743601
 20
188.8542959060645
 30
0.0
 10
118.6678345781282
 20
188.7565637902702
 30
0.0
 10
118.6710626594052
 20
188.6823454085507
 30
0.0
 10
118.6727165174244
 20
188.6443207569853
 30
0.0
  0
LINE
  5
242
330
1F
100
AcDbEntity
  8
0
  6
SLD-実線
 62
     7
370
    25
100
AcDbLine
 10
118.2911433172
 20
189.0221450138
 30
0.0
 11
118.3986609155
 21
188.9824370452
 31
0.0
  0
SPLINE
  5
243
330
1F
100
AcDbEntity
  8
0
  6
SLD-実線
 62
     7
370
    25
100
AcDbSpline
210
0.0
220
0.0
230
1.0
 70
     8
 71
     3
 72
    10
 73
     6
 74
     0
 42
0.000000001
 43
0.00000001
 40
0.0
 40
0.0
 40
0.0
 40
0.0
 40
0.2170325088276978
 40
0.4584657019298682
 40
1.0
 40
1.0
 40
1.0
 40
1.0
 10
117.9808684258562
 20
189.4409263994061
 30
0.0
 10
117.983641025745
 20
189.3901020303838
 30
0.0
 10
117.9894979453421
 20
189.2827391742624
 30
0.0
 10
118.0818561674111
 20
189.1138502457596
 30
0.0
 10
118.2055744106776
 20
189.0596395108477
 30
0.0
 10
118.2911433171535
 20
189.02214501381
 30
0.0
  0
SPLINE
  5
244
330
1F
100
AcDbEntity
  8
0
  6
SLD-実線
 62
     7
370
    25
100
AcDbSpline
210
0.0
220
0.0
230
1.0
 70
     8
 71
     3
 72
    12
 73
     8
 74
     0
 42
0.000000001
 43
0.00000001
 40
0.0
 40
0.0
 40
0.0
 40
0.0
 40
0.2159433847868771
 40
0.40711132526289
 40
0.5826519971086065
 40
0.7844054537098542
 40
1.0
 40
1.0
 40
1.0
 40
1.0
 10
118.4746072316324
 20
190.2221797398371
 30
0.0
 10
118.4216356188134
 20
190.1881230516251
 30
0.0
 10
118.3217698900374
 20
190.123917040009
 30
0.0
 10
118.1862155938391
 20
189.9859838862426
 30
0.0
 10
118.0748074101604
 20
189.8224712228989
 30
0.0
 10
117.994855007697
 20
189.6291295483971
 30
0.0
 10
117.9856325719387
 20
189.5050326481795
 30
0.0
 10
117.9808684258562
 20
189.4409263994061
 30
0.0
  0
SPLINE
  5
245
330
1F
100
AcDbEntity
  8
0
  6
SLD-実線
 62
     7
370
    25
100
AcDbSpline
210
0.0
220
0.0
230
1.0
 70
     8
 71
     3
 72
     9
 73
     5
 74
     0
 42
0.000000001
 43
0.00000001
 40
0.0
 40
0.0
 40
0.0
 40
0.0
 40
0.5060474499364245
 40
1.0
 40
1.0
 40
1.0
 40
1.0
 10
118.6965703165925
 20
190.3225682461733
 30
0.0
 10
118.6594959470348
 20
190.3097872591237
 30
0.0
 10
118.5862333121528
 20
190.2845307598541
 30
0.0
 10
118.5115146870428
 20
190.242795150504
 30
0.0
 10
118.4746072316324
 20
190.2221797398371
 30
0.0
  0
SPLINE
  5
246
330
1F
100
AcDbEntity
  8
0
  6
SLD-実線
 62
     7
370
    25
100
AcDbSpline
210
0.0
220
0.0
230
1.0
 70
     8
 71
     3
 72
     9
 73
     5
 74
     0
 42
0.000000001
 43
0.00000001
 40
0.0
 40
0.0
 40
0.0
 40
0.0
 40
0.4352472362802388
 40
1.0
 40
1.0
 40
1.0
 40
1.0
 10
118.780058613681
 20
190.3570935073853
 30
0.0
 10
118.7678218069807
 20
190.3509544890798
 30
0.0
 10
118.7397071960645
 20
190.3368498198397
 30
0.0
 10
118.7121393396771
 20
190.3277227717862
 30
0.0
 10
118.6965703165925
 20
190.3225682461733
 30
0.0
  0
SPLINE
  5
247
330
1F
100
AcDbEntity
  8
0
  6
SLD-実線
 62
     7
370
    25
100
AcDbSpline
210
0.0
220
0.0
230
1.0
 70
     8
 71
     3
 72
    12
 73
     8
 74
     0
 42
0.000000001
 43
0.00000001
 40
0.0
 40
0.0
 40
0.0
 40
0.0
 40
0.1728420608487936
 40
0.317827893827719
 40
0.463401068846412
 40
0.684380860110689
 40
1.0
 40
1.0
 40
1.0
 40
1.0
 10
118.8041755013801
 20
190.3517745631766
 30
0.0
 10
118.8041080385915
 20
190.3540034569587
 30
0.0
 10
118.803983985708
 20
190.3581020230882
 30
0.0
 10
118.8019698179084
 20
190.3627582853787
 30
0.0
 10
118.7973528363831
 20
190.3645186870604
 30
0.0
 10
118.7897095295797
 20
190.3624034066526
 30
0.0
 10
118.7836328323917
 20
190.3590600296835
 30
0.0
 10
118.780058613681
 20
190.3570935073853
 30
0.0
  0
SPLINE
  5
248
330
1F
100
AcDbEntity
  8
0
  6
SLD-実線
 62
     7
370
    25
100
AcDbSpline
210
0.0
220
0.0
230
1.0
 70
     8
 71
     3
 72
    10
 73
     6
 74
     0
 42
0.000000001
 43
0.00000001
 40
0.0
 40
0.0
 40
0.0
 40
0.0
 40
0.7789311982937849
 40
0.9428907050083157
 40
1.0
 40
1.0
 40
1.0
 40
1.0
 10
118.7943533100436
 20
190.0539398132519
 30
0.0
 10
118.7949556023016
 20
190.1302636096104
 30
0.0
 10
118.7956846728189
 20
190.2226530251519
 30
0.0
 10
118.8026492643953
 20
190.3238349461473
 30
0.0
 10
118.8038621685936
 20
190.3460386269192
 30
0.0
 10
118.8041755013801
 20
190.3517745631766
 30
0.0
  0
SPLINE
  5
249
330
1F
100
AcDbEntity
  8
0
  6
SLD-実線
 62
     7
370
    25
100
AcDbSpline
210
0.0
220
0.0
230
1.0
 70
     8
 71
     3
 72
    13
 73
     9
 74
     0
 42
0.000000001
 43
0.00000001
 40
0.0
 40
0.0
 40
0.0
 40
0.0
 40
0.0677984912309531
 40
0.1364083942950199
 40
0.2174503249028903
 40
0.3189348776074496
 40
0.5997917253922147
 40
1.0
 40
1.0
 40
1.0
 40
1.0
 10
118.7776908169026
 20
189.9808243431531
 30
0.0
 10
118.7791035099534
 20
189.9818062485288
 30
0.0
 10
118.7819458031547
 20
189.9837818107163
 30
0.0
 10
118.7856840881067
 20
189.9891723316053
 30
0.0
 10
118.7885543120401
 20
189.9958673306007
 30
0.0
 10
118.7918578269564
 20
190.0081910897244
 30
0.0
 10
118.7940351181774
 20
190.028040140744
 30
0.0
 10
118.7942355387028
 20
190.0443536500521
 30
0.0
 10
118.7943533100436
 20
190.0539398132519
 30
0.0
  0
SPLINE
  5
24A
330
1F
100
AcDbEntity
  8
0
  6
SLD-実線
 62
     7
370
    25
100
AcDbSpline
210
0.0
220
0.0
230
1.0
 70
     8
 71
     3
 72
    13
 73
     9
 74
     0
 42
0.000000001
 43
0.00000001
 40
0.0
 40
0.0
 40
0.0
 40
0.0
 40
0.3198074308696698
 40
0.5732795823534462
 40
0.6789499484307333
 40
0.7779009493456319
 40
0.8807931060558013
 40
1.0
 40
1.0
 40
1.0
 40
1.0
 10
118.7585726112913
 20
190.0056372845359
 30
0.0
 10
118.7591455234866
 20
190.0010287974737
 30
0.0
 10
118.760172512957
 20
189.9927677275819
 30
0.0
 10
118.7625556759211
 20
189.9837742135763
 30
0.0
 10
118.7658295966066
 20
189.9795130698219
 30
0.0
 10
118.7689749351731
 20
189.9780801637233
 30
0.0
 10
118.7730575507072
 20
189.9784393657899
 30
0.0
 10
118.7760725700461
 20
189.9799913493302
 30
0.0
 10
118.7776908169026
 20
189.9808243431531
 30
0.0
  0
SPLINE
  5
24B
330
1F
100
AcDbEntity
  8
0
  6
SLD-実線
 62
     7
370
    25
100
AcDbSpline
210
0.0
220
0.0
230
1.0
 70
     8
 71
     3
 72
     9
 73
     5
 74
     0
 42
0.000000001
 43
0.00000001
 40
0.0
 40
0.0
 40
0.0
 40
0.0
 40
0.5709973422814587
 40
1.0
 40
1.0
 40
1.0
 40
1.0
 10
118.7277030082074
 20
190.1256453603758
 30
0.0
 10
118.735994279746
 20
190.1048887486635
 30
0.0
 10
118.7505149629869
 20
190.0685372454684
 30
0.0
 10
118.7561536147143
 20
190.0245205597101
 30
0.0
 10
118.7585726112913
 20
190.0056372845359
 30
0.0
  0
SPLINE
  5
24C
330
1F
100
AcDbEntity
  8
0
  6
SLD-実線
 62
     7
370
    25
100
AcDbSpline
210
0.0
220
0.0
230
1.0
 70
     8
 71
     3
 72
    12
 73
     8
 74
     0
 42
0.000000001
 43
0.00000001
 40
0.0
 40
0.0
 40
0.0
 40
0.0
 40
0.3184604171068934
 40
0.5621990748756943
 40
0.748142161935972
 40
0.9063084261766747
 40
1.0
 40
1.0
 40
1.0
 40
1.0
 10
118.429442932186
 20
190.0995964091033
 30
0.0
 10
118.4654549146201
 20
190.1186638121198
 30
0.0
 10
118.5290292306776
 20
190.1523247500585
 30
0.0
 10
118.6110490077179
 20
190.1723310726861
 30
0.0
 10
118.6694507619592
 20
190.1688671669742
 30
0.0
 10
118.7069631371441
 20
190.1519516442445
 30
0.0
 10
118.7220796412041
 20
190.1327779933722
 30
0.0
 10
118.7277030082074
 20
190.1256453603758
 30
0.0
  0
SPLINE
  5
24D
330
1F
100
AcDbEntity
  8
0
  6
SLD-実線
 62
     7
370
    25
100
AcDbSpline
210
0.0
220
0.0
230
1.0
 70
     8
 71
     3
 72
    12
 73
     8
 74
     0
 42
0.000000001
 43
0.00000001
 40
0.0
 40
0.0
 40
0.0
 40
0.0
 40
0.2011617334431161
 40
0.3829494096374113
 40
0.5584820809878838
 40
0.7709365270252634
 40
0.9999999999999999
 40
0.9999999999999999
 40
0.9999999999999999
 40
0.9999999999999999
 10
118.136006036141
 20
189.6103876041871
 30
0.0
 10
118.1382640062895
 20
189.6468525492394
 30
0.0
 10
118.1425624795655
 20
189.7162704695425
 30
0.0
 10
118.1810063372265
 20
189.8276464810119
 30
0.0
 10
118.2423741477204
 20
189.9340771844586
 30
0.0
 10
118.328020037421
 20
190.0322916049894
 30
0.0
 10
118.3947979497996
 20
190.0766058036936
 30
0.0
 10
118.429442932186
 20
190.0995964091033
 30
0.0
  0
SPLINE
  5
24E
330
1F
100
AcDbEntity
  8
0
  6
SLD-実線
 62
     7
370
    25
100
AcDbSpline
210
0.0
220
0.0
230
1.0
 70
     8
 71
     3
 72
    11
 73
     7
 74
     0
 42
0.000000001
 43
0.00000001
 40
0.0
 40
0.0
 40
0.0
 40
0.0
 40
0.3960612209769569
 40
0.668367017411271
 40
0.8355534580168322
 40
1.0
 40
1.0
 40
1.0
 40
1.0
 10
118.4273382239384
 20
189.3156640125864
 30
0.0
 10
118.3742082814007
 20
189.3338476595623
 30
0.0
 10
118.2845496646303
 20
189.3645331931396
 30
0.0
 10
118.1862493198751
 20
189.4301169143686
 30
0.0
 10
118.1408400566278
 20
189.5143115707968
 30
0.0
 10
118.1376084767045
 20
189.5785391390199
 30
0.0
 10
118.136006036141
 20
189.6103876041871
 30
0.0
  0
LINE
  5
24F
330
1F
100
AcDbEntity
  8
0
  6
SLD-実線
 62
     7
370
    25
100
AcDbLine
 10
118.4937254372
 20
189.2932264212
 30
0.0
 11
118.4273382239
 21
189.3156640126
 31
0.0
  0
SPLINE
  5
250
330
1F
100
AcDbEntity
  8
0
  6
SLD-実線
 62
     7
370
    25
100
AcDbSpline
210
0.0
220
0.0
230
1.0
 70
     8
 71
     3
 72
    10
 73
     6
 74
     0
 42
0.000000001
 43
0.00000001
 40
0.0
 40
0.0
 40
0.0
 40
0.0
 40
0.2250223828434425
 40
0.4640299718273158
 40
0.9999999999999999
 40
0.9999999999999999
 40
0.9999999999999999
 40
0.9999999999999999
 10
118.8422364104912
 20
188.8467945877278
 30
0.0
 10
118.8392918424526
 20
188.9048554769649
 30
0.0
 10
118.8332197006206
 20
189.0245857564888
 30
0.0
 10
118.7271340490739
 20
189.2051291700809
 30
0.0
 10
118.589152604533
 20
189.2572085937181
 30
0.0
 10
118.4937254372437
 20
189.2932264212478
 30
0.0
  0
SPLINE
  5
251
330
1F
100
AcDbEntity
  8
0
  6
SLD-実線
 62
     7
370
    25
100
AcDbSpline
210
0.0
220
0.0
230
1.0
 70
     8
 71
     3
 72
    11
 73
     7
 74
     0
 42
0.000000001
 43
0.00000001
 40
0.0
 40
0.0
 40
0.0
 40
0.0
 40
0.3387281433306699
 40
0.6345534790011472
 40
0.8362947506884562
 40
1.0
 40
1.0
 40
1.0
 40
1.0
 10
118.639479117562
 20
188.2726116582776
 30
0.0
 10
118.6792644238465
 20
188.335148909971
 30
0.0
 10
118.7537958881286
 20
188.4523025371809
 30
0.0
 10
118.81108498815
 20
188.621391048406
 30
0.0
 10
118.8377937718919
 20
188.7503883827234
 30
0.0
 10
118.8408619782389
 20
188.8169691147521
 30
0.0
 10
118.8422364104912
 20
188.8467945877278
 30
0.0
  0
SPLINE
  5
252
330
1F
100
AcDbEntity
  8
0
  6
SLD-実線
 62
     7
370
    25
100
AcDbSpline
210
0.0
220
0.0
230
1.0
 70
     8
 71
     3
 72
     9
 73
     5
 74
     0
 42
0.000000001
 43
0.00000001
 40
0.0
 40
0.0
 40
0.0
 40
0.0
 40
0.5652247269526699
 40
1.0
 40
1.0
 40
1.0
 40
1.0
 10
118.2789533290385
 20
187.9486314512811
 30
0.0
 10
118.3513784435003
 20
187.9949599262335
 30
0.0
 10
118.4795135214759
 20
188.0769246258359
 30
0.0
 10
118.5910052645322
 20
188.2133132548551
 30
0.0
 10
118.639479117562
 20
188.2726116582776
 30
0.0
  0
SPLINE
  5
253
330
1F
100
AcDbEntity
  8
0
  6
SLD-実線
 62
     7
370
    25
100
AcDbSpline
210
0.0
220
0.0
230
1.0
 70
     8
 71
     3
 72
     9
 73
     5
 74
     0
 42
0.000000001
 43
0.00000001
 40
0.0
 40
0.0
 40
0.0
 40
0.0
 40
0.5543575207140412
 40
0.9999999999999999
 40
0.9999999999999999
 40
0.9999999999999999
 40
0.9999999999999999
 10
117.9593824234665
 20
187.8383781585534
 30
0.0
 10
118.0166336260764
 20
187.8466821433946
 30
0.0
 10
118.1199084991874
 20
187.8616616187888
 30
0.0
 10
118.2299252094944
 20
187.9218216056033
 30
0.0
 10
118.2789533290385
 20
187.9486314512811
 30
0.0
  0
LINE
  5
254
330
1F
100
AcDbEntity
  8
0
  6
SLD-実線
 62
     7
370
    25
100
AcDbLine
 10
118.4746072316
 20
190.2221797398
 30
0.0
 11
118.1210537831
 21
190.4262818012
 31
0.0
  0
LINE
  5
255
330
1F
100
AcDbEntity
  8
0
  6
SLD-実線
 62
     7
370
    25
100
AcDbLine
 10
117.9808684259
 20
189.4409263994
 30
0.0
 11
117.6273149773
 21
189.6450284608
 31
0.0
  0
LINE
  5
256
330
1F
100
AcDbEntity
  8
0
  6
SLD-実線
 62
     7
370
    25
100
AcDbLine
 10
117.4081141573
 20
188.4241767842
 30
0.0
 11
117.0545607087
 21
188.6282788456
 31
0.0
  0
LINE
  5
257
330
1F
100
AcDbEntity
  8
0
  6
SLD-実線
 62
     7
370
    25
100
AcDbLine
 10
116.894994222
 20
187.2544022284
 30
0.0
 11
116.5414407735
 21
187.4585042898
 31
0.0
  0
LINE
  5
258
330
1F
100
AcDbEntity
  8
0
  6
SLD-実線
 62
     7
370
    25
100
AcDbLine
 10
117.2695516184
 20
187.6690179341
 30
0.0
 11
116.9159981698
 21
187.8731199955
 31
0.0
  0
LINE
  5
259
330
1F
100
AcDbEntity
  8
0
  6
SLD-実線
 62
     7
370
    25
100
AcDbLine
 10
118.6965703166
 20
190.3225682462
 30
0.0
 11
118.343016868
 21
190.5266703076
 31
0.0
  0
LINE
  5
25A
330
1F
100
AcDbEntity
  8
0
  6
SLD-実線
 62
     7
370
    25
100
AcDbLine
 10
118.7800586137
 20
190.3570935074
 30
0.0
 11
118.4265051651
 21
190.5611955688
 31
0.0
  0
LINE
  5
25B
330
1F
100
AcDbEntity
  8
0
  6
SLD-実線
 62
     7
370
    25
100
AcDbLine
 10
118.7585726113
 20
190.0056372845
 30
0.0
 11
118.5205496014
 21
190.1430450433
 31
0.0
  0
LINE
  5
25C
330
1F
100
AcDbEntity
  8
0
  6
SLD-実線
 62
     7
370
    25
100
AcDbLine
 10
118.4937254372
 20
189.2932264212
 30
0.0
 11
118.1401719887
 21
189.4973284827
 31
0.0
  0
LINE
  5
25D
330
1F
100
AcDbEntity
  8
0
  6
SLD-実線
 62
     7
370
    25
100
AcDbLine
 10
117.954296155
 20
188.2764736077
 30
0.0
 11
117.6007427064
 21
188.4805756692
 31
0.0
  0
LINE
  5
25E
330
1F
100
AcDbEntity
  8
0
  6
SLD-実線
 62
     7
370
    25
100
AcDbLine
 10
117.9355286243
 20
188.2215867733
 30
0.0
 11
117.5819751758
 21
188.4256888347
 31
0.0
  0
LINE
  5
25F
330
1F
100
AcDbEntity
  8
0
  6
SLD-実線
 62
     7
370
    25
100
AcDbLine
 10
117.9235141383
 20
187.9224864386
 30
0.0
 11
117.5699606897
 21
188.1265885
 31
0.0
  0
LINE
  5
260
330
1F
100
AcDbEntity
  8
0
  6
SLD-実線
 62
     7
370
    25
100
AcDbLine
 10
118.6727165174
 20
188.644320757
 30
0.0
 11
118.3191630689
 21
188.8484228184
 31
0.0
  0
LINE
  5
261
330
1F
100
AcDbEntity
  8
0
  6
SLD-実線
 62
     7
370
    25
100
AcDbLine
 10
118.3314844366
 20
188.0808348019
 30
0.0
 11
117.9779309881
 21
188.2849368633
 31
0.0
  0
LINE
  5
262
330
1F
100
AcDbEntity
  8
0
  6
SLD-実線
 62
     8
370
    25
100
AcDbLine
 10
110.6321426024
 20
185.4521778157
 30
0.0
 11
110.4909269523
 21
185.5336998752
 31
0.0
  0
LINE
  5
263
330
1F
100
AcDbEntity
  8
0
  6
SLD-実線
 62
     8
370
    25
100
AcDbLine
 10
111.9631323405
 20
186.2205418364
 30
0.0
 11
111.8219285442
 21
186.3020570529
 31
0.0
  0
LINE
  5
264
330
1F
100
AcDbEntity
  8
0
  6
SLD-実線
 62
     8
370
    25
100
AcDbLine
 10
111.1764829804
 20
183.9862912644
 30
0.0
 11
110.8431415799
 21
184.1787251588
 31
0.0
  0
LINE
  5
265
330
1F
100
AcDbEntity
  8
0
  6
SLD-実線
 62
     8
370
    25
100
AcDbLine
 10
112.693216514
 20
186.537398379
 30
0.0
 11
112.5300528925
 21
186.6315907327
 31
0.0
  0
LINE
  5
266
330
1F
100
AcDbEntity
  8
0
  6
SLD-実線
 62
     8
370
    25
100
AcDbLine
 10
112.1825521266
 20
185.6278879893
 30
0.0
 11
112.1687602289
 21
185.6358498823
 31
0.0
  0
LINE
  5
267
330
1F
100
AcDbEntity
  8
0
  6
SLD-実線
 62
     8
370
    25
100
AcDbLine
 10
113.2785994436
 20
186.9799448307
 30
0.0
 11
113.1373877448
 21
187.0614646092
 31
0.0
  0
LINE
  5
268
330
1F
100
AcDbEntity
  8
0
  6
SLD-実線
 62
     8
370
    25
100
AcDbLine
 10
111.8150982852
 20
184.2941939069
 30
0.0
 11
111.562111827
 21
184.4402398805
 31
0.0
  0
LINE
  5
269
330
1F
100
AcDbEntity
  8
0
  6
SLD-実線
 62
     8
370
    25
100
AcDbLine
 10
111.7958049067
 20
184.2663465205
 30
0.0
 11
111.5590970102
 21
184.4029950805
 31
0.0
  0
LINE
  5
26A
330
1F
100
AcDbEntity
  8
0
  6
SLD-実線
 62
     8
370
    25
100
AcDbLine
 10
112.6598913631
 20
185.6029813739
 30
0.0
 11
112.4958314625
 21
185.6976911385
 31
0.0
  0
LINE
  5
26B
330
1F
100
AcDbEntity
  8
0
  6
SLD-実線
 62
     8
370
    25
100
AcDbLine
 10
112.444944082
 20
184.7213938476
 30
0.0
 11
112.1679563107
 21
184.8812954844
 31
0.0
  0
LINE
  5
26C
330
1F
100
AcDbEntity
  8
0
  6
SLD-実線
 62
     8
370
    25
100
AcDbLine
 10
115.3045066669
 20
188.1494761765
 30
0.0
 11
115.1622057355
 21
188.2316247556
 31
0.0
  0
LINE
  5
26D
330
1F
100
AcDbEntity
  8
0
  6
SLD-実線
 62
     8
370
    25
100
AcDbLine
 10
116.1430732065
 20
188.6335703356
 30
0.0
 11
116.0018536051
 21
188.7150946762
 31
0.0
  0
LINE
  5
26E
330
1F
100
AcDbEntity
  8
0
  6
SLD-実線
 62
     8
370
    25
100
AcDbLine
 10
115.6147815582
 20
186.4989454376
 30
0.0
 11
115.532726254
 21
186.5463149565
 31
0.0
  0
LINE
  5
26F
330
1F
100
AcDbEntity
  8
0
  6
SLD-実線
 62
     8
370
    25
100
AcDbLine
 10
117.403290648
 20
189.3610783791
 30
0.0
 11
117.2620769736
 21
189.4425992982
 31
0.0
  0
LINE
  5
270
330
1F
100
AcDbEntity
  8
0
  6
SLD-実線
 62
     8
370
    25
100
AcDbLine
 10
115.7222113232
 20
186.5497222535
 30
0.0
 11
115.51886595
 21
186.6671110387
 31
0.0
  0
LINE
  5
271
330
1F
100
AcDbEntity
  8
0
  6
SLD-実線
 62
     8
370
    25
100
AcDbLine
 10
118.4273382239
 20
189.3156640126
 30
0.0
 11
118.1746863064
 21
189.46151686
 31
0.0
  0
LINE
  5
272
330
1F
100
AcDbEntity
  8
0
  6
SLD-実線
 62
     8
370
    25
100
AcDbLine
 10
118.7277030082
 20
190.1256453604
 30
0.0
 11
118.6571024271
 21
190.1664022083
 31
0.0
  0
ENDSEC
  0
SECTION
  2
OBJECTS
  0
DICTIONARY
  5
C
330
0
100
AcDbDictionary
281
     1
  3
ACAD_GROUP
350
D
  3
ACAD_LAYOUT
350
1A
  3
ACAD_MLINESTYLE
350
17
  3
ACAD_PLOTSETTINGS
350
19
  3
ACAD_PLOTSTYLENAME
350
E
  3
ACAD_SCALELIST
350
47
  0
DICTIONARY
  5
D
102
{ACAD_REACTORS
330
C
102
}
330
C
100
AcDbDictionary
281
     1
  0
DICTIONARY
  5
1A
102
{ACAD_REACTORS
330
C
102
}
330
C
100
AcDbDictionary
281
     1
  3
Layout1
350
1E
  3
Layout2
350
26
  3
Model
350
22
  0
DICTIONARY
  5
17
102
{ACAD_REACTORS
330
C
102
}
330
C
100
AcDbDictionary
281
     1
  3
Standard
350
18
  0
DICTIONARY
  5
19
102
{ACAD_REACTORS
330
C
102
}
330
C
100
AcDbDictionary
281
     1
  0
ACDBDICTIONARYWDFLT
  5
E
102
{ACAD_REACTORS
330
C
102
}
330
C
100
AcDbDictionary
281
     1
  3
Normal
350
F
100
AcDbDictionaryWithDefault
340
F
  0
DICTIONARY
  5
47
102
{ACAD_REACTORS
330
C
102
}
330
C
100
AcDbDictionary
281
     1
  3
A0
350
48
  3
A1
350
49
  3
A2
350
4A
  3
A3
350
4B
  3
A4
350
4C
  3
A5
350
4D
  3
A6
350
4E
  3
A7
350
4F
  3
A8
350
50
  3
A9
350
51
  3
B0
350
52
  3
B1
350
53
  3
B2
350
54
  3
B3
350
55
  3
B4
350
56
  3
B5
350
57
  3
B6
350
58
  3
B7
350
59
  3
B8
350
5A
  3
B9
350
5B
  3
C0
350
5C
  3
C1
350
5D
  3
C2
350
5E
  3
C3
350
5F
  3
C4
350
60
  3
C5
350
61
  3
C6
350
62
  3
C7
350
63
  3
C8
350
64
  3
C9
350
65
  3
D0
350
66
  3
D1
350
67
  3
D2
350
68
  0
LAYOUT
  5
1E
102
{ACAD_REACTORS
330
1A
102
}
330
1A
100
AcDbPlotSettings
  1

  2
none_device
  4

  6

 40
0.0
 41
0.0
 42
0.0
 43
0.0
 44
0.0
 45
0.0
 46
0.0
 47
0.0
 48
0.0
 49
0.0
140
0.0
141
0.0
142
1.0
143
1.0
 70
   688
 72
     1
 73
     0
 74
     5
  7

 75
    16
147
1.0
148
0.0
149
0.0
100
AcDbLayout
  1
Layout1
 70
     1
 71
     1
 10
0.0
 20
0.0
 11
420.0
 21
297.0
 12
0.0
 22
0.0
 32
0.0
 14
1.0000000000E+20
 24
1.0000000000E+20
 34
1.0000000000E+20
 15
-1.0000000000E+20
 25
-1.0000000000E+20
 35
-1.0000000000E+20
146
0.0
 13
0.0
 23
0.0
 33
0.0
 16
1.0
 26
0.0
 36
0.0
 17
0.0
 27
1.0
 37
0.0
 76
     0
330
1B
  0
LAYOUT
  5
26
102
{ACAD_REACTORS
330
1A
102
}
330
1A
100
AcDbPlotSettings
  1

  2
none_device
  4

  6

 40
0.0
 41
0.0
 42
0.0
 43
0.0
 44
0.0
 45
0.0
 46
0.0
 47
0.0
 48
0.0
 49
0.0
140
0.0
141
0.0
142
1.0
143
1.0
 70
   688
 72
     1
 73
     0
 74
     5
  7

 75
    16
147
1.0
148
0.0
149
0.0
100
AcDbLayout
  1
Layout2
 70
     1
 71
     2
 10
0.0
 20
0.0
 11
0.0
 21
0.0
 12
0.0
 22
0.0
 32
0.0
 14
0.0
 24
0.0
 34
0.0
 15
0.0
 25
0.0
 35
0.0
146
0.0
 13
0.0
 23
0.0
 33
0.0
 16
1.0
 26
0.0
 36
0.0
 17
0.0
 27
1.0
 37
0.0
 76
     0
330
23
  0
LAYOUT
  5
22
102
{ACAD_REACTORS
330
1A
102
}
330
1A
100
AcDbPlotSettings
  1

  2
none_device
  4
Letter_(8.50_x_11.00_Inches)
  6

 40
6.35
 41
6.35
 42
6.35000508
 43
6.35000508
 44
215.9
 45
279.4
 46
0.0
 47
0.0
 48
0.0
 49
0.0
140
0.0
141
0.0
142
1.0
143
1.0
 70
  1712
 72
     1
 73
     0
 74
     0
  7

 75
     0
147
1.0
148
0.0
149
0.0
100
AcDbLayout
  1
Model
 70
     1
 71
     0
 10
0.0
 20
0.0
 11
210.0
 21
297.0
 12
0.0
 22
0.0
 32
0.0
 14
0.0
 24
0.0
 34
0.0
 15
210.0
 25
297.0
 35
0.0
146
0.0
 13
0.0
 23
0.0
 33
0.0
 16
1.0
 26
0.0
 36
0.0
 17
0.0
 27
1.0
 37
0.0
 76
     0
330
1F
331
29
  0
MLINESTYLE
  5
18
102
{ACAD_REACTORS
330
17
102
}
330
17
100
AcDbMlineStyle
  2
Standard
 70
     0
  3

 62
   256
 51
90.0
 52
90.0
 71
     2
 49
0.5
 62
   256
  6
BYLAYER
 49
-0.5
 62
   256
  6
BYLAYER
  0
ACDBPLACEHOLDER
  5
F
102
{ACAD_REACTORS
330
E
102
}
330
E
  0
SCALE
  5
48
102
{ACAD_REACTORS
330
47
102
}
330
47
100
AcDbScale
 70
     0
300
1:1
140
1.0
141
1.0
290
     1
  0
SCALE
  5
49
102
{ACAD_REACTORS
330
47
102
}
330
47
100
AcDbScale
 70
     0
300
1:2
140
1.0
141
2.0
290
     0
  0
SCALE
  5
4A
102
{ACAD_REACTORS
330
47
102
}
330
47
100
AcDbScale
 70
     0
300
1:4
140
1.0
141
4.0
290
     0
  0
SCALE
  5
4B
102
{ACAD_REACTORS
330
47
102
}
330
47
100
AcDbScale
 70
     0
300
1:5
140
1.0
141
5.0
290
     0
  0
SCALE
  5
4C
102
{ACAD_REACTORS
330
47
102
}
330
47
100
AcDbScale
 70
     0
300
1:8
140
1.0
141
8.0
290
     0
  0
SCALE
  5
4D
102
{ACAD_REACTORS
330
47
102
}
330
47
100
AcDbScale
 70
     0
300
1:10
140
1.0
141
10.0
290
     0
  0
SCALE
  5
4E
102
{ACAD_REACTORS
330
47
102
}
330
47
100
AcDbScale
 70
     0
300
1:16
140
1.0
141
16.0
290
     0
  0
SCALE
  5
4F
102
{ACAD_REACTORS
330
47
102
}
330
47
100
AcDbScale
 70
     0
300
1:20
140
1.0
141
20.0
290
     0
  0
SCALE
  5
50
102
{ACAD_REACTORS
330
47
102
}
330
47
100
AcDbScale
 70
     0
300
1:30
140
1.0
141
30.0
290
     0
  0
SCALE
  5
51
102
{ACAD_REACTORS
330
47
102
}
330
47
100
AcDbScale
 70
     0
300
1:40
140
1.0
141
40.0
290
     0
  0
SCALE
  5
52
102
{ACAD_REACTORS
330
47
102
}
330
47
100
AcDbScale
 70
     0
300
1:50
140
1.0
141
50.0
290
     0
  0
SCALE
  5
53
102
{ACAD_REACTORS
330
47
102
}
330
47
100
AcDbScale
 70
     0
300
1:100
140
1.0
141
100.0
290
     0
  0
SCALE
  5
54
102
{ACAD_REACTORS
330
47
102
}
330
47
100
AcDbScale
 70
     0
300
2:1
140
2.0
141
1.0
290
     0
  0
SCALE
  5
55
102
{ACAD_REACTORS
330
47
102
}
330
47
100
AcDbScale
 70
     0
300
4:1
140
4.0
141
1.0
290
     0
  0
SCALE
  5
56
102
{ACAD_REACTORS
330
47
102
}
330
47
100
AcDbScale
 70
     0
300
8:1
140
8.0
141
1.0
290
     0
  0
SCALE
  5
57
102
{ACAD_REACTORS
330
47
102
}
330
47
100
AcDbScale
 70
     0
300
10:1
140
10.0
141
1.0
290
     0
  0
SCALE
  5
58
102
{ACAD_REACTORS
330
47
102
}
330
47
100
AcDbScale
 70
     0
300
100:1
140
100.0
141
1.0
290
     0
  0
SCALE
  5
59
102
{ACAD_REACTORS
330
47
102
}
330
47
100
AcDbScale
 70
     0
300
1/128" = 1'-0"
140
0.0078125
141
12.0
290
     0
  0
SCALE
  5
5A
102
{ACAD_REACTORS
330
47
102
}
330
47
100
AcDbScale
 70
     0
300
1/64" = 1'-0"
140
0.015625
141
12.0
290
     0
  0
SCALE
  5
5B
102
{ACAD_REACTORS
330
47
102
}
330
47
100
AcDbScale
 70
     0
300
1/32" = 1'-0"
140
0.03125
141
12.0
290
     0
  0
SCALE
  5
5C
102
{ACAD_REACTORS
330
47
102
}
330
47
100
AcDbScale
 70
     0
300
1/16" = 1'-0"
140
0.0625
141
12.0
290
     0
  0
SCALE
  5
5D
102
{ACAD_REACTORS
330
47
102
}
330
47
100
AcDbScale
 70
     0
300
3/32" = 1'-0"
140
0.09375
141
12.0
290
     0
  0
SCALE
  5
5E
102
{ACAD_REACTORS
330
47
102
}
330
47
100
AcDbScale
 70
     0
300
1/8" = 1'-0"
140
0.125
141
12.0
290
     0
  0
SCALE
  5
5F
102
{ACAD_REACTORS
330
47
102
}
330
47
100
AcDbScale
 70
     0
300
3/16" = 1'-0"
140
0.1875
141
12.0
290
     0
  0
SCALE
  5
60
102
{ACAD_REACTORS
330
47
102
}
330
47
100
AcDbScale
 70
     0
300
1/4" = 1'-0"
140
0.25
141
12.0
290
     0
  0
SCALE
  5
61
102
{ACAD_REACTORS
330
47
102
}
330
47
100
AcDbScale
 70
     0
300
3/8" = 1'-0"
140
0.375
141
12.0
290
     0
  0
SCALE
  5
62
102
{ACAD_REACTORS
330
47
102
}
330
47
100
AcDbScale
 70
     0
300
1/2" = 1'-0"
140
0.5
141
12.0
290
     0
  0
SCALE
  5
63
102
{ACAD_REACTORS
330
47
102
}
330
47
100
AcDbScale
 70
     0
300
3/4" = 1'-0"
140
0.75
141
12.0
290
     0
  0
SCALE
  5
64
102
{ACAD_REACTORS
330
47
102
}
330
47
100
AcDbScale
 70
     0
300
1" = 1'-0"
140
1.0
141
12.0
290
     0
  0
SCALE
  5
65
102
{ACAD_REACTORS
330
47
102
}
330
47
100
AcDbScale
 70
     0
300
1-1/2" = 1'-0"
140
1.5
141
12.0
290
     0
  0
SCALE
  5
66
102
{ACAD_REACTORS
330
47
102
}
330
47
100
AcDbScale
 70
     0
300
3" = 1'-0"
140
3.0
141
12.0
290
     0
  0
SCALE
  5
67
102
{ACAD_REACTORS
330
47
102
}
330
47
100
AcDbScale
 70
     0
300
6" = 1'-0"
140
6.0
141
12.0
290
     0
  0
SCALE
  5
68
102
{ACAD_REACTORS
330
47
102
}
330
47
100
AcDbScale
 70
     0
300
1'-0" = 1'-0"
140
12.0
141
12.0
290
     0
  0
ENDSEC
  0
EOF
