  0
SECTION
  2
HEADER
  9
$ACADVER
  1
AC1015
  9
$ACADMAINTVER
 70
     6
  9
$DWGCODEPAGE
  3
DOS932
  9
$INSBASE
 10
0.0
 20
0.0
 30
0.0
  9
$EXTMIN
 10
0.0
 20
0.0
 30
0.0
  9
$EXTMAX
 10
420.0
 20
594.0
 30
0.0
  9
$LIMMIN
 10
0.0
 20
0.0
  9
$LIMMAX
 10
420.0
 20
594.0
  9
$ORTHOMODE
 70
     0
  9
$REGENMODE
 70
     1
  9
$FILLMODE
 70
     1
  9
$QTEXTMODE
 70
     0
  9
$MIRRTEXT
 70
     1
  9
$LTSCALE
 40
2.0
  9
$ATTMODE
 70
     1
  9
$TEXTSIZE
 40
7.0
  9
$TRACEWID
 40
1.0
  9
$TEXTSTYLE
  7
Standard
  9
$CLAYER
  8
0
  9
$CELTYPE
  6
ByLayer
  9
$CECOLOR
 62
   256
  9
$CELTSCALE
 40
1.0
  9
$DISPSILH
 70
     0
  9
$DIMSCALE
 40
1.0
  9
$DIMASZ
 40
3.0
  9
$DIMEXO
 40
2.0
  9
$DIMDLI
 40
3.75
  9
$DIMRND
 40
0.0
  9
$DIMDLE
 40
0.0
  9
$DIMEXE
 40
2.0
  9
$DIMTP
 40
0.0
  9
$DIMTM
 40
0.0
  9
$DIMTXT
 40
7.0
  9
$DIMCEN
 40
2.5
  9
$DIMTSZ
 40
0.0
  9
$DIMTOL
 70
     0
  9
$DIMLIM
 70
     0
  9
$DIMTIH
 70
     1
  9
$DIMTOH
 70
     1
  9
$DIMSE1
 70
     0
  9
$DIMSE2
 70
     0
  9
$DIMTAD
 70
     1
  9
$DIMZIN
 70
     0
  9
$DIMBLK
  1

  9
$DIMASO
 70
     1
  9
$DIMSHO
 70
     1
  9
$DIMPOST
  1

  9
$DIMAPOST
  1

  9
$DIMALT
 70
     0
  9
$DIMALTD
 70
     3
  9
$DIMALTF
 40
0.0393700787
  9
$DIMLFAC
 40
1.0
  9
$DIMTOFL
 70
     1
  9
$DIMTVP
 40
0.0
  9
$DIMTIX
 70
     0
  9
$DIMSOXD
 70
     0
  9
$DIMSAH
 70
     0
  9
$DIMBLK1
  1

  9
$DIMBLK2
  1

  9
$DIMSTYLE
  2
ISO-25
  9
$DIMCLRD
 70
     0
  9
$DIMCLRE
 70
     0
  9
$DIMCLRT
 70
     0
  9
$DIMTFAC
 40
1.0
  9
$DIMGAP
 40
3.0
  9
$DIMJUST
 70
     0
  9
$DIMSD1
 70
     0
  9
$DIMSD2
 70
     0
  9
$DIMTOLJ
 70
     0
  9
$DIMTZIN
 70
     0
  9
$DIMALTZ
 70
     0
  9
$DIMALTTZ
 70
     0
  9
$DIMUPT
 70
     0
  9
$DIMDEC
 70
     1
  9
$DIMTDEC
 70
     1
  9
$DIMALTU
 70
     2
  9
$DIMALTTD
 70
     3
  9
$DIMTXSTY
  7
Standard
  9
$DIMAUNIT
 70
     0
  9
$DIMADEC
 70
     2
  9
$DIMALTRND
 40
0.0
  9
$DIMAZIN
 70
     0
  9
$DIMDSEP
 70
    44
  9
$DIMATFIT
 70
     3
  9
$DIMFRAC
 70
     0
  9
$DIMLDRBLK
  1

  9
$DIMLUNIT
 70
     2
  9
$DIMLWD
 70
    -2
  9
$DIMLWE
 70
    -2
  9
$DIMTMOVE
 70
     0
  9
$LUNITS
 70
     2
  9
$LUPREC
 70
     2
  9
$SKETCHINC
 40
1.0
  9
$FILLETRAD
 40
0.0
  9
$AUNITS
 70
     0
  9
$AUPREC
 70
     2
  9
$MENU
  1
.
  9
$ELEVATION
 40
0.0
  9
$PELEVATION
 40
0.0
  9
$THICKNESS
 40
0.0
  9
$LIMCHECK
 70
     0
  9
$CHAMFERA
 40
0.0
  9
$CHAMFERB
 40
0.0
  9
$CHAMFERC
 40
0.0
  9
$CHAMFERD
 40
0.0
  9
$SKPOLY
 70
     0
  9
$TDCREATE
 40
2460116.375823172
  9
$TDUCREATE
 40
2460116.000823172
  9
$TDUPDATE
 40
2460116.375823658
  9
$TDUUPDATE
 40
2460116.000823658
  9
$TDINDWG
 40
0.0000000116
  9
$TDUSRTIMER
 40
0.0000000116
  9
$USRTIMER
 70
     1
  9
$ANGBASE
 50
0.0
  9
$ANGDIR
 70
     0
  9
$PDMODE
 70
     0
  9
$PDSIZE
 40
-1.0
  9
$PLINEWID
 40
0.0
  9
$SPLFRAME
 70
     0
  9
$SPLINETYPE
 70
     6
  9
$SPLINESEGS
 70
     8
  9
$HANDSEED
  5
12F
  9
$SURFTAB1
 70
     6
  9
$SURFTAB2
 70
     6
  9
$SURFTYPE
 70
     6
  9
$SURFU
 70
     6
  9
$SURFV
 70
     6
  9
$UCSBASE
  2

  9
$UCSNAME
  2

  9
$UCSORG
 10
0.0
 20
0.0
 30
0.0
  9
$UCSXDIR
 10
1.0
 20
0.0
 30
0.0
  9
$UCSYDIR
 10
0.0
 20
1.0
 30
0.0
  9
$UCSORTHOREF
  2

  9
$UCSORTHOVIEW
 70
     0
  9
$UCSORGTOP
 10
0.0
 20
0.0
 30
0.0
  9
$UCSORGBOTTOM
 10
0.0
 20
0.0
 30
0.0
  9
$UCSORGLEFT
 10
0.0
 20
0.0
 30
0.0
  9
$UCSORGRIGHT
 10
0.0
 20
0.0
 30
0.0
  9
$UCSORGFRONT
 10
0.0
 20
0.0
 30
0.0
  9
$UCSORGBACK
 10
0.0
 20
0.0
 30
0.0
  9
$PUCSBASE
  2

  9
$PUCSNAME
  2

  9
$PUCSORG
 10
0.0
 20
0.0
 30
0.0
  9
$PUCSXDIR
 10
1.0
 20
0.0
 30
0.0
  9
$PUCSYDIR
 10
0.0
 20
1.0
 30
0.0
  9
$PUCSORTHOREF
  2

  9
$PUCSORTHOVIEW
 70
     0
  9
$PUCSORGTOP
 10
0.0
 20
0.0
 30
0.0
  9
$PUCSORGBOTTOM
 10
0.0
 20
0.0
 30
0.0
  9
$PUCSORGLEFT
 10
0.0
 20
0.0
 30
0.0
  9
$PUCSORGRIGHT
 10
0.0
 20
0.0
 30
0.0
  9
$PUCSORGFRONT
 10
0.0
 20
0.0
 30
0.0
  9
$PUCSORGBACK
 10
0.0
 20
0.0
 30
0.0
  9
$USERI1
 70
     0
  9
$USERI2
 70
     0
  9
$USERI3
 70
     0
  9
$USERI4
 70
     0
  9
$USERI5
 70
     0
  9
$USERR1
 40
0.0
  9
$USERR2
 40
0.0
  9
$USERR3
 40
0.0
  9
$USERR4
 40
0.0
  9
$USERR5
 40
0.0
  9
$WORLDVIEW
 70
     1
  9
$SHADEDGE
 70
     3
  9
$SHADEDIF
 70
    70
  9
$TILEMODE
 70
     1
  9
$MAXACTVP
 70
    64
  9
$PINSBASE
 10
0.0
 20
0.0
 30
0.0
  9
$PLIMCHECK
 70
     0
  9
$PEXTMIN
 10
1.0000000000E+20
 20
1.0000000000E+20
 30
1.0000000000E+20
  9
$PEXTMAX
 10
-1.0000000000E+20
 20
-1.0000000000E+20
 30
-1.0000000000E+20
  9
$PLIMMIN
 10
0.0
 20
0.0
  9
$PLIMMAX
 10
420.0
 20
297.0
  9
$UNITMODE
 70
     0
  9
$VISRETAIN
 70
     1
  9
$PLINEGEN
 70
     0
  9
$PSLTSCALE
 70
     1
  9
$TREEDEPTH
 70
  3020
  9
$CMLSTYLE
  2
Standard
  9
$CMLJUST
 70
     0
  9
$CMLSCALE
 40
20.0
  9
$PROXYGRAPHICS
 70
     1
  9
$MEASUREMENT
 70
     1
  9
$CELWEIGHT
370
    -1
  9
$ENDCAPS
280
     0
  9
$JOINSTYLE
280
     0
  9
$LWDISPLAY
290
     1
  9
$INSUNITS
 70
     4
  9
$HYPERLINKBASE
  1

  9
$STYLESHEET
  1

  9
$XEDIT
290
     1
  9
$CEPSNTYPE
380
     0
  9
$PSTYLEMODE
290
     1
  9
$FINGERPRINTGUID
  2
{ccbba4bb-4ef8-4c47-a12a-6a65800d7744}
  9
$VERSIONGUID
  2
{FAEB1C32-E019-11D5-929B-00C0DF256EC4}
  9
$EXTNAMES
290
     1
  9
$PSVPSCALE
 40
0.0
  9
$OLESTARTUP
290
     0
  0
ENDSEC
  0
SECTION
  2
CLASSES
  0
CLASS
  1
ACDBDICTIONARYWDFLT
  2
AcDbDictionaryWithDefault
  3
ObjectDBX Classes
 90
        0
280
     0
281
     0
  0
CLASS
  1
VISUALSTYLE
  2
AcDbVisualStyle
  3
ObjectDBX Classes
 90
     4095
280
     0
281
     0
  0
CLASS
  1
MATERIAL
  2
AcDbMaterial
  3
ObjectDBX Classes
 90
     1153
280
     0
281
     0
  0
CLASS
  1
SCALE
  2
AcDbScale
  3
ObjectDBX Classes
 90
     1153
280
     0
281
     0
  0
CLASS
  1
TABLESTYLE
  2
AcDbTableStyle
  3
ObjectDBX Classes
 90
     4095
280
     0
281
     0
  0
CLASS
  1
MLEADERSTYLE
  2
AcDbMLeaderStyle
  3
ACDB_MLEADERSTYLE_CLASS
 90
     4095
280
     0
281
     0
  0
CLASS
  1
SUN
  2
AcDbSun
  3
SCENEOE
 90
     1153
280
     0
281
     0
  0
CLASS
  1
ACDBPLACEHOLDER
  2
AcDbPlaceHolder
  3
ObjectDBX Classes
 90
        0
280
     0
281
     0
  0
CLASS
  1
LAYOUT
  2
AcDbLayout
  3
ObjectDBX Classes
 90
        0
280
     0
281
     0
  0
ENDSEC
  0
SECTION
  2
TABLES
  0
TABLE
  2
VPORT
  5
8
330
0
100
AcDbSymbolTable
 70
     1
  0
VPORT
  5
29
330
8
100
AcDbSymbolTableRecord
100
AcDbViewportTableRecord
  2
*Active
 70
     0
 10
0.0
 20
0.0
 11
1.0
 21
1.0
 12
210.0
 22
297.0
 13
0.0
 23
0.0
 14
10.0
 24
10.0
 15
10.0
 25
10.0
 16
0.0
 26
0.0
 36
1.0
 17
0.0
 27
0.0
 37
0.0
 40
594.0
 41
0.7070707071
 42
50.0
 43
0.0
 44
0.0
 50
0.0
 51
0.0
 71
     0
 72
  2000
 73
     1
 74
     3
 75
     0
 76
     0
 77
     0
 78
     0
281
     0
 65
     1
110
0.0
120
0.0
130
0.0
111
1.0
121
0.0
131
0.0
112
0.0
122
1.0
132
0.0
 79
     0
146
0.0
  0
ENDTAB
  0
TABLE
  2
LTYPE
  5
5
330
0
100
AcDbSymbolTable
 70
     6
  0
LTYPE
  5
14
330
5
100
AcDbSymbolTableRecord
100
AcDbLinetypeTableRecord
  2
ByBlock
 70
     0
  3

 72
    65
 73
     0
 40
0.0
  0
LTYPE
  5
15
330
5
100
AcDbSymbolTableRecord
100
AcDbLinetypeTableRecord
  2
ByLayer
 70
     0
  3

 72
    65
 73
     0
 40
0.0
  0
LTYPE
  5
16
330
5
100
AcDbSymbolTableRecord
100
AcDbLinetypeTableRecord
  2
Continuous
 70
     0
  3
Solid line
 72
    65
 73
     0
 40
0.0
  0
LTYPE
  5
5E
330
5
100
AcDbSymbolTableRecord
100
AcDbLinetypeTableRecord
  2
HIDDEN
 70
     0
  3
Hidden __ __ __ __ __ __ __ __ __ __ __ __ __ __
 72
    65
 73
     2
 40
1.905
 49
1.27
 74
     0
 49
-0.635
 74
     0
  0
LTYPE
  5
5F
330
5
100
AcDbSymbolTableRecord
100
AcDbLinetypeTableRecord
  2
PHANTOM
 70
     0
  3
Phantom ______  __  __  ______  __  __  ______
 72
    65
 73
     6
 40
12.7
 49
6.35
 74
     0
 49
-1.27
 74
     0
 49
1.27
 74
     0
 49
-1.27
 74
     0
 49
1.27
 74
     0
 49
-1.27
 74
     0
  0
LTYPE
  5
60
330
5
100
AcDbSymbolTableRecord
100
AcDbLinetypeTableRecord
  2
CENTER
 70
     0
  3
Center ____ _ ____ _ ____ _ ____ _ ____ _ ____
 72
    65
 73
     4
 40
10.16
 49
6.35
 74
     0
 49
-1.27
 74
     0
 49
1.27
 74
     0
 49
-1.27
 74
     0
  0
LTYPE
  5
61
330
5
100
AcDbSymbolTableRecord
100
AcDbLinetypeTableRecord
  2
CENTERX2
 70
     0
  3
Center (2x) ________  __  ________  __  _____
 72
    65
 73
     4
 40
20.32
 49
12.7
 74
     0
 49
-2.54
 74
     0
 49
2.54
 74
     0
 49
-2.54
 74
     0
  0
LTYPE
  5
62
330
5
100
AcDbSymbolTableRecord
100
AcDbLinetypeTableRecord
  2
DOT2
 70
     0
  3
Dot (.5x) ........................................
 72
    65
 73
     2
 40
0.635
 49
0.0
 74
     0
 49
-0.635
 74
     0
  0
ENDTAB
  0
TABLE
  2
LAYER
  5
2
330
0
100
AcDbSymbolTable
 70
     2
  0
LAYER
  5
10
330
2
100
AcDbSymbolTableRecord
100
AcDbLayerTableRecord
  2
0
 70
     0
 62
     7
  6
Continuous
370
    -3
390
F
  0
LAYER
  5
63
330
2
100
AcDbSymbolTableRecord
100
AcDbLayerTableRecord
  2
FORMAT
 70
     0
 62
     7
  6
Continuous
370
    -3
390
F
  0
ENDTAB
  0
TABLE
  2
STYLE
  5
3
330
0
100
AcDbSymbolTable
 70
     2
  0
STYLE
  5
11
330
3
100
AcDbSymbolTableRecord
100
AcDbTextStyleTableRecord
  2
Standard
 70
     0
 40
0.0
 41
1.0
 50
0.0
 71
     0
 42
7.0
  3
txt
  4
bigfont
  0
STYLE
  5
64
330
3
100
AcDbSymbolTableRecord
100
AcDbTextStyleTableRecord
  2
SLDTEXTSTYLE0
 70
     0
 40
0.0
 41
0.7
 50
0.0
 71
     0
 42
7.0
  3
TXT
  4
bigfont
  0
ENDTAB
  0
TABLE
  2
VIEW
  5
6
330
0
100
AcDbSymbolTable
 70
     0
  0
ENDTAB
  0
TABLE
  2
UCS
  5
7
330
0
100
AcDbSymbolTable
 70
     0
  0
ENDTAB
  0
TABLE
  2
APPID
  5
9
330
0
100
AcDbSymbolTable
 70
     1
  0
APPID
  5
12
330
9
100
AcDbSymbolTableRecord
100
AcDbRegAppTableRecord
  2
ACAD
 70
     0
  0
ENDTAB
  0
TABLE
  2
DIMSTYLE
  5
A
330
0
100
AcDbSymbolTable
 70
     1
100
AcDbDimStyleTable
  0
DIMSTYLE
105
27
330
A
100
AcDbSymbolTableRecord
100
AcDbDimStyleTableRecord
  2
ISO-25
 70
     0
 41
2.5
 42
0.625
 43
3.75
 44
1.25
 73
     0
 74
     0
 77
     1
 78
     8
140
2.5
141
2.5
143
0.0393700787
147
0.625
171
     3
172
     1
178
     0
271
     2
272
     2
274
     3
278
    44
283
     0
284
     8
340
11
  0
ENDTAB
  0
TABLE
  2
BLOCK_RECORD
  5
1
330
0
100
AcDbSymbolTable
 70
     1
  0
BLOCK_RECORD
  5
1F
330
1
100
AcDbSymbolTableRecord
100
AcDbBlockTableRecord
  2
*Model_Space
340
22
  0
BLOCK_RECORD
  5
1B
330
1
100
AcDbSymbolTableRecord
100
AcDbBlockTableRecord
  2
*Paper_Space
340
1E
  0
BLOCK_RECORD
  5
23
330
1
100
AcDbSymbolTableRecord
100
AcDbBlockTableRecord
  2
*Paper_Space0
340
26
  0
ENDTAB
  0
ENDSEC
  0
SECTION
  2
BLOCKS
  0
BLOCK
  5
20
330
1F
100
AcDbEntity
  8
0
100
AcDbBlockBegin
  2
*Model_Space
 70
     0
 10
0.0
 20
0.0
 30
0.0
  3
*Model_Space
  1

  0
ENDBLK
  5
21
330
1F
100
AcDbEntity
  8
0
100
AcDbBlockEnd
  0
BLOCK
  5
1C
330
1B
100
AcDbEntity
 67
     1
  8
0
100
AcDbBlockBegin
  2
*Paper_Space
 70
     0
 10
0.0
 20
0.0
 30
0.0
  3
*Paper_Space
  1

  0
ENDBLK
  5
1D
330
1B
100
AcDbEntity
 67
     1
  8
0
100
AcDbBlockEnd
  0
BLOCK
  5
24
330
23
100
AcDbEntity
  8
0
100
AcDbBlockBegin
  2
*Paper_Space0
 70
     0
 10
0.0
 20
0.0
 30
0.0
  3
*Paper_Space0
  1

  0
ENDBLK
  5
25
330
23
100
AcDbEntity
  8
0
100
AcDbBlockEnd
  0
ENDSEC
  0
SECTION
  2
ENTITIES
  0
MTEXT
  5
65
330
1F
100
AcDbEntity
  8
0
  6
Continuous
 62
     7
370
     0
100
AcDbMText
 10
336.2802893728
 20
231.3989879745
 30
0.0
 40
6.35
 41
0.0
 71
     2
 72
     1
  1
HFE-D98K
  7
SLDTEXTSTYLE0
 73
     1
 44
1.0
  0
MTEXT
  5
66
330
1F
100
AcDbEntity
  8
0
  6
Continuous
 62
     7
370
     0
100
AcDbMText
 10
336.1891573995
 20
222.9323214101
 30
0.0
 40
6.35
 41
0.0
 71
     2
 72
     1
  1
HFE-D101K
  7
SLDTEXTSTYLE0
 73
     1
 44
1.0
  0
MTEXT
  5
67
330
1F
100
AcDbEntity
  8
0
  6
Continuous
 62
     7
370
     0
100
AcDbMText
 10
279.5832131656
 20
231.3989889058
 30
0.0
 40
6.35
 41
0.0
 71
     2
 72
     1
  1
HBB-D98K
  7
SLDTEXTSTYLE0
 73
     1
 44
1.0
  0
MTEXT
  5
68
330
1F
100
AcDbEntity
  8
0
  6
Continuous
 62
     7
370
     0
100
AcDbMText
 10
279.4920793297
 20
222.9323223414
 30
0.0
 40
6.35
 41
0.0
 71
     2
 72
     1
  1
HBB-D101K
  7
SLDTEXTSTYLE0
 73
     1
 44
1.0
  0
SPLINE
  5
69
330
1F
100
AcDbEntity
  8
0
  6
Continuous
 62
     7
370
    25
100
AcDbSpline
210
0.0
220
0.0
230
1.0
 70
     8
 71
     3
 72
    22
 73
    18
 74
     0
 42
0.00000001
 43
0.00000001
 40
0.0
 40
0.0
 40
0.0
 40
0.0
 40
0.0856921687940683
 40
0.1205558385066679
 40
0.1782433870391481
 40
0.2379090881870314
 40
0.3016664507492948
 40
0.367926129455196
 40
0.4360809928016557
 40
0.5056773246826163
 40
0.5764342353708948
 40
0.6482023929910197
 40
0.7209399424460837
 40
0.7947098758682085
 40
0.8696932557426211
 40
0.9462143602269306
 40
1.0
 40
1.0
 40
1.0
 40
1.0
 10
234.9704022830396
 20
350.3645621554596
 30
0.0
 10
235.1323935475754
 20
351.013754984535
 30
0.0
 10
235.3602906004999
 20
351.9270704830582
 30
0.0
 10
235.5731667056251
 20
353.2939380096084
 30
0.0
 10
235.698725927118
 20
354.4622079550267
 30
0.0
 10
235.7535597263605
 20
355.8446705675733
 30
0.0
 10
235.7085938694889
 20
357.272238019048
 30
0.0
 10
235.548282970651
 20
358.7278756194956
 30
0.0
 10
235.2638940077684
 20
360.1737367438319
 30
0.0
 10
234.8503716054054
 20
361.5812454461457
 30
0.0
 10
234.3057392689493
 20
362.9250285599883
 30
0.0
 10
233.6300751748651
 20
364.182803701449
 30
0.0
 10
232.824466737461
 20
365.3334290284319
 30
0.0
 10
231.8918748298771
 20
366.3600117394988
 30
0.0
 10
230.8315413801047
 20
367.2337945803996
 30
0.0
 10
229.7852127374055
 20
367.8920196482994
 30
0.0
 10
229.0626136900413
 20
368.1613123523317
 30
0.0
 10
228.7643524428328
 20
368.272466080062
 30
0.0
  0
SPLINE
  5
6A
330
1F
100
AcDbEntity
  8
0
  6
Continuous
 62
     7
370
    25
100
AcDbSpline
210
0.0
220
0.0
230
1.0
 70
     8
 71
     3
 72
    22
 73
    18
 74
     0
 42
0.00000001
 43
0.00000001
 40
0.0
 40
0.0
 40
0.0
 40
0.0
 40
0.0524616776018137
 40
0.1346848096394305
 40
0.2101457416629597
 40
0.2857733432860694
 40
0.3614529715107316
 40
0.437017285996072
 40
0.512264894633576
 40
0.5869398962504374
 40
0.6606289065824846
 40
0.7324522779630616
 40
0.799998073824212
 40
0.8580508938718783
 40
0.9043000552233847
 40
0.9583274815082352
 40
1.0
 40
1.0
 40
1.0
 40
1.0
 10
219.9288355006938
 20
338.3099536474784
 30
0.0
 10
220.2383792083789
 20
338.231736529762
 30
0.0
 10
221.0330704430183
 20
338.0309298058497
 30
0.0
 10
222.3308004257968
 20
337.994997579539
 30
0.0
 10
223.7789999336241
 20
338.155611022161
 30
0.0
 10
225.182865144117
 20
338.5342340216271
 30
0.0
 10
226.5612247518687
 20
339.1168404084219
 30
0.0
 10
227.8941805149074
 20
339.8943996383504
 30
0.0
 10
229.1619040151645
 20
340.8501316698016
 30
0.0
 10
230.3455790685736
 20
341.9636170158753
 30
0.0
 10
231.4256854862032
 20
343.2067294693175
 30
0.0
 10
232.3776550217089
 20
344.533468420832
 30
0.0
 10
233.1671959181548
 20
345.8582802954002
 30
0.0
 10
233.7757903991346
 20
347.0746428602747
 30
0.0
 10
234.2710305586832
 20
348.2359066854202
 30
0.0
 10
234.661574738791
 20
349.305365111637
 30
0.0
 10
234.8767181396365
 20
350.0432502466174
 30
0.0
 10
234.9704022830396
 20
350.3645621554596
 30
0.0
  0
LINE
  5
6B
330
1F
100
AcDbEntity
  8
0
  6
Continuous
 62
     7
370
    25
100
AcDbLine
 10
217.9016949655
 20
338.7612401262
 30
0.0
 11
220.0388828763
 21
338.2550949547
 31
0.0
  0
LINE
  5
6C
330
1F
100
AcDbEntity
  8
0
  6
Continuous
 62
     7
370
    25
100
AcDbLine
 10
228.3888689393
 20
368.4275875534
 30
0.0
 11
224.2100871182
 21
369.7543169603
 31
0.0
  0
LINE
  5
6D
330
1F
100
AcDbEntity
  8
0
  6
Continuous
 62
     7
370
    25
100
AcDbLine
 10
225.1605439931
 20
324.3427572901
 30
0.0
 11
225.6136152409
 21
338.752138781
 31
0.0
  0
LINE
  5
6E
330
1F
100
AcDbEntity
  8
0
  6
Continuous
 62
     7
370
    25
100
AcDbLine
 10
203.7064950546
 20
342.0518539153
 30
0.0
 11
203.1714110799
 21
325.0341571182
 31
0.0
  0
LINE
  5
6F
330
1F
100
AcDbEntity
  8
0
  6
Continuous
 62
     7
370
    25
100
AcDbLine
 10
227.7723333588
 20
324.0151224317
 30
0.0
 11
226.8288834509
 21
324.9674837191
 31
0.0
  0
LINE
  5
70
330
1F
100
AcDbEntity
  8
0
  6
Continuous
 62
     7
370
    25
100
AcDbLine
 10
201.5456146594
 20
325.7624603908
 30
0.0
 11
200.5441977391
 21
324.8712511549
 31
0.0
  0
LINE
  5
71
330
1F
100
AcDbEntity
  8
0
  6
Continuous
 62
     7
370
    25
100
AcDbLine
 10
228.067202787
 20
321.3270009018
 30
0.0
 11
228.1284423408
 21
323.2746506308
 31
0.0
  0
LINE
  5
72
330
1F
100
AcDbEntity
  8
0
  6
Continuous
 62
     7
370
    25
100
AcDbLine
 10
200.1422731784
 20
324.1546140484
 30
0.0
 11
200.0810336246
 21
322.2069643194
 31
0.0
  0
LINE
  5
73
330
1F
100
AcDbEntity
  8
0
  6
Continuous
 62
     7
370
    25
100
AcDbLine
 10
228.0365830101
 20
320.3531760372
 30
0.0
 11
228.067202787
 21
321.3270009018
 31
0.0
  0
LINE
  5
74
330
1F
100
AcDbEntity
  8
0
  6
Continuous
 62
     7
370
    25
100
AcDbLine
 10
200.0810336246
 20
322.2069643194
 30
0.0
 11
200.0504138477
 21
321.2331394548
 31
0.0
  0
LINE
  5
75
330
1F
100
AcDbEntity
  8
0
  6
Continuous
 62
     7
370
    25
100
AcDbLine
 10
259.0511905186
 20
279.8250052698
 30
0.0
 11
239.5876236329
 21
316.9208491747
 31
0.0
  0
LINE
  5
76
330
1F
100
AcDbEntity
  8
0
  6
Continuous
 62
     7
370
    25
100
AcDbLine
 10
281.1425693748
 20
277.3762618068
 30
0.0
 11
281.1884990402
 21
278.8369991036
 31
0.0
  0
LINE
  5
77
330
1F
100
AcDbEntity
  8
0
  6
Continuous
 62
     7
370
    25
100
AcDbLine
 10
239.5877395438
 20
316.9206282241
 30
0.0
 11
238.5949378323
 21
318.8134120958
 31
0.0
  0
LINE
  5
78
330
1F
100
AcDbEntity
  8
0
  6
Continuous
 62
     7
370
    25
100
AcDbLine
 10
189.4161820963
 20
320.3597296972
 30
0.0
 11
188.3064302377
 21
318.5330559892
 31
0.0
  0
LINE
  5
79
330
1F
100
AcDbEntity
  8
0
  6
Continuous
 62
     7
370
    25
100
AcDbLine
 10
147.5507217549
 20
279.7154071117
 30
0.0
 11
147.5047920896
 21
278.254669815
 31
0.0
  0
LINE
  5
7A
330
1F
100
AcDbEntity
  8
0
  6
Continuous
 62
     7
370
    25
100
AcDbLine
 10
238.5945159972
 20
318.8136248436
 30
0.0
 11
238.2266932143
 21
319.5146626658
 31
0.0
  0
SPLINE
  5
7B
330
1F
100
AcDbEntity
  8
0
  6
Continuous
 62
     7
370
    25
100
AcDbSpline
210
0.0
220
0.0
230
1.0
 70
     8
 71
     3
 72
    14
 73
    10
 74
     0
 42
0.00000001
 43
0.00000001
 40
0.0
 40
0.0
 40
0.0
 40
0.0
 40
0.0984308808801136
 40
0.2355764155783676
 40
0.3958306606779968
 40
0.5731444416068775
 40
0.749776382106642
 40
0.9220216714833869
 40
1.0
 40
1.0
 40
1.0
 40
1.0
 10
238.1975038252286
 20
319.5393807120597
 30
0.0
 10
238.089914319823
 20
319.7245565765468
 30
0.0
 10
237.8324184017668
 20
320.1677413374416
 30
0.0
 10
237.2168854233446
 20
320.7619056288099
 30
0.0
 10
236.3464086300156
 20
321.3942262240491
 30
0.0
 10
235.2016574196574
 20
322.0047062272079
 30
0.0
 10
233.8139691695205
 20
322.5804787917012
 30
0.0
 10
232.5235971410725
 20
323.0146246451401
 30
0.0
 10
231.6876773205195
 20
323.2522333668197
 30
0.0
 10
231.4271758101928
 20
323.326280457632
 30
0.0
  0
LINE
  5
7C
330
1F
100
AcDbEntity
  8
0
  6
Continuous
 62
     7
370
    25
100
AcDbLine
 10
188.3065598005
 20
318.5332692214
 30
0.0
 11
166.5509501
 21
282.7334714916
 31
0.0
  0
LINE
  5
7D
330
1F
100
AcDbEntity
  8
0
  6
Continuous
 62
     7
370
    25
100
AcDbLine
 10
189.8277543066
 20
321.0364606454
 30
0.0
 11
189.4166164637
 21
320.3599155236
 31
0.0
  0
SPLINE
  5
7E
330
1F
100
AcDbEntity
  8
0
  6
Continuous
 62
     7
370
    25
100
AcDbSpline
210
0.0
220
0.0
230
1.0
 70
     8
 71
     3
 72
    16
 73
    12
 74
     0
 42
0.00000001
 43
0.00000001
 40
0.0
 40
0.0
 40
0.0
 40
0.0
 40
0.0887918940388959
 40
0.2125732343802119
 40
0.3371137102779591
 40
0.4628024843406612
 40
0.5902784441289185
 40
0.7205764192462761
 40
0.8549625465695753
 40
0.9604209622691627
 40
1.0
 40
1.0
 40
1.0
 40
1.0
 10
200.7358990991665
 20
325.0418554449003
 30
0.0
 10
200.2503925237442
 20
324.9804040351959
 30
0.0
 10
199.0880600364432
 20
324.8332855953932
 30
0.0
 10
197.4165183569511
 20
324.5393408734081
 30
0.0
 10
195.7133544185735
 20
324.169766801623
 30
0.0
 10
194.1835399739982
 20
323.7445698483839
 30
0.0
 10
192.8281464643495
 20
323.2594419348468
 30
0.0
 10
191.6449416199213
 20
322.702573020849
 30
0.0
 10
190.7337985302799
 20
322.0793282996406
 30
0.0
 10
190.137448735247
 20
321.5336737965458
 30
0.0
 10
189.9280355608933
 20
321.1614515462432
 30
0.0
 10
189.8708891360696
 20
321.0598764141616
 30
0.0
  0
SPLINE
  5
7F
330
1F
100
AcDbEntity
  8
0
  6
Continuous
 62
     7
370
    25
100
AcDbSpline
210
0.0
220
0.0
230
1.0
 70
     8
 71
     3
 72
    10
 73
     6
 74
     0
 42
0.00000001
 43
0.00000001
 40
0.0
 40
0.0
 40
0.0
 40
0.0
 40
0.2544369480917471
 40
0.7448521208599066
 40
1.0
 40
1.0
 40
1.0
 40
1.0
 10
231.4271758101928
 20
323.326280457632
 30
0.0
 10
231.1278711993946
 20
323.4064245932906
 30
0.0
 10
230.2516711199322
 20
323.6410427565235
 30
0.0
 10
228.986579874079
 20
323.9369755849409
 30
0.0
 10
227.9489953228273
 20
324.1293835519577
 30
0.0
 10
227.593911340322
 20
324.1952297397327
 30
0.0
  0
LINE
  5
80
330
1F
100
AcDbEntity
  8
0
  6
Continuous
 62
     7
370
    25
100
AcDbLine
 10
226.3623435474
 20
370.1072568794
 30
0.0
 11
234.679038793
 21
371.5710060077
 31
0.0
  0
LINE
  5
81
330
1F
100
AcDbEntity
  8
0
  6
Continuous
 62
     7
370
    25
100
AcDbLine
 10
214.3807399998
 20
367.9984791462
 30
0.0
 11
220.1744176682
 21
369.0181739151
 31
0.0
  0
LINE
  5
82
330
1F
100
AcDbEntity
  8
0
  6
Continuous
 62
     7
370
    25
100
AcDbLine
 10
221.6787574382
 20
445.43569774
 30
0.0
 11
201.380458645
 21
441.8631708784
 31
0.0
  0
SPLINE
  5
83
330
1F
100
AcDbEntity
  8
0
  6
Continuous
 62
     7
370
    25
100
AcDbSpline
210
0.0
220
0.0
230
1.0
 70
     8
 71
     3
 72
     9
 73
     5
 74
     0
 42
0.00000001
 43
0.00000001
 40
0.0
 40
0.0
 40
0.0
 40
0.0
 40
0.56748092853332
 40
1.0
 40
1.0
 40
1.0
 40
1.0
 10
232.9517623017863
 20
443.6876891811602
 30
0.0
 10
232.2929028979495
 20
443.9868003896793
 30
0.0
 10
231.1318781467923
 20
444.5138863118302
 30
0.0
 10
229.9544488403237
 20
444.8649273884799
 30
0.0
 10
229.4451882099722
 20
445.0167593489992
 30
0.0
  0
SPLINE
  5
84
330
1F
100
AcDbEntity
  8
0
  6
Continuous
 62
     7
370
    25
100
AcDbSpline
210
0.0
220
0.0
230
1.0
 70
     8
 71
     3
 72
    34
 73
    30
 74
     0
 42
0.00000001
 43
0.00000001
 40
0.0
 40
0.0
 40
0.0
 40
0.0
 40
0.0188282243033913
 40
0.0579881222560264
 40
0.0971684798246319
 40
0.1363603836775539
 40
0.1755572850796936
 40
0.2147538459764667
 40
0.2539478012969246
 40
0.2931381905364635
 40
0.3323248960280838
 40
0.3715083776266477
 40
0.4106894787317655
 40
0.4498692882318459
 40
0.4890490421796032
 40
0.5282299230995042
 40
0.5674129458333105
 40
0.6065994095148708
 40
0.645790515832636
 40
0.6849872782216732
 40
0.7241903948606809
 40
0.7634000682816275
 40
0.802615753524327
 40
0.8418358199702278
 40
0.8810561072760852
 40
0.9202703424533055
 40
0.9594701228316932
 40
0.9986444643615047
 40
1.0
 40
1.0
 40
1.0
 40
1.0
 10
247.7751568237362
 20
380.9952666898167
 30
0.0
 10
247.9904198541248
 20
381.3166360071751
 30
0.0
 10
248.6533978770248
 20
382.3064055661112
 30
0.0
 10
249.6208185308645
 20
384.155394485928
 30
0.0
 10
250.6749056916291
 20
386.515079260894
 30
0.0
 10
251.5729349786012
 20
389.0297627780729
 30
0.0
 10
252.3180766679491
 20
391.6701682702201
 30
0.0
 10
252.9031292133514
 20
394.4220389189476
 30
0.0
 10
253.3250440868003
 20
397.2662292307244
 30
0.0
 10
253.5810303728568
 20
400.1842118847703
 30
0.0
 10
253.6695908114424
 20
403.156717375412
 30
0.0
 10
253.5902432887311
 20
406.1642307636576
 30
0.0
 10
253.3435941529856
 20
409.1870061292715
 30
0.0
 10
252.9313118983403
 20
412.2052153149748
 30
0.0
 10
252.3561211486453
 20
415.1990606047161
 30
0.0
 10
251.6217848872391
 20
418.1488967228611
 30
0.0
 10
250.7330794346797
 20
421.0353632342091
 30
0.0
 10
249.6957608147457
 20
423.8395109949945
 30
0.0
 10
248.5165231864954
 20
426.5429229916913
 30
0.0
 10
247.202958176688
 20
429.127825110784
 30
0.0
 10
245.7635049573811
 20
431.5771722666569
 30
0.0
 10
244.2074108644897
 20
433.874825602992
 30
0.0
 10
242.5446451995894
 20
436.0053559748471
 30
0.0
 10
240.7860075581949
 20
437.9551917620548
 30
0.0
 10
238.9425759425307
 20
439.7086827366735
 30
0.0
 10
237.0276068348009
 20
441.2632241558764
 30
0.0
 10
235.0492751706088
 20
442.5733206745499
 30
0.0
 10
233.6843339251609
 20
443.3782947002836
 30
0.0
 10
232.9754704826706
 20
443.677676262173
 30
0.0
 10
232.9517623017863
 20
443.6876891811602
 30
0.0
  0
LINE
  5
85
330
1F
100
AcDbEntity
  8
0
  6
Continuous
 62
     7
370
    25
100
AcDbLine
 10
199.4207800891
 20
343.6012384496
 30
0.0
 11
203.9183488518
 21
342.3565737484
 31
0.0
  0
SPLINE
  5
86
330
1F
100
AcDbEntity
  8
0
  6
Continuous
 62
     7
370
    25
100
AcDbSpline
210
0.0
220
0.0
230
1.0
 70
     8
 71
     3
 72
    23
 73
    19
 74
     0
 42
0.00000001
 43
0.00000001
 40
0.0
 40
0.0
 40
0.0
 40
0.0
 40
0.0795238403414123
 40
0.1118711004444371
 40
0.1653991960284493
 40
0.2207668351733373
 40
0.2799353341054452
 40
0.3414299458841282
 40
0.4046857438104575
 40
0.4692798466552974
 40
0.5349480723456538
 40
0.601547146193064
 40
0.6690314218898711
 40
0.7374490525750851
 40
0.8069521345750134
 40
0.8778178745800961
 40
0.9504703389392141
 40
1.0
 40
1.0
 40
1.0
 40
1.0
 10
192.3905625887987
 20
362.1481782040026
 30
0.0
 10
192.2265934323126
 20
361.4918323233176
 30
0.0
 10
191.9959278872848
 20
360.5685100135653
 30
0.0
 10
191.7789376761945
 20
359.1867116035346
 30
0.0
 10
191.6498442594411
 20
358.0055977619609
 30
0.0
 10
191.5907660302197
 20
356.6074477774417
 30
0.0
 10
191.631280331489
 20
355.1629007764652
 30
0.0
 10
191.7869883521379
 20
353.688835546103
 30
0.0
 10
192.0667541746587
 20
352.223197355323
 30
0.0
 10
192.4757435223529
 20
350.7946049149243
 30
0.0
 10
193.0160017886273
 20
349.4283854708238
 30
0.0
 10
193.6875832211497
 20
348.147029998757
 30
0.0
 10
194.4891591341738
 20
346.9707712192946
 30
0.0
 10
195.41881962658
 20
345.9195947898759
 30
0.0
 10
196.4733193491201
 20
345.0096681042416
 30
0.0
 10
197.6524624311673
 20
344.2713522529536
 30
0.0
 10
198.7922402647606
 20
343.7531347070215
 30
0.0
 10
199.5603868183237
 20
343.585158095735
 30
0.0
 10
199.8717747428031
 20
343.5170644642438
 30
0.0
  0
SPLINE
  5
87
330
1F
100
AcDbEntity
  8
0
  6
Continuous
 62
     7
370
    25
100
AcDbSpline
210
0.0
220
0.0
230
1.0
 70
     8
 71
     3
 72
     9
 73
     5
 74
     0
 42
0.00000001
 43
0.00000001
 40
0.0
 40
0.0
 40
0.0
 40
0.0
 40
0.3361107855303998
 40
1.0
 40
1.0
 40
1.0
 40
1.0
 10
193.0979290165331
 20
364.2526768648028
 30
0.0
 10
193.0068719549491
 20
364.0217479449805
 30
0.0
 10
192.7359581208681
 20
363.3346860303864
 30
0.0
 10
192.5283748700929
 20
362.6215929854495
 30
0.0
 10
192.3905625887987
 20
362.1481782040026
 30
0.0
  0
LINE
  5
88
330
1F
100
AcDbEntity
  8
0
  6
Continuous
 62
     7
370
    25
100
AcDbLine
 10
133.9493615454
 20
427.2029427104
 30
0.0
 11
130.9976198409
 21
426.6834323496
 31
0.0
  0
LINE
  5
89
330
1F
100
AcDbEntity
  8
0
  6
Continuous
 62
     7
370
    25
100
AcDbLine
 10
143.0445472296
 20
358.2354846778
 30
0.0
 11
145.9962889341
 21
358.7549950385
 31
0.0
  0
SPLINE
  5
8A
330
1F
100
AcDbEntity
  8
0
  6
Continuous
 62
     7
370
    25
100
AcDbSpline
210
0.0
220
0.0
230
1.0
 70
     8
 71
     3
 72
    32
 73
    28
 74
     0
 42
0.00000001
 43
0.00000001
 40
0.0
 40
0.0
 40
0.0
 40
0.0
 40
0.0075154898405194
 40
0.0492519985449073
 40
0.091014403714923
 40
0.1327923105779288
 40
0.1745778202372842
 40
0.2163647883778912
 40
0.2581496498477709
 40
0.2999309632006693
 40
0.3417083107430735
 40
0.3834819846218402
 40
0.4252527538631487
 40
0.4670216973715338
 40
0.508790085501758
 40
0.5505592938030522
 40
0.5923303031756558
 40
0.6341044806933319
 40
0.6758831552813415
 40
0.717667494244932
 40
0.7594583840627884
 40
0.8012562611825844
 40
0.8430608736476211
 40
0.884870955609224
 40
0.9266833586960443
 40
0.9684919017011592
 40
1.0
 40
1.0
 40
1.0
 40
1.0
 10
117.8743197105588
 20
420.1748871904936
 30
0.0
 10
117.7914675544361
 20
420.0578395830296
 30
0.0
 10
117.2485043731412
 20
419.2907799881349
 30
0.0
 10
116.371585789051
 20
417.6968223528785
 30
0.0
 10
115.2609588625181
 20
415.3998253388854
 30
0.0
 10
114.3085343025929
 20
412.935029293996
 30
0.0
 10
113.5057491233585
 20
410.3400858673784
 30
0.0
 10
112.8617532218446
 20
407.6266484587462
 30
0.0
 10
112.3795762426602
 20
404.8142615336759
 30
0.0
 10
112.062516181667
 20
401.921107681756
 30
0.0
 10
111.912434147823
 20
398.9663526722056
 30
0.0
 10
111.9302142508273
 20
395.9693929927105
 30
0.0
 10
112.1156409518458
 20
392.9499149789611
 30
0.0
 10
112.4674363661973
 20
389.9277278443548
 30
0.0
 10
112.983261254595
 20
386.9226536505378
 30
0.0
 10
113.6597310503701
 20
383.9544099468459
 30
0.0
 10
114.4924377044377
 20
381.0424763772571
 30
0.0
 10
115.4759792869827
 20
378.2059680413707
 30
0.0
 10
116.6040022172145
 20
375.4635114199825
 30
0.0
 10
117.8692356638722
 20
372.8331183355271
 30
0.0
 10
119.2635570111338
 20
370.3321536932128
 30
0.0
 10
120.7779670895053
 20
367.9769487875648
 30
0.0
 10
122.4029143677296
 20
365.7837672093462
 30
0.0
 10
124.1273105058385
 20
363.7647632466723
 30
0.0
 10
125.9423829220645
 20
361.9426942135248
 30
0.0
 10
127.6727886482072
 20
360.4307592474854
 30
0.0
 10
128.8215419346482
 20
359.6287783505566
 30
0.0
 10
129.3152229165721
 20
359.2841240881025
 30
0.0
  0
LINE
  5
8B
330
1F
100
AcDbEntity
  8
0
  6
Continuous
 62
     7
370
    25
100
AcDbLine
 10
143.8902841907
 20
355.5920676814
 30
0.0
 11
150.9024237738
 21
356.8262133245
 31
0.0
  0
LINE
  5
8C
330
1F
100
AcDbEntity
  8
0
  6
Continuous
 62
     7
370
    25
100
AcDbLine
 10
137.902142419
 20
430.6909050568
 30
0.0
 11
130.8900028359
 21
429.4567594137
 31
0.0
  0
SPLINE
  5
8D
330
1F
100
AcDbEntity
  8
0
  6
Continuous
 62
     7
370
    25
100
AcDbSpline
210
0.0
220
0.0
230
1.0
 70
     8
 71
     3
 72
    14
 73
    10
 74
     0
 42
0.00000001
 43
0.00000001
 40
0.0
 40
0.0
 40
0.0
 40
0.0
 40
0.1052122807653087
 40
0.2569705354429662
 40
0.4087006633692873
 40
0.5604050677558083
 40
0.712091009150265
 40
0.8637702532568386
 40
1.0
 40
1.0
 40
1.0
 40
1.0
 10
160.6737939109865
 20
382.9146122824143
 30
0.0
 10
160.6120365077732
 20
382.266590800937
 30
0.0
 10
160.4612001904172
 20
380.6838627594713
 30
0.0
 10
160.0332745868458
 20
378.2557406453827
 30
0.0
 10
159.4200247895863
 20
375.6428178925311
 30
0.0
 10
158.6470942013264
 20
373.150854754418
 30
0.0
 10
157.7240487456712
 20
370.7996899613207
 30
0.0
 10
156.7061111958578
 20
368.6609050711253
 30
0.0
 10
155.9332020824683
 20
367.398581022623
 30
0.0
 10
155.5674850811972
 20
366.801287812266
 30
0.0
  0
SPLINE
  5
8E
330
1F
100
AcDbEntity
  8
0
  6
Continuous
 62
     7
370
    25
100
AcDbSpline
210
0.0
220
0.0
230
1.0
 70
     8
 71
     3
 72
    16
 73
    12
 74
     0
 42
0.00000001
 43
0.00000001
 40
0.0
 40
0.0
 40
0.0
 40
0.0
 40
0.0992652923911611
 40
0.2143004967239396
 40
0.3291765298756751
 40
0.4439370042919731
 40
0.5586222436357686
 40
0.6732646953739027
 40
0.7878880091984313
 40
0.9025062668201763
 40
1.0
 40
1.0
 40
1.0
 40
1.0
 10
139.6383027573613
 20
426.2785736714789
 30
0.0
 10
140.2009655362697
 20
426.0657103876911
 30
0.0
 10
141.4156792605088
 20
425.6061670130517
 30
0.0
 10
143.2551023467378
 20
424.615052591296
 30
0.0
 10
145.1438276075465
 20
423.3742672683479
 30
0.0
 10
146.9779798319579
 20
421.9109229552668
 30
0.0
 10
148.7450247658633
 20
420.2427057064136
 30
0.0
 10
150.4336168273464
 20
418.3802427953859
 30
0.0
 10
152.0277236081134
 20
416.3321604619537
 30
0.0
 10
153.4566246612404
 20
414.2400920098212
 30
0.0
 10
154.2934969299813
 20
412.7649478056841
 30
0.0
 10
154.6781512881149
 20
412.0869224149628
 30
0.0
  0
SPLINE
  5
8F
330
1F
100
AcDbEntity
  8
0
  6
Continuous
 62
     7
370
    25
100
AcDbSpline
210
0.0
220
0.0
230
1.0
 70
     8
 71
     3
 72
     9
 73
     5
 74
     0
 42
0.00000001
 43
0.00000001
 40
0.0
 40
0.0
 40
0.0
 40
0.0
 40
0.7903739742517667
 40
1.0
 40
1.0
 40
1.0
 40
1.0
 10
138.3465988167469
 20
426.7027274160228
 30
0.0
 10
138.6879033716048
 20
426.6099628309938
 30
0.0
 10
139.1197300333836
 20
426.4925948658899
 30
0.0
 10
139.5484350322338
 20
426.3156631614992
 30
0.0
 10
139.6383027573613
 20
426.2785736714789
 30
0.0
  0
LINE
  5
90
330
1F
100
AcDbEntity
  8
0
  6
Continuous
 62
     7
370
    25
100
AcDbLine
 10
152.378663686
 20
357.0860334599
 30
0.0
 11
214.3807399998
 21
367.9984791462
 31
0.0
  0
LINE
  5
91
330
1F
100
AcDbEntity
  8
0
  6
Continuous
 62
     7
370
    25
100
AcDbLine
 10
201.380458645
 20
441.8631708784
 30
0.0
 11
139.3783823312
 21
430.9507251921
 31
0.0
  0
SPLINE
  5
92
330
1F
100
AcDbEntity
  8
0
  6
Continuous
 62
     7
370
    25
100
AcDbSpline
210
0.0
220
0.0
230
1.0
 70
    11
 71
     3
 72
    39
 73
    35
 74
     0
 42
0.00000001
 43
0.00000001
 40
0.0
 40
0.0
 40
0.0
 40
0.0
 40
0.029129008105451
 40
0.0600028324322984
 40
0.0921602034406938
 40
0.1250000000000001
 40
0.1578397965593062
 40
0.1899971675677017
 40
0.2208709918945491
 40
0.2500000000000001
 40
0.279129008105451
 40
0.3100028324322984
 40
0.3421602034406939
 40
0.3750000000000001
 40
0.4078397965593062
 40
0.4399971675677018
 40
0.4708709918945492
 40
0.5000000000000001
 40
0.529129008105451
 40
0.5600028324322984
 40
0.592160203440694
 40
0.6250000000000001
 40
0.6578397965593062
 40
0.6899971675677017
 40
0.7208709918945491
 40
0.7499999999999999
 40
0.7791290081054508
 40
0.8100028324322982
 40
0.8421602034406936
 40
0.8749999999999998
 40
0.907839796559306
 40
0.9399971675677017
 40
0.9708709918945491
 40
1.0
 40
1.0
 40
1.0
 40
1.0
 10
225.0303132892499
 20
367.5151506405737
 30
0.0
 10
225.6888033742784
 20
367.5849886033043
 30
0.0
 10
227.0452268435312
 20
367.7288477954872
 30
0.0
 10
229.0368818606396
 20
367.2895352633239
 30
0.0
 10
230.934653877578
 20
366.3138328841926
 30
0.0
 10
232.606688261498
 20
364.7615573060629
 30
0.0
 10
233.9405691330982
 20
362.7265807603922
 30
0.0
 10
234.8646977018378
 20
360.3448012533683
 30
0.0
 10
235.3608032442545
 20
357.7862800075919
 30
0.0
 10
235.4622632217976
 20
355.1546530062657
 30
0.0
 10
235.1932621043582
 20
352.4578372689068
 30
0.0
 10
234.529844358522
 20
349.695196822961
 30
0.0
 10
233.4448226765402
 20
346.9599660154435
 30
0.0
 10
231.9673938908542
 20
344.4295752672242
 30
0.0
 10
230.1786645013852
 20
342.2705077367725
 30
0.0
 10
228.1978089234603
 20
340.6038382332939
 30
0.0
 10
226.1571302288338
 20
339.4840121642908
 30
0.0
 10
224.1300767606408
 20
338.8842197722879
 30
0.0
 10
222.1183913210241
 20
338.7731888888034
 30
0.0
 10
220.1258136210554
 20
339.1831566117414
 30
0.0
 10
218.2283047792645
 20
340.1672289572244
 30
0.0
 10
216.5561974546904
 20
341.7171847463238
 30
0.0
 10
215.2223361881278
 20
343.7527848064348
 30
0.0
 10
214.2982025053956
 20
346.1344016691273
 30
0.0
 10
213.8020982782957
 20
348.6929647469599
 30
0.0
 10
213.7006378930033
 20
351.3245787803155
 30
0.0
 10
213.969639418192
 20
354.0214074856452
 30
0.0
 10
214.6330558487114
 20
356.7840060995345
 30
0.0
 10
215.7180826446858
 20
359.5193995513837
 30
0.0
 10
217.1954918253342
 20
362.0491667851625
 30
0.0
 10
218.9842941554572
 20
364.2105541046446
 30
0.0
 10
220.9648865582346
 20
365.8688536417713
 30
0.0
 10
223.0064879357217
 20
367.0180245199998
 30
0.0
 10
224.3689107559771
 20
367.3526857940244
 30
0.0
 10
225.0303132892499
 20
367.5151506405737
 30
0.0
  0
LINE
  5
93
330
1F
100
AcDbEntity
  8
0
  6
Continuous
 62
     7
370
    25
100
AcDbLine
 10
228.3888689393
 20
368.4275875534
 30
0.0
 11
228.7501094809
 21
368.3033496255
 31
0.0
  0
LINE
  5
94
330
1F
100
AcDbEntity
  8
0
  6
Continuous
 62
     7
370
    25
100
AcDbLine
 10
220.0388828763
 20
338.2550949547
 30
0.0
 11
219.927094905
 21
338.2824192266
 31
0.0
  0
SPLINE
  5
95
330
1F
100
AcDbEntity
  8
0
  6
Continuous
 62
     7
370
    25
100
AcDbSpline
210
0.0
220
0.0
230
1.0
 70
     8
 71
     3
 72
    14
 73
    10
 74
     0
 42
0.00000001
 43
0.00000001
 40
0.0
 40
0.0
 40
0.0
 40
0.0
 40
0.0550739730342772
 40
0.3195495737737408
 40
0.4724070182303047
 40
0.629389223012781
 40
0.7458214984089705
 40
0.865224182009126
 40
1.0
 40
1.0
 40
1.0
 40
1.0
 10
217.910980736267
 20
338.8077783719443
 30
0.0
 10
217.6980284986195
 20
338.84362787318
 30
0.0
 10
216.4624394712569
 20
339.0516334374917
 30
0.0
 10
214.5179278903598
 20
339.8659969872847
 30
0.0
 10
212.2580152354191
 20
340.8545367338866
 30
0.0
 10
210.6150408001827
 20
341.6272163794546
 30
0.0
 10
209.167225980915
 20
342.2694127881551
 30
0.0
 10
207.8612155925183
 20
342.7903675829155
 30
0.0
 10
207.0832371512725
 20
342.9972971650791
 30
0.0
 10
206.6707212219478
 20
343.1070196771249
 30
0.0
  0
LWPOLYLINE
  5
96
330
1F
100
AcDbEntity
  8
0
  6
Continuous
 62
     7
370
    25
100
AcDbPolyline
 90
       15
 70
   128
 43
0.0
 10
206.6707212219
 20
343.1070196771
 10
205.6570510638
 20
344.4336408221
 10
204.8095227163
 20
345.9601696913
 10
204.1429758324
 20
347.659877788
 10
203.6690812009
 20
349.5030043638
 10
203.3961363988
 20
351.4572775087
 10
203.3289205066
 20
353.4884792109
 10
203.4686104295
 20
355.5610444911
 10
203.8127602905
 20
357.6386841216
 10
204.3553442565
 20
359.6850200262
 10
205.0868620462
 20
361.6642222358
 10
205.9945052739
 20
363.5416362476
 10
207.0623817154
 20
365.2843898015
 10
208.2717935707
 20
366.8619684519
 10
208.3341016005
 20
366.9342629612
  0
LWPOLYLINE
  5
97
330
1F
100
AcDbEntity
  8
0
  6
Continuous
 62
     7
370
    25
100
AcDbPolyline
 90
       46
 70
   128
 43
0.0
 10
224.137463859
 20
339.1191574766
 10
222.6522512817
 20
338.9944170169
 10
221.2045883751
 20
339.1469431908
 10
219.8226522511
 20
339.57376725
 10
218.5333407244
 20
340.2665815496
 10
217.3617487772
 20
341.2119012473
 10
216.3306801142
 20
342.3913267705
 10
215.460203314
 20
343.781901943
 10
214.7672612175
 20
345.3565608008
 10
214.2653411543
 20
347.0846544004
 10
213.9642124276
 20
348.9325473655
 10
213.8697361653
 20
350.8642725616
 10
213.9837512407
 20
352.8422311549
 10
214.3040384798
 20
354.8279244313
 10
214.8243638559
 20
356.78270313
 10
215.5345998275
 20
358.6685197071
 10
216.4209224592
 20
360.448668888
 10
217.4660804891
 20
362.0885020937
 10
218.6497311051
 20
363.5561018363
 10
219.9488358943
 20
364.8229029561
 10
221.3381092597
 20
365.8642486102
 10
222.7905105755
 20
366.65987019
 10
224.2777705022
 20
367.1942818265
 10
225.770941217
 20
367.4570818051
 10
227.2409598505
 20
367.443155023
 10
228.659214162
 20
367.1527725494
 10
229.9980994446
 20
366.5915863486
 10
231.2315558193
 20
365.7705192718
 10
232.3355754607
 20
364.7055524557
 10
233.2886698824
 20
363.417414268
 10
234.0722881856
 20
361.9311768532
 10
234.6711781312
 20
360.275768132
 10
235.0736830079
 20
358.4834087523
 10
235.2719685159
 20
356.5889849506
 10
235.2621752534
 20
354.6293695313
 10
235.0444938352
 20
352.6427041794
 10
234.6231611824
 20
350.6676570764
 10
234.0063780559
 20
348.7426702674
 10
233.2061494376
 20
346.905211431
 10
232.2380508673
 20
345.1910446135
 10
231.1209252826
 20
343.633534122
 10
229.8765162621
 20
342.2629951268
 10
228.5290448121
 20
341.1061036102
 10
227.1047379315
 20
340.1853771499
 10
225.6313181337
 20
339.5187366389
 10
224.137463859
 20
339.1191574766
  0
LWPOLYLINE
  5
98
330
1F
100
AcDbEntity
  8
0
  6
Continuous
 62
     7
370
    25
100
AcDbPolyline
 90
       41
 70
   128
 43
0.0
 10
223.5553488849
 20
342.2271488451
 10
224.8875592635
 20
342.5987346831
 10
226.1956367473
 20
343.2369270458
 10
227.4473721274
 20
344.1260115191
 10
228.6119435245
 20
345.2440958927
 10
229.6606753257
 20
346.5636492185
 10
230.5677442737
 20
348.0521797143
 10
231.3108153204
 20
349.6730348192
 10
231.8715915907
 20
351.3863037012
 10
232.2362649115
 20
353.1497999944
 10
232.3958558156
 20
354.9201005673
 10
232.3464346452
 20
356.6536147445
 10
232.0892183135
 20
358.3076576538
 10
231.6305403402
 20
359.8415012693
 10
230.9816948993
 20
361.2173772707
 10
230.1586587191
 20
362.4014070246
 10
229.1816976816
 20
363.3644357888
 10
228.0748678101
 20
364.082750599
 10
226.8654229293
 20
364.5386641607
 10
225.5831435861
 20
364.7209503688
 10
224.2596037536
 20
364.6251207321
 10
222.927393375
 20
364.2535348941
 10
221.6193158911
 20
363.6153425314
 10
220.367580511
 20
362.7262580581
 10
219.203009114
 20
361.6081736845
 10
218.1542773127
 20
360.2886203587
 10
217.2472083648
 20
358.8000898628
 10
216.504137318
 20
357.1792347579
 10
215.9433610478
 20
355.465965876
 10
215.5786877269
 20
353.7024695828
 10
215.4190968228
 20
351.9321690099
 10
215.4685179933
 20
350.1986548327
 10
215.725734325
 20
348.5446119234
 10
216.1844122983
 20
347.0107683078
 10
216.8332577391
 20
345.6348923064
 10
217.6562939194
 20
344.4508625526
 10
218.6332549568
 20
343.4878337884
 10
219.7400848283
 20
342.7695189782
 10
220.9495297091
 20
342.3136054165
 10
222.2318090523
 20
342.1313192084
 10
223.5553488849
 20
342.2271488451
  0
SPLINE
  5
99
330
1F
100
AcDbEntity
  8
0
  6
Continuous
 62
     7
370
    25
100
AcDbSpline
210
0.0
220
0.0
230
1.0
 70
     8
 71
     3
 72
     9
 73
     5
 74
     0
 42
0.00000001
 43
0.00000001
 40
0.0
 40
0.0
 40
0.0
 40
0.0
 40
0.4913122176241189
 40
1.0
 40
1.0
 40
1.0
 40
1.0
 10
206.6707212219478
 20
343.1070196771249
 30
0.0
 10
206.3450566083881
 20
343.2038794706899
 30
0.0
 10
205.682210047937
 20
343.4010245651744
 30
0.0
 10
205.1956455988965
 20
343.4347225994318
 30
0.0
 10
204.9481362083311
 20
343.4518643777487
 30
0.0
  0
LWPOLYLINE
  5
9A
330
1F
100
AcDbEntity
  8
0
  6
Continuous
 62
     7
370
    25
100
AcDbPolyline
 90
       14
 70
   128
 43
0.0
 10
205.542848804
 20
366.442998856
 10
204.9920528718
 20
365.6680558778
 10
203.9285832437
 20
363.898696361
 10
203.0303188103
 20
361.9948002485
 10
202.3133980206
 20
359.9905734262
 10
201.7907012577
 20
357.9220243472
 10
201.4716194255
 20
355.8263170949
 10
201.36188523
 20
353.7411036833
 10
201.4634701841
 20
351.7038475914
 10
201.7745491864
 20
349.7511506847
 10
202.2895333116
 20
347.9180956166
 10
202.999170223
 20
346.2376155248
 10
203.8907104017
 20
344.7399023454
 10
204.9481362083
 20
343.4518643777
  0
LWPOLYLINE
  5
9B
330
1F
100
AcDbEntity
  8
0
  6
Continuous
 62
     7
370
    25
100
AcDbPolyline
 90
       22
 70
   128
 43
0.0
 10
203.1714110799
 20
325.0341571182
 10
203.1715377187
 20
324.9953958591
 10
203.3247014306
 20
324.5992052355
 10
203.7505963761
 20
324.2052599011
 10
204.4385084243
 20
323.8234702387
 10
205.3711319461
 20
323.463440834
 10
206.5250051681
 20
323.1342288555
 10
207.8711003943
 20
322.8441162054
 10
209.3755542484
 20
322.6004011742
 10
211.0005195664
 20
322.4092148389
 10
212.7051175077
 20
322.2753668258
 10
214.4464659344
 20
322.2022243155
 10
216.1807581855
 20
322.1916273354
 10
217.8643651108
 20
322.2438424711
 10
219.4549326378
 20
322.3575561598
 10
220.9124472626
 20
322.5299077349
 10
222.2002426593
 20
322.7565613917
 10
223.2859220857
 20
323.0318152614
 10
224.1421733799
 20
323.3487448524
 10
224.7474560451
 20
323.6993772473
 10
225.0865431389
 20
324.0748916759
 10
225.1605439931
 20
324.3427572901
  0
SPLINE
  5
9C
330
1F
100
AcDbEntity
  8
0
  6
Continuous
 62
     7
370
    25
100
AcDbSpline
210
0.0
220
0.0
230
1.0
 70
     8
 71
     3
 72
    10
 73
     6
 74
     0
 42
0.00000001
 43
0.00000001
 40
0.0
 40
0.0
 40
0.0
 40
0.0
 40
0.3579223232710824
 40
0.7274398474594315
 40
1.0
 40
1.0
 40
1.0
 40
1.0
 10
204.9247447090681
 20
342.7079261160948
 30
0.0
 10
204.6675036036674
 20
342.6647588950713
 30
0.0
 10
204.1446878464305
 20
342.5770260138428
 30
0.0
 10
203.7652057593911
 20
342.3075759894917
 30
0.0
 10
203.7432645085679
 20
342.1276420817937
 30
0.0
 10
203.733950509829
 20
342.0512606483522
 30
0.0
  0
LINE
  5
9D
330
1F
100
AcDbEntity
  8
0
  6
Continuous
 62
     7
370
    25
100
AcDbLine
 10
204.9481362083
 20
343.4518643777
 30
0.0
 11
204.9247447091
 21
342.7079261161
 31
0.0
  0
LWPOLYLINE
  5
9E
330
1F
100
AcDbEntity
  8
0
  6
Continuous
 62
     7
370
    25
100
AcDbPolyline
 90
       27
 70
   128
 43
0.0
 10
227.7723333588
 20
324.0151224317
 10
227.9298942954
 20
323.8329144397
 10
228.124061841
 20
323.3791498619
 10
228.0334597116
 20
322.9322147399
 10
227.6599323053
 20
322.501207384
 10
227.0110835629
 20
322.094901861
 10
226.1001221737
 20
321.7215693795
 10
224.9455926845
 20
321.3888099124
 10
223.5709979865
 20
321.1033974829
 10
222.0043208635
 20
320.8711422648
 10
220.2774543439
 20
320.6967723047
 10
218.4255524503
 20
320.5838372721
 10
216.4863145646
 20
320.5346361986
 10
214.499217978
 20
320.5501706762
 10
212.5047142466
 20
320.6301244677
 10
210.5434057148
 20
320.7728699445
 10
208.6552189682
 20
320.9755012204
 10
206.8785920441
 20
321.2338933068
 10
205.2496919431
 20
321.542786086
 10
203.801678374
 20
321.8958913919
 10
202.5640287173
 20
322.2860210187
 10
201.561937951
 20
322.7052330522
 10
200.8158057532
 20
323.1449935443
 10
200.3408212238
 20
323.5963502396
 10
200.1466536782
 20
324.0501148173
 10
200.2372558076
 20
324.4970499393
 10
200.5441977391
 20
324.8712511549
  0
LWPOLYLINE
  5
9F
330
1F
100
AcDbEntity
  8
0
  6
Continuous
 62
     7
370
    25
100
AcDbPolyline
 90
       31
 70
   128
 43
0.0
 10
225.209583851
 20
325.9024104873
 10
226.0765668674
 20
325.5039399645
 10
226.7059174637
 20
325.0817219601
 10
227.0680010116
 20
324.6511222003
 10
227.155100329
 20
324.2213181712
 10
226.9653590452
 20
323.8014703996
 10
226.5028211661
 20
323.4005272118
 10
225.7773448837
 20
323.0270340158
 10
224.8043924654
 20
322.6889511706
 10
223.6047007027
 20
322.3934843251
 10
222.2038389428
 20
322.1469308421
 10
220.6316641219
 20
321.954545581
 10
218.9216844169
 20
321.8204288998
 10
217.1103450764
 20
321.7474392625
 10
215.2362516536
 20
321.7371323166
 10
213.3393471962
 20
321.7897277368
 10
211.4600609293
 20
321.904104543
 10
209.638446577
 20
322.0778249921
 10
207.9133286866
 20
322.3071865343
 10
206.321475151
 20
322.5873007267
 10
204.8968135644
 20
322.9121974215
 10
203.6697081153
 20
323.2749520097
 10
202.6663124258
 20
323.6678330071
 10
201.9080121329
 20
324.0824668373
 10
201.410969091
 20
324.5100163001
 10
201.1857769095
 20
324.941368921
 10
201.2372351687
 20
325.3673311678
 10
201.5642471253
 20
325.7788243947
 10
202.1598430871
 20
326.167078338
 10
203.0113289603
 20
326.5238180389
 10
203.2204509377
 20
326.5938103154
  0
LWPOLYLINE
  5
A0
330
1F
100
AcDbEntity
  8
0
  6
Continuous
 62
     7
370
    25
100
AcDbPolyline
 90
       24
 70
   128
 43
0.0
 10
200.0810336246
 20
322.2069643194
 10
200.0854141244
 20
322.1024650883
 10
200.27958167
 20
321.6487005105
 10
200.7545661994
 20
321.1973438152
 10
201.5006983972
 20
320.7575833231
 10
202.5027891635
 20
320.3383712896
 10
203.7404388202
 20
319.9482416629
 10
205.1884523893
 20
319.595136357
 10
206.8173524903
 20
319.2862435777
 10
208.5939794144
 20
319.0278514913
 10
210.482166161
 20
318.8252202155
 10
212.4434746928
 20
318.6824747387
 10
214.4379784242
 20
318.6025209471
 10
216.4250750108
 20
318.5869864695
 10
218.3643128965
 20
318.636187543
 10
220.2162147901
 20
318.7491225756
 10
221.9430813097
 20
318.9234925357
 10
223.5097584327
 20
319.1557477538
 10
224.8843531308
 20
319.4411601834
 10
226.0388826199
 20
319.7739196505
 10
226.9498440091
 20
320.1472521319
 10
227.5986927515
 20
320.553557655
 10
227.9722201578
 20
320.9845650109
 10
228.067202787
 20
321.3270009018
  0
SPLINE
  5
A1
330
1F
100
AcDbEntity
  8
0
  6
Continuous
 62
     7
370
    25
100
AcDbSpline
210
0.0
220
0.0
230
1.0
 70
     8
 71
     3
 72
    10
 73
     6
 74
     0
 42
0.00000001
 43
0.00000001
 40
0.0
 40
0.0
 40
0.0
 40
0.0
 40
0.3668578601486411
 40
0.7337167950211074
 40
1.0
 40
1.0
 40
1.0
 40
1.0
 10
201.258975825251
 20
360.0317004043253
 30
0.0
 10
201.3483609613264
 20
359.8718632253874
 30
0.0
 10
201.5271314953342
 20
359.5521883992624
 30
0.0
 10
201.7762566850869
 20
359.1129282661805
 30
0.0
 10
201.9370815059282
 20
358.8288455591953
 30
0.0
 10
202.0047202651234
 20
358.7093677217024
 30
0.0
  0
SPLINE
  5
A2
330
1F
100
AcDbEntity
  8
0
  6
Continuous
 62
     7
370
    25
100
AcDbSpline
210
0.0
220
0.0
230
1.0
 70
     8
 71
     3
 72
    10
 73
     6
 74
     0
 42
0.00000001
 43
0.00000001
 40
0.0
 40
0.0
 40
0.0
 40
0.0
 40
0.1608069784346703
 40
0.5089015347521174
 40
1.0
 40
1.0
 40
1.0
 40
1.0
 10
202.6836579334048
 20
360.8156780996396
 30
0.0
 10
202.6057262070171
 20
360.7729769611057
 30
0.0
 10
202.3590977612205
 20
360.6378418124503
 30
0.0
 10
201.8818834952332
 20
360.3774639656596
 30
0.0
 10
201.4889321947773
 20
360.1593445755412
 30
0.0
 10
201.258975825251
 20
360.0317004043253
 30
0.0
  0
SPLINE
  5
A3
330
1F
100
AcDbEntity
  8
0
  6
Continuous
 62
     7
370
    25
100
AcDbSpline
210
0.0
220
0.0
230
1.0
 70
     8
 71
     3
 72
    10
 73
     6
 74
     0
 42
0.00000001
 43
0.00000001
 40
0.0
 40
0.0
 40
0.0
 40
0.0
 40
0.0883019659098447
 40
0.4664713673646587
 40
1.0
 40
1.0
 40
1.0
 40
1.0
 10
203.6017725424273
 20
363.2222305142608
 30
0.0
 10
203.558829370152
 20
363.2022688607902
 30
0.0
 10
203.3319741684152
 20
363.0968177568049
 30
0.0
 10
202.8526445892573
 20
362.8732954466258
 30
0.0
 10
202.4223649841792
 20
362.6677737472958
 30
0.0
 10
202.1705639702862
 20
362.5475017853958
 30
0.0
  0
SPLINE
  5
A4
330
1F
100
AcDbEntity
  8
0
  6
Continuous
 62
     7
370
    25
100
AcDbSpline
210
0.0
220
0.0
230
1.0
 70
     8
 71
     3
 72
    10
 73
     6
 74
     0
 42
0.00000001
 43
0.00000001
 40
0.0
 40
0.0
 40
0.0
 40
0.0
 40
0.3477956950567974
 40
0.6955924089941465
 40
1.0
 40
1.0
 40
1.0
 40
1.0
 10
202.1705639702862
 20
362.5475017853958
 30
0.0
 10
202.2455747122596
 20
362.3958672887772
 30
0.0
 10
202.3955964159532
 20
362.0925978513211
 30
0.0
 10
202.6163223721063
 20
361.6510128321165
 30
0.0
 10
202.7624272577756
 20
361.3551418922756
 30
0.0
 10
202.8306197489071
 20
361.2170481088355
 30
0.0
  0
SPLINE
  5
A5
330
1F
100
AcDbEntity
  8
0
  6
Continuous
 62
     7
370
    25
100
AcDbSpline
210
0.0
220
0.0
230
1.0
 70
     8
 71
     3
 72
    10
 73
     6
 74
     0
 42
0.00000001
 43
0.00000001
 40
0.0
 40
0.0
 40
0.0
 40
0.0
 40
0.3582295495756284
 40
0.7164601485980284
 40
1.0
 40
1.0
 40
1.0
 40
1.0
 10
200.6669402815386
 20
357.4172021755779
 30
0.0
 10
200.7719963092711
 20
357.2529282429788
 30
0.0
 10
200.9821086725015
 20
356.9243798965342
 30
0.0
 10
201.281650644908
 20
356.4636771450419
 30
0.0
 10
201.4780705339428
 20
356.1634028381256
 30
0.0
 10
201.5648505751747
 20
356.0307389981085
 30
0.0
  0
SPLINE
  5
A6
330
1F
100
AcDbEntity
  8
0
  6
Continuous
 62
     7
370
    25
100
AcDbSpline
210
0.0
220
0.0
230
1.0
 70
     8
 71
     3
 72
    10
 73
     6
 74
     0
 42
0.00000001
 43
0.00000001
 40
0.0
 40
0.0
 40
0.0
 40
0.0
 40
0.141600025726031
 40
0.4976615640251434
 40
1.0
 40
1.0
 40
1.0
 40
1.0
 10
201.9210991100291
 20
358.2001486664819
 30
0.0
 10
201.8605722836767
 20
358.1622078601686
 30
0.0
 10
201.6478472159124
 20
358.0288626795204
 30
0.0
 10
201.2272803197843
 20
357.7682589592806
 30
0.0
 10
200.8737988050479
 20
357.5468004248338
 30
0.0
 10
200.6669402815386
 20
357.4172021755779
 30
0.0
  0
SPLINE
  5
A7
330
1F
100
AcDbEntity
  8
0
  6
Continuous
 62
     7
370
    25
100
AcDbSpline
210
0.0
220
0.0
230
1.0
 70
     8
 71
     3
 72
    10
 73
     6
 74
     0
 42
0.00000001
 43
0.00000001
 40
0.0
 40
0.0
 40
0.0
 40
0.0
 40
0.1306977309450639
 40
0.491281505922411
 40
1.0
 40
1.0
 40
1.0
 40
1.0
 10
204.9918955123744
 20
365.5165493739077
 30
0.0
 10
204.9202419950328
 20
365.489392645337
 30
0.0
 10
204.6509025990872
 20
365.3873128432497
 30
0.0
 10
204.1096882287073
 20
365.1797424521749
 30
0.0
 10
203.6455952698282
 20
364.9958054779568
 30
0.0
 10
203.3740065721367
 20
364.8881649668708
 30
0.0
  0
SPLINE
  5
A8
330
1F
100
AcDbEntity
  8
0
  6
Continuous
 62
     7
370
    25
100
AcDbSpline
210
0.0
220
0.0
230
1.0
 70
     8
 71
     3
 72
    10
 73
     6
 74
     0
 42
0.00000001
 43
0.00000001
 40
0.0
 40
0.0
 40
0.0
 40
0.0
 40
0.3637463188992365
 40
0.7274937034069577
 40
0.9999999999999999
 40
0.9999999999999999
 40
0.9999999999999999
 40
0.9999999999999999
 10
203.3740065721367
 20
364.8881649668708
 30
0.0
 10
203.4363944226528
 20
364.7481966298707
 30
0.0
 10
203.5611703064525
 20
364.4682595458283
 30
0.0
 10
203.7365121967859
 20
364.0770332890273
 30
0.0
 10
203.8488418496493
 20
363.8196464485715
 30
0.0
 10
203.8969524360532
 20
363.7094081320512
 30
0.0
  0
SPLINE
  5
A9
330
1F
100
AcDbEntity
  8
0
  6
Continuous
 62
     7
370
    25
100
AcDbSpline
210
0.0
220
0.0
230
1.0
 70
     8
 71
     3
 72
    10
 73
     6
 74
     0
 42
0.00000001
 43
0.00000001
 40
0.0
 40
0.0
 40
0.0
 40
0.0
 40
0.3538300558986582
 40
0.7076611483554375
 40
1.0
 40
1.0
 40
1.0
 40
1.0
 10
200.4124460395555
 20
354.7834473048295
 30
0.0
 10
200.5340033517757
 20
354.6186099771145
 30
0.0
 10
200.7771183323228
 20
354.2889348387874
 30
0.0
 10
201.1274774903284
 20
353.8226088237228
 30
0.0
 10
201.3589288981081
 20
353.5183497899675
 30
0.0
 10
201.4636416588602
 20
353.380697555687
 30
0.0
  0
SPLINE
  5
AA
330
1F
100
AcDbEntity
  8
0
  6
Continuous
 62
     7
370
    25
100
AcDbSpline
210
0.0
220
0.0
230
1.0
 70
     8
 71
     3
 72
    10
 73
     6
 74
     0
 42
0.00000001
 43
0.00000001
 40
0.0
 40
0.0
 40
0.0
 40
0.0
 40
0.1076214531539045
 40
0.4777771936689943
 40
1.0
 40
1.0
 40
1.0
 40
1.0
 10
201.4809528714997
 20
355.5198358737443
 30
0.0
 10
201.4416920541196
 20
355.4924099296175
 30
0.0
 10
201.2673966641277
 20
355.3706545524626
 30
0.0
 10
200.9085792810933
 20
355.1249359187723
 30
0.0
 10
200.5956015929756
 20
354.9095133105652
 30
0.0
 10
200.4124460395555
 20
354.7834473048295
 30
0.0
  0
SPLINE
  5
AB
330
1F
100
AcDbEntity
  8
0
  6
Continuous
 62
     7
370
    25
100
AcDbSpline
210
0.0
220
0.0
230
1.0
 70
     8
 71
     3
 72
     9
 73
     5
 74
     0
 42
0.00000001
 43
0.00000001
 40
0.0
 40
0.0
 40
0.0
 40
0.0
 40
0.3520543181333511
 40
1.0
 40
1.0
 40
1.0
 40
1.0
 10
205.0884189545701
 20
366.3630186142964
 30
0.0
 10
205.1079109172202
 20
366.3157437456389
 30
0.0
 10
205.1632772673719
 20
366.1814608630764
 30
0.0
 10
205.2185678318411
 20
366.0408772646024
 30
0.0
 10
205.2543931143368
 20
365.9497867290299
 30
0.0
  0
SPLINE
  5
AC
330
1F
100
AcDbEntity
  8
0
  6
Continuous
 62
     7
370
    25
100
AcDbSpline
210
0.0
220
0.0
230
1.0
 70
     8
 71
     3
 72
    10
 73
     6
 74
     0
 42
0.00000001
 43
0.00000001
 40
0.0
 40
0.0
 40
0.0
 40
0.0
 40
0.3995942986908216
 40
0.7991897680082564
 40
1.0
 40
1.0
 40
1.0
 40
1.0
 10
200.5032257780663
 20
352.210461101072
 30
0.0
 10
200.6416479795327
 20
352.0489471907921
 30
0.0
 10
200.9184927879787
 20
351.7259188970714
 30
0.0
 10
201.2706066977271
 20
351.3229669462428
 30
0.0
 10
201.4867339213924
 20
351.0801401478461
 30
0.0
 10
201.5590193074727
 20
350.9989248868758
 30
0.0
  0
SPLINE
  5
AD
330
1F
100
AcDbEntity
  8
0
  6
Continuous
 62
     7
370
    25
100
AcDbSpline
210
0.0
220
0.0
230
1.0
 70
     8
 71
     3
 72
    10
 73
     6
 74
     0
 42
0.00000001
 43
0.00000001
 40
0.0
 40
0.0
 40
0.0
 40
0.0
 40
0.1465473435275273
 40
0.5005567503714642
 40
1.0
 40
1.0
 40
1.0
 40
1.0
 10
201.478348144106
 20
352.9323654496055
 30
0.0
 10
201.4295699429719
 20
352.8953462744303
 30
0.0
 10
201.2629599092383
 20
352.768901143587
 30
0.0
 10
200.9353334381242
 20
352.5275811855948
 30
0.0
 10
200.6627452599093
 20
352.3275310728432
 30
0.0
 10
200.5032257780663
 20
352.210461101072
 30
0.0
  0
SPLINE
  5
AE
330
1F
100
AcDbEntity
  8
0
  6
Continuous
 62
     7
370
    25
100
AcDbSpline
210
0.0
220
0.0
230
1.0
 70
     8
 71
     3
 72
    10
 73
     6
 74
     0
 42
0.00000001
 43
0.00000001
 40
0.0
 40
0.0
 40
0.0
 40
0.0
 40
0.4596898150535875
 40
0.9193809767857184
 40
1.0
 40
1.0
 40
1.0
 40
1.0
 10
200.936521200654
 20
349.7764224481278
 30
0.0
 10
201.0916515430432
 20
349.6220519925672
 30
0.0
 10
201.4019126822816
 20
349.313310629212
 30
0.0
 10
201.7435370424126
 20
348.9796490954875
 30
0.0
 10
201.9321349860236
 20
348.7999385226497
 30
0.0
 10
201.9602754549944
 20
348.7731241274242
 30
0.0
  0
SPLINE
  5
AF
330
1F
100
AcDbEntity
  8
0
  6
Continuous
 62
     7
370
    25
100
AcDbSpline
210
0.0
220
0.0
230
1.0
 70
     8
 71
     3
 72
    10
 73
     6
 74
     0
 42
0.00000001
 43
0.00000001
 40
0.0
 40
0.0
 40
0.0
 40
0.0
 40
0.0882068073424508
 40
0.4664156802635567
 40
1.0
 40
1.0
 40
1.0
 40
1.0
 10
201.718059893954
 20
350.3742529065445
 30
0.0
 10
201.6945211273837
 20
350.355483515612
 30
0.0
 10
201.5700539784959
 20
350.2562356400377
 30
0.0
 10
201.306959854946
 20
350.0555687504492
 30
0.0
 10
201.0732745786882
 20
349.8794737883858
 30
0.0
 10
200.936521200654
 20
349.7764224481277
 30
0.0
  0
SPLINE
  5
B0
330
1F
100
AcDbEntity
  8
0
  6
Continuous
 62
     7
370
    25
100
AcDbSpline
210
0.0
220
0.0
230
1.0
 70
     8
 71
     3
 72
    10
 73
     6
 74
     0
 42
0.00000001
 43
0.00000001
 40
0.0
 40
0.0
 40
0.0
 40
0.0
 40
0.02922943241439
 40
0.4319019300687577
 40
0.9999999999999999
 40
0.9999999999999999
 40
0.9999999999999999
 40
0.9999999999999999
 10
202.3180397625731
 20
348.0176807825264
 30
0.0
 10
202.3118725436342
 20
348.0127505876196
 30
0.0
 10
202.2207440630989
 20
347.9399007058393
 30
0.0
 10
202.0120128518866
 20
347.7838088443421
 30
0.0
 10
201.8146589724786
 20
347.6396503784045
 30
0.0
 10
201.6991668451638
 20
347.5552883787745
 30
0.0
  0
SPLINE
  5
B1
330
1F
100
AcDbEntity
  8
0
  6
Continuous
 62
     7
370
    25
100
AcDbSpline
210
0.0
220
0.0
230
1.0
 70
     8
 71
     3
 72
    10
 73
     6
 74
     0
 42
0.00000001
 43
0.00000001
 40
0.0
 40
0.0
 40
0.0
 40
0.0
 40
0.466995778603666
 40
0.9339929252888317
 40
1.0
 40
1.0
 40
1.0
 40
1.0
 10
201.6991668451638
 20
347.5552883787745
 30
0.0
 10
201.8702664762306
 20
347.4116531508528
 30
0.0
 10
202.2124662396069
 20
347.1243822742245
 30
0.0
 10
202.5826171767287
 20
346.8197400345892
 30
0.0
 10
202.7838831126264
 20
346.6591686416511
 30
0.0
 10
202.8088078226649
 20
346.639283530981
 30
0.0
  0
SPLINE
  5
B2
330
1F
100
AcDbEntity
  8
0
  6
Continuous
 62
     7
370
    25
100
AcDbSpline
210
0.0
220
0.0
230
1.0
 70
     8
 71
     3
 72
    10
 73
     6
 74
     0
 42
0.00000001
 43
0.00000001
 40
0.0
 40
0.0
 40
0.0
 40
0.0
 40
0.0432688721237366
 40
0.8201796679268237
 40
0.9999999999999999
 40
0.9999999999999999
 40
0.9999999999999999
 40
0.9999999999999999
 10
203.2803036631292
 20
345.9551754850156
 30
0.0
 10
203.2763807054426
 20
345.9522605328327
 30
0.0
 10
203.2020193926829
 20
345.8970063883152
 30
0.0
 10
203.1111828323058
 20
345.83543413584
 30
0.0
 10
203.0267856561145
 20
345.7812519492053
 30
0.0
 10
203.0109229672079
 20
345.7710682533798
 30
0.0
  0
SPLINE
  5
B3
330
1F
100
AcDbEntity
  8
0
  6
Continuous
 62
     7
370
    25
100
AcDbSpline
210
0.0
220
0.0
230
1.0
 70
     8
 71
     3
 72
     9
 73
     5
 74
     0
 42
0.00000001
 43
0.00000001
 40
0.0
 40
0.0
 40
0.0
 40
0.0
 40
0.4920400099183304
 40
1.0
 40
1.0
 40
1.0
 40
1.0
 10
202.7877074288679
 20
345.6008444593783
 30
0.0
 10
202.9667960872795
 20
345.4755940710877
 30
0.0
 10
203.3307678269787
 20
345.221040811666
 30
0.0
 10
203.7007965020264
 20
344.9721105861479
 30
0.0
 10
203.8887562641336
 20
344.8456639912627
 30
0.0
  0
SPLINE
  5
B4
330
1F
100
AcDbEntity
  8
0
  6
Continuous
 62
     7
370
    25
100
AcDbSpline
210
0.0
220
0.0
230
1.0
 70
     8
 71
     3
 72
     9
 73
     5
 74
     0
 42
0.00000001
 43
0.00000001
 40
0.0
 40
0.0
 40
0.0
 40
0.0
 40
0.8587104264803923
 40
0.9999999999999999
 40
0.9999999999999999
 40
0.9999999999999999
 40
0.9999999999999999
 10
204.1535378750303
 20
343.9888772390914
 30
0.0
 10
204.3377290711552
 20
343.8835163419523
 30
0.0
 10
204.5522265204058
 20
343.7608196867236
 30
0.0
 10
204.769732815974
 20
343.6420052950471
 30
0.0
 10
204.8004641877126
 20
343.6252180603191
 30
0.0
  0
LWPOLYLINE
  5
B5
330
1F
100
AcDbEntity
  8
0
  6
Continuous
 62
     7
370
    25
100
AcDbPolyline
 90
        7
 70
   128
 43
0.0
 10
223.5097584327
 20
319.1557477538
 10
224.8843531308
 20
319.4411601834
 10
226.0388826199
 20
319.7739196505
 10
226.9498440091
 20
320.1472521319
 10
227.5986927515
 20
320.553557655
 10
227.9722201578
 20
320.9845650109
 10
228.067202787
 20
321.3270009018
  0
LWPOLYLINE
  5
B6
330
1F
100
AcDbEntity
  8
0
  6
Continuous
 62
     7
370
    25
100
AcDbPolyline
 90
       18
 70
   128
 43
0.0
 10
200.0810336246
 20
322.2069643194
 10
200.0854141244
 20
322.1024650883
 10
200.27958167
 20
321.6487005105
 10
200.7545661994
 20
321.1973438152
 10
201.5006983972
 20
320.7575833231
 10
202.5027891635
 20
320.3383712896
 10
203.7404388202
 20
319.9482416629
 10
205.1884523893
 20
319.595136357
 10
206.8173524903
 20
319.2862435777
 10
208.5939794144
 20
319.0278514913
 10
210.482166161
 20
318.8252202155
 10
212.4434746928
 20
318.6824747387
 10
214.4379784242
 20
318.6025209471
 10
216.4250750108
 20
318.5869864695
 10
218.3643128965
 20
318.636187543
 10
220.2162147901
 20
318.7491225756
 10
221.9430813097
 20
318.9234925357
 10
223.5097584327
 20
319.1557477538
  0
LWPOLYLINE
  5
B7
330
1F
100
AcDbEntity
  8
0
  6
Continuous
 62
     7
370
    25
100
AcDbPolyline
 90
        7
 70
   128
 43
0.0
 10
223.4791386558
 20
318.1819228893
 10
224.8537333539
 20
318.4673353188
 10
226.008262843
 20
318.8000947859
 10
226.9192242323
 20
319.1734272674
 10
227.5680729746
 20
319.5797327904
 10
227.9416003809
 20
320.0107401464
 10
228.0365830101
 20
320.3531760372
  0
LWPOLYLINE
  5
B8
330
1F
100
AcDbEntity
  8
0
  6
Continuous
 62
     7
370
    25
100
AcDbPolyline
 90
       18
 70
   128
 43
0.0
 10
200.0504138477
 20
321.2331394548
 10
200.0547943475
 20
321.1286402238
 10
200.2489618931
 20
320.674875646
 10
200.7239464225
 20
320.2235189507
 10
201.4700786203
 20
319.7837584586
 10
202.4721693866
 20
319.3645464251
 10
203.7098190433
 20
318.9744167983
 10
205.1578326124
 20
318.6213114924
 10
206.7867327134
 20
318.3124187132
 10
208.5633596375
 20
318.0540266268
 10
210.4515463841
 20
317.8513953509
 10
212.4128549159
 20
317.7086498741
 10
214.4073586473
 20
317.6286960826
 10
216.3944552339
 20
317.613161605
 10
218.3336931196
 20
317.6623626785
 10
220.1855950132
 20
317.7752977111
 10
221.9124615328
 20
317.9496676712
 10
223.4791386558
 20
318.1819228893
  0
LWPOLYLINE
  5
B9
330
1F
100
AcDbEntity
  8
0
  6
Continuous
 62
     7
370
    25
100
AcDbPolyline
 90
       21
 70
   128
 43
0.0
 10
163.6261247895
 20
269.7930631497
 10
166.5671412245
 20
269.0272802467
 10
169.706952139
 20
268.3024951127
 10
173.0308550343
 20
267.6221016313
 10
176.5232853815
 20
266.9892858174
 10
180.1678895037
 20
266.4070108982
 10
183.9476011544
 20
265.8780034382
 10
187.8447214314
 20
265.4047405709
 10
191.8410016545
 20
264.9894384002
 10
195.9177288161
 20
264.6340416227
 10
200.0558132075
 20
264.3402144216
 10
204.2358778082
 20
264.1093326741
 10
208.4383490208
 20
263.9424775084
 10
212.6435483268
 20
263.8404302417
 10
216.8317844327
 20
263.8036687211
 10
220.9834454775
 20
263.8323650865
 10
225.0790908664
 20
263.9263849639
 10
229.099542304
 20
264.0852880953
 10
233.0259735988
 20
264.3083303999
 10
236.8399988182
 20
264.5944674584
 10
240.5237583833
 20
264.9423594035
  0
LWPOLYLINE
  5
BA
330
1F
100
AcDbEntity
  8
0
  6
Continuous
 62
     7
370
    25
100
AcDbPolyline
 90
       21
 70
   128
 43
0.0
 10
159.3086372168
 20
287.4179662397
 10
156.9521411186
 20
286.7027652892
 10
154.8394627326
 20
285.945794773
 10
152.9804948988
 20
285.1505992857
 10
151.383942431
 20
284.3209024143
 10
150.0572813551
 20
283.4605893022
 10
149.0067239021
 20
282.5736884567
 10
148.2371894184
 20
281.6643528849
 10
147.7522813308
 20
280.7368406468
 10
147.5542702726
 20
279.7954949167
 10
147.6440834518
 20
278.8447236457
 10
148.0213003084
 20
277.8889789208
 10
148.6841544846
 20
276.9327361179
 10
149.6295420957
 20
275.9804729452
 10
150.853036264
 20
275.0366484758
 10
152.3489078486
 20
274.1056822677
 10
154.1101522723
 20
273.1919336688
 10
156.1285223218
 20
272.2996814035
 10
158.3945667656
 20
271.4331035375
 10
160.8976746106
 20
270.5962579135
 10
163.6261247895
 20
269.7930631497
  0
SPLINE
  5
BB
330
1F
100
AcDbEntity
  8
0
  6
Continuous
 62
     7
370
    25
100
AcDbSpline
210
0.0
220
0.0
230
1.0
 70
     8
 71
     3
 72
     9
 73
     5
 74
     0
 42
0.00000001
 43
0.00000001
 40
0.0
 40
0.0
 40
0.0
 40
0.0
 40
0.5053183786747871
 40
0.9999999999999999
 40
0.9999999999999999
 40
0.9999999999999999
 40
0.9999999999999999
 10
266.962918645806
 20
287.9804726267673
 30
0.0
 10
265.5090839457434
 20
288.3624183141608
 30
0.0
 10
262.6320172064032
 20
289.1182698792575
 30
0.0
 10
259.2638091836942
 20
289.7599858613963
 30
0.0
 10
257.5976185780599
 20
290.0774309638711
 30
0.0
  0
SPLINE
  5
BC
330
1F
100
AcDbEntity
  8
0
  6
Continuous
 62
     7
370
    25
100
AcDbSpline
210
0.0
220
0.0
230
1.0
 70
     8
 71
     3
 72
    10
 73
     6
 74
     0
 42
0.00000001
 43
0.00000001
 40
0.0
 40
0.0
 40
0.0
 40
0.0
 40
0.1300248765699605
 40
0.5754193069914124
 40
1.0
 40
1.0
 40
1.0
 40
1.0
 10
170.9535512332301
 20
289.9781422788055
 30
0.0
 10
170.3819070593118
 20
289.8841267640849
 30
0.0
 10
167.8521211977211
 20
289.4680652860503
 30
0.0
 10
163.9009950580448
 20
288.6209494334035
 30
0.0
 10
160.8148113423223
 20
287.812513490218
 30
0.0
 10
159.3086372167828
 20
287.4179662396513
 30
0.0
  0
SPLINE
  5
BD
330
1F
100
AcDbEntity
  8
0
  6
Continuous
 62
     7
370
    25
100
AcDbSpline
210
0.0
220
0.0
230
1.0
 70
     8
 71
     3
 72
    38
 73
    34
 74
     0
 42
0.00000001
 43
0.00000001
 40
0.0
 40
0.0
 40
0.0
 40
0.0
 40
0.0625
 40
0.0625
 40
0.125
 40
0.125
 40
0.1875000000000001
 40
0.1875000000000001
 40
0.25
 40
0.25
 40
0.3125
 40
0.3125
 40
0.3749999999999999
 40
0.3749999999999999
 40
0.4375
 40
0.4375
 40
0.5
 40
0.5
 40
0.5625
 40
0.5625
 40
0.625
 40
0.625
 40
0.6875
 40
0.6875
 40
0.75
 40
0.75
 40
0.8125000000000001
 40
0.8125000000000001
 40
0.8750000000000001
 40
0.8750000000000001
 40
0.9375000000000001
 40
0.9375000000000001
 40
1.0
 40
1.0
 40
1.0
 40
1.0
 10
240.5237583832657
 20
264.9423594034997
 30
0.0
 10
242.5733493508232
 20
265.156944574451
 30
0.0
 10
244.6273882311846
 20
265.3984170534004
 30
0.0
 10
248.7054182528937
 20
265.9383079910223
 30
0.0
 10
250.7293667590276
 20
266.2367437828982
 30
0.0
 10
254.7020102616191
 20
266.8920582516511
 30
0.0
 10
256.650631118044
 20
267.2489520992736
 30
0.0
 10
260.4229226641521
 20
268.0204731259033
 30
0.0
 10
262.2464893378537
 20
268.435110313794
 30
0.0
 10
265.7171698607098
 20
269.3188123446056
 30
0.0
 10
267.3641582104042
 20
269.7878791193053
 30
0.0
 10
270.4318560604399
 20
270.7743485183786
 30
0.0
 10
271.8524337749963
 20
271.2917429842302
 30
0.0
 10
274.4230855809248
 20
272.3660767117375
 30
0.0
 10
275.5730413481507
 20
272.922997406009
 30
0.0
 10
277.5676569931227
 20
274.0652949196135
 30
0.0
 10
278.4122319210758
 20
274.6506445704063
 30
0.0
 10
279.7738504054431
 20
275.8371089096007
 30
0.0
 10
280.29085720332
 20
276.4381915679627
 30
0.0
 10
280.9895367168847
 20
277.6427325390117
 30
0.0
 10
281.1712264056563
 20
278.2461587878307
 30
0.0
 10
281.2062099063954
 20
279.4422799695363
 30
0.0
 10
281.0595692893109
 20
280.0349475026076
 30
0.0
 10
280.4583032864195
 20
281.1976362306361
 30
0.0
 10
280.0037781696095
 20
281.7676381215436
 30
0.0
 10
278.8180788608483
 20
282.8749848003213
 30
0.0
 10
278.0870212582914
 20
283.4123198925087
 30
0.0
 10
276.3871909061503
 20
284.4466654351394
 30
0.0
 10
275.4185330776215
 20
284.94367537898
 30
0.0
 10
273.2864940801194
 20
285.8921960761869
 30
0.0
 10
272.1232123065815
 20
286.3437136654377
 30
0.0
 10
269.6457113367389
 20
287.1984649610744
 30
0.0
 10
268.3315680268166
 20
287.6017103081039
 30
0.0
 10
266.962918645806
 20
287.9804726267673
 30
0.0
  0
LWPOLYLINE
  5
BE
330
1F
100
AcDbEntity
  8
0
  6
Continuous
 62
     7
370
    25
100
AcDbPolyline
 90
       14
 70
   128
 43
0.0
 10
269.4202752968
 20
273.7663885777
 10
268.5065701357
 20
273.9706957555
 10
267.4314819529
 20
274.1253798381
 10
266.2574909658
 20
274.2214511489
 10
265.0528252633
 20
274.2533263725
 10
263.8874956373
 20
274.2191530367
 10
262.8292268097
 20
274.1209171717
 10
261.9395215183
 20
273.9643278887
 10
261.2700862006
 20
273.7584855879
 10
260.859826004
 20
273.5153530754
 10
260.7325837599
 20
273.2490603292
 10
260.8957543249
 20
272.9750833158
 10
261.339854819
 20
272.7093445832
 10
262.0390757356
 20
272.4672879008
  0
LWPOLYLINE
  5
BF
330
1F
100
AcDbEntity
  8
0
  6
Continuous
 62
     7
370
    25
100
AcDbPolyline
 90
       14
 70
   128
 43
0.0
 10
262.0390757356
 20
272.4672879008
 10
262.9527808967
 20
272.262980723
 10
264.0278690795
 20
272.1082966404
 10
265.2018600666
 20
272.0122253296
 10
266.4065257691
 20
271.980350106
 10
267.5718553951
 20
272.0145234418
 10
268.6301242226
 20
272.1127593068
 10
269.519829514
 20
272.2693485897
 10
270.1892648317
 20
272.4751908906
 10
270.5995250284
 20
272.718323403
 10
270.7267672725
 20
272.9846161492
 10
270.5635967075
 20
273.2585931627
 10
270.1194962134
 20
273.5243318953
 10
269.4202752968
 20
273.7663885777
  0
LWPOLYLINE
  5
C0
330
1F
100
AcDbEntity
  8
0
  6
Continuous
 62
     7
370
    25
100
AcDbPolyline
 90
       14
 70
   128
 43
0.0
 10
163.3840247701
 20
284.3970352333
 10
162.470319609
 20
284.6013424111
 10
161.3952314262
 20
284.7560264937
 10
160.2212404391
 20
284.8520978045
 10
159.0165747367
 20
284.8839730281
 10
157.8512451106
 20
284.8497996923
 10
156.7929762831
 20
284.7515638273
 10
155.9032709917
 20
284.5949745444
 10
155.233835674
 20
284.3891322435
 10
154.8235754774
 20
284.1459997311
 10
154.6963332332
 20
283.8797069849
 10
154.8595037982
 20
283.6057299714
 10
155.3036042923
 20
283.3399912388
 10
156.002825209
 20
283.0979345564
  0
LWPOLYLINE
  5
C1
330
1F
100
AcDbEntity
  8
0
  6
Continuous
 62
     7
370
    25
100
AcDbPolyline
 90
       14
 70
   128
 43
0.0
 10
156.002825209
 20
283.0979345564
 10
156.9165303701
 20
282.8936273786
 10
157.9916185529
 20
282.738943296
 10
159.16560954
 20
282.6428719852
 10
160.3702752424
 20
282.6109967616
 10
161.5356048685
 20
282.6451700974
 10
162.593873696
 20
282.7434059624
 10
163.4835789874
 20
282.8999952454
 10
164.1530143051
 20
283.1058375462
 10
164.5632745017
 20
283.3489700587
 10
164.6905167459
 20
283.6152628049
 10
164.5273461809
 20
283.8892398183
 10
164.0832456868
 20
284.1549785509
 10
163.3840247701
 20
284.3970352333
  0
LWPOLYLINE
  5
C2
330
1F
100
AcDbEntity
  8
0
  6
Continuous
 62
     7
370
    25
100
AcDbPolyline
 90
       14
 70
   128
 43
0.0
 10
228.0855577543
 20
266.4914247869
 10
227.1718525931
 20
266.6957319647
 10
226.0967644103
 20
266.8504160473
 10
224.9227734233
 20
266.9464873581
 10
223.7181077208
 20
266.9783625816
 10
222.5527780948
 20
266.9441892459
 10
221.4945092672
 20
266.8459533808
 10
220.6048039758
 20
266.6893640979
 10
219.9353686581
 20
266.4835217971
 10
219.5251084615
 20
266.2403892846
 10
219.3978662173
 20
265.9740965384
 10
219.5610367824
 20
265.700119525
 10
220.0051372764
 20
265.4343807924
 10
220.7043581931
 20
265.1923241099
  0
LWPOLYLINE
  5
C3
330
1F
100
AcDbEntity
  8
0
  6
Continuous
 62
     7
370
    25
100
AcDbPolyline
 90
       14
 70
   128
 43
0.0
 10
220.7043581931
 20
265.1923241099
 10
221.6180633542
 20
264.9880169321
 10
222.693151537
 20
264.8333328495
 10
223.8671425241
 20
264.7372615388
 10
225.0718082266
 20
264.7053863152
 10
226.2371378526
 20
264.739559651
 10
227.2954066801
 20
264.837795516
 10
228.1851119715
 20
264.9943847989
 10
228.8545472892
 20
265.2002270998
 10
229.2648074858
 20
265.4433596122
 10
229.39204973
 20
265.7096523584
 10
229.228879165
 20
265.9836293719
 10
228.7847786709
 20
266.2493681044
 10
228.0855577543
 20
266.4914247869
  0
LWPOLYLINE
  5
C4
330
1F
100
AcDbEntity
  8
0
  6
Continuous
 62
     7
370
    25
100
AcDbPolyline
 90
       21
 70
   128
 43
0.0
 10
163.5801951242
 20
268.3323258529
 10
166.5212115591
 20
267.5665429499
 10
169.6610224736
 20
266.841757816
 10
172.984925369
 20
266.1613643345
 10
176.4773557161
 20
265.5285485206
 10
180.1219598384
 20
264.9462736014
 10
183.901671489
 20
264.4172661414
 10
187.7987917661
 20
263.9440032741
 10
191.7950719891
 20
263.5287011035
 10
195.8717991507
 20
263.173304326
 10
200.0098835422
 20
262.8794771249
 10
204.1899481428
 20
262.6485953773
 10
208.3924193555
 20
262.4817402116
 10
212.5976186614
 20
262.3796929449
 10
216.7858547674
 20
262.3429314244
 10
220.9375158122
 20
262.3716277897
 10
225.0331612011
 20
262.4656476671
 10
229.0536126387
 20
262.6245507985
 10
232.9800439334
 20
262.8475931031
 10
236.7940691528
 20
263.1337301616
 10
240.4778287179
 20
263.4816221067
  0
LINE
  5
C5
330
1F
100
AcDbEntity
  8
0
  6
Continuous
 62
     7
370
    25
100
AcDbLine
 10
259.0749511793
 20
279.7788859323
 30
0.0
 11
259.0511905175
 21
279.8250052698
 31
0.0
  0
SPLINE
  5
C6
330
1F
100
AcDbEntity
  8
0
  6
Continuous
 62
     7
370
    25
100
AcDbSpline
210
0.0
220
0.0
230
1.0
 70
     8
 71
     3
 72
    18
 73
    14
 74
     0
 42
0.00000001
 43
0.00000001
 40
0.0
 40
0.0
 40
0.0
 40
0.0
 40
0.0901851172833612
 40
0.1847829487110847
 40
0.2832421739351682
 40
0.3848207799361337
 40
0.4886067893328166
 40
0.5916856291625519
 40
0.6948509437857173
 40
0.7970755037599906
 40
0.8974201458208191
 40
0.9970556554208746
 40
1.0
 40
1.0
 40
1.0
 40
1.0
 10
240.4778287179214
 20
263.4816221067061
 30
0.0
 10
242.5577750974163
 20
263.7156173630469
 30
0.0
 10
246.8194386261826
 20
264.1950571503813
 30
0.0
 10
252.8649827891848
 20
265.1028630914756
 30
0.0
 10
258.7032951352365
 20
266.1749553156312
 30
0.0
 10
264.1537665690408
 20
267.4221738754798
 30
0.0
 10
269.0424046944682
 20
268.822134640397
 30
0.0
 10
273.2378144091966
 20
270.3549117385386
 30
0.0
 10
276.6188599078161
 20
271.9928101302251
 30
0.0
 10
279.1538494227459
 20
273.7130593069867
 30
0.0
 10
280.6347846585147
 20
275.4952155648083
 30
0.0
 10
281.2797193926616
 20
276.724386049052
 30
0.0
 10
281.13234175346
 20
277.3583305167703
 30
0.0
 10
281.1281115802302
 20
277.3765265940793
 30
0.0
  0
LINE
  5
C7
330
1F
100
AcDbEntity
  8
0
  6
Continuous
 62
     7
370
    25
100
AcDbLine
 10
228.1745657213
 20
264.9919422848
 30
0.0
 11
228.0396280889
 21
265.0306874901
 31
0.0
  0
ARC
  5
C8
330
1F
100
AcDbEntity
  8
0
  6
Continuous
 62
     7
370
    25
100
AcDbCircle
 10
223.8393701836
 20
247.7899944946
 30
0.0
 40
17.74496157886172
100
AcDbArc
 50
76.3080620914
 51
100.6188558411
  0
LWPOLYLINE
  5
C9
330
1F
100
AcDbEntity
  8
0
  6
Continuous
 62
     7
370
    25
100
AcDbPolyline
 90
       12
 70
   128
 43
0.0
 10
147.5047920896
 20
278.254669815
 10
147.5981537864
 20
277.3839863489
 10
147.975370643
 20
276.428241624
 10
148.6382248193
 20
275.4719988211
 10
149.5836124304
 20
274.5197356484
 10
150.8071065987
 20
273.575911179
 10
152.3029781832
 20
272.6449449709
 10
154.064222607
 20
271.731196372
 10
156.0825926564
 20
270.8389441067
 10
158.3486371002
 20
269.9723662407
 10
160.8517449453
 20
269.1355206167
 10
163.5801951242
 20
268.3323258529
  0
LWPOLYLINE
  5
CA
330
1F
100
AcDbEntity
  8
0
  6
Continuous
 62
     7
370
    25
100
AcDbPolyline
 90
       15
 70
   128
 43
0.0
 10
229.6324068162
 20
316.0224197075
 10
231.4475660979
 20
316.3863083794
 10
233.0436801285
 20
316.7999227952
 10
234.400676848
 20
317.2580615139
 10
235.5014912353
 20
317.7549631751
 10
236.3322799108
 20
318.2843789521
 10
236.8825952248
 20
318.8396511344
 10
237.145516643
 20
319.4137968522
 10
237.117737776
 20
319.9995958898
 10
236.7996079591
 20
320.5896814845
 10
236.1951278595
 20
321.1766329676
 10
235.3118991649
 20
321.7530690836
 10
234.1610289889
 20
322.311740814
 10
232.7569901915
 20
322.8456225374
 10
231.1174393754
 20
323.3480003816
  0
ARC
  5
CB
330
1F
100
AcDbEntity
  8
0
  6
Continuous
 62
     7
370
    25
100
AcDbCircle
 10
216.6337096049
 20
400.16998618
 30
0.0
 40
85.1456344884242
100
AcDbArc
 50
256.6274621567
 51
278.7813573442
  0
LWPOLYLINE
  5
CC
330
1F
100
AcDbEntity
  8
0
  6
Continuous
 62
     7
370
    25
100
AcDbPolyline
 90
       15
 70
   128
 43
0.0
 10
198.4261218413
 20
324.6584992016
 10
196.6109625596
 20
324.2946105298
 10
195.014848529
 20
323.8809961139
 10
193.6578518095
 20
323.4228573952
 10
192.5570374222
 20
322.9259557341
 10
191.7262487467
 20
322.396539957
 10
191.1759334326
 20
321.8412677747
 10
190.9130120145
 20
321.267122057
 10
190.9407908815
 20
320.6813230193
 10
191.2589206983
 20
320.0912374246
 10
191.863400798
 20
319.5042859415
 10
192.7466294925
 20
318.9278498255
 10
193.8974996686
 20
318.3691780952
 10
195.3015384659
 20
317.8352963717
 10
196.9410892821
 20
317.3329185276
  0
LINE
  5
CD
330
1F
100
AcDbEntity
  8
0
  6
Continuous
 62
     7
370
    25
100
AcDbLine
 10
269.5092832638
 20
272.2669060756
 30
0.0
 11
269.3743456314
 21
272.3056512809
 31
0.0
  0
ARC
  5
CE
330
1F
100
AcDbEntity
  8
0
  6
Continuous
 62
     7
370
    25
100
AcDbCircle
 10
265.1740877261
 20
255.0649582854
 30
0.0
 40
17.74496157886172
100
AcDbArc
 50
76.3080620914
 51
100.6188558411
  0
LINE
  5
CF
330
1F
100
AcDbEntity
  8
0
  6
Continuous
 62
     7
370
    25
100
AcDbLine
 10
163.4730327371
 20
282.8975527312
 30
0.0
 11
163.3380951048
 21
282.9362979365
 31
0.0
  0
ARC
  5
D0
330
1F
100
AcDbEntity
  8
0
  6
Continuous
 62
     7
370
    25
100
AcDbCircle
 10
159.1378371995
 20
265.6956049411
 30
0.0
 40
17.74496157886157
100
AcDbArc
 50
76.3080620914
 51
100.6188558411
  0
ARC
  5
D1
330
1F
100
AcDbEntity
  8
0
  6
Continuous
 62
     7
370
    25
100
AcDbCircle
 10
253.6186767338
 20
291.0133806199
 30
0.0
 40
4.018700596843586
100
AcDbArc
 50
353.7133349562
 51
64.2992539277
  0
LINE
  5
D2
330
1F
100
AcDbEntity
  8
0
  6
Continuous
 62
     7
370
    25
100
AcDbLine
 10
257.3756632996
 20
283.0184125491
 30
0.0
 11
257.6132107459
 21
290.5733209499
 31
0.0
  0
LINE
  5
D3
330
1F
100
AcDbEntity
  8
0
  6
Continuous
 62
     7
370
    25
100
AcDbLine
 10
255.3614699083
 20
294.6345166899
 30
0.0
 11
250.5877336838
 21
295.9556084364
 31
0.0
  0
ARC
  5
D4
330
1F
100
AcDbEntity
  8
0
  6
Continuous
 62
     7
370
    25
100
AcDbCircle
 10
204.2958039168
 20
424.8623630666
 30
0.0
 40
17.24896241251896
100
AcDbArc
 50
74.0740090061
 51
99.7305940934
  0
LWPOLYLINE
  5
D5
330
1F
100
AcDbEntity
  8
0
  6
Continuous
 62
     7
370
    25
100
AcDbPolyline
 90
       34
 70
   128
 43
0.0
 10
214.3807399998
 20
367.9984791462
 10
216.3636187753
 20
368.47567092
 10
218.3812349352
 20
369.2396288706
 10
220.3211080629
 20
370.2678319502
 10
222.1688760164
 20
371.5526677029
 10
223.9108585684
 20
373.0846236544
 10
225.5341586893
 20
374.8523577386
 10
227.0267580332
 20
376.8427822711
 10
228.3776059166
 20
379.0411608448
 10
229.5767011345
 20
381.4312174341
 10
230.6151660053
 20
383.9952568961
 10
231.4853120985
 20
386.7142959796
 10
232.180697157
 20
389.5682038708
 10
232.6961727928
 20
392.535851234
 10
233.027922605
 20
395.5952666464
 10
233.1734904338
 20
398.7237992667
 10
233.131798546
 20
401.898286534
 10
232.9031556138
 20
405.0952256552
 10
232.4892544295
 20
408.2909476116
 10
231.8931593725
 20
411.4617923958
 10
231.1192837222
 20
414.5842841825
 10
230.1733569831
 20
417.635305135
 10
229.0623824658
 20
420.5922665615
 10
227.794585437
 20
423.4332761543
 10
226.3793522222
 20
426.1373000722
 10
224.8271607132
 20
428.6843186683
 10
223.1495027927
 20
431.055474708
 10
221.358799253
 20
433.2332129816
 10
219.4683078366
 20
435.2014102767
 10
217.4920250806
 20
436.9454947493
 10
215.444582691
 20
438.4525538082
 10
213.341139215
 20
439.7114297152
 10
211.197267812
 20
440.7128021937
 10
209.028840956
 20
441.4492574321
  0
SPLINE
  5
D6
330
1F
100
AcDbEntity
  8
0
  6
Continuous
 62
     7
370
    25
100
AcDbSpline
210
0.0
220
0.0
230
1.0
 70
     8
 71
     3
 72
     9
 73
     5
 74
     0
 42
0.00000001
 43
0.00000001
 40
0.0
 40
0.0
 40
0.0
 40
0.0
 40
0.8836954264965816
 40
1.0
 40
1.0
 40
1.0
 40
1.0
 10
225.5268123098535
 20
369.986062298368
 30
0.0
 10
225.8655207427667
 20
370.0333023942929
 30
0.0
 10
226.2488071361973
 20
370.0867598350677
 30
0.0
 10
226.3503924889789
 20
370.1058172796869
 30
0.0
 10
226.3622073301083
 20
370.1080337476554
 30
0.0
  0
LINE
  5
D7
330
1F
100
AcDbEntity
  8
0
  6
Continuous
 62
     7
370
    25
100
AcDbLine
 10
222.7427034555
 20
369.4960555363
 30
0.0
 11
225.5268123099
 21
369.9860622984
 31
0.0
  0
SPLINE
  5
D8
330
1F
100
AcDbEntity
  8
0
  6
Continuous
 62
     7
370
    25
100
AcDbSpline
210
0.0
220
0.0
230
1.0
 70
     8
 71
     3
 72
     9
 73
     5
 74
     0
 42
0.00000001
 43
0.00000001
 40
0.0
 40
0.0
 40
0.0
 40
0.0
 40
0.7208624059351174
 40
1.0
 40
1.0
 40
1.0
 40
1.0
 10
220.1736687450307
 20
369.0222556232113
 30
0.0
 10
220.8119348508881
 20
369.137239090742
 30
0.0
 10
221.697355009579
 20
369.2967472945045
 30
0.0
 10
222.5145840948132
 20
369.4525618391529
 30
0.0
 10
222.7427034554653
 20
369.4960555362663
 30
0.0
  0
ARC
  5
D9
330
1F
100
AcDbEntity
  8
0
  6
Continuous
 62
     7
370
    25
100
AcDbCircle
 10
224.59410271
 20
428.4348899281
 30
0.0
 40
17.24896241252005
100
AcDbArc
 50
74.0740090061
 51
99.7305940934
  0
ARC
  5
DA
330
1F
100
AcDbEntity
  8
0
  6
Continuous
 62
     7
370
    25
100
AcDbCircle
 10
230.4286166476
 20
391.1539946144
 30
0.0
 40
20.03895035136022
100
AcDbArc
 50
282.2459164599
 51
329.1373281089
  0
LINE
  5
DB
330
1F
100
AcDbEntity
  8
0
  6
Continuous
 62
     7
370
    25
100
AcDbLine
 10
224.6257626568
 20
369.6223433411
 30
0.0
 11
230.3532931494
 21
368.2194260974
 31
0.0
  0
LINE
  5
DC
330
1F
100
AcDbEntity
  8
0
  6
Continuous
 62
     7
370
    25
100
AcDbLine
 10
209.4374802294
 20
367.1284590281
 30
0.0
 11
215.5908940271
 21
365.6212247435
 31
0.0
  0
ARC
  5
DD
330
1F
100
AcDbEntity
  8
0
  6
Continuous
 62
     7
370
    25
100
AcDbCircle
 10
227.1597916526
 20
355.4940599245
 30
0.0
 40
15.37526778758048
100
AcDbArc
 50
119.0541310149
 51
138.8017929499
  0
ARC
  5
DE
330
1F
100
AcDbEntity
  8
0
  6
Continuous
 62
     7
370
    25
100
AcDbCircle
 10
224.6598415361
 20
361.4414761847
 30
0.0
 40
8.85189224363731
100
AcDbArc
 50
49.9698711417
 51
78.5633166265
  0
LINE
  5
DF
330
1F
100
AcDbEntity
  8
0
  6
Continuous
 62
     7
370
    25
100
AcDbLine
 10
215.6727917324
 20
368.2258819235
 30
0.0
 11
215.5908940271
 21
365.6212247435
 31
0.0
  0
LWPOLYLINE
  5
E0
330
1F
100
AcDbEntity
  8
0
  6
Continuous
 62
     7
370
    25
100
AcDbPolyline
 90
       16
 70
   128
 43
0.0
 10
204.8459579421
 20
342.6454965273
 10
204.7036848792
 20
342.7497213006
 10
203.5075053194
 20
343.8155993769
 10
202.4580780693
 20
345.1116371408
 10
201.5740288905
 20
346.6148318633
 10
200.8710483318
 20
348.2985040899
 10
200.3616132449
 20
350.1327711608
 10
200.0547653394
 20
352.085077583
 10
199.9559507062
 20
354.1207728423
 10
200.0669231568
 20
356.2037263972
 10
200.3857130965
 20
358.2969689425
 10
200.9066624814
 20
360.3633485585
 10
201.6205252404
 20
362.3661901025
 10
202.5146313788
 20
364.2699461374
 10
203.573111852
 20
366.0408278455
 10
203.615457777
 20
366.1037755405
  0
ARC
  5
E1
330
1F
100
AcDbEntity
  8
0
  6
Continuous
 62
     7
370
    25
100
AcDbCircle
 10
219.6782535024
 20
355.1308865559
 30
0.0
 40
19.07829614643369
100
AcDbArc
 50
144.5527155633
 51
149.0476052464
  0
ARC
  5
E2
330
1F
100
AcDbEntity
  8
0
  6
Continuous
 62
     7
370
    25
100
AcDbCircle
 10
220.846284471
 20
354.4408536586
 30
0.0
 40
20.43489721601929
100
AcDbArc
 50
149.072782526
 51
156.5076568618
  0
ARC
  5
E3
330
1F
100
AcDbEntity
  8
0
  6
Continuous
 62
     7
370
    25
100
AcDbCircle
 10
221.796584652
 20
354.0189140888
 30
0.0
 40
21.47462804840319
100
AcDbArc
 50
156.4859079199
 51
163.6786266374
  0
ARC
  5
E4
330
1F
100
AcDbEntity
  8
0
  6
Continuous
 62
     7
370
    25
100
AcDbCircle
 10
221.905972319
 20
353.9785912207
 30
0.0
 40
21.59094063949378
100
AcDbArc
 50
163.6575105509
 51
170.8243533438
  0
ARC
  5
E5
330
1F
100
AcDbEntity
  8
0
  6
Continuous
 62
     7
370
    25
100
AcDbCircle
 10
221.0892276709
 20
354.1026231666
 30
0.0
 40
20.7648700784993
100
AcDbArc
 50
170.8028461015
 51
178.1586806704
  0
ARC
  5
E6
330
1F
100
AcDbEntity
  8
0
  6
Continuous
 62
     7
370
    25
100
AcDbCircle
 10
219.4549536999
 20
354.1475511133
 30
0.0
 40
19.12999787529941
100
AcDbArc
 50
178.1358970943
 51
185.9054299833
  0
ARC
  5
E7
330
1F
100
AcDbEntity
  8
0
  6
Continuous
 62
     7
370
    25
100
AcDbCircle
 10
217.2798257892
 20
353.9153414805
 30
0.0
 40
16.94252343055505
100
AcDbArc
 50
185.8811307528
 51
194.3064165461
  0
ARC
  5
E8
330
1F
100
AcDbEntity
  8
0
  6
Continuous
 62
     7
370
    25
100
AcDbCircle
 10
214.9393555671
 20
353.3121002281
 30
0.0
 40
14.52557158194279
100
AcDbArc
 50
194.2820169784
 51
203.6186899049
  0
ARC
  5
E9
330
1F
100
AcDbEntity
  8
0
  6
Continuous
 62
     7
370
    25
100
AcDbCircle
 10
212.8135719449
 20
352.3779751464
 30
0.0
 40
12.20360585552351
100
AcDbArc
 50
203.5990434141
 51
214.0866907055
  0
ARC
  5
EA
330
1F
100
AcDbEntity
  8
0
  6
Continuous
 62
     7
370
    25
100
AcDbCircle
 10
211.1927006301
 20
351.2800897065
 30
0.0
 40
10.24590940187721
100
AcDbArc
 50
214.0819571585
 51
225.86795087
  0
ARC
  5
EB
330
1F
100
AcDbEntity
  8
0
  6
Continuous
 62
     7
370
    25
100
AcDbCircle
 10
210.3536475116
 20
350.4396725713
 30
0.0
 40
9.058482243491651
100
AcDbArc
 50
225.9756348376
 51
233.2955040873
  0
LWPOLYLINE
  5
EC
330
1F
100
AcDbEntity
  8
0
  6
Continuous
 62
     7
370
    25
100
AcDbPolyline
 90
       15
 70
   128
 43
0.0
 10
193.4134335128
 20
364.3082060645
 10
192.8435393309
 20
362.6819687618
 10
192.3136184497
 20
360.6117353734
 10
191.9866780891
 20
358.5131266607
 10
191.8685525077
 20
356.4235923458
 10
191.9613496593
 20
354.3804202181
 10
192.2634135764
 20
352.4200707325
 10
192.7693539213
 20
350.5775263722
 10
193.4701421767
 20
348.8856673849
 10
194.3532727594
 20
347.3746850343
 10
195.4029861832
 20
346.0715428361
 10
196.6005502874
 20
344.999495394
 10
197.924594512
 20
344.1776734197
 10
199.3514912566
 20
343.620742346
 10
199.4207800891
 20
343.6012384496
  0
SPLINE
  5
ED
330
1F
100
AcDbEntity
  8
0
  6
Continuous
 62
     7
370
    25
100
AcDbSpline
210
0.0
220
0.0
230
1.0
 70
     8
 71
     3
 72
    10
 73
     6
 74
     0
 42
0.00000001
 43
0.00000001
 40
0.0
 40
0.0
 40
0.0
 40
0.0
 40
0.0278560985264759
 40
0.5138374136149897
 40
1.0
 40
1.0
 40
1.0
 40
1.0
 10
202.7250412831428
 20
361.4304539727313
 30
0.0
 10
202.7189328483555
 20
361.4411997877368
 30
0.0
 10
202.6062558225572
 20
361.6394185650129
 30
0.0
 10
202.3960724079736
 20
362.0238579629123
 30
0.0
 10
202.2021477537169
 20
362.3990929680036
 30
0.0
 10
202.1051673464599
 20
362.5867454547402
 30
0.0
  0
SPLINE
  5
EE
330
1F
100
AcDbEntity
  8
0
  6
Continuous
 62
     7
370
    25
100
AcDbSpline
210
0.0
220
0.0
230
1.0
 70
     8
 71
     3
 72
    10
 73
     6
 74
     0
 42
0.00000001
 43
0.00000001
 40
0.0
 40
0.0
 40
0.0
 40
0.0
 40
0.3836725451425171
 40
0.7997042876071291
 40
1.0
 40
1.0
 40
1.0
 40
1.0
 10
201.1873728067999
 20
360.0538156568294
 30
0.0
 10
201.3745512029325
 20
360.1512345747952
 30
0.0
 10
201.7646947454659
 20
360.3542887869814
 30
0.0
 10
202.2614679385652
 20
360.5976021347749
 30
0.0
 10
202.5731618582344
 20
360.743224451552
 30
0.0
 10
202.6744569655619
 20
360.7905491739041
 30
0.0
  0
SPLINE
  5
EF
330
1F
100
AcDbEntity
  8
0
  6
Continuous
 62
     7
370
    25
100
AcDbSpline
210
0.0
220
0.0
230
1.0
 70
     8
 71
     3
 72
    10
 73
     6
 74
     0
 42
0.00000001
 43
0.00000001
 40
0.0
 40
0.0
 40
0.0
 40
0.0
 40
0.1263960237056625
 40
0.5631165633525996
 40
1.0
 40
1.0
 40
1.0
 40
1.0
 10
202.0077628380939
 20
358.7278957620259
 30
0.0
 10
201.971506035539
 20
358.783481315005
 30
0.0
 10
201.8099755897675
 20
359.0311247506763
 30
0.0
 10
201.5333070281198
 20
359.4716082211422
 30
0.0
 10
201.302698547415
 20
359.8597223882998
 30
0.0
 10
201.1873728067999
 20
360.0538156568294
 30
0.0
  0
SPLINE
  5
F0
330
1F
100
AcDbEntity
  8
0
  6
Continuous
 62
     7
370
    25
100
AcDbSpline
210
0.0
220
0.0
230
1.0
 70
     8
 71
     3
 72
    10
 73
     6
 74
     0
 42
0.00000001
 43
0.00000001
 40
0.0
 40
0.0
 40
0.0
 40
0.0
 40
0.3914044107991039
 40
0.8158201296035561
 40
1.0
 40
1.0
 40
1.0
 40
1.0
 10
200.5913064894328
 20
357.4215170506218
 30
0.0
 10
200.7611222924462
 20
357.5235690794243
 30
0.0
 10
201.1150762761029
 20
357.7362802729286
 30
0.0
 10
201.5589071688826
 20
357.9884444145075
 30
0.0
 10
201.8349858099309
 20
358.1389816452512
 30
0.0
 10
201.9185357554609
 20
358.1845388726453
 30
0.0
  0
SPLINE
  5
F1
330
1F
100
AcDbEntity
  8
0
  6
Continuous
 62
     7
370
    25
100
AcDbSpline
210
0.0
220
0.0
230
1.0
 70
     8
 71
     3
 72
    10
 73
     6
 74
     0
 42
0.00000001
 43
0.00000001
 40
0.0
 40
0.0
 40
0.0
 40
0.0
 40
0.0577003911497539
 40
0.5287623423919969
 40
0.9999999999999999
 40
0.9999999999999999
 40
0.9999999999999999
 40
0.9999999999999999
 10
203.850603411194
 20
363.8152145192691
 30
0.0
 10
203.8396230089998
 20
363.8370791619053
 30
0.0
 10
203.7389993725058
 20
364.0374452153321
 30
0.0
 10
203.5574858081877
 20
364.4130361526717
 30
0.0
 10
203.3970408323816
 20
364.7665531807612
 30
0.0
 10
203.3168033857523
 20
364.9433446541702
 30
0.0
  0
SPLINE
  5
F2
330
1F
100
AcDbEntity
  8
0
  6
Continuous
 62
     7
370
    25
100
AcDbSpline
210
0.0
220
0.0
230
1.0
 70
     8
 71
     3
 72
    10
 73
     6
 74
     0
 42
0.00000001
 43
0.00000001
 40
0.0
 40
0.0
 40
0.0
 40
0.0
 40
0.4150429792307279
 40
0.8650909590325216
 40
1.0
 40
1.0
 40
1.0
 40
1.0
 10
202.1051673464599
 20
362.5867454547402
 30
0.0
 10
202.3083315605072
 20
362.6753546929634
 30
0.0
 10
202.7317949933713
 20
362.8600465314224
 30
0.0
 10
203.2277271721609
 20
363.0627909805478
 30
0.0
 10
203.5220488484837
 20
363.1764656598597
 30
0.0
 10
203.5899284595984
 20
363.2026825295164
 30
0.0
  0
LINE
  5
F3
330
1F
100
AcDbEntity
  8
0
  6
Continuous
 62
     7
370
    25
100
AcDbLine
 10
201.1873728068
 20
360.0538156568
 30
0.0
 11
201.2589758372
 21
360.0317003828
 31
0.0
  0
LINE
  5
F4
330
1F
100
AcDbEntity
  8
0
  6
Continuous
 62
     7
370
    25
100
AcDbLine
 10
200.5913064894
 20
357.4215170506
 30
0.0
 11
200.6669402898
 21
357.4172021624
 31
0.0
  0
LINE
  5
F5
330
1F
100
AcDbEntity
  8
0
  6
Continuous
 62
     7
370
    25
100
AcDbLine
 10
202.1051673465
 20
362.5867454547
 30
0.0
 11
202.1705639873
 21
362.5475017508
 31
0.0
  0
SPLINE
  5
F6
330
1F
100
AcDbEntity
  8
0
  6
Continuous
 62
     7
370
    25
100
AcDbSpline
210
0.0
220
0.0
230
1.0
 70
     8
 71
     3
 72
    10
 73
     6
 74
     0
 42
0.00000001
 43
0.00000001
 40
0.0
 40
0.0
 40
0.0
 40
0.0
 40
0.1469142449558107
 40
0.5733775869477196
 40
1.0
 40
1.0
 40
1.0
 40
1.0
 10
201.5690263055448
 20
356.0561675092488
 30
0.0
 10
201.5191891817122
 20
356.1223304128936
 30
0.0
 10
201.3246846269485
 20
356.3805512957543
 30
0.0
 10
200.9958524980605
 20
356.8337852530598
 30
0.0
 10
200.7261719210164
 20
357.2255820992364
 30
0.0
 10
200.5913064894328
 20
357.4215170506218
 30
0.0
  0
SPLINE
  5
F7
330
1F
100
AcDbEntity
  8
0
  6
Continuous
 62
     7
370
    25
100
AcDbSpline
210
0.0
220
0.0
230
1.0
 70
     8
 71
     3
 72
    10
 73
     6
 74
     0
 42
0.00000001
 43
0.00000001
 40
0.0
 40
0.0
 40
0.0
 40
0.0
 40
0.4064268139652604
 40
0.8471319354011333
 40
1.0
 40
1.0
 40
1.0
 40
1.0
 10
200.3350795677856
 20
354.7698306972553
 30
0.0
 10
200.4866609860445
 20
354.8722323612458
 30
0.0
 10
200.8026083000706
 20
355.0856723135909
 30
0.0
 10
201.186003396742
 20
355.3313348646868
 30
0.0
 10
201.4196363715207
 20
355.4756774893382
 30
0.0
 10
201.4798059033007
 20
355.512851300738
 30
0.0
  0
LINE
  5
F8
330
1F
100
AcDbEntity
  8
0
  6
Continuous
 62
     7
370
    25
100
AcDbLine
 10
230.3532931494
 20
368.2194260974
 30
0.0
 11
230.4351908547
 21
370.8240832774
 31
0.0
  0
LINE
  5
F9
330
1F
100
AcDbEntity
  8
0
  6
Continuous
 62
     7
370
    25
100
AcDbLine
 10
203.3168033858
 20
364.9433446542
 30
0.0
 11
203.3740065979
 21
364.8881649088
 31
0.0
  0
LINE
  5
FA
330
1F
100
AcDbEntity
  8
0
  6
Continuous
 62
     7
370
    25
100
AcDbLine
 10
200.3350795678
 20
354.7698306973
 30
0.0
 11
200.412446045
 21
354.7834472974
 31
0.0
  0
SPLINE
  5
FB
330
1F
100
AcDbEntity
  8
0
  6
Continuous
 62
     7
370
    25
100
AcDbSpline
210
0.0
220
0.0
230
1.0
 70
     8
 71
     3
 72
     9
 73
     5
 74
     0
 42
0.00000001
 43
0.00000001
 40
0.0
 40
0.0
 40
0.0
 40
0.0
 40
0.2799368351634329
 40
1.0
 40
1.0
 40
1.0
 40
1.0
 10
205.2489764853771
 20
365.9634218735616
 30
0.0
 10
205.2320402735432
 20
366.0008372337159
 30
0.0
 10
205.1715401545649
 20
366.1344936713633
 30
0.0
 10
205.1151244458873
 20
366.2659280687938
 30
0.0
 10
205.0745015721504
 20
366.360569136976
 30
0.0
  0
SPLINE
  5
FC
330
1F
100
AcDbEntity
  8
0
  6
Continuous
 62
     7
370
    25
100
AcDbSpline
210
0.0
220
0.0
230
1.0
 70
     8
 71
     3
 72
    10
 73
     6
 74
     0
 42
0.00000001
 43
0.00000001
 40
0.0
 40
0.0
 40
0.0
 40
0.0
 40
0.479011595571065
 40
0.9984233473073668
 40
1.0
 40
1.0
 40
1.0
 40
1.0
 10
203.3168033857523
 20
364.9433446541702
 30
0.0
 10
203.5340807855881
 20
365.0192038357994
 30
0.0
 10
203.9869609054934
 20
365.1773202128279
 30
0.0
 10
204.4441784562044
 20
365.3266449218968
 30
0.0
 10
204.685118452472
 20
365.3997800723333
 30
0.0
 10
204.6858476024696
 20
365.4000013992014
 30
0.0
  0
SPLINE
  5
FD
330
1F
100
AcDbEntity
  8
0
  6
Continuous
 62
     7
370
    25
100
AcDbSpline
210
0.0
220
0.0
230
1.0
 70
     8
 71
     3
 72
     9
 73
     5
 74
     0
 42
0.00000001
 43
0.00000001
 40
0.0
 40
0.0
 40
0.0
 40
0.0
 40
0.4804263900382781
 40
1.0
 40
1.0
 40
1.0
 40
1.0
 10
201.2471207520627
 20
353.6658557148677
 30
0.0
 10
201.0979263416473
 20
353.8406875659492
 30
0.0
 10
200.7873805150461
 20
354.2045973234199
 30
0.0
 10
200.489730605693
 20
354.5765657296425
 30
0.0
 10
200.3350795677856
 20
354.7698306972553
 30
0.0
  0
SPLINE
  5
FE
330
1F
100
AcDbEntity
  8
0
  6
Continuous
 62
     7
370
    25
100
AcDbSpline
210
0.0
220
0.0
230
1.0
 70
     8
 71
     3
 72
    10
 73
     6
 74
     0
 42
0.00000001
 43
0.00000001
 40
0.0
 40
0.0
 40
0.0
 40
0.0
 40
0.4158709680893266
 40
0.8668167698805441
 40
1.0
 40
1.0
 40
1.0
 40
1.0
 10
200.4264773672172
 20
352.1793267447602
 30
0.0
 10
200.5594930455801
 20
352.2777898883954
 30
0.0
 10
200.8367430329782
 20
352.4830206226068
 30
0.0
 10
201.1674405203812
 20
352.7156016341719
 30
0.0
 10
201.3667105523768
 20
352.8513199846355
 30
0.0
 10
201.4121447374239
 20
352.8822641892783
 30
0.0
  0
LINE
  5
FF
330
1F
100
AcDbEntity
  8
0
  6
Continuous
 62
     7
370
    25
100
AcDbLine
 10
200.4264773672
 20
352.1793267448
 30
0.0
 11
200.5182786719
 21
352.2165675693
 31
0.0
  0
SPLINE
  5
100
330
1F
100
AcDbEntity
  8
0
  6
Continuous
 62
     7
370
    25
100
AcDbSpline
210
0.0
220
0.0
230
1.0
 70
     8
 71
     3
 72
    10
 73
     6
 74
     0
 42
0.00000001
 43
0.00000001
 40
0.0
 40
0.0
 40
0.0
 40
0.0
 40
0.0518150058289881
 40
0.5258191010209728
 40
1.0
 40
1.0
 40
1.0
 40
1.0
 10
201.5533421971024
 20
351.0212231684407
 30
0.0
 10
201.5332888986349
 20
351.0407621964143
 30
0.0
 10
201.3297878625169
 20
351.2390444113741
 30
0.0
 10
200.9515707480021
 20
351.6224375284631
 30
0.0
 10
200.6015302509707
 20
351.9936739317342
 30
0.0
 10
200.4264773672172
 20
352.1793267447602
 30
0.0
  0
SPLINE
  5
101
330
1F
100
AcDbEntity
  8
0
  6
Continuous
 62
     7
370
    25
100
AcDbSpline
210
0.0
220
0.0
230
1.0
 70
     8
 71
     3
 72
    10
 73
     6
 74
     0
 42
0.00000001
 43
0.00000001
 40
0.0
 40
0.0
 40
0.0
 40
0.0
 40
0.4159177897034921
 40
0.8669143620760478
 40
1.0
 40
1.0
 40
1.0
 40
1.0
 10
200.8627228118396
 20
349.7287163448799
 30
0.0
 10
200.9773986632481
 20
349.8190678784738
 30
0.0
 10
201.2164222035496
 20
350.0073912540236
 30
0.0
 10
201.5035594620235
 20
350.2224738417846
 30
0.0
 10
201.6774504618131
 20
350.3492463740606
 30
0.0
 10
201.7170722722847
 20
350.378132039523
 30
0.0
  0
LINE
  5
102
330
1F
100
AcDbEntity
  8
0
  6
Continuous
 62
     7
370
    25
100
AcDbLine
 10
200.8627228118
 20
349.7287163449
 30
0.0
 11
200.9928974306
 21
349.8128661988
 31
0.0
  0
SPLINE
  5
103
330
1F
100
AcDbEntity
  8
0
  6
Continuous
 62
     7
370
    25
100
AcDbSpline
210
0.0
220
0.0
230
1.0
 70
     8
 71
     3
 72
     9
 73
     5
 74
     0
 42
0.00000001
 43
0.00000001
 40
0.0
 40
0.0
 40
0.0
 40
0.0
 40
0.4622740274377535
 40
1.0
 40
1.0
 40
1.0
 40
1.0
 10
201.9602754549944
 20
348.7731241274243
 30
0.0
 10
201.788728728032
 20
348.9177083777153
 30
0.0
 10
201.4176355737976
 20
349.2304757877566
 30
0.0
 10
201.0567697421349
 20
349.5544870654572
 30
0.0
 10
200.8627228118396
 20
349.7287163448799
 30
0.0
  0
SPLINE
  5
104
330
1F
100
AcDbEntity
  8
0
  6
Continuous
 62
     7
370
    25
100
AcDbSpline
210
0.0
220
0.0
230
1.0
 70
     8
 71
     3
 72
    10
 73
     6
 74
     0
 42
0.00000001
 43
0.00000001
 40
0.0
 40
0.0
 40
0.0
 40
0.0
 40
0.4408511370032668
 40
0.918883951749155
 40
1.0
 40
1.0
 40
1.0
 40
1.0
 10
201.6305608045697
 20
347.4924600545394
 30
0.0
 10
201.7277230648542
 20
347.5707833794035
 30
0.0
 10
201.9302423149982
 20
347.734035870379
 30
0.0
 10
202.1612495778073
 20
347.9114448476897
 30
0.0
 10
202.2959842085559
 20
348.0128296204683
 30
0.0
 10
202.3155302391967
 20
348.0275375679665
 30
0.0
  0
SPLINE
  5
105
330
1F
100
AcDbEntity
  8
0
  6
Continuous
 62
     7
370
    25
100
AcDbSpline
210
0.0
220
0.0
230
1.0
 70
     8
 71
     3
 72
     9
 73
     5
 74
     0
 42
0.00000001
 43
0.00000001
 40
0.0
 40
0.0
 40
0.0
 40
0.0
 40
0.4539921333681565
 40
1.0
 40
1.0
 40
1.0
 40
1.0
 10
202.8088078226649
 20
346.639283530981
 30
0.0
 10
202.6284866141162
 20
346.765526908764
 30
0.0
 10
202.2312964531083
 20
347.0436008411169
 30
0.0
 10
201.8427242721353
 20
347.3339352068795
 30
0.0
 10
201.6305608045697
 20
347.4924600545394
 30
0.0
  0
SPLINE
  5
106
330
1F
100
AcDbEntity
  8
0
  6
Continuous
 62
     7
370
    25
100
AcDbSpline
210
0.0
220
0.0
230
1.0
 70
     8
 71
     3
 72
     9
 73
     5
 74
     0
 42
0.00000001
 43
0.00000001
 40
0.0
 40
0.0
 40
0.0
 40
0.0
 40
0.5244003785855351
 40
0.9999999999999999
 40
0.9999999999999999
 40
0.9999999999999999
 40
0.9999999999999999
 10
202.7066609765428
 20
345.5385053895243
 30
0.0
 10
202.7872189125493
 20
345.6010284277106
 30
0.0
 10
202.940838054137
 20
345.7202561032415
 30
0.0
 10
203.1068546445997
 20
345.8429134389889
 30
0.0
 10
203.1858120721722
 20
345.9012492214342
 30
0.0
  0
SPLINE
  5
107
330
1F
100
AcDbEntity
  8
0
  6
Continuous
 62
     7
370
    25
100
AcDbSpline
210
0.0
220
0.0
230
1.0
 70
     8
 71
     3
 72
     9
 73
     5
 74
     0
 42
0.00000001
 43
0.00000001
 40
0.0
 40
0.0
 40
0.0
 40
0.0
 40
0.4177998551287307
 40
1.0
 40
1.0
 40
1.0
 40
1.0
 10
203.893084556614
 20
344.8377713629012
 30
0.0
 10
203.7264121007756
 20
344.9326629687262
 30
0.0
 10
203.3274831547925
 20
345.1597851293973
 30
0.0
 10
202.9351041120639
 20
345.3991481842893
 30
0.0
 10
202.7066609765428
 20
345.5385053895243
 30
0.0
  0
SPLINE
  5
108
330
1F
100
AcDbEntity
  8
0
  6
Continuous
 62
     7
370
    25
100
AcDbSpline
210
0.0
220
0.0
230
1.0
 70
     8
 71
     3
 72
     9
 73
     5
 74
     0
 42
0.00000001
 43
0.00000001
 40
0.0
 40
0.0
 40
0.0
 40
0.0
 40
0.66073599041242
 40
1.0
 40
1.0
 40
1.0
 40
1.0
 10
204.058326568566
 20
343.9262222735825
 30
0.0
 10
204.1242210207426
 20
343.9698567607794
 30
0.0
 10
204.2239498884488
 20
344.0358959773956
 30
0.0
 10
204.333201723514
 20
344.106333915739
 30
0.0
 10
204.370266939133
 20
344.1302309731284
 30
0.0
  0
SPLINE
  5
109
330
1F
100
AcDbEntity
  8
0
  6
Continuous
 62
     7
370
    25
100
AcDbSpline
210
0.0
220
0.0
230
1.0
 70
     8
 71
     3
 72
     9
 73
     5
 74
     0
 42
0.00000001
 43
0.00000001
 40
0.0
 40
0.0
 40
0.0
 40
0.0
 40
0.1039902103406244
 40
1.0
 40
1.0
 40
1.0
 40
1.0
 10
204.872700688155
 20
343.5404188998875
 30
0.0
 10
204.8442626468879
 20
343.5532544997317
 30
0.0
 10
204.5707942004457
 20
343.6766853477142
 30
0.0
 10
204.3005067606474
 20
343.8082969708341
 30
0.0
 10
204.058326568566
 20
343.9262222735825
 30
0.0
  0
ARC
  5
10A
330
1F
100
AcDbEntity
  8
0
  6
Continuous
 62
     7
370
    25
100
AcDbCircle
 10
211.0010628301
 20
356.7441873857
 30
0.0
 40
19.40512175005826
100
AcDbArc
 50
176.7605291011
 51
179.6375785352
  0
LWPOLYLINE
  5
10B
330
1F
100
AcDbEntity
  8
0
  6
Continuous
 62
     7
370
    25
100
AcDbPolyline
 90
       71
 70
   128
 43
0.0
 10
138.0851207824
 20
426.2998725561
 10
135.9814302564
 20
426.7446344092
 10
133.8861104073
 20
426.9133521854
 10
131.8160315186
 20
426.8046674683
 10
129.7878606481
 20
426.4194553234
 10
127.8179274353
 20
425.7608172523
 10
125.922092624
 20
424.8340562215
 10
124.1156203614
 20
423.6466339659
 10
122.4130553
 20
422.2081109114
 10
120.8281054926
 20
420.5300691996
 10
119.373532023
 20
418.6260194359
 10
118.0610462617
 20
416.5112919093
 10
116.9012155721
 20
414.2029131625
 10
115.9033782291
 20
411.7194689038
 10
115.0755682322
 20
409.0809543661
 10
114.4244506208
 20
406.3086133171
 10
113.955267811
 20
403.4247670168
 10
113.671797387
 20
400.4526344999
 10
113.5763216858
 20
397.4161456299
 10
113.6696094218
 20
394.3397484297
 10
113.9509094968
 20
391.2482122407
 10
114.4179570482
 20
388.1664282945
 10
115.0669916837
 20
385.1192093034
 10
115.8927877579
 20
382.1310896829
 10
116.8886964465
 20
379.2261280152
 10
118.0466992783
 20
376.4277133437
 10
119.3574726953
 20
373.7583768577
 10
120.8104631208
 20
371.2396104852
 10
122.3939719302
 20
368.891693852
 10
124.0952496416
 20
366.7335310021
 10
125.9005985673
 20
364.782498194
 10
127.7954830992
 20
363.0543039966
 10
129.7646467413
 20
361.5628628135
 10
131.7922349457
 20
360.320182852
 10
133.8619227644
 20
359.3362694405
 10
135.9570462881
 20
358.6190444713
 10
138.0607368141
 20
358.1742826182
 10
140.1560566631
 20
358.005564842
 10
142.2261355519
 20
358.1142495591
 10
144.2543064224
 20
358.4994617041
 10
146.2242396352
 20
359.1580997752
 10
148.1200744465
 20
360.0848608059
 10
149.9265467091
 20
361.2722830615
 10
151.6291117705
 20
362.7108061161
 10
153.2140615779
 20
364.3888478278
 10
154.6686350474
 20
366.2928975915
 10
155.9811208088
 20
368.4076251181
 10
157.1409514983
 20
370.7160038649
 10
158.1387888413
 20
373.1994481237
 10
158.9665988382
 20
375.8379626613
 10
159.6177164496
 20
378.6103037103
 10
160.0868992594
 20
381.4941500106
 10
160.3703696835
 20
384.4662825275
 10
160.4658453847
 20
387.5027713975
 10
160.3725576487
 20
390.5791685977
 10
160.0912575736
 20
393.6707047867
 10
159.6242100222
 20
396.7524887329
 10
158.9751753868
 20
399.799707724
 10
158.1493793126
 20
402.7878273445
 10
157.153470624
 20
405.6927890122
 10
155.9954677922
 20
408.4912036837
 10
154.6846943751
 20
411.1605401697
 10
153.2317039496
 20
413.6793065422
 10
151.6481951402
 20
416.0272231755
 10
149.9469174288
 20
418.1853860253
 10
148.1415685031
 20
420.1364188334
 10
146.2466839712
 20
421.8646130308
 10
144.2775203292
 20
423.356054214
 10
142.2499321248
 20
424.5987341755
 10
140.1802443061
 20
425.5826475869
 10
138.0851207824
 20
426.2998725561
  0
LINE
  5
10C
330
1F
100
AcDbEntity
  8
0
  6
Continuous
 62
     7
370
    25
100
AcDbLine
 10
134.6143255316
 20
427.3048960923
 30
0.0
 11
133.9493615454
 21
427.2029427104
 31
0.0
  0
LINE
  5
10D
330
1F
100
AcDbEntity
  8
0
  6
Continuous
 62
     7
370
    25
100
AcDbLine
 10
145.9962889341
 20
358.7549950385
 30
0.0
 11
146.656103821
 21
358.886204453
 31
0.0
  0
ARC
  5
10E
330
1F
100
AcDbEntity
  8
0
  6
Continuous
 62
     7
370
    25
100
AcDbCircle
 10
107.5954053596
 20
387.2586240288
 30
0.0
 40
54.38932138770523
100
AcDbArc
 50
358.3007854738
 51
26.0658626558
  0
ARC
  5
10F
330
1F
100
AcDbEntity
  8
0
  6
Continuous
 62
     7
370
    25
100
AcDbCircle
 10
132.036004152
 20
406.6923575966
 30
0.0
 40
23.27714091158881
100
AcDbArc
 50
52.4411117766
 51
73.7788118887
  0
LWPOLYLINE
  5
110
330
1F
100
AcDbEntity
  8
0
  6
Continuous
 62
     7
370
    25
100
AcDbPolyline
 90
       15
 70
   128
 43
0.0
 10
156.5142910257
 20
364.4039949534
 10
155.0437028803
 20
362.4459462739
 10
153.4204027593
 20
360.6782121896
 10
151.6784202074
 20
359.1462562382
 10
149.8306522538
 20
357.8614204855
 10
147.8907791261
 20
356.8332174059
 10
145.8731629662
 20
356.0692594553
 10
143.7927414981
 20
355.5752027111
 10
141.6649174347
 20
355.3547049965
 10
139.5054444408
 20
355.4093987995
 10
137.3303104989
 20
355.7388791863
 10
135.1556195397
 20
356.3407067993
 10
132.9974722142
 20
357.2104259176
 10
130.8718466901
 20
358.341597445
 10
129.4930610473
 20
359.228331087
  0
LWPOLYLINE
  5
111
330
1F
100
AcDbEntity
  8
0
  6
Continuous
 62
     7
370
    25
100
AcDbPolyline
 90
       12
 70
   128
 43
0.0
 10
118.0246617856
 20
420.2843345178
 10
118.9732325346
 20
421.6346212567
 10
120.532626086
 20
423.5154419885
 10
122.2168267984
 20
425.1668159886
 10
124.0133654392
 20
426.5765170616
 10
125.9089410647
 20
427.734108274
 10
127.8895194961
 20
428.6310192254
 10
129.9404372239
 20
429.2606095009
 10
132.0465099705
 20
429.6182178345
 10
134.1921451104
 20
429.7011966191
 10
136.3614571115
 20
429.5089315089
 10
138.5383851469
 20
429.0428459674
  0
LWPOLYLINE
  5
112
330
1F
100
AcDbEntity
  8
0
  6
Continuous
 62
     7
370
    25
100
AcDbPolyline
 90
       39
 70
   128
 43
0.0
 10
150.9024237738
 20
356.8262133245
 10
151.8519893858
 20
357.0223632373
 10
153.9029071135
 20
357.6519535128
 10
155.883485545
 20
358.5488644642
 10
157.7790611705
 20
359.7064556766
 10
159.5755998112
 20
361.1161567496
 10
161.2598005237
 20
362.7675307497
 10
162.819194075
 20
364.6483514815
 10
164.242235261
 20
366.7446940065
 10
165.5183883825
 20
369.041037738
 10
166.6382052484
 20
371.5203813504
 10
167.5933951263
 20
374.1643686511
 10
168.3768861246
 20
376.9534244832
 10
168.9828775501
 20
379.866899653
 10
169.4068828542
 20
382.8832238098
 10
169.6457628501
 20
385.9800651448
 10
169.6977489537
 20
389.1344957282
 10
169.5624562783
 20
392.3231612597
 10
169.2408864834
 20
395.5224539753
 10
168.7354203593
 20
398.708687431
 10
168.0498002003
 20
401.8582718692
 10
167.1891020982
 20
404.9478888685
 10
166.1596983607
 20
407.9546639857
 10
164.9692103327
 20
410.8563361097
 10
163.6264519712
 20
413.6314222754
 10
162.1413645894
 20
416.2593767158
 10
160.5249432545
 20
418.7207429755
 10
158.7891553846
 20
420.99729796
 10
156.9468521459
 20
423.0721868527
 10
155.0116733068
 20
424.930047902
 10
152.9979462545
 20
426.5571261549
 10
150.9205799196
 20
427.9413752932
 10
148.7949543955
 20
429.0725468206
 10
146.63680707
 20
429.9422659389
 10
144.4621161108
 20
430.544093552
 10
142.2869821689
 20
430.8735739387
 10
140.127509175
 20
430.9282677417
 10
137.9996851115
 20
430.7077700271
 10
137.902142419
 20
430.6909050568
  0
ARC
  5
113
330
1F
100
AcDbEntity
  8
0
  6
Continuous
 62
     7
370
    25
100
AcDbCircle
 10
109.0912212979
 20
387.5138177287
 30
0.0
 40
51.9434942776568
100
AcDbArc
 50
354.7854812071
 51
28.4659391262
  0
ARC
  5
114
330
1F
100
AcDbEntity
  8
0
  6
Continuous
 62
     7
370
    25
100
AcDbCircle
 10
134.10899414
 20
410.8601886951
 30
0.0
 40
16.42150926819027
100
AcDbArc
 50
74.6536800695
 51
138.3512652485
  0
LWPOLYLINE
  5
115
330
1F
100
AcDbEntity
  8
0
  6
Continuous
 62
     7
370
    25
100
AcDbPolyline
 90
       14
 70
   128
 43
0.0
 10
132.3778116645
 20
359.9188094974
 10
133.1851121185
 20
359.5161858322
 10
135.2608579536
 20
358.6722236308
 10
137.3531927258
 20
358.0931874067
 10
139.4457410787
 20
357.7836089033
 10
141.5221259842
 20
357.7459109923
 10
143.5660969151
 20
357.9803887108
 10
145.5616570277
 20
358.4852069529
 10
147.4931883583
 20
359.2564148313
 10
149.3455740554
 20
360.2879765987
 10
151.1043166894
 20
361.5718188857
 10
152.7556517146
 20
363.0978938857
 10
154.2866551954
 20
364.8542579926
 10
155.6167053619
 20
366.7204838061
  0
LWPOLYLINE
  5
116
330
1F
100
AcDbEntity
  8
0
  6
Continuous
 62
     7
370
    25
100
AcDbPolyline
 90
        3
 70
   128
 43
0.0
 10
143.2742968212
 20
358.2759209033
 10
145.2160617938
 20
358.3868019957
 10
145.2689569997
 20
358.3932696181
  0
LWPOLYLINE
  5
117
330
1F
100
AcDbEntity
  8
0
  6
Continuous
 62
     7
370
    25
100
AcDbPolyline
 90
        3
 70
   128
 43
0.0
 10
133.1422334591
 20
427.2946011809
 10
132.6883028978
 20
427.183412118
 10
131.2273694324
 20
426.7238685752
  0
LWPOLYLINE
  5
118
330
1F
100
AcDbEntity
  8
0
  6
Continuous
 62
     7
370
    25
100
AcDbPolyline
 90
        3
 70
   128
 43
0.0
 10
147.0114547538
 20
430.0498993136
 10
144.833736564
 20
430.5142608016
 10
144.2096203582
 20
430.5963209137
  0
LWPOLYLINE
  5
119
330
1F
100
AcDbEntity
  8
0
  6
Continuous
 62
     7
370
    25
100
AcDbPolyline
 90
       32
 70
   128
 43
0.0
 10
156.7985824424
 20
359.068653307
 10
157.365899922
 20
359.3636073334
 10
159.2537834501
 20
360.5447658555
 10
161.0398731701
 20
361.9806787881
 10
162.7105758606
 20
363.6604179666
 10
164.2531764654
 20
365.5711995618
 10
165.6559348625
 20
367.6984813718
 10
166.9081752135
 20
370.0260734976
 10
168.0003672132
 20
372.5362615578
 10
168.9241986209
 20
375.2099415054
 10
169.6726385218
 20
378.0267650216
 10
170.2399908365
 20
380.9652943788
 10
170.6219376711
 20
384.003165594
 10
170.8155721796
 20
387.1172586331
 10
170.8194206865
 20
390.2838733677
 10
170.6334539024
 20
393.4789099476
 10
170.2590871467
 20
396.6780522152
 10
169.6991695766
 20
399.8569527662
 10
168.9579625028
 20
402.9914182478
 10
168.0411069587
 20
406.0575934852
 10
166.9555807686
 20
409.0321430333
 10
165.7096454422
 20
411.8924287741
 10
164.3127832998
 20
414.616682206
 10
162.7756253057
 20
417.1841701153
 10
161.1098701603
 20
419.5753523688
 10
159.3281952662
 20
421.7720306258
 10
157.444160245
 20
423.7574868382
 10
155.472103741
 20
425.5166104856
 10
153.4270342948
 20
427.0360135746
 10
151.3245161198
 20
428.3041325304
 10
149.1805506489
 20
429.3113162021
 10
147.0114547538
 20
430.0498993136
  0
LWPOLYLINE
  5
11A
330
1F
100
AcDbEntity
  8
0
  6
Continuous
 62
     7
370
    25
100
AcDbPolyline
 90
       39
 70
   128
 43
0.0
 10
214.3807399998
 20
367.9984791462
 10
215.3303056118
 20
368.1946290589
 10
217.3812233395
 20
368.8242193344
 10
219.361801771
 20
369.7211302858
 10
221.2573773965
 20
370.8787214982
 10
223.0539160372
 20
372.2884225712
 10
224.7381167497
 20
373.9397965713
 10
226.297510301
 20
375.8206173032
 10
227.720551487
 20
377.9169598281
 10
228.9967046085
 20
380.2133035596
 10
230.1165214744
 20
382.6926471721
 10
231.0717113523
 20
385.3366344727
 10
231.8552023506
 20
388.1256903048
 10
232.4611937761
 20
391.0391654746
 10
232.8851990802
 20
394.0554896314
 10
233.1240790761
 20
397.1523309664
 10
233.1760651797
 20
400.3067615498
 10
233.0407725043
 20
403.4954270813
 10
232.7192027094
 20
406.6947197969
 10
232.2137365853
 20
409.8809532527
 10
231.5281164263
 20
413.0305376908
 10
230.6674183242
 20
416.1201546901
 10
229.6380145866
 20
419.1269298073
 10
228.4475265587
 20
422.0286019313
 10
227.1047681972
 20
424.8036880971
 10
225.6196808154
 20
427.4316425374
 10
224.0032594805
 20
429.8930087972
 10
222.2674716106
 20
432.1695637817
 10
220.4251683718
 20
434.2444526743
 10
218.4899895328
 20
436.1023137237
 10
216.4762624805
 20
437.7293919766
 10
214.3988961456
 20
439.1136411149
 10
212.2732706215
 20
440.2448126423
 10
210.115123296
 20
441.1145317605
 10
207.9404323368
 20
441.7163593736
 10
205.7652983949
 20
442.0458397603
 10
203.6058254009
 20
442.1005335633
 10
201.4780013375
 20
441.8800358487
 10
201.380458645
 20
441.8631708784
  0
LWPOLYLINE
  5
11B
330
1F
100
AcDbEntity
  8
0
  6
Continuous
 62
     7
370
    25
100
AcDbPolyline
 90
       39
 70
   128
 43
0.0
 10
151.6375812318
 20
356.9729556444
 10
153.328229298
 20
357.2821833727
 10
155.3791470258
 20
357.9117736482
 10
157.3597254573
 20
358.8086845996
 10
159.2553010827
 20
359.966275812
 10
161.0518397235
 20
361.375976885
 10
162.7360404359
 20
363.0273508851
 10
164.2954339873
 20
364.9081716169
 10
165.7184751732
 20
367.0045141419
 10
166.9946282948
 20
369.3008578734
 10
168.1144451606
 20
371.7802014858
 10
169.0696350386
 20
374.4241887865
 10
169.8531260369
 20
377.2132446186
 10
170.4591174623
 20
380.1267197884
 10
170.8831227665
 20
383.1430439452
 10
171.1220027623
 20
386.2398852801
 10
171.173988866
 20
389.3943158636
 10
171.0386961906
 20
392.5829813951
 10
170.7171263957
 20
395.7822741107
 10
170.2116602715
 20
398.9685075664
 10
169.5260401125
 20
402.1180920046
 10
168.6653420105
 20
405.2077090039
 10
167.6359382729
 20
408.214484121
 10
166.4454502449
 20
411.1161562451
 10
165.1026918835
 20
413.8912424108
 10
163.6176045016
 20
416.5191968512
 10
162.0011831667
 20
418.9805631109
 10
160.2653952969
 20
421.2571180954
 10
158.4230920581
 20
423.3320069881
 10
156.487913219
 20
425.1898680374
 10
154.4741861668
 20
426.8169462903
 10
152.3968198318
 20
428.2011954286
 10
150.2711943078
 20
429.332366956
 10
148.1130469822
 20
430.2020860743
 10
145.938356023
 20
430.8039136873
 10
143.7632220811
 20
431.1333940741
 10
141.6037490872
 20
431.1880878771
 10
139.4759250238
 20
430.9675901625
 10
138.6432248734
 20
430.8039828723
  0
ARC
  5
11C
330
1F
100
AcDbEntity
  8
0
  6
Continuous
 62
     7
370
    25
100
AcDbCircle
 10
225.9069194127
 20
360.5075927255
 30
0.0
 40
8.299782619231562
100
AcDbArc
 50
72.6001739379
 51
100.4284889686
  0
LWPOLYLINE
  5
11D
330
1F
100
AcDbEntity
  8
0
  6
Continuous
 62
     7
370
    25
100
AcDbPolyline
 90
       23
 70
   128
 43
0.0
 10
219.927094905
 20
338.2824192266
 10
219.6808177851
 20
338.3486868427
 10
218.2843409138
 20
338.8937447569
 10
216.9885238596
 20
339.6980463882
 10
215.8164905083
 20
340.747238955
 10
214.7891558231
 20
342.022599591
 10
213.9248526156
 20
343.5013694556
 10
213.2390043971
 20
345.1571598653
 10
212.7438501452
 20
346.9604232012
 10
212.4482258995
 20
348.8789801862
 10
212.3574070814
 20
350.8785941256
 10
212.473014355
 20
352.9235818612
 10
212.7929847057
 20
354.9774505384
 10
213.3116082551
 20
357.0035488221
 10
214.0196301536
 20
358.9657209403
 10
214.9044157337
 20
360.8289518851
 10
215.9501759757
 20
362.5599922561
 10
217.1382492634
 20
364.127951597
 10
218.4474344007
 20
365.5048496362
 10
219.8543689479
 20
366.6661155955
 10
221.3339461247
 20
367.5910266563
 10
222.8597628412
 20
368.263077759
 10
224.4045908621
 20
368.6702761355
  0
LWPOLYLINE
  5
11E
330
1F
100
AcDbEntity
  8
0
  6
Continuous
 62
     7
370
    25
100
AcDbPolyline
 90
       16
 70
   128
 43
0.0
 10
176.3375540729
 20
272.0302911571
 10
173.9063769977
 20
272.7512320751
 10
171.7020395869
 20
273.5053814556
 10
169.7374275236
 20
274.2883308401
 10
168.0240251512
 20
275.0955034169
 10
166.571848341
 20
275.9221807749
 10
165.3893859431
 20
276.7635304859
 10
164.4835501641
 20
277.614634353
 10
163.859636161
 20
278.4705171601
 10
163.5212910878
 20
279.3261757557
 10
163.4704927757
 20
280.1766082986
 10
163.7075381715
 20
281.0168434972
 10
164.2310416018
 20
281.8419696696
 10
165.037942873
 20
282.6471634551
 10
166.1235251599
 20
283.4277180099
 10
167.4070254179
 20
284.1421804934
  0
LWPOLYLINE
  5
11F
330
1F
100
AcDbEntity
  8
0
  6
Continuous
 62
     7
370
    25
100
AcDbPolyline
 90
       38
 70
   128
 43
0.0
 10
258.2853062506
 20
281.2847132165
 10
258.9557434499
 20
280.8753953087
 10
260.1163369745
 20
280.0330845488
 10
260.9998209022
 20
279.1814154275
 10
261.6010307363
 20
278.3253664651
 10
261.9164520423
 20
277.4699417845
 10
261.9442409922
 20
276.6201418594
 10
261.6842351427
 20
275.7809342835
 10
261.1379543852
 20
274.9572247315
 10
260.3085920604
 20
274.1538282832
 10
259.2009962918
 20
273.3754412758
 10
257.8216416453
 20
272.6266138513
 10
256.1785912815
 20
271.911723358
 10
254.2814498217
 20
271.2349487624
 10
252.1413072031
 20
270.6002462206
 10
249.7706738513
 20
270.0113259522
 10
247.1834075493
 20
269.4716305516
 10
244.3946324307
 20
268.9843148643
 10
241.4206505697
 20
268.5522275447
 10
238.2788466855
 20
268.1778944039
 10
234.9875865186
 20
267.8635036453
 10
231.5661094717
 20
267.6108930726
 10
228.0344161435
 20
267.421539347
 10
224.4131514138
 20
267.2965493554
 10
220.723483761
 20
267.2366537398
 10
216.9869815201
 20
267.2422026263
 10
213.2254868023
 20
267.3131635781
 10
209.4609878151
 20
267.4491217858
 10
205.7154903277
 20
267.6492824914
 10
202.0108890341
 20
267.9124756349
 10
198.3688395654
 20
268.2371626935
 10
194.8106318993
 20
268.6214456752
 10
191.3570659079
 20
269.063078214
 10
188.0283297692
 20
269.5594787012
 10
184.8438819556
 20
270.1077453762
 10
181.8223374869
 20
270.7046732893
 10
178.9813591148
 20
271.3467730365
 10
176.3375540729
 20
272.0302911571
  0
LWPOLYLINE
  5
120
330
1F
100
AcDbEntity
  8
0
  6
Continuous
 62
     7
370
    25
100
AcDbPolyline
 90
       34
 70
   128
 43
0.0
 10
178.3284733148
 20
273.8927136564
 10
180.8888609891
 20
273.2317566983
 10
183.6439227195
 20
272.611852525
 10
186.5768298052
 20
272.0367876874
 10
189.6696672153
 20
271.5100748451
 10
192.903543019
 20
271.0349313102
 10
196.2587037829
 20
270.6142593944
 10
199.7146552303
 20
270.2506286815
 10
203.2502874268
 20
269.9462603314
 10
206.8440037249
 20
269.7030135125
 10
210.4738526831
 20
269.5223740456
 10
214.1176621512
 20
269.405445328
 10
217.7531747044
 20
269.3529415935
 10
221.3581835976
 20
269.3651835499
 10
224.9106684109
 20
269.4420964198
 10
228.3889295563
 20
269.5832103976
 10
231.7717208254
 20
269.7876635189
 10
235.0383791664
 20
270.0542069258
 10
238.168950901
 20
270.3812124955
 10
241.1443136064
 20
270.7666827848
 10
243.9462929205
 20
271.2082632317
 10
246.5577735567
 20
271.703256537
 10
248.9628038482
 20
272.2486391408
 10
251.1466931858
 20
272.8410796911
 10
253.096101752
 20
273.4769593923
 10
254.7991220048
 20
274.1523941105
 10
256.2453514119
 20
274.8632580981
 10
257.4259559927
 20
275.6052091957
 10
258.3337242784
 20
276.3737153549
 10
258.9631113622
 20
277.1640823214
 10
259.3102727687
 20
277.9714823089
 10
259.3730879371
 20
278.7909834887
 10
259.1511731747
 20
279.6175801143
 10
259.0749511793
 20
279.7788859323
  0
ARC
  5
121
330
1F
100
AcDbEntity
  8
0
  6
Continuous
 62
     7
370
    25
100
AcDbCircle
 10
231.2182095885
 20
322.5656426614
 30
0.0
 40
0.7888207896540032
100
AcDbArc
 50
74.6754152926
 51
97.3394723893
  0
LWPOLYLINE
  5
122
330
1F
100
AcDbEntity
  8
0
  6
Continuous
 62
     7
370
    25
100
AcDbPolyline
 90
       13
 70
   128
 43
0.0
 10
166.5509501011
 20
282.7334714915
 10
166.4693818713
 20
282.5917101008
 10
166.1751281384
 20
281.7816771624
 10
166.1654241279
 20
280.960471662
 10
166.4403291148
 20
280.1331097565
 10
166.9981639012
 20
279.3046452078
 10
167.8355210735
 20
278.480138513
 10
168.9472858159
 20
277.6646259936
 10
170.326667153
 20
276.8630890321
 10
171.9652394312
 20
276.0804236442
 10
173.8529937848
 20
275.3214105729
 10
175.9783992731
 20
274.590686086
 10
178.3284733148
 20
273.8927136564
  0
LWPOLYLINE
  5
123
330
1F
100
AcDbEntity
  8
0
  6
Continuous
 62
     7
370
    25
100
AcDbPolyline
 90
        3
 70
   128
 43
0.0
 10
231.1174393754
 20
323.3480003816
 10
229.2629948432
 20
323.8125566536
 10
227.6346308853
 20
324.1541255773
  0
LWPOLYLINE
  5
124
330
1F
100
AcDbEntity
  8
0
  6
Continuous
 62
     7
370
    25
100
AcDbPolyline
 90
        3
 70
   128
 43
0.0
 10
200.6903608642
 20
325.0013287724
 10
200.4374996929
 20
324.9680860183
 10
198.4261218413
 20
324.6584992016
  0
LINE
  5
125
330
1F
100
AcDbEntity
  8
0
  6
Continuous
 62
     7
370
    25
100
AcDbLine
 10
251.625853572
 20
293.9770433792
 30
0.0
 11
255.3614699083
 21
294.6345166899
 31
0.0
  0
LWPOLYLINE
  5
126
330
1F
100
AcDbEntity
  8
0
  6
Continuous
 62
     7
370
    25
100
AcDbPolyline
 90
       27
 70
   128
 43
0.0
 10
247.6300374998
 20
380.8743714769
 10
248.6759047098
 20
382.6136877064
 10
249.8749999277
 20
385.0037442956
 10
250.9134647985
 20
387.5677837576
 10
251.7836108917
 20
390.2868228412
 10
252.4789959502
 20
393.1407307324
 10
252.9944715861
 20
396.1083780955
 10
253.3262213982
 20
399.1677935079
 10
253.471789227
 20
402.2963261283
 10
253.4300973392
 20
405.4708133956
 10
253.201454407
 20
408.6677525168
 10
252.7875532227
 20
411.8634744731
 10
252.1914581657
 20
415.0343192574
 10
251.4175825154
 20
418.1568110441
 10
250.4716557763
 20
421.2078319965
 10
249.360681259
 20
424.1647934231
 10
248.0928842302
 20
427.0058030158
 10
246.6776510154
 20
429.7098269338
 10
245.1254595064
 20
432.2568455299
 10
243.4478015859
 20
434.6280015696
 10
241.6570980462
 20
436.8057398431
 10
239.7666066298
 20
438.7739371383
 10
237.7903238738
 20
440.5180216109
 10
235.7428814842
 20
442.0250806697
 10
233.6394380082
 20
443.2839565768
 10
231.4955666052
 20
444.2853290552
 10
229.3271397492
 20
445.0217842937
  0
LWPOLYLINE
  5
127
330
1F
100
AcDbEntity
  8
0
  6
Continuous
 62
     7
370
    25
100
AcDbPolyline
 90
       56
 70
   128
 43
0.0
 10
138.1540152804
 20
428.4909785013
 10
135.9762970906
 20
428.9553399893
 10
133.8065303566
 20
429.1419457825
 10
131.6612283132
 20
429.049375698
 10
129.5567180044
 20
428.6783342502
 10
127.5090160245
 20
428.0316452885
 10
125.5337066218
 20
427.1142305064
 10
123.6458230937
 20
425.9330719842
 10
121.8597333738
 20
424.4971590517
 10
120.1890306833
 20
422.8174198731
 10
118.6464300784
 20
420.906638278
 10
117.2436716813
 20
418.779356468
 10
115.9914313303
 20
416.4517643421
 10
114.8992393307
 20
413.941576282
 10
113.975407923
 20
411.2678963344
 10
113.226968022
 20
408.4510728181
 10
112.6596157074
 20
405.512543461
 10
112.2776688728
 20
402.4746722457
 10
112.0840343643
 20
399.3605792066
 10
112.0801858573
 20
396.193964472
 10
112.2661526414
 20
392.9989278921
 10
112.6405193971
 20
389.7997856245
 10
113.2004369672
 20
386.6208850736
 10
113.9416440411
 20
383.4864195919
 10
114.8584995852
 20
380.4202443546
 10
115.9440257753
 20
377.4456948064
 10
117.1899611016
 20
374.5854090656
 10
118.586823244
 20
371.8611556338
 10
120.1239812382
 20
369.2936677245
 10
121.7897363835
 20
366.9024854709
 10
123.5714112777
 20
364.705807214
 10
125.4554462988
 20
362.7203510015
 10
127.4275028029
 20
360.9612273542
 10
129.4725722491
 20
359.4418242651
 10
131.575090424
 20
358.1737053093
 10
133.719055895
 20
357.1665216377
 10
135.8881517901
 20
356.4279385261
 10
138.0658699798
 20
355.9635770381
 10
140.2356367139
 20
355.776971245
 10
142.3809387573
 20
355.8695413294
 10
144.485449066
 20
356.2405827772
 10
146.533151046
 20
356.8872717389
 10
148.5084604486
 20
357.8046865211
 10
150.3963439767
 20
358.9858450432
 10
152.1824336967
 20
360.4217579758
 10
153.8531363872
 20
362.1014971543
 10
155.395736992
 20
364.0122787494
 10
156.7984953891
 20
366.1395605595
 10
158.0507357401
 20
368.4671526853
 10
159.1429277398
 20
370.9773407454
 10
160.0667591475
 20
373.6510206931
 10
160.8151990485
 20
376.4678442093
 10
161.3825513631
 20
379.4063735665
 10
161.7644981977
 20
382.4442447817
 10
161.9581327062
 20
385.5583378208
 10
161.9608099528
 20
385.6458424457
  0
LWPOLYLINE
  5
128
330
1F
100
AcDbEntity
  8
0
  6
Continuous
 62
     7
370
    25
100
AcDbPolyline
 90
       11
 70
   128
 43
0.0
 10
156.4527636372
 20
411.1575115163
 10
155.4553438264
 20
413.0577613937
 10
153.9181858323
 20
415.625249303
 10
152.2524306869
 20
418.0164315565
 10
150.4707557928
 20
420.2131098135
 10
148.5867207716
 20
422.1985660259
 10
146.6146642676
 20
423.9576896732
 10
144.5695948214
 20
425.4770927623
 10
142.4670766464
 20
426.7452117181
 10
140.3231111755
 20
427.7523953897
 10
138.1540152804
 20
428.4909785013
  0
LWPOLYLINE
  5
129
330
1F
100
AcDbEntity
  8
0
  6
Continuous
 62
     7
370
    25
100
AcDbPolyline
 90
       25
 70
   128
 43
0.0
 10
146.2252024868
 20
425.1447812757
 10
147.0015692715
 20
424.5390832846
 10
148.9778520275
 20
422.794998812
 10
150.8683434439
 20
420.8268015169
 10
152.6590469836
 20
418.6490632433
 10
154.3367049041
 20
416.2779072036
 10
155.8888964131
 20
413.7308886075
 10
157.3041296279
 20
411.0268646896
 10
158.5719266567
 20
408.1858550968
 10
159.682901174
 20
405.2288936703
 10
160.6288279131
 20
402.1778727178
 10
161.4027035634
 20
399.0553809311
 10
161.9987986204
 20
395.8845361468
 10
162.4126998047
 20
392.6888141905
 10
162.6413427369
 20
389.4918750693
 10
162.6830346247
 20
386.317387802
 10
162.5374667959
 20
383.1888551817
 10
162.2057169838
 20
380.1294397693
 10
161.6902413479
 20
377.1617924061
 10
160.9948562895
 20
374.3078845149
 10
160.1247101962
 20
371.5888454313
 10
159.0862453254
 20
369.0248059694
 10
157.8871501075
 20
366.6347493801
 10
156.5363022241
 20
364.4363708064
 10
156.5142910257
 20
364.4039949534
  0
LWPOLYLINE
  5
12A
330
1F
100
AcDbEntity
  8
0
  6
Continuous
 62
     7
370
    25
100
AcDbPolyline
 90
       10
 70
   128
 43
0.0
 10
138.1108971879
 20
427.1196598698
 10
140.2266921574
 20
426.3973194944
 10
142.3173988931
 20
425.4093693423
 10
144.3666547801
 20
424.1635414627
 10
146.3584216127
 20
422.6695861481
 10
148.2771111147
 20
420.9391956244
 10
150.1077069395
 20
418.9859125435
 10
151.8358821926
 20
416.8250239939
 10
153.4481115595
 20
414.4734418584
 10
154.7547791158
 20
412.2719696223
  0
LWPOLYLINE
  5
12B
330
1F
100
AcDbEntity
  8
0
  6
Continuous
 62
     7
370
    25
100
AcDbPolyline
 90
       55
 70
   128
 43
0.0
 10
160.8197422446
 20
382.792936621
 10
160.7421313244
 20
382.0352834857
 10
160.3195356529
 20
379.096295063
 10
159.7145980043
 20
376.2618915126
 10
158.9320528361
 20
373.5542558856
 10
157.978024625
 20
370.9945791017
 10
156.8599799355
 20
368.6028941024
 10
155.5866689831
 20
366.3979190656
 10
154.1680571524
 20
364.3969109104
 10
152.6152470044
 20
362.6155302389
 10
150.9403913839
 20
361.06771877
 10
149.156598307
 20
359.7655902271
 10
147.2778283731
 20
358.7193355315
 10
145.3187855042
 20
357.9371430448
 10
143.294801867
 20
357.4251344838
 10
141.2217178776
 20
357.1873170095
 10
139.115758229
 20
357.2255518663
 10
136.9934049109
 20
357.5395398145
 10
134.8712682156
 20
358.1268234727
 10
132.7659567399
 20
358.9828065499
 10
130.6939474008
 20
360.1007898182
 10
128.6714564805
 20
361.4720235424
 10
126.7143127128
 20
363.0857759597
 10
124.8378334012
 20
364.9294172692
 10
123.0567045406
 20
366.9885184781
 10
121.3848658792
 20
369.2469643275
 10
119.8354018214
 20
371.6870794166
 10
118.4204390241
 20
374.2897665364
 10
117.1510514899
 20
377.0346561313
 10
116.0371738972
 20
379.9002657185
 10
115.0875238484
 20
382.8641680178
 10
114.3095336428
 20
385.9031664749
 10
113.7092921086
 20
388.9934768066
 10
113.2914969496
 20
392.1109131445
 10
113.0594179793
 20
395.2310773225
 10
113.0148715305
 20
398.3295498255
 10
113.1582062395
 20
401.3820809049
 10
113.4883003177
 20
404.3647803664
 10
114.0025703316
 20
407.2543045426
 10
114.6969914209
 20
410.028038989
 10
115.5661287992
 20
412.6642754728
 10
116.603180288
 20
415.1423818692
 10
117.8000295533
 20
417.4429636357
 10
119.1473096268
 20
419.5480156007
 10
120.6344762154
 20
421.4410628785
 10
122.249890224
 20
423.1072898075
 10
123.9809088478
 20
424.5336559027
 10
125.8139845191
 20
425.7089979155
 10
127.7347709353
 20
426.6241172011
 10
129.7282353385
 20
427.2718517104
 10
131.7787761668
 20
427.6471320425
 10
133.870345158
 20
427.74702112
 10
135.986572949
 20
427.5707371754
 10
138.1108971879
 20
427.1196598698
 10
138.1108971879
 20
427.1196598698
  0
ARC
  5
12C
330
1F
100
AcDbEntity
  8
0
  6
Continuous
 62
     7
370
    25
100
AcDbCircle
 10
139.9334193349
 20
404.8436807657
 30
0.0
 40
24.77993949297689
100
AcDbArc
 50
136.9058998824
 51
150.6853193471
  0
ARC
  5
12D
330
1F
100
AcDbEntity
  8
0
  6
Continuous
 62
     7
370
    25
100
AcDbCircle
 10
144.0343734921
 20
381.8657619113
 30
0.0
 40
24.8504356882475
100
AcDbArc
 50
229.2734038502
 51
242.026138503
  0
ENDSEC
  0
SECTION
  2
OBJECTS
  0
DICTIONARY
  5
C
330
0
100
AcDbDictionary
281
     1
  3
ACAD_GROUP
350
D
  3
ACAD_LAYOUT
350
1A
  3
ACAD_MLINESTYLE
350
17
  3
ACAD_PLOTSETTINGS
350
19
  3
ACAD_PLOTSTYLENAME
350
E
  3
ACAD_SCALELIST
350
47
  3
DWGPROPS
350
12E
  0
DICTIONARY
  5
D
102
{ACAD_REACTORS
330
C
102
}
330
C
100
AcDbDictionary
281
     1
  0
DICTIONARY
  5
1A
102
{ACAD_REACTORS
330
C
102
}
330
C
100
AcDbDictionary
281
     1
  3
Layout1
350
1E
  3
Layout2
350
26
  3
Model
350
22
  0
DICTIONARY
  5
17
102
{ACAD_REACTORS
330
C
102
}
330
C
100
AcDbDictionary
281
     1
  3
Standard
350
18
  0
DICTIONARY
  5
19
102
{ACAD_REACTORS
330
C
102
}
330
C
100
AcDbDictionary
281
     1
  0
ACDBDICTIONARYWDFLT
  5
E
102
{ACAD_REACTORS
330
C
102
}
330
C
100
AcDbDictionary
281
     1
  3
Normal
350
F
100
AcDbDictionaryWithDefault
340
F
  0
DICTIONARY
  5
47
102
{ACAD_REACTORS
330
C
102
}
330
C
100
AcDbDictionary
281
     1
  3
A0
350
48
  3
A1
350
49
  3
A2
350
4A
  3
A3
350
4B
  3
A4
350
4C
  3
A5
350
4D
  3
A6
350
4E
  3
A7
350
4F
  3
A8
350
50
  3
A9
350
51
  3
B0
350
52
  3
B1
350
53
  3
B2
350
54
  3
B3
350
55
  3
B4
350
56
  3
B5
350
57
  3
B6
350
58
  0
XRECORD
  5
12E
102
{ACAD_REACTORS
330
C
102
}
330
C
100
AcDbXrecord
280
     1
  1
DWGPROPS COOKIE
  2

  3

  4

  6

  7

  8
9148
  9

300
=
301
=
302
=
303
=
304
=
305
=
306
=
307
=
308
=
309
=
 40
0.0
 41
2460116.000823172
 42
2460116.000823658
  1

 90
        0
  0
LAYOUT
  5
1E
102
{ACAD_REACTORS
330
1A
102
}
330
1A
100
AcDbPlotSettings
  1

  2
none_device
  4

  6

 40
0.0
 41
0.0
 42
0.0
 43
0.0
 44
0.0
 45
0.0
 46
0.0
 47
0.0
 48
0.0
 49
0.0
140
0.0
141
0.0
142
1.0
143
1.0
 70
   688
 72
     1
 73
     0
 74
     5
  7

 75
    16
147
1.0
148
0.0
149
0.0
100
AcDbLayout
  1
Layout1
 70
     1
 71
     1
 10
0.0
 20
0.0
 11
420.0
 21
297.0
 12
0.0
 22
0.0
 32
0.0
 14
1.0000000000E+20
 24
1.0000000000E+20
 34
1.0000000000E+20
 15
-1.0000000000E+20
 25
-1.0000000000E+20
 35
-1.0000000000E+20
146
0.0
 13
0.0
 23
0.0
 33
0.0
 16
1.0
 26
0.0
 36
0.0
 17
0.0
 27
1.0
 37
0.0
 76
     0
330
1B
  0
LAYOUT
  5
26
102
{ACAD_REACTORS
330
1A
102
}
330
1A
100
AcDbPlotSettings
  1

  2
none_device
  4

  6

 40
0.0
 41
0.0
 42
0.0
 43
0.0
 44
0.0
 45
0.0
 46
0.0
 47
0.0
 48
0.0
 49
0.0
140
0.0
141
0.0
142
1.0
143
1.0
 70
   688
 72
     1
 73
     0
 74
     5
  7

 75
    16
147
1.0
148
0.0
149
0.0
100
AcDbLayout
  1
Layout2
 70
     1
 71
     2
 10
0.0
 20
0.0
 11
0.0
 21
0.0
 12
0.0
 22
0.0
 32
0.0
 14
0.0
 24
0.0
 34
0.0
 15
0.0
 25
0.0
 35
0.0
146
0.0
 13
0.0
 23
0.0
 33
0.0
 16
1.0
 26
0.0
 36
0.0
 17
0.0
 27
1.0
 37
0.0
 76
     0
330
23
  0
LAYOUT
  5
22
102
{ACAD_REACTORS
330
1A
102
}
330
1A
100
AcDbPlotSettings
  1

  2
none_device
  4
Letter_(8.50_x_11.00_Inches)
  6

 40
6.35
 41
6.35
 42
6.35000508
 43
6.35000508
 44
215.9
 45
279.4
 46
0.0
 47
0.0
 48
0.0
 49
0.0
140
0.0
141
0.0
142
1.0
143
1.0
 70
  1712
 72
     1
 73
     0
 74
     0
  7

 75
     0
147
1.0
148
0.0
149
0.0
100
AcDbLayout
  1
Model
 70
     1
 71
     0
 10
0.0
 20
0.0
 11
420.0
 21
594.0
 12
0.0
 22
0.0
 32
0.0
 14
0.0
 24
0.0
 34
0.0
 15
420.0
 25
594.0
 35
0.0
146
0.0
 13
0.0
 23
0.0
 33
0.0
 16
1.0
 26
0.0
 36
0.0
 17
0.0
 27
1.0
 37
0.0
 76
     0
330
1F
331
29
  0
MLINESTYLE
  5
18
102
{ACAD_REACTORS
330
17
102
}
330
17
100
AcDbMlineStyle
  2
Standard
 70
     0
  3

 62
   256
 51
90.0
 52
90.0
 71
     2
 49
0.5
 62
   256
  6
BYLAYER
 49
-0.5
 62
   256
  6
BYLAYER
  0
ACDBPLACEHOLDER
  5
F
102
{ACAD_REACTORS
330
E
102
}
330
E
  0
SCALE
  5
48
102
{ACAD_REACTORS
330
47
102
}
330
47
100
AcDbScale
 70
     0
300
1:1
140
1.0
141
1.0
290
     1
  0
SCALE
  5
49
102
{ACAD_REACTORS
330
47
102
}
330
47
100
AcDbScale
 70
     0
300
1:2
140
1.0
141
2.0
290
     0
  0
SCALE
  5
4A
102
{ACAD_REACTORS
330
47
102
}
330
47
100
AcDbScale
 70
     0
300
1:4
140
1.0
141
4.0
290
     0
  0
SCALE
  5
4B
102
{ACAD_REACTORS
330
47
102
}
330
47
100
AcDbScale
 70
     0
300
1:5
140
1.0
141
5.0
290
     0
  0
SCALE
  5
4C
102
{ACAD_REACTORS
330
47
102
}
330
47
100
AcDbScale
 70
     0
300
1:8
140
1.0
141
8.0
290
     0
  0
SCALE
  5
4D
102
{ACAD_REACTORS
330
47
102
}
330
47
100
AcDbScale
 70
     0
300
1:10
140
1.0
141
10.0
290
     0
  0
SCALE
  5
4E
102
{ACAD_REACTORS
330
47
102
}
330
47
100
AcDbScale
 70
     0
300
1:16
140
1.0
141
16.0
290
     0
  0
SCALE
  5
4F
102
{ACAD_REACTORS
330
47
102
}
330
47
100
AcDbScale
 70
     0
300
1:20
140
1.0
141
20.0
290
     0
  0
SCALE
  5
50
102
{ACAD_REACTORS
330
47
102
}
330
47
100
AcDbScale
 70
     0
300
1:30
140
1.0
141
30.0
290
     0
  0
SCALE
  5
51
102
{ACAD_REACTORS
330
47
102
}
330
47
100
AcDbScale
 70
     0
300
1:40
140
1.0
141
40.0
290
     0
  0
SCALE
  5
52
102
{ACAD_REACTORS
330
47
102
}
330
47
100
AcDbScale
 70
     0
300
1:50
140
1.0
141
50.0
290
     0
  0
SCALE
  5
53
102
{ACAD_REACTORS
330
47
102
}
330
47
100
AcDbScale
 70
     0
300
1:100
140
1.0
141
100.0
290
     0
  0
SCALE
  5
54
102
{ACAD_REACTORS
330
47
102
}
330
47
100
AcDbScale
 70
     0
300
2:1
140
2.0
141
1.0
290
     0
  0
SCALE
  5
55
102
{ACAD_REACTORS
330
47
102
}
330
47
100
AcDbScale
 70
     0
300
4:1
140
4.0
141
1.0
290
     0
  0
SCALE
  5
56
102
{ACAD_REACTORS
330
47
102
}
330
47
100
AcDbScale
 70
     0
300
8:1
140
8.0
141
1.0
290
     0
  0
SCALE
  5
57
102
{ACAD_REACTORS
330
47
102
}
330
47
100
AcDbScale
 70
     0
300
10:1
140
10.0
141
1.0
290
     0
  0
SCALE
  5
58
102
{ACAD_REACTORS
330
47
102
}
330
47
100
AcDbScale
 70
     0
300
100:1
140
100.0
141
1.0
290
     0
  0
ENDSEC
  0
EOF
