  0
SECTION
  2
HEADER
  9
$ACADVER
  1
AC1015
  9
$ACADMAINTVER
 70
     6
  9
$DWGCODEPAGE
  3
DOS932
  9
$INSBASE
 10
0.0
 20
0.0
 30
0.0
  9
$EXTMIN
 10
0.0
 20
0.0
 30
0.0
  9
$EXTMAX
 10
2100.0
 20
2970.0
 30
0.0
  9
$LIMMIN
 10
0.0
 20
0.0
  9
$LIMMAX
 10
2100.0
 20
2970.0
  9
$ORTHOMODE
 70
     0
  9
$REGENMODE
 70
     1
  9
$FILLMODE
 70
     1
  9
$QTEXTMODE
 70
     0
  9
$MIRRTEXT
 70
     1
  9
$LTSCALE
 40
10.0
  9
$ATTMODE
 70
     1
  9
$TEXTSIZE
 40
35.2777777778
  9
$TRACEWID
 40
1.0
  9
$TEXTSTYLE
  7
Standard
  9
$CLAYER
  8
0
  9
$CELTYPE
  6
ByLayer
  9
$CECOLOR
 62
   256
  9
$CELTSCALE
 40
1.0
  9
$DISPSILH
 70
     0
  9
$DIMSCALE
 40
1.0
  9
$DIMASZ
 40
15.0
  9
$DIMEXO
 40
10.0
  9
$DIMDLI
 40
3.75
  9
$DIMRND
 40
0.0
  9
$DIMDLE
 40
0.0
  9
$DIMEXE
 40
10.0
  9
$DIMTP
 40
0.0
  9
$DIMTM
 40
0.0
  9
$DIMTXT
 40
35.2777777778
  9
$DIMCEN
 40
2.5
  9
$DIMTSZ
 40
0.0
  9
$DIMTOL
 70
     0
  9
$DIMLIM
 70
     0
  9
$DIMTIH
 70
     1
  9
$DIMTOH
 70
     1
  9
$DIMSE1
 70
     0
  9
$DIMSE2
 70
     0
  9
$DIMTAD
 70
     1
  9
$DIMZIN
 70
     0
  9
$DIMBLK
  1

  9
$DIMASO
 70
     1
  9
$DIMSHO
 70
     1
  9
$DIMPOST
  1

  9
$DIMAPOST
  1

  9
$DIMALT
 70
     0
  9
$DIMALTD
 70
     3
  9
$DIMALTF
 40
0.0393700787
  9
$DIMLFAC
 40
1.0
  9
$DIMTOFL
 70
     1
  9
$DIMTVP
 40
0.0
  9
$DIMTIX
 70
     0
  9
$DIMSOXD
 70
     0
  9
$DIMSAH
 70
     0
  9
$DIMBLK1
  1

  9
$DIMBLK2
  1

  9
$DIMSTYLE
  2
ISO-25
  9
$DIMCLRD
 70
     0
  9
$DIMCLRE
 70
     0
  9
$DIMCLRT
 70
     0
  9
$DIMTFAC
 40
1.0
  9
$DIMGAP
 40
15.0
  9
$DIMJUST
 70
     0
  9
$DIMSD1
 70
     0
  9
$DIMSD2
 70
     0
  9
$DIMTOLJ
 70
     0
  9
$DIMTZIN
 70
     0
  9
$DIMALTZ
 70
     0
  9
$DIMALTTZ
 70
     0
  9
$DIMUPT
 70
     0
  9
$DIMDEC
 70
     1
  9
$DIMTDEC
 70
     1
  9
$DIMALTU
 70
     2
  9
$DIMALTTD
 70
     3
  9
$DIMTXSTY
  7
Standard
  9
$DIMAUNIT
 70
     0
  9
$DIMADEC
 70
     2
  9
$DIMALTRND
 40
0.0
  9
$DIMAZIN
 70
     0
  9
$DIMDSEP
 70
    44
  9
$DIMATFIT
 70
     3
  9
$DIMFRAC
 70
     0
  9
$DIMLDRBLK
  1

  9
$DIMLUNIT
 70
     2
  9
$DIMLWD
 70
    -2
  9
$DIMLWE
 70
    -2
  9
$DIMTMOVE
 70
     0
  9
$LUNITS
 70
     2
  9
$LUPREC
 70
     2
  9
$SKETCHINC
 40
1.0
  9
$FILLETRAD
 40
0.0
  9
$AUNITS
 70
     0
  9
$AUPREC
 70
     2
  9
$MENU
  1
.
  9
$ELEVATION
 40
0.0
  9
$PELEVATION
 40
0.0
  9
$THICKNESS
 40
0.0
  9
$LIMCHECK
 70
     0
  9
$CHAMFERA
 40
0.0
  9
$CHAMFERB
 40
0.0
  9
$CHAMFERC
 40
0.0
  9
$CHAMFERD
 40
0.0
  9
$SKPOLY
 70
     0
  9
$TDCREATE
 40
2460397.549610845
  9
$TDUCREATE
 40
2460397.174610845
  9
$TDUPDATE
 40
2460397.549626748
  9
$TDUUPDATE
 40
2460397.174626748
  9
$TDINDWG
 40
0.0000000116
  9
$TDUSRTIMER
 40
0.0000000116
  9
$USRTIMER
 70
     1
  9
$ANGBASE
 50
0.0
  9
$ANGDIR
 70
     0
  9
$PDMODE
 70
     0
  9
$PDSIZE
 40
-1.0
  9
$PLINEWID
 40
0.0
  9
$SPLFRAME
 70
     0
  9
$SPLINETYPE
 70
     6
  9
$SPLINESEGS
 70
     8
  9
$HANDSEED
  5
A0
  9
$SURFTAB1
 70
     6
  9
$SURFTAB2
 70
     6
  9
$SURFTYPE
 70
     6
  9
$SURFU
 70
     6
  9
$SURFV
 70
     6
  9
$UCSBASE
  2

  9
$UCSNAME
  2

  9
$UCSORG
 10
0.0
 20
0.0
 30
0.0
  9
$UCSXDIR
 10
1.0
 20
0.0
 30
0.0
  9
$UCSYDIR
 10
0.0
 20
1.0
 30
0.0
  9
$UCSORTHOREF
  2

  9
$UCSORTHOVIEW
 70
     0
  9
$UCSORGTOP
 10
0.0
 20
0.0
 30
0.0
  9
$UCSORGBOTTOM
 10
0.0
 20
0.0
 30
0.0
  9
$UCSORGLEFT
 10
0.0
 20
0.0
 30
0.0
  9
$UCSORGRIGHT
 10
0.0
 20
0.0
 30
0.0
  9
$UCSORGFRONT
 10
0.0
 20
0.0
 30
0.0
  9
$UCSORGBACK
 10
0.0
 20
0.0
 30
0.0
  9
$PUCSBASE
  2

  9
$PUCSNAME
  2

  9
$PUCSORG
 10
0.0
 20
0.0
 30
0.0
  9
$PUCSXDIR
 10
1.0
 20
0.0
 30
0.0
  9
$PUCSYDIR
 10
0.0
 20
1.0
 30
0.0
  9
$PUCSORTHOREF
  2

  9
$PUCSORTHOVIEW
 70
     0
  9
$PUCSORGTOP
 10
0.0
 20
0.0
 30
0.0
  9
$PUCSORGBOTTOM
 10
0.0
 20
0.0
 30
0.0
  9
$PUCSORGLEFT
 10
0.0
 20
0.0
 30
0.0
  9
$PUCSORGRIGHT
 10
0.0
 20
0.0
 30
0.0
  9
$PUCSORGFRONT
 10
0.0
 20
0.0
 30
0.0
  9
$PUCSORGBACK
 10
0.0
 20
0.0
 30
0.0
  9
$USERI1
 70
     0
  9
$USERI2
 70
     0
  9
$USERI3
 70
     0
  9
$USERI4
 70
     0
  9
$USERI5
 70
     0
  9
$USERR1
 40
0.0
  9
$USERR2
 40
0.0
  9
$USERR3
 40
0.0
  9
$USERR4
 40
0.0
  9
$USERR5
 40
0.0
  9
$WORLDVIEW
 70
     1
  9
$SHADEDGE
 70
     3
  9
$SHADEDIF
 70
    70
  9
$TILEMODE
 70
     1
  9
$MAXACTVP
 70
    64
  9
$PINSBASE
 10
0.0
 20
0.0
 30
0.0
  9
$PLIMCHECK
 70
     0
  9
$PEXTMIN
 10
1.0000000000E+20
 20
1.0000000000E+20
 30
1.0000000000E+20
  9
$PEXTMAX
 10
-1.0000000000E+20
 20
-1.0000000000E+20
 30
-1.0000000000E+20
  9
$PLIMMIN
 10
0.0
 20
0.0
  9
$PLIMMAX
 10
420.0
 20
297.0
  9
$UNITMODE
 70
     0
  9
$VISRETAIN
 70
     1
  9
$PLINEGEN
 70
     0
  9
$PSLTSCALE
 70
     1
  9
$TREEDEPTH
 70
  3020
  9
$CMLSTYLE
  2
Standard
  9
$CMLJUST
 70
     0
  9
$CMLSCALE
 40
20.0
  9
$PROXYGRAPHICS
 70
     1
  9
$MEASUREMENT
 70
     1
  9
$CELWEIGHT
370
    -1
  9
$ENDCAPS
280
     0
  9
$JOINSTYLE
280
     0
  9
$LWDISPLAY
290
     1
  9
$INSUNITS
 70
     4
  9
$HYPERLINKBASE
  1

  9
$STYLESHEET
  1

  9
$XEDIT
290
     1
  9
$CEPSNTYPE
380
     0
  9
$PSTYLEMODE
290
     1
  9
$FINGERPRINTGUID
  2
{d9874d6c-42a9-4349-b2d9-aa4b0dae4b28}
  9
$VERSIONGUID
  2
{FAEB1C32-E019-11D5-929B-00C0DF256EC4}
  9
$EXTNAMES
290
     1
  9
$PSVPSCALE
 40
0.0
  9
$OLESTARTUP
290
     0
  0
ENDSEC
  0
SECTION
  2
CLASSES
  0
CLASS
  1
ACDBDICTIONARYWDFLT
  2
AcDbDictionaryWithDefault
  3
ObjectDBX Classes
 90
        0
280
     0
281
     0
  0
CLASS
  1
VISUALSTYLE
  2
AcDbVisualStyle
  3
ObjectDBX Classes
 90
     4095
280
     0
281
     0
  0
CLASS
  1
MATERIAL
  2
AcDbMaterial
  3
ObjectDBX Classes
 90
     1153
280
     0
281
     0
  0
CLASS
  1
SCALE
  2
AcDbScale
  3
ObjectDBX Classes
 90
     1153
280
     0
281
     0
  0
CLASS
  1
TABLESTYLE
  2
AcDbTableStyle
  3
ObjectDBX Classes
 90
     4095
280
     0
281
     0
  0
CLASS
  1
MLEADERSTYLE
  2
AcDbMLeaderStyle
  3
ACDB_MLEADERSTYLE_CLASS
 90
     4095
280
     0
281
     0
  0
CLASS
  1
SUN
  2
AcDbSun
  3
SCENEOE
 90
     1153
280
     0
281
     0
  0
CLASS
  1
ACDBPLACEHOLDER
  2
AcDbPlaceHolder
  3
ObjectDBX Classes
 90
        0
280
     0
281
     0
  0
CLASS
  1
LAYOUT
  2
AcDbLayout
  3
ObjectDBX Classes
 90
        0
280
     0
281
     0
  0
ENDSEC
  0
SECTION
  2
TABLES
  0
TABLE
  2
VPORT
  5
8
330
0
100
AcDbSymbolTable
 70
     1
  0
VPORT
  5
29
330
8
100
AcDbSymbolTableRecord
100
AcDbViewportTableRecord
  2
*Active
 70
     0
 10
0.0
 20
0.0
 11
1.0
 21
1.0
 12
1050.0
 22
1485.0
 13
0.0
 23
0.0
 14
10.0
 24
10.0
 15
10.0
 25
10.0
 16
0.0
 26
0.0
 36
1.0
 17
0.0
 27
0.0
 37
0.0
 40
2970.0
 41
0.7070707071
 42
50.0
 43
0.0
 44
0.0
 50
0.0
 51
0.0
 71
     0
 72
  2000
 73
     1
 74
     3
 75
     0
 76
     0
 77
     0
 78
     0
281
     0
 65
     1
110
0.0
120
0.0
130
0.0
111
1.0
121
0.0
131
0.0
112
0.0
122
1.0
132
0.0
 79
     0
146
0.0
  0
ENDTAB
  0
TABLE
  2
LTYPE
  5
5
330
0
100
AcDbSymbolTable
 70
     6
  0
LTYPE
  5
14
330
5
100
AcDbSymbolTableRecord
100
AcDbLinetypeTableRecord
  2
ByBlock
 70
     0
  3

 72
    65
 73
     0
 40
0.0
  0
LTYPE
  5
15
330
5
100
AcDbSymbolTableRecord
100
AcDbLinetypeTableRecord
  2
ByLayer
 70
     0
  3

 72
    65
 73
     0
 40
0.0
  0
LTYPE
  5
16
330
5
100
AcDbSymbolTableRecord
100
AcDbLinetypeTableRecord
  2
Continuous
 70
     0
  3
Solid line
 72
    65
 73
     0
 40
0.0
  0
LTYPE
  5
5E
330
5
100
AcDbSymbolTableRecord
100
AcDbLinetypeTableRecord
  2
HIDDEN
 70
     0
  3
Hidden __ __ __ __ __ __ __ __ __ __ __ __ __ __
 72
    65
 73
     2
 40
1.905
 49
1.27
 74
     0
 49
-0.635
 74
     0
  0
LTYPE
  5
5F
330
5
100
AcDbSymbolTableRecord
100
AcDbLinetypeTableRecord
  2
PHANTOM
 70
     0
  3
Phantom ______  __  __  ______  __  __  ______
 72
    65
 73
     6
 40
12.7
 49
6.35
 74
     0
 49
-1.27
 74
     0
 49
1.27
 74
     0
 49
-1.27
 74
     0
 49
1.27
 74
     0
 49
-1.27
 74
     0
  0
LTYPE
  5
60
330
5
100
AcDbSymbolTableRecord
100
AcDbLinetypeTableRecord
  2
CENTER
 70
     0
  3
Center ____ _ ____ _ ____ _ ____ _ ____ _ ____
 72
    65
 73
     4
 40
10.16
 49
6.35
 74
     0
 49
-1.27
 74
     0
 49
1.27
 74
     0
 49
-1.27
 74
     0
  0
LTYPE
  5
61
330
5
100
AcDbSymbolTableRecord
100
AcDbLinetypeTableRecord
  2
CENTERX2
 70
     0
  3
Center (2x) ________  __  ________  __  _____
 72
    65
 73
     4
 40
20.32
 49
12.7
 74
     0
 49
-2.54
 74
     0
 49
2.54
 74
     0
 49
-2.54
 74
     0
  0
LTYPE
  5
62
330
5
100
AcDbSymbolTableRecord
100
AcDbLinetypeTableRecord
  2
DOT2
 70
     0
  3
Dot (.5x) ........................................
 72
    65
 73
     2
 40
0.635
 49
0.0
 74
     0
 49
-0.635
 74
     0
  0
ENDTAB
  0
TABLE
  2
LAYER
  5
2
330
0
100
AcDbSymbolTable
 70
     2
  0
LAYER
  5
10
330
2
100
AcDbSymbolTableRecord
100
AcDbLayerTableRecord
  2
0
 70
     0
 62
     7
  6
Continuous
370
    -3
390
F
  0
LAYER
  5
63
330
2
100
AcDbSymbolTableRecord
100
AcDbLayerTableRecord
  2
FORMAT
 70
     0
 62
     7
  6
Continuous
370
    -3
390
F
  0
ENDTAB
  0
TABLE
  2
STYLE
  5
3
330
0
100
AcDbSymbolTable
 70
     2
  0
STYLE
  5
11
330
3
100
AcDbSymbolTableRecord
100
AcDbTextStyleTableRecord
  2
Standard
 70
     0
 40
0.0
 41
1.0
 50
0.0
 71
     0
 42
35.2777777778
  3
txt
  4
bigfont
  0
STYLE
  5
64
330
3
100
AcDbSymbolTableRecord
100
AcDbTextStyleTableRecord
  2
SLDTEXTSTYLE0
 70
     0
 40
0.0
 41
0.7
 50
0.0
 71
     0
 42
35.2777777778
  3
TXT
  4
bigfont
  0
ENDTAB
  0
TABLE
  2
VIEW
  5
6
330
0
100
AcDbSymbolTable
 70
     0
  0
ENDTAB
  0
TABLE
  2
UCS
  5
7
330
0
100
AcDbSymbolTable
 70
     0
  0
ENDTAB
  0
TABLE
  2
APPID
  5
9
330
0
100
AcDbSymbolTable
 70
     1
  0
APPID
  5
12
330
9
100
AcDbSymbolTableRecord
100
AcDbRegAppTableRecord
  2
ACAD
 70
     0
  0
ENDTAB
  0
TABLE
  2
DIMSTYLE
  5
A
330
0
100
AcDbSymbolTable
 70
     1
100
AcDbDimStyleTable
  0
DIMSTYLE
105
27
330
A
100
AcDbSymbolTableRecord
100
AcDbDimStyleTableRecord
  2
ISO-25
 70
     0
 41
2.5
 42
0.625
 43
3.75
 44
1.25
 73
     0
 74
     0
 77
     1
 78
     8
140
2.5
141
2.5
143
0.0393700787
147
0.625
171
     3
172
     1
178
     0
271
     2
272
     2
274
     3
278
    44
283
     0
284
     8
340
11
  0
ENDTAB
  0
TABLE
  2
BLOCK_RECORD
  5
1
330
0
100
AcDbSymbolTable
 70
     1
  0
BLOCK_RECORD
  5
1F
330
1
100
AcDbSymbolTableRecord
100
AcDbBlockTableRecord
  2
*Model_Space
340
22
  0
BLOCK_RECORD
  5
1B
330
1
100
AcDbSymbolTableRecord
100
AcDbBlockTableRecord
  2
*Paper_Space
340
1E
  0
BLOCK_RECORD
  5
23
330
1
100
AcDbSymbolTableRecord
100
AcDbBlockTableRecord
  2
*Paper_Space0
340
26
  0
ENDTAB
  0
ENDSEC
  0
SECTION
  2
BLOCKS
  0
BLOCK
  5
20
330
1F
100
AcDbEntity
  8
0
100
AcDbBlockBegin
  2
*Model_Space
 70
     0
 10
0.0
 20
0.0
 30
0.0
  3
*Model_Space
  1

  0
ENDBLK
  5
21
330
1F
100
AcDbEntity
  8
0
100
AcDbBlockEnd
  0
BLOCK
  5
1C
330
1B
100
AcDbEntity
 67
     1
  8
0
100
AcDbBlockBegin
  2
*Paper_Space
 70
     0
 10
0.0
 20
0.0
 30
0.0
  3
*Paper_Space
  1

  0
ENDBLK
  5
1D
330
1B
100
AcDbEntity
 67
     1
  8
0
100
AcDbBlockEnd
  0
BLOCK
  5
24
330
23
100
AcDbEntity
  8
0
100
AcDbBlockBegin
  2
*Paper_Space0
 70
     0
 10
0.0
 20
0.0
 30
0.0
  3
*Paper_Space0
  1

  0
ENDBLK
  5
25
330
23
100
AcDbEntity
  8
0
100
AcDbBlockEnd
  0
ENDSEC
  0
SECTION
  2
ENTITIES
  0
MTEXT
  5
65
330
1F
100
AcDbEntity
  8
0
  6
Continuous
 62
     7
370
     0
100
AcDbMText
 10
1233.9975057319
 20
1355.8288352229
 30
0.0
 40
26.4583333333
 41
0.0
 71
     1
 72
     1
  1
HBB-D117Y/B/K/T/S
  7
SLDTEXTSTYLE0
 73
     1
 44
1.0
  0
ARC
  5
66
330
1F
100
AcDbEntity
  8
0
  6
Continuous
 62
     7
370
    25
100
AcDbCircle
 10
1083.0142994416
 20
949.9143731471
 30
0.0
 40
2.500000000000227
100
AcDbArc
 50
270.0
 51
90.0
  0
ARC
  5
67
330
1F
100
AcDbEntity
  8
0
  6
Continuous
 62
     7
370
    25
100
AcDbCircle
 10
1023.0142994416
 20
949.9143731471
 30
0.0
 40
2.500000000000227
100
AcDbArc
 50
90.0
 51
270.0
  0
ARC
  5
68
330
1F
100
AcDbEntity
  8
0
  6
Continuous
 62
     7
370
    25
100
AcDbCircle
 10
1083.0142994416
 20
944.9143731471
 30
0.0
 40
2.5
100
AcDbArc
 50
270.0
 51
90.0
  0
ARC
  5
69
330
1F
100
AcDbEntity
  8
0
  6
Continuous
 62
     7
370
    25
100
AcDbCircle
 10
1023.0142994416
 20
944.9143731471
 30
0.0
 40
2.5
100
AcDbArc
 50
90.0
 51
270.0
  0
ARC
  5
6A
330
1F
100
AcDbEntity
  8
0
  6
Continuous
 62
     7
370
    25
100
AcDbCircle
 10
1083.0142994416
 20
1449.9143731471
 30
0.0
 40
2.5
100
AcDbArc
 50
270.0
 51
90.0
  0
ARC
  5
6B
330
1F
100
AcDbEntity
  8
0
  6
Continuous
 62
     7
370
    25
100
AcDbCircle
 10
1023.0142994416
 20
1449.9143731471
 30
0.0
 40
2.5
100
AcDbArc
 50
90.0
 51
270.0
  0
ARC
  5
6C
330
1F
100
AcDbEntity
  8
0
  6
Continuous
 62
     7
370
    25
100
AcDbCircle
 10
1083.0142994416
 20
1444.9143731471
 30
0.0
 40
2.5
100
AcDbArc
 50
270.0
 51
90.0
  0
ARC
  5
6D
330
1F
100
AcDbEntity
  8
0
  6
Continuous
 62
     7
370
    25
100
AcDbCircle
 10
1023.0142994416
 20
1444.9143731471
 30
0.0
 40
2.5
100
AcDbArc
 50
90.0
 51
270.0
  0
ARC
  5
6E
330
1F
100
AcDbEntity
  8
0
  6
Continuous
 62
     7
370
    25
100
AcDbCircle
 10
1083.0142994416
 20
1949.9143731471
 30
0.0
 40
2.5
100
AcDbArc
 50
270.0
 51
90.0
  0
ARC
  5
6F
330
1F
100
AcDbEntity
  8
0
  6
Continuous
 62
     7
370
    25
100
AcDbCircle
 10
1023.0142994416
 20
1949.9143731471
 30
0.0
 40
2.5
100
AcDbArc
 50
90.0
 51
270.0
  0
ARC
  5
70
330
1F
100
AcDbEntity
  8
0
  6
Continuous
 62
     7
370
    25
100
AcDbCircle
 10
1083.0142994416
 20
1944.9143731471
 30
0.0
 40
2.5
100
AcDbArc
 50
270.0
 51
90.0
  0
ARC
  5
71
330
1F
100
AcDbEntity
  8
0
  6
Continuous
 62
     7
370
    25
100
AcDbCircle
 10
1023.0142994416
 20
1944.9143731471
 30
0.0
 40
2.5
100
AcDbArc
 50
90.0
 51
270.0
  0
LINE
  5
72
330
1F
100
AcDbEntity
  8
0
  6
Continuous
 62
     7
370
    25
100
AcDbLine
 10
1083.0142994416
 20
642.4143731471
 30
0.0
 11
1083.0142994416
 21
942.4143731471
 31
0.0
  0
LINE
  5
73
330
1F
100
AcDbEntity
  8
0
  6
Continuous
 62
     7
370
    25
100
AcDbLine
 10
1023.0142994416
 20
942.4143731471
 30
0.0
 11
1023.0142994416
 21
642.4143731471
 31
0.0
  0
LINE
  5
74
330
1F
100
AcDbEntity
  8
0
  6
Continuous
 62
     7
370
    25
100
AcDbLine
 10
1083.0142994416
 20
952.4143731471
 30
0.0
 11
1083.0142994416
 21
1442.4143731471
 31
0.0
  0
LINE
  5
75
330
1F
100
AcDbEntity
  8
0
  6
Continuous
 62
     7
370
    25
100
AcDbLine
 10
1023.0142994416
 20
1442.4143731471
 30
0.0
 11
1023.0142994416
 21
952.4143731471
 31
0.0
  0
LINE
  5
76
330
1F
100
AcDbEntity
  8
0
  6
Continuous
 62
     7
370
    25
100
AcDbLine
 10
1083.0142994416
 20
1452.4143731471
 30
0.0
 11
1083.0142994416
 21
1942.4143731471
 31
0.0
  0
LINE
  5
77
330
1F
100
AcDbEntity
  8
0
  6
Continuous
 62
     7
370
    25
100
AcDbLine
 10
1023.0142994416
 20
1942.4143731471
 30
0.0
 11
1023.0142994416
 21
1452.4143731471
 31
0.0
  0
LINE
  5
78
330
1F
100
AcDbEntity
  8
0
  6
Continuous
 62
     7
370
    25
100
AcDbLine
 10
1083.0142994416
 20
1952.4143731471
 30
0.0
 11
1083.0142994416
 21
2336.261791956
 31
0.0
  0
LINE
  5
79
330
1F
100
AcDbEntity
  8
0
  6
Continuous
 62
     7
370
    25
100
AcDbLine
 10
1023.0142994416
 20
2306.5545020457
 30
0.0
 11
1023.0142994416
 21
1952.4143731471
 31
0.0
  0
LINE
  5
7A
330
1F
100
AcDbEntity
  8
0
  6
Continuous
 62
     7
370
    25
100
AcDbLine
 10
1031.3664581777
 20
2282.9034410072
 30
0.0
 11
1032.1299119444
 21
2282.9411444966
 31
0.0
  0
LINE
  5
7B
330
1F
100
AcDbEntity
  8
0
  6
Continuous
 62
     7
370
    25
100
AcDbLine
 10
1029.474670687
 20
2285.4365246348
 30
0.0
 11
1029.4753843403
 21
2285.387174453
 31
0.0
  0
LINE
  5
7C
330
1F
100
AcDbEntity
  8
0
  6
Continuous
 62
     7
370
    25
100
AcDbLine
 10
1029.4826832996
 20
2285.2393786377
 30
0.0
 11
1029.4868356192
 21
2285.190198276
 31
0.0
  0
LINE
  5
7D
330
1F
100
AcDbEntity
  8
0
  6
Continuous
 62
     7
370
    25
100
AcDbLine
 10
1033.9465357401
 20
2288.0369528238
 30
0.0
 11
1031.1198316167
 21
2287.897354837
 31
0.0
  0
LINE
  5
7E
330
1F
100
AcDbEntity
  8
0
  6
Continuous
 62
     7
370
    25
100
AcDbLine
 10
1083.0142994416
 20
952.4143731471
 30
0.0
 11
1023.0142994416
 21
952.4143731471
 31
0.0
  0
LINE
  5
7F
330
1F
100
AcDbEntity
  8
0
  6
Continuous
 62
     7
370
    25
100
AcDbLine
 10
1083.0142994416
 20
947.4143731471
 30
0.0
 11
1023.0142994416
 21
947.4143731471
 31
0.0
  0
LINE
  5
80
330
1F
100
AcDbEntity
  8
0
  6
Continuous
 62
     7
370
    25
100
AcDbLine
 10
1031.801096006
 20
942.4143731471
 30
0.0
 11
1083.0142994416
 21
942.4143731471
 31
0.0
  0
LINE
  5
81
330
1F
100
AcDbEntity
  8
0
  6
Continuous
 62
     7
370
    25
100
AcDbLine
 10
1023.0142994416
 20
942.4143731471
 30
0.0
 11
1031.801096006
 21
942.4143731471
 31
0.0
  0
LINE
  5
82
330
1F
100
AcDbEntity
  8
0
  6
Continuous
 62
     7
370
    25
100
AcDbLine
 10
1083.0142994416
 20
1452.4143731471
 30
0.0
 11
1023.0142994416
 21
1452.4143731471
 31
0.0
  0
LINE
  5
83
330
1F
100
AcDbEntity
  8
0
  6
Continuous
 62
     7
370
    25
100
AcDbLine
 10
1083.0142994416
 20
1447.4143731471
 30
0.0
 11
1023.0142994416
 21
1447.4143731471
 31
0.0
  0
LINE
  5
84
330
1F
100
AcDbEntity
  8
0
  6
Continuous
 62
     7
370
    25
100
AcDbLine
 10
1031.801096006
 20
1442.4143731471
 30
0.0
 11
1083.0142994416
 21
1442.4143731471
 31
0.0
  0
LINE
  5
85
330
1F
100
AcDbEntity
  8
0
  6
Continuous
 62
     7
370
    25
100
AcDbLine
 10
1023.0142994416
 20
1442.4143731471
 30
0.0
 11
1031.801096006
 21
1442.4143731471
 31
0.0
  0
LINE
  5
86
330
1F
100
AcDbEntity
  8
0
  6
Continuous
 62
     7
370
    25
100
AcDbLine
 10
1083.0142994416
 20
1952.4143731471
 30
0.0
 11
1023.0142994416
 21
1952.4143731471
 31
0.0
  0
LINE
  5
87
330
1F
100
AcDbEntity
  8
0
  6
Continuous
 62
     7
370
    25
100
AcDbLine
 10
1083.0142994416
 20
1947.4143731471
 30
0.0
 11
1023.0142994416
 21
1947.4143731471
 31
0.0
  0
LINE
  5
88
330
1F
100
AcDbEntity
  8
0
  6
Continuous
 62
     7
370
    25
100
AcDbLine
 10
1031.801096006
 20
1942.4143731471
 30
0.0
 11
1083.0142994416
 21
1942.4143731471
 31
0.0
  0
LINE
  5
89
330
1F
100
AcDbEntity
  8
0
  6
Continuous
 62
     7
370
    25
100
AcDbLine
 10
1023.0142994416
 20
1942.4143731471
 30
0.0
 11
1031.801096006
 21
1942.4143731471
 31
0.0
  0
LINE
  5
8A
330
1F
100
AcDbEntity
  8
0
  6
Continuous
 62
     7
370
    25
100
AcDbLine
 10
1074.2275028772
 20
642.4143731471
 30
0.0
 11
1083.0142994416
 21
642.4143731471
 31
0.0
  0
LINE
  5
8B
330
1F
100
AcDbEntity
  8
0
  6
Continuous
 62
     7
370
    25
100
AcDbLine
 10
1023.0142994416
 20
642.4143731471
 30
0.0
 11
1074.2275028772
 21
642.4143731471
 31
0.0
  0
SPLINE
  5
8C
330
1F
100
AcDbEntity
  8
0
  6
Continuous
 62
     7
370
    25
100
AcDbSpline
210
0.0
220
0.0
230
1.0
 70
    11
 71
     3
 72
    73
 73
    69
 74
     0
 42
0.00000001
 43
0.00000001
 40
0.0
 40
0.0
 40
0.0
 40
0.0
 40
0.0149896484303135
 40
0.0300449717983464
 40
0.045050017043973
 40
0.0599171525651275
 40
0.0748260035009505
 40
0.0897057236686792
 40
0.1069046666698701
 40
0.1241457953980248
 40
0.1413442047541598
 40
0.1561002346401012
 40
0.1709225459053945
 40
0.1857324322858633
 40
0.2004714403575208
 40
0.2135506155394474
 40
0.2266942583328322
 40
0.2398327580772964
 40
0.2529048849219248
 40
0.2676899241986206
 40
0.2825250440930756
 40
0.2973158776430925
 40
0.3120449721390244
 40
0.3268146969681883
 40
0.3415523974206274
 40
0.3582339395206363
 40
0.3749583629989032
 40
0.3916455567135648
 40
0.4060986439226543
 40
0.4206082159088357
 40
0.4351054230783427
 40
0.4495415805751879
 40
0.4633002797843448
 40
0.4770946966130449
 40
0.4908406150245129
 40
0.5046414721444664
 40
0.5184937963431329
 40
0.5323012323640878
 40
0.5454364810828606
 40
0.5586057330045361
 40
0.5717512889228085
 40
0.5875280706460213
 40
0.6033416692180518
 40
0.6191239226408287
 40
0.6383577935098306
 40
0.6576497703911042
 40
0.6768676861405779
 40
0.6923934530245629
 40
0.7079622974291913
 40
0.7234774989909393
 40
0.7390579256422413
 40
0.7546955666323816
 40
0.770275021214087
 40
0.784721178791288
 40
0.7992118522076904
 40
0.8136654745607006
 40
0.8289542920011516
 40
0.844283509576547
 40
0.8595808489025043
 40
0.8772907708481738
 40
0.8950470921305955
 40
0.9127568991787164
 40
0.929113906562338
 40
0.9455105188824967
 40
0.9618471846407269
 40
0.9745563623076399
 40
0.9872980724958147
 40
1.0
 40
1.0
 40
1.0
 40
1.0
 10
1023.060775517019
 20
1082.414373147139
 30
0.0
 10
1023.061858364306
 20
1083.064626933289
 30
0.0
 10
1023.064028803216
 20
1084.367983496819
 30
0.0
 10
1023.088433895502
 20
1086.289019923173
 30
0.0
 10
1023.136614125099
 20
1088.146615348407
 30
0.0
 10
1023.218908722035
 20
1089.917864232736
 30
0.0
 10
1023.347283991142
 20
1091.596583089391
 30
0.0
 10
1023.542816364784
 20
1093.263218171711
 30
0.0
 10
1023.83299071538
 20
1094.89397441423
 30
0.0
 10
1024.246903298427
 20
1096.461478572123
 30
0.0
 10
1024.760771766212
 20
1097.814026595471
 30
0.0
 10
1025.372341642619
 20
1098.96321413797
 30
0.0
 10
1026.06514994457
 20
1099.926086263353
 30
0.0
 10
1026.874215434713
 20
1100.751773297713
 30
0.0
 10
1027.768328400597
 20
1101.401803134791
 30
0.0
 10
1028.739043640705
 20
1101.880161126127
 30
0.0
 10
1029.764351387776
 20
1102.205109423474
 30
0.0
 10
1030.873801775909
 20
1102.392448495783
 30
0.0
 10
1032.110394867808
 20
1102.437755143188
 30
0.0
 10
1033.478213294471
 20
1102.310486066111
 30
0.0
 10
1034.96261263898
 20
1101.998778932344
 30
0.0
 10
1036.486268095327
 20
1101.514670333318
 30
0.0
 10
1038.028182969349
 20
1100.863636807693
 30
0.0
 10
1039.566547988423
 20
1100.06356041136
 30
0.0
 10
1041.15191281276
 20
1099.083145171831
 30
0.0
 10
1042.761523188682
 20
1097.910337206422
 30
0.0
 10
1044.364978815875
 20
1096.53964789978
 30
0.0
 10
1045.807737563649
 20
1095.096023782244
 30
0.0
 10
1047.083247244312
 20
1093.606363222306
 30
0.0
 10
1048.191660740026
 20
1092.093004014815
 30
0.0
 10
1049.173808629857
 20
1090.489264489786
 30
0.0
 10
1049.993830937707
 20
1088.829110299331
 30
0.0
 10
1050.632106506174
 20
1087.12175278789
 30
0.0
 10
1051.081306802698
 20
1085.38526607627
 30
0.0
 10
1051.334825121487
 20
1083.606696430201
 30
0.0
 10
1051.365342962952
 20
1081.807577696099
 30
0.0
 10
1051.184270239897
 20
1080.015290025501
 30
0.0
 10
1050.806019851737
 20
1078.283717696148
 30
0.0
 10
1050.249675886203
 20
1076.633547247263
 30
0.0
 10
1049.553175240051
 20
1075.070500621612
 30
0.0
 10
1048.669579282088
 20
1073.475368288259
 30
0.0
 10
1047.58761523867
 20
1071.871616054152
 30
0.0
 10
1046.306286834528
 20
1070.284533580833
 30
0.0
 10
1044.811091215396
 20
1068.706363297724
 30
0.0
 10
1043.09706381822
 20
1067.176714314982
 30
0.0
 10
1041.174483261117
 20
1065.747443695597
 30
0.0
 10
1039.313557268872
 20
1064.611964687904
 30
0.0
 10
1037.561150875682
 20
1063.749754401288
 30
0.0
 10
1035.942967781884
 20
1063.121676736168
 30
0.0
 10
1034.351636033686
 20
1062.675875181688
 30
0.0
 10
1032.816535985249
 20
1062.433146069509
 30
0.0
 10
1031.359468265946
 20
1062.39176222942
 30
0.0
 10
1030.036191419566
 20
1062.549306238328
 30
0.0
 10
1028.861597635827
 20
1062.893319341808
 30
0.0
 10
1027.827830454099
 20
1063.391842716858
 30
0.0
 10
1026.891986749409
 20
1064.057378458899
 30
0.0
 10
1026.067207334598
 20
1064.892861067792
 30
0.0
 10
1025.353252202106
 20
1065.891283109224
 30
0.0
 10
1024.727626726524
 20
1067.085537268573
 30
0.0
 10
1024.20633929352
 20
1068.491480296674
 30
0.0
 10
1023.792333711504
 20
1070.120414308591
 30
0.0
 10
1023.500512244222
 20
1071.85140756123
 30
0.0
 10
1023.306266227268
 20
1073.665559518809
 30
0.0
 10
1023.182846984314
 20
1075.542803443866
 30
0.0
 10
1023.115533388775
 20
1077.375333986503
 30
0.0
 10
1023.080278906036
 20
1079.125274822146
 30
0.0
 10
1023.063245354263
 20
1080.759860367622
 30
0.0
 10
1023.061597937488
 20
1081.863444060838
 30
0.0
 10
1023.060775517019
 20
1082.414373147139
 30
0.0
  0
SPLINE
  5
8D
330
1F
100
AcDbEntity
  8
0
  6
Continuous
 62
     7
370
    25
100
AcDbSpline
210
0.0
220
0.0
230
1.0
 70
    11
 71
     3
 72
    45
 73
    41
 74
     0
 42
0.00000001
 43
0.00000001
 40
0.0
 40
0.0
 40
0.0
 40
0.0
 40
0.026414438198841
 40
0.0528306992302578
 40
0.0792257346254828
 40
0.105623278052162
 40
0.1324135685963382
 40
0.1592032739001092
 40
0.186270200583831
 40
0.2133341608252416
 40
0.2399804494723293
 40
0.2666260357400682
 40
0.2928251634066105
 40
0.3190266008528722
 40
0.3454172710558378
 40
0.3718097810733541
 40
0.3987432147161271
 40
0.4256750526929641
 40
0.4526842278585583
 40
0.4796904751547501
 40
0.5061544505848582
 40
0.5326188906677528
 40
0.5587760417589218
 40
0.5849359219521243
 40
0.6114926930850878
 40
0.6380503223410443
 40
0.6650945794436808
 40
0.6921363268138073
 40
0.719005184224585
 40
0.7458720027880407
 40
0.772189180539235
 40
0.7985077789914838
 40
0.8247439871756379
 40
0.8509827002917699
 40
0.8777143280343838
 40
0.9044458267454192
 40
0.9315196063699086
 40
0.9585903326027608
 40
0.9792954503628195
 40
1.0
 40
1.0
 40
1.0
 40
1.0
 10
1027.708807934947
 20
1242.414373147139
 30
0.0
 10
1027.718508030748
 20
1242.774983131142
 30
0.0
 10
1027.737908891745
 20
1243.496227984463
 30
0.0
 10
1027.891119058876
 20
1244.547172487847
 30
0.0
 10
1028.136170518357
 20
1245.535881530938
 30
0.0
 10
1028.478564827099
 20
1246.44331781802
 30
0.0
 10
1028.918011273376
 20
1247.240566707909
 30
0.0
 10
1029.450298622571
 20
1247.911408783119
 30
0.0
 10
1030.070682715349
 20
1248.42581426384
 30
0.0
 10
1030.761585447456
 20
1248.771286156581
 30
0.0
 10
1031.507534527732
 20
1248.93063081608
 30
0.0
 10
1032.280712968274
 20
1248.909899351075
 30
0.0
 10
1033.063461993859
 20
1248.706411656996
 30
0.0
 10
1033.832266519704
 20
1248.336553275375
 30
0.0
 10
1034.566026529576
 20
1247.802137966331
 30
0.0
 10
1035.245294764091
 20
1247.118384321354
 30
0.0
 10
1035.839552486616
 20
1246.296100250507
 30
0.0
 10
1036.327573291668
 20
1245.35828481515
 30
0.0
 10
1036.678703532031
 20
1244.33159686711
 30
0.0
 10
1036.881489156398
 20
1243.255059330486
 30
0.0
 10
1036.921720322508
 20
1242.160667700274
 30
0.0
 10
1036.809386891575
 20
1241.085103367967
 30
0.0
 10
1036.544892272254
 20
1240.052607423975
 30
0.0
 10
1036.14683899822
 20
1239.083682185937
 30
0.0
 10
1035.623135416911
 20
1238.204131148852
 30
0.0
 10
1034.993549939654
 20
1237.430016767297
 30
0.0
 10
1034.278917011436
 20
1236.793878586483
 30
0.0
 10
1033.507928394374
 20
1236.312032870038
 30
0.0
 10
1032.711446201104
 20
1236.008705261037
 30
0.0
 10
1031.921548232273
 20
1235.885590548598
 30
0.0
 10
1031.162715750974
 20
1235.949653651016
 30
0.0
 10
1030.453492129916
 20
1236.186445318746
 30
0.0
 10
1029.808407065655
 20
1236.595512170289
 30
0.0
 10
1029.232845102359
 20
1237.161113763023
 30
0.0
 10
1028.740189879382
 20
1237.877241552418
 30
0.0
 10
1028.333286022201
 20
1238.725899653886
 30
0.0
 10
1028.023557621561
 20
1239.686442127552
 30
0.0
 10
1027.830336485012
 20
1240.648613030053
 30
0.0
 10
1027.726594003252
 20
1241.566685650689
 30
0.0
 10
1027.714736570156
 20
1242.131813232758
 30
0.0
 10
1027.708807934947
 20
1242.414373147139
 30
0.0
  0
ELLIPSE
  5
8E
330
1F
100
AcDbEntity
  8
0
  6
Continuous
 62
     7
370
    25
100
AcDbEllipse
 10
1053.0142994416
 20
2321.4081470008
 30
0.0
 11
29.22412069455982
 21
17.8257703844547
 31
0.0
210
0.0
220
0.0
230
1.0
 40
0.3802752731
 41
0.0
 42
6.283185307179586
  0
SPLINE
  5
8F
330
1F
100
AcDbEntity
  8
0
  6
Continuous
 62
     7
370
    25
100
AcDbSpline
210
0.0
220
0.0
230
1.0
 70
     8
 71
     3
 72
    37
 73
    33
 74
     0
 42
0.00000001
 43
0.00000001
 40
0.0
 40
0.0
 40
0.0
 40
0.0
 40
0.0317850994198561
 40
0.0658821859605103
 40
0.0999799400843395
 40
0.1340698098081051
 40
0.168160628007899
 40
0.2023976692773591
 40
0.2366344739735087
 40
0.2709704460039803
 40
0.3053053440464126
 40
0.3394828470034393
 40
0.3736601165064057
 40
0.4076706421769847
 40
0.4416821004579592
 40
0.4757740907606255
 40
0.5098667402600409
 40
0.5441630925107341
 40
0.5784587861620408
 40
0.6127662015282311
 40
0.6470726315916785
 40
0.6811767188548837
 40
0.7152810458841947
 40
0.749285778532762
 40
0.783291559922985
 40
0.8174547121872433
 40
0.8516181006224074
 40
0.8859509335117595
 40
0.9202828013514188
 40
0.9545327082803242
 40
0.9887819497219159
 40
1.0
 40
1.0
 40
1.0
 40
1.0
 10
1029.509524516009
 20
2285.857833193951
 30
0.0
 10
1029.491927043817
 20
2286.038843417037
 30
0.0
 10
1029.455452093083
 20
2286.414030199391
 30
0.0
 10
1029.493674147877
 20
2286.990288706235
 30
0.0
 10
1029.58314536981
 20
2287.561440665177
 30
0.0
 10
1029.735827508383
 20
2288.099454155138
 30
0.0
 10
1029.943697595441
 20
2288.591000935187
 30
0.0
 10
1030.206110585391
 20
2289.02019210905
 30
0.0
 10
1030.516089912511
 20
2289.377775467756
 30
0.0
 10
1030.868741356875
 20
2289.649567211608
 30
0.0
 10
1031.253641041627
 20
2289.830774728968
 30
0.0
 10
1031.661926873707
 20
2289.912353608956
 30
0.0
 10
1032.080694900517
 20
2289.896542814637
 30
0.0
 10
1032.498944756398
 20
2289.780384972279
 30
0.0
 10
1032.904421761763
 20
2289.571671897705
 30
0.0
 10
1033.284509465273
 20
2289.272214567435
 30
0.0
 10
1033.628610188772
 20
2288.892939011537
 30
0.0
 10
1033.922864131913
 20
2288.441058107385
 30
0.0
 10
1034.158854730283
 20
2287.931295929192
 30
0.0
 10
1034.324584440338
 20
2287.376747970617
 30
0.0
 10
1034.416769078493
 20
2286.795775841187
 30
0.0
 10
1034.428893816694
 20
2286.204449656492
 30
0.0
 10
1034.3646394812
 20
2285.620383601388
 30
0.0
 10
1034.223313482931
 20
2285.059575083031
 30
0.0
 10
1034.013360308979
 20
2284.535597649091
 30
0.0
 10
1033.739064153646
 20
2284.064547126517
 30
0.0
 10
1033.411652823027
 20
2283.656567444775
 30
0.0
 10
1033.040602385996
 20
2283.327707483333
 30
0.0
 10
1032.639410600249
 20
2283.082268982272
 30
0.0
 10
1032.222065193565
 20
2282.940251798753
 30
0.0
 10
1031.892568949703
 20
2282.884752744528
 30
0.0
 10
1031.710943837925
 20
2282.911613276157
 30
0.0
 10
1031.66613185202
 20
2282.918240519235
 30
0.0
  0
ELLIPSE
  5
90
330
1F
100
AcDbEntity
  8
0
  6
Continuous
 62
     7
370
    25
100
AcDbEllipse
 10
1053.0142994416
 20
2321.4081470008
 30
0.0
 11
24.84050259037599
 21
15.15190482678645
 31
0.0
210
0.0
220
0.0
230
1.0
 40
0.3802752731
 41
0.0
 42
6.283185307179586
  0
SPLINE
  5
91
330
1F
100
AcDbEntity
  8
0
  6
Continuous
 62
     7
370
    25
100
AcDbSpline
210
0.0
220
0.0
230
1.0
 70
     8
 71
     3
 72
    27
 73
    23
 74
     0
 42
0.00000001
 43
0.00000001
 40
0.0
 40
0.0
 40
0.0
 40
0.0
 40
0.0368252249858638
 40
0.0736534239305403
 40
0.1116487694295495
 40
0.1496509849996122
 40
0.198920902041068
 40
0.2482061029425228
 40
0.2988315075595389
 40
0.3494647466899918
 40
0.4149688585004773
 40
0.4804771047517791
 40
0.5478832204766599
 40
0.6152820978612288
 40
0.6683043939749344
 40
0.7213210747436536
 40
0.7757501123093253
 40
0.8301709524049523
 40
0.8748142924291887
 40
0.9194538744051033
 40
0.9653464930634581
 40
1.0
 40
1.0
 40
1.0
 40
1.0
 10
1027.686235157263
 20
1082.414373147139
 30
0.0
 10
1027.685012274709
 20
1082.79428845725
 30
0.0
 10
1027.682566410842
 20
1083.554149758954
 30
0.0
 10
1027.664300149431
 20
1084.696451511085
 30
0.0
 10
1027.637182318986
 20
1085.832140615063
 30
0.0
 10
1027.600927440322
 20
1087.064604222706
 30
0.0
 10
1027.56023467577
 20
1088.366122991684
 30
0.0
 10
1027.524911692799
 20
1089.730601820141
 30
0.0
 10
1027.509380806814
 20
1091.047482220651
 30
0.0
 10
1027.525001476743
 20
1092.438628870115
 30
0.0
 10
1027.596195775411
 20
1093.871224669381
 30
0.0
 10
1027.756683226628
 20
1095.333022515825
 30
0.0
 10
1028.020765186719
 20
1096.701591583752
 30
0.0
 10
1028.37860743336
 20
1097.876938981943
 30
0.0
 10
1028.811803143649
 20
1098.865590880975
 30
0.0
 10
1029.301944596378
 20
1099.695687384504
 30
0.0
 10
1029.894186098983
 20
1100.438494019987
 30
0.0
 10
1030.553219889665
 20
1101.044069756736
 30
0.0
 10
1031.255312958899
 20
1101.519392262487
 30
0.0
 10
1031.989734589651
 20
1101.880680029085
 30
0.0
 10
1032.729396815564
 20
1102.143165138484
 30
0.0
 10
1033.257349676922
 20
1102.239574090255
 30
0.0
 10
1033.484491802109
 20
1102.281052289911
 30
0.0
  0
SPLINE
  5
92
330
1F
100
AcDbEntity
  8
0
  6
Continuous
 62
     7
370
    25
100
AcDbSpline
210
0.0
220
0.0
230
1.0
 70
     8
 71
     3
 72
    29
 73
    25
 74
     0
 42
0.00000001
 43
0.00000001
 40
0.0
 40
0.0
 40
0.0
 40
0.0
 40
0.0253173271572811
 40
0.0680269164032042
 40
0.1107391925587694
 40
0.1545140670177493
 40
0.1982924890812154
 40
0.2446477399515677
 40
0.2910071176841714
 40
0.3383089580943637
 40
0.3856142159003975
 40
0.4411326761295011
 40
0.4966547440124444
 40
0.5533294264865544
 40
0.6100034988901204
 40
0.6623086727089332
 40
0.7146079226356103
 40
0.7681616130143849
 40
0.8216981380191665
 40
0.8587280378109592
 40
0.8957518391893469
 40
0.9337773535976214
 40
0.9717975034585189
 40
1.0
 40
1.0
 40
1.0
 40
1.0
 10
1033.428775597454
 20
1062.56177926728
 30
0.0
 10
1033.261708610318
 20
1062.589630001252
 30
0.0
 10
1032.812804510093
 20
1062.664464107551
 30
0.0
 10
1032.153051216732
 20
1062.886474221588
 30
0.0
 10
1031.435447731645
 20
1063.209248159009
 30
0.0
 10
1030.782274269046
 20
1063.618023171025
 30
0.0
 10
1030.179545805396
 20
1064.113386645247
 30
0.0
 10
1029.638216646383
 20
1064.694252805624
 30
0.0
 10
1029.156813119811
 20
1065.363484502366
 30
0.0
 10
1028.744800350714
 20
1066.106983215014
 30
0.0
 10
1028.379401233054
 20
1066.968147271072
 30
0.0
 10
1028.073204848951
 20
1067.951076094601
 30
0.0
 10
1027.830976450393
 20
1069.071868437549
 30
0.0
 10
1027.662589492838
 20
1070.277457437159
 30
0.0
 10
1027.56222926189
 20
1071.534522093483
 30
0.0
 10
1027.516438221807
 20
1072.826921422926
 30
0.0
 10
1027.510698086968
 20
1074.159656644751
 30
0.0
 10
1027.535296004312
 20
1075.569700938259
 30
0.0
 10
1027.574028419957
 20
1076.906033774449
 30
0.0
 10
1027.612025902634
 20
1078.132192423686
 30
0.0
 10
1027.643663976137
 20
1079.237535457189
 30
0.0
 10
1027.668907228129
 20
1080.376944497523
 30
0.0
 10
1027.683914586026
 20
1081.443185751502
 30
0.0
 10
1027.685542059003
 20
1082.124303062916
 30
0.0
 10
1027.686235157263
 20
1082.414373147139
 30
0.0
  0
SPLINE
  5
93
330
1F
100
AcDbEntity
  8
0
  6
Continuous
 62
     7
370
    25
100
AcDbSpline
210
0.0
220
0.0
230
1.0
 70
     8
 71
     3
 72
    15
 73
    11
 74
     0
 42
0.00000001
 43
0.00000001
 40
0.0
 40
0.0
 40
0.0
 40
0.0
 40
0.1356920936426366
 40
0.2713973085108796
 40
0.4069509220234561
 40
0.5425222696609888
 40
0.680894272357016
 40
0.819262293729925
 40
0.9596497664221547
 40
1.0
 40
1.0
 40
1.0
 40
1.0
 10
1030.982509589717
 20
1242.414373147139
 30
0.0
 10
1030.991582308758
 20
1242.773127412861
 30
0.0
 10
1031.009728624161
 20
1243.490670635313
 30
0.0
 10
1031.153452969377
 20
1244.535821206602
 30
0.0
 10
1031.383851793127
 20
1245.519122680926
 30
0.0
 10
1031.708345749562
 20
1246.422784710127
 30
0.0
 10
1032.127035566571
 20
1247.22279484165
 30
0.0
 10
1032.645778980551
 20
1247.886877464029
 30
0.0
 10
1033.095246751983
 20
1248.312469229756
 30
0.0
 10
1033.392093140711
 20
1248.455204163222
 30
0.0
 10
1033.458364984971
 20
1248.487070164092
 30
0.0
  0
SPLINE
  5
94
330
1F
100
AcDbEntity
  8
0
  6
Continuous
 62
     7
370
    25
100
AcDbSpline
210
0.0
220
0.0
230
1.0
 70
     8
 71
     3
 72
    15
 73
    11
 74
     0
 42
0.00000001
 43
0.00000001
 40
0.0
 40
0.0
 40
0.0
 40
0.0
 40
0.0832013597715274
 40
0.2170721147977033
 40
0.3542738575438714
 40
0.491476413813803
 40
0.6313452802696256
 40
0.7711922758298533
 40
0.8855990915039551
 40
1.0
 40
1.0
 40
1.0
 40
1.0
 10
1033.477393756767
 20
1236.33149986244
 30
0.0
 10
1033.343610342585
 20
1236.406106839222
 30
0.0
 10
1032.994569789389
 20
1236.600756232854
 30
0.0
 10
1032.506485675739
 20
1237.095188367651
 30
0.0
 10
1032.019574908106
 20
1237.785560428411
 30
0.0
 10
1031.618566432081
 20
1238.619775585041
 30
0.0
 10
1031.310830040858
 20
1239.568974119427
 30
0.0
 10
1031.112480463703
 20
1240.545567263364
 30
0.0
 10
1031.001944405013
 20
1241.503612911956
 30
0.0
 10
1030.988987749981
 20
1242.110791627299
 30
0.0
 10
1030.982509589717
 20
1242.414373147139
 30
0.0
  0
LINE
  5
95
330
1F
100
AcDbEntity
  8
0
  6
Continuous
 62
     7
370
    25
100
AcDbLine
 10
1034.0081548436
 20
2288.0384729765
 30
0.0
 11
1034.1073777482
 21
2288.0345419057
 31
0.0
  0
LINE
  5
96
330
1F
100
AcDbEntity
  8
0
  6
Continuous
 62
     7
370
    25
100
AcDbLine
 10
1033.9465357401
 20
2288.0369528238
 30
0.0
 11
1034.0081548436
 21
2288.0384729765
 31
0.0
  0
LINE
  5
97
330
1F
100
AcDbEntity
  8
0
  6
Continuous
 62
     7
370
    25
100
AcDbLine
 10
1031.1814507203
 20
2287.8988749897
 30
0.0
 11
1030.4994523602
 21
2286.8645846659
 31
0.0
  0
LWPOLYLINE
  5
98
330
1F
100
AcDbEntity
  8
0
  6
Continuous
 62
     7
370
    25
100
AcDbPolyline
 90
       18
 70
   128
 43
0.0
 10
1031.3048390742
 20
2282.9019208546
 10
1031.6286149388
 20
2282.9444621745
 10
1031.9392640835
 20
2283.0706374408
 10
1032.2262077242
 20
2283.276149906
 10
1032.4796743393
 20
2283.5540010897
 10
1032.6910324274
 20
2283.894729103
 10
1032.8530844422
 20
2284.2867308621
 10
1032.9603118967
 20
2284.7166572172
 10
1033.0090632885
 20
2285.1698675419
 10
1032.9976784475
 20
2285.6309283023
 10
1032.9265450708
 20
2286.0841386271
 10
1032.7980855202
 20
2286.5140649822
 10
1032.6166743316
 20
2286.9060667412
 10
1032.3884892455
 20
2287.2467947545
 10
1032.1213008313
 20
2287.5246459382
 10
1031.82420787
 20
2287.7301584034
 10
1031.5073275061
 20
2287.8563336697
 10
1031.1814507203
 20
2287.8988749897
  0
LINE
  5
99
330
1F
100
AcDbEntity
  8
0
  6
Continuous
 62
     7
370
    25
100
AcDbLine
 10
1031.3048390742
 20
2282.9019208546
 30
0.0
 11
1030.5734853726
 21
2283.8664121849
 31
0.0
  0
LWPOLYLINE
  5
9A
330
1F
100
AcDbEntity
  8
0
  6
Continuous
 62
     7
370
    25
100
AcDbPolyline
 90
       14
 70
   128
 43
0.0
 10
1030.5734853726
 20
2283.8664121849
 10
1030.8262423338
 20
2283.9099729065
 10
1031.0621587143
 20
2284.0381234808
 10
1031.2675239117
 20
2284.2434162619
 10
1031.4304028472
 20
2284.5139203799
 10
1031.541329589
 20
2284.8339151184
 10
1031.5938574781
 20
2285.1848035466
 10
1031.5849337846
 20
2285.5461933043
 10
1031.515077121
 20
2285.8970817324
 10
1031.3883473028
 20
2286.217076471
 10
1031.2121094063
 20
2286.4875805889
 10
1030.9966057374
 20
2286.6928733701
 10
1030.7543605862
 20
2286.8210239443
 10
1030.4994523602
 20
2286.8645846659
  0
LINE
  5
9B
330
1F
100
AcDbEntity
  8
0
  6
Continuous
 62
     7
370
    25
100
AcDbLine
 10
1034.0081548436
 20
2288.0384729765
 30
0.0
 11
1031.1814507203
 21
2287.8988749897
 31
0.0
  0
LWPOLYLINE
  5
9C
330
1F
100
AcDbEntity
  8
0
  6
Continuous
 62
     7
370
    25
100
AcDbPolyline
 90
       14
 70
   128
 43
0.0
 10
1030.4994523602
 20
2286.8645846659
 10
1030.246695399
 20
2286.8210239443
 10
1030.0107790185
 20
2286.6928733701
 10
1029.8054138211
 20
2286.4875805889
 10
1029.6425348856
 20
2286.217076471
 10
1029.5316081438
 20
2285.8970817324
 10
1029.4790802547
 20
2285.5461933043
 10
1029.4880039482
 20
2285.1848035466
 10
1029.5578606118
 20
2284.8339151184
 10
1029.68459043
 20
2284.5139203799
 10
1029.8608283265
 20
2284.243416262
 10
1030.0763319953
 20
2284.0381234808
 10
1030.3185771466
 20
2283.9099729066
 10
1030.5734853726
 20
2283.8664121849
  0
LWPOLYLINE
  5
9D
330
1F
100
AcDbEntity
  8
0
  6
Continuous
 62
     7
370
    25
100
AcDbPolyline
 90
       10
 70
   128
 43
0.0
 10
1031.1814507203
 20
2287.8988749897
 10
1030.8576748557
 20
2287.8563336697
 10
1030.547025711
 20
2287.7301584034
 10
1030.2600820703
 20
2287.5246459382
 10
1030.0066154551
 20
2287.2467947545
 10
1029.7952573671
 20
2286.9060667412
 10
1029.6332053523
 20
2286.5140649821
 10
1029.5259778978
 20
2286.084138627
 10
1029.4772265059
 20
2285.6309283023
 10
1029.474670687
 20
2285.4365246348
  0
ARC
  5
9E
330
1F
100
AcDbEntity
  8
0
  6
Continuous
 62
     7
370
    25
100
AcDbCircle
 10
1031.7390948505
 20
2285.1132583062
 30
0.0
 40
2.253573030614767
100
AcDbArc
 50
178.0434659326
 51
258.8898055003
  0
ENDSEC
  0
SECTION
  2
OBJECTS
  0
DICTIONARY
  5
C
330
0
100
AcDbDictionary
281
     1
  3
ACAD_GROUP
350
D
  3
ACAD_LAYOUT
350
1A
  3
ACAD_MLINESTYLE
350
17
  3
ACAD_PLOTSETTINGS
350
19
  3
ACAD_PLOTSTYLENAME
350
E
  3
ACAD_SCALELIST
350
47
  3
DWGPROPS
350
9F
  0
DICTIONARY
  5
D
102
{ACAD_REACTORS
330
C
102
}
330
C
100
AcDbDictionary
281
     1
  0
DICTIONARY
  5
1A
102
{ACAD_REACTORS
330
C
102
}
330
C
100
AcDbDictionary
281
     1
  3
Layout1
350
1E
  3
Layout2
350
26
  3
Model
350
22
  0
DICTIONARY
  5
17
102
{ACAD_REACTORS
330
C
102
}
330
C
100
AcDbDictionary
281
     1
  3
Standard
350
18
  0
DICTIONARY
  5
19
102
{ACAD_REACTORS
330
C
102
}
330
C
100
AcDbDictionary
281
     1
  0
ACDBDICTIONARYWDFLT
  5
E
102
{ACAD_REACTORS
330
C
102
}
330
C
100
AcDbDictionary
281
     1
  3
Normal
350
F
100
AcDbDictionaryWithDefault
340
F
  0
DICTIONARY
  5
47
102
{ACAD_REACTORS
330
C
102
}
330
C
100
AcDbDictionary
281
     1
  3
A0
350
48
  3
A1
350
49
  3
A2
350
4A
  3
A3
350
4B
  3
A4
350
4C
  3
A5
350
4D
  3
A6
350
4E
  3
A7
350
4F
  3
A8
350
50
  3
A9
350
51
  3
B0
350
52
  3
B1
350
53
  3
B2
350
54
  3
B3
350
55
  3
B4
350
56
  3
B5
350
57
  3
B6
350
58
  0
XRECORD
  5
9F
102
{ACAD_REACTORS
330
C
102
}
330
C
100
AcDbXrecord
280
     1
  1
DWGPROPS COOKIE
  2

  3

  4

  6

  7

  8
9128
  9

300
=
301
=
302
=
303
=
304
=
305
=
306
=
307
=
308
=
309
=
 40
0.0
 41
2460397.174610845
 42
2460397.174626748
  1

 90
        0
  0
LAYOUT
  5
1E
102
{ACAD_REACTORS
330
1A
102
}
330
1A
100
AcDbPlotSettings
  1

  2
none_device
  4

  6

 40
0.0
 41
0.0
 42
0.0
 43
0.0
 44
0.0
 45
0.0
 46
0.0
 47
0.0
 48
0.0
 49
0.0
140
0.0
141
0.0
142
1.0
143
1.0
 70
   688
 72
     1
 73
     0
 74
     5
  7

 75
    16
147
1.0
148
0.0
149
0.0
100
AcDbLayout
  1
Layout1
 70
     1
 71
     1
 10
0.0
 20
0.0
 11
420.0
 21
297.0
 12
0.0
 22
0.0
 32
0.0
 14
1.0000000000E+20
 24
1.0000000000E+20
 34
1.0000000000E+20
 15
-1.0000000000E+20
 25
-1.0000000000E+20
 35
-1.0000000000E+20
146
0.0
 13
0.0
 23
0.0
 33
0.0
 16
1.0
 26
0.0
 36
0.0
 17
0.0
 27
1.0
 37
0.0
 76
     0
330
1B
  0
LAYOUT
  5
26
102
{ACAD_REACTORS
330
1A
102
}
330
1A
100
AcDbPlotSettings
  1

  2
none_device
  4

  6

 40
0.0
 41
0.0
 42
0.0
 43
0.0
 44
0.0
 45
0.0
 46
0.0
 47
0.0
 48
0.0
 49
0.0
140
0.0
141
0.0
142
1.0
143
1.0
 70
   688
 72
     1
 73
     0
 74
     5
  7

 75
    16
147
1.0
148
0.0
149
0.0
100
AcDbLayout
  1
Layout2
 70
     1
 71
     2
 10
0.0
 20
0.0
 11
0.0
 21
0.0
 12
0.0
 22
0.0
 32
0.0
 14
0.0
 24
0.0
 34
0.0
 15
0.0
 25
0.0
 35
0.0
146
0.0
 13
0.0
 23
0.0
 33
0.0
 16
1.0
 26
0.0
 36
0.0
 17
0.0
 27
1.0
 37
0.0
 76
     0
330
23
  0
LAYOUT
  5
22
102
{ACAD_REACTORS
330
1A
102
}
330
1A
100
AcDbPlotSettings
  1

  2
none_device
  4
Letter_(8.50_x_11.00_Inches)
  6

 40
6.35
 41
6.35
 42
6.35000508
 43
6.35000508
 44
215.9
 45
279.4
 46
0.0
 47
0.0
 48
0.0
 49
0.0
140
0.0
141
0.0
142
1.0
143
1.0
 70
  1712
 72
     1
 73
     0
 74
     0
  7

 75
     0
147
1.0
148
0.0
149
0.0
100
AcDbLayout
  1
Model
 70
     1
 71
     0
 10
0.0
 20
0.0
 11
2100.0
 21
2970.0
 12
0.0
 22
0.0
 32
0.0
 14
0.0
 24
0.0
 34
0.0
 15
2100.0
 25
2970.0
 35
0.0
146
0.0
 13
0.0
 23
0.0
 33
0.0
 16
1.0
 26
0.0
 36
0.0
 17
0.0
 27
1.0
 37
0.0
 76
     0
330
1F
331
29
  0
MLINESTYLE
  5
18
102
{ACAD_REACTORS
330
17
102
}
330
17
100
AcDbMlineStyle
  2
Standard
 70
     0
  3

 62
   256
 51
90.0
 52
90.0
 71
     2
 49
0.5
 62
   256
  6
BYLAYER
 49
-0.5
 62
   256
  6
BYLAYER
  0
ACDBPLACEHOLDER
  5
F
102
{ACAD_REACTORS
330
E
102
}
330
E
  0
SCALE
  5
48
102
{ACAD_REACTORS
330
47
102
}
330
47
100
AcDbScale
 70
     0
300
1:1
140
1.0
141
1.0
290
     1
  0
SCALE
  5
49
102
{ACAD_REACTORS
330
47
102
}
330
47
100
AcDbScale
 70
     0
300
1:2
140
1.0
141
2.0
290
     0
  0
SCALE
  5
4A
102
{ACAD_REACTORS
330
47
102
}
330
47
100
AcDbScale
 70
     0
300
1:4
140
1.0
141
4.0
290
     0
  0
SCALE
  5
4B
102
{ACAD_REACTORS
330
47
102
}
330
47
100
AcDbScale
 70
     0
300
1:5
140
1.0
141
5.0
290
     0
  0
SCALE
  5
4C
102
{ACAD_REACTORS
330
47
102
}
330
47
100
AcDbScale
 70
     0
300
1:8
140
1.0
141
8.0
290
     0
  0
SCALE
  5
4D
102
{ACAD_REACTORS
330
47
102
}
330
47
100
AcDbScale
 70
     0
300
1:10
140
1.0
141
10.0
290
     0
  0
SCALE
  5
4E
102
{ACAD_REACTORS
330
47
102
}
330
47
100
AcDbScale
 70
     0
300
1:16
140
1.0
141
16.0
290
     0
  0
SCALE
  5
4F
102
{ACAD_REACTORS
330
47
102
}
330
47
100
AcDbScale
 70
     0
300
1:20
140
1.0
141
20.0
290
     0
  0
SCALE
  5
50
102
{ACAD_REACTORS
330
47
102
}
330
47
100
AcDbScale
 70
     0
300
1:30
140
1.0
141
30.0
290
     0
  0
SCALE
  5
51
102
{ACAD_REACTORS
330
47
102
}
330
47
100
AcDbScale
 70
     0
300
1:40
140
1.0
141
40.0
290
     0
  0
SCALE
  5
52
102
{ACAD_REACTORS
330
47
102
}
330
47
100
AcDbScale
 70
     0
300
1:50
140
1.0
141
50.0
290
     0
  0
SCALE
  5
53
102
{ACAD_REACTORS
330
47
102
}
330
47
100
AcDbScale
 70
     0
300
1:100
140
1.0
141
100.0
290
     0
  0
SCALE
  5
54
102
{ACAD_REACTORS
330
47
102
}
330
47
100
AcDbScale
 70
     0
300
2:1
140
2.0
141
1.0
290
     0
  0
SCALE
  5
55
102
{ACAD_REACTORS
330
47
102
}
330
47
100
AcDbScale
 70
     0
300
4:1
140
4.0
141
1.0
290
     0
  0
SCALE
  5
56
102
{ACAD_REACTORS
330
47
102
}
330
47
100
AcDbScale
 70
     0
300
8:1
140
8.0
141
1.0
290
     0
  0
SCALE
  5
57
102
{ACAD_REACTORS
330
47
102
}
330
47
100
AcDbScale
 70
     0
300
10:1
140
10.0
141
1.0
290
     0
  0
SCALE
  5
58
102
{ACAD_REACTORS
330
47
102
}
330
47
100
AcDbScale
 70
     0
300
100:1
140
100.0
141
1.0
290
     0
  0
ENDSEC
  0
EOF
