  0
SECTION
  2
HEADER
  9
$ACADVER
  1
AC1015
  9
$ACADMAINTVER
 70
     6
  9
$DWGCODEPAGE
  3
DOS932
  9
$INSBASE
 10
0.0
 20
0.0
 30
0.0
  9
$EXTMIN
 10
0.0
 20
0.0
 30
0.0
  9
$EXTMAX
 10
2100.0
 20
2970.0
 30
0.0
  9
$LIMMIN
 10
0.0
 20
0.0
  9
$LIMMAX
 10
2100.0
 20
2970.0
  9
$ORTHOMODE
 70
     0
  9
$REGENMODE
 70
     1
  9
$FILLMODE
 70
     1
  9
$QTEXTMODE
 70
     0
  9
$MIRRTEXT
 70
     1
  9
$LTSCALE
 40
10.0
  9
$ATTMODE
 70
     1
  9
$TEXTSIZE
 40
35.2777777778
  9
$TRACEWID
 40
1.0
  9
$TEXTSTYLE
  7
Standard
  9
$CLAYER
  8
0
  9
$CELTYPE
  6
ByLayer
  9
$CECOLOR
 62
   256
  9
$CELTSCALE
 40
1.0
  9
$DISPSILH
 70
     0
  9
$DIMSCALE
 40
1.0
  9
$DIMASZ
 40
15.0
  9
$DIMEXO
 40
10.0
  9
$DIMDLI
 40
3.75
  9
$DIMRND
 40
0.0
  9
$DIMDLE
 40
0.0
  9
$DIMEXE
 40
10.0
  9
$DIMTP
 40
0.0
  9
$DIMTM
 40
0.0
  9
$DIMTXT
 40
35.2777777778
  9
$DIMCEN
 40
2.5
  9
$DIMTSZ
 40
0.0
  9
$DIMTOL
 70
     0
  9
$DIMLIM
 70
     0
  9
$DIMTIH
 70
     1
  9
$DIMTOH
 70
     1
  9
$DIMSE1
 70
     0
  9
$DIMSE2
 70
     0
  9
$DIMTAD
 70
     1
  9
$DIMZIN
 70
     0
  9
$DIMBLK
  1

  9
$DIMASO
 70
     1
  9
$DIMSHO
 70
     1
  9
$DIMPOST
  1

  9
$DIMAPOST
  1

  9
$DIMALT
 70
     0
  9
$DIMALTD
 70
     3
  9
$DIMALTF
 40
0.0393700787
  9
$DIMLFAC
 40
1.0
  9
$DIMTOFL
 70
     1
  9
$DIMTVP
 40
0.0
  9
$DIMTIX
 70
     0
  9
$DIMSOXD
 70
     0
  9
$DIMSAH
 70
     0
  9
$DIMBLK1
  1

  9
$DIMBLK2
  1

  9
$DIMSTYLE
  2
ISO-25
  9
$DIMCLRD
 70
     0
  9
$DIMCLRE
 70
     0
  9
$DIMCLRT
 70
     0
  9
$DIMTFAC
 40
1.0
  9
$DIMGAP
 40
15.0
  9
$DIMJUST
 70
     0
  9
$DIMSD1
 70
     0
  9
$DIMSD2
 70
     0
  9
$DIMTOLJ
 70
     0
  9
$DIMTZIN
 70
     0
  9
$DIMALTZ
 70
     0
  9
$DIMALTTZ
 70
     0
  9
$DIMUPT
 70
     0
  9
$DIMDEC
 70
     1
  9
$DIMTDEC
 70
     1
  9
$DIMALTU
 70
     2
  9
$DIMALTTD
 70
     3
  9
$DIMTXSTY
  7
Standard
  9
$DIMAUNIT
 70
     0
  9
$DIMADEC
 70
     2
  9
$DIMALTRND
 40
0.0
  9
$DIMAZIN
 70
     0
  9
$DIMDSEP
 70
    44
  9
$DIMATFIT
 70
     3
  9
$DIMFRAC
 70
     0
  9
$DIMLDRBLK
  1

  9
$DIMLUNIT
 70
     2
  9
$DIMLWD
 70
    -2
  9
$DIMLWE
 70
    -2
  9
$DIMTMOVE
 70
     0
  9
$LUNITS
 70
     2
  9
$LUPREC
 70
     2
  9
$SKETCHINC
 40
1.0
  9
$FILLETRAD
 40
0.0
  9
$AUNITS
 70
     0
  9
$AUPREC
 70
     2
  9
$MENU
  1
.
  9
$ELEVATION
 40
0.0
  9
$PELEVATION
 40
0.0
  9
$THICKNESS
 40
0.0
  9
$LIMCHECK
 70
     0
  9
$CHAMFERA
 40
0.0
  9
$CHAMFERB
 40
0.0
  9
$CHAMFERC
 40
0.0
  9
$CHAMFERD
 40
0.0
  9
$SKPOLY
 70
     0
  9
$TDCREATE
 40
2460397.554222188
  9
$TDUCREATE
 40
2460397.179222188
  9
$TDUPDATE
 40
2460397.554238079
  9
$TDUUPDATE
 40
2460397.179238079
  9
$TDINDWG
 40
0.0000000116
  9
$TDUSRTIMER
 40
0.0000000116
  9
$USRTIMER
 70
     1
  9
$ANGBASE
 50
0.0
  9
$ANGDIR
 70
     0
  9
$PDMODE
 70
     0
  9
$PDSIZE
 40
-1.0
  9
$PLINEWID
 40
0.0
  9
$SPLFRAME
 70
     0
  9
$SPLINETYPE
 70
     6
  9
$SPLINESEGS
 70
     8
  9
$HANDSEED
  5
96
  9
$SURFTAB1
 70
     6
  9
$SURFTAB2
 70
     6
  9
$SURFTYPE
 70
     6
  9
$SURFU
 70
     6
  9
$SURFV
 70
     6
  9
$UCSBASE
  2

  9
$UCSNAME
  2

  9
$UCSORG
 10
0.0
 20
0.0
 30
0.0
  9
$UCSXDIR
 10
1.0
 20
0.0
 30
0.0
  9
$UCSYDIR
 10
0.0
 20
1.0
 30
0.0
  9
$UCSORTHOREF
  2

  9
$UCSORTHOVIEW
 70
     0
  9
$UCSORGTOP
 10
0.0
 20
0.0
 30
0.0
  9
$UCSORGBOTTOM
 10
0.0
 20
0.0
 30
0.0
  9
$UCSORGLEFT
 10
0.0
 20
0.0
 30
0.0
  9
$UCSORGRIGHT
 10
0.0
 20
0.0
 30
0.0
  9
$UCSORGFRONT
 10
0.0
 20
0.0
 30
0.0
  9
$UCSORGBACK
 10
0.0
 20
0.0
 30
0.0
  9
$PUCSBASE
  2

  9
$PUCSNAME
  2

  9
$PUCSORG
 10
0.0
 20
0.0
 30
0.0
  9
$PUCSXDIR
 10
1.0
 20
0.0
 30
0.0
  9
$PUCSYDIR
 10
0.0
 20
1.0
 30
0.0
  9
$PUCSORTHOREF
  2

  9
$PUCSORTHOVIEW
 70
     0
  9
$PUCSORGTOP
 10
0.0
 20
0.0
 30
0.0
  9
$PUCSORGBOTTOM
 10
0.0
 20
0.0
 30
0.0
  9
$PUCSORGLEFT
 10
0.0
 20
0.0
 30
0.0
  9
$PUCSORGRIGHT
 10
0.0
 20
0.0
 30
0.0
  9
$PUCSORGFRONT
 10
0.0
 20
0.0
 30
0.0
  9
$PUCSORGBACK
 10
0.0
 20
0.0
 30
0.0
  9
$USERI1
 70
     0
  9
$USERI2
 70
     0
  9
$USERI3
 70
     0
  9
$USERI4
 70
     0
  9
$USERI5
 70
     0
  9
$USERR1
 40
0.0
  9
$USERR2
 40
0.0
  9
$USERR3
 40
0.0
  9
$USERR4
 40
0.0
  9
$USERR5
 40
0.0
  9
$WORLDVIEW
 70
     1
  9
$SHADEDGE
 70
     3
  9
$SHADEDIF
 70
    70
  9
$TILEMODE
 70
     1
  9
$MAXACTVP
 70
    64
  9
$PINSBASE
 10
0.0
 20
0.0
 30
0.0
  9
$PLIMCHECK
 70
     0
  9
$PEXTMIN
 10
1.0000000000E+20
 20
1.0000000000E+20
 30
1.0000000000E+20
  9
$PEXTMAX
 10
-1.0000000000E+20
 20
-1.0000000000E+20
 30
-1.0000000000E+20
  9
$PLIMMIN
 10
0.0
 20
0.0
  9
$PLIMMAX
 10
420.0
 20
297.0
  9
$UNITMODE
 70
     0
  9
$VISRETAIN
 70
     1
  9
$PLINEGEN
 70
     0
  9
$PSLTSCALE
 70
     1
  9
$TREEDEPTH
 70
  3020
  9
$CMLSTYLE
  2
Standard
  9
$CMLJUST
 70
     0
  9
$CMLSCALE
 40
20.0
  9
$PROXYGRAPHICS
 70
     1
  9
$MEASUREMENT
 70
     1
  9
$CELWEIGHT
370
    -1
  9
$ENDCAPS
280
     0
  9
$JOINSTYLE
280
     0
  9
$LWDISPLAY
290
     1
  9
$INSUNITS
 70
     4
  9
$HYPERLINKBASE
  1

  9
$STYLESHEET
  1

  9
$XEDIT
290
     1
  9
$CEPSNTYPE
380
     0
  9
$PSTYLEMODE
290
     1
  9
$FINGERPRINTGUID
  2
{d3410efb-647d-45de-9810-f3be8a5395e5}
  9
$VERSIONGUID
  2
{FAEB1C32-E019-11D5-929B-00C0DF256EC4}
  9
$EXTNAMES
290
     1
  9
$PSVPSCALE
 40
0.0
  9
$OLESTARTUP
290
     0
  0
ENDSEC
  0
SECTION
  2
CLASSES
  0
CLASS
  1
ACDBDICTIONARYWDFLT
  2
AcDbDictionaryWithDefault
  3
ObjectDBX Classes
 90
        0
280
     0
281
     0
  0
CLASS
  1
VISUALSTYLE
  2
AcDbVisualStyle
  3
ObjectDBX Classes
 90
     4095
280
     0
281
     0
  0
CLASS
  1
MATERIAL
  2
AcDbMaterial
  3
ObjectDBX Classes
 90
     1153
280
     0
281
     0
  0
CLASS
  1
SCALE
  2
AcDbScale
  3
ObjectDBX Classes
 90
     1153
280
     0
281
     0
  0
CLASS
  1
TABLESTYLE
  2
AcDbTableStyle
  3
ObjectDBX Classes
 90
     4095
280
     0
281
     0
  0
CLASS
  1
MLEADERSTYLE
  2
AcDbMLeaderStyle
  3
ACDB_MLEADERSTYLE_CLASS
 90
     4095
280
     0
281
     0
  0
CLASS
  1
SUN
  2
AcDbSun
  3
SCENEOE
 90
     1153
280
     0
281
     0
  0
CLASS
  1
ACDBPLACEHOLDER
  2
AcDbPlaceHolder
  3
ObjectDBX Classes
 90
        0
280
     0
281
     0
  0
CLASS
  1
LAYOUT
  2
AcDbLayout
  3
ObjectDBX Classes
 90
        0
280
     0
281
     0
  0
ENDSEC
  0
SECTION
  2
TABLES
  0
TABLE
  2
VPORT
  5
8
330
0
100
AcDbSymbolTable
 70
     1
  0
VPORT
  5
29
330
8
100
AcDbSymbolTableRecord
100
AcDbViewportTableRecord
  2
*Active
 70
     0
 10
0.0
 20
0.0
 11
1.0
 21
1.0
 12
1050.0
 22
1485.0
 13
0.0
 23
0.0
 14
10.0
 24
10.0
 15
10.0
 25
10.0
 16
0.0
 26
0.0
 36
1.0
 17
0.0
 27
0.0
 37
0.0
 40
2970.0
 41
0.7070707071
 42
50.0
 43
0.0
 44
0.0
 50
0.0
 51
0.0
 71
     0
 72
  2000
 73
     1
 74
     3
 75
     0
 76
     0
 77
     0
 78
     0
281
     0
 65
     1
110
0.0
120
0.0
130
0.0
111
1.0
121
0.0
131
0.0
112
0.0
122
1.0
132
0.0
 79
     0
146
0.0
  0
ENDTAB
  0
TABLE
  2
LTYPE
  5
5
330
0
100
AcDbSymbolTable
 70
     6
  0
LTYPE
  5
14
330
5
100
AcDbSymbolTableRecord
100
AcDbLinetypeTableRecord
  2
ByBlock
 70
     0
  3

 72
    65
 73
     0
 40
0.0
  0
LTYPE
  5
15
330
5
100
AcDbSymbolTableRecord
100
AcDbLinetypeTableRecord
  2
ByLayer
 70
     0
  3

 72
    65
 73
     0
 40
0.0
  0
LTYPE
  5
16
330
5
100
AcDbSymbolTableRecord
100
AcDbLinetypeTableRecord
  2
Continuous
 70
     0
  3
Solid line
 72
    65
 73
     0
 40
0.0
  0
LTYPE
  5
5E
330
5
100
AcDbSymbolTableRecord
100
AcDbLinetypeTableRecord
  2
HIDDEN
 70
     0
  3
Hidden __ __ __ __ __ __ __ __ __ __ __ __ __ __
 72
    65
 73
     2
 40
1.905
 49
1.27
 74
     0
 49
-0.635
 74
     0
  0
LTYPE
  5
5F
330
5
100
AcDbSymbolTableRecord
100
AcDbLinetypeTableRecord
  2
PHANTOM
 70
     0
  3
Phantom ______  __  __  ______  __  __  ______
 72
    65
 73
     6
 40
12.7
 49
6.35
 74
     0
 49
-1.27
 74
     0
 49
1.27
 74
     0
 49
-1.27
 74
     0
 49
1.27
 74
     0
 49
-1.27
 74
     0
  0
LTYPE
  5
60
330
5
100
AcDbSymbolTableRecord
100
AcDbLinetypeTableRecord
  2
CENTER
 70
     0
  3
Center ____ _ ____ _ ____ _ ____ _ ____ _ ____
 72
    65
 73
     4
 40
10.16
 49
6.35
 74
     0
 49
-1.27
 74
     0
 49
1.27
 74
     0
 49
-1.27
 74
     0
  0
LTYPE
  5
61
330
5
100
AcDbSymbolTableRecord
100
AcDbLinetypeTableRecord
  2
CENTERX2
 70
     0
  3
Center (2x) ________  __  ________  __  _____
 72
    65
 73
     4
 40
20.32
 49
12.7
 74
     0
 49
-2.54
 74
     0
 49
2.54
 74
     0
 49
-2.54
 74
     0
  0
LTYPE
  5
62
330
5
100
AcDbSymbolTableRecord
100
AcDbLinetypeTableRecord
  2
DOT2
 70
     0
  3
Dot (.5x) ........................................
 72
    65
 73
     2
 40
0.635
 49
0.0
 74
     0
 49
-0.635
 74
     0
  0
ENDTAB
  0
TABLE
  2
LAYER
  5
2
330
0
100
AcDbSymbolTable
 70
     2
  0
LAYER
  5
10
330
2
100
AcDbSymbolTableRecord
100
AcDbLayerTableRecord
  2
0
 70
     0
 62
     7
  6
Continuous
370
    -3
390
F
  0
LAYER
  5
63
330
2
100
AcDbSymbolTableRecord
100
AcDbLayerTableRecord
  2
FORMAT
 70
     0
 62
     7
  6
Continuous
370
    -3
390
F
  0
ENDTAB
  0
TABLE
  2
STYLE
  5
3
330
0
100
AcDbSymbolTable
 70
     2
  0
STYLE
  5
11
330
3
100
AcDbSymbolTableRecord
100
AcDbTextStyleTableRecord
  2
Standard
 70
     0
 40
0.0
 41
1.0
 50
0.0
 71
     0
 42
35.2777777778
  3
txt
  4
bigfont
  0
STYLE
  5
64
330
3
100
AcDbSymbolTableRecord
100
AcDbTextStyleTableRecord
  2
SLDTEXTSTYLE0
 70
     0
 40
0.0
 41
0.7
 50
0.0
 71
     0
 42
35.2777777778
  3
TXT
  4
bigfont
  0
ENDTAB
  0
TABLE
  2
VIEW
  5
6
330
0
100
AcDbSymbolTable
 70
     0
  0
ENDTAB
  0
TABLE
  2
UCS
  5
7
330
0
100
AcDbSymbolTable
 70
     0
  0
ENDTAB
  0
TABLE
  2
APPID
  5
9
330
0
100
AcDbSymbolTable
 70
     1
  0
APPID
  5
12
330
9
100
AcDbSymbolTableRecord
100
AcDbRegAppTableRecord
  2
ACAD
 70
     0
  0
ENDTAB
  0
TABLE
  2
DIMSTYLE
  5
A
330
0
100
AcDbSymbolTable
 70
     1
100
AcDbDimStyleTable
  0
DIMSTYLE
105
27
330
A
100
AcDbSymbolTableRecord
100
AcDbDimStyleTableRecord
  2
ISO-25
 70
     0
 41
2.5
 42
0.625
 43
3.75
 44
1.25
 73
     0
 74
     0
 77
     1
 78
     8
140
2.5
141
2.5
143
0.0393700787
147
0.625
171
     3
172
     1
178
     0
271
     2
272
     2
274
     3
278
    44
283
     0
284
     8
340
11
  0
ENDTAB
  0
TABLE
  2
BLOCK_RECORD
  5
1
330
0
100
AcDbSymbolTable
 70
     1
  0
BLOCK_RECORD
  5
1F
330
1
100
AcDbSymbolTableRecord
100
AcDbBlockTableRecord
  2
*Model_Space
340
22
  0
BLOCK_RECORD
  5
1B
330
1
100
AcDbSymbolTableRecord
100
AcDbBlockTableRecord
  2
*Paper_Space
340
1E
  0
BLOCK_RECORD
  5
23
330
1
100
AcDbSymbolTableRecord
100
AcDbBlockTableRecord
  2
*Paper_Space0
340
26
  0
ENDTAB
  0
ENDSEC
  0
SECTION
  2
BLOCKS
  0
BLOCK
  5
20
330
1F
100
AcDbEntity
  8
0
100
AcDbBlockBegin
  2
*Model_Space
 70
     0
 10
0.0
 20
0.0
 30
0.0
  3
*Model_Space
  1

  0
ENDBLK
  5
21
330
1F
100
AcDbEntity
  8
0
100
AcDbBlockEnd
  0
BLOCK
  5
1C
330
1B
100
AcDbEntity
 67
     1
  8
0
100
AcDbBlockBegin
  2
*Paper_Space
 70
     0
 10
0.0
 20
0.0
 30
0.0
  3
*Paper_Space
  1

  0
ENDBLK
  5
1D
330
1B
100
AcDbEntity
 67
     1
  8
0
100
AcDbBlockEnd
  0
BLOCK
  5
24
330
23
100
AcDbEntity
  8
0
100
AcDbBlockBegin
  2
*Paper_Space0
 70
     0
 10
0.0
 20
0.0
 30
0.0
  3
*Paper_Space0
  1

  0
ENDBLK
  5
25
330
23
100
AcDbEntity
  8
0
100
AcDbBlockEnd
  0
ENDSEC
  0
SECTION
  2
ENTITIES
  0
MTEXT
  5
65
330
1F
100
AcDbEntity
  8
0
  6
Continuous
 62
     7
370
     0
100
AcDbMText
 10
1225.1799006677
 20
1328.5720554325
 30
0.0
 40
26.4583333333
 41
0.0
 71
     1
 72
     1
  1
HBB-D118Y/B/K/T/S
  7
SLDTEXTSTYLE0
 73
     1
 44
1.0
  0
ARC
  5
66
330
1F
100
AcDbEntity
  8
0
  6
Continuous
 62
     7
370
    25
100
AcDbCircle
 10
1093.253625
 20
1200.2205
 30
0.0
 40
2.500000000000227
100
AcDbArc
 50
270.0
 51
90.0
  0
ARC
  5
67
330
1F
100
AcDbEntity
  8
0
  6
Continuous
 62
     7
370
    25
100
AcDbCircle
 10
1033.253625
 20
1200.2205
 30
0.0
 40
2.500000000000227
100
AcDbArc
 50
90.0
 51
270.0
  0
ARC
  5
68
330
1F
100
AcDbEntity
  8
0
  6
Continuous
 62
     7
370
    25
100
AcDbCircle
 10
1093.253625
 20
1205.2205
 30
0.0
 40
2.5
100
AcDbArc
 50
270.0
 51
90.0
  0
ARC
  5
69
330
1F
100
AcDbEntity
  8
0
  6
Continuous
 62
     7
370
    25
100
AcDbCircle
 10
1033.253625
 20
1205.2205
 30
0.0
 40
2.5
100
AcDbArc
 50
90.0
 51
270.0
  0
ARC
  5
6A
330
1F
100
AcDbEntity
  8
0
  6
Continuous
 62
     7
370
    25
100
AcDbCircle
 10
1093.253625
 20
1700.2205
 30
0.0
 40
2.5
100
AcDbArc
 50
270.0
 51
90.0
  0
ARC
  5
6B
330
1F
100
AcDbEntity
  8
0
  6
Continuous
 62
     7
370
    25
100
AcDbCircle
 10
1033.253625
 20
1700.2205
 30
0.0
 40
2.5
100
AcDbArc
 50
90.0
 51
270.0
  0
ARC
  5
6C
330
1F
100
AcDbEntity
  8
0
  6
Continuous
 62
     7
370
    25
100
AcDbCircle
 10
1093.253625
 20
1705.2205
 30
0.0
 40
2.5
100
AcDbArc
 50
270.0
 51
90.0
  0
ARC
  5
6D
330
1F
100
AcDbEntity
  8
0
  6
Continuous
 62
     7
370
    25
100
AcDbCircle
 10
1033.253625
 20
1705.2205
 30
0.0
 40
2.5
100
AcDbArc
 50
90.0
 51
270.0
  0
LINE
  5
6E
330
1F
100
AcDbEntity
  8
0
  6
Continuous
 62
     7
370
    25
100
AcDbLine
 10
1093.253625
 20
957.7205
 30
0.0
 11
1093.253625
 21
1197.7205
 31
0.0
  0
LINE
  5
6F
330
1F
100
AcDbEntity
  8
0
  6
Continuous
 62
     7
370
    25
100
AcDbLine
 10
1033.253625
 20
1197.7205
 30
0.0
 11
1033.253625
 21
957.7205
 31
0.0
  0
LINE
  5
70
330
1F
100
AcDbEntity
  8
0
  6
Continuous
 62
     7
370
    25
100
AcDbLine
 10
1093.253625
 20
1207.7205
 30
0.0
 11
1093.253625
 21
1697.7205
 31
0.0
  0
LINE
  5
71
330
1F
100
AcDbEntity
  8
0
  6
Continuous
 62
     7
370
    25
100
AcDbLine
 10
1033.253625
 20
1697.7205
 30
0.0
 11
1033.253625
 21
1207.7205
 31
0.0
  0
LINE
  5
72
330
1F
100
AcDbEntity
  8
0
  6
Continuous
 62
     7
370
    25
100
AcDbLine
 10
1093.253625
 20
1707.7205
 30
0.0
 11
1093.253625
 21
2051.5679188089
 31
0.0
  0
LINE
  5
73
330
1F
100
AcDbEntity
  8
0
  6
Continuous
 62
     7
370
    25
100
AcDbLine
 10
1033.253625
 20
2021.8606288985
 30
0.0
 11
1033.253625
 21
1707.7205
 31
0.0
  0
LINE
  5
74
330
1F
100
AcDbEntity
  8
0
  6
Continuous
 62
     7
370
    25
100
AcDbLine
 10
1041.6057837361
 20
1998.2095678601
 30
0.0
 11
1042.3692375028
 21
1998.2472713494
 31
0.0
  0
LINE
  5
75
330
1F
100
AcDbEntity
  8
0
  6
Continuous
 62
     7
370
    25
100
AcDbLine
 10
1039.7139962455
 20
2000.7426514876
 30
0.0
 11
1039.7147098987
 21
2000.6933013059
 31
0.0
  0
LINE
  5
76
330
1F
100
AcDbEntity
  8
0
  6
Continuous
 62
     7
370
    25
100
AcDbLine
 10
1039.722008858
 20
2000.5455054906
 30
0.0
 11
1039.7261611776
 21
2000.4963251288
 31
0.0
  0
LINE
  5
77
330
1F
100
AcDbEntity
  8
0
  6
Continuous
 62
     7
370
    25
100
AcDbLine
 10
1044.1858612985
 20
2003.3430796767
 30
0.0
 11
1041.3591571751
 21
2003.2034816899
 31
0.0
  0
LINE
  5
78
330
1F
100
AcDbEntity
  8
0
  6
Continuous
 62
     7
370
    25
100
AcDbLine
 10
1093.253625
 20
1202.7205
 30
0.0
 11
1033.253625
 21
1202.7205
 31
0.0
  0
LINE
  5
79
330
1F
100
AcDbEntity
  8
0
  6
Continuous
 62
     7
370
    25
100
AcDbLine
 10
1042.0404215644
 20
1197.7205
 30
0.0
 11
1093.253625
 21
1197.7205
 31
0.0
  0
LINE
  5
7A
330
1F
100
AcDbEntity
  8
0
  6
Continuous
 62
     7
370
    25
100
AcDbLine
 10
1033.253625
 20
1197.7205
 30
0.0
 11
1042.0404215644
 21
1197.7205
 31
0.0
  0
LINE
  5
7B
330
1F
100
AcDbEntity
  8
0
  6
Continuous
 62
     7
370
    25
100
AcDbLine
 10
1093.253625
 20
1207.7205
 30
0.0
 11
1033.253625
 21
1207.7205
 31
0.0
  0
LINE
  5
7C
330
1F
100
AcDbEntity
  8
0
  6
Continuous
 62
     7
370
    25
100
AcDbLine
 10
1093.253625
 20
1702.7205
 30
0.0
 11
1033.253625
 21
1702.7205
 31
0.0
  0
LINE
  5
7D
330
1F
100
AcDbEntity
  8
0
  6
Continuous
 62
     7
370
    25
100
AcDbLine
 10
1042.0404215644
 20
1697.7205
 30
0.0
 11
1093.253625
 21
1697.7205
 31
0.0
  0
LINE
  5
7E
330
1F
100
AcDbEntity
  8
0
  6
Continuous
 62
     7
370
    25
100
AcDbLine
 10
1033.253625
 20
1697.7205
 30
0.0
 11
1042.0404215644
 21
1697.7205
 31
0.0
  0
LINE
  5
7F
330
1F
100
AcDbEntity
  8
0
  6
Continuous
 62
     7
370
    25
100
AcDbLine
 10
1093.253625
 20
1707.7205
 30
0.0
 11
1033.253625
 21
1707.7205
 31
0.0
  0
LINE
  5
80
330
1F
100
AcDbEntity
  8
0
  6
Continuous
 62
     7
370
    25
100
AcDbLine
 10
1084.4668284356
 20
957.7205
 30
0.0
 11
1093.253625
 21
957.7205
 31
0.0
  0
LINE
  5
81
330
1F
100
AcDbEntity
  8
0
  6
Continuous
 62
     7
370
    25
100
AcDbLine
 10
1033.253625
 20
957.7205
 30
0.0
 11
1084.4668284356
 21
957.7205
 31
0.0
  0
SPLINE
  5
82
330
1F
100
AcDbEntity
  8
0
  6
Continuous
 62
     7
370
    25
100
AcDbSpline
210
0.0
220
0.0
230
1.0
 70
    11
 71
     3
 72
    87
 73
    83
 74
     0
 42
0.00000001
 43
0.00000001
 40
0.0
 40
0.0
 40
0.0
 40
0.0
 40
0.0112344993889977
 40
0.0225190259685245
 40
0.033811178471106
 40
0.0450561218275991
 40
0.0562012491772571
 40
0.0673772365099147
 40
0.0785594658183255
 40
0.0897131276374662
 40
0.1026055743418692
 40
0.1155335963758293
 40
0.1284613537444813
 40
0.1413534385443865
 40
0.1561073651514885
 40
0.1709275636904004
 40
0.185735339115493
 40
0.2004722463345485
 40
0.2135495572513168
 40
0.2266913265905297
 40
0.2398279536138963
 40
0.2528982171980149
 40
0.263980160260872
 40
0.275102259299643
 40
0.2862272300503788
 40
0.2973131030843554
 40
0.3120400981407356
 40
0.3268077177390263
 40
0.3415433175252476
 40
0.3540482600409574
 40
0.3665873490374452
 40
0.3791292411747917
 40
0.3916380164341421
 40
0.4060890435449047
 40
0.4205965473815935
 40
0.4350916881640512
 40
0.4495257879756788
 40
0.4598380181279399
 40
0.4701844206685042
 40
0.4805244880965601
 40
0.4908280498422742
 40
0.5011718810498589
 40
0.5115567572697365
 40
0.5219448931366971
 40
0.5322931866933661
 40
0.5454265631544329
 40
0.5585939379716911
 40
0.5717376201630995
 40
0.5875121531126649
 40
0.6033234976632893
 40
0.6191035015325009
 40
0.6335186647730153
 40
0.6479877688973951
 40
0.6624489673139908
 40
0.6768533085976826
 40
0.6884899999881646
 40
0.7001663318446213
 40
0.7118374270199431
 40
0.7234669525563847
 40
0.735143900298568
 40
0.7468691923981214
 40
0.7585940029652322
 40
0.7702702913486191
 40
0.7810989068546106
 40
0.7919624654031817
 40
0.8028297248945849
 40
0.8136634031051532
 40
0.8251244998799221
 40
0.8366167343470654
 40
0.8481131957282695
 40
0.8595800717422211
 40
0.8728552560116037
 40
0.8861693995775908
 40
0.8994834861677249
 40
0.9127585925146864
 40
0.9250181494405114
 40
0.9373175473646798
 40
0.9496068622667035
 40
0.961852622824969
 40
0.9745599889650252
 40
0.9872998829892579
 40
1.0
 40
1.0
 40
1.0
 40
1.0
 10
1033.300101075427
 20
1397.720499999999
 30
0.0
 10
1033.300712204098
 20
1398.207810678278
 30
0.0
 10
1033.301937182795
 20
1399.184602027755
 30
0.0
 10
1033.314668101811
 20
1400.636742127142
 30
0.0
 10
1033.339110134946
 20
1402.063585810686
 30
0.0
 10
1033.378521520498
 20
1403.4483973288
 30
0.0
 10
1033.436920379136
 20
1404.783436636252
 30
0.0
 10
1033.519735006212
 20
1406.067974239581
 30
0.0
 10
1033.631664288825
 20
1407.301313788447
 30
0.0
 10
1033.78527374545
 20
1408.541012954628
 30
0.0
 10
1033.994272329176
 20
1409.775400364521
 30
0.0
 10
1034.273110621367
 20
1410.991393140493
 30
0.0
 10
1034.618332152322
 20
1412.12628903809
 30
0.0
 10
1035.056313748112
 20
1413.225886134954
 30
0.0
 10
1035.611684665074
 20
1414.269346042077
 30
0.0
 10
1036.304470841701
 20
1415.232211769612
 30
0.0
 10
1037.113542147828
 20
1416.057900478131
 30
0.0
 10
1038.007654016462
 20
1416.707930027099
 30
0.0
 10
1038.978368124931
 20
1417.186287593514
 30
0.0
 10
1040.003681255192
 20
1417.511237804359
 30
0.0
 10
1041.113111222602
 20
1417.698569639792
 30
0.0
 10
1042.238123869097
 20
1417.739811069219
 30
0.0
 10
1043.359419034074
 20
1417.653714255639
 30
0.0
 10
1044.45699444729
 20
1417.469914019062
 30
0.0
 10
1045.583574944802
 20
1417.18706715846
 30
0.0
 10
1046.854434683518
 20
1416.766376973572
 30
0.0
 10
1048.267540952605
 20
1416.169756350019
 30
0.0
 10
1049.805844772707
 20
1415.369696803348
 30
0.0
 10
1051.248021119674
 20
1414.477858692847
 30
0.0
 10
1052.582575471332
 20
1413.525352598815
 30
0.0
 10
1053.806821090855
 20
1412.538746633865
 30
0.0
 10
1054.984723511685
 20
1411.470288703414
 30
0.0
 10
1056.163718134783
 20
1410.265928320188
 30
0.0
 10
1057.322585767998
 20
1408.912472302447
 30
0.0
 10
1058.430982362935
 20
1407.399126456817
 30
0.0
 10
1059.413136943771
 20
1405.795426667435
 30
0.0
 10
1060.166979370368
 20
1404.269081911103
 30
0.0
 10
1060.717702141157
 20
1402.849987620692
 30
0.0
 10
1061.105763470724
 20
1401.561960491961
 30
0.0
 10
1061.388611704033
 20
1400.246887719006
 30
0.0
 10
1061.557813760713
 20
1398.912134924835
 30
0.0
 10
1061.60180324754
 20
1397.565345350718
 30
0.0
 10
1061.524748533382
 20
1396.216589746657
 30
0.0
 10
1061.331588808594
 20
1394.879407320337
 30
0.0
 10
1060.997343747533
 20
1393.447719065436
 30
0.0
 10
1060.489014680414
 20
1391.939638787455
 30
0.0
 10
1059.792496952741
 20
1390.376636566119
 30
0.0
 10
1058.90890739629
 20
1388.781493374809
 30
0.0
 10
1057.826934016498
 20
1387.177737743609
 30
0.0
 10
1056.545636446847
 20
1385.590682700447
 30
0.0
 10
1055.192016380904
 20
1384.161957791959
 30
0.0
 10
1053.795717835704
 20
1382.886402967183
 30
0.0
 10
1052.379225761808
 20
1381.757346918515
 30
0.0
 10
1050.916314386606
 20
1380.744612292738
 30
0.0
 10
1049.519358004853
 20
1379.915220393023
 30
0.0
 10
1048.207413092368
 20
1379.252529007505
 30
0.0
 10
1046.990358163314
 20
1378.732614407092
 30
0.0
 10
1045.783099864489
 20
1378.312144867335
 30
0.0
 10
1044.595817512767
 20
1377.996977328091
 30
0.0
 10
1043.439669172212
 20
1377.795830621769
 30
0.0
 10
1042.32266331856
 20
1377.708167327769
 30
0.0
 10
1041.256417970233
 20
1377.7339301813
 30
0.0
 10
1040.276143537283
 20
1377.871095114152
 30
0.0
 10
1039.385370397467
 20
1378.11183643678
 30
0.0
 10
1038.57820229444
 20
1378.440429029394
 30
0.0
 10
1037.834746667727
 20
1378.858344639929
 30
0.0
 10
1037.144718199247
 20
1379.371374916725
 30
0.0
 10
1036.514093406858
 20
1379.982567936472
 30
0.0
 10
1035.943192067613
 20
1380.690763125308
 30
0.0
 10
1035.441433233084
 20
1381.478743389223
 30
0.0
 10
1034.983630905888
 20
1382.386630301447
 30
0.0
 10
1034.579218977301
 20
1383.425407453763
 30
0.0
 10
1034.232262683268
 20
1384.604141963124
 30
0.0
 10
1033.954619543197
 20
1385.868355570769
 30
0.0
 10
1033.744882167988
 20
1387.1787360981
 30
0.0
 10
1033.591196356958
 20
1388.527181384305
 30
0.0
 10
1033.480859336718
 20
1389.904997193949
 30
0.0
 10
1033.40317897521
 20
1391.34284348106
 30
0.0
 10
1033.351426169639
 20
1392.852608228588
 30
0.0
 10
1033.319599824523
 20
1394.431427392208
 30
0.0
 10
1033.302572069658
 20
1396.065980807772
 30
0.0
 10
1033.300923881156
 20
1397.169568778358
 30
0.0
 10
1033.300101075427
 20
1397.720499999999
 30
0.0
  0
SPLINE
  5
83
330
1F
100
AcDbEntity
  8
0
  6
Continuous
 62
     7
370
    25
100
AcDbSpline
210
0.0
220
0.0
230
1.0
 70
    11
 71
     3
 72
    45
 73
    41
 74
     0
 42
0.00000001
 43
0.00000001
 40
0.0
 40
0.0
 40
0.0
 40
0.0
 40
0.026414438198841
 40
0.0528306992302578
 40
0.0792257346254828
 40
0.105623278052162
 40
0.1324135685963382
 40
0.1592032739001092
 40
0.186270200583831
 40
0.2133341608252416
 40
0.2399804494723293
 40
0.2666260357400682
 40
0.2928251634066105
 40
0.3190266008528722
 40
0.3454172710558378
 40
0.3718097810733541
 40
0.3987432147161271
 40
0.4256750526929641
 40
0.4526842278585583
 40
0.4796904751547501
 40
0.5061544505848582
 40
0.5326188906677528
 40
0.5587760417589218
 40
0.5849359219521243
 40
0.6114926930850878
 40
0.6380503223410443
 40
0.6650945794436808
 40
0.6921363268138073
 40
0.719005184224585
 40
0.7458720027880407
 40
0.772189180539235
 40
0.7985077789914838
 40
0.8247439871756379
 40
0.8509827002917699
 40
0.8777143280343838
 40
0.9044458267454192
 40
0.9315196063699086
 40
0.9585903326027608
 40
0.9792954503628195
 40
1.0
 40
1.0
 40
1.0
 40
1.0
 10
1037.948133493355
 20
1557.7205
 30
0.0
 10
1037.957833589156
 20
1558.081109984002
 30
0.0
 10
1037.977234450153
 20
1558.802354837324
 30
0.0
 10
1038.130444617284
 20
1559.853299340708
 30
0.0
 10
1038.375496076765
 20
1560.842008383798
 30
0.0
 10
1038.717890385507
 20
1561.74944467088
 30
0.0
 10
1039.157336831784
 20
1562.546693560769
 30
0.0
 10
1039.689624180978
 20
1563.21753563598
 30
0.0
 10
1040.310008273757
 20
1563.7319411167
 30
0.0
 10
1041.000911005863
 20
1564.077413009442
 30
0.0
 10
1041.74686008614
 20
1564.23675766894
 30
0.0
 10
1042.520038526682
 20
1564.216026203935
 30
0.0
 10
1043.302787552267
 20
1564.012538509857
 30
0.0
 10
1044.071592078112
 20
1563.642680128235
 30
0.0
 10
1044.805352087984
 20
1563.108264819192
 30
0.0
 10
1045.484620322499
 20
1562.424511174214
 30
0.0
 10
1046.078878045024
 20
1561.602227103367
 30
0.0
 10
1046.566898850076
 20
1560.664411668011
 30
0.0
 10
1046.918029090439
 20
1559.63772371997
 30
0.0
 10
1047.120814714806
 20
1558.561186183346
 30
0.0
 10
1047.161045880916
 20
1557.466794553134
 30
0.0
 10
1047.048712449983
 20
1556.391230220827
 30
0.0
 10
1046.784217830661
 20
1555.358734276835
 30
0.0
 10
1046.386164556628
 20
1554.389809038798
 30
0.0
 10
1045.862460975319
 20
1553.510258001712
 30
0.0
 10
1045.232875498062
 20
1552.736143620158
 30
0.0
 10
1044.518242569844
 20
1552.100005439343
 30
0.0
 10
1043.747253952782
 20
1551.618159722899
 30
0.0
 10
1042.950771759512
 20
1551.314832113897
 30
0.0
 10
1042.160873790681
 20
1551.191717401458
 30
0.0
 10
1041.402041309381
 20
1551.255780503876
 30
0.0
 10
1040.692817688324
 20
1551.492572171606
 30
0.0
 10
1040.047732624063
 20
1551.90163902315
 30
0.0
 10
1039.472170660767
 20
1552.467240615883
 30
0.0
 10
1038.97951543779
 20
1553.183368405278
 30
0.0
 10
1038.572611580609
 20
1554.032026506747
 30
0.0
 10
1038.262883179968
 20
1554.992568980412
 30
0.0
 10
1038.06966204342
 20
1555.954739882914
 30
0.0
 10
1037.96591956166
 20
1556.872812503549
 30
0.0
 10
1037.954062128564
 20
1557.437940085619
 30
0.0
 10
1037.948133493355
 20
1557.7205
 30
0.0
  0
ELLIPSE
  5
84
330
1F
100
AcDbEntity
  8
0
  6
Continuous
 62
     7
370
    25
100
AcDbEllipse
 10
1063.253625
 20
2036.7142738537
 30
0.0
 11
29.22412069455982
 21
17.8257703844547
 31
0.0
210
0.0
220
0.0
230
1.0
 40
0.3802752731
 41
0.0
 42
6.283185307179586
  0
SPLINE
  5
85
330
1F
100
AcDbEntity
  8
0
  6
Continuous
 62
     7
370
    25
100
AcDbSpline
210
0.0
220
0.0
230
1.0
 70
     8
 71
     3
 72
    37
 73
    33
 74
     0
 42
0.00000001
 43
0.00000001
 40
0.0
 40
0.0
 40
0.0
 40
0.0
 40
0.0312763560130668
 40
0.0653913586877919
 40
0.09950702929647
 40
0.1336148113622681
 40
0.1677235424024663
 40
0.2019785733444892
 40
0.2362333675888613
 40
0.2705873812745229
 40
0.3049403204078239
 40
0.3391357817533029
 40
0.3733310095220543
 40
0.407359405843752
 40
0.4413887352658805
 40
0.4754986390248264
 40
0.5096092023268927
 40
0.543923575414772
 40
0.5782372895572071
 40
0.6125627315736268
 40
0.6468871877696064
 40
0.6810091948453751
 40
0.7151314418132336
 40
0.7491540420690068
 40
0.7831776916174916
 40
0.8173587947297064
 40
0.8515401341369216
 40
0.8858910070320115
 40
0.9202409143703408
 40
0.9545088177319833
 40
0.988776055256635
 40
1.0
 40
1.0
 40
1.0
 40
1.0
 10
1039.74821495038
 20
2001.172949726062
 30
0.0
 10
1039.730945995243
 20
2001.350971991854
 30
0.0
 10
1039.694840752065
 20
2001.723173850408
 30
0.0
 10
1039.733037940525
 20
2002.296418374873
 30
0.0
 10
1039.822460686051
 20
2002.867566763748
 30
0.0
 10
1039.975155810595
 20
2003.405581210067
 30
0.0
 10
1040.183022415133
 20
2003.897127733644
 30
0.0
 10
1040.445436342074
 20
2004.326318976512
 30
0.0
 10
1040.75541541762
 20
2004.68390231669
 30
0.0
 10
1041.108066929583
 20
2004.955694065521
 30
0.0
 10
1041.492966596222
 20
2005.136901581547
 30
0.0
 10
1041.901252433134
 20
2005.218480461891
 30
0.0
 10
1042.320020458653
 20
2005.202669667477
 30
0.0
 10
1042.738270314879
 20
2005.086511825145
 30
0.0
 10
1043.143747320152
 20
2004.877798750564
 30
0.0
 10
1043.523835023686
 20
2004.578341420296
 30
0.0
 10
1043.867935747178
 20
2004.199065864397
 30
0.0
 10
1044.162189690321
 20
2003.747184960245
 30
0.0
 10
1044.398180288691
 20
2003.237422782052
 30
0.0
 10
1044.563909998746
 20
2002.682874823477
 30
0.0
 10
1044.6560946369
 20
2002.101902694048
 30
0.0
 10
1044.668219375102
 20
2001.510576509352
 30
0.0
 10
1044.603965039608
 20
2000.926510454248
 30
0.0
 10
1044.462639041339
 20
2000.365701935891
 30
0.0
 10
1044.252685867387
 20
1999.841724501952
 30
0.0
 10
1043.978389712054
 20
1999.370673979377
 30
0.0
 10
1043.650978381435
 20
1998.962694297635
 30
0.0
 10
1043.279927944404
 20
1998.633834336194
 30
0.0
 10
1042.878736158657
 20
1998.388395835132
 30
0.0
 10
1042.461390751973
 20
1998.246378651613
 30
0.0
 10
1042.131894508111
 20
1998.190879597389
 30
0.0
 10
1041.950269396333
 20
1998.217740129017
 30
0.0
 10
1041.905457410427
 20
1998.224367372095
 30
0.0
  0
ELLIPSE
  5
86
330
1F
100
AcDbEntity
  8
0
  6
Continuous
 62
     7
370
    25
100
AcDbEllipse
 10
1063.253625
 20
2036.7142738537
 30
0.0
 11
24.84050259037576
 21
15.15190482678645
 31
0.0
210
0.0
220
0.0
230
1.0
 40
0.3802752731
 41
0.0
 42
6.283185307179586
  0
SPLINE
  5
87
330
1F
100
AcDbEntity
  8
0
  6
Continuous
 62
     7
370
    25
100
AcDbSpline
210
0.0
220
0.0
230
1.0
 70
     8
 71
     3
 72
    27
 73
    23
 74
     0
 42
0.00000001
 43
0.00000001
 40
0.0
 40
0.0
 40
0.0
 40
0.0
 40
0.0368785228555832
 40
0.073760023974255
 40
0.1118103608813293
 40
0.1498675778026438
 40
0.1992088041604889
 40
0.2485653364989612
 40
0.2992640122560971
 40
0.3499705338657101
 40
0.4155694510607804
 40
0.4811725086805322
 40
0.5486761825975361
 40
0.6161726076980376
 40
0.6692716440198896
 40
0.7223650568695574
 40
0.7768728706478454
 40
0.8313724750917308
 40
0.8760804282967786
 40
0.920784618014408
 40
0.9667436579590217
 40
0.9999999999999999
 40
0.9999999999999999
 40
0.9999999999999999
 40
0.9999999999999999
 10
1037.92556071567
 20
1397.720499999999
 30
0.0
 10
1037.924337833116
 20
1398.10041531011
 30
0.0
 10
1037.92189196925
 20
1398.860276611814
 30
0.0
 10
1037.903625707839
 20
1400.002578363946
 30
0.0
 10
1037.876507877393
 20
1401.138267467924
 30
0.0
 10
1037.840252998731
 20
1402.370731075565
 30
0.0
 10
1037.799560234174
 20
1403.672249844549
 30
0.0
 10
1037.764237251221
 20
1405.036728672982
 30
0.0
 10
1037.74870636517
 20
1406.353609073584
 30
0.0
 10
1037.764327035369
 20
1407.744755722671
 30
0.0
 10
1037.835521332733
 20
1409.177351523753
 30
0.0
 10
1037.996008789103
 20
1410.639149363021
 30
0.0
 10
1038.260090729471
 20
1412.007718458417
 30
0.0
 10
1038.617933044871
 20
1413.183065760852
 30
0.0
 10
1039.051128550303
 20
1414.171717945169
 30
0.0
 10
1039.541270732032
 20
1415.001813433487
 30
0.0
 10
1040.133509437931
 20
1415.744623963677
 30
0.0
 10
1040.79255309446
 20
1416.3501859612
 30
0.0
 10
1041.494615624977
 20
1416.825550995319
 30
0.0
 10
1042.229147159703
 20
1417.186685709102
 30
0.0
 10
1042.959887400972
 20
1417.446673641028
 30
0.0
 10
1043.478200884123
 20
1417.541584461134
 30
0.0
 10
1043.695800169111
 20
1417.581430089821
 30
0.0
  0
SPLINE
  5
88
330
1F
100
AcDbEntity
  8
0
  6
Continuous
 62
     7
370
    25
100
AcDbSpline
210
0.0
220
0.0
230
1.0
 70
     8
 71
     3
 72
    29
 73
    25
 74
     0
 42
0.00000001
 43
0.00000001
 40
0.0
 40
0.0
 40
0.0
 40
0.0
 40
0.0273253759471876
 40
0.0699469745666302
 40
0.1125712545601235
 40
0.1562559436837776
 40
0.1999441731031175
 40
0.2462039225266824
 40
0.2924677903103052
 40
0.3396721791026104
 40
0.386879978250211
 40
0.4422840589176484
 40
0.4976917398064158
 40
0.5542496606608355
 40
0.6108069727015909
 40
0.6630043869962851
 40
0.7151958896032902
 40
0.7686392482544628
 40
0.8220654768958773
 40
0.8590190874013867
 40
0.8959666120574811
 40
0.933913786006532
 40
0.9718556064602791
 40
1.0
 40
1.0
 40
1.0
 40
1.0
 10
1043.708478140476
 20
1377.860397860476
 30
0.0
 10
1043.527685882143
 20
1377.890375629124
 30
0.0
 10
1043.064897318139
 20
1377.967112147783
 30
0.0
 10
1042.392229143798
 20
1378.192392765155
 30
0.0
 10
1041.674813940284
 20
1378.51543236975
 30
0.0
 10
1041.021588842418
 20
1378.924134523889
 30
0.0
 10
1040.418874500658
 20
1379.41951792424
 30
0.0
 10
1039.87754134457
 20
1380.000378444703
 30
0.0
 10
1039.396138913857
 20
1380.669611687713
 30
0.0
 10
1038.984125845782
 20
1381.413109978501
 30
0.0
 10
1038.618726811743
 20
1382.274274152549
 30
0.0
 10
1038.312530401566
 20
1383.257202939287
 30
0.0
 10
1038.07030201039
 20
1384.377995292652
 30
0.0
 10
1037.901915050816
 20
1385.583584289412
 30
0.0
 10
1037.801554820403
 20
1386.840648946492
 30
0.0
 10
1037.755763780187
 20
1388.133048275748
 30
0.0
 10
1037.750023645383
 20
1389.465783497621
 30
0.0
 10
1037.774621562718
 20
1390.875827791117
 30
0.0
 10
1037.813353978365
 20
1392.212160627309
 30
0.0
 10
1037.851351461042
 20
1393.438319276546
 30
0.0
 10
1037.882989534545
 20
1394.543662310049
 30
0.0
 10
1037.908232786537
 20
1395.683071350384
 30
0.0
 10
1037.923240144434
 20
1396.749312604362
 30
0.0
 10
1037.92486761741
 20
1397.430429915776
 30
0.0
 10
1037.92556071567
 20
1397.720499999999
 30
0.0
  0
SPLINE
  5
89
330
1F
100
AcDbEntity
  8
0
  6
Continuous
 62
     7
370
    25
100
AcDbSpline
210
0.0
220
0.0
230
1.0
 70
     8
 71
     3
 72
    15
 73
    11
 74
     0
 42
0.00000001
 43
0.00000001
 40
0.0
 40
0.0
 40
0.0
 40
0.0
 40
0.1356920936426366
 40
0.2713973085108796
 40
0.4069509220234561
 40
0.5425222696609888
 40
0.680894272357016
 40
0.819262293729925
 40
0.9596497664221547
 40
1.0
 40
1.0
 40
1.0
 40
1.0
 10
1041.221835148125
 20
1557.720499999999
 30
0.0
 10
1041.230907867167
 20
1558.079254265721
 30
0.0
 10
1041.249054182568
 20
1558.796797488174
 30
0.0
 10
1041.392778527785
 20
1559.841948059463
 30
0.0
 10
1041.623177351535
 20
1560.825249533786
 30
0.0
 10
1041.94767130797
 20
1561.728911562987
 30
0.0
 10
1042.366361124979
 20
1562.52892169451
 30
0.0
 10
1042.885104538959
 20
1563.19300431689
 30
0.0
 10
1043.334572310391
 20
1563.618596082617
 30
0.0
 10
1043.631418699119
 20
1563.761331016083
 30
0.0
 10
1043.697690543379
 20
1563.793197016952
 30
0.0
  0
SPLINE
  5
8A
330
1F
100
AcDbEntity
  8
0
  6
Continuous
 62
     7
370
    25
100
AcDbSpline
210
0.0
220
0.0
230
1.0
 70
     8
 71
     3
 72
    15
 73
    11
 74
     0
 42
0.00000001
 43
0.00000001
 40
0.0
 40
0.0
 40
0.0
 40
0.0
 40
0.0832013597715274
 40
0.2170721147977033
 40
0.3542738575438714
 40
0.491476413813803
 40
0.6313452802696256
 40
0.7711922758298533
 40
0.8855990915039551
 40
1.0
 40
1.0
 40
1.0
 40
1.0
 10
1043.716719315175
 20
1551.6376267153
 30
0.0
 10
1043.582935900993
 20
1551.712233692083
 30
0.0
 10
1043.233895347797
 20
1551.906883085714
 30
0.0
 10
1042.745811234147
 20
1552.401315220511
 30
0.0
 10
1042.258900466514
 20
1553.091687281271
 30
0.0
 10
1041.857891990489
 20
1553.925902437901
 30
0.0
 10
1041.550155599266
 20
1554.875100972288
 30
0.0
 10
1041.351806022111
 20
1555.851694116224
 30
0.0
 10
1041.241269963421
 20
1556.809739764816
 30
0.0
 10
1041.228313308389
 20
1557.416918480159
 30
0.0
 10
1041.221835148125
 20
1557.720499999999
 30
0.0
  0
LINE
  5
8B
330
1F
100
AcDbEntity
  8
0
  6
Continuous
 62
     7
370
    25
100
AcDbLine
 10
1044.2474804021
 20
2003.3445998293
 30
0.0
 11
1044.3435454018
 21
2003.3409149522
 31
0.0
  0
LINE
  5
8C
330
1F
100
AcDbEntity
  8
0
  6
Continuous
 62
     7
370
    25
100
AcDbLine
 10
1044.1858612985
 20
2003.3430796767
 30
0.0
 11
1044.2474804021
 21
2003.3445998293
 31
0.0
  0
LINE
  5
8D
330
1F
100
AcDbEntity
  8
0
  6
Continuous
 62
     7
370
    25
100
AcDbLine
 10
1041.4207762787
 20
2003.2050018425
 30
0.0
 11
1040.7387779186
 21
2002.1707115188
 31
0.0
  0
LWPOLYLINE
  5
8E
330
1F
100
AcDbEntity
  8
0
  6
Continuous
 62
     7
370
    25
100
AcDbPolyline
 90
       22
 70
   128
 43
0.0
 10
1041.5441646326
 20
1998.2080477074
 10
1041.8069475523
 20
1998.235953632
 10
1042.0624821899
 20
1998.3190480333
 10
1042.3050603238
 20
1998.4554747199
 10
1042.5292631594
 20
1998.642186145
 10
1042.7300823757
 20
1998.8750114839
 10
1042.9030320033
 20
1999.1487498032
 10
1043.0442486334
 20
1999.4572862412
 10
1043.1505777197
 20
1999.7937286038
 10
1043.2196440462
 20
2000.1505613244
 10
1043.2499047853
 20
2000.5198133499
 10
1043.2406839621
 20
2000.8932362001
 10
1043.1921875544
 20
2001.2624882255
 10
1043.1054988921
 20
2001.6193209462
 10
1042.9825544564
 20
2001.9557633088
 10
1042.826100623
 20
2002.2642997468
 10
1042.6396323119
 20
2002.5380380661
 10
1042.4273149171
 20
2002.7708634049
 10
1042.1938912583
 20
2002.95757483
 10
1041.9445756344
 20
2003.0940015166
 10
1041.6849373444
 20
2003.177095918
 10
1041.4207762787
 20
2003.2050018425
  0
LINE
  5
8F
330
1F
100
AcDbEntity
  8
0
  6
Continuous
 62
     7
370
    25
100
AcDbLine
 10
1041.5441646326
 20
1998.2080477074
 30
0.0
 11
1040.812810931
 21
1999.1725390377
 31
0.0
  0
LWPOLYLINE
  5
90
330
1F
100
AcDbEntity
  8
0
  6
Continuous
 62
     7
370
    25
100
AcDbPolyline
 90
       17
 70
   128
 43
0.0
 10
1040.812810931
 20
1999.1725390377
 10
1041.0190242036
 20
1999.2013435595
 10
1041.2158902923
 20
1999.2866501832
 10
1041.3958437436
 20
1999.425180623
 10
1041.5519690473
 20
1999.611611232
 10
1041.6782663956
 20
1999.8387775863
 10
1041.7698822521
 20
2000.0979498103
 10
1041.8232958709
 20
2000.3791680609
 10
1041.8364545966
 20
2000.6716252783
 10
1041.8088527467
 20
2000.9640824957
 10
1041.7415510448
 20
2001.2453007462
 10
1041.6371358577
 20
2001.5044729702
 10
1041.4996198023
 20
2001.7316393245
 10
1041.3342875436
 20
2001.9180699335
 10
1041.1474927075
 20
2002.0566003734
 10
1040.9464137149
 20
2002.1419069971
 10
1040.7387779186
 20
2002.1707115188
  0
LINE
  5
91
330
1F
100
AcDbEntity
  8
0
  6
Continuous
 62
     7
370
    25
100
AcDbLine
 10
1044.2474804021
 20
2003.3445998293
 30
0.0
 11
1041.4207762787
 21
2003.2050018425
 31
0.0
  0
LWPOLYLINE
  5
92
330
1F
100
AcDbEntity
  8
0
  6
Continuous
 62
     7
370
    25
100
AcDbPolyline
 90
       17
 70
   128
 43
0.0
 10
1040.7387779186
 20
2002.1707115188
 10
1040.532564646
 20
2002.141906997
 10
1040.3356985573
 20
2002.0566003734
 10
1040.155745106
 20
2001.9180699335
 10
1039.9996198023
 20
2001.7316393245
 10
1039.873322454
 20
2001.5044729702
 10
1039.7817065975
 20
2001.2453007462
 10
1039.7282929787
 20
2000.9640824957
 10
1039.715134253
 20
2000.6716252783
 10
1039.7427361029
 20
2000.3791680609
 10
1039.8100378048
 20
2000.0979498103
 10
1039.9144529919
 20
1999.8387775863
 10
1040.0519690473
 20
1999.611611232
 10
1040.217301306
 20
1999.4251806231
 10
1040.4040961421
 20
1999.2866501832
 10
1040.6051751347
 20
1999.2013435595
 10
1040.812810931
 20
1999.1725390377
  0
LWPOLYLINE
  5
93
330
1F
100
AcDbEntity
  8
0
  6
Continuous
 62
     7
370
    25
100
AcDbPolyline
 90
       12
 70
   128
 43
0.0
 10
1041.4207762787
 20
2003.2050018425
 10
1041.1579933589
 20
2003.177095918
 10
1040.9024587213
 20
2003.0940015166
 10
1040.6598805874
 20
2002.95757483
 10
1040.4356777519
 20
2002.7708634049
 10
1040.2348585356
 20
2002.5380380661
 10
1040.061908908
 20
2002.2642997468
 10
1039.9206922779
 20
2001.9557633087
 10
1039.8143631916
 20
2001.6193209462
 10
1039.7452968651
 20
2001.2624882255
 10
1039.715036126
 20
2000.8932362001
 10
1039.7139962454
 20
2000.7426514876
  0
ARC
  5
94
330
1F
100
AcDbEntity
  8
0
  6
Continuous
 62
     7
370
    25
100
AcDbCircle
 10
1041.950301022
 20
2000.3970447111
 30
0.0
 40
2.226354564938593
100
AcDbArc
 50
177.4441466003
 51
259.4891248325
  0
ENDSEC
  0
SECTION
  2
OBJECTS
  0
DICTIONARY
  5
C
330
0
100
AcDbDictionary
281
     1
  3
ACAD_GROUP
350
D
  3
ACAD_LAYOUT
350
1A
  3
ACAD_MLINESTYLE
350
17
  3
ACAD_PLOTSETTINGS
350
19
  3
ACAD_PLOTSTYLENAME
350
E
  3
ACAD_SCALELIST
350
47
  3
DWGPROPS
350
95
  0
DICTIONARY
  5
D
102
{ACAD_REACTORS
330
C
102
}
330
C
100
AcDbDictionary
281
     1
  0
DICTIONARY
  5
1A
102
{ACAD_REACTORS
330
C
102
}
330
C
100
AcDbDictionary
281
     1
  3
Layout1
350
1E
  3
Layout2
350
26
  3
Model
350
22
  0
DICTIONARY
  5
17
102
{ACAD_REACTORS
330
C
102
}
330
C
100
AcDbDictionary
281
     1
  3
Standard
350
18
  0
DICTIONARY
  5
19
102
{ACAD_REACTORS
330
C
102
}
330
C
100
AcDbDictionary
281
     1
  0
ACDBDICTIONARYWDFLT
  5
E
102
{ACAD_REACTORS
330
C
102
}
330
C
100
AcDbDictionary
281
     1
  3
Normal
350
F
100
AcDbDictionaryWithDefault
340
F
  0
DICTIONARY
  5
47
102
{ACAD_REACTORS
330
C
102
}
330
C
100
AcDbDictionary
281
     1
  3
A0
350
48
  3
A1
350
49
  3
A2
350
4A
  3
A3
350
4B
  3
A4
350
4C
  3
A5
350
4D
  3
A6
350
4E
  3
A7
350
4F
  3
A8
350
50
  3
A9
350
51
  3
B0
350
52
  3
B1
350
53
  3
B2
350
54
  3
B3
350
55
  3
B4
350
56
  3
B5
350
57
  3
B6
350
58
  0
XRECORD
  5
95
102
{ACAD_REACTORS
330
C
102
}
330
C
100
AcDbXrecord
280
     1
  1
DWGPROPS COOKIE
  2

  3

  4

  6

  7

  8
9128
  9

300
=
301
=
302
=
303
=
304
=
305
=
306
=
307
=
308
=
309
=
 40
0.0
 41
2460397.179222188
 42
2460397.179238079
  1

 90
        0
  0
LAYOUT
  5
1E
102
{ACAD_REACTORS
330
1A
102
}
330
1A
100
AcDbPlotSettings
  1

  2
none_device
  4

  6

 40
0.0
 41
0.0
 42
0.0
 43
0.0
 44
0.0
 45
0.0
 46
0.0
 47
0.0
 48
0.0
 49
0.0
140
0.0
141
0.0
142
1.0
143
1.0
 70
   688
 72
     1
 73
     0
 74
     5
  7

 75
    16
147
1.0
148
0.0
149
0.0
100
AcDbLayout
  1
Layout1
 70
     1
 71
     1
 10
0.0
 20
0.0
 11
420.0
 21
297.0
 12
0.0
 22
0.0
 32
0.0
 14
1.0000000000E+20
 24
1.0000000000E+20
 34
1.0000000000E+20
 15
-1.0000000000E+20
 25
-1.0000000000E+20
 35
-1.0000000000E+20
146
0.0
 13
0.0
 23
0.0
 33
0.0
 16
1.0
 26
0.0
 36
0.0
 17
0.0
 27
1.0
 37
0.0
 76
     0
330
1B
  0
LAYOUT
  5
26
102
{ACAD_REACTORS
330
1A
102
}
330
1A
100
AcDbPlotSettings
  1

  2
none_device
  4

  6

 40
0.0
 41
0.0
 42
0.0
 43
0.0
 44
0.0
 45
0.0
 46
0.0
 47
0.0
 48
0.0
 49
0.0
140
0.0
141
0.0
142
1.0
143
1.0
 70
   688
 72
     1
 73
     0
 74
     5
  7

 75
    16
147
1.0
148
0.0
149
0.0
100
AcDbLayout
  1
Layout2
 70
     1
 71
     2
 10
0.0
 20
0.0
 11
0.0
 21
0.0
 12
0.0
 22
0.0
 32
0.0
 14
0.0
 24
0.0
 34
0.0
 15
0.0
 25
0.0
 35
0.0
146
0.0
 13
0.0
 23
0.0
 33
0.0
 16
1.0
 26
0.0
 36
0.0
 17
0.0
 27
1.0
 37
0.0
 76
     0
330
23
  0
LAYOUT
  5
22
102
{ACAD_REACTORS
330
1A
102
}
330
1A
100
AcDbPlotSettings
  1

  2
none_device
  4
Letter_(8.50_x_11.00_Inches)
  6

 40
6.35
 41
6.35
 42
6.35000508
 43
6.35000508
 44
215.9
 45
279.4
 46
0.0
 47
0.0
 48
0.0
 49
0.0
140
0.0
141
0.0
142
1.0
143
1.0
 70
  1712
 72
     1
 73
     0
 74
     0
  7

 75
     0
147
1.0
148
0.0
149
0.0
100
AcDbLayout
  1
Model
 70
     1
 71
     0
 10
0.0
 20
0.0
 11
2100.0
 21
2970.0
 12
0.0
 22
0.0
 32
0.0
 14
0.0
 24
0.0
 34
0.0
 15
2100.0
 25
2970.0
 35
0.0
146
0.0
 13
0.0
 23
0.0
 33
0.0
 16
1.0
 26
0.0
 36
0.0
 17
0.0
 27
1.0
 37
0.0
 76
     0
330
1F
331
29
  0
MLINESTYLE
  5
18
102
{ACAD_REACTORS
330
17
102
}
330
17
100
AcDbMlineStyle
  2
Standard
 70
     0
  3

 62
   256
 51
90.0
 52
90.0
 71
     2
 49
0.5
 62
   256
  6
BYLAYER
 49
-0.5
 62
   256
  6
BYLAYER
  0
ACDBPLACEHOLDER
  5
F
102
{ACAD_REACTORS
330
E
102
}
330
E
  0
SCALE
  5
48
102
{ACAD_REACTORS
330
47
102
}
330
47
100
AcDbScale
 70
     0
300
1:1
140
1.0
141
1.0
290
     1
  0
SCALE
  5
49
102
{ACAD_REACTORS
330
47
102
}
330
47
100
AcDbScale
 70
     0
300
1:2
140
1.0
141
2.0
290
     0
  0
SCALE
  5
4A
102
{ACAD_REACTORS
330
47
102
}
330
47
100
AcDbScale
 70
     0
300
1:4
140
1.0
141
4.0
290
     0
  0
SCALE
  5
4B
102
{ACAD_REACTORS
330
47
102
}
330
47
100
AcDbScale
 70
     0
300
1:5
140
1.0
141
5.0
290
     0
  0
SCALE
  5
4C
102
{ACAD_REACTORS
330
47
102
}
330
47
100
AcDbScale
 70
     0
300
1:8
140
1.0
141
8.0
290
     0
  0
SCALE
  5
4D
102
{ACAD_REACTORS
330
47
102
}
330
47
100
AcDbScale
 70
     0
300
1:10
140
1.0
141
10.0
290
     0
  0
SCALE
  5
4E
102
{ACAD_REACTORS
330
47
102
}
330
47
100
AcDbScale
 70
     0
300
1:16
140
1.0
141
16.0
290
     0
  0
SCALE
  5
4F
102
{ACAD_REACTORS
330
47
102
}
330
47
100
AcDbScale
 70
     0
300
1:20
140
1.0
141
20.0
290
     0
  0
SCALE
  5
50
102
{ACAD_REACTORS
330
47
102
}
330
47
100
AcDbScale
 70
     0
300
1:30
140
1.0
141
30.0
290
     0
  0
SCALE
  5
51
102
{ACAD_REACTORS
330
47
102
}
330
47
100
AcDbScale
 70
     0
300
1:40
140
1.0
141
40.0
290
     0
  0
SCALE
  5
52
102
{ACAD_REACTORS
330
47
102
}
330
47
100
AcDbScale
 70
     0
300
1:50
140
1.0
141
50.0
290
     0
  0
SCALE
  5
53
102
{ACAD_REACTORS
330
47
102
}
330
47
100
AcDbScale
 70
     0
300
1:100
140
1.0
141
100.0
290
     0
  0
SCALE
  5
54
102
{ACAD_REACTORS
330
47
102
}
330
47
100
AcDbScale
 70
     0
300
2:1
140
2.0
141
1.0
290
     0
  0
SCALE
  5
55
102
{ACAD_REACTORS
330
47
102
}
330
47
100
AcDbScale
 70
     0
300
4:1
140
4.0
141
1.0
290
     0
  0
SCALE
  5
56
102
{ACAD_REACTORS
330
47
102
}
330
47
100
AcDbScale
 70
     0
300
8:1
140
8.0
141
1.0
290
     0
  0
SCALE
  5
57
102
{ACAD_REACTORS
330
47
102
}
330
47
100
AcDbScale
 70
     0
300
10:1
140
10.0
141
1.0
290
     0
  0
SCALE
  5
58
102
{ACAD_REACTORS
330
47
102
}
330
47
100
AcDbScale
 70
     0
300
100:1
140
100.0
141
1.0
290
     0
  0
ENDSEC
  0
EOF
