  0
SECTION
  2
HEADER
  9
$ACADVER
  1
AC1015
  9
$ACADMAINTVER
 70
     6
  9
$DWGCODEPAGE
  3
DOS932
  9
$INSBASE
 10
0.0
 20
0.0
 30
0.0
  9
$EXTMIN
 10
0.0
 20
0.0
 30
0.0
  9
$EXTMAX
 10
210.0
 20
297.0
 30
0.0
  9
$LIMMIN
 10
0.0
 20
0.0
  9
$LIMMAX
 10
210.0
 20
297.0
  9
$ORTHOMODE
 70
     0
  9
$REGENMODE
 70
     1
  9
$FILLMODE
 70
     1
  9
$QTEXTMODE
 70
     0
  9
$MIRRTEXT
 70
     1
  9
$LTSCALE
 40
1.0
  9
$ATTMODE
 70
     1
  9
$TEXTSIZE
 40
3.5
  9
$TRACEWID
 40
1.0
  9
$TEXTSTYLE
  7
Standard
  9
$CLAYER
  8
0
  9
$CELTYPE
  6
ByLayer
  9
$CECOLOR
 62
   256
  9
$CELTSCALE
 40
1.0
  9
$DISPSILH
 70
     0
  9
$DIMSCALE
 40
1.0
  9
$DIMASZ
 40
1.5
  9
$DIMEXO
 40
1.0
  9
$DIMDLI
 40
3.75
  9
$DIMRND
 40
0.0
  9
$DIMDLE
 40
0.0
  9
$DIMEXE
 40
1.0
  9
$DIMTP
 40
0.0
  9
$DIMTM
 40
0.0
  9
$DIMTXT
 40
3.5
  9
$DIMCEN
 40
2.5
  9
$DIMTSZ
 40
0.0
  9
$DIMTOL
 70
     0
  9
$DIMLIM
 70
     0
  9
$DIMTIH
 70
     1
  9
$DIMTOH
 70
     1
  9
$DIMSE1
 70
     0
  9
$DIMSE2
 70
     0
  9
$DIMTAD
 70
     1
  9
$DIMZIN
 70
     0
  9
$DIMBLK
  1

  9
$DIMASO
 70
     1
  9
$DIMSHO
 70
     1
  9
$DIMPOST
  1

  9
$DIMAPOST
  1

  9
$DIMALT
 70
     0
  9
$DIMALTD
 70
     3
  9
$DIMALTF
 40
0.0393700787
  9
$DIMLFAC
 40
5.0
  9
$DIMTOFL
 70
     1
  9
$DIMTVP
 40
0.0
  9
$DIMTIX
 70
     0
  9
$DIMSOXD
 70
     0
  9
$DIMSAH
 70
     0
  9
$DIMBLK1
  1

  9
$DIMBLK2
  1

  9
$DIMSTYLE
  2
ISO-25
  9
$DIMCLRD
 70
     0
  9
$DIMCLRE
 70
     0
  9
$DIMCLRT
 70
     0
  9
$DIMTFAC
 40
1.0
  9
$DIMGAP
 40
1.5
  9
$DIMJUST
 70
     0
  9
$DIMSD1
 70
     0
  9
$DIMSD2
 70
     0
  9
$DIMTOLJ
 70
     0
  9
$DIMTZIN
 70
     0
  9
$DIMALTZ
 70
     0
  9
$DIMALTTZ
 70
     0
  9
$DIMUPT
 70
     0
  9
$DIMDEC
 70
     1
  9
$DIMTDEC
 70
     1
  9
$DIMALTU
 70
     2
  9
$DIMALTTD
 70
     3
  9
$DIMTXSTY
  7
Standard
  9
$DIMAUNIT
 70
     0
  9
$DIMADEC
 70
     2
  9
$DIMALTRND
 40
0.0
  9
$DIMAZIN
 70
     0
  9
$DIMDSEP
 70
    44
  9
$DIMATFIT
 70
     3
  9
$DIMFRAC
 70
     0
  9
$DIMLDRBLK
  1

  9
$DIMLUNIT
 70
     2
  9
$DIMLWD
 70
    -2
  9
$DIMLWE
 70
    -2
  9
$DIMTMOVE
 70
     0
  9
$LUNITS
 70
     2
  9
$LUPREC
 70
     4
  9
$SKETCHINC
 40
1.0
  9
$FILLETRAD
 40
10.0
  9
$AUNITS
 70
     0
  9
$AUPREC
 70
     2
  9
$MENU
  1
.
  9
$ELEVATION
 40
0.0
  9
$PELEVATION
 40
0.0
  9
$THICKNESS
 40
0.0
  9
$LIMCHECK
 70
     0
  9
$CHAMFERA
 40
0.0
  9
$CHAMFERB
 40
0.0
  9
$CHAMFERC
 40
0.0
  9
$CHAMFERD
 40
0.0
  9
$SKPOLY
 70
     0
  9
$TDCREATE
 40
2460018.601161783
  9
$TDUCREATE
 40
2460018.226161783
  9
$TDUPDATE
 40
2460018.601161956
  9
$TDUUPDATE
 40
2460018.226161956
  9
$TDINDWG
 40
0.0000000116
  9
$TDUSRTIMER
 40
0.0000000116
  9
$USRTIMER
 70
     1
  9
$ANGBASE
 50
0.0
  9
$ANGDIR
 70
     0
  9
$PDMODE
 70
     0
  9
$PDSIZE
 40
-1.0
  9
$PLINEWID
 40
0.0
  9
$SPLFRAME
 70
     0
  9
$SPLINETYPE
 70
     6
  9
$SPLINESEGS
 70
     8
  9
$HANDSEED
  5
159
  9
$SURFTAB1
 70
     6
  9
$SURFTAB2
 70
     6
  9
$SURFTYPE
 70
     6
  9
$SURFU
 70
     6
  9
$SURFV
 70
     6
  9
$UCSBASE
  2

  9
$UCSNAME
  2

  9
$UCSORG
 10
0.0
 20
0.0
 30
0.0
  9
$UCSXDIR
 10
1.0
 20
0.0
 30
0.0
  9
$UCSYDIR
 10
0.0
 20
1.0
 30
0.0
  9
$UCSORTHOREF
  2

  9
$UCSORTHOVIEW
 70
     0
  9
$UCSORGTOP
 10
0.0
 20
0.0
 30
0.0
  9
$UCSORGBOTTOM
 10
0.0
 20
0.0
 30
0.0
  9
$UCSORGLEFT
 10
0.0
 20
0.0
 30
0.0
  9
$UCSORGRIGHT
 10
0.0
 20
0.0
 30
0.0
  9
$UCSORGFRONT
 10
0.0
 20
0.0
 30
0.0
  9
$UCSORGBACK
 10
0.0
 20
0.0
 30
0.0
  9
$PUCSBASE
  2

  9
$PUCSNAME
  2

  9
$PUCSORG
 10
0.0
 20
0.0
 30
0.0
  9
$PUCSXDIR
 10
1.0
 20
0.0
 30
0.0
  9
$PUCSYDIR
 10
0.0
 20
1.0
 30
0.0
  9
$PUCSORTHOREF
  2

  9
$PUCSORTHOVIEW
 70
     0
  9
$PUCSORGTOP
 10
0.0
 20
0.0
 30
0.0
  9
$PUCSORGBOTTOM
 10
0.0
 20
0.0
 30
0.0
  9
$PUCSORGLEFT
 10
0.0
 20
0.0
 30
0.0
  9
$PUCSORGRIGHT
 10
0.0
 20
0.0
 30
0.0
  9
$PUCSORGFRONT
 10
0.0
 20
0.0
 30
0.0
  9
$PUCSORGBACK
 10
0.0
 20
0.0
 30
0.0
  9
$USERI1
 70
     0
  9
$USERI2
 70
     0
  9
$USERI3
 70
     0
  9
$USERI4
 70
     0
  9
$USERI5
 70
     0
  9
$USERR1
 40
0.0
  9
$USERR2
 40
0.0
  9
$USERR3
 40
0.0
  9
$USERR4
 40
0.0
  9
$USERR5
 40
0.0
  9
$WORLDVIEW
 70
     1
  9
$SHADEDGE
 70
     3
  9
$SHADEDIF
 70
    70
  9
$TILEMODE
 70
     1
  9
$MAXACTVP
 70
    64
  9
$PINSBASE
 10
0.0
 20
0.0
 30
0.0
  9
$PLIMCHECK
 70
     0
  9
$PEXTMIN
 10
1.0000000000E+20
 20
1.0000000000E+20
 30
1.0000000000E+20
  9
$PEXTMAX
 10
-1.0000000000E+20
 20
-1.0000000000E+20
 30
-1.0000000000E+20
  9
$PLIMMIN
 10
0.0
 20
0.0
  9
$PLIMMAX
 10
420.0
 20
297.0
  9
$UNITMODE
 70
     0
  9
$VISRETAIN
 70
     1
  9
$PLINEGEN
 70
     0
  9
$PSLTSCALE
 70
     1
  9
$TREEDEPTH
 70
  3020
  9
$CMLSTYLE
  2
Standard
  9
$CMLJUST
 70
     0
  9
$CMLSCALE
 40
20.0
  9
$PROXYGRAPHICS
 70
     1
  9
$MEASUREMENT
 70
     1
  9
$CELWEIGHT
370
    -1
  9
$ENDCAPS
280
     0
  9
$JOINSTYLE
280
     0
  9
$LWDISPLAY
290
     1
  9
$INSUNITS
 70
     4
  9
$HYPERLINKBASE
  1

  9
$STYLESHEET
  1

  9
$XEDIT
290
     1
  9
$CEPSNTYPE
380
     0
  9
$PSTYLEMODE
290
     1
  9
$FINGERPRINTGUID
  2
{607985a3-027d-4c3b-b314-d3be811987dc}
  9
$VERSIONGUID
  2
{FAEB1C32-E019-11D5-929B-00C0DF256EC4}
  9
$EXTNAMES
290
     1
  9
$PSVPSCALE
 40
0.0
  9
$OLESTARTUP
290
     0
  0
ENDSEC
  0
SECTION
  2
CLASSES
  0
CLASS
  1
ACDBDICTIONARYWDFLT
  2
AcDbDictionaryWithDefault
  3
ObjectDBX Classes
 90
        0
280
     0
281
     0
  0
CLASS
  1
VISUALSTYLE
  2
AcDbVisualStyle
  3
ObjectDBX Classes
 90
     4095
280
     0
281
     0
  0
CLASS
  1
MATERIAL
  2
AcDbMaterial
  3
ObjectDBX Classes
 90
     1153
280
     0
281
     0
  0
CLASS
  1
SCALE
  2
AcDbScale
  3
ObjectDBX Classes
 90
     1153
280
     0
281
     0
  0
CLASS
  1
TABLESTYLE
  2
AcDbTableStyle
  3
ObjectDBX Classes
 90
     4095
280
     0
281
     0
  0
CLASS
  1
MLEADERSTYLE
  2
AcDbMLeaderStyle
  3
ACDB_MLEADERSTYLE_CLASS
 90
     4095
280
     0
281
     0
  0
CLASS
  1
SUN
  2
AcDbSun
  3
SCENEOE
 90
     1153
280
     0
281
     0
  0
CLASS
  1
ACDBPLACEHOLDER
  2
AcDbPlaceHolder
  3
ObjectDBX Classes
 90
        0
280
     0
281
     0
  0
CLASS
  1
LAYOUT
  2
AcDbLayout
  3
ObjectDBX Classes
 90
        0
280
     0
281
     0
  0
ENDSEC
  0
SECTION
  2
TABLES
  0
TABLE
  2
VPORT
  5
8
330
0
100
AcDbSymbolTable
 70
     1
  0
VPORT
  5
29
330
8
100
AcDbSymbolTableRecord
100
AcDbViewportTableRecord
  2
*Active
 70
     0
 10
0.0
 20
0.0
 11
1.0
 21
1.0
 12
105.0
 22
148.5
 13
0.0
 23
0.0
 14
10.0
 24
10.0
 15
10.0
 25
10.0
 16
0.0
 26
0.0
 36
1.0
 17
0.0
 27
0.0
 37
0.0
 40
297.0
 41
0.7070707071
 42
50.0
 43
0.0
 44
0.0
 50
0.0
 51
0.0
 71
     0
 72
  2000
 73
     1
 74
     3
 75
     0
 76
     0
 77
     0
 78
     0
281
     0
 65
     1
110
0.0
120
0.0
130
0.0
111
1.0
121
0.0
131
0.0
112
0.0
122
1.0
132
0.0
 79
     0
146
0.0
  0
ENDTAB
  0
TABLE
  2
LTYPE
  5
5
330
0
100
AcDbSymbolTable
 70
     6
  0
LTYPE
  5
14
330
5
100
AcDbSymbolTableRecord
100
AcDbLinetypeTableRecord
  2
ByBlock
 70
     0
  3

 72
    65
 73
     0
 40
0.0
  0
LTYPE
  5
15
330
5
100
AcDbSymbolTableRecord
100
AcDbLinetypeTableRecord
  2
ByLayer
 70
     0
  3

 72
    65
 73
     0
 40
0.0
  0
LTYPE
  5
16
330
5
100
AcDbSymbolTableRecord
100
AcDbLinetypeTableRecord
  2
Continuous
 70
     0
  3
Solid line
 72
    65
 73
     0
 40
0.0
  0
LTYPE
  5
6E
330
5
100
AcDbSymbolTableRecord
100
AcDbLinetypeTableRecord
  2
HIDDEN
 70
     0
  3
Hidden __ __ __ __ __ __ __ __ __ __ __ __ __ __
 72
    65
 73
     2
 40
1.905
 49
1.27
 74
     0
 49
-0.635
 74
     0
  0
LTYPE
  5
6F
330
5
100
AcDbSymbolTableRecord
100
AcDbLinetypeTableRecord
  2
PHANTOM
 70
     0
  3
Phantom ______  __  __  ______  __  __  ______
 72
    65
 73
     6
 40
12.7
 49
6.35
 74
     0
 49
-1.27
 74
     0
 49
1.27
 74
     0
 49
-1.27
 74
     0
 49
1.27
 74
     0
 49
-1.27
 74
     0
  0
LTYPE
  5
70
330
5
100
AcDbSymbolTableRecord
100
AcDbLinetypeTableRecord
  2
CENTER
 70
     0
  3
Center ____ _ ____ _ ____ _ ____ _ ____ _ ____
 72
    65
 73
     4
 40
10.16
 49
6.35
 74
     0
 49
-1.27
 74
     0
 49
1.27
 74
     0
 49
-1.27
 74
     0
  0
LTYPE
  5
71
330
5
100
AcDbSymbolTableRecord
100
AcDbLinetypeTableRecord
  2
CENTERX2
 70
     0
  3
Center (2x) ________  __  ________  __  _____
 72
    65
 73
     4
 40
20.32
 49
12.7
 74
     0
 49
-2.54
 74
     0
 49
2.54
 74
     0
 49
-2.54
 74
     0
  0
LTYPE
  5
72
330
5
100
AcDbSymbolTableRecord
100
AcDbLinetypeTableRecord
  2
DOT2
 70
     0
  3
Dot (.5x) ........................................
 72
    65
 73
     2
 40
0.635
 49
0.0
 74
     0
 49
-0.635
 74
     0
  0
ENDTAB
  0
TABLE
  2
LAYER
  5
2
330
0
100
AcDbSymbolTable
 70
     1
  0
LAYER
  5
10
330
2
100
AcDbSymbolTableRecord
100
AcDbLayerTableRecord
  2
0
 70
     0
 62
     7
  6
Continuous
370
    -3
390
F
  0
ENDTAB
  0
TABLE
  2
STYLE
  5
3
330
0
100
AcDbSymbolTable
 70
     2
  0
STYLE
  5
11
330
3
100
AcDbSymbolTableRecord
100
AcDbTextStyleTableRecord
  2
Standard
 70
     0
 40
0.0
 41
1.0
 50
0.0
 71
     0
 42
3.5
  3
txt
  4
bigfont
  0
STYLE
  5
76
330
3
100
AcDbSymbolTableRecord
100
AcDbTextStyleTableRecord
  2
SLDTEXTSTYLE0
 70
     0
 40
0.0
 41
0.7
 50
0.0
 71
     0
 42
3.5
  3
TXT
  4
bigfont
  0
ENDTAB
  0
TABLE
  2
VIEW
  5
6
330
0
100
AcDbSymbolTable
 70
     0
  0
ENDTAB
  0
TABLE
  2
UCS
  5
7
330
0
100
AcDbSymbolTable
 70
     0
  0
ENDTAB
  0
TABLE
  2
APPID
  5
9
330
0
100
AcDbSymbolTable
 70
     1
  0
APPID
  5
12
330
9
100
AcDbSymbolTableRecord
100
AcDbRegAppTableRecord
  2
ACAD
 70
     0
  0
ENDTAB
  0
TABLE
  2
DIMSTYLE
  5
A
330
0
100
AcDbSymbolTable
 70
     1
100
AcDbDimStyleTable
  0
DIMSTYLE
105
27
330
A
100
AcDbSymbolTableRecord
100
AcDbDimStyleTableRecord
  2
ISO-25
 70
     0
 41
2.5
 42
0.625
 43
3.75
 44
1.25
 73
     0
 74
     0
 77
     1
 78
     8
140
2.5
141
2.5
143
0.0393700787
147
0.625
171
     3
172
     1
178
     0
271
     2
272
     2
274
     3
278
    44
283
     0
284
     8
340
11
  0
ENDTAB
  0
TABLE
  2
BLOCK_RECORD
  5
1
330
0
100
AcDbSymbolTable
 70
     2
  0
BLOCK_RECORD
  5
1F
330
1
100
AcDbSymbolTableRecord
100
AcDbBlockTableRecord
  2
*Model_Space
340
22
  0
BLOCK_RECORD
  5
1B
330
1
100
AcDbSymbolTableRecord
100
AcDbBlockTableRecord
  2
*Paper_Space
340
1E
  0
BLOCK_RECORD
  5
23
330
1
100
AcDbSymbolTableRecord
100
AcDbBlockTableRecord
  2
*Paper_Space0
340
26
  0
BLOCK_RECORD
  5
73
330
1
100
AcDbSymbolTableRecord
100
AcDbBlockTableRecord
  2
SW_NOTE_0
340
0
102
{BLKREFS
331
7B
102
}
  0
ENDTAB
  0
ENDSEC
  0
SECTION
  2
BLOCKS
  0
BLOCK
  5
20
330
1F
100
AcDbEntity
  8
0
100
AcDbBlockBegin
  2
*Model_Space
 70
     0
 10
0.0
 20
0.0
 30
0.0
  3
*Model_Space
  1

  0
ENDBLK
  5
21
330
1F
100
AcDbEntity
  8
0
100
AcDbBlockEnd
  0
BLOCK
  5
1C
330
1B
100
AcDbEntity
 67
     1
  8
0
100
AcDbBlockBegin
  2
*Paper_Space
 70
     0
 10
0.0
 20
0.0
 30
0.0
  3
*Paper_Space
  1

  0
ENDBLK
  5
1D
330
1B
100
AcDbEntity
 67
     1
  8
0
100
AcDbBlockEnd
  0
BLOCK
  5
24
330
23
100
AcDbEntity
  8
0
100
AcDbBlockBegin
  2
*Paper_Space0
 70
     0
 10
0.0
 20
0.0
 30
0.0
  3
*Paper_Space0
  1

  0
ENDBLK
  5
25
330
23
100
AcDbEntity
  8
0
100
AcDbBlockEnd
  0
BLOCK
  5
74
330
73
100
AcDbEntity
  8
0
100
AcDbBlockBegin
  2
SW_NOTE_0
 70
     0
 10
0.0
 20
0.0
 30
0.0
  3
SW_NOTE_0
  1

  0
MTEXT
  5
77
330
73
100
AcDbEntity
  8
0
  6
Continuous
 62
     0
370
     0
100
AcDbMText
 10
0.0
 20
4.5117370892
 30
0.0
 40
3.5
 41
0.0
 71
     1
 72
     1
  1
HBB-D63S/C/K
  7
SLDTEXTSTYLE0
 73
     1
 44
1.0
  0
MTEXT
  5
78
330
73
100
AcDbEntity
  8
0
  6
Continuous
 62
     0
370
     0
100
AcDbMText
 10
0.0
 20
0.0117372829
 30
0.0
 40
3.5
 41
0.0
 71
     1
 72
     1
  1
HBB-D64S/C/K
  7
SLDTEXTSTYLE0
 73
     1
 44
1.0
  0
MTEXT
  5
79
330
73
100
AcDbEntity
  8
0
  6
Continuous
 62
     0
370
     0
100
AcDbMText
 10
0.0
 20
-4.4882625234
 30
0.0
 40
3.5
 41
0.0
 71
     1
 72
     1
  1
HBB-D65S/C/K
  7
SLDTEXTSTYLE0
 73
     1
 44
1.0
  0
MTEXT
  5
7A
330
73
100
AcDbEntity
  8
0
  6
Continuous
 62
     0
370
     0
100
AcDbMText
 10
0.0
 20
-8.9882623297
 30
0.0
 40
3.5
 41
0.0
 71
     1
 72
     1
  1
HBB-D66S/C/K
  7
SLDTEXTSTYLE0
 73
     1
 44
1.0
  0
ENDBLK
  5
75
330
73
100
AcDbEntity
  8
0
100
AcDbBlockEnd
  0
ENDSEC
  0
SECTION
  2
ENTITIES
  0
INSERT
  5
7B
330
1F
100
AcDbEntity
  8
0
  6
Continuous
 62
     7
370
     0
100
AcDbBlockReference
  2
SW_NOTE_0
 10
141.0036734694
 20
110.7238775119
 30
0.0
  0
SPLINE
  5
7C
330
1F
100
AcDbEntity
  8
0
  6
Continuous
 62
     7
370
    25
100
AcDbSpline
210
0.0
220
0.0
230
1.0
 70
     8
 71
     3
 72
    13
 73
     9
 74
     0
 42
0.00000001
 43
0.00000001
 40
0.0
 40
0.0
 40
0.0
 40
0.0
 40
0.0713893490910633
 40
0.315542483021836
 40
0.4994076493450348
 40
0.6785806032880581
 40
0.9669101438504586
 40
1.0
 40
1.0
 40
1.0
 40
1.0
 10
126.0922780544962
 20
129.1619441770119
 30
0.0
 10
126.1022184883458
 20
129.2180482183957
 30
0.0
 10
126.1461554231851
 20
129.4660293073286
 30
0.0
 10
126.1735928540882
 20
129.9024257055172
 30
0.0
 10
126.1925263072491
 20
130.4429620340894
 30
0.0
 10
126.1817860186544
 20
131.0401444688513
 30
0.0
 10
126.1616425811072
 20
131.5110226824514
 30
0.0
 10
126.1220593891139
 20
131.8079431990437
 30
0.0
 10
126.1179843328404
 20
131.8385109161212
 30
0.0
  0
SPLINE
  5
7D
330
1F
100
AcDbEntity
  8
0
  6
Continuous
 62
     7
370
    25
100
AcDbSpline
210
0.0
220
0.0
230
1.0
 70
     8
 71
     3
 72
    13
 73
     9
 74
     0
 42
0.00000001
 43
0.00000001
 40
0.0
 40
0.0
 40
0.0
 40
0.0
 40
0.0677703679047995
 40
0.248667204359842
 40
0.3878456750281663
 40
0.5330140585080854
 40
0.748333389695888
 40
1.0
 40
1.0
 40
1.0
 40
1.0
 10
126.1600794632466
 20
129.797385024688
 30
0.0
 10
126.170949508823
 20
129.8463050778726
 30
0.0
 10
126.2108345489716
 20
130.0258055474532
 30
0.0
 10
126.2402782296202
 20
130.3534411177185
 30
0.0
 10
126.261065589012
 20
130.7593130169799
 30
0.0
 10
126.2589579873556
 20
131.2153778152878
 30
0.0
 10
126.2259629481595
 20
131.7916200673284
 30
0.0
 10
126.1596326826273
 20
132.2214016180189
 30
0.0
 10
126.12388618235
 20
132.4530181538142
 30
0.0
  0
SPLINE
  5
7E
330
1F
100
AcDbEntity
  8
0
  6
Continuous
 62
     7
370
    25
100
AcDbSpline
210
0.0
220
0.0
230
1.0
 70
     8
 71
     3
 72
     9
 73
     5
 74
     0
 42
0.00000001
 43
0.00000001
 40
0.0
 40
0.0
 40
0.0
 40
0.0
 40
0.5030015694034804
 40
1.0
 40
1.0
 40
1.0
 40
1.0
 10
78.19084396462108
 20
116.6796003252238
 30
0.0
 10
78.23482006932942
 20
116.6506190184728
 30
0.0
 10
78.3222474401038
 20
116.5930022862122
 30
0.0
 10
78.41519793320353
 20
116.5962375535184
 30
0.0
 10
78.46139418239729
 20
116.5978454762922
 30
0.0
  0
LINE
  5
7F
330
1F
100
AcDbEntity
  8
0
  6
Continuous
 62
     7
370
    25
100
AcDbLine
 10
78.4334334241
 20
116.5932373157
 30
0.0
 11
79.3885808257
 21
116.6849530539
 31
0.0
  0
LINE
  5
80
330
1F
100
AcDbEntity
  8
0
  6
Continuous
 62
     7
370
    25
100
AcDbLine
 10
68.7228434496
 20
124.4489468423
 30
0.0
 11
78.1906095756
 21
116.6797923687
 31
0.0
  0
SPLINE
  5
81
330
1F
100
AcDbEntity
  8
0
  6
Continuous
 62
     7
370
    25
100
AcDbSpline
210
0.0
220
0.0
230
1.0
 70
     8
 71
     3
 72
    10
 73
     6
 74
     0
 42
0.00000001
 43
0.00000001
 40
0.0
 40
0.0
 40
0.0
 40
0.0
 40
0.1503531963953973
 40
0.5557031571192617
 40
0.9999999999999999
 40
0.9999999999999999
 40
0.9999999999999999
 40
0.9999999999999999
 10
127.7222274725622
 20
137.7554927763954
 30
0.0
 10
127.7241744820375
 20
137.7753192541458
 30
0.0
 10
127.7313705998342
 20
137.8485976183219
 30
0.0
 10
127.6654324426911
 20
137.9730116782311
 30
0.0
 10
127.582645644047
 20
138.0223766705484
 30
0.0
 10
127.5393548164776
 20
138.048190585392
 30
0.0
  0
LINE
  5
82
330
1F
100
AcDbEntity
  8
0
  6
Continuous
 62
     7
370
    25
100
AcDbLine
 10
127.7209521582
 20
136.7977285643
 30
0.0
 11
127.7301383376
 21
137.7542039449
 31
0.0
  0
LINE
  5
83
330
1F
100
AcDbEntity
  8
0
  6
Continuous
 62
     7
370
    25
100
AcDbLine
 10
127.5945622441
 20
138.0248404908
 30
0.0
 11
118.126796118
 21
145.7939949644
 31
0.0
  0
SPLINE
  5
84
330
1F
100
AcDbEntity
  8
0
  6
Continuous
 62
     7
370
    25
100
AcDbSpline
210
0.0
220
0.0
230
1.0
 70
     8
 71
     3
 72
    11
 73
     7
 74
     0
 42
0.00000001
 43
0.00000001
 40
0.0
 40
0.0
 40
0.0
 40
0.0
 40
0.4767774502005068
 40
0.6708556235671577
 40
0.9923332447694821
 40
1.0
 40
1.0
 40
1.0
 40
1.0
 10
69.14549572024272
 20
140.9242604887922
 30
0.0
 10
69.04903970573534
 20
140.7850004744092
 30
0.0
 10
68.91332007442321
 20
140.5890529442825
 30
0.0
 10
68.814432331139
 20
140.2592919414226
 30
0.0
 10
68.77241790876779
 20
140.0783654138193
 30
0.0
 10
68.78248083960197
 20
139.9676199657337
 30
0.0
 10
68.7827152353053
 20
139.9650403736028
 30
0.0
  0
SPLINE
  5
85
330
1F
100
AcDbEntity
  8
0
  6
Continuous
 62
     7
370
    25
100
AcDbSpline
210
0.0
220
0.0
230
1.0
 70
     8
 71
     3
 72
     9
 73
     5
 74
     0
 42
0.00000001
 43
0.00000001
 40
0.0
 40
0.0
 40
0.0
 40
0.0
 40
0.1319650365323776
 40
1.0
 40
1.0
 40
1.0
 40
1.0
 10
69.58656384025572
 20
141.2938174846477
 30
0.0
 10
69.56406786571112
 20
141.2824518943422
 30
0.0
 10
69.39359866314264
 20
141.1963261249404
 30
0.0
 10
69.26078372779509
 20
141.0506834354464
 30
0.0
 10
69.14549572024272
 20
140.9242604887922
 30
0.0
  0
SPLINE
  5
86
330
1F
100
AcDbEntity
  8
0
  6
Continuous
 62
     7
370
    25
100
AcDbSpline
210
0.0
220
0.0
230
1.0
 70
     8
 71
     3
 72
    10
 73
     6
 74
     0
 42
0.00000001
 43
0.00000001
 40
0.0
 40
0.0
 40
0.0
 40
0.0
 40
0.1862609462195219
 40
0.6838733393061542
 40
1.0
 40
1.0
 40
1.0
 40
1.0
 10
70.19499443215084
 20
141.4848260607582
 30
0.0
 10
70.15566694029957
 20
141.4846309961519
 30
0.0
 10
70.01127261757786
 20
141.4839147994055
 30
0.0
 10
69.8014076827144
 20
141.4134608811734
 30
0.0
 10
69.64667529033072
 20
141.3272926728344
 30
0.0
 10
69.58656384025572
 20
141.2938174846477
 30
0.0
  0
LINE
  5
87
330
1F
100
AcDbEntity
  8
0
  6
Continuous
 62
     7
370
    25
100
AcDbLine
 10
68.781872715
 20
139.9672210872
 30
0.0
 11
68.3971291702
 21
125.5755307609
 31
0.0
  0
LINE
  5
88
330
1F
100
AcDbEntity
  8
0
  6
Continuous
 62
     7
370
    25
100
AcDbLine
 10
116.9849217106
 20
145.989919893
 30
0.0
 11
113.1969358693
 21
145.6261876386
 31
0.0
  0
LINE
  5
89
330
1F
100
AcDbEntity
  8
0
  6
Continuous
 62
     7
370
    25
100
AcDbLine
 10
102.1862743038
 20
144.5689152723
 30
0.0
 11
70.1953070495
 21
141.4970593764
 31
0.0
  0
SPLINE
  5
8A
330
1F
100
AcDbEntity
  8
0
  6
Continuous
 62
     7
370
    25
100
AcDbSpline
210
0.0
220
0.0
230
1.0
 70
     8
 71
     3
 72
    12
 73
     8
 74
     0
 42
0.00000001
 43
0.00000001
 40
0.0
 40
0.0
 40
0.0
 40
0.0
 40
0.1561055973285347
 40
0.3016831913350399
 40
0.5701962870727072
 40
0.8170345227112435
 40
1.0
 40
1.0
 40
1.0
 40
1.0
 10
68.39715184030715
 20
125.5760910180785
 30
0.0
 10
68.39711138170557
 20
125.5095814379018
 30
0.0
 10
68.39703319309315
 20
125.3810477866719
 30
0.0
 10
68.42285816403628
 20
125.1304086541583
 30
0.0
 10
68.48292388971592
 20
124.8555955596581
 30
0.0
 10
68.57924170550888
 20
124.6087393041674
 30
0.0
 10
68.66187647494873
 20
124.5191704463722
 30
0.0
 10
68.69705371883114
 20
124.4810413927512
 30
0.0
  0
LINE
  5
8B
330
1F
100
AcDbEntity
  8
0
  6
Continuous
 62
     7
370
    25
100
AcDbLine
 10
117.2669201017
 20
146.0016918628
 30
0.0
 11
116.9889875015
 21
145.9861930186
 31
0.0
  0
SPLINE
  5
8C
330
1F
100
AcDbEntity
  8
0
  6
Continuous
 62
     7
370
    25
100
AcDbSpline
210
0.0
220
0.0
230
1.0
 70
     8
 71
     3
 72
    12
 73
     8
 74
     0
 42
0.00000001
 43
0.00000001
 40
0.0
 40
0.0
 40
0.0
 40
0.0
 40
0.1987230938293001
 40
0.382059838621771
 40
0.5629960172363467
 40
0.7652036400245078
 40
1.0
 40
1.0
 40
1.0
 40
1.0
 10
118.119419760605
 20
145.7811077515571
 30
0.0
 10
118.0816291410746
 20
145.8144441767207
 30
0.0
 10
118.008973881331
 20
145.8785359185149
 30
0.0
 10
117.8649758525658
 20
145.9240668526663
 30
0.0
 10
117.7020836759637
 20
145.9644889082799
 30
0.0
 10
117.5014013867307
 20
145.9934504098297
 30
0.0
 10
117.3488720577931
 20
145.9988114487536
 30
0.0
 10
117.2669201016632
 20
146.0016918628338
 30
0.0
  0
SPLINE
  5
8D
330
1F
100
AcDbEntity
  8
0
  6
Continuous
 62
     7
370
    25
100
AcDbSpline
210
0.0
220
0.0
230
1.0
 70
     8
 71
     3
 72
    14
 73
    10
 74
     0
 42
0.00000001
 43
0.00000001
 40
0.0
 40
0.0
 40
0.0
 40
0.0
 40
0.2257386023527624
 40
0.3182996820073541
 40
0.4717387065854136
 40
0.6313242550364878
 40
0.8027365653295034
 40
0.9819500845158585
 40
1.0
 40
1.0
 40
1.0
 40
1.0
 10
115.4926246951441
 20
151.4241223077173
 30
0.0
 10
115.7210857043054
 20
151.7237194460613
 30
0.0
 10
116.0432240794403
 20
152.1461623639819
 30
0.0
 10
116.4370936200041
 20
152.8249637410512
 30
0.0
 10
116.7350412580409
 20
153.4282826967115
 30
0.0
 10
117.0229809719987
 20
154.1757401682888
 30
0.0
 10
117.2365177110613
 20
154.9831374244096
 30
0.0
 10
117.3540905231174
 20
155.5759749843882
 30
0.0
 10
117.3679376063496
 20
155.8927990891573
 30
0.0
 10
117.3692046363112
 20
155.9217889945798
 30
0.0
  0
SPLINE
  5
8E
330
1F
100
AcDbEntity
  8
0
  6
Continuous
 62
     7
370
    25
100
AcDbSpline
210
0.0
220
0.0
230
1.0
 70
     8
 71
     3
 72
    13
 73
     9
 74
     0
 42
0.00000001
 43
0.00000001
 40
0.0
 40
0.0
 40
0.0
 40
0.0
 40
0.1186838360455702
 40
0.328712438686415
 40
0.5252196346911316
 40
0.6642510817528191
 40
0.8099311328491233
 40
1.0
 40
1.0
 40
1.0
 40
1.0
 10
111.7825376903809
 20
148.825539869362
 30
0.0
 10
111.9516195692547
 20
148.882124940898
 30
0.0
 10
112.4199168420269
 20
149.0388456661256
 30
0.0
 10
113.1317557236103
 20
149.408997612839
 30
0.0
 10
113.8351642417401
 20
149.8595064306932
 30
0.0
 10
114.4164963378926
 20
150.3180358308424
 30
0.0
 10
114.9590885730611
 20
150.8108676019735
 30
0.0
 10
115.2997658586336
 20
151.2024473654986
 30
0.0
 10
115.4926246951441
 20
151.4241223077173
 30
0.0
  0
LINE
  5
8F
330
1F
100
AcDbEntity
  8
0
  6
Continuous
 62
     7
370
    25
100
AcDbLine
 10
103.876180375
 20
150.7022634203
 30
0.0
 11
105.3487820823
 21
149.634670853
 31
0.0
  0
LINE
  5
90
330
1F
100
AcDbEntity
  8
0
  6
Continuous
 62
     7
370
    25
100
AcDbLine
 10
115.2676343663
 20
161.7221346797
 30
0.0
 11
113.179749956
 21
163.6557347522
 31
0.0
  0
LINE
  5
91
330
1F
100
AcDbEntity
  8
0
  6
Continuous
 62
     7
370
    25
100
AcDbLine
 10
113.165659032
 20
142.369608003
 30
0.0
 11
113.2340508168
 21
149.4906378937
 31
0.0
  0
LINE
  5
92
330
1F
100
AcDbEntity
  8
0
  6
Continuous
 62
     7
370
    25
100
AcDbLine
 10
102.2538777402
 20
151.6078614317
 30
0.0
 11
102.1661663203
 21
142.4752493147
 31
0.0
  0
LINE
  5
93
330
1F
100
AcDbEntity
  8
0
  6
Continuous
 62
     7
370
    25
100
AcDbLine
 10
101.9651819068
 20
152.2416534485
 30
0.0
 11
102.4460331385
 21
151.796334746
 31
0.0
  0
LINE
  5
94
330
1F
100
AcDbEntity
  8
0
  6
Continuous
 62
     7
370
    25
100
AcDbLine
 10
114.3336216615
 20
142.5027001241
 30
0.0
 11
113.8616217463
 21
142.9410443037
 31
0.0
  0
LINE
  5
95
330
1F
100
AcDbEntity
  8
0
  6
Continuous
 62
     7
370
    25
100
AcDbLine
 10
101.4813073492
 20
143.0599473011
 30
0.0
 11
101.0009753886
 21
142.6307495058
 31
0.0
  0
LINE
  5
96
330
1F
100
AcDbEntity
  8
0
  6
Continuous
 62
     7
370
    25
100
AcDbLine
 10
114.6518105871
 20
140.9204892986
 30
0.0
 11
114.6609967665
 21
141.8769646792
 31
0.0
  0
LINE
  5
97
330
1F
100
AcDbEntity
  8
0
  6
Continuous
 62
     7
370
    25
100
AcDbLine
 10
100.6616424063
 20
142.0114172578
 30
0.0
 11
100.6524562268
 21
141.0549418772
 31
0.0
  0
LINE
  5
98
330
1F
100
AcDbEntity
  8
0
  6
Continuous
 62
     7
370
    25
100
AcDbLine
 10
88.9106589719
 20
213.3880163585
 30
0.0
 11
88.089085536
 21
213.8973075603
 31
0.0
  0
LINE
  5
99
330
1F
100
AcDbEntity
  8
0
  6
Continuous
 62
     7
370
    25
100
AcDbLine
 10
73.4682584776
 20
190.3114237285
 30
0.0
 11
74.2898319135
 21
189.8021325267
 31
0.0
  0
SPLINE
  5
9A
330
1F
100
AcDbEntity
  8
0
  6
Continuous
 62
     7
370
    25
100
AcDbSpline
210
0.0
220
0.0
230
1.0
 70
     8
 71
     3
 72
     9
 73
     5
 74
     0
 42
0.00000001
 43
0.00000001
 40
0.0
 40
0.0
 40
0.0
 40
0.0
 40
0.0264378644176161
 40
0.9999999999999999
 40
0.9999999999999999
 40
0.9999999999999999
 40
0.9999999999999999
 10
71.0728365336053
 20
193.3515549373773
 30
0.0
 10
71.07253173974004
 20
193.3419305602173
 30
0.0
 10
71.06100305268525
 20
192.9778929432587
 30
0.0
 10
71.10171021654837
 20
192.6578651528652
 30
0.0
 10
71.14134116993246
 20
192.346298213804
 30
0.0
  0
SPLINE
  5
9B
330
1F
100
AcDbEntity
  8
0
  6
Continuous
 62
     7
370
    25
100
AcDbSpline
210
0.0
220
0.0
230
1.0
 70
     8
 71
     3
 72
     9
 73
     5
 74
     0
 42
0.00000001
 43
0.00000001
 40
0.0
 40
0.0
 40
0.0
 40
0.0
 40
0.0387657935244965
 40
1.0
 40
1.0
 40
1.0
 40
1.0
 10
85.23937332596435
 20
215.0787095799312
 30
0.0
 10
85.22945464471006
 20
215.0759263838642
 30
0.0
 10
84.97359295963938
 20
215.0041312311279
 30
0.0
 10
84.70055874433925
 20
214.8735067693496
 30
0.0
 10
84.43810891705455
 20
214.7479460684858
 30
0.0
  0
LINE
  5
9C
330
1F
100
AcDbEntity
  8
0
  6
Continuous
 62
     7
370
    25
100
AcDbLine
 10
72.9352022025
 20
189.0241060004
 30
0.0
 11
76.5717854767
 21
186.7697976389
 31
0.0
  0
LINE
  5
9D
330
1F
100
AcDbEntity
  8
0
  6
Continuous
 62
     7
370
    25
100
AcDbLine
 10
92.6415233247
 20
212.6930213099
 30
0.0
 11
89.0049400505
 21
214.9473296714
 31
0.0
  0
LINE
  5
9E
330
1F
100
AcDbEntity
  8
0
  6
Continuous
 62
     7
370
    25
100
AcDbLine
 10
76.9545837161
 20
186.5325020219
 30
0.0
 11
106.4300481494
 21
168.2607395126
 31
0.0
  0
LINE
  5
9F
330
1F
100
AcDbEntity
  8
0
  6
Continuous
 62
     7
370
    25
100
AcDbLine
 10
122.4997859974
 20
194.1839631835
 30
0.0
 11
93.0243215641
 21
212.4557256929
 31
0.0
  0
LINE
  5
A0
330
1F
100
AcDbEntity
  8
0
  6
Continuous
 62
     7
370
    25
100
AcDbLine
 10
118.0912166066
 20
161.0320120021
 30
0.0
 11
118.4881926903
 21
160.7859275769
 31
0.0
  0
LINE
  5
A1
330
1F
100
AcDbEntity
  8
0
  6
Continuous
 62
     7
370
    25
100
AcDbLine
 10
106.4300481494
 20
168.2607395126
 30
0.0
 11
108.7268375858
 21
166.8369658105
 31
0.0
  0
LINE
  5
A2
330
1F
100
AcDbEntity
  8
0
  6
Continuous
 62
     7
370
    25
100
AcDbLine
 10
134.5579305383
 20
186.7091512479
 30
0.0
 11
122.4997859974
 21
194.1839631835
 31
0.0
  0
LINE
  5
A3
330
1F
100
AcDbEntity
  8
0
  6
Continuous
 62
     7
370
    25
100
AcDbLine
 10
136.4123202731
 20
182.5351435541
 30
0.0
 11
136.3507530622
 21
183.4015738825
 31
0.0
  0
SPLINE
  5
A4
330
1F
100
AcDbEntity
  8
0
  6
Continuous
 62
     7
370
    25
100
AcDbSpline
210
0.0
220
0.0
230
1.0
 70
     8
 71
     3
 72
     9
 73
     5
 74
     0
 42
0.00000001
 43
0.00000001
 40
0.0
 40
0.0
 40
0.0
 40
0.0
 40
0.0430080160323937
 40
1.0
 40
1.0
 40
1.0
 40
1.0
 10
122.2443077197654
 20
160.6518697499738
 30
0.0
 10
122.2573729958872
 20
160.6555319846613
 30
0.0
 10
122.5611599948498
 20
160.7406843591562
 30
0.0
 10
122.8853380366604
 20
160.8956919585575
 30
0.0
 10
123.1955738240514
 20
161.0440329886387
 30
0.0
  0
LINE
  5
A5
330
1F
100
AcDbEntity
  8
0
  6
Continuous
 62
     7
370
    25
100
AcDbLine
 10
99.7793963823
 20
153.9695427084
 30
0.0
 11
101.8082034093
 21
152.3047238927
 31
0.0
  0
SPLINE
  5
A6
330
1F
100
AcDbEntity
  8
0
  6
Continuous
 62
     7
370
    25
100
AcDbSpline
210
0.0
220
0.0
230
1.0
 70
     8
 71
     3
 72
    15
 73
    11
 74
     0
 42
0.00000001
 43
0.00000001
 40
0.0
 40
0.0
 40
0.0
 40
0.0
 40
0.1902003308712563
 40
0.2681657254286022
 40
0.3974145089459981
 40
0.5318360958634459
 40
0.6762150300735702
 40
0.8271570058918062
 40
0.9833883470201414
 40
1.0
 40
1.0
 40
1.0
 40
1.0
 10
99.25391266695866
 20
164.749447470965
 30
0.0
 10
99.0227881361881
 20
164.4466160902158
 30
0.0
 10
98.69692289097787
 20
164.0196504980468
 30
0.0
 10
98.29764961120844
 20
163.3340731029683
 30
0.0
 10
97.99439955991737
 20
162.7248916764276
 30
0.0
 10
97.70308946531081
 20
161.9703697998495
 30
0.0
 10
97.4735099279937
 20
161.1546227893715
 30
0.0
 10
97.33514897971855
 20
160.2856989923929
 30
0.0
 10
97.2776458461452
 20
159.656970796803
 30
0.0
 10
97.29975862274112
 20
159.3276700320223
 30
0.0
 10
97.3018838449587
 20
159.2960214826625
 30
0.0
  0
SPLINE
  5
A7
330
1F
100
AcDbEntity
  8
0
  6
Continuous
 62
     7
370
    25
100
AcDbSpline
210
0.0
220
0.0
230
1.0
 70
     8
 71
     3
 72
    15
 73
    11
 74
     0
 42
0.00000001
 43
0.00000001
 40
0.0
 40
0.0
 40
0.0
 40
0.0
 40
0.0536246996090427
 40
0.2056072332592117
 40
0.3555655910899942
 40
0.5013541976199077
 40
0.6362223874102149
 40
0.7427511859710383
 40
0.8388570842363141
 40
1.0
 40
1.0
 40
1.0
 40
1.0
 10
105.0156030552426
 20
167.8222552979531
 30
0.0
 10
104.8998580736768
 20
167.8174044959577
 30
0.0
 10
104.4560699387897
 20
167.7988056043154
 30
0.0
 10
103.6891759752618
 20
167.6324658914398
 30
0.0
 10
102.7443777653249
 20
167.3322832780214
 30
0.0
 10
101.8691306562776
 20
166.9238064950943
 30
0.0
 10
101.1220488773715
 20
166.4695117152624
 30
0.0
 10
100.5098086726581
 20
166.010066723998
 30
0.0
 10
99.8850651802098
 20
165.4662006008991
 30
0.0
 10
99.49700006337368
 20
165.0255038100748
 30
0.0
 10
99.25391266695866
 20
164.749447470965
 30
0.0
  0
ARC
  5
A8
330
1F
100
AcDbEntity
  8
0
  6
Continuous
 62
     7
370
    25
100
AcDbCircle
 10
80.3851740768
 20
131.6983619819
 30
0.0
 40
1.614666738365751
100
AcDbArc
 50
96.7115226566
 51
177.9270729378
  0
ARC
  5
A9
330
1F
100
AcDbEntity
  8
0
  6
Continuous
 62
     7
370
    25
100
AcDbCircle
 10
79.8092407555
 20
133.0335312015
 30
0.0
 40
0.4711691059000955
100
AcDbArc
 50
355.1234324975
 51
34.7304087508
  0
SPLINE
  5
AA
330
1F
100
AcDbEntity
  8
0
  6
Continuous
 62
     7
370
    25
100
AcDbSpline
210
0.0
220
0.0
230
1.0
 70
     8
 71
     3
 72
    13
 73
     9
 74
     0
 42
0.00000001
 43
0.00000001
 40
0.0
 40
0.0
 40
0.0
 40
0.0
 40
0.2396832910637715
 40
0.3697720286455055
 40
0.4999999403308915
 40
0.6300887375505757
 40
0.7603167089362249
 40
1.0
 40
1.0
 40
1.0
 40
1.0
 10
80.27870429809113
 20
132.9934773813463
 30
0.0
 10
80.13213060211372
 20
132.9636940537408
 30
0.0
 10
79.90600364655046
 20
132.9177457466242
 30
0.0
 10
79.63283583872793
 20
132.7458980946214
 30
0.0
 10
79.4453633503615
 20
132.576861207786
 30
0.0
 10
79.29153895331201
 20
132.3758157109905
 30
0.0
 10
79.14075380839972
 20
132.0879632378752
 30
0.0
 10
79.11073534253123
 20
131.8560689024467
 30
0.0
 10
79.09128493530544
 20
131.7058134138019
 30
0.0
  0
ARC
  5
AB
330
1F
100
AcDbEntity
  8
0
  6
Continuous
 62
     7
370
    25
100
AcDbCircle
 10
79.0152206082
 20
132.2570908209
 30
0.0
 40
0.5565002798302631
100
AcDbArc
 50
244.0340210652
 51
277.855971621
  0
LINE
  5
AC
330
1F
100
AcDbEntity
  8
0
  6
Continuous
 62
     7
370
    25
100
AcDbLine
 10
80.0064848476
 20
132.0117448618
 30
0.0
 11
127.0591327798
 21
136.5298625173
 31
0.0
  0
ARC
  5
AD
330
1F
100
AcDbEntity
  8
0
  6
Continuous
 62
     7
370
    25
100
AcDbCircle
 10
80.0378700959
 20
131.7445817286
 30
0.0
 40
0.269000322570411
100
AcDbArc
 50
96.7001677992
 51
178.8383085007
  0
LINE
  5
AE
330
1F
100
AcDbEntity
  8
0
  6
Continuous
 62
     7
370
    25
100
AcDbLine
 10
79.6311323714
 20
117.4029047187
 30
0.0
 11
79.7689250631
 21
131.7500354283
 31
0.0
  0
LINE
  5
AF
330
1F
100
AcDbEntity
  8
0
  6
Continuous
 62
     7
370
    25
100
AcDbLine
 10
78.7065413904
 20
117.3141230876
 30
0.0
 11
79.6311323714
 21
117.4029047187
 31
0.0
  0
LINE
  5
B0
330
1F
100
AcDbEntity
  8
0
  6
Continuous
 62
     7
370
    25
100
AcDbLine
 10
79.0912849353
 20
131.7058134138
 30
0.0
 11
78.7065413904
 21
117.3141230876
 31
0.0
  0
LINE
  5
B1
330
1F
100
AcDbEntity
  8
0
  6
Continuous
 62
     7
370
    25
100
AcDbLine
 10
80.2787042981
 20
132.9934773813
 30
0.0
 11
127.0683189592
 21
137.4863378979
 31
0.0
  0
LINE
  5
B2
330
1F
100
AcDbEntity
  8
0
  6
Continuous
 62
     7
370
    25
100
AcDbLine
 10
127.0683189592
 20
137.4863378979
 30
0.0
 11
127.0591327798
 21
136.5298625173
 31
0.0
  0
LINE
  5
B3
330
1F
100
AcDbEntity
  8
0
  6
Continuous
 62
     7
370
    25
100
AcDbLine
 10
68.7965960987
 20
139.9421260937
 30
0.0
 11
78.7715639815
 21
131.7567669161
 31
0.0
  0
ARC
  5
B4
330
1F
100
AcDbEntity
  8
0
  6
Continuous
 62
     7
370
    25
100
AcDbCircle
 10
70.410206194
 20
139.8837211595
 30
0.0
 40
1.614666738365648
100
AcDbArc
 50
96.7115226566
 51
177.9270729378
  0
LINE
  5
B5
330
1F
100
AcDbEntity
  8
0
  6
Continuous
 62
     7
370
    25
100
AcDbLine
 10
70.221499334
 20
141.4873228547
 30
0.0
 11
80.1964672168
 21
133.3019636772
 31
0.0
  0
LINE
  5
B6
330
1F
100
AcDbEntity
  8
0
  6
Continuous
 62
     7
370
    25
100
AcDbLine
 10
78.3868204366
 20
117.3650765899
 30
0.0
 11
78.7715639815
 21
131.7567669161
 31
0.0
  0
ARC
  5
B7
330
1F
100
AcDbEntity
  8
0
  6
Continuous
 62
     7
370
    25
100
AcDbCircle
 10
78.6304770633
 20
117.8654004947
 30
0.0
 40
0.556500279829235
100
AcDbArc
 50
244.0340210652
 51
277.8559716211
  0
LINE
  5
B8
330
1F
100
AcDbEntity
  8
0
  6
Continuous
 62
     7
370
    25
100
AcDbLine
 10
80.1964672168
 20
133.3019636772
 30
0.0
 11
126.986081878
 21
137.7948241937
 31
0.0
  0
ARC
  5
B9
330
1F
100
AcDbEntity
  8
0
  6
Continuous
 62
     7
370
    25
100
AcDbCircle
 10
126.5988554166
 20
137.5263917181
 30
0.0
 40
0.4711691059007525
100
AcDbArc
 50
355.1234324976
 51
34.7304087508
  0
LINE
  5
BA
330
1F
100
AcDbEntity
  8
0
  6
Continuous
 62
     7
370
    25
100
AcDbLine
 10
68.7965960987
 20
139.9421260937
 30
0.0
 11
68.4118525538
 21
125.5504357674
 31
0.0
  0
SPLINE
  5
BB
330
1F
100
AcDbEntity
  8
0
  6
Continuous
 62
     7
370
    25
100
AcDbSpline
210
0.0
220
0.0
230
1.0
 70
     8
 71
     3
 72
    13
 73
     9
 74
     0
 42
0.00000001
 43
0.00000001
 40
0.0
 40
0.0
 40
0.0
 40
0.0
 40
0.2394259924026154
 40
0.3695846593149659
 40
0.4999752278747435
 40
0.6301417045486257
 40
0.7605400971976229
 40
1.0
 40
1.0
 40
1.0
 40
1.0
 10
78.11401031828386
 20
116.8546394458008
 30
0.0
 10
78.14615974584184
 20
116.8381203684253
 30
0.0
 10
78.19578650153346
 20
116.8126210585018
 30
0.0
 10
78.25727932287914
 20
116.8535725437283
 30
0.0
 10
78.30010473572676
 20
116.9132868387918
 30
0.0
 10
78.33594739693257
 20
117.0007373325148
 30
0.0
 10
78.37200641365837
 20
117.1422686217476
 30
0.0
 10
78.38099857784349
 20
117.277513844255
 30
0.0
 10
78.38682043661544
 20
117.3650765898643
 30
0.0
  0
LINE
  5
BC
330
1F
100
AcDbEntity
  8
0
  6
Continuous
 62
     7
370
    25
100
AcDbLine
 10
68.6462441922
 20
124.6237939194
 30
0.0
 11
78.1140103183
 21
116.8546394458
 31
0.0
  0
SPLINE
  5
BD
330
1F
100
AcDbEntity
  8
0
  6
Continuous
 62
     7
370
    25
100
AcDbSpline
210
0.0
220
0.0
230
1.0
 70
     8
 71
     3
 72
    13
 73
     9
 74
     0
 42
0.00000001
 43
0.00000001
 40
0.0
 40
0.0
 40
0.0
 40
0.0
 40
0.2394599028268714
 40
0.3696300083677745
 40
0.5000245666300004
 40
0.6301870679524907
 40
0.7605740075726591
 40
1.0
 40
1.0
 40
1.0
 40
1.0
 10
68.41185255379834
 20
125.5504357674135
 30
0.0
 10
68.41284284388882
 20
125.4572825691333
 30
0.0
 10
68.41437145444159
 20
125.3134914080525
 30
0.0
 10
68.44146475631827
 20
125.120128206581
 30
0.0
 10
68.4711684803006
 20
124.9789370507418
 30
0.0
 10
68.50904497465463
 20
124.852924512795
 30
0.0
 10
68.56575084015928
 20
124.714944276481
 30
0.0
 10
68.61461095290016
 20
124.6596152758991
 30
0.0
 10
68.64624419222018
 20
124.6237939194068
 30
0.0
  0
LINE
  5
BE
330
1F
100
AcDbEntity
  8
0
  6
Continuous
 62
     7
370
    25
100
AcDbLine
 10
127.4382707186
 20
138.0706983105
 30
0.0
 11
117.9705045925
 21
145.8398527841
 31
0.0
  0
SPLINE
  5
BF
330
1F
100
AcDbEntity
  8
0
  6
Continuous
 62
     7
370
    25
100
AcDbSpline
210
0.0
220
0.0
230
1.0
 70
     8
 71
     3
 72
    13
 73
     9
 74
     0
 42
0.00000001
 43
0.00000001
 40
0.0
 40
0.0
 40
0.0
 40
0.0
 40
0.23944294786128
 40
0.3696073166373069
 40
0.4999998972369518
 40
0.6301643686854234
 40
0.7605570521388034
 40
1.0
 40
1.0
 40
1.0
 40
1.0
 10
126.9860818779774
 20
137.7948241937338
 30
0.0
 10
127.0714314641745
 20
137.8061416753684
 30
0.0
 10
127.2031782197679
 20
137.8236114904347
 30
0.0
 10
127.3360928272655
 20
137.8653119108479
 30
0.0
 10
127.4156135054096
 20
137.9029757007253
 30
0.0
 10
127.466498499458
 20
137.9448562572176
 30
0.0
 10
127.4952967773137
 20
138.0017919637276
 30
0.0
 10
127.4606816289192
 20
138.0436185158912
 30
0.0
 10
127.4382707185837
 20
138.0706983105377
 30
0.0
  0
SPLINE
  5
C0
330
1F
100
AcDbEntity
  8
0
  6
Continuous
 62
     7
370
    25
100
AcDbSpline
210
0.0
220
0.0
230
1.0
 70
     8
 71
     3
 72
    13
 73
     9
 74
     0
 42
0.00000001
 43
0.00000001
 40
0.0
 40
0.0
 40
0.0
 40
0.0
 40
0.239442947861199
 40
0.3696073166343406
 40
0.4999998972369404
 40
0.6301643686846636
 40
0.7605570521388965
 40
1.0
 40
1.0
 40
1.0
 40
1.0
 10
117.9705045925198
 20
145.8398527841437
 30
0.0
 10
117.9291341938781
 20
145.8651121886147
 30
0.0
 10
117.8652742967017
 20
145.9041029410663
 30
0.0
 10
117.7183103638962
 20
145.9441645909086
 30
0.0
 10
117.5867935201991
 20
145.9685158690346
 30
0.0
 10
117.4416831319258
 20
145.9846337656835
 30
0.0
 10
117.2456251009185
 20
145.9947568031452
 30
0.0
 10
117.1032754995823
 20
145.9859106454804
 30
0.0
 10
117.0111139951605
 20
145.980183371283
 30
0.0
  0
LINE
  5
C1
330
1F
100
AcDbEntity
  8
0
  6
Continuous
 62
     7
370
    25
100
AcDbLine
 10
126.0166627539
 20
121.2887936586
 30
0.0
 11
126.1622138483
 21
136.4437380283
 31
0.0
  0
LINE
  5
C2
330
1F
100
AcDbEntity
  8
0
  6
Continuous
 62
     7
370
    25
100
AcDbLine
 10
79.5341645032
 20
116.8254232587
 30
0.0
 11
126.0166627539
 21
121.2887936586
 31
0.0
  0
LWPOLYLINE
  5
C3
330
1F
100
AcDbEntity
  8
0
  6
Continuous
 62
     7
370
    25
100
AcDbPolyline
 90
       23
 70
   128
 43
0.0
 10
87.9513267529
 20
122.554966568
 10
88.5752455512
 20
122.7058412451
 10
89.1503670517
 20
123.0265896285
 10
89.6300983307
 20
123.4912265918
 10
89.9755744132
 20
124.0621100114
 10
90.1588068815
 20
124.692990308
 10
90.1649513308
 20
125.3327573118
 10
89.9935099744
 20
125.929580905
 10
89.6583719713
 20
126.4351099897
 10
89.1866882095
 20
126.8083896057
 10
88.616671702
 20
127.0191788587
 10
87.9945017963
 20
127.050400857
 10
87.370582998
 20
126.8995261798
 10
86.7954614976
 20
126.5787777964
 10
86.3157302185
 20
126.1141408331
 10
85.970254136
 20
125.5432574135
 10
85.7870216677
 20
124.9123771169
 10
85.7808772184
 20
124.2726101131
 10
85.9523185748
 20
123.6757865199
 10
86.2874565779
 20
123.1702574352
 10
86.7591403398
 20
122.7969778192
 10
87.3291568473
 20
122.5861885662
 10
87.9513267529
 20
122.554966568
  0
LWPOLYLINE
  5
C4
330
1F
100
AcDbEntity
  8
0
  6
Continuous
 62
     7
370
    25
100
AcDbPolyline
 90
       23
 70
   128
 43
0.0
 10
116.1829155122
 20
125.2658371613
 10
116.8068343105
 20
125.4167118384
 10
117.381955811
 20
125.7374602218
 10
117.86168709
 20
126.2020971851
 10
118.2071631725
 20
126.7729806047
 10
118.3903956408
 20
127.4038609013
 10
118.3965400902
 20
128.0436279051
 10
118.2250987337
 20
128.6404514983
 10
117.8899607306
 20
129.145980583
 10
117.4182769688
 20
129.519260199
 10
116.8482604613
 20
129.730049452
 10
116.2260905556
 20
129.7612714503
 10
115.6021717573
 20
129.6103967731
 10
115.0270502569
 20
129.2896483897
 10
114.5473189778
 20
128.8250114264
 10
114.2018428954
 20
128.2541280068
 10
114.018610427
 20
127.6232477102
 10
114.0124659777
 20
126.9834807064
 10
114.1839073341
 20
126.3866571132
 10
114.5190453372
 20
125.8811280285
 10
114.9907290991
 20
125.5078484125
 10
115.5607456066
 20
125.2970591595
 10
116.1829155122
 20
125.2658371613
  0
LWPOLYLINE
  5
C5
330
1F
100
AcDbEntity
  8
0
  6
Continuous
 62
     7
370
    25
100
AcDbPolyline
 90
        3
 70
   128
 43
0.0
 10
78.2401225035
 20
116.6498351456
 10
78.2153137938
 20
116.6624337508
 10
78.1908680475
 20
116.6795806265
  0
LWPOLYLINE
  5
C6
330
1F
100
AcDbEntity
  8
0
  6
Continuous
 62
     7
370
    25
100
AcDbPolyline
 90
        8
 70
   128
 43
0.0
 10
79.3885808257
 20
116.6849530539
 10
79.4139094165
 20
116.6905233974
 10
79.4732173033
 20
116.7309403446
 10
79.5255994582
 20
116.8078435147
 10
79.5690428644
 20
116.9182775621
 10
79.6018780162
 20
117.0579985682
 10
79.622843077
 20
117.2216371332
 10
79.6311323714
 20
117.4029047187
  0
LWPOLYLINE
  5
C7
330
1F
100
AcDbEntity
  8
0
  6
Continuous
 62
     7
370
    25
100
AcDbPolyline
 90
       17
 70
   128
 43
0.0
 10
87.5483650547
 20
124.0665494175
 10
87.9542927663
 20
124.1873603871
 10
88.2999949902
 20
124.4535955263
 10
88.5328416965
 20
124.8247229485
 10
88.6173840851
 20
125.2442418679
 10
88.5407513436
 20
125.6482843321
 10
88.3146101122
 20
125.9753385386
 10
87.9733883435
 20
126.175613449
 10
87.5690339585
 20
126.2186190239
 10
87.1631062469
 20
126.0978080543
 10
86.817404023
 20
125.8315729151
 10
86.5845573167
 20
125.4604454929
 10
86.5000149281
 20
125.0409265734
 10
86.5766476697
 20
124.6368841092
 10
86.802788901
 20
124.3098299028
 10
87.1440106698
 20
124.1095549923
 10
87.5483650547
 20
124.0665494175
  0
ELLIPSE
  5
C8
330
1F
100
AcDbEntity
  8
0
  6
Continuous
 62
     7
370
    25
100
AcDbEllipse
 10
87.505979946
 20
125.1858453664
 30
0.0
 11
0.6862277804222146
 21
0.8915947524469914
 31
0.0
210
0.0
220
0.0
230
1.0
 40
0.9041944122
 41
3.113377379572743
 42
3.843301614969314
  0
ELLIPSE
  5
C9
330
1F
100
AcDbEntity
  8
0
  6
Continuous
 62
     7
370
    25
100
AcDbEllipse
 10
87.505979946
 20
125.1858453664
 30
0.0
 11
0.6862277804222146
 21
0.8915947524469914
 31
0.0
210
0.0
220
0.0
230
1.0
 40
0.9041944122
 41
3.8433016149693
 42
6.254970033162564
  0
LWPOLYLINE
  5
CA
330
1F
100
AcDbEntity
  8
0
  6
Continuous
 62
     7
370
    25
100
AcDbPolyline
 90
       17
 70
   128
 43
0.0
 10
115.779953814
 20
126.7774200108
 10
116.1858815256
 20
126.8982309804
 10
116.5315837495
 20
127.1644661196
 10
116.7644304558
 20
127.5355935418
 10
116.8489728444
 20
127.9551124612
 10
116.7723401029
 20
128.3591549254
 10
116.5461988715
 20
128.6862091319
 10
116.2049771028
 20
128.8864840423
 10
115.8006227178
 20
128.9294896172
 10
115.3946950062
 20
128.8086786476
 10
115.0489927823
 20
128.5424435084
 10
114.816146076
 20
128.1713160862
 10
114.7316036874
 20
127.7517971667
 10
114.808236429
 20
127.3477547025
 10
115.0343776603
 20
127.0207004961
 10
115.3755994291
 20
126.8204255856
 10
115.779953814
 20
126.7774200108
  0
ARC
  5
CB
330
1F
100
AcDbEntity
  8
0
  6
Continuous
 62
     7
370
    25
100
AcDbCircle
 10
127.4612173505
 20
137.8596410421
 30
0.0
 40
0.2123010091394119
100
AcDbArc
 50
51.0903925894
 51
96.2049569564
  0
LWPOLYLINE
  5
CC
330
1F
100
AcDbEntity
  8
0
  6
Continuous
 62
     7
370
    25
100
AcDbPolyline
 90
        8
 70
   128
 43
0.0
 10
127.0591327798
 20
136.5298625173
 10
127.2362259448
 20
136.5528228423
 10
127.3935191995
 20
136.5855638238
 10
127.5249678522
 20
136.6268272443
 10
127.6255204049
 20
136.6750273735
 10
127.6913126794
 20
136.7283119077
 10
127.7198163156
 20
136.784633152
 10
127.7209521582
 20
136.7977285643
  0
ELLIPSE
  5
CD
330
1F
100
AcDbEntity
  8
0
  6
Continuous
 62
     7
370
    25
100
AcDbEllipse
 10
115.7375687053
 20
127.8967159597
 30
0.0
 11
0.6862277804222289
 21
0.8915947524469773
 31
0.0
210
0.0
220
0.0
230
1.0
 40
0.9041944122
 41
3.113377379572762
 42
3.843301614969343
  0
ELLIPSE
  5
CE
330
1F
100
AcDbEntity
  8
0
  6
Continuous
 62
     7
370
    25
100
AcDbEllipse
 10
115.7375687053
 20
127.8967159597
 30
0.0
 11
0.6862277804222289
 21
0.8915947524469773
 31
0.0
210
0.0
220
0.0
230
1.0
 40
0.9041944122
 41
3.84330161496933
 42
6.254970033162573
  0
ARC
  5
CF
330
1F
100
AcDbEntity
  8
0
  6
Continuous
 62
     7
370
    25
100
AcDbCircle
 10
117.9934512245
 20
145.6287955157
 30
0.0
 40
0.2123010091397619
100
AcDbArc
 50
51.0903925894
 51
96.2049569564
  0
LINE
  5
D0
330
1F
100
AcDbEntity
  8
0
  6
Continuous
 62
     7
370
    25
100
AcDbLine
 10
116.0584211082
 20
128.4684592715
 30
0.0
 11
116.0577825955
 21
128.9219063728
 31
0.0
  0
LINE
  5
D1
330
1F
100
AcDbEntity
  8
0
  6
Continuous
 62
     7
370
    25
100
AcDbLine
 10
116.0584211082
 20
128.4684592715
 30
0.0
 11
116.788353923
 21
127.8694836824
 31
0.0
  0
LINE
  5
D2
330
1F
100
AcDbEntity
  8
0
  6
Continuous
 62
     7
370
    25
100
AcDbLine
 10
86.6788840751
 20
125.6473596988
 30
0.0
 11
88.4244670001
 21
125.8149751121
 31
0.0
  0
LINE
  5
D3
330
1F
100
AcDbEntity
  8
0
  6
Continuous
 62
     7
370
    25
100
AcDbLine
 10
114.9104728345
 20
128.3582302921
 30
0.0
 11
116.0584211082
 21
128.4684592715
 31
0.0
  0
LWPOLYLINE
  5
D4
330
1F
100
AcDbEntity
  8
0
  6
Continuous
 62
     7
370
    25
100
AcDbPolyline
 90
        3
 70
   128
 43
0.0
 10
70.221499334
 20
141.4873228547
 10
70.2049635142
 20
141.4962611714
 10
70.1953070495
 20
141.4970593764
  0
LWPOLYLINE
  5
D5
330
1F
100
AcDbEntity
  8
0
  6
Continuous
 62
     7
370
    25
100
AcDbPolyline
 90
        3
 70
   128
 43
0.0
 10
68.781872715
 20
139.9672210872
 10
68.7846234649
 20
139.9560128308
 10
68.7965960987
 20
139.9421260937
  0
LWPOLYLINE
  5
D6
330
1F
100
AcDbEntity
  8
0
  6
Continuous
 62
     7
370
    25
100
AcDbPolyline
 90
        3
 70
   128
 43
0.0
 10
117.0111139952
 20
145.9801833713
 10
116.9945781754
 20
145.989121688
 10
116.9849217106
 20
145.989919893
  0
SPLINE
  5
D7
330
1F
100
AcDbEntity
  8
0
  6
Continuous
 62
     7
370
    25
100
AcDbSpline
210
0.0
220
0.0
230
1.0
 70
    11
 71
     3
 72
    39
 73
    35
 74
     0
 42
0.00000001
 43
0.00000001
 40
0.0
 40
0.0
 40
0.0
 40
0.0
 40
0.029129008105451
 40
0.0600028324322984
 40
0.0921602034406938
 40
0.125
 40
0.1578397965593062
 40
0.1899971675677016
 40
0.2208709918945491
 40
0.2500000000000001
 40
0.2791290081054509
 40
0.3100028324322984
 40
0.3421602034406938
 40
0.3749999999999999
 40
0.4078397965593061
 40
0.4399971675677017
 40
0.4708709918945491
 40
0.5
 40
0.5291290081054509
 40
0.5600028324322983
 40
0.5921602034406938
 40
0.625
 40
0.6578397965593061
 40
0.6899971675677017
 40
0.7208709918945491
 40
0.7499999999999999
 40
0.7791290081054508
 40
0.8100028324322982
 40
0.8421602034406936
 40
0.875
 40
0.9078397965593061
 40
0.9399971675677017
 40
0.9708709918945491
 40
1.0
 40
1.0
 40
1.0
 40
1.0
 10
110.247164284424
 20
162.7943473187464
 30
0.0
 10
110.6676392712839
 20
162.811999230828
 30
0.0
 10
111.5337755326763
 20
162.8483603976381
 30
0.0
 10
112.8155616480311
 20
162.5817547220838
 30
0.0
 10
114.0455129506717
 20
162.0536855527026
 30
0.0
 10
115.1398382305463
 20
161.2477312211498
 30
0.0
 10
116.0251244277374
 20
160.2129175927167
 30
0.0
 10
116.6534409945907
 20
159.0179073673134
 30
0.0
 10
117.0104703396205
 20
157.7468152652999
 30
0.0
 10
117.1159827186158
 20
156.4497722228811
 30
0.0
 10
116.9853384945901
 20
155.1300591717057
 30
0.0
 10
116.6032116459224
 20
153.7879708447127
 30
0.0
 10
115.950760464783
 20
152.4700577680887
 30
0.0
 10
115.0439415029618
 20
151.2628556197452
 30
0.0
 10
113.9321115027714
 20
150.2461986986161
 30
0.0
 10
112.6896973317239
 20
149.4766199313569
 30
0.0
 10
111.4005574675109
 20
148.9775449689756
 30
0.0
 10
110.1121251833309
 20
148.733923572249
 30
0.0
 10
108.8259981652655
 20
148.7303290874088
 30
0.0
 10
107.5440736437696
 20
148.9825237592006
 30
0.0
 10
106.3141618184599
 20
149.5147033528705
 30
0.0
 10
105.2198255971938
 20
150.3195184543745
 30
0.0
 10
104.3345423408372
 20
151.3546382858188
 30
0.0
 10
103.7062250068645
 20
152.5495686378771
 30
0.0
 10
103.3491958591374
 20
153.8206812832826
 30
0.0
 10
103.2436834189782
 20
155.1177179572336
 30
0.0
 10
103.3743277041678
 20
156.4374373768768
 30
0.0
 10
103.7564543555327
 20
157.7795051604777
 30
0.0
 10
104.4089063037916
 20
159.0974981104468
 30
0.0
 10
105.3157223247782
 20
160.3043940557791
 30
0.0
 10
106.4275632663602
 20
161.322190206957
 30
0.0
 10
107.6699379600769
 20
162.0876585499275
 30
0.0
 10
108.959216230431
 20
162.6011445160713
 30
0.0
 10
109.8262524186102
 20
162.731207076481
 30
0.0
 10
110.247164284424
 20
162.7943473187464
 30
0.0
  0
ARC
  5
D8
330
1F
100
AcDbEntity
  8
0
  6
Continuous
 62
     7
370
    25
100
AcDbCircle
 10
110.7702026873
 20
156.8107355236
 30
0.0
 40
6.632060992053376
100
AcDbArc
 50
352.706952817
 51
95.9118302724
  0
ARC
  5
D9
330
1F
100
AcDbEntity
  8
0
  6
Continuous
 62
     7
370
    25
100
AcDbCircle
 10
109.3058516413
 20
155.0185940586
 30
0.0
 40
6.651809616300794
100
AcDbArc
 50
184.7983071307
 51
291.4346571219
  0
LWPOLYLINE
  5
DA
330
1F
100
AcDbEntity
  8
0
  6
Continuous
 62
     7
370
    25
100
AcDbPolyline
 90
       41
 70
   128
 43
0.0
 10
110.1132332778
 20
148.8492996211
 10
109.0467581397
 20
148.8321897135
 10
108.0081830671
 20
148.9862501958
 10
107.023081225
 20
149.3076875876
 10
106.1157090903
 20
149.7885870335
 10
105.3084091762
 20
150.4171071933
 10
104.6210598859
 20
151.1777718145
 10
104.0705860401
 20
152.0518508097
 10
103.6705421319
 20
153.0178214532
 10
103.4307785698
 20
154.0518983418
 10
103.3571991286
 20
155.1286190706
 10
103.4516155783
 20
156.221471202
 10
103.7117030725
 20
157.3035450893
 10
104.131057394
 20
158.3481964823
 10
104.6993526475
 20
159.3297025968
 10
105.402595518
 20
160.2238954947
 10
106.2234698319
 20
161.0087571793
 10
107.1417629394
 20
161.664961751
 10
108.1348634165
 20
162.1763512756
 10
109.1783178335
 20
162.5303336456
 10
110.2464328798
 20
162.7181926403
 10
111.3129080179
 20
162.7353025479
 10
112.3514830905
 20
162.5812420656
 10
113.3365849326
 20
162.2598046738
 10
114.2439570673
 20
161.7789052278
 10
115.0512569814
 20
161.1503850681
 10
115.7386062717
 20
160.3897204469
 10
116.2890801175
 20
159.5156414517
 10
116.6891240257
 20
158.5496708082
 10
116.9288875878
 20
157.5155939196
 10
117.002467029
 20
156.4388731907
 10
116.9080505793
 20
155.3460210594
 10
116.6479630851
 20
154.2639471721
 10
116.2286087636
 20
153.219295779
 10
115.6603135101
 20
152.2377896646
 10
114.9570706396
 20
151.3435967666
 10
114.1361963257
 20
150.5587350821
 10
113.2179032182
 20
149.9025305104
 10
112.2248027411
 20
149.3911409858
 10
111.181348324
 20
149.0371586158
 10
110.1132332778
 20
148.8492996211
  0
SPLINE
  5
DB
330
1F
100
AcDbEntity
  8
0
  6
Continuous
 62
     7
370
    25
100
AcDbSpline
210
0.0
220
0.0
230
1.0
 70
     8
 71
     3
 72
    10
 73
     6
 74
     0
 42
0.00000001
 43
0.00000001
 40
0.0
 40
0.0
 40
0.0
 40
0.0
 40
0.0293904055451649
 40
0.6462902581999513
 40
0.9999999999999999
 40
0.9999999999999999
 40
0.9999999999999999
 40
0.9999999999999999
 10
103.8769657534615
 20
150.7034133954039
 30
0.0
 10
103.8596461335474
 20
150.7154133750282
 30
0.0
 10
103.4787904965259
 20
150.9792909835854
 30
0.0
 10
103.0062674223842
 20
151.3636996427082
 30
0.0
 10
102.6965871436133
 20
151.5899659601069
 30
0.0
 10
102.5837333947215
 20
151.6724219765757
 30
0.0
  0
LWPOLYLINE
  5
DC
330
1F
100
AcDbEntity
  8
0
  6
Continuous
 62
     7
370
    25
100
AcDbPolyline
 90
       18
 70
   128
 43
0.0
 10
102.5837333947
 20
151.6724219766
 10
101.8377251214
 20
152.4423444153
 10
101.224076597
 20
153.329309272
 10
100.756381144
 20
154.3136688183
 10
100.4449989849
 20
155.373617874
 10
100.2968277457
 20
156.4856768265
 10
100.3151496628
 20
157.6252117441
 10
100.4995588756
 20
158.7669800567
 10
100.8459704173
 20
159.8856897214
 10
101.3467107032
 20
160.9565594817
 10
101.9906875137
 20
161.955867814
 10
102.7636357049
 20
162.8614783975
 10
103.648433205
 20
163.6533304707
 10
104.6254802964
 20
164.3138832098
 10
105.6731337815
 20
164.8285042866
 10
106.768186415
 20
165.1857939994
 10
107.8863809828
 20
165.3778377942
 10
107.9804063833
 20
165.3862700297
  0
LWPOLYLINE
  5
DD
330
1F
100
AcDbEntity
  8
0
  6
Continuous
 62
     7
370
    25
100
AcDbPolyline
 90
        3
 70
   128
 43
0.0
 10
112.9060493745
 20
163.8952818496
 10
112.9702037328
 20
163.8415396106
 10
113.179749956
 20
163.6557347522
  0
LWPOLYLINE
  5
DE
330
1F
100
AcDbEntity
  8
0
  6
Continuous
 62
     7
370
    25
100
AcDbPolyline
 90
       36
 70
   128
 43
0.0
 10
109.957945294
 20
150.4227475932
 10
110.9249752331
 20
150.603905794
 10
111.8626217296
 20
150.9560073791
 10
112.7407480537
 20
151.4677355138
 10
113.5311305027
 20
152.1226428348
 10
114.2083655344
 20
152.8996800821
 10
114.7506862577
 20
153.7738726391
 10
115.1406620383
 20
154.7171232377
 10
115.3657587338
 20
155.6991150276
 10
115.4187415511
 20
156.6882859847
 10
115.2979075788
 20
157.6528433406
 10
115.0071405204
 20
158.5617854281
 10
114.5557858682
 20
159.3858981007
 10
113.9583505323
 20
160.0986936991
 10
113.2340365757
 20
160.6772623861
 10
112.4061240452
 20
161.1030084882
 10
111.5012227306
 20
161.3622481753
 10
110.5484169047
 20
161.4466492706
 10
109.5783305307
 20
161.3534990534
 10
108.622142983
 20
161.0857914484
 10
107.710586916
 20
160.6521307983
 10
106.8729604917
 20
160.066455313
 10
106.1361857127
 20
159.3475890848
 10
105.5239431265
 20
158.5186370655
 10
105.0559107136
 20
157.6062424553
 10
104.747131421
 20
156.6397303675
 10
104.607529669
 20
155.6501652959
 10
104.6415923729
 20
154.6693526762
 10
104.8482247293
 20
153.7288166329
 10
105.2207854044
 20
152.8587867684
 10
105.7472999914
 20
152.0872265583
 10
106.4108458783
 20
151.4389345827
 10
107.1900961543
 20
150.9347474791
 10
108.0600050745
 20
150.5908702358
 10
108.9926130503
 20
150.4183553504
 10
109.957945294
 20
150.4227475932
  0
LWPOLYLINE
  5
DF
330
1F
100
AcDbEntity
  8
0
  6
Continuous
 62
     7
370
    25
100
AcDbPolyline
 90
       19
 70
   128
 43
0.0
 10
102.1661663203
 20
142.4752493147
 10
102.1906820296
 20
142.3191694291
 10
102.3752264309
 20
142.030787507
 10
102.7347755047
 20
141.7553602429
 10
103.2574361306
 20
141.5019981864
 10
103.9259198045
 20
141.2790820164
 10
104.7181145051
 20
141.0939853268
 10
105.6078161131
 20
140.9528307233
 10
106.5655951874
 20
140.8602873005
 10
107.559770429
 20
140.8194161985
 10
108.5574566309
 20
140.8315693466
 10
109.5256524509
 20
140.8963447444
 10
110.4323320261
 20
141.0115997593
 10
111.2475043205
 20
141.1735219999
 10
111.9442051645
 20
141.3767554222
 10
112.4993891729
 20
141.614577496
 10
112.894692037
 20
141.8791215717
 10
113.1170379769
 20
142.1616370928
 10
113.165659032
 20
142.369608003
  0
LINE
  5
E0
330
1F
100
AcDbEntity
  8
0
  6
Continuous
 62
     7
370
    25
100
AcDbLine
 10
102.2679617205
 20
151.6100812107
 30
0.0
 11
102.2734609827
 21
151.6075930235
 31
0.0
  0
LINE
  5
E1
330
1F
100
AcDbEntity
  8
0
  6
Continuous
 62
     7
370
    25
100
AcDbLine
 10
102.2713046581
 20
151.9581516554
 30
0.0
 11
102.2679617205
 21
151.6100812107
 31
0.0
  0
LWPOLYLINE
  5
E2
330
1F
100
AcDbEntity
  8
0
  6
Continuous
 62
     7
370
    25
100
AcDbPolyline
 90
       18
 70
   128
 43
0.0
 10
107.4044346964
 20
165.7588884829
 10
107.3788184032
 20
165.7564732142
 10
106.2517657277
 20
165.5617966793
 10
105.148668204
 20
165.198477425
 10
104.0945986715
 20
164.6747735112
 10
103.1135155884
 20
164.0025884584
 10
102.2277184686
 20
163.1972006871
 10
101.4573410249
 20
162.2769162472
 10
100.8198935404
 20
161.2626527304
 10
100.3298648685
 20
160.177463825
 10
99.998393109
 20
159.0460153164
 10
99.8330124443
 20
157.8940244474
 10
99.8374818919
 20
156.7476753777
 10
100.0116998636
 20
155.6330240322
 10
100.3517064745
 20
154.5754058625
 10
100.8497735492
 20
153.5988599856
 10
101.4945802793
 20
152.725582787
 10
101.9651819068
 20
152.2416534485
  0
LWPOLYLINE
  5
E3
330
1F
100
AcDbEntity
  8
0
  6
Continuous
 62
     7
370
    25
100
AcDbPolyline
 90
       25
 70
   128
 43
0.0
 10
114.3336216615
 20
142.5027001241
 10
114.5430696991
 20
142.2569712541
 10
114.6592153882
 20
141.9291142227
 10
114.5941192518
 20
141.6016476711
 10
114.3494672458
 20
141.2830528111
 10
113.9315957284
 20
140.981581082
 10
113.3513273527
 20
140.7050404433
 10
112.6236907646
 20
140.4605931524
 10
111.7675313696
 20
140.2545702656
 10
110.8050232463
 20
140.0923076674
 10
109.7610948495
 20
139.9780078741
 10
108.6627833764
 20
139.9146311901
 10
107.5385345172
 20
139.9038190382
 10
106.4174657267
 20
139.9458514476
 10
105.3286120979
 20
140.039639801
 10
104.3001743677
 20
140.1827550291
 10
103.3587885331
 20
140.3714905228
 10
102.5288359928
 20
140.600958132
 10
101.8318120816
 20
140.8652147661
 10
101.2857693527
 20
141.1574163171
 10
100.9048500259
 20
141.4699949182
 10
100.6989197118
 20
141.794854948
 10
100.6733118971
 20
142.1235827023
 10
100.8286898111
 20
142.4476643049
 10
101.0009753886
 20
142.6307495058
  0
LWPOLYLINE
  5
E4
330
1F
100
AcDbEntity
  8
0
  6
Continuous
 62
     7
370
    25
100
AcDbPolyline
 90
       28
 70
   128
 43
0.0
 10
113.175362369
 20
143.3799304123
 10
113.5803657641
 20
143.1567141239
 10
113.9433638029
 20
142.8588415529
 10
114.1351293391
 20
142.5490647759
 10
114.1504315088
 20
142.2358336956
 10
113.9888529085
 20
141.9276924396
 10
113.6548009814
 20
141.633046298
 10
113.1573877932
 20
141.3599324494
 10
112.510181479
 20
141.1158007277
 10
111.7308361399
 20
140.9073104098
 10
110.8406102852
 20
140.7401485682
 10
109.8637869556
 20
140.6188749421
 10
108.827011345
 20
140.5467975599
 10
107.7585639895
 20
140.5258825046
 10
106.6875893477
 20
140.5567002845
 10
105.643300816
 20
140.638410271
 10
104.6541838633
 20
140.7687836284
 10
103.7472190216
 20
140.9442641116
 10
102.9471459275
 20
141.1600650703
 10
102.2757884895
 20
141.410300017
 10
101.7514595882
 20
141.6881431947
 10
101.3884615494
 20
141.9860157656
 10
101.1966960132
 20
142.2957925427
 10
101.1813938435
 20
142.6090236229
 10
101.3429724438
 20
142.917164879
 10
101.6770243709
 20
143.2118110206
 10
102.1744375591
 20
143.4849248692
 10
102.1758696573
 20
143.485571724
  0
LWPOLYLINE
  5
E5
330
1F
100
AcDbEntity
  8
0
  6
Continuous
 62
     7
370
    25
100
AcDbPolyline
 90
       22
 70
   128
 43
0.0
 10
100.6524562268
 20
141.0549418772
 10
100.6663200614
 20
140.9205314641
 10
100.8274887711
 20
140.5939080413
 10
101.1654121921
 20
140.2774840272
 10
101.6713382853
 20
139.9794546374
 10
102.3321638305
 20
139.7075386766
 10
103.1307737933
 20
139.4687786253
 10
104.0464845951
 20
139.2693582436
 10
105.0555798072
 20
139.1144424144
 10
106.1319243937
 20
139.0080433764
 10
107.247641595
 20
138.9529168089
 10
108.3738349218
 20
138.9504904609
 10
109.4813365585
 20
139.0008271735
 10
110.5414627944
 20
139.1026232525
 10
111.5267569168
 20
139.2532422327
 10
112.4117003256
 20
139.4487831618
 10
113.1733734513
 20
139.6841816323
 10
113.79204936
 20
139.9533409476
 10
114.2517046706
 20
140.2492900227
 10
114.5404345522
 20
140.5643639321
 10
114.6507610523
 20
140.890402427
 10
114.6518105871
 20
140.9204892986
  0
SPLINE
  5
E6
330
1F
100
AcDbEntity
  8
0
  6
Continuous
 62
     7
370
    25
100
AcDbSpline
210
0.0
220
0.0
230
1.0
 70
     8
 71
     3
 72
     9
 73
     5
 74
     0
 42
0.00000001
 43
0.00000001
 40
0.0
 40
0.0
 40
0.0
 40
0.0
 40
0.2862930771489476
 40
1.0
 40
1.0
 40
1.0
 40
1.0
 10
101.8839755973283
 20
162.7764840975371
 30
0.0
 10
101.8430439269569
 20
162.7617409225612
 30
0.0
 10
101.7000727074673
 20
162.7102441308024
 30
0.0
 10
101.5622604496426
 20
162.6572516089485
 30
0.0
 10
101.4639028871794
 20
162.6194304792421
 30
0.0
  0
SPLINE
  5
E7
330
1F
100
AcDbEntity
  8
0
  6
Continuous
 62
     7
370
    25
100
AcDbSpline
210
0.0
220
0.0
230
1.0
 70
     8
 71
     3
 72
     9
 73
     5
 74
     0
 42
0.00000001
 43
0.00000001
 40
0.0
 40
0.0
 40
0.0
 40
0.0
 40
0.7860632125065526
 40
1.0
 40
1.0
 40
1.0
 40
1.0
 10
101.4639028871794
 20
162.6194304792421
 30
0.0
 10
101.4537464714942
 20
162.5434155724417
 30
0.0
 10
101.4408258621543
 20
162.4467122722606
 30
0.0
 10
101.4294796552042
 20
162.3476604775575
 30
0.0
 10
101.4270522841391
 20
162.3264696548033
 30
0.0
  0
LINE
  5
E8
330
1F
100
AcDbEntity
  8
0
  6
Continuous
 62
     7
370
    25
100
AcDbLine
 10
102.6648081216
 20
163.6897203831
 30
0.0
 11
102.3654715779
 21
163.6126500651
 31
0.0
  0
SPLINE
  5
E9
330
1F
100
AcDbEntity
  8
0
  6
Continuous
 62
     7
370
    25
100
AcDbSpline
210
0.0
220
0.0
230
1.0
 70
     8
 71
     3
 72
     9
 73
     5
 74
     0
 42
0.00000001
 43
0.00000001
 40
0.0
 40
0.0
 40
0.0
 40
0.0
 40
0.7861923976234336
 40
1.0
 40
1.0
 40
1.0
 40
1.0
 10
102.3654715779229
 20
163.6126500651043
 30
0.0
 10
102.3484234347998
 20
163.5442254948491
 30
0.0
 10
102.326738993212
 20
163.4571926381818
 30
0.0
 10
102.3061453064207
 20
163.3674936815281
 30
0.0
 10
102.3017422196238
 20
163.3483153626703
 30
0.0
  0
LINE
  5
EA
330
1F
100
AcDbEntity
  8
0
  6
Continuous
 62
     7
370
    25
100
AcDbLine
 10
100.9636376326
 20
161.6188504684
 30
0.0
 11
100.7295598897
 21
161.4986044891
 31
0.0
  0
SPLINE
  5
EB
330
1F
100
AcDbEntity
  8
0
  6
Continuous
 62
     7
370
    25
100
AcDbSpline
210
0.0
220
0.0
230
1.0
 70
     8
 71
     3
 72
    10
 73
     6
 74
     0
 42
0.00000001
 43
0.00000001
 40
0.0
 40
0.0
 40
0.0
 40
0.0
 40
0.4797318113379627
 40
0.959465028068289
 40
1.0
 40
1.0
 40
1.0
 40
1.0
 10
100.7295598897225
 20
161.4986044890581
 30
0.0
 10
100.727866827409
 20
161.4161686681519
 30
0.0
 10
100.7244806978222
 20
161.2512967848409
 30
0.0
 10
100.7229467928056
 20
161.0783237086197
 30
0.0
 10
100.7236042682979
 20
160.9859983700787
 30
0.0
 10
100.7236554933223
 20
160.9788051472604
 30
0.0
  0
LINE
  5
EC
330
1F
100
AcDbEntity
  8
0
  6
Continuous
 62
     7
370
    25
100
AcDbLine
 10
103.7314388451
 20
164.4949371449
 30
0.0
 11
103.4068722535
 21
164.4480847721
 31
0.0
  0
SPLINE
  5
ED
330
1F
100
AcDbEntity
  8
0
  6
Continuous
 62
     7
370
    25
100
AcDbSpline
210
0.0
220
0.0
230
1.0
 70
     8
 71
     3
 72
     9
 73
     5
 74
     0
 42
0.00000001
 43
0.00000001
 40
0.0
 40
0.0
 40
0.0
 40
0.0
 40
0.5242987559102259
 40
1.0
 40
1.0
 40
1.0
 40
1.0
 10
103.4068722534952
 20
164.4480847721196
 30
0.0
 10
103.3844991538909
 20
164.3883020298373
 30
0.0
 10
103.3418267283852
 20
164.2742778373166
 30
0.0
 10
103.3000076508028
 20
164.1559067608895
 30
0.0
 10
103.2801142635701
 20
164.0995974925688
 30
0.0
  0
SPLINE
  5
EE
330
1F
100
AcDbEntity
  8
0
  6
Continuous
 62
     7
370
    25
100
AcDbSpline
210
0.0
220
0.0
230
1.0
 70
     8
 71
     3
 72
     9
 73
     5
 74
     0
 42
0.00000001
 43
0.00000001
 40
0.0
 40
0.0
 40
0.0
 40
0.0
 40
0.7858816461216048
 40
1.0
 40
1.0
 40
1.0
 40
1.0
 10
100.1847552259309
 20
160.2842278250961
 30
0.0
 10
100.1920876227278
 20
160.197661447704
 30
0.0
 10
100.2014177767441
 20
160.0875095211138
 30
0.0
 10
100.2131178016034
 20
159.9758596108197
 30
0.0
 10
100.2156229916666
 20
159.9519533158169
 30
0.0
  0
SPLINE
  5
EF
330
1F
100
AcDbEntity
  8
0
  6
Continuous
 62
     7
370
    25
100
AcDbSpline
210
0.0
220
0.0
230
1.0
 70
     8
 71
     3
 72
     9
 73
     5
 74
     0
 42
0.00000001
 43
0.00000001
 40
0.0
 40
0.0
 40
0.0
 40
0.0
 40
0.2222903880416562
 40
0.9999999999999999
 40
0.9999999999999999
 40
0.9999999999999999
 40
0.9999999999999999
 10
100.4661386080127
 20
160.4722528636258
 30
0.0
 10
100.4446084313848
 20
160.4582458867005
 30
0.0
 10
100.3477523467942
 20
160.3952338192478
 30
0.0
 10
100.256062950637
 20
160.3327905532583
 30
0.0
 10
100.1847552259309
 20
160.2842278250961
 30
0.0
  0
LINE
  5
F0
330
1F
100
AcDbEntity
  8
0
  6
Continuous
 62
     7
370
    25
100
AcDbLine
 10
104.9002511835
 20
165.1123996779
 30
0.0
 11
104.5564624813
 21
165.1003503395
 31
0.0
  0
SPLINE
  5
F1
330
1F
100
AcDbEntity
  8
0
  6
Continuous
 62
     7
370
    25
100
AcDbSpline
210
0.0
220
0.0
230
1.0
 70
     8
 71
     3
 72
     9
 73
     5
 74
     0
 42
0.00000001
 43
0.00000001
 40
0.0
 40
0.0
 40
0.0
 40
0.0
 40
0.786579387884628
 40
0.9999999999999999
 40
0.9999999999999999
 40
0.9999999999999999
 40
0.9999999999999999
 10
104.556462481349
 20
165.1003503394692
 30
0.0
 10
104.530376949615
 20
165.0505895543711
 30
0.0
 10
104.4972136959933
 20
164.9873273002814
 30
0.0
 10
104.4640754111035
 20
164.9210272095476
 30
0.0
 10
104.4570030180579
 20
164.9068774036
 30
0.0
  0
LINE
  5
F2
330
1F
100
AcDbEntity
  8
0
  6
Continuous
 62
     7
370
    25
100
AcDbLine
 10
106.1357315604
 20
165.5233465394
 30
0.0
 11
105.7793125441
 21
165.5496280079
 31
0.0
  0
SPLINE
  5
F3
330
1F
100
AcDbEntity
  8
0
  6
Continuous
 62
     7
370
    25
100
AcDbSpline
210
0.0
220
0.0
230
1.0
 70
     8
 71
     3
 72
     9
 73
     5
 74
     0
 42
0.00000001
 43
0.00000001
 40
0.0
 40
0.0
 40
0.0
 40
0.0
 40
0.7868860346215999
 40
1.0
 40
1.0
 40
1.0
 40
1.0
 10
105.7793125441289
 20
165.5496280079493
 30
0.0
 10
105.751355994834
 20
165.5103736146415
 30
0.0
 10
105.7158279157161
 20
165.4604878731482
 30
0.0
 10
105.6797752785412
 20
165.4075216173896
 30
0.0
 10
105.6720919580706
 20
165.3962337685936
 30
0.0
  0
SPLINE
  5
F4
330
1F
100
AcDbEntity
  8
0
  6
Continuous
 62
     7
370
    25
100
AcDbSpline
210
0.0
220
0.0
230
1.0
 70
     8
 71
     3
 72
     9
 73
     5
 74
     0
 42
0.00000001
 43
0.00000001
 40
0.0
 40
0.0
 40
0.0
 40
0.0
 40
0.7857827896934243
 40
1.0
 40
1.0
 40
1.0
 40
1.0
 10
99.72371335590617
 20
157.7241367137011
 30
0.0
 10
99.75165813168307
 20
157.6341712543275
 30
0.0
 10
99.78722110931943
 20
157.5196797427372
 30
0.0
 10
99.82564316806486
 20
157.4047386736897
 30
0.0
 10
99.83387383430355
 20
157.3801163185287
 30
0.0
  0
LINE
  5
F5
330
1F
100
AcDbEntity
  8
0
  6
Continuous
 62
     7
370
    25
100
AcDbLine
 10
99.8385630385
 20
157.8576796381
 30
0.0
 11
99.7237133559
 21
157.7241367137
 31
0.0
  0
LINE
  5
F6
330
1F
100
AcDbEntity
  8
0
  6
Continuous
 62
     7
370
    25
100
AcDbLine
 10
107.3839196896
 20
165.7183286132
 30
0.0
 11
107.0382667615
 21
165.7822667029
 31
0.0
  0
SPLINE
  5
F7
330
1F
100
AcDbEntity
  8
0
  6
Continuous
 62
     7
370
    25
100
AcDbSpline
210
0.0
220
0.0
230
1.0
 70
     8
 71
     3
 72
     9
 73
     5
 74
     0
 42
0.00000001
 43
0.00000001
 40
0.0
 40
0.0
 40
0.0
 40
0.0
 40
0.7873427605388228
 40
1.0
 40
1.0
 40
1.0
 40
1.0
 10
107.0382667614693
 20
165.7822667029488
 30
0.0
 10
107.0102984311171
 20
165.753883026466
 30
0.0
 10
106.9747759982531
 20
165.717833064613
 30
0.0
 10
106.9381909098229
 20
165.6787582968492
 30
0.0
 10
106.9304108259118
 20
165.6704487646039
 30
0.0
  0
LINE
  5
F8
330
1F
100
AcDbEntity
  8
0
  6
Continuous
 62
     7
370
    25
100
AcDbLine
 10
99.8214846736
 20
156.4562093392
 30
0.0
 11
99.9084908579
 21
156.2594380768
 31
0.0
  0
LINE
  5
F9
330
1F
100
AcDbEntity
  8
0
  6
Continuous
 62
     7
370
    25
100
AcDbLine
 10
99.8956644502
 20
156.5797076311
 30
0.0
 11
99.8214846736
 21
156.4562093392
 31
0.0
  0
LINE
  5
FA
330
1F
100
AcDbEntity
  8
0
  6
Continuous
 62
     7
370
    25
100
AcDbLine
 10
100.1363857309
 20
155.247941916
 30
0.0
 11
100.2833348071
 21
154.9952075742
 31
0.0
  0
LINE
  5
FB
330
1F
100
AcDbEntity
  8
0
  6
Continuous
 62
     7
370
    25
100
AcDbLine
 10
100.1690521786
 20
155.3470774622
 30
0.0
 11
100.1363857309
 21
155.247941916
 31
0.0
  0
LWPOLYLINE
  5
FC
330
1F
100
AcDbEntity
  8
0
  6
Continuous
 62
     7
370
    25
100
AcDbPolyline
 90
       56
 70
   128
 43
0.0
 10
88.3723301933
 20
213.6945483022
 10
87.7880287686
 20
214.0578552136
 10
87.112349659
 20
214.2653301079
 10
86.3541013751
 20
214.3142682327
 10
85.5231688429
 20
214.2040316045
 10
84.6303845387
 20
213.9360573266
 10
83.6873872712
 20
213.5138388533
 10
82.7064704519
 20
212.9428804482
 10
81.7004218317
 20
212.2306254273
 10
80.6823567929
 20
211.3863591239
 10
79.6655473702
 20
210.4210878406
 10
78.6632492294
 20
209.3473953647
 10
77.6885288597
 20
208.1792789196
 10
76.7540932316
 20
206.9319666895
 10
75.8721241427
 20
205.621719297
 10
75.0541194088
 20
204.2656178205
 10
74.3107429725
 20
202.8813411167
 10
73.6516858827
 20
201.4869353494
 10
73.0855399563
 20
200.1005787302
 10
72.6196857713
 20
198.7403445378
 10
72.2601964495
 20
197.4239655052
 10
72.0117584839
 20
196.1686026461
 10
71.8776106433
 20
194.9906215353
 10
71.85950175
 20
193.905378958
 10
71.9576678811
 20
192.9270227109
 10
72.170829291
 20
192.0683071639
 10
72.4962070946
 20
191.3404269874
 10
72.9295594949
 20
190.7528712125
 10
73.4652370803
 20
190.3132995275
 10
74.0962564745
 20
190.0274424214
 10
74.8143913746
 20
189.8990264788
 10
75.6102797939
 20
189.9297257979
 10
76.4735461098
 20
190.1191401661
 10
77.3929363256
 20
190.4648002774
 10
78.3564647838
 20
190.9621999237
 10
79.3515704174
 20
191.60485474
 10
80.3652805027
 20
192.3843867378
 10
81.3843797785
 20
193.2906335254
 10
82.3955827271
 20
194.3117807901
 10
83.3857067718
 20
195.4345163156
 10
84.3418441314
 20
196.6442035273
 10
85.2515300931
 20
197.9250723024
 10
86.1029055093
 20
199.2604245577
 10
86.8848713995
 20
200.6328519343
 10
87.5872336424
 20
202.0244627424
 10
88.200835872
 20
203.4171152071
 10
88.7176788448
 20
204.7926539737
 10
89.1310247224
 20
206.1331467907
 10
89.4354849091
 20
207.4211182842
 10
89.6270903006
 20
208.6397777761
 10
89.7033430279
 20
209.7732381763
 10
89.6632490198
 20
210.8067230949
 10
89.5073309631
 20
211.7267594757
 10
89.2376214882
 20
212.5213532373
 10
88.8576366706
 20
213.180145635
 10
88.3723301933
 20
213.6945483022
  0
LWPOLYLINE
  5
FD
330
1F
100
AcDbEntity
  8
0
  6
Continuous
 62
     7
370
    25
100
AcDbPolyline
 90
       20
 70
   128
 43
0.0
 10
84.2979164309
 20
214.6231872541
 10
84.2446324863
 20
214.5981173509
 10
83.2506067682
 20
214.0632738007
 10
82.2275998752
 20
213.3882229866
 10
81.1876056277
 20
212.580879262
 10
80.1428170074
 20
211.650707994
 10
79.1054832056
 20
210.6086145903
 10
78.0877660127
 20
209.4668166432
 10
77.1015972322
 20
208.2387006897
 10
76.1585387915
 20
206.9386652664
 10
75.2696471885
 20
205.5819521002
 10
74.4453438645
 20
204.1844674123
 10
73.6952930224
 20
202.762595433
 10
73.0282883225
 20
201.3330063114
 10
72.452149785
 20
199.9124606726
 10
71.9736321076
 20
198.5176131155
 10
71.5983454725
 20
197.1648169525
 10
71.3306897723
 20
195.8699324816
 10
71.1738030255
 20
194.6481410393
 10
71.1293074069
 20
193.5348233831
  0
LWPOLYLINE
  5
FE
330
1F
100
AcDbEntity
  8
0
  6
Continuous
 62
     7
370
    25
100
AcDbPolyline
 90
       25
 70
   128
 43
0.0
 10
75.1540295686
 20
188.9377980402
 10
75.4577433761
 20
188.9849135176
 10
76.3593210269
 20
189.2222482033
 10
77.3127115273
 20
189.6106139379
 10
78.3067372453
 20
190.1454574881
 10
79.3297441383
 20
190.8205083022
 10
80.3697383858
 20
191.6278520268
 10
81.4145270061
 20
192.5580232948
 10
82.451860808
 20
193.6001166985
 10
83.4695780009
 20
194.7419146456
 10
84.4557467814
 20
195.9700305991
 10
85.3988052221
 20
197.2700660224
 10
86.2876968251
 20
198.6267791886
 10
87.1120001491
 20
200.0242638765
 10
87.8620509912
 20
201.4461358558
 10
88.5290556911
 20
202.8757249775
 10
89.1051942285
 20
204.2962706162
 10
89.5837119059
 20
205.6911181733
 10
89.9589985411
 20
207.0439143363
 10
90.2266542412
 20
208.3387988072
 10
90.3835409881
 20
209.5605902495
 10
90.4278194279
 20
210.6949642756
 10
90.3589704365
 20
211.7286213872
 10
90.1778012054
 20
212.6494428997
 10
90.133037997
 20
212.8035529799
  0
LWPOLYLINE
  5
FF
330
1F
100
AcDbEntity
  8
0
  6
Continuous
 62
     7
370
    25
100
AcDbPolyline
 90
       11
 70
   128
 43
0.0
 10
76.3880299954
 20
188.8594729322
 10
75.5604603519
 20
188.6476081736
 10
74.7072791472
 20
188.5626950504
 10
73.9275234524
 20
188.6351545965
 10
73.2303351899
 20
188.86413729
 10
72.6238882548
 20
189.2469585183
 10
72.1152926829
 20
189.7791300525
 10
71.7105112922
 20
190.4544126678
 10
71.4142897745
 20
191.264889293
 10
71.2301010562
 20
192.2010578308
 10
71.2283516431
 20
192.2148299447
  0
ARC
  5
100
330
1F
100
AcDbEntity
  8
0
  6
Continuous
 62
     7
370
    25
100
AcDbCircle
 10
87.0448784507
 20
211.2535944232
 30
0.0
 40
4.148032522163805
100
AcDbArc
 50
56.7989189531
 51
113.4667808188
  0
LINE
  5
101
330
1F
100
AcDbEntity
  8
0
  6
Continuous
 62
     7
370
    25
100
AcDbLine
 10
92.9528372724
 20
212.4701687919
 30
0.0
 11
92.6415233247
 21
212.6930213099
 31
0.0
  0
LWPOLYLINE
  5
102
330
1F
100
AcDbEntity
  8
0
  6
Continuous
 62
     7
370
    25
100
AcDbPolyline
 90
       30
 70
   128
 43
0.0
 10
76.5717854767
 20
186.7697976389
 10
76.8669184642
 20
186.6098289285
 10
77.5641067266
 20
186.3808462349
 10
78.3438624215
 20
186.3083866888
 10
79.1970436262
 20
186.3932998121
 10
80.1136475711
 20
186.634590076
 10
81.0829279132
 20
187.0294285728
 10
82.0935207266
 20
187.5731861821
 10
83.1335777345
 20
188.2594878432
 10
84.1909052194
 20
189.0802872965
 10
85.2531069834
 20
190.0259614189
 10
86.3077296819
 20
191.0854230461
 10
87.3424088281
 20
192.2462509589
 10
88.3450137549
 20
193.4948355117
 10
89.3037898363
 20
194.816538192
 10
90.2074962993
 20
196.1958632443
 10
91.045538012
 20
197.6166393437
 10
91.8080897015
 20
199.0622091892
 10
92.4862111464
 20
200.5156247963
 10
93.0719519928
 20
201.9598461957
 10
93.5584449649
 20
203.3779412121
 10
93.9399863772
 20
204.7532839778
 10
94.2121030057
 20
206.0697498566
 10
94.3716045317
 20
207.3119044896
 10
94.4166209455
 20
208.4651847494
 10
94.346624471
 20
209.5160694795
 10
94.1624357527
 20
210.4522380173
 10
93.866214235
 20
211.2627146425
 10
93.4614328443
 20
211.9379972578
 10
92.9528372724
 20
212.4701687919
  0
LWPOLYLINE
  5
103
330
1F
100
AcDbEntity
  8
0
  6
Continuous
 62
     7
370
    25
100
AcDbPolyline
 90
       57
 70
   128
 43
0.0
 10
88.4694041499
 20
213.8427120543
 10
88.9530559259
 20
213.3323421171
 10
89.3339100812
 20
212.6807738612
 10
89.6071771539
 20
211.8962011353
 10
89.7694206519
 20
210.9884903969
 10
89.8186002691
 20
209.9690566349
 10
89.7540975434
 20
208.8507198206
 10
89.5767236338
 20
207.6475436881
 10
89.2887091203
 20
206.3746588756
 10
88.8936759525
 20
205.0480726479
 10
88.3965919016
 20
203.6844675968
 10
87.803708088
 20
202.3009918467
 10
87.1224803697
 20
200.9150434081
 10
86.3614755804
 20
199.5440513867
 10
85.530263797
 20
198.2052568026
 10
84.6392979899
 20
196.9154957745
 10
83.6997825711
 20
195.6909877957
 10
82.723532492
 20
194.5471317644
 10
81.722824664
 20
193.498312334
 10
80.7102435684
 20
192.5577190173
 10
79.6985230001
 20
191.7371803211
 10
78.7003859324
 20
191.0470149955
 10
77.7283845178
 20
190.4959022699
 10
76.7947422383
 20
190.0907727066
 10
75.9112001871
 20
189.836721045
 10
75.0888694183
 20
189.736942132
 10
74.3380912182
 20
189.7926907455
 10
73.6683070585
 20
190.0032658142
 10
73.0879398636
 20
190.3660192345
 10
72.6042880876
 20
190.8763891717
 10
72.2234339323
 20
191.5279574276
 10
71.9501668597
 20
192.3125301535
 10
71.7879233617
 20
193.2202408919
 10
71.7387437444
 20
194.2396746539
 10
71.8032464702
 20
195.3580114682
 10
71.9806203797
 20
196.5611876007
 10
72.2686348932
 20
197.8340724132
 10
72.6636680611
 20
199.1606586409
 10
73.1607521119
 20
200.524263692
 10
73.7536359255
 20
201.9077394421
 10
74.4348636439
 20
203.2936878807
 10
75.1958684331
 20
204.6646799021
 10
76.0270802165
 20
206.0034744862
 10
76.9180460236
 20
207.2932355143
 10
77.8575614425
 20
208.5177434931
 10
78.8338115215
 20
209.6615995244
 10
79.8345193496
 20
210.7104189548
 10
80.8471004452
 20
211.6510122715
 10
81.8588210134
 20
212.4715509677
 10
82.8569580812
 20
213.1617162934
 10
83.8289594957
 20
213.7128290189
 10
84.7626017753
 20
214.1179585822
 10
85.6461438264
 20
214.3720102439
 10
86.4684745953
 20
214.4717891568
 10
87.2192527953
 20
214.4160405433
 10
87.889036955
 20
214.2054654746
 10
88.4694041499
 20
213.8427120543
  0
LINE
  5
104
330
1F
100
AcDbEntity
  8
0
  6
Continuous
 62
     7
370
    25
100
AcDbLine
 10
122.8110999451
 20
193.9611106656
 30
0.0
 11
122.4997859974
 21
194.1839631835
 31
0.0
  0
LWPOLYLINE
  5
105
330
1F
100
AcDbEntity
  8
0
  6
Continuous
 62
     7
370
    25
100
AcDbPolyline
 90
       30
 70
   128
 43
0.0
 10
106.4300481494
 20
168.2607395126
 10
106.7251811369
 20
168.1007708022
 10
107.4223693993
 20
167.8717881086
 10
108.2021250942
 20
167.7993285625
 10
109.0553062989
 20
167.8842416858
 10
109.9719102438
 20
168.1255319497
 10
110.9411905859
 20
168.5203704465
 10
111.9517833992
 20
169.0641280558
 10
112.9918404071
 20
169.7504297169
 10
114.0491678921
 20
170.5712291702
 10
115.1113696561
 20
171.5169032926
 10
116.1659923546
 20
172.5763649197
 10
117.2006715008
 20
173.7371928326
 10
118.2032764276
 20
174.9857773854
 10
119.162052509
 20
176.3074800657
 10
120.065758972
 20
177.686805118
 10
120.9038006847
 20
179.1075812174
 10
121.6663523742
 20
180.5531510629
 10
122.3444738191
 20
182.00656667
 10
122.9302146655
 20
183.4507880694
 10
123.4167076376
 20
184.8688830857
 10
123.7982490499
 20
186.2442258515
 10
124.0703656784
 20
187.5606917303
 10
124.2298672044
 20
188.8028463633
 10
124.2748836182
 20
189.9561266231
 10
124.2048871437
 20
191.0070113532
 10
124.0206984254
 20
191.943179891
 10
123.7244769077
 20
192.7536565162
 10
123.319695517
 20
193.4289391315
 10
122.8110999451
 20
193.9611106656
  0
LINE
  5
106
330
1F
100
AcDbEntity
  8
0
  6
Continuous
 62
     7
370
    25
100
AcDbLine
 10
93.3356355118
 20
212.2328731749
 30
0.0
 11
92.8282769011
 21
212.5668794487
 31
0.0
  0
LWPOLYLINE
  5
107
330
1F
100
AcDbEntity
  8
0
  6
Continuous
 62
     7
370
    25
100
AcDbPolyline
 90
       30
 70
   128
 43
0.0
 10
76.7678301398
 20
186.6586438829
 10
77.2497167036
 20
186.3725333115
 10
77.946904966
 20
186.1435506179
 10
78.7266606609
 20
186.0710910718
 10
79.5798418656
 20
186.1560041951
 10
80.4964458105
 20
186.397294459
 10
81.4657261526
 20
186.7921329558
 10
82.4763189659
 20
187.3358905651
 10
83.5163759738
 20
188.0221922262
 10
84.5737034588
 20
188.8429916795
 10
85.6359052228
 20
189.7886658019
 10
86.6905279213
 20
190.8481274291
 10
87.7252070675
 20
192.0089553419
 10
88.7278119943
 20
193.2575398947
 10
89.6865880757
 20
194.579242575
 10
90.5902945387
 20
195.9585676273
 10
91.4283362514
 20
197.3793437267
 10
92.1908879409
 20
198.8249135722
 10
92.8690093858
 20
200.2783291793
 10
93.4547502322
 20
201.7225505787
 10
93.9412432043
 20
203.1406455951
 10
94.3227846166
 20
204.5159883608
 10
94.5949012451
 20
205.8324542396
 10
94.7544027711
 20
207.0746088726
 10
94.7994191849
 20
208.2278891324
 10
94.7294227104
 20
209.2787738625
 10
94.5452339921
 20
210.2149424003
 10
94.2490124744
 20
211.0254190255
 10
93.8442310837
 20
211.7007016408
 10
93.3356355118
 20
212.2328731749
  0
LWPOLYLINE
  5
108
330
1F
100
AcDbEntity
  8
0
  6
Continuous
 62
     7
370
    25
100
AcDbPolyline
 90
       27
 70
   128
 43
0.0
 10
78.4146267929
 20
186.3095091204
 10
78.8293293818
 20
186.2911406257
 10
79.6685240094
 20
186.3746617305
 10
80.5701016602
 20
186.6119964163
 10
81.5234921606
 20
187.0003621509
 10
82.5175178786
 20
187.535205701
 10
83.5405247717
 20
188.2102565152
 10
84.5805190192
 20
189.0176002398
 10
85.6253076395
 20
189.9477715078
 10
86.6626414413
 20
190.9898649115
 10
87.6803586342
 20
192.1316628586
 10
88.6665274147
 20
193.3597788121
 10
89.6095858554
 20
194.6598142353
 10
90.4984774584
 20
196.0165274016
 10
91.3227807824
 20
197.4140120895
 10
92.0728316245
 20
198.8358840687
 10
92.7398363244
 20
200.2654731904
 10
93.3159748619
 20
201.6860188292
 10
93.7944925393
 20
203.0808663862
 10
94.1697791744
 20
204.4336625493
 10
94.4374348746
 20
205.7285470202
 10
94.5943216214
 20
206.9503384625
 10
94.6386000612
 20
208.0847124886
 10
94.5697510699
 20
209.1183696001
 10
94.3885818388
 20
210.0391911127
 10
94.0972164115
 20
210.8363812358
 10
93.873470525
 20
211.2472565524
  0
LWPOLYLINE
  5
109
330
1F
100
AcDbEntity
  8
0
  6
Continuous
 62
     7
370
    25
100
AcDbPolyline
 90
       30
 70
   128
 43
0.0
 10
106.4300481494
 20
168.2607395126
 10
106.7251811369
 20
168.1007708022
 10
107.4223693993
 20
167.8717881086
 10
108.2021250942
 20
167.7993285625
 10
109.0553062989
 20
167.8842416858
 10
109.9719102438
 20
168.1255319497
 10
110.9411905859
 20
168.5203704465
 10
111.9517833992
 20
169.0641280558
 10
112.9918404071
 20
169.7504297169
 10
114.0491678921
 20
170.5712291702
 10
115.1113696561
 20
171.5169032926
 10
116.1659923546
 20
172.5763649197
 10
117.2006715008
 20
173.7371928326
 10
118.2032764276
 20
174.9857773854
 10
119.162052509
 20
176.3074800657
 10
120.065758972
 20
177.686805118
 10
120.9038006847
 20
179.1075812174
 10
121.6663523742
 20
180.5531510629
 10
122.3444738191
 20
182.00656667
 10
122.9302146655
 20
183.4507880694
 10
123.4167076376
 20
184.8688830857
 10
123.7982490499
 20
186.2442258515
 10
124.0703656784
 20
187.5606917303
 10
124.2298672044
 20
188.8028463633
 10
124.2748836182
 20
189.9561266231
 10
124.2048871437
 20
191.0070113532
 10
124.0206984254
 20
191.943179891
 10
123.7244769077
 20
192.7536565162
 10
123.319695517
 20
193.4289391315
 10
122.8110999451
 20
193.9611106656
  0
LINE
  5
10A
330
1F
100
AcDbEntity
  8
0
  6
Continuous
 62
     7
370
    25
100
AcDbLine
 10
118.4929345904
 20
161.6451532174
 30
0.0
 11
110.8369698025
 21
166.3910655575
 31
0.0
  0
ARC
  5
10B
330
1F
100
AcDbEntity
  8
0
  6
Continuous
 62
     7
370
    25
100
AcDbCircle
 10
110.4452911322
 20
169.7533617499
 30
0.0
 40
3.385032919550343
100
AcDbArc
 50
239.491759209
 51
276.6445189927
  0
ARC
  5
10C
330
1F
100
AcDbEntity
  8
0
  6
Continuous
 62
     7
370
    25
100
AcDbCircle
 10
120.413168804
 20
164.6278156345
 30
0.0
 40
4.29716614585181
100
AcDbArc
 50
243.3868632045
 51
292.9483671127
  0
ARC
  5
10D
330
1F
100
AcDbEntity
  8
0
  6
Continuous
 62
     7
370
    25
100
AcDbCircle
 10
131.950480552
 20
183.2634799811
 30
0.0
 40
4.321046853518516
100
AcDbArc
 50
3.5387542766
 51
52.8840383326
  0
LWPOLYLINE
  5
10E
330
1F
100
AcDbEntity
  8
0
  6
Continuous
 62
     7
370
    25
100
AcDbPolyline
 90
       20
 70
   128
 43
0.0
 10
136.3618640469
 20
182.3251720291
 10
136.3636081551
 20
182.2194902351
 10
136.3193297153
 20
181.085116209
 10
136.1624429684
 20
179.8633247668
 10
135.8947872683
 20
178.5684402959
 10
135.5195006332
 20
177.2156441328
 10
135.0409829557
 20
175.8207965758
 10
134.4648444183
 20
174.400250937
 10
133.7978397184
 20
172.9706618153
 10
133.0477888763
 20
171.548789836
 10
132.2234855523
 20
170.1513051482
 10
131.3345939493
 20
168.7945919819
 10
130.3915355086
 20
167.4945565587
 10
129.4053667281
 20
166.2664406052
 10
128.3876495352
 20
165.1246426581
 10
127.3503157334
 20
164.0825492543
 10
126.3055271131
 20
163.1523779864
 10
125.2655328655
 20
162.3450342618
 10
124.2425259725
 20
161.6699834476
 10
123.3467716104
 20
161.1823705929
  0
LINE
  5
10F
330
1F
100
AcDbEntity
  8
0
  6
Continuous
 62
     7
370
    25
100
AcDbLine
 10
106.4728684678
 20
166.078657561
 30
0.0
 11
104.7821959453
 21
167.4660065741
 31
0.0
  0
LINE
  5
110
330
1F
100
AcDbEntity
  8
0
  6
Continuous
 62
     7
370
    25
100
AcDbLine
 10
104.7821959453
 20
167.4660065741
 30
0.0
 11
105.628452766
 21
168.7576463724
 31
0.0
  0
LINE
  5
111
330
1F
100
AcDbEntity
  8
0
  6
Continuous
 62
     7
370
    25
100
AcDbLine
 10
110.8369698025
 20
166.3910655575
 30
0.0
 11
109.4471678946
 21
164.2698141691
 31
0.0
  0
LINE
  5
112
330
1F
100
AcDbEntity
  8
0
  6
Continuous
 62
     7
370
    25
100
AcDbLine
 10
106.6464714662
 20
166.3436274098
 30
0.0
 11
109.4471678946
 21
164.2698141691
 31
0.0
  0
LINE
  5
113
330
1F
100
AcDbEntity
  8
0
  6
Continuous
 62
     7
370
    25
100
AcDbLine
 10
106.4728684678
 20
166.078657561
 30
0.0
 11
106.6464714662
 21
166.3436274098
 31
0.0
  0
ARC
  5
114
330
1F
100
AcDbEntity
  8
0
  6
Continuous
 62
     7
370
    25
100
AcDbCircle
 10
110.4575735466
 20
157.351626908
 30
0.0
 40
6.991583122635876
100
AcDbArc
 50
18.1013349646
 51
98.309335862
  0
LINE
  5
115
330
1F
100
AcDbEntity
  8
0
  6
Continuous
 62
     7
370
    25
100
AcDbLine
 10
118.4929345904
 20
161.6451532174
 30
0.0
 11
117.1031326825
 21
159.523901829
 31
0.0
  0
LWPOLYLINE
  5
116
330
1F
100
AcDbEntity
  8
0
  6
Continuous
 62
     7
370
    25
100
AcDbPolyline
 90
        3
 70
   128
 43
0.0
 10
113.4231433347
 20
163.4303269411
 10
113.1811088482
 20
163.7663116315
 10
113.1560576592
 20
163.7987372939
  0
LINE
  5
117
330
1F
100
AcDbEntity
  8
0
  6
Continuous
 62
     7
370
    25
100
AcDbLine
 10
116.5208788898
 20
159.9550394605
 30
0.0
 11
117.1031326825
 21
159.523901829
 31
0.0
  0
ARC
  5
118
330
1F
100
AcDbEntity
  8
0
  6
Continuous
 62
     7
370
    25
100
AcDbCircle
 10
108.118880278
 20
157.4800291615
 30
0.0
 40
8.564628977523839
100
AcDbArc
 50
128.7493435956
 51
137.7785355994
  0
SPLINE
  5
119
330
1F
100
AcDbEntity
  8
0
  6
Continuous
 62
     7
370
    25
100
AcDbSpline
210
0.0
220
0.0
230
1.0
 70
     8
 71
     3
 72
     9
 73
     5
 74
     0
 42
0.00000001
 43
0.00000001
 40
0.0
 40
0.0
 40
0.0
 40
0.0
 40
0.3887165422953495
 40
1.0
 40
1.0
 40
1.0
 40
1.0
 10
102.6648081215825
 20
163.6897203830538
 30
0.0
 10
102.6754529354781
 20
163.7512090893769
 30
0.0
 10
102.7028374502528
 20
163.909393009104
 30
0.0
 10
102.7371684939017
 20
164.0646225619097
 30
0.0
 10
102.75815449297
 20
164.1595118196868
 30
0.0
  0
SPLINE
  5
11A
330
1F
100
AcDbEntity
  8
0
  6
Continuous
 62
     7
370
    25
100
AcDbSpline
210
0.0
220
0.0
230
1.0
 70
     8
 71
     3
 72
    10
 73
     6
 74
     0
 42
0.00000001
 43
0.00000001
 40
0.0
 40
0.0
 40
0.0
 40
0.0
 40
0.4922287432496958
 40
0.9844457036209076
 40
1.0
 40
1.0
 40
1.0
 40
1.0
 10
101.7763194397101
 20
163.2354432678829
 30
0.0
 10
101.8620956598032
 20
163.2554581101479
 30
0.0
 10
102.0336460466944
 20
163.2954873155664
 30
0.0
 10
102.2087569491442
 20
163.3318668291838
 30
0.0
 10
102.2989785088757
 20
163.3478264789089
 30
0.0
 10
102.3017422196238
 20
163.3483153626703
 30
0.0
  0
ARC
  5
11B
330
1F
100
AcDbEntity
  8
0
  6
Continuous
 62
     7
370
    25
100
AcDbCircle
 10
108.152925121
 20
157.4470416843
 30
0.0
 40
8.612008645401062
100
AcDbArc
 50
137.7682174244
 51
146.7642306731
  0
SPLINE
  5
11C
330
1F
100
AcDbEntity
  8
0
  6
Continuous
 62
     7
370
    25
100
AcDbSpline
210
0.0
220
0.0
230
1.0
 70
     8
 71
     3
 72
     9
 73
     5
 74
     0
 42
0.00000001
 43
0.00000001
 40
0.0
 40
0.0
 40
0.0
 40
0.0
 40
0.3887209501962895
 40
1.0
 40
1.0
 40
1.0
 40
1.0
 10
101.7327679035878
 20
162.7212156132419
 30
0.0
 10
101.7368713522154
 20
162.7882129441904
 30
0.0
 10
101.7474276359082
 20
162.9605662246468
 30
0.0
 10
101.7653586105618
 20
163.1311617793209
 30
0.0
 10
101.7763194397101
 20
163.2354432678829
 30
0.0
  0
SPLINE
  5
11D
330
1F
100
AcDbEntity
  8
0
  6
Continuous
 62
     7
370
    25
100
AcDbSpline
210
0.0
220
0.0
230
1.0
 70
     8
 71
     3
 72
    10
 73
     6
 74
     0
 42
0.00000001
 43
0.00000001
 40
0.0
 40
0.0
 40
0.0
 40
0.0
 40
0.4921928644806406
 40
0.9843739469417967
 40
1.0
 40
1.0
 40
1.0
 40
1.0
 10
100.949648949294
 20
162.167158769883
 30
0.0
 10
101.0273062088845
 20
162.194697039759
 30
0.0
 10
101.1826188691208
 20
162.249772920305
 30
0.0
 10
101.3419033711639
 20
162.3016213112027
 30
0.0
 10
101.4245103333017
 20
162.3257278571031
 30
0.0
 10
101.4270522841391
 20
162.3264696548033
 30
0.0
  0
LINE
  5
11E
330
1F
100
AcDbEntity
  8
0
  6
Continuous
 62
     7
370
    25
100
AcDbLine
 10
101.7763194397
 20
163.2354432679
 30
0.0
 11
102.0375330332
 21
162.9926612509
 31
0.0
  0
LINE
  5
11F
330
1F
100
AcDbEntity
  8
0
  6
Continuous
 62
     7
370
    25
100
AcDbLine
 10
100.9496489493
 20
162.1671587699
 30
0.0
 11
101.2507646124
 21
161.9804979661
 31
0.0
  0
LINE
  5
120
330
1F
100
AcDbEntity
  8
0
  6
Continuous
 62
     7
370
    25
100
AcDbLine
 10
102.758154493
 20
164.1595118197
 30
0.0
 11
102.9617260752
 21
163.8796629418
 31
0.0
  0
SPLINE
  5
121
330
1F
100
AcDbEntity
  8
0
  6
Continuous
 62
     7
370
    25
100
AcDbSpline
210
0.0
220
0.0
230
1.0
 70
     8
 71
     3
 72
     9
 73
     5
 74
     0
 42
0.00000001
 43
0.00000001
 40
0.0
 40
0.0
 40
0.0
 40
0.0
 40
0.3887243955686672
 40
1.0
 40
1.0
 40
1.0
 40
1.0
 10
100.9636376326036
 20
161.6188504684036
 30
0.0
 10
100.9602384348594
 20
161.690006937125
 30
0.0
 10
100.9514939418899
 20
161.8730581413522
 30
0.0
 10
100.9503488909806
 20
162.0555847232243
 30
0.0
 10
100.949648949294
 20
162.167158769883
 30
0.0
  0
ARC
  5
122
330
1F
100
AcDbEntity
  8
0
  6
Continuous
 62
     7
370
    25
100
AcDbCircle
 10
108.0677571776
 20
157.5010361523
 30
0.0
 40
8.511178827404489
100
AcDbArc
 50
146.7540175676
 51
155.8210087603
  0
SPLINE
  5
123
330
1F
100
AcDbEntity
  8
0
  6
Continuous
 62
     7
370
    25
100
AcDbSpline
210
0.0
220
0.0
230
1.0
 70
     8
 71
     3
 72
    10
 73
     6
 74
     0
 42
0.00000001
 43
0.00000001
 40
0.0
 40
0.0
 40
0.0
 40
0.0
 40
0.4921473024135832
 40
0.9842828238982226
 40
1.0
 40
1.0
 40
1.0
 40
1.0
 10
100.3032609862579
 20
160.987117609581
 30
0.0
 10
100.3714888536348
 20
161.0204816369458
 30
0.0
 10
100.5079429551629
 20
161.0872088930135
 30
0.0
 10
100.648710045823
 20
161.1511911675378
 30
0.0
 10
100.722287693846
 20
161.1818171153624
 30
0.0
 10
100.7245647967473
 20
161.1827649362907
 30
0.0
  0
ARC
  5
124
330
1F
100
AcDbEntity
  8
0
  6
Continuous
 62
     7
370
    25
100
AcDbCircle
 10
108.0016436262
 20
157.628403005
 30
0.0
 40
8.37553345402577
100
AcDbArc
 50
119.5944570279
 51
128.7591770418
  0
SPLINE
  5
125
330
1F
100
AcDbEntity
  8
0
  6
Continuous
 62
     7
370
    25
100
AcDbSpline
210
0.0
220
0.0
230
1.0
 70
     8
 71
     3
 72
     9
 73
     5
 74
     0
 42
0.00000001
 43
0.00000001
 40
0.0
 40
0.0
 40
0.0
 40
0.0
 40
0.3887108849944624
 40
1.0
 40
1.0
 40
1.0
 40
1.0
 10
103.7314388450524
 20
164.4949371448577
 30
0.0
 10
103.7474649437281
 20
164.549735150259
 30
0.0
 10
103.7886937831929
 20
164.6907088340857
 30
0.0
 10
103.83625058967
 20
164.8276043383191
 30
0.0
 10
103.8653215478139
 20
164.9112870699502
 30
0.0
  0
SPLINE
  5
126
330
1F
100
AcDbEntity
  8
0
  6
Continuous
 62
     7
370
    25
100
AcDbSpline
210
0.0
220
0.0
230
1.0
 70
     8
 71
     3
 72
    10
 73
     6
 74
     0
 42
0.00000001
 43
0.00000001
 40
0.0
 40
0.0
 40
0.0
 40
0.0
 40
0.4922566330966573
 40
0.984501482647043
 40
1.0
 40
1.0
 40
1.0
 40
1.0
 10
102.75815449297
 20
164.1595118196868
 30
0.0
 10
102.8504925550887
 20
164.170534162813
 30
0.0
 10
103.0351664689551
 20
164.1925785852145
 30
0.0
 10
103.2229323945986
 20
164.2106238252985
 30
0.0
 10
103.3191229630447
 20
164.2170561930616
 30
0.0
 10
103.3220591140442
 20
164.2172525366672
 30
0.0
  0
LINE
  5
127
330
1F
100
AcDbEntity
  8
0
  6
Continuous
 62
     7
370
    25
100
AcDbLine
 10
100.3032609863
 20
160.9871176096
 30
0.0
 11
100.6201199065
 21
160.8668204464
 31
0.0
  0
SPLINE
  5
128
330
1F
100
AcDbEntity
  8
0
  6
Continuous
 62
     7
370
    25
100
AcDbSpline
210
0.0
220
0.0
230
1.0
 70
     8
 71
     3
 72
     9
 73
     5
 74
     0
 42
0.00000001
 43
0.00000001
 40
0.0
 40
0.0
 40
0.0
 40
0.0
 40
0.3887270170898057
 40
0.9999999999999999
 40
0.9999999999999999
 40
0.9999999999999999
 40
0.9999999999999999
 10
100.3807868030174
 20
160.4161198716165
 30
0.0
 10
100.3691516887987
 20
160.4899595804526
 30
0.0
 10
100.3392203649975
 20
160.6799121836672
 30
0.0
 10
100.3169029928818
 20
160.870572257517
 30
0.0
 10
100.3032609862579
 20
160.987117609581
 30
0.0
  0
ARC
  5
129
330
1F
100
AcDbEntity
  8
0
  6
Continuous
 62
     7
370
    25
100
AcDbCircle
 10
107.85258174
 20
157.596142229
 30
0.0
 40
8.275926405838138
100
AcDbArc
 50
155.8115174735
 51
165.0496992012
  0
SPLINE
  5
12A
330
1F
100
AcDbEntity
  8
0
  6
Continuous
 62
     7
370
    25
100
AcDbSpline
210
0.0
220
0.0
230
1.0
 70
     8
 71
     3
 72
    10
 73
     6
 74
     0
 42
0.00000001
 43
0.00000001
 40
0.0
 40
0.0
 40
0.0
 40
0.0
 40
0.4920888676392259
 40
0.9841659557484626
 40
1.0
 40
1.0
 40
1.0
 40
1.0
 10
99.85679572177102
 20
159.731174740504
 30
0.0
 10
99.9145702677519
 20
159.7684898386939
 30
0.0
 10
100.0301179767176
 20
159.8431191418321
 30
0.0
 10
100.1502387849802
 20
159.9155320272789
 30
0.0
 10
100.2136462738499
 20
159.9508522148996
 30
0.0
 10
100.2156229916666
 20
159.9519533158169
 30
0.0
  0
LINE
  5
12B
330
1F
100
AcDbEntity
  8
0
  6
Continuous
 62
     7
370
    25
100
AcDbLine
 10
103.8653215478
 20
164.91128707
 30
0.0
 11
104.0023083421
 21
164.6197544532
 31
0.0
  0
ARC
  5
12C
330
1F
100
AcDbEntity
  8
0
  6
Continuous
 62
     7
370
    25
100
AcDbCircle
 10
107.8519933189
 20
157.8943591571
 30
0.0
 40
8.07036734881096
100
AcDbArc
 50
110.2085493414
 51
119.6030983717
  0
SPLINE
  5
12D
330
1F
100
AcDbEntity
  8
0
  6
Continuous
 62
     7
370
    25
100
AcDbSpline
210
0.0
220
0.0
230
1.0
 70
     8
 71
     3
 72
     9
 73
     5
 74
     0
 42
0.00000001
 43
0.00000001
 40
0.0
 40
0.0
 40
0.0
 40
0.0
 40
0.3887034647715247
 40
1.0
 40
1.0
 40
1.0
 40
1.0
 10
104.90025118351
 20
165.1123996779471
 30
0.0
 10
104.9203349302888
 20
165.1595282366419
 30
0.0
 10
104.9720034863965
 20
165.2807737694609
 30
0.0
 10
105.0292098448293
 20
165.3969242945547
 30
0.0
 10
105.0641798935323
 20
165.4679267081095
 30
0.0
  0
SPLINE
  5
12E
330
1F
100
AcDbEntity
  8
0
  6
Continuous
 62
     7
370
    25
100
AcDbSpline
210
0.0
220
0.0
230
1.0
 70
     8
 71
     3
 72
    10
 73
     6
 74
     0
 42
0.00000001
 43
0.00000001
 40
0.0
 40
0.0
 40
0.0
 40
0.0
 40
0.4922770615232012
 40
0.9845423390110183
 40
1.0
 40
1.0
 40
1.0
 40
1.0
 10
103.8653215478139
 20
164.9112870699502
 30
0.0
 10
103.9624649585801
 20
164.9121210777379
 30
0.0
 10
104.1567494547117
 20
164.9137890733489
 30
0.0
 10
104.3536151341396
 20
164.9111912049425
 30
0.0
 10
104.4539483656843
 20
164.9070048572533
 30
0.0
 10
104.4570030180579
 20
164.9068774036
 30
0.0
  0
LINE
  5
12F
330
1F
100
AcDbEntity
  8
0
  6
Continuous
 62
     7
370
    25
100
AcDbLine
 10
99.8567957218
 20
159.7311747405
 30
0.0
 11
100.1619623342
 21
159.677227308
 31
0.0
  0
LINE
  5
130
330
1F
100
AcDbEntity
  8
0
  6
Continuous
 62
     7
370
    25
100
AcDbLine
 10
105.0641798935
 20
165.4679267081
 30
0.0
 11
105.1357879783
 21
165.1931682924
 31
0.0
  0
SPLINE
  5
131
330
1F
100
AcDbEntity
  8
0
  6
Continuous
 62
     7
370
    25
100
AcDbSpline
210
0.0
220
0.0
230
1.0
 70
     8
 71
     3
 72
     9
 73
     5
 74
     0
 42
0.00000001
 43
0.00000001
 40
0.0
 40
0.0
 40
0.0
 40
0.0
 40
0.388728823922582
 40
0.9999999999999999
 40
0.9999999999999999
 40
0.9999999999999999
 40
0.9999999999999999
 10
100.0019248588934
 20
159.1495683373164
 30
0.0
 10
99.98157086375095
 20
159.2245338095011
 30
0.0
 10
99.92921046778896
 20
159.4173815418307
 30
0.0
 10
99.8842678491329
 20
159.6121303856828
 30
0.0
 10
99.85679572177102
 20
159.731174740504
 30
0.0
  0
ARC
  5
132
330
1F
100
AcDbEntity
  8
0
  6
Continuous
 62
     7
370
    25
100
AcDbCircle
 10
107.5257441908
 20
157.6822687328
 30
0.0
 40
7.937933386570523
100
AcDbArc
 50
165.041710434
 51
174.5405669133
  0
SPLINE
  5
133
330
1F
100
AcDbEntity
  8
0
  6
Continuous
 62
     7
370
    25
100
AcDbSpline
210
0.0
220
0.0
230
1.0
 70
     8
 71
     3
 72
    10
 73
     6
 74
     0
 42
0.00000001
 43
0.00000001
 40
0.0
 40
0.0
 40
0.0
 40
0.0
 40
0.4920119477074407
 40
0.9840121177260741
 40
1.0
 40
1.0
 40
1.0
 40
1.0
 10
99.62381877697156
 20
158.4374913511893
 30
0.0
 10
99.67043368441539
 20
158.4767627767943
 30
0.0
 10
99.76366238344423
 20
158.5553046879324
 30
0.0
 10
99.86163477208771
 20
158.6321892202589
 30
0.0
 10
99.91403971120961
 20
158.6702363475326
 30
0.0
 10
99.91568904920777
 20
158.6714338028447
 30
0.0
  0
LWPOLYLINE
  5
134
330
1F
100
AcDbEntity
  8
0
  6
Continuous
 62
     7
370
    25
100
AcDbPolyline
 90
       18
 70
   128
 43
0.0
 10
102.2713309563
 20
151.9581273005
 10
102.0595727544
 20
152.1086137993
 10
101.2524582656
 20
152.8179364418
 10
100.5709246992
 20
153.6537450104
 10
100.0301725969
 20
154.5973981003
 10
99.6422625896
 20
155.6278490032
 10
99.4158464043
 20
156.7221151211
 10
99.3559739004
 20
157.8557905575
 10
99.4639804404
 20
159.0035904523
 10
99.7374571073
 20
160.1399149216
 10
100.1703044311
 20
161.2394200229
 10
100.7528684283
 20
162.2775830122
 10
101.4721559189
 20
163.2312492855
 10
102.3121243187
 20
164.079148806
 10
103.2540394446
 20
164.8023704994
 10
104.2768933508
 20
165.3847840352
 10
105.3578728786
 20
165.8133995892
 10
106.4728684678
 20
166.078657561
  0
ARC
  5
135
330
1F
100
AcDbEntity
  8
0
  6
Continuous
 62
     7
370
    25
100
AcDbCircle
 10
107.6544284751
 20
158.5996445161
 30
0.0
 40
7.335582371385708
100
AcDbArc
 50
93.2055480426
 51
100.4946137607
  0
ARC
  5
136
330
1F
100
AcDbEntity
  8
0
  6
Continuous
 62
     7
370
    25
100
AcDbCircle
 10
107.7212703329
 20
158.2520219717
 30
0.0
 40
7.689565057159978
100
AcDbArc
 50
100.5125462285
 51
110.2150656084
  0
ARC
  5
137
330
1F
100
AcDbEntity
  8
0
  6
Continuous
 62
     7
370
    25
100
AcDbCircle
 10
107.1310088078
 20
157.7192732177
 30
0.0
 40
7.54146799009796
100
AcDbArc
 50
174.5351052838
 51
184.3643684703
  0
ARC
  5
138
330
1F
100
AcDbEntity
  8
0
  6
Continuous
 62
     7
370
    25
100
AcDbCircle
 10
106.7271633539
 20
157.6882366185
 30
0.0
 40
7.136431729363048
100
AcDbArc
 50
184.3626472685
 51
194.560792452
  0
ARC
  5
139
330
1F
100
AcDbEntity
  8
0
  6
Continuous
 62
     7
370
    25
100
AcDbCircle
 10
106.3736944458
 20
157.5968061728
 30
0.0
 40
6.77132948264412
100
AcDbArc
 50
194.5639296512
 51
205.1258472334
  0
ARC
  5
13A
330
1F
100
AcDbEntity
  8
0
  6
Continuous
 62
     7
370
    25
100
AcDbCircle
 10
106.1692035839
 20
157.5050928374
 30
0.0
 40
6.547246981771563
100
AcDbArc
 50
205.1590425232
 51
210.5540214043
  0
ARC
  5
13B
330
1F
100
AcDbEntity
  8
0
  6
Continuous
 62
     7
370
    25
100
AcDbCircle
 10
104.1776582668
 20
159.222922759
 30
0.0
 40
6.851474991597712
100
AcDbArc
 50
179.8090702907
 51
230.0630831301
  0
SPLINE
  5
13C
330
1F
100
AcDbEntity
  8
0
  6
Continuous
 62
     7
370
    25
100
AcDbSpline
210
0.0
220
0.0
230
1.0
 70
     8
 71
     3
 72
     9
 73
     5
 74
     0
 42
0.00000001
 43
0.00000001
 40
0.0
 40
0.0
 40
0.0
 40
0.0
 40
0.3886933535586709
 40
1.0
 40
1.0
 40
1.0
 40
1.0
 10
106.1357315604452
 20
165.523346539382
 30
0.0
 10
106.1584259633732
 20
165.5620599868172
 30
0.0
 10
106.2168123564521
 20
165.6616589305108
 30
0.0
 10
106.279798796505
 20
165.7552839337067
 30
0.0
 10
106.318302825945
 20
165.8125175204334
 30
0.0
  0
SPLINE
  5
13D
330
1F
100
AcDbEntity
  8
0
  6
Continuous
 62
     7
370
    25
100
AcDbSpline
210
0.0
220
0.0
230
1.0
 70
     8
 71
     3
 72
    10
 73
     6
 74
     0
 42
0.00000001
 43
0.00000001
 40
0.0
 40
0.0
 40
0.0
 40
0.0
 40
0.4922892481972762
 40
0.9845667120671224
 40
1.0
 40
1.0
 40
1.0
 40
1.0
 10
105.0641798935323
 20
165.4679267081095
 30
0.0
 10
105.16422615506
 20
165.4576861148457
 30
0.0
 10
105.3643162832269
 20
165.4372051734556
 30
0.0
 10
105.5664508665687
 20
165.4122818308104
 30
0.0
 10
105.6689754370766
 20
165.3967072029562
 30
0.0
 10
105.6720919580706
 20
165.3962337685936
 30
0.0
  0
LINE
  5
13E
330
1F
100
AcDbEntity
  8
0
  6
Continuous
 62
     7
370
    25
100
AcDbLine
 10
99.623818777
 20
158.4374913512
 30
0.0
 11
99.8901478076
 21
158.4393839388
 31
0.0
  0
LINE
  5
13F
330
1F
100
AcDbEntity
  8
0
  6
Continuous
 62
     7
370
    25
100
AcDbLine
 10
106.3183028259
 20
165.8125175204
 30
0.0
 11
106.3360482667
 21
165.5823893978
 31
0.0
  0
SPLINE
  5
140
330
1F
100
AcDbEntity
  8
0
  6
Continuous
 62
     7
370
    25
100
AcDbSpline
210
0.0
220
0.0
230
1.0
 70
     8
 71
     3
 72
     9
 73
     5
 74
     0
 42
0.00000001
 43
0.00000001
 40
0.0
 40
0.0
 40
0.0
 40
0.0
 40
0.3887296542173829
 40
1.0
 40
1.0
 40
1.0
 40
1.0
 10
99.83856303846605
 20
157.8576796380555
 30
0.0
 10
99.80927221394636
 20
157.9321791106117
 30
0.0
 10
99.73392209799319
 20
158.123827655424
 30
0.0
 10
99.665588859372
 20
158.3184962264594
 30
0.0
 10
99.62381877697156
 20
158.4374913511893
 30
0.0
  0
SPLINE
  5
141
330
1F
100
AcDbEntity
  8
0
  6
Continuous
 62
     7
370
    25
100
AcDbSpline
210
0.0
220
0.0
230
1.0
 70
     8
 71
     3
 72
    10
 73
     6
 74
     0
 42
0.00000001
 43
0.00000001
 40
0.0
 40
0.0
 40
0.0
 40
0.0
 40
0.4919063544291746
 40
0.9838009336970307
 40
1.0
 40
1.0
 40
1.0
 40
1.0
 10
99.61140903843607
 20
157.1453753567867
 30
0.0
 10
99.64649705926847
 20
157.1845489157154
 30
0.0
 10
99.71667226100284
 20
157.2628950958436
 30
0.0
 10
99.79166622507272
 20
157.3401570951504
 30
0.0
 10
99.83256974625323
 20
157.378881698832
 30
0.0
 10
99.83387383430353
 20
157.3801163185287
 30
0.0
  0
LINE
  5
142
330
1F
100
AcDbEntity
  8
0
  6
Continuous
 62
     7
370
    25
100
AcDbLine
 10
99.6114090384
 20
157.1453753568
 30
0.0
 11
99.8156497634
 21
157.1831164401
 31
0.0
  0
SPLINE
  5
143
330
1F
100
AcDbEntity
  8
0
  6
Continuous
 62
     7
370
    25
100
AcDbSpline
210
0.0
220
0.0
230
1.0
 70
     8
 71
     3
 72
    10
 73
     6
 74
     0
 42
0.00000001
 43
0.00000001
 40
0.0
 40
0.0
 40
0.0
 40
0.0
 40
0.4922902015997333
 40
0.9845686188497065
 40
1.0
 40
1.0
 40
1.0
 40
1.0
 10
106.318302825945
 20
165.8125175204334
 30
0.0
 10
106.4192612435242
 20
165.790652560829
 30
0.0
 10
106.621175661959
 20
165.7469231650197
 30
0.0
 10
106.824589795747
 20
165.6986689941487
 30
0.0
 10
106.927289365178
 20
165.6712811921307
 30
0.0
 10
106.9304108259118
 20
165.6704487646039
 30
0.0
  0
SPLINE
  5
144
330
1F
100
AcDbEntity
  8
0
  6
Continuous
 62
     7
370
    25
100
AcDbSpline
210
0.0
220
0.0
230
1.0
 70
     8
 71
     3
 72
     9
 73
     5
 74
     0
 42
0.00000001
 43
0.00000001
 40
0.0
 40
0.0
 40
0.0
 40
0.0
 40
0.3887290045950685
 40
1.0
 40
1.0
 40
1.0
 40
1.0
 10
99.8956644501882
 20
156.5797076311256
 30
0.0
 10
99.85749057562262
 20
156.6521633444657
 30
0.0
 10
99.75928881008844
 20
156.8385546671703
 30
0.0
 10
99.6675104735615
 20
157.0289761980558
 30
0.0
 10
99.61140903843607
 20
157.1453753567867
 30
0.0
  0
SPLINE
  5
145
330
1F
100
AcDbEntity
  8
0
  6
Continuous
 62
     7
370
    25
100
AcDbSpline
210
0.0
220
0.0
230
1.0
 70
     8
 71
     3
 72
     9
 73
     5
 74
     0
 42
0.00000001
 43
0.00000001
 40
0.0
 40
0.0
 40
0.0
 40
0.0
 40
0.6400467842747642
 40
1.0
 40
1.0
 40
1.0
 40
1.0
 10
99.81994356979018
 20
155.8940870479439
 30
0.0
 10
99.84310792894055
 20
155.931155885176
 30
0.0
 10
99.87929959448671
 20
155.9890717096795
 30
0.0
 10
99.92067559419567
 20
156.0456085667403
 30
0.0
 10
99.93556901834476
 20
156.0659591902463
 30
0.0
  0
LINE
  5
146
330
1F
100
AcDbEntity
  8
0
  6
Continuous
 62
     7
370
    25
100
AcDbLine
 10
99.8199435698
 20
155.8940870479
 30
0.0
 11
99.9459769419
 21
155.9403919724
 31
0.0
  0
SPLINE
  5
147
330
1F
100
AcDbEntity
  8
0
  6
Continuous
 62
     7
370
    25
100
AcDbSpline
210
0.0
220
0.0
230
1.0
 70
     8
 71
     3
 72
     9
 73
     5
 74
     0
 42
0.00000001
 43
0.00000001
 40
0.0
 40
0.0
 40
0.0
 40
0.0
 40
0.3722962347105056
 40
1.0
 40
1.0
 40
1.0
 40
1.0
 10
100.1621105180104
 20
155.3684504510325
 30
0.0
 10
100.1185355499352
 20
155.4327172327318
 30
0.0
 10
100.0014917444583
 20
155.6053399339774
 30
0.0
 10
99.88995537123145
 20
155.7827353053736
 30
0.0
 10
99.81994356979018
 20
155.8940870479439
 30
0.0
  0
SPLINE
  5
148
330
1F
100
AcDbEntity
  8
0
  6
Continuous
 62
     7
370
    25
100
AcDbSpline
210
0.0
220
0.0
230
1.0
 70
     8
 71
     3
 72
     9
 73
     5
 74
     0
 42
0.00000001
 43
0.00000001
 40
0.0
 40
0.0
 40
0.0
 40
0.0
 40
0.564668555247667
 40
0.9999999999999999
 40
0.9999999999999999
 40
0.9999999999999999
 40
0.9999999999999999
 10
100.2430861548218
 20
154.7216461867446
 30
0.0
 10
100.255121663288
 20
154.7545077189386
 30
0.0
 10
100.2764359517396
 20
154.812703862302
 30
0.0
 10
100.3038275326445
 20
154.8703164270543
 30
0.0
 10
100.3157519491338
 20
154.8953969881038
 30
0.0
  0
LINE
  5
149
330
1F
100
AcDbEntity
  8
0
  6
Continuous
 62
     7
370
    25
100
AcDbLine
 10
100.2430861548
 20
154.7216461867
 30
0.0
 11
100.2844108244
 21
154.7450933756
 31
0.0
  0
LINE
  5
14A
330
1F
100
AcDbEntity
  8
0
  6
Continuous
 62
     8
370
    25
100
AcDbLine
 10
117.0111139952
 20
145.9801833713
 30
0.0
 11
113.1968180942
 21
145.6139247565
 31
0.0
  0
LINE
  5
14B
330
1F
100
AcDbEntity
  8
0
  6
Continuous
 62
     8
370
    25
100
AcDbLine
 10
102.1861565287
 20
144.5566523902
 30
0.0
 11
70.221499334
 21
141.4873228547
 31
0.0
  0
SPLINE
  5
14C
330
1F
100
AcDbEntity
  8
0
  6
Continuous
 62
     8
370
    25
100
AcDbSpline
210
0.0
220
0.0
230
1.0
 70
     8
 71
     3
 72
    12
 73
     8
 74
     0
 42
0.00000001
 43
0.00000001
 40
0.0
 40
0.0
 40
0.0
 40
0.0
 40
0.1976854888620587
 40
0.3845197826955398
 40
0.5604947108405496
 40
0.7256026361003215
 40
1.0
 40
1.0
 40
1.0
 40
1.0
 10
78.70654139043667
 20
117.3141230875561
 30
0.0
 10
78.70288673446115
 20
117.2380623121533
 30
0.0
 10
78.69577803098663
 20
117.0901158290913
 30
0.0
 10
78.66283496813699
 20
116.9056824761475
 30
0.0
 10
78.61872787076818
 20
116.765457901931
 30
0.0
 10
78.55440112049394
 20
116.6404205820968
 30
0.0
 10
78.49646118269172
 20
116.615969419992
 30
0.0
 10
78.46028740597143
 20
116.6007037688352
 30
0.0
  0
ARC
  5
14D
330
1F
100
AcDbEntity
  8
0
  6
Continuous
 62
     8
370
    25
100
AcDbCircle
 10
78.3297109526
 20
116.8449393379
 30
0.0
 40
0.2159186321780771
100
AcDbArc
 50
177.4251302105
 51
229.9816093462
  0
ARC
  5
14E
330
1F
100
AcDbEntity
  8
0
  6
Continuous
 62
     8
370
    25
100
AcDbCircle
 10
68.860915737
 20
124.6136376593
 30
0.0
 40
0.2149116603453584
100
AcDbArc
 50
177.2913165696
 51
230.0244495165
  0
LWPOLYLINE
  5
14F
330
1F
100
AcDbEntity
  8
0
  6
Continuous
 62
     8
370
    25
100
AcDbPolyline
 90
        8
 70
   128
 43
0.0
 10
127.0683189592
 20
137.4863378979
 10
127.2454121243
 20
137.5092982229
 10
127.4027053789
 20
137.5420392045
 10
127.5341540316
 20
137.5833026249
 10
127.6347065843
 20
137.6315027542
 10
127.7004988589
 20
137.6847872884
 10
127.729002495
 20
137.7411085326
 10
127.7301419169
 20
137.7547790352
  0
LWPOLYLINE
  5
150
330
1F
100
AcDbEntity
  8
0
  6
Continuous
 62
     8
370
    25
100
AcDbPolyline
 90
        3
 70
   128
 43
0.0
 10
68.3971291702
 20
125.5755307609
 10
68.39987992
 20
125.5643225046
 10
68.4118525538
 20
125.5504357674
  0
ARC
  5
151
330
1F
100
AcDbEntity
  8
0
  6
Continuous
 62
     8
370
    25
100
AcDbCircle
 10
111.0437193067
 20
155.0735717095
 30
0.0
 40
8.38867452708785
100
AcDbArc
 50
96.5479863034
 51
184.1795881563
  0
LWPOLYLINE
  5
152
330
1F
100
AcDbEntity
  8
0
  6
Continuous
 62
     8
370
    25
100
AcDbPolyline
 90
        7
 70
   128
 43
0.0
 10
88.9880322084
 20
214.634292842
 10
88.3915270263
 20
215.0108383125
 10
87.7057680797
 20
215.2360671914
 10
86.938795265
 20
215.3073388761
 10
86.0996006375
 20
215.2238177713
 10
85.1980229867
 20
214.9864830855
 10
84.2979164309
 20
214.6231872541
  0
LWPOLYLINE
  5
153
330
1F
100
AcDbEntity
  8
0
  6
Continuous
 62
     8
370
    25
100
AcDbPolyline
 90
       11
 70
   128
 43
0.0
 10
71.1293074069
 20
193.5348233831
 10
71.1295245857
 20
193.5137670132
 10
71.198373577
 20
192.4801099016
 10
71.3795428081
 20
191.5592883891
 10
71.6709082354
 20
190.7620982659
 10
72.0690538656
 20
190.0978858574
 10
72.5693118051
 20
189.5744384468
 10
73.1658169872
 20
189.1978929763
 10
73.8515759339
 20
188.9726640974
 10
74.6185487485
 20
188.9013924127
 10
75.1540295686
 20
188.9377980402
  0
ARC
  5
154
330
1F
100
AcDbEntity
  8
0
  6
Continuous
 62
     8
370
    25
100
AcDbCircle
 10
86.5214614121
 20
211.8181848325
 30
0.0
 40
3.743585956596576
100
AcDbArc
 50
15.2609174406
 51
48.785552388
  0
LWPOLYLINE
  5
155
330
1F
100
AcDbEntity
  8
0
  6
Continuous
 62
     8
370
    25
100
AcDbPolyline
 90
       26
 70
   128
 43
0.0
 10
89.3162539981
 20
214.7244771535
 10
89.8248495701
 20
214.1923056193
 10
90.2296309607
 20
213.517023004
 10
90.5258524784
 20
212.7065463788
 10
90.7100411967
 20
211.7703778411
 10
90.7800376713
 20
210.7194931109
 10
90.7350212574
 20
209.5662128511
 10
90.5755197315
 20
208.3240582181
 10
90.303403103
 20
207.0075923394
 10
89.9218616906
 20
205.6322495736
 10
89.4353687186
 20
204.2141545573
 10
88.8496278722
 20
202.7699331578
 10
88.1715064273
 20
201.3165175508
 10
87.4089547378
 20
199.8709477052
 10
86.5709130251
 20
198.4501716059
 10
85.6672065621
 20
197.0708465535
 10
84.7084304806
 20
195.7491438732
 10
83.7058255538
 20
194.5005593205
 10
82.6711464077
 20
193.3397314076
 10
81.6165237092
 20
192.2802697805
 10
80.5543219452
 20
191.334595658
 10
79.4969944602
 20
190.5137962047
 10
78.4569374523
 20
189.8274945436
 10
77.446344639
 20
189.2837369343
 10
76.4770642969
 20
188.8888984375
 10
76.3880299954
 20
188.8594729322
  0
LWPOLYLINE
  5
156
330
1F
100
AcDbEntity
  8
0
  6
Continuous
 62
     8
370
    25
100
AcDbPolyline
 90
       21
 70
   128
 43
0.0
 10
122.0886400903
 20
160.6707418604
 10
122.9993351268
 20
161.0455585108
 10
124.0099279401
 20
161.5893161202
 10
125.049984948
 20
162.2756177812
 10
126.107312433
 20
163.0964172346
 10
127.169514197
 20
164.042091357
 10
128.2241368955
 20
165.1015529841
 10
129.2588160417
 20
166.262380897
 10
130.2614209685
 20
167.5109654497
 10
131.2201970499
 20
168.83266813
 10
132.1239035129
 20
170.2119931824
 10
132.9619452256
 20
171.6327692817
 10
133.7244969151
 20
173.0783391273
 10
134.40261836
 20
174.5317547344
 10
134.9883592064
 20
175.9759761338
 10
135.4748521785
 20
177.3940711501
 10
135.8563935908
 20
178.7694139159
 10
136.1285102193
 20
180.0858797947
 10
136.2880117453
 20
181.3280344276
 10
136.3330281591
 20
182.4813146875
 10
136.2632883682
 20
183.5301907804
  0
ARC
  5
157
330
1F
100
AcDbEntity
  8
0
  6
Continuous
 62
     8
370
    25
100
AcDbCircle
 10
105.91866447
 20
159.2688593817
 30
0.0
 40
8.592474218344778
100
AcDbArc
 50
96.0730505006
 51
180.1540683696
  0
ENDSEC
  0
SECTION
  2
OBJECTS
  0
DICTIONARY
  5
C
330
0
100
AcDbDictionary
281
     1
  3
ACAD_GROUP
350
D
  3
ACAD_LAYOUT
350
1A
  3
ACAD_MLINESTYLE
350
17
  3
ACAD_PLOTSETTINGS
350
19
  3
ACAD_PLOTSTYLENAME
350
E
  3
ACAD_SCALELIST
350
47
  3
DWGPROPS
350
158
  0
DICTIONARY
  5
D
102
{ACAD_REACTORS
330
C
102
}
330
C
100
AcDbDictionary
281
     1
  0
DICTIONARY
  5
1A
102
{ACAD_REACTORS
330
C
102
}
330
C
100
AcDbDictionary
281
     1
  3
Layout1
350
1E
  3
Layout2
350
26
  3
Model
350
22
  0
DICTIONARY
  5
17
102
{ACAD_REACTORS
330
C
102
}
330
C
100
AcDbDictionary
281
     1
  3
Standard
350
18
  0
DICTIONARY
  5
19
102
{ACAD_REACTORS
330
C
102
}
330
C
100
AcDbDictionary
281
     1
  0
ACDBDICTIONARYWDFLT
  5
E
102
{ACAD_REACTORS
330
C
102
}
330
C
100
AcDbDictionary
281
     1
  3
Normal
350
F
100
AcDbDictionaryWithDefault
340
F
  0
DICTIONARY
  5
47
102
{ACAD_REACTORS
330
C
102
}
330
C
100
AcDbDictionary
281
     1
  3
A0
350
48
  3
A1
350
49
  3
A2
350
4A
  3
A3
350
4B
  3
A4
350
4C
  3
A5
350
4D
  3
A6
350
4E
  3
A7
350
4F
  3
A8
350
50
  3
A9
350
51
  3
B0
350
52
  3
B1
350
53
  3
B2
350
54
  3
B3
350
55
  3
B4
350
56
  3
B5
350
57
  3
B6
350
58
  3
B7
350
59
  3
B8
350
5A
  3
B9
350
5B
  3
C0
350
5C
  3
C1
350
5D
  3
C2
350
5E
  3
C3
350
5F
  3
C4
350
60
  3
C5
350
61
  3
C6
350
62
  3
C7
350
63
  3
C8
350
64
  3
C9
350
65
  3
D0
350
66
  3
D1
350
67
  3
D2
350
68
  0
XRECORD
  5
158
102
{ACAD_REACTORS
330
C
102
}
330
C
100
AcDbXrecord
280
     1
  1
DWGPROPS COOKIE
  2

  3

  4

  6

  7

  8
9128
  9

300
=
301
=
302
=
303
=
304
=
305
=
306
=
307
=
308
=
309
=
 40
0.0
 41
2460018.226161783
 42
2460018.226161956
  1

 90
        0
  0
LAYOUT
  5
1E
102
{ACAD_REACTORS
330
1A
102
}
330
1A
100
AcDbPlotSettings
  1

  2
none_device
  4

  6

 40
0.0
 41
0.0
 42
0.0
 43
0.0
 44
0.0
 45
0.0
 46
0.0
 47
0.0
 48
0.0
 49
0.0
140
0.0
141
0.0
142
1.0
143
1.0
 70
   688
 72
     1
 73
     0
 74
     5
  7

 75
    16
147
1.0
148
0.0
149
0.0
100
AcDbLayout
  1
Layout1
 70
     1
 71
     1
 10
0.0
 20
0.0
 11
420.0
 21
297.0
 12
0.0
 22
0.0
 32
0.0
 14
1.0000000000E+20
 24
1.0000000000E+20
 34
1.0000000000E+20
 15
-1.0000000000E+20
 25
-1.0000000000E+20
 35
-1.0000000000E+20
146
0.0
 13
0.0
 23
0.0
 33
0.0
 16
1.0
 26
0.0
 36
0.0
 17
0.0
 27
1.0
 37
0.0
 76
     0
330
1B
  0
LAYOUT
  5
26
102
{ACAD_REACTORS
330
1A
102
}
330
1A
100
AcDbPlotSettings
  1

  2
none_device
  4

  6

 40
0.0
 41
0.0
 42
0.0
 43
0.0
 44
0.0
 45
0.0
 46
0.0
 47
0.0
 48
0.0
 49
0.0
140
0.0
141
0.0
142
1.0
143
1.0
 70
   688
 72
     1
 73
     0
 74
     5
  7

 75
    16
147
1.0
148
0.0
149
0.0
100
AcDbLayout
  1
Layout2
 70
     1
 71
     2
 10
0.0
 20
0.0
 11
0.0
 21
0.0
 12
0.0
 22
0.0
 32
0.0
 14
0.0
 24
0.0
 34
0.0
 15
0.0
 25
0.0
 35
0.0
146
0.0
 13
0.0
 23
0.0
 33
0.0
 16
1.0
 26
0.0
 36
0.0
 17
0.0
 27
1.0
 37
0.0
 76
     0
330
23
  0
LAYOUT
  5
22
102
{ACAD_REACTORS
330
1A
102
}
330
1A
100
AcDbPlotSettings
  1

  2
none_device
  4
Letter_(8.50_x_11.00_Inches)
  6

 40
6.35
 41
6.35
 42
6.35000508
 43
6.35000508
 44
215.9
 45
279.4
 46
0.0
 47
0.0
 48
0.0
 49
0.0
140
0.0
141
0.0
142
1.0
143
1.0
 70
  1712
 72
     1
 73
     0
 74
     0
  7

 75
     0
147
1.0
148
0.0
149
0.0
100
AcDbLayout
  1
Model
 70
     1
 71
     0
 10
0.0
 20
0.0
 11
210.0
 21
297.0
 12
0.0
 22
0.0
 32
0.0
 14
0.0
 24
0.0
 34
0.0
 15
210.0
 25
297.0
 35
0.0
146
0.0
 13
0.0
 23
0.0
 33
0.0
 16
1.0
 26
0.0
 36
0.0
 17
0.0
 27
1.0
 37
0.0
 76
     0
330
1F
331
29
  0
MLINESTYLE
  5
18
102
{ACAD_REACTORS
330
17
102
}
330
17
100
AcDbMlineStyle
  2
Standard
 70
     0
  3

 62
   256
 51
90.0
 52
90.0
 71
     2
 49
0.5
 62
   256
  6
BYLAYER
 49
-0.5
 62
   256
  6
BYLAYER
  0
ACDBPLACEHOLDER
  5
F
102
{ACAD_REACTORS
330
E
102
}
330
E
  0
SCALE
  5
48
102
{ACAD_REACTORS
330
47
102
}
330
47
100
AcDbScale
 70
     0
300
1:1
140
1.0
141
1.0
290
     1
  0
SCALE
  5
49
102
{ACAD_REACTORS
330
47
102
}
330
47
100
AcDbScale
 70
     0
300
1:2
140
1.0
141
2.0
290
     0
  0
SCALE
  5
4A
102
{ACAD_REACTORS
330
47
102
}
330
47
100
AcDbScale
 70
     0
300
1:4
140
1.0
141
4.0
290
     0
  0
SCALE
  5
4B
102
{ACAD_REACTORS
330
47
102
}
330
47
100
AcDbScale
 70
     0
300
1:5
140
1.0
141
5.0
290
     0
  0
SCALE
  5
4C
102
{ACAD_REACTORS
330
47
102
}
330
47
100
AcDbScale
 70
     0
300
1:8
140
1.0
141
8.0
290
     0
  0
SCALE
  5
4D
102
{ACAD_REACTORS
330
47
102
}
330
47
100
AcDbScale
 70
     0
300
1:10
140
1.0
141
10.0
290
     0
  0
SCALE
  5
4E
102
{ACAD_REACTORS
330
47
102
}
330
47
100
AcDbScale
 70
     0
300
1:16
140
1.0
141
16.0
290
     0
  0
SCALE
  5
4F
102
{ACAD_REACTORS
330
47
102
}
330
47
100
AcDbScale
 70
     0
300
1:20
140
1.0
141
20.0
290
     0
  0
SCALE
  5
50
102
{ACAD_REACTORS
330
47
102
}
330
47
100
AcDbScale
 70
     0
300
1:30
140
1.0
141
30.0
290
     0
  0
SCALE
  5
51
102
{ACAD_REACTORS
330
47
102
}
330
47
100
AcDbScale
 70
     0
300
1:40
140
1.0
141
40.0
290
     0
  0
SCALE
  5
52
102
{ACAD_REACTORS
330
47
102
}
330
47
100
AcDbScale
 70
     0
300
1:50
140
1.0
141
50.0
290
     0
  0
SCALE
  5
53
102
{ACAD_REACTORS
330
47
102
}
330
47
100
AcDbScale
 70
     0
300
1:100
140
1.0
141
100.0
290
     0
  0
SCALE
  5
54
102
{ACAD_REACTORS
330
47
102
}
330
47
100
AcDbScale
 70
     0
300
2:1
140
2.0
141
1.0
290
     0
  0
SCALE
  5
55
102
{ACAD_REACTORS
330
47
102
}
330
47
100
AcDbScale
 70
     0
300
4:1
140
4.0
141
1.0
290
     0
  0
SCALE
  5
56
102
{ACAD_REACTORS
330
47
102
}
330
47
100
AcDbScale
 70
     0
300
8:1
140
8.0
141
1.0
290
     0
  0
SCALE
  5
57
102
{ACAD_REACTORS
330
47
102
}
330
47
100
AcDbScale
 70
     0
300
10:1
140
10.0
141
1.0
290
     0
  0
SCALE
  5
58
102
{ACAD_REACTORS
330
47
102
}
330
47
100
AcDbScale
 70
     0
300
100:1
140
100.0
141
1.0
290
     0
  0
SCALE
  5
59
102
{ACAD_REACTORS
330
47
102
}
330
47
100
AcDbScale
 70
     0
300
1/128" = 1'-0"
140
0.0078125
141
12.0
290
     0
  0
SCALE
  5
5A
102
{ACAD_REACTORS
330
47
102
}
330
47
100
AcDbScale
 70
     0
300
1/64" = 1'-0"
140
0.015625
141
12.0
290
     0
  0
SCALE
  5
5B
102
{ACAD_REACTORS
330
47
102
}
330
47
100
AcDbScale
 70
     0
300
1/32" = 1'-0"
140
0.03125
141
12.0
290
     0
  0
SCALE
  5
5C
102
{ACAD_REACTORS
330
47
102
}
330
47
100
AcDbScale
 70
     0
300
1/16" = 1'-0"
140
0.0625
141
12.0
290
     0
  0
SCALE
  5
5D
102
{ACAD_REACTORS
330
47
102
}
330
47
100
AcDbScale
 70
     0
300
3/32" = 1'-0"
140
0.09375
141
12.0
290
     0
  0
SCALE
  5
5E
102
{ACAD_REACTORS
330
47
102
}
330
47
100
AcDbScale
 70
     0
300
1/8" = 1'-0"
140
0.125
141
12.0
290
     0
  0
SCALE
  5
5F
102
{ACAD_REACTORS
330
47
102
}
330
47
100
AcDbScale
 70
     0
300
3/16" = 1'-0"
140
0.1875
141
12.0
290
     0
  0
SCALE
  5
60
102
{ACAD_REACTORS
330
47
102
}
330
47
100
AcDbScale
 70
     0
300
1/4" = 1'-0"
140
0.25
141
12.0
290
     0
  0
SCALE
  5
61
102
{ACAD_REACTORS
330
47
102
}
330
47
100
AcDbScale
 70
     0
300
3/8" = 1'-0"
140
0.375
141
12.0
290
     0
  0
SCALE
  5
62
102
{ACAD_REACTORS
330
47
102
}
330
47
100
AcDbScale
 70
     0
300
1/2" = 1'-0"
140
0.5
141
12.0
290
     0
  0
SCALE
  5
63
102
{ACAD_REACTORS
330
47
102
}
330
47
100
AcDbScale
 70
     0
300
3/4" = 1'-0"
140
0.75
141
12.0
290
     0
  0
SCALE
  5
64
102
{ACAD_REACTORS
330
47
102
}
330
47
100
AcDbScale
 70
     0
300
1" = 1'-0"
140
1.0
141
12.0
290
     0
  0
SCALE
  5
65
102
{ACAD_REACTORS
330
47
102
}
330
47
100
AcDbScale
 70
     0
300
1-1/2" = 1'-0"
140
1.5
141
12.0
290
     0
  0
SCALE
  5
66
102
{ACAD_REACTORS
330
47
102
}
330
47
100
AcDbScale
 70
     0
300
3" = 1'-0"
140
3.0
141
12.0
290
     0
  0
SCALE
  5
67
102
{ACAD_REACTORS
330
47
102
}
330
47
100
AcDbScale
 70
     0
300
6" = 1'-0"
140
6.0
141
12.0
290
     0
  0
SCALE
  5
68
102
{ACAD_REACTORS
330
47
102
}
330
47
100
AcDbScale
 70
     0
300
1'-0" = 1'-0"
140
12.0
141
12.0
290
     0
  0
ENDSEC
  0
EOF
