  0
SECTION
  2
HEADER
  9
$ACADVER
  1
AC1015
  9
$ACADMAINTVER
 70
     6
  9
$DWGCODEPAGE
  3
DOS932
  9
$INSBASE
 10
0.0
 20
0.0
 30
0.0
  9
$EXTMIN
 10
0.0
 20
0.0
 30
0.0
  9
$EXTMAX
 10
210.0
 20
297.0
 30
0.0
  9
$LIMMIN
 10
0.0
 20
0.0
  9
$LIMMAX
 10
210.0
 20
297.0
  9
$ORTHOMODE
 70
     0
  9
$REGENMODE
 70
     1
  9
$FILLMODE
 70
     1
  9
$QTEXTMODE
 70
     0
  9
$MIRRTEXT
 70
     1
  9
$LTSCALE
 40
1.0
  9
$ATTMODE
 70
     1
  9
$TEXTSIZE
 40
3.5
  9
$TRACEWID
 40
1.0
  9
$TEXTSTYLE
  7
Standard
  9
$CLAYER
  8
0
  9
$CELTYPE
  6
ByLayer
  9
$CECOLOR
 62
   256
  9
$CELTSCALE
 40
1.0
  9
$DISPSILH
 70
     0
  9
$DIMSCALE
 40
1.0
  9
$DIMASZ
 40
1.5
  9
$DIMEXO
 40
1.0
  9
$DIMDLI
 40
3.75
  9
$DIMRND
 40
0.0
  9
$DIMDLE
 40
0.0
  9
$DIMEXE
 40
1.0
  9
$DIMTP
 40
0.0
  9
$DIMTM
 40
0.0
  9
$DIMTXT
 40
3.5
  9
$DIMCEN
 40
2.5
  9
$DIMTSZ
 40
0.0
  9
$DIMTOL
 70
     0
  9
$DIMLIM
 70
     0
  9
$DIMTIH
 70
     1
  9
$DIMTOH
 70
     1
  9
$DIMSE1
 70
     0
  9
$DIMSE2
 70
     0
  9
$DIMTAD
 70
     1
  9
$DIMZIN
 70
     0
  9
$DIMBLK
  1

  9
$DIMASO
 70
     1
  9
$DIMSHO
 70
     1
  9
$DIMPOST
  1

  9
$DIMAPOST
  1

  9
$DIMALT
 70
     0
  9
$DIMALTD
 70
     3
  9
$DIMALTF
 40
0.0393700787
  9
$DIMLFAC
 40
5.0
  9
$DIMTOFL
 70
     1
  9
$DIMTVP
 40
0.0
  9
$DIMTIX
 70
     0
  9
$DIMSOXD
 70
     0
  9
$DIMSAH
 70
     0
  9
$DIMBLK1
  1

  9
$DIMBLK2
  1

  9
$DIMSTYLE
  2
ISO-25
  9
$DIMCLRD
 70
     0
  9
$DIMCLRE
 70
     0
  9
$DIMCLRT
 70
     0
  9
$DIMTFAC
 40
1.0
  9
$DIMGAP
 40
1.5
  9
$DIMJUST
 70
     0
  9
$DIMSD1
 70
     0
  9
$DIMSD2
 70
     0
  9
$DIMTOLJ
 70
     0
  9
$DIMTZIN
 70
     0
  9
$DIMALTZ
 70
     0
  9
$DIMALTTZ
 70
     0
  9
$DIMUPT
 70
     0
  9
$DIMDEC
 70
     1
  9
$DIMTDEC
 70
     1
  9
$DIMALTU
 70
     2
  9
$DIMALTTD
 70
     3
  9
$DIMTXSTY
  7
Standard
  9
$DIMAUNIT
 70
     0
  9
$DIMADEC
 70
     2
  9
$DIMALTRND
 40
0.0
  9
$DIMAZIN
 70
     0
  9
$DIMDSEP
 70
    44
  9
$DIMATFIT
 70
     3
  9
$DIMFRAC
 70
     0
  9
$DIMLDRBLK
  1

  9
$DIMLUNIT
 70
     2
  9
$DIMLWD
 70
    -2
  9
$DIMLWE
 70
    -2
  9
$DIMTMOVE
 70
     0
  9
$LUNITS
 70
     2
  9
$LUPREC
 70
     4
  9
$SKETCHINC
 40
1.0
  9
$FILLETRAD
 40
10.0
  9
$AUNITS
 70
     0
  9
$AUPREC
 70
     2
  9
$MENU
  1
.
  9
$ELEVATION
 40
0.0
  9
$PELEVATION
 40
0.0
  9
$THICKNESS
 40
0.0
  9
$LIMCHECK
 70
     0
  9
$CHAMFERA
 40
0.0
  9
$CHAMFERB
 40
0.0
  9
$CHAMFERC
 40
0.0
  9
$CHAMFERD
 40
0.0
  9
$SKPOLY
 70
     0
  9
$TDCREATE
 40
2460018.600637835
  9
$TDUCREATE
 40
2460018.225637835
  9
$TDUPDATE
 40
2460018.600638044
  9
$TDUUPDATE
 40
2460018.225638044
  9
$TDINDWG
 40
0.0000000116
  9
$TDUSRTIMER
 40
0.0000000116
  9
$USRTIMER
 70
     1
  9
$ANGBASE
 50
0.0
  9
$ANGDIR
 70
     0
  9
$PDMODE
 70
     0
  9
$PDSIZE
 40
-1.0
  9
$PLINEWID
 40
0.0
  9
$SPLFRAME
 70
     0
  9
$SPLINETYPE
 70
     6
  9
$SPLINESEGS
 70
     8
  9
$HANDSEED
  5
146
  9
$SURFTAB1
 70
     6
  9
$SURFTAB2
 70
     6
  9
$SURFTYPE
 70
     6
  9
$SURFU
 70
     6
  9
$SURFV
 70
     6
  9
$UCSBASE
  2

  9
$UCSNAME
  2

  9
$UCSORG
 10
0.0
 20
0.0
 30
0.0
  9
$UCSXDIR
 10
1.0
 20
0.0
 30
0.0
  9
$UCSYDIR
 10
0.0
 20
1.0
 30
0.0
  9
$UCSORTHOREF
  2

  9
$UCSORTHOVIEW
 70
     0
  9
$UCSORGTOP
 10
0.0
 20
0.0
 30
0.0
  9
$UCSORGBOTTOM
 10
0.0
 20
0.0
 30
0.0
  9
$UCSORGLEFT
 10
0.0
 20
0.0
 30
0.0
  9
$UCSORGRIGHT
 10
0.0
 20
0.0
 30
0.0
  9
$UCSORGFRONT
 10
0.0
 20
0.0
 30
0.0
  9
$UCSORGBACK
 10
0.0
 20
0.0
 30
0.0
  9
$PUCSBASE
  2

  9
$PUCSNAME
  2

  9
$PUCSORG
 10
0.0
 20
0.0
 30
0.0
  9
$PUCSXDIR
 10
1.0
 20
0.0
 30
0.0
  9
$PUCSYDIR
 10
0.0
 20
1.0
 30
0.0
  9
$PUCSORTHOREF
  2

  9
$PUCSORTHOVIEW
 70
     0
  9
$PUCSORGTOP
 10
0.0
 20
0.0
 30
0.0
  9
$PUCSORGBOTTOM
 10
0.0
 20
0.0
 30
0.0
  9
$PUCSORGLEFT
 10
0.0
 20
0.0
 30
0.0
  9
$PUCSORGRIGHT
 10
0.0
 20
0.0
 30
0.0
  9
$PUCSORGFRONT
 10
0.0
 20
0.0
 30
0.0
  9
$PUCSORGBACK
 10
0.0
 20
0.0
 30
0.0
  9
$USERI1
 70
     0
  9
$USERI2
 70
     0
  9
$USERI3
 70
     0
  9
$USERI4
 70
     0
  9
$USERI5
 70
     0
  9
$USERR1
 40
0.0
  9
$USERR2
 40
0.0
  9
$USERR3
 40
0.0
  9
$USERR4
 40
0.0
  9
$USERR5
 40
0.0
  9
$WORLDVIEW
 70
     1
  9
$SHADEDGE
 70
     3
  9
$SHADEDIF
 70
    70
  9
$TILEMODE
 70
     1
  9
$MAXACTVP
 70
    64
  9
$PINSBASE
 10
0.0
 20
0.0
 30
0.0
  9
$PLIMCHECK
 70
     0
  9
$PEXTMIN
 10
1.0000000000E+20
 20
1.0000000000E+20
 30
1.0000000000E+20
  9
$PEXTMAX
 10
-1.0000000000E+20
 20
-1.0000000000E+20
 30
-1.0000000000E+20
  9
$PLIMMIN
 10
0.0
 20
0.0
  9
$PLIMMAX
 10
420.0
 20
297.0
  9
$UNITMODE
 70
     0
  9
$VISRETAIN
 70
     1
  9
$PLINEGEN
 70
     0
  9
$PSLTSCALE
 70
     1
  9
$TREEDEPTH
 70
  3020
  9
$CMLSTYLE
  2
Standard
  9
$CMLJUST
 70
     0
  9
$CMLSCALE
 40
20.0
  9
$PROXYGRAPHICS
 70
     1
  9
$MEASUREMENT
 70
     1
  9
$CELWEIGHT
370
    -1
  9
$ENDCAPS
280
     0
  9
$JOINSTYLE
280
     0
  9
$LWDISPLAY
290
     1
  9
$INSUNITS
 70
     4
  9
$HYPERLINKBASE
  1

  9
$STYLESHEET
  1

  9
$XEDIT
290
     1
  9
$CEPSNTYPE
380
     0
  9
$PSTYLEMODE
290
     1
  9
$FINGERPRINTGUID
  2
{b1eaa7b1-3e6f-4b36-86a8-7e8ef5739668}
  9
$VERSIONGUID
  2
{FAEB1C32-E019-11D5-929B-00C0DF256EC4}
  9
$EXTNAMES
290
     1
  9
$PSVPSCALE
 40
0.0
  9
$OLESTARTUP
290
     0
  0
ENDSEC
  0
SECTION
  2
CLASSES
  0
CLASS
  1
ACDBDICTIONARYWDFLT
  2
AcDbDictionaryWithDefault
  3
ObjectDBX Classes
 90
        0
280
     0
281
     0
  0
CLASS
  1
VISUALSTYLE
  2
AcDbVisualStyle
  3
ObjectDBX Classes
 90
     4095
280
     0
281
     0
  0
CLASS
  1
MATERIAL
  2
AcDbMaterial
  3
ObjectDBX Classes
 90
     1153
280
     0
281
     0
  0
CLASS
  1
SCALE
  2
AcDbScale
  3
ObjectDBX Classes
 90
     1153
280
     0
281
     0
  0
CLASS
  1
TABLESTYLE
  2
AcDbTableStyle
  3
ObjectDBX Classes
 90
     4095
280
     0
281
     0
  0
CLASS
  1
MLEADERSTYLE
  2
AcDbMLeaderStyle
  3
ACDB_MLEADERSTYLE_CLASS
 90
     4095
280
     0
281
     0
  0
CLASS
  1
SUN
  2
AcDbSun
  3
SCENEOE
 90
     1153
280
     0
281
     0
  0
CLASS
  1
ACDBPLACEHOLDER
  2
AcDbPlaceHolder
  3
ObjectDBX Classes
 90
        0
280
     0
281
     0
  0
CLASS
  1
LAYOUT
  2
AcDbLayout
  3
ObjectDBX Classes
 90
        0
280
     0
281
     0
  0
ENDSEC
  0
SECTION
  2
TABLES
  0
TABLE
  2
VPORT
  5
8
330
0
100
AcDbSymbolTable
 70
     1
  0
VPORT
  5
29
330
8
100
AcDbSymbolTableRecord
100
AcDbViewportTableRecord
  2
*Active
 70
     0
 10
0.0
 20
0.0
 11
1.0
 21
1.0
 12
105.0
 22
148.5
 13
0.0
 23
0.0
 14
10.0
 24
10.0
 15
10.0
 25
10.0
 16
0.0
 26
0.0
 36
1.0
 17
0.0
 27
0.0
 37
0.0
 40
297.0
 41
0.7070707071
 42
50.0
 43
0.0
 44
0.0
 50
0.0
 51
0.0
 71
     0
 72
  2000
 73
     1
 74
     3
 75
     0
 76
     0
 77
     0
 78
     0
281
     0
 65
     1
110
0.0
120
0.0
130
0.0
111
1.0
121
0.0
131
0.0
112
0.0
122
1.0
132
0.0
 79
     0
146
0.0
  0
ENDTAB
  0
TABLE
  2
LTYPE
  5
5
330
0
100
AcDbSymbolTable
 70
     6
  0
LTYPE
  5
14
330
5
100
AcDbSymbolTableRecord
100
AcDbLinetypeTableRecord
  2
ByBlock
 70
     0
  3

 72
    65
 73
     0
 40
0.0
  0
LTYPE
  5
15
330
5
100
AcDbSymbolTableRecord
100
AcDbLinetypeTableRecord
  2
ByLayer
 70
     0
  3

 72
    65
 73
     0
 40
0.0
  0
LTYPE
  5
16
330
5
100
AcDbSymbolTableRecord
100
AcDbLinetypeTableRecord
  2
Continuous
 70
     0
  3
Solid line
 72
    65
 73
     0
 40
0.0
  0
LTYPE
  5
6E
330
5
100
AcDbSymbolTableRecord
100
AcDbLinetypeTableRecord
  2
HIDDEN
 70
     0
  3
Hidden __ __ __ __ __ __ __ __ __ __ __ __ __ __
 72
    65
 73
     2
 40
1.905
 49
1.27
 74
     0
 49
-0.635
 74
     0
  0
LTYPE
  5
6F
330
5
100
AcDbSymbolTableRecord
100
AcDbLinetypeTableRecord
  2
PHANTOM
 70
     0
  3
Phantom ______  __  __  ______  __  __  ______
 72
    65
 73
     6
 40
12.7
 49
6.35
 74
     0
 49
-1.27
 74
     0
 49
1.27
 74
     0
 49
-1.27
 74
     0
 49
1.27
 74
     0
 49
-1.27
 74
     0
  0
LTYPE
  5
70
330
5
100
AcDbSymbolTableRecord
100
AcDbLinetypeTableRecord
  2
CENTER
 70
     0
  3
Center ____ _ ____ _ ____ _ ____ _ ____ _ ____
 72
    65
 73
     4
 40
10.16
 49
6.35
 74
     0
 49
-1.27
 74
     0
 49
1.27
 74
     0
 49
-1.27
 74
     0
  0
LTYPE
  5
71
330
5
100
AcDbSymbolTableRecord
100
AcDbLinetypeTableRecord
  2
CENTERX2
 70
     0
  3
Center (2x) ________  __  ________  __  _____
 72
    65
 73
     4
 40
20.32
 49
12.7
 74
     0
 49
-2.54
 74
     0
 49
2.54
 74
     0
 49
-2.54
 74
     0
  0
LTYPE
  5
72
330
5
100
AcDbSymbolTableRecord
100
AcDbLinetypeTableRecord
  2
DOT2
 70
     0
  3
Dot (.5x) ........................................
 72
    65
 73
     2
 40
0.635
 49
0.0
 74
     0
 49
-0.635
 74
     0
  0
ENDTAB
  0
TABLE
  2
LAYER
  5
2
330
0
100
AcDbSymbolTable
 70
     1
  0
LAYER
  5
10
330
2
100
AcDbSymbolTableRecord
100
AcDbLayerTableRecord
  2
0
 70
     0
 62
     7
  6
Continuous
370
    -3
390
F
  0
ENDTAB
  0
TABLE
  2
STYLE
  5
3
330
0
100
AcDbSymbolTable
 70
     2
  0
STYLE
  5
11
330
3
100
AcDbSymbolTableRecord
100
AcDbTextStyleTableRecord
  2
Standard
 70
     0
 40
0.0
 41
1.0
 50
0.0
 71
     0
 42
3.5
  3
txt
  4
bigfont
  0
STYLE
  5
76
330
3
100
AcDbSymbolTableRecord
100
AcDbTextStyleTableRecord
  2
SLDTEXTSTYLE0
 70
     0
 40
0.0
 41
0.7
 50
0.0
 71
     0
 42
3.5
  3
TXT
  4
bigfont
  0
ENDTAB
  0
TABLE
  2
VIEW
  5
6
330
0
100
AcDbSymbolTable
 70
     0
  0
ENDTAB
  0
TABLE
  2
UCS
  5
7
330
0
100
AcDbSymbolTable
 70
     0
  0
ENDTAB
  0
TABLE
  2
APPID
  5
9
330
0
100
AcDbSymbolTable
 70
     1
  0
APPID
  5
12
330
9
100
AcDbSymbolTableRecord
100
AcDbRegAppTableRecord
  2
ACAD
 70
     0
  0
ENDTAB
  0
TABLE
  2
DIMSTYLE
  5
A
330
0
100
AcDbSymbolTable
 70
     1
100
AcDbDimStyleTable
  0
DIMSTYLE
105
27
330
A
100
AcDbSymbolTableRecord
100
AcDbDimStyleTableRecord
  2
ISO-25
 70
     0
 41
2.5
 42
0.625
 43
3.75
 44
1.25
 73
     0
 74
     0
 77
     1
 78
     8
140
2.5
141
2.5
143
0.0393700787
147
0.625
171
     3
172
     1
178
     0
271
     2
272
     2
274
     3
278
    44
283
     0
284
     8
340
11
  0
ENDTAB
  0
TABLE
  2
BLOCK_RECORD
  5
1
330
0
100
AcDbSymbolTable
 70
     2
  0
BLOCK_RECORD
  5
1F
330
1
100
AcDbSymbolTableRecord
100
AcDbBlockTableRecord
  2
*Model_Space
340
22
  0
BLOCK_RECORD
  5
1B
330
1
100
AcDbSymbolTableRecord
100
AcDbBlockTableRecord
  2
*Paper_Space
340
1E
  0
BLOCK_RECORD
  5
23
330
1
100
AcDbSymbolTableRecord
100
AcDbBlockTableRecord
  2
*Paper_Space0
340
26
  0
BLOCK_RECORD
  5
73
330
1
100
AcDbSymbolTableRecord
100
AcDbBlockTableRecord
  2
SW_NOTE_0
340
0
102
{BLKREFS
331
79
102
}
  0
ENDTAB
  0
ENDSEC
  0
SECTION
  2
BLOCKS
  0
BLOCK
  5
20
330
1F
100
AcDbEntity
  8
0
100
AcDbBlockBegin
  2
*Model_Space
 70
     0
 10
0.0
 20
0.0
 30
0.0
  3
*Model_Space
  1

  0
ENDBLK
  5
21
330
1F
100
AcDbEntity
  8
0
100
AcDbBlockEnd
  0
BLOCK
  5
1C
330
1B
100
AcDbEntity
 67
     1
  8
0
100
AcDbBlockBegin
  2
*Paper_Space
 70
     0
 10
0.0
 20
0.0
 30
0.0
  3
*Paper_Space
  1

  0
ENDBLK
  5
1D
330
1B
100
AcDbEntity
 67
     1
  8
0
100
AcDbBlockEnd
  0
BLOCK
  5
24
330
23
100
AcDbEntity
  8
0
100
AcDbBlockBegin
  2
*Paper_Space0
 70
     0
 10
0.0
 20
0.0
 30
0.0
  3
*Paper_Space0
  1

  0
ENDBLK
  5
25
330
23
100
AcDbEntity
  8
0
100
AcDbBlockEnd
  0
BLOCK
  5
74
330
73
100
AcDbEntity
  8
0
100
AcDbBlockBegin
  2
SW_NOTE_0
 70
     0
 10
0.0
 20
0.0
 30
0.0
  3
SW_NOTE_0
  1

  0
MTEXT
  5
77
330
73
100
AcDbEntity
  8
0
  6
Continuous
 62
     0
370
     0
100
AcDbMText
 10
0.0
 20
4.5117370892
 30
0.0
 40
3.5
 41
0.0
 71
     1
 72
     1
  1
HBB-D67S/C/K
  7
SLDTEXTSTYLE0
 73
     1
 44
1.0
  0
MTEXT
  5
78
330
73
100
AcDbEntity
  8
0
  6
Continuous
 62
     0
370
     0
100
AcDbMText
 10
0.0
 20
0.0117372829
 30
0.0
 40
3.5
 41
0.0
 71
     1
 72
     1
  1
HBB-D68S/C/K
  7
SLDTEXTSTYLE0
 73
     1
 44
1.0
  0
ENDBLK
  5
75
330
73
100
AcDbEntity
  8
0
100
AcDbBlockEnd
  0
ENDSEC
  0
SECTION
  2
ENTITIES
  0
INSERT
  5
79
330
1F
100
AcDbEntity
  8
0
  6
Continuous
 62
     7
370
     0
100
AcDbBlockReference
  2
SW_NOTE_0
 10
141.0036734694
 20
110.7238775119
 30
0.0
  0
SPLINE
  5
7A
330
1F
100
AcDbEntity
  8
0
  6
Continuous
 62
     7
370
    25
100
AcDbSpline
210
0.0
220
0.0
230
1.0
 70
     8
 71
     3
 72
    13
 73
     9
 74
     0
 42
0.00000001
 43
0.00000001
 40
0.0
 40
0.0
 40
0.0
 40
0.0
 40
0.0713893490910633
 40
0.315542483021836
 40
0.4994076493450348
 40
0.6785806032880581
 40
0.9669101438504586
 40
1.0
 40
1.0
 40
1.0
 40
1.0
 10
122.0983698053035
 20
121.5790512786419
 30
0.0
 10
122.1083102391531
 20
121.6351553200257
 30
0.0
 10
122.1522471739924
 20
121.8831364089587
 30
0.0
 10
122.1796846048955
 20
122.3195328071472
 30
0.0
 10
122.1986180580564
 20
122.8600691357195
 30
0.0
 10
122.1878777694617
 20
123.4572515704813
 30
0.0
 10
122.1677343319145
 20
123.9281297840814
 30
0.0
 10
122.1281511399212
 20
124.2250503006738
 30
0.0
 10
122.1240760836477
 20
124.2556180177512
 30
0.0
  0
SPLINE
  5
7B
330
1F
100
AcDbEntity
  8
0
  6
Continuous
 62
     7
370
    25
100
AcDbSpline
210
0.0
220
0.0
230
1.0
 70
     8
 71
     3
 72
    13
 73
     9
 74
     0
 42
0.00000001
 43
0.00000001
 40
0.0
 40
0.0
 40
0.0
 40
0.0
 40
0.0677703679047995
 40
0.248667204359842
 40
0.3878456750281663
 40
0.5330140585080854
 40
0.748333389695888
 40
1.0
 40
1.0
 40
1.0
 40
1.0
 10
122.1661712140539
 20
122.214492126318
 30
0.0
 10
122.1770412596304
 20
122.2634121795027
 30
0.0
 10
122.216926299779
 20
122.4429126490833
 30
0.0
 10
122.2463699804275
 20
122.7705482193485
 30
0.0
 10
122.2671573398193
 20
123.17642011861
 30
0.0
 10
122.2650497381629
 20
123.6324849169179
 30
0.0
 10
122.2320546989668
 20
124.2087271689585
 30
0.0
 10
122.1657244334346
 20
124.6385087196489
 30
0.0
 10
122.1299779331573
 20
124.8701252554443
 30
0.0
  0
SPLINE
  5
7C
330
1F
100
AcDbEntity
  8
0
  6
Continuous
 62
     7
370
    25
100
AcDbSpline
210
0.0
220
0.0
230
1.0
 70
     8
 71
     3
 72
     9
 73
     5
 74
     0
 42
0.00000001
 43
0.00000001
 40
0.0
 40
0.0
 40
0.0
 40
0.0
 40
0.5030015694034804
 40
1.0
 40
1.0
 40
1.0
 40
1.0
 10
74.1969357154284
 20
109.0967074268538
 30
0.0
 10
74.24091182013673
 20
109.0677261201028
 30
0.0
 10
74.32833919091111
 20
109.0101093878422
 30
0.0
 10
74.42128968401084
 20
109.0133446551485
 30
0.0
 10
74.4674859332046
 20
109.0149525779223
 30
0.0
  0
LINE
  5
7D
330
1F
100
AcDbEntity
  8
0
  6
Continuous
 62
     7
370
    25
100
AcDbLine
 10
74.439525175
 20
109.0103444173
 30
0.0
 11
75.3946725765
 21
109.1020601555
 31
0.0
  0
LINE
  5
7E
330
1F
100
AcDbEntity
  8
0
  6
Continuous
 62
     7
370
    25
100
AcDbLine
 10
64.7289352004
 20
116.866053944
 30
0.0
 11
74.1967013265
 21
109.0968994704
 31
0.0
  0
SPLINE
  5
7F
330
1F
100
AcDbEntity
  8
0
  6
Continuous
 62
     7
370
    25
100
AcDbSpline
210
0.0
220
0.0
230
1.0
 70
     8
 71
     3
 72
    10
 73
     6
 74
     0
 42
0.00000001
 43
0.00000001
 40
0.0
 40
0.0
 40
0.0
 40
0.0
 40
0.1503531963953973
 40
0.5557031571192617
 40
0.9999999999999999
 40
0.9999999999999999
 40
0.9999999999999999
 40
0.9999999999999999
 10
123.7283192233695
 20
130.1725998780254
 30
0.0
 10
123.7302662328448
 20
130.1924263557759
 30
0.0
 10
123.7374623506415
 20
130.2657047199519
 30
0.0
 10
123.6715241934984
 20
130.3901187798612
 30
0.0
 10
123.5887373948544
 20
130.4394837721784
 30
0.0
 10
123.5454465672849
 20
130.465297687022
 30
0.0
  0
LINE
  5
80
330
1F
100
AcDbEntity
  8
0
  6
Continuous
 62
     7
370
    25
100
AcDbLine
 10
123.727043909
 20
129.2148356659
 30
0.0
 11
123.7362300884
 21
130.1713110466
 31
0.0
  0
LINE
  5
81
330
1F
100
AcDbEntity
  8
0
  6
Continuous
 62
     7
370
    25
100
AcDbLine
 10
123.6006539949
 20
130.4419475924
 30
0.0
 11
114.1328878688
 21
138.211102066
 31
0.0
  0
SPLINE
  5
82
330
1F
100
AcDbEntity
  8
0
  6
Continuous
 62
     7
370
    25
100
AcDbSpline
210
0.0
220
0.0
230
1.0
 70
     8
 71
     3
 72
    11
 73
     7
 74
     0
 42
0.00000001
 43
0.00000001
 40
0.0
 40
0.0
 40
0.0
 40
0.0
 40
0.4767774502005068
 40
0.6708556235671577
 40
0.9923332447694821
 40
1.0
 40
1.0
 40
1.0
 40
1.0
 10
65.15158747105005
 20
133.3413675904223
 30
0.0
 10
65.05513145654265
 20
133.2021075760393
 30
0.0
 10
64.91941182523053
 20
133.0061600459125
 30
0.0
 10
64.82052408194632
 20
132.6763990430526
 30
0.0
 10
64.7785096595751
 20
132.4954725154494
 30
0.0
 10
64.78857259040929
 20
132.3847270673638
 30
0.0
 10
64.78880698611262
 20
132.3821474752329
 30
0.0
  0
SPLINE
  5
83
330
1F
100
AcDbEntity
  8
0
  6
Continuous
 62
     7
370
    25
100
AcDbSpline
210
0.0
220
0.0
230
1.0
 70
     8
 71
     3
 72
     9
 73
     5
 74
     0
 42
0.00000001
 43
0.00000001
 40
0.0
 40
0.0
 40
0.0
 40
0.0
 40
0.1319650365323776
 40
1.0
 40
1.0
 40
1.0
 40
1.0
 10
65.59265559106304
 20
133.7109245862777
 30
0.0
 10
65.57015961651844
 20
133.6995589959722
 30
0.0
 10
65.39969041394995
 20
133.6134332265704
 30
0.0
 10
65.2668754786024
 20
133.4677905370765
 30
0.0
 10
65.15158747105005
 20
133.3413675904223
 30
0.0
  0
SPLINE
  5
84
330
1F
100
AcDbEntity
  8
0
  6
Continuous
 62
     7
370
    25
100
AcDbSpline
210
0.0
220
0.0
230
1.0
 70
     8
 71
     3
 72
    10
 73
     6
 74
     0
 42
0.00000001
 43
0.00000001
 40
0.0
 40
0.0
 40
0.0
 40
0.0
 40
0.1862609462195219
 40
0.6838733393061542
 40
1.0
 40
1.0
 40
1.0
 40
1.0
 10
66.20108618295815
 20
133.9019331623882
 30
0.0
 10
66.16175869110688
 20
133.9017380977819
 30
0.0
 10
66.01736436838517
 20
133.9010219010356
 30
0.0
 10
65.80749943352171
 20
133.8305679828035
 30
0.0
 10
65.65276704113803
 20
133.7443997744645
 30
0.0
 10
65.59265559106304
 20
133.7109245862777
 30
0.0
  0
LINE
  5
85
330
1F
100
AcDbEntity
  8
0
  6
Continuous
 62
     7
370
    25
100
AcDbLine
 10
64.7879644658
 20
132.3843281888
 30
0.0
 11
64.403220921
 21
117.9926378626
 31
0.0
  0
LINE
  5
86
330
1F
100
AcDbEntity
  8
0
  6
Continuous
 62
     7
370
    25
100
AcDbLine
 10
112.9910134614
 20
138.4070269946
 30
0.0
 11
109.2030276201
 21
138.0432947402
 31
0.0
  0
LINE
  5
87
330
1F
100
AcDbEntity
  8
0
  6
Continuous
 62
     7
370
    25
100
AcDbLine
 10
98.1923660546
 20
136.986022374
 30
0.0
 11
66.2013988003
 21
133.9141664781
 31
0.0
  0
SPLINE
  5
88
330
1F
100
AcDbEntity
  8
0
  6
Continuous
 62
     7
370
    25
100
AcDbSpline
210
0.0
220
0.0
230
1.0
 70
     8
 71
     3
 72
    12
 73
     8
 74
     0
 42
0.00000001
 43
0.00000001
 40
0.0
 40
0.0
 40
0.0
 40
0.0
 40
0.1561055973285347
 40
0.3016831913350399
 40
0.5701962870727072
 40
0.8170345227112435
 40
1.0
 40
1.0
 40
1.0
 40
1.0
 10
64.40324359111446
 20
117.9931981197085
 30
0.0
 10
64.40320313251289
 20
117.9266885395318
 30
0.0
 10
64.40312494390047
 20
117.798154888302
 30
0.0
 10
64.4289499148436
 20
117.5475157557884
 30
0.0
 10
64.48901564052323
 20
117.2727026612882
 30
0.0
 10
64.58533345631619
 20
117.0258464057974
 30
0.0
 10
64.66796822575604
 20
116.9362775480022
 30
0.0
 10
64.70314546963846
 20
116.8981484943812
 30
0.0
  0
LINE
  5
89
330
1F
100
AcDbEntity
  8
0
  6
Continuous
 62
     7
370
    25
100
AcDbLine
 10
113.2730118525
 20
138.4187989645
 30
0.0
 11
112.9950792523
 21
138.4033001202
 31
0.0
  0
SPLINE
  5
8A
330
1F
100
AcDbEntity
  8
0
  6
Continuous
 62
     7
370
    25
100
AcDbSpline
210
0.0
220
0.0
230
1.0
 70
     8
 71
     3
 72
    12
 73
     8
 74
     0
 42
0.00000001
 43
0.00000001
 40
0.0
 40
0.0
 40
0.0
 40
0.0
 40
0.1987230938293001
 40
0.382059838621771
 40
0.5629960172363467
 40
0.7652036400245078
 40
1.0
 40
1.0
 40
1.0
 40
1.0
 10
114.1255115114123
 20
138.1982148531871
 30
0.0
 10
114.0877208918819
 20
138.2315512783508
 30
0.0
 10
114.0150656321383
 20
138.295643020145
 30
0.0
 10
113.8710676033731
 20
138.3411739542964
 30
0.0
 10
113.708175426771
 20
138.38159600991
 30
0.0
 10
113.507493137538
 20
138.4105575114598
 30
0.0
 10
113.3549638086004
 20
138.4159185503837
 30
0.0
 10
113.2730118524705
 20
138.4187989644638
 30
0.0
  0
SPLINE
  5
8B
330
1F
100
AcDbEntity
  8
0
  6
Continuous
 62
     7
370
    25
100
AcDbSpline
210
0.0
220
0.0
230
1.0
 70
     8
 71
     3
 72
    14
 73
    10
 74
     0
 42
0.00000001
 43
0.00000001
 40
0.0
 40
0.0
 40
0.0
 40
0.0
 40
0.2257386023527624
 40
0.3182996820073541
 40
0.4717387065854136
 40
0.6313242550364878
 40
0.8027365653295034
 40
0.9819500845158585
 40
1.0
 40
1.0
 40
1.0
 40
1.0
 10
111.4987164459514
 20
143.8412294093473
 30
0.0
 10
111.7271774551127
 20
144.1408265476913
 30
0.0
 10
112.0493158302476
 20
144.5632694656119
 30
0.0
 10
112.4431853708114
 20
145.2420708426813
 30
0.0
 10
112.7411330088483
 20
145.8453897983416
 30
0.0
 10
113.029072722806
 20
146.5928472699189
 30
0.0
 10
113.2426094618686
 20
147.4002445260396
 30
0.0
 10
113.3601822739247
 20
147.9930820860183
 30
0.0
 10
113.3740293571569
 20
148.3099061907873
 30
0.0
 10
113.3752963871185
 20
148.3388960962099
 30
0.0
  0
SPLINE
  5
8C
330
1F
100
AcDbEntity
  8
0
  6
Continuous
 62
     7
370
    25
100
AcDbSpline
210
0.0
220
0.0
230
1.0
 70
     8
 71
     3
 72
    13
 73
     9
 74
     0
 42
0.00000001
 43
0.00000001
 40
0.0
 40
0.0
 40
0.0
 40
0.0
 40
0.1186838360455702
 40
0.328712438686415
 40
0.5252196346911316
 40
0.6642510817528191
 40
0.8099311328491233
 40
1.0
 40
1.0
 40
1.0
 40
1.0
 10
107.7886294411882
 20
141.242646970992
 30
0.0
 10
107.957711320062
 20
141.2992320425281
 30
0.0
 10
108.4260085928342
 20
141.4559527677556
 30
0.0
 10
109.1378474744176
 20
141.826104714469
 30
0.0
 10
109.8412559925475
 20
142.2766135323233
 30
0.0
 10
110.4225880886999
 20
142.7351429324724
 30
0.0
 10
110.9651803238684
 20
143.2279747036035
 30
0.0
 10
111.3058576094409
 20
143.6195544671287
 30
0.0
 10
111.4987164459514
 20
143.8412294093473
 30
0.0
  0
LINE
  5
8D
330
1F
100
AcDbEntity
  8
0
  6
Continuous
 62
     7
370
    25
100
AcDbLine
 10
99.8822721258
 20
143.1193705219
 30
0.0
 11
101.3548738331
 21
142.0517779547
 31
0.0
  0
LINE
  5
8E
330
1F
100
AcDbEntity
  8
0
  6
Continuous
 62
     7
370
    25
100
AcDbLine
 10
111.2737261171
 20
154.1392417814
 30
0.0
 11
109.3363018542
 21
155.9334999676
 31
0.0
  0
LINE
  5
8F
330
1F
100
AcDbEntity
  8
0
  6
Continuous
 62
     7
370
    25
100
AcDbLine
 10
109.1717507828
 20
134.7867151046
 30
0.0
 11
109.2401425676
 21
141.9077449953
 31
0.0
  0
LINE
  5
90
330
1F
100
AcDbEntity
  8
0
  6
Continuous
 62
     7
370
    25
100
AcDbLine
 10
98.259969491
 20
144.0249685333
 30
0.0
 11
98.1722580711
 21
134.8923564164
 31
0.0
  0
LINE
  5
91
330
1F
100
AcDbEntity
  8
0
  6
Continuous
 62
     7
370
    25
100
AcDbLine
 10
97.9712736576
 20
144.6587605502
 30
0.0
 11
98.4521248894
 21
144.2134418476
 31
0.0
  0
LINE
  5
92
330
1F
100
AcDbEntity
  8
0
  6
Continuous
 62
     7
370
    25
100
AcDbLine
 10
110.3397134123
 20
134.9198072257
 30
0.0
 11
109.8677134971
 21
135.3581514054
 31
0.0
  0
LINE
  5
93
330
1F
100
AcDbEntity
  8
0
  6
Continuous
 62
     7
370
    25
100
AcDbLine
 10
97.4873991
 20
135.4770544027
 30
0.0
 11
97.0070671394
 21
135.0478566074
 31
0.0
  0
LINE
  5
94
330
1F
100
AcDbEntity
  8
0
  6
Continuous
 62
     7
370
    25
100
AcDbLine
 10
110.6579023379
 20
133.3375964002
 30
0.0
 11
110.6670885174
 21
134.2940717809
 31
0.0
  0
LINE
  5
95
330
1F
100
AcDbEntity
  8
0
  6
Continuous
 62
     7
370
    25
100
AcDbLine
 10
96.6677341571
 20
134.4285243595
 30
0.0
 11
96.6585479777
 21
133.4720489788
 31
0.0
  0
LINE
  5
96
330
1F
100
AcDbEntity
  8
0
  6
Continuous
 62
     7
370
    25
100
AcDbLine
 10
113.4500837741
 20
153.426071544
 30
0.0
 11
114.3435021762
 21
153.0052079011
 31
0.0
  0
LINE
  5
97
330
1F
100
AcDbEntity
  8
0
  6
Continuous
 62
     7
370
    25
100
AcDbLine
 10
103.0931248233
 20
158.3049362098
 30
0.0
 11
103.9113340853
 21
157.9195014237
 31
0.0
  0
LINE
  5
98
330
1F
100
AcDbEntity
  8
0
  6
Continuous
 62
     7
370
    25
100
AcDbLine
 10
130.3243024369
 20
186.9295947493
 30
0.0
 11
119.073925084
 21
192.229323058
 31
0.0
  0
LINE
  5
99
330
1F
100
AcDbEntity
  8
0
  6
Continuous
 62
     7
370
    25
100
AcDbLine
 10
132.8763467699
 20
183.2218056841
 30
0.0
 11
132.8655249659
 21
183.269421215
 31
0.0
  0
LINE
  5
9A
330
1F
100
AcDbEntity
  8
0
  6
Continuous
 62
     7
370
    25
100
AcDbLine
 10
118.758887194
 20
153.3576664537
 30
0.0
 11
118.9135011215
 21
153.4391349774
 31
0.0
  0
LINE
  5
9B
330
1F
100
AcDbEntity
  8
0
  6
Continuous
 62
     7
370
    25
100
AcDbLine
 10
95.9545553854
 20
146.2479149088
 30
0.0
 11
97.9833624124
 21
144.583096093
 31
0.0
  0
SPLINE
  5
9C
330
1F
100
AcDbEntity
  8
0
  6
Continuous
 62
     7
370
    25
100
AcDbSpline
210
0.0
220
0.0
230
1.0
 70
     8
 71
     3
 72
    14
 73
    10
 74
     0
 42
0.00000001
 43
0.00000001
 40
0.0
 40
0.0
 40
0.0
 40
0.0
 40
0.2057602134366263
 40
0.2901037902921733
 40
0.42992614055382
 40
0.5753444702061813
 40
0.7315347364520256
 40
0.8948249527131527
 40
1.0
 40
1.0
 40
1.0
 40
1.0
 10
95.42907167001785
 20
157.0278196712804
 30
0.0
 10
95.19795560482653
 20
156.7249889758355
 30
0.0
 10
94.87210229533788
 20
156.2980243498853
 30
0.0
 10
94.4727718866311
 20
155.6124423301133
 30
0.0
 10
94.16981460144065
 20
155.0032846035318
 30
0.0
 10
93.87723371490326
 20
154.2486598539884
 30
0.0
 10
93.65283879950819
 20
153.4333325482773
 30
0.0
 10
93.51454558589597
 20
152.6765032785734
 30
0.0
 10
93.49702732209951
 20
152.1980986409208
 30
0.0
 10
93.49016429558046
 20
152.0106768876467
 30
0.0
  0
SPLINE
  5
9D
330
1F
100
AcDbEntity
  8
0
  6
Continuous
 62
     7
370
    25
100
AcDbSpline
210
0.0
220
0.0
230
1.0
 70
     8
 71
     3
 72
    13
 73
     9
 74
     0
 42
0.00000001
 43
0.00000001
 40
0.0
 40
0.0
 40
0.0
 40
0.0
 40
0.1746977643485082
 40
0.3614035969950777
 40
0.5341240740727528
 40
0.6705513883160036
 40
0.7936304970678
 40
1.0
 40
1.0
 40
1.0
 40
1.0
 10
99.77800041986026
 20
159.8665957076629
 30
0.0
 10
99.48889377089336
 20
159.7806283371721
 30
0.0
 10
98.8908083675599
 20
159.6027845219666
 30
0.0
 10
98.04459409822998
 20
159.2009103314589
 30
0.0
 10
97.29714713327553
 20
158.7481370024983
 30
0.0
 10
96.68498041708136
 20
158.2883858407979
 30
0.0
 10
96.06021863047697
 20
157.7445959354507
 30
0.0
 10
95.67215692778375
 20
157.3038849205047
 30
0.0
 10
95.42907167001785
 20
157.0278196712804
 30
0.0
  0
LINE
  5
9E
330
1F
100
AcDbEntity
  8
0
  6
Continuous
 62
     7
370
    25
100
AcDbLine
 10
80.319925964
 20
208.9652900714
 30
0.0
 11
79.2139178305
 21
209.4862986057
 31
0.0
  0
LINE
  5
9F
330
1F
100
AcDbEntity
  8
0
  6
Continuous
 62
     7
370
    25
100
AcDbLine
 10
64.4050429222
 20
178.0497001264
 30
0.0
 11
65.5472634654
 21
177.5116329703
 31
0.0
  0
SPLINE
  5
A0
330
1F
100
AcDbEntity
  8
0
  6
Continuous
 62
     7
370
    25
100
AcDbSpline
210
0.0
220
0.0
230
1.0
 70
     8
 71
     3
 72
     9
 73
     5
 74
     0
 42
0.00000001
 43
0.00000001
 40
0.0
 40
0.0
 40
0.0
 40
0.0
 40
0.976145775056278
 40
0.9999999999999999
 40
0.9999999999999999
 40
0.9999999999999999
 40
0.9999999999999999
 10
61.3964479109283
 20
180.7285551763652
 30
0.0
 10
61.45309372689199
 20
180.4308058101166
 30
0.0
 10
61.51112380540196
 20
180.1257802966562
 30
0.0
 10
61.60803550814788
 20
179.8691814949508
 30
0.0
 10
61.61034726170485
 20
179.8630605294146
 30
0.0
  0
LINE
  5
A1
330
1F
100
AcDbEntity
  8
0
  6
Continuous
 62
     7
370
    25
100
AcDbLine
 10
64.0236325615
 20
176.7094472454
 30
0.0
 11
67.9101265562
 21
174.8786320115
 31
0.0
  0
LINE
  5
A2
330
1F
100
AcDbEntity
  8
0
  6
Continuous
 62
     7
370
    25
100
AcDbLine
 10
83.8909268169
 20
208.8030188597
 30
0.0
 11
80.0044328223
 21
210.6338340936
 31
0.0
  0
SPLINE
  5
A3
330
1F
100
AcDbEntity
  8
0
  6
Continuous
 62
     7
370
    25
100
AcDbSpline
210
0.0
220
0.0
230
1.0
 70
     8
 71
     3
 72
    11
 73
     7
 74
     0
 42
0.00000001
 43
0.00000001
 40
0.0
 40
0.0
 40
0.0
 40
0.0
 40
0.2032299724325906
 40
0.6005632084633566
 40
0.9937409685797378
 40
1.0
 40
1.0
 40
1.0
 40
1.0
 10
80.13003923102481
 20
209.139292337471
 30
0.0
 10
80.22068769411354
 20
209.0601955149446
 30
0.0
 10
80.4885622166714
 20
208.8264571497462
 30
0.0
 10
80.87304850612385
 20
208.321501865532
 30
0.0
 10
81.1589930123158
 20
207.8684145681002
 30
0.0
 10
81.26504981665526
 20
207.5809732152774
 30
0.0
 10
81.26671168878312
 20
207.576469112258
 30
0.0
  0
LINE
  5
A4
330
1F
100
AcDbEntity
  8
0
  6
Continuous
 62
     7
370
    25
100
AcDbLine
 10
68.7283358182
 20
174.4931972254
 30
0.0
 11
103.0931248233
 21
158.3049362098
 31
0.0
  0
LINE
  5
A5
330
1F
100
AcDbEntity
  8
0
  6
Continuous
 62
     7
370
    25
100
AcDbLine
 10
119.073925084
 20
192.229323058
 30
0.0
 11
84.7091360789
 21
208.4175840736
 31
0.0
  0
ARC
  5
A6
330
1F
100
AcDbEntity
  8
0
  6
Continuous
 62
     7
370
    25
100
AcDbCircle
 10
76.3912658276
 20
124.1154690835
 30
0.0
 40
1.614666738365768
100
AcDbArc
 50
96.7115226566
 51
177.9270729378
  0
ARC
  5
A7
330
1F
100
AcDbEntity
  8
0
  6
Continuous
 62
     7
370
    25
100
AcDbCircle
 10
75.8153325063
 20
125.4506383031
 30
0.0
 40
0.4711691059000326
100
AcDbArc
 50
355.1234324975
 51
34.7304087508
  0
SPLINE
  5
A8
330
1F
100
AcDbEntity
  8
0
  6
Continuous
 62
     7
370
    25
100
AcDbSpline
210
0.0
220
0.0
230
1.0
 70
     8
 71
     3
 72
    13
 73
     9
 74
     0
 42
0.00000001
 43
0.00000001
 40
0.0
 40
0.0
 40
0.0
 40
0.0
 40
0.2396832910637715
 40
0.3697720286455055
 40
0.4999999403308915
 40
0.6300887375505757
 40
0.7603167089362249
 40
1.0
 40
1.0
 40
1.0
 40
1.0
 10
76.28479604889844
 20
125.4105844829764
 30
0.0
 10
76.13822235292103
 20
125.3808011553708
 30
0.0
 10
75.91209539735777
 20
125.3348528482542
 30
0.0
 10
75.63892758953524
 20
125.1630051962514
 30
0.0
 10
75.45145510116882
 20
124.993968309416
 30
0.0
 10
75.29763070411933
 20
124.7929228126205
 30
0.0
 10
75.14684555920704
 20
124.5050703395052
 30
0.0
 10
75.11682709333854
 20
124.2731760040767
 30
0.0
 10
75.09737668611275
 20
124.122920515432
 30
0.0
  0
ARC
  5
A9
330
1F
100
AcDbEntity
  8
0
  6
Continuous
 62
     7
370
    25
100
AcDbCircle
 10
75.021312359
 20
124.6741979225
 30
0.0
 40
0.5565002798297894
100
AcDbArc
 50
244.0340210651
 51
277.855971621
  0
LINE
  5
AA
330
1F
100
AcDbEntity
  8
0
  6
Continuous
 62
     7
370
    25
100
AcDbLine
 10
76.0125765984
 20
124.4288519634
 30
0.0
 11
123.0652245306
 21
128.9469696189
 31
0.0
  0
ARC
  5
AB
330
1F
100
AcDbEntity
  8
0
  6
Continuous
 62
     7
370
    25
100
AcDbCircle
 10
76.0439618468
 20
124.1616888302
 30
0.0
 40
0.2690003225703547
100
AcDbArc
 50
96.7001677992
 51
178.8383085008
  0
LINE
  5
AC
330
1F
100
AcDbEntity
  8
0
  6
Continuous
 62
     7
370
    25
100
AcDbLine
 10
75.6372241222
 20
109.8200118204
 30
0.0
 11
75.7750168139
 21
124.16714253
 31
0.0
  0
LINE
  5
AD
330
1F
100
AcDbEntity
  8
0
  6
Continuous
 62
     7
370
    25
100
AcDbLine
 10
74.7126331412
 20
109.7312301892
 30
0.0
 11
75.6372241222
 21
109.8200118204
 31
0.0
  0
LINE
  5
AE
330
1F
100
AcDbEntity
  8
0
  6
Continuous
 62
     7
370
    25
100
AcDbLine
 10
75.0973766861
 20
124.1229205154
 30
0.0
 11
74.7126331412
 21
109.7312301892
 31
0.0
  0
LINE
  5
AF
330
1F
100
AcDbEntity
  8
0
  6
Continuous
 62
     7
370
    25
100
AcDbLine
 10
76.2847960489
 20
125.410584483
 30
0.0
 11
123.07441071
 21
129.9034449995
 31
0.0
  0
LINE
  5
B0
330
1F
100
AcDbEntity
  8
0
  6
Continuous
 62
     7
370
    25
100
AcDbLine
 10
123.07441071
 20
129.9034449995
 30
0.0
 11
123.0652245306
 21
128.9469696189
 31
0.0
  0
LINE
  5
B1
330
1F
100
AcDbEntity
  8
0
  6
Continuous
 62
     7
370
    25
100
AcDbLine
 10
64.8026878495
 20
132.3592331953
 30
0.0
 11
74.7776557323
 21
124.1738740177
 31
0.0
  0
ARC
  5
B2
330
1F
100
AcDbEntity
  8
0
  6
Continuous
 62
     7
370
    25
100
AcDbCircle
 10
66.4162979448
 20
132.3008282611
 30
0.0
 40
1.614666738365635
100
AcDbArc
 50
96.7115226566
 51
177.9270729378
  0
LINE
  5
B3
330
1F
100
AcDbEntity
  8
0
  6
Continuous
 62
     7
370
    25
100
AcDbLine
 10
66.2275910848
 20
133.9044299563
 30
0.0
 11
76.2025589676
 21
125.7190707788
 31
0.0
  0
LINE
  5
B4
330
1F
100
AcDbEntity
  8
0
  6
Continuous
 62
     7
370
    25
100
AcDbLine
 10
74.3929121874
 20
109.7821836915
 30
0.0
 11
74.7776557323
 21
124.1738740177
 31
0.0
  0
ARC
  5
B5
330
1F
100
AcDbEntity
  8
0
  6
Continuous
 62
     7
370
    25
100
AcDbCircle
 10
74.6365688141
 20
110.2825075963
 30
0.0
 40
0.5565002798291373
100
AcDbArc
 50
244.0340210652
 51
277.8559716211
  0
LINE
  5
B6
330
1F
100
AcDbEntity
  8
0
  6
Continuous
 62
     7
370
    25
100
AcDbLine
 10
76.2025589676
 20
125.7190707788
 30
0.0
 11
122.9921736288
 21
130.2119312954
 31
0.0
  0
ARC
  5
B7
330
1F
100
AcDbEntity
  8
0
  6
Continuous
 62
     7
370
    25
100
AcDbCircle
 10
122.6049471674
 20
129.9434988197
 30
0.0
 40
0.471169105900668
100
AcDbArc
 50
355.1234324976
 51
34.7304087508
  0
LINE
  5
B8
330
1F
100
AcDbEntity
  8
0
  6
Continuous
 62
     7
370
    25
100
AcDbLine
 10
64.8026878495
 20
132.3592331953
 30
0.0
 11
64.4179443046
 21
117.967542869
 31
0.0
  0
SPLINE
  5
B9
330
1F
100
AcDbEntity
  8
0
  6
Continuous
 62
     7
370
    25
100
AcDbSpline
210
0.0
220
0.0
230
1.0
 70
     8
 71
     3
 72
    13
 73
     9
 74
     0
 42
0.00000001
 43
0.00000001
 40
0.0
 40
0.0
 40
0.0
 40
0.0
 40
0.2394259924026154
 40
0.3695846593149659
 40
0.4999752278747435
 40
0.6301417045486257
 40
0.7605400971976229
 40
1.0
 40
1.0
 40
1.0
 40
1.0
 10
74.12010206909117
 20
109.2717465474308
 30
0.0
 10
74.15225149664916
 20
109.2552274700553
 30
0.0
 10
74.20187825234078
 20
109.2297281601318
 30
0.0
 10
74.26337107368646
 20
109.2706796453584
 30
0.0
 10
74.30619648653408
 20
109.3303939404219
 30
0.0
 10
74.34203914773988
 20
109.4178444341449
 30
0.0
 10
74.37809816446568
 20
109.5593757233777
 30
0.0
 10
74.3870903286508
 20
109.694620945885
 30
0.0
 10
74.39291218742275
 20
109.7821836914944
 30
0.0
  0
LINE
  5
BA
330
1F
100
AcDbEntity
  8
0
  6
Continuous
 62
     7
370
    25
100
AcDbLine
 10
64.652335943
 20
117.040901021
 30
0.0
 11
74.1201020691
 21
109.2717465474
 31
0.0
  0
SPLINE
  5
BB
330
1F
100
AcDbEntity
  8
0
  6
Continuous
 62
     7
370
    25
100
AcDbSpline
210
0.0
220
0.0
230
1.0
 70
     8
 71
     3
 72
    13
 73
     9
 74
     0
 42
0.00000001
 43
0.00000001
 40
0.0
 40
0.0
 40
0.0
 40
0.0
 40
0.2394599028268714
 40
0.3696300083677745
 40
0.5000245666300004
 40
0.6301870679524907
 40
0.7605740075726591
 40
1.0
 40
1.0
 40
1.0
 40
1.0
 10
64.41794430460565
 20
117.9675428690435
 30
0.0
 10
64.41893459469614
 20
117.8743896707634
 30
0.0
 10
64.42046320524891
 20
117.7305985096826
 30
0.0
 10
64.44755650712558
 20
117.5372353082111
 30
0.0
 10
64.47726023110792
 20
117.3960441523719
 30
0.0
 10
64.51513672546194
 20
117.2700316144251
 30
0.0
 10
64.5718425909666
 20
117.1320513781111
 30
0.0
 10
64.62070270370748
 20
117.0767223775291
 30
0.0
 10
64.6523359430275
 20
117.0409010210368
 30
0.0
  0
LINE
  5
BC
330
1F
100
AcDbEntity
  8
0
  6
Continuous
 62
     7
370
    25
100
AcDbLine
 10
123.4443624694
 20
130.4878054122
 30
0.0
 11
113.9765963433
 21
138.2569598858
 31
0.0
  0
SPLINE
  5
BD
330
1F
100
AcDbEntity
  8
0
  6
Continuous
 62
     7
370
    25
100
AcDbSpline
210
0.0
220
0.0
230
1.0
 70
     8
 71
     3
 72
    13
 73
     9
 74
     0
 42
0.00000001
 43
0.00000001
 40
0.0
 40
0.0
 40
0.0
 40
0.0
 40
0.23944294786128
 40
0.3696073166373069
 40
0.4999998972369518
 40
0.6301643686854234
 40
0.7605570521388034
 40
1.0
 40
1.0
 40
1.0
 40
1.0
 10
122.9921736287847
 20
130.2119312953639
 30
0.0
 10
123.0775232149819
 20
130.2232487769984
 30
0.0
 10
123.2092699705752
 20
130.2407185920647
 30
0.0
 10
123.3421845780728
 20
130.282419012478
 30
0.0
 10
123.4217052562169
 20
130.3200828023554
 30
0.0
 10
123.4725902502653
 20
130.3619633588476
 30
0.0
 10
123.501388528121
 20
130.4188990653576
 30
0.0
 10
123.4667733797265
 20
130.4607256175213
 30
0.0
 10
123.444362469391
 20
130.4878054121678
 30
0.0
  0
SPLINE
  5
BE
330
1F
100
AcDbEntity
  8
0
  6
Continuous
 62
     7
370
    25
100
AcDbSpline
210
0.0
220
0.0
230
1.0
 70
     8
 71
     3
 72
    13
 73
     9
 74
     0
 42
0.00000001
 43
0.00000001
 40
0.0
 40
0.0
 40
0.0
 40
0.0
 40
0.239442947861199
 40
0.3696073166343406
 40
0.4999998972369404
 40
0.6301643686846636
 40
0.7605570521388965
 40
1.0
 40
1.0
 40
1.0
 40
1.0
 10
113.9765963433271
 20
138.2569598857737
 30
0.0
 10
113.9352259446855
 20
138.2822192902448
 30
0.0
 10
113.871366047509
 20
138.3212100426963
 30
0.0
 10
113.7244021147035
 20
138.3612716925386
 30
0.0
 10
113.5928852710064
 20
138.3856229706647
 30
0.0
 10
113.4477748827331
 20
138.4017408673135
 30
0.0
 10
113.2517168517258
 20
138.4118639047752
 30
0.0
 10
113.1093672503896
 20
138.4030177471104
 30
0.0
 10
113.0172057459678
 20
138.3972904729131
 30
0.0
  0
LINE
  5
BF
330
1F
100
AcDbEntity
  8
0
  6
Continuous
 62
     7
370
    25
100
AcDbLine
 10
122.0227545047
 20
113.7059007602
 30
0.0
 11
122.1683055991
 21
128.8608451299
 31
0.0
  0
LINE
  5
C0
330
1F
100
AcDbEntity
  8
0
  6
Continuous
 62
     7
370
    25
100
AcDbLine
 10
75.540256254
 20
109.2425303603
 30
0.0
 11
122.0227545047
 21
113.7059007602
 31
0.0
  0
LWPOLYLINE
  5
C1
330
1F
100
AcDbEntity
  8
0
  6
Continuous
 62
     7
370
    25
100
AcDbPolyline
 90
       23
 70
   128
 43
0.0
 10
83.9574185037
 20
114.9720736696
 10
84.581337302
 20
115.1229483467
 10
85.1564588025
 20
115.4436967301
 10
85.6361900815
 20
115.9083336934
 10
85.981666164
 20
116.4792171131
 10
86.1648986323
 20
117.1100974096
 10
86.1710430817
 20
117.7498644134
 10
85.9996017252
 20
118.3466880067
 10
85.6644637221
 20
118.8522170913
 10
85.1927799603
 20
119.2254967074
 10
84.6227634528
 20
119.4362859604
 10
84.0005935471
 20
119.4675079586
 10
83.3766747488
 20
119.3166332815
 10
82.8015532484
 20
118.995884898
 10
82.3218219693
 20
118.5312479348
 10
81.9763458868
 20
117.9603645151
 10
81.7931134185
 20
117.3294842186
 10
81.7869689692
 20
116.6897172148
 10
81.9584103256
 20
116.0928936215
 10
82.2935483287
 20
115.5873645369
 10
82.7652320906
 20
115.2140849208
 10
83.3352485981
 20
115.0032956678
 10
83.9574185037
 20
114.9720736696
  0
LWPOLYLINE
  5
C2
330
1F
100
AcDbEntity
  8
0
  6
Continuous
 62
     7
370
    25
100
AcDbPolyline
 90
       23
 70
   128
 43
0.0
 10
112.189007263
 20
117.6829442629
 10
112.8129260613
 20
117.83381894
 10
113.3880475618
 20
118.1545673234
 10
113.8677788408
 20
118.6192042867
 10
114.2132549233
 20
119.1900877064
 10
114.3964873916
 20
119.8209680029
 10
114.402631841
 20
120.4607350067
 10
114.2311904845
 20
121.0575586
 10
113.8960524815
 20
121.5630876846
 10
113.4243687196
 20
121.9363673007
 10
112.8543522121
 20
122.1471565537
 10
112.2321823064
 20
122.1783785519
 10
111.6082635081
 20
122.0275038748
 10
111.0331420077
 20
121.7067554913
 10
110.5534107286
 20
121.2421185281
 10
110.2079346462
 20
120.6712351084
 10
110.0247021778
 20
120.0403548119
 10
110.0185577285
 20
119.4005878081
 10
110.1899990849
 20
118.8037642148
 10
110.525137088
 20
118.2982351302
 10
110.9968208499
 20
117.9249555141
 10
111.5668373574
 20
117.7141662611
 10
112.189007263
 20
117.6829442629
  0
LWPOLYLINE
  5
C3
330
1F
100
AcDbEntity
  8
0
  6
Continuous
 62
     7
370
    25
100
AcDbPolyline
 90
        3
 70
   128
 43
0.0
 10
74.2462142543
 20
109.0669422472
 10
74.2214055446
 20
109.0795408524
 10
74.1969597983
 20
109.0966877281
  0
LWPOLYLINE
  5
C4
330
1F
100
AcDbEntity
  8
0
  6
Continuous
 62
     7
370
    25
100
AcDbPolyline
 90
        8
 70
   128
 43
0.0
 10
75.3946725765
 20
109.1020601555
 10
75.4200011673
 20
109.107630499
 10
75.4793090541
 20
109.1480474462
 10
75.531691209
 20
109.2249506163
 10
75.5751346152
 20
109.3353846637
 10
75.607969767
 20
109.4751056698
 10
75.6289348278
 20
109.6387442348
 10
75.6372241222
 20
109.8200118204
  0
LWPOLYLINE
  5
C5
330
1F
100
AcDbEntity
  8
0
  6
Continuous
 62
     7
370
    25
100
AcDbPolyline
 90
       17
 70
   128
 43
0.0
 10
83.5544568055
 20
116.4836565191
 10
83.9603845171
 20
116.6044674887
 10
84.306086741
 20
116.8707026279
 10
84.5389334473
 20
117.2418300501
 10
84.6234758359
 20
117.6613489696
 10
84.5468430944
 20
118.0653914338
 10
84.320701863
 20
118.3924456402
 10
83.9794800943
 20
118.5927205506
 10
83.5751257093
 20
118.6357261255
 10
83.1691979977
 20
118.5149151559
 10
82.8234957738
 20
118.2486800167
 10
82.5906490675
 20
117.8775525945
 10
82.5061066789
 20
117.4580336751
 10
82.5827394205
 20
117.0539912108
 10
82.8088806518
 20
116.7269370044
 10
83.1501024206
 20
116.526662094
 10
83.5544568055
 20
116.4836565191
  0
ELLIPSE
  5
C6
330
1F
100
AcDbEntity
  8
0
  6
Continuous
 62
     7
370
    25
100
AcDbEllipse
 10
83.5120716968
 20
117.602952468
 30
0.0
 11
0.6862277804222146
 21
0.8915947524469914
 31
0.0
210
0.0
220
0.0
230
1.0
 40
0.9041944122
 41
3.113377379572726
 42
3.843301614969331
  0
ELLIPSE
  5
C7
330
1F
100
AcDbEntity
  8
0
  6
Continuous
 62
     7
370
    25
100
AcDbEllipse
 10
83.5120716968
 20
117.602952468
 30
0.0
 11
0.6862277804222146
 21
0.8915947524469914
 31
0.0
210
0.0
220
0.0
230
1.0
 40
0.9041944122
 41
3.843301614969318
 42
6.254970033162563
  0
LWPOLYLINE
  5
C8
330
1F
100
AcDbEntity
  8
0
  6
Continuous
 62
     7
370
    25
100
AcDbPolyline
 90
       17
 70
   128
 43
0.0
 10
111.7860455649
 20
119.1945271124
 10
112.1919732764
 20
119.315338082
 10
112.5376755003
 20
119.5815732212
 10
112.7705222066
 20
119.9527006434
 10
112.8550645952
 20
120.3722195629
 10
112.7784318537
 20
120.7762620271
 10
112.5522906223
 20
121.1033162335
 10
112.2110688536
 20
121.3035911439
 10
111.8067144686
 20
121.3465967188
 10
111.400786757
 20
121.2257857492
 10
111.0550845332
 20
120.95955061
 10
110.8222378268
 20
120.5884231878
 10
110.7376954383
 20
120.1689042684
 10
110.8143281798
 20
119.7648618042
 10
111.0404694111
 20
119.4378075977
 10
111.3816911799
 20
119.2375326873
 10
111.7860455649
 20
119.1945271124
  0
ARC
  5
C9
330
1F
100
AcDbEntity
  8
0
  6
Continuous
 62
     7
370
    25
100
AcDbCircle
 10
123.4673091013
 20
130.2767481437
 30
0.0
 40
0.2123010091393588
100
AcDbArc
 50
51.0903925894
 51
96.2049569564
  0
LWPOLYLINE
  5
CA
330
1F
100
AcDbEntity
  8
0
  6
Continuous
 62
     7
370
    25
100
AcDbPolyline
 90
        8
 70
   128
 43
0.0
 10
123.0652245306
 20
128.9469696189
 10
123.2423176956
 20
128.9699299439
 10
123.3996109503
 20
129.0026709254
 10
123.531059603
 20
129.0439343459
 10
123.6316121557
 20
129.0921344752
 10
123.6974044302
 20
129.1454190093
 10
123.7259080664
 20
129.2017402536
 10
123.727043909
 20
129.2148356659
  0
ELLIPSE
  5
CB
330
1F
100
AcDbEntity
  8
0
  6
Continuous
 62
     7
370
    25
100
AcDbEllipse
 10
111.7436604561
 20
120.3138230613
 30
0.0
 11
0.6862277804222289
 21
0.8915947524469773
 31
0.0
210
0.0
220
0.0
230
1.0
 40
0.9041944122
 41
3.113377379572754
 42
3.843301614969343
  0
ELLIPSE
  5
CC
330
1F
100
AcDbEntity
  8
0
  6
Continuous
 62
     7
370
    25
100
AcDbEllipse
 10
111.7436604561
 20
120.3138230613
 30
0.0
 11
0.6862277804222289
 21
0.8915947524469773
 31
0.0
210
0.0
220
0.0
230
1.0
 40
0.9041944122
 41
3.84330161496933
 42
6.254970033162564
  0
ARC
  5
CD
330
1F
100
AcDbEntity
  8
0
  6
Continuous
 62
     7
370
    25
100
AcDbCircle
 10
113.9995429753
 20
138.0459026173
 30
0.0
 40
0.2123010091393817
100
AcDbArc
 50
51.0903925894
 51
96.2049569564
  0
LINE
  5
CE
330
1F
100
AcDbEntity
  8
0
  6
Continuous
 62
     7
370
    25
100
AcDbLine
 10
112.064512859
 20
120.8855663732
 30
0.0
 11
112.0638743463
 21
121.3390134744
 31
0.0
  0
LINE
  5
CF
330
1F
100
AcDbEntity
  8
0
  6
Continuous
 62
     7
370
    25
100
AcDbLine
 10
112.064512859
 20
120.8855663732
 30
0.0
 11
112.7944456738
 21
120.286590784
 31
0.0
  0
LINE
  5
D0
330
1F
100
AcDbEntity
  8
0
  6
Continuous
 62
     7
370
    25
100
AcDbLine
 10
82.6849758259
 20
118.0644668004
 30
0.0
 11
84.4305587509
 21
118.2320822137
 31
0.0
  0
LINE
  5
D1
330
1F
100
AcDbEntity
  8
0
  6
Continuous
 62
     7
370
    25
100
AcDbLine
 10
110.9165645853
 20
120.7753373937
 30
0.0
 11
112.064512859
 21
120.8855663732
 31
0.0
  0
LWPOLYLINE
  5
D2
330
1F
100
AcDbEntity
  8
0
  6
Continuous
 62
     7
370
    25
100
AcDbPolyline
 90
        3
 70
   128
 43
0.0
 10
66.2275910848
 20
133.9044299563
 10
66.211055265
 20
133.9133682731
 10
66.2013988003
 20
133.9141664781
  0
LWPOLYLINE
  5
D3
330
1F
100
AcDbEntity
  8
0
  6
Continuous
 62
     7
370
    25
100
AcDbPolyline
 90
        3
 70
   128
 43
0.0
 10
64.7879644658
 20
132.3843281888
 10
64.7907152157
 20
132.3731199324
 10
64.8026878495
 20
132.3592331953
  0
LWPOLYLINE
  5
D4
330
1F
100
AcDbEntity
  8
0
  6
Continuous
 62
     7
370
    25
100
AcDbPolyline
 90
        3
 70
   128
 43
0.0
 10
113.017205746
 20
138.3972904729
 10
113.0006699262
 20
138.4062287896
 10
112.9910134614
 20
138.4070269946
  0
SPLINE
  5
D5
330
1F
100
AcDbEntity
  8
0
  6
Continuous
 62
     7
370
    25
100
AcDbSpline
210
0.0
220
0.0
230
1.0
 70
    11
 71
     3
 72
    39
 73
    35
 74
     0
 42
0.00000001
 43
0.00000001
 40
0.0
 40
0.0
 40
0.0
 40
0.0
 40
0.029129008105451
 40
0.0600028324322984
 40
0.0921602034406938
 40
0.125
 40
0.1578397965593062
 40
0.1899971675677016
 40
0.2208709918945491
 40
0.2500000000000001
 40
0.2791290081054509
 40
0.3100028324322984
 40
0.3421602034406938
 40
0.3749999999999999
 40
0.4078397965593061
 40
0.4399971675677017
 40
0.4708709918945491
 40
0.5
 40
0.5291290081054509
 40
0.5600028324322983
 40
0.5921602034406938
 40
0.625
 40
0.6578397965593061
 40
0.6899971675677017
 40
0.7208709918945491
 40
0.7499999999999999
 40
0.7791290081054508
 40
0.8100028324322982
 40
0.8421602034406936
 40
0.875
 40
0.9078397965593061
 40
0.9399971675677017
 40
0.9708709918945491
 40
1.0
 40
1.0
 40
1.0
 40
1.0
 10
106.2532560352313
 20
155.2114544203765
 30
0.0
 10
106.6737310220912
 20
155.229106332458
 30
0.0
 10
107.5398672834837
 20
155.2654674992681
 30
0.0
 10
108.8216533988384
 20
154.9988618237138
 30
0.0
 10
110.051604701479
 20
154.4707926543327
 30
0.0
 10
111.1459299813536
 20
153.6648383227798
 30
0.0
 10
112.0312161785447
 20
152.6300246943468
 30
0.0
 10
112.659532745398
 20
151.4350144689434
 30
0.0
 10
113.0165620904279
 20
150.1639223669299
 30
0.0
 10
113.1220744694231
 20
148.8668793245112
 30
0.0
 10
112.9914302453975
 20
147.5471662733358
 30
0.0
 10
112.6093033967297
 20
146.2050779463428
 30
0.0
 10
111.9568522155903
 20
144.8871648697187
 30
0.0
 10
111.0500332537692
 20
143.6799627213753
 30
0.0
 10
109.9382032535787
 20
142.6633058002462
 30
0.0
 10
108.6957890825312
 20
141.8937270329869
 30
0.0
 10
107.4066492183182
 20
141.3946520706056
 30
0.0
 10
106.1182169341383
 20
141.151030673879
 30
0.0
 10
104.8320899160728
 20
141.1474361890388
 30
0.0
 10
103.5501653945769
 20
141.3996308608307
 30
0.0
 10
102.3202535692673
 20
141.9318104545005
 30
0.0
 10
101.2259173480011
 20
142.7366255560046
 30
0.0
 10
100.3406340916445
 20
143.7717453874488
 30
0.0
 10
99.71231675767179
 20
144.9666757395071
 30
0.0
 10
99.3552876099447
 20
146.2377883849126
 30
0.0
 10
99.24977516978547
 20
147.5348250588636
 30
0.0
 10
99.3804194549751
 20
148.8545444785068
 30
0.0
 10
99.76254610634
 20
150.1966122621077
 30
0.0
 10
100.4149980545989
 20
151.5146052120769
 30
0.0
 10
101.3218140755855
 20
152.7215011574091
 30
0.0
 10
102.4336550171675
 20
153.7392973085871
 30
0.0
 10
103.6760297108842
 20
154.5047656515576
 30
0.0
 10
104.9653079812383
 20
155.0182516177013
 30
0.0
 10
105.8323441694175
 20
155.148314178111
 30
0.0
 10
106.2532560352313
 20
155.2114544203765
 30
0.0
  0
ARC
  5
D6
330
1F
100
AcDbEntity
  8
0
  6
Continuous
 62
     7
370
    25
100
AcDbCircle
 10
106.7762944381
 20
149.2278426252
 30
0.0
 40
6.632060992053353
100
AcDbArc
 50
352.706952817
 51
95.9118302724
  0
ARC
  5
D7
330
1F
100
AcDbEntity
  8
0
  6
Continuous
 62
     7
370
    25
100
AcDbCircle
 10
105.3119433921
 20
147.4357011603
 30
0.0
 40
6.651809616300763
100
AcDbArc
 50
184.7983071307
 51
291.4346571219
  0
LWPOLYLINE
  5
D8
330
1F
100
AcDbEntity
  8
0
  6
Continuous
 62
     7
370
    25
100
AcDbPolyline
 90
       41
 70
   128
 43
0.0
 10
106.1193250286
 20
141.2664067227
 10
105.0528498905
 20
141.2492968151
 10
104.0142748179
 20
141.4033572974
 10
103.0291729758
 20
141.7247946892
 10
102.1218008411
 20
142.2056941352
 10
101.314500927
 20
142.8342142949
 10
100.6271516367
 20
143.5948789161
 10
100.0766777909
 20
144.4689579113
 10
99.6766338827
 20
145.4349285548
 10
99.4368703206
 20
146.4690054434
 10
99.3632908794
 20
147.5457261723
 10
99.4577073291
 20
148.6385783036
 10
99.7177948233
 20
149.7206521909
 10
100.1371491448
 20
150.765303584
 10
100.7054443983
 20
151.7468096984
 10
101.4086872688
 20
152.6410025964
 10
102.2295615827
 20
153.4258642809
 10
103.1478546902
 20
154.0820688527
 10
104.1409551673
 20
154.5934583772
 10
105.1844095844
 20
154.9474407472
 10
106.2525246306
 20
155.135299742
 10
107.3189997687
 20
155.1524096495
 10
108.3575748413
 20
154.9983491672
 10
109.3426766834
 20
154.6769117754
 10
110.2500488181
 20
154.1960123295
 10
111.0573487322
 20
153.5674921698
 10
111.7446980225
 20
152.8068275485
 10
112.2951718683
 20
151.9327485533
 10
112.6952157765
 20
150.9667779098
 10
112.9349793386
 20
149.9327010212
 10
113.0085587798
 20
148.8559802924
 10
112.9141423301
 20
147.7631281611
 10
112.6540548359
 20
146.6810542737
 10
112.2347005144
 20
145.6364028807
 10
111.6664052609
 20
144.6548967662
 10
110.9631623904
 20
143.7607038683
 10
110.1422880765
 20
142.9758421837
 10
109.223994969
 20
142.319637612
 10
108.2308944919
 20
141.8082480875
 10
107.1874400748
 20
141.4542657174
 10
106.1193250286
 20
141.2664067227
  0
SPLINE
  5
D9
330
1F
100
AcDbEntity
  8
0
  6
Continuous
 62
     7
370
    25
100
AcDbSpline
210
0.0
220
0.0
230
1.0
 70
     8
 71
     3
 72
    10
 73
     6
 74
     0
 42
0.00000001
 43
0.00000001
 40
0.0
 40
0.0
 40
0.0
 40
0.0
 40
0.0293904055451649
 40
0.6462902581999513
 40
0.9999999999999999
 40
0.9999999999999999
 40
0.9999999999999999
 40
0.9999999999999999
 10
99.88305750426879
 20
143.120520497034
 30
0.0
 10
99.86573788435467
 20
143.1325204766583
 30
0.0
 10
99.48488224733323
 20
143.3963980852154
 30
0.0
 10
99.01235917319156
 20
143.7808067443382
 30
0.0
 10
98.70267889442067
 20
144.007073061737
 30
0.0
 10
98.58982514552882
 20
144.0895290782058
 30
0.0
  0
LWPOLYLINE
  5
DA
330
1F
100
AcDbEntity
  8
0
  6
Continuous
 62
     7
370
    25
100
AcDbPolyline
 90
       17
 70
   128
 43
0.0
 10
98.5898251455
 20
144.0895290782
 10
97.8438168722
 20
144.859451517
 10
97.2301683478
 20
145.7464163736
 10
96.7624728948
 20
146.73077592
 10
96.4510907357
 20
147.7907249756
 10
96.3029194965
 20
148.9027839282
 10
96.3212414136
 20
150.0423188457
 10
96.5056506264
 20
151.1840871584
 10
96.8520621681
 20
152.302796823
 10
97.352802454
 20
153.3736665833
 10
97.9967792645
 20
154.3729749156
 10
98.7697274557
 20
155.2785854992
 10
99.6545249558
 20
156.0704375724
 10
100.6315720472
 20
156.7309903114
 10
101.6792255323
 20
157.2456113883
 10
102.7742781658
 20
157.602901101
 10
103.1538960487
 20
157.6871824915
  0
LWPOLYLINE
  5
DB
330
1F
100
AcDbEntity
  8
0
  6
Continuous
 62
     7
370
    25
100
AcDbPolyline
 90
       36
 70
   128
 43
0.0
 10
105.9640370448
 20
142.8398546949
 10
106.9310669839
 20
143.0210128956
 10
107.8687134804
 20
143.3731144807
 10
108.7468398045
 20
143.8848426154
 10
109.5372222535
 20
144.5397499365
 10
110.2144572852
 20
145.3167871837
 10
110.7567780085
 20
146.1909797407
 10
111.1467537891
 20
147.1342303393
 10
111.3718504846
 20
148.1162221293
 10
111.4248333019
 20
149.1053930864
 10
111.3039993296
 20
150.0699504422
 10
111.0132322712
 20
150.9788925297
 10
110.561877619
 20
151.8030052023
 10
109.9644422831
 20
152.5158008007
 10
109.2401283265
 20
153.0943694877
 10
108.412215796
 20
153.5201155898
 10
107.5073144814
 20
153.7793552769
 10
106.5545086555
 20
153.8637563722
 10
105.5844222815
 20
153.7706061551
 10
104.6282347338
 20
153.5028985501
 10
103.7166786668
 20
153.0692378999
 10
102.8790522425
 20
152.4835624147
 10
102.1422774635
 20
151.7646961864
 10
101.5300348773
 20
150.9357441672
 10
101.0620024644
 20
150.0233495569
 10
100.7532231718
 20
149.0568374691
 10
100.6136214198
 20
148.0672723976
 10
100.6476841237
 20
147.0864597778
 10
100.8543164801
 20
146.1459237345
 10
101.2268771552
 20
145.27589387
 10
101.7533917422
 20
144.50433366
 10
102.4169376291
 20
143.8560416844
 10
103.1961879051
 20
143.3518545808
 10
104.0660968253
 20
143.0079773375
 10
104.9987048011
 20
142.8354624521
 10
105.9640370448
 20
142.8398546949
  0
LWPOLYLINE
  5
DC
330
1F
100
AcDbEntity
  8
0
  6
Continuous
 62
     7
370
    25
100
AcDbPolyline
 90
       19
 70
   128
 43
0.0
 10
98.1722580711
 20
134.8923564164
 10
98.1967737804
 20
134.7362765307
 10
98.3813181817
 20
134.4478946086
 10
98.7408672555
 20
134.1724673446
 10
99.2635278814
 20
133.919105288
 10
99.9320115553
 20
133.6961891181
 10
100.7242062559
 20
133.5110924285
 10
101.6139078639
 20
133.3699378249
 10
102.5716869382
 20
133.2773944022
 10
103.5658621798
 20
133.2365233001
 10
104.5635483817
 20
133.2486764482
 10
105.5317442017
 20
133.313451846
 10
106.4384237769
 20
133.4287068609
 10
107.2535960713
 20
133.5906291015
 10
107.9502969153
 20
133.7938625239
 10
108.5054809237
 20
134.0316845976
 10
108.9007837878
 20
134.2962286733
 10
109.1231297277
 20
134.5787441944
 10
109.1717507828
 20
134.7867151046
  0
LINE
  5
DD
330
1F
100
AcDbEntity
  8
0
  6
Continuous
 62
     7
370
    25
100
AcDbLine
 10
98.2740534713
 20
144.0271883124
 30
0.0
 11
98.2795527335
 21
144.0247001251
 31
0.0
  0
LINE
  5
DE
330
1F
100
AcDbEntity
  8
0
  6
Continuous
 62
     7
370
    25
100
AcDbLine
 10
98.2773964089
 20
144.375258757
 30
0.0
 11
98.2740534713
 21
144.0271883124
 31
0.0
  0
LWPOLYLINE
  5
DF
330
1F
100
AcDbEntity
  8
0
  6
Continuous
 62
     7
370
    25
100
AcDbPolyline
 90
       17
 70
   128
 43
0.0
 10
102.6617602963
 20
158.0686501504
 10
102.2578574785
 20
157.9789037809
 10
101.1547599548
 20
157.6155845266
 10
100.1006904223
 20
157.0918806128
 10
99.1196073392
 20
156.41969556
 10
98.2338102194
 20
155.6143077888
 10
97.4634327757
 20
154.6940233488
 10
96.8259852912
 20
153.6797598321
 10
96.3359566193
 20
152.5945709266
 10
96.0044848598
 20
151.4631224181
 10
95.8391041951
 20
150.311131549
 10
95.8435736427
 20
149.1647824794
 10
96.0177916144
 20
148.0501311338
 10
96.3577982253
 20
146.9925129641
 10
96.8558653
 20
146.0159670872
 10
97.5006720301
 20
145.1426898886
 10
97.9712736576
 20
144.6587605502
  0
LWPOLYLINE
  5
E0
330
1F
100
AcDbEntity
  8
0
  6
Continuous
 62
     7
370
    25
100
AcDbPolyline
 90
       25
 70
   128
 43
0.0
 10
110.3397134123
 20
134.9198072257
 10
110.5491614499
 20
134.6740783557
 10
110.665307139
 20
134.3462213243
 10
110.6002110026
 20
134.0187547728
 10
110.3555589966
 20
133.7001599127
 10
109.9376874792
 20
133.3986881836
 10
109.3574191035
 20
133.122147545
 10
108.6297825154
 20
132.877700254
 10
107.7736231204
 20
132.6716773672
 10
106.8111149971
 20
132.5094147691
 10
105.7671866003
 20
132.3951149757
 10
104.6688751272
 20
132.3317382917
 10
103.544626268
 20
132.3209261399
 10
102.4235574775
 20
132.3629585493
 10
101.3347038487
 20
132.4567469026
 10
100.3062661185
 20
132.5998621307
 10
99.3648802839
 20
132.7885976245
 10
98.5349277436
 20
133.0180652337
 10
97.8379038325
 20
133.2823218677
 10
97.2918611035
 20
133.5745234187
 10
96.9109417767
 20
133.8871020199
 10
96.7050114626
 20
134.2119620496
 10
96.679403648
 20
134.5406898039
 10
96.8347815619
 20
134.8647714065
 10
97.0070671394
 20
135.0478566074
  0
LWPOLYLINE
  5
E1
330
1F
100
AcDbEntity
  8
0
  6
Continuous
 62
     7
370
    25
100
AcDbPolyline
 90
       28
 70
   128
 43
0.0
 10
109.1814541198
 20
135.7970375139
 10
109.5864575149
 20
135.5738212255
 10
109.9494555537
 20
135.2759486546
 10
110.1412210899
 20
134.9661718775
 10
110.1565232596
 20
134.6529407973
 10
109.9949446593
 20
134.3447995412
 10
109.6608927322
 20
134.0501533996
 10
109.163479544
 20
133.777039551
 10
108.5162732298
 20
133.5329078293
 10
107.7369278907
 20
133.3244175115
 10
106.846702036
 20
133.1572556698
 10
105.8698787064
 20
133.0359820437
 10
104.8331030958
 20
132.9639046615
 10
103.7646557403
 20
132.9429896062
 10
102.6936810985
 20
132.9738073862
 10
101.6493925668
 20
133.0555173726
 10
100.6602756141
 20
133.18589073
 10
99.7533107724
 20
133.3613712132
 10
98.9532376783
 20
133.5771721719
 10
98.2818802403
 20
133.8274071186
 10
97.757551339
 20
134.1052502963
 10
97.3945533002
 20
134.4031228673
 10
97.202787764
 20
134.7128996444
 10
97.1874855943
 20
135.0261307246
 10
97.3490641946
 20
135.3342719806
 10
97.6831161217
 20
135.6289181222
 10
98.1805293099
 20
135.9020319708
 10
98.1819614081
 20
135.9026788256
  0
LWPOLYLINE
  5
E2
330
1F
100
AcDbEntity
  8
0
  6
Continuous
 62
     7
370
    25
100
AcDbPolyline
 90
       22
 70
   128
 43
0.0
 10
96.6585479777
 20
133.4720489788
 10
96.6724118122
 20
133.3376385657
 10
96.8335805219
 20
133.011015143
 10
97.1715039429
 20
132.6945911288
 10
97.6774300361
 20
132.396561739
 10
98.3382555813
 20
132.1246457782
 10
99.1368655441
 20
131.885885727
 10
100.0525763459
 20
131.6864653452
 10
101.061671558
 20
131.531549516
 10
102.1380161445
 20
131.4251504781
 10
103.2537333458
 20
131.3700239105
 10
104.3799266726
 20
131.3675975625
 10
105.4874283093
 20
131.4179342752
 10
106.5475545452
 20
131.5197303541
 10
107.5328486676
 20
131.6703493343
 10
108.4177920764
 20
131.8658902634
 10
109.1794652021
 20
132.1012887339
 10
109.7981411108
 20
132.3704480492
 10
110.2577964214
 20
132.6663971243
 10
110.546526303
 20
132.9814710337
 10
110.6568528031
 20
133.3075095286
 10
110.6579023379
 20
133.3375964002
  0
LWPOLYLINE
  5
E3
330
1F
100
AcDbEntity
  8
0
  6
Continuous
 62
     7
370
    25
100
AcDbPolyline
 90
        3
 70
   128
 43
0.0
 10
119.8017438971
 20
191.7676679877
 10
119.1491436885
 20
192.1927567958
 10
119.073925084
 20
192.229323058
  0
LWPOLYLINE
  5
E4
330
1F
100
AcDbEntity
  8
0
  6
Continuous
 62
     7
370
    25
100
AcDbPolyline
 90
       33
 70
   128
 43
0.0
 10
103.0931248233
 20
158.3049362098
 10
103.3728552644
 20
158.1880285622
 10
104.1359081748
 20
158.0010131211
 10
104.9638291111
 20
157.9752067578
 10
105.8488879985
 20
158.1108504193
 10
106.7828212809
 20
158.4066776374
 10
107.7569090747
 20
158.8599263529
 10
108.7620565846
 20
159.4663647048
 10
109.7888790192
 20
160.2203305416
 10
110.8277892141
 20
161.1147842873
 10
111.8690871446
 20
162.1413746684
 10
112.9030504927
 20
163.2905166871
 10
113.920025421
 20
164.5514811139
 10
114.9105167088
 20
165.9124946638
 10
115.8652764056
 20
167.36084992
 10
116.7753901775
 20
168.8830239796
 10
117.6323605374
 20
170.4648047136
 10
118.4281861839
 20
172.0914234614
 10
119.1554367075
 20
173.7476929222
 10
119.8073219658
 20
175.4181489541
 10
120.377755482
 20
177.0871949593
 10
120.8614112719
 20
178.739247505
 10
121.2537735718
 20
180.3588818216
 10
121.5511790005
 20
181.93097582
 10
121.7508507637
 20
183.4408512819
 10
121.8509245801
 20
184.8744109072
 10
121.8504660872
 20
186.2182699357
 10
121.7494795659
 20
187.4598811179
 10
121.5489079003
 20
188.5876518646
 10
121.2506237738
 20
189.5910524842
 10
120.857412185
 20
190.4607144956
 10
120.3729444445
 20
191.1885180988
 10
119.8017438971
 20
191.7676679877
  0
ARC
  5
E5
330
1F
100
AcDbEntity
  8
0
  6
Continuous
 62
     7
370
    25
100
AcDbCircle
 10
105.4383744081
 20
161.1936536803
 30
0.0
 40
3.612744821691539
100
AcDbArc
 50
244.99600344
 51
269.8159218845
  0
LINE
  5
E6
330
1F
100
AcDbEntity
  8
0
  6
Continuous
 62
     7
370
    25
100
AcDbLine
 10
111.3806626918
 20
154.776219196
 30
0.0
 11
113.608860133
 21
153.7265796429
 31
0.0
  0
SPLINE
  5
E7
330
1F
100
AcDbEntity
  8
0
  6
Continuous
 62
     7
370
    25
100
AcDbSpline
210
0.0
220
0.0
230
1.0
 70
     8
 71
     3
 72
     9
 73
     5
 74
     0
 42
0.00000001
 43
0.00000001
 40
0.0
 40
0.0
 40
0.0
 40
0.0
 40
0.7640940040455921
 40
1.0
 40
1.0
 40
1.0
 40
1.0
 10
110.6781155005223
 20
155.3014102569078
 30
0.0
 10
110.9011510288047
 20
155.1533504033432
 30
0.0
 10
111.1930464331679
 20
154.9595786255505
 30
0.0
 10
111.3448510682027
 20
154.8112182889423
 30
0.0
 10
111.3806626918211
 20
154.7762191959746
 30
0.0
  0
LINE
  5
E8
330
1F
100
AcDbEntity
  8
0
  6
Continuous
 62
     7
370
    25
100
AcDbLine
 10
109.1350169619
 20
156.0283194753
 30
0.0
 11
110.6781155005
 21
155.3014102569
 31
0.0
  0
SPLINE
  5
E9
330
1F
100
AcDbEntity
  8
0
  6
Continuous
 62
     7
370
    25
100
AcDbSpline
210
0.0
220
0.0
230
1.0
 70
     8
 71
     3
 72
     9
 73
     5
 74
     0
 42
0.00000001
 43
0.00000001
 40
0.0
 40
0.0
 40
0.0
 40
0.0
 40
0.7643143614262677
 40
0.9999999999999999
 40
0.9999999999999999
 40
0.9999999999999999
 40
0.9999999999999999
 10
107.6549649539739
 20
156.5312879506979
 30
0.0
 10
108.032417211816
 20
156.4120879172557
 30
0.0
 10
108.526261468697
 20
156.2561311022879
 30
0.0
 10
109.0189073927474
 20
156.0717705983732
 30
0.0
 10
109.135016961948
 20
156.0283194752803
 30
0.0
  0
LINE
  5
EA
330
1F
100
AcDbEntity
  8
0
  6
Continuous
 62
     7
370
    25
100
AcDbLine
 10
105.4267675128
 20
157.5809275038
 30
0.0
 11
107.654964954
 21
156.5312879507
 31
0.0
  0
LWPOLYLINE
  5
EB
330
1F
100
AcDbEntity
  8
0
  6
Continuous
 62
     7
370
    25
100
AcDbPolyline
 90
        3
 70
   128
 43
0.0
 10
131.05212125
 20
186.467939679
 10
130.3995210414
 20
186.8930284872
 10
130.3243024369
 20
186.9295947493
  0
ARC
  5
EC
330
1F
100
AcDbEntity
  8
0
  6
Continuous
 62
     7
370
    25
100
AcDbCircle
 10
116.1045719597
 20
157.6638239741
 30
0.0
 40
4.980368510247178
100
AcDbArc
 50
249.2921928392
 51
300.0827999473
  0
ARC
  5
ED
330
1F
100
AcDbEntity
  8
0
  6
Continuous
 62
     7
370
    25
100
AcDbCircle
 10
127.2412614069
 20
182.3149612453
 30
0.0
 40
5.636477855457899
100
AcDbArc
 50
11.1041110294
 51
47.45985738
  0
LWPOLYLINE
  5
EE
330
1F
100
AcDbEntity
  8
0
  6
Continuous
 62
     7
370
    25
100
AcDbPolyline
 90
       24
 70
   128
 43
0.0
 10
132.8685098127
 20
182.9958907658
 10
132.8795159565
 20
182.9479048761
 10
133.0735369808
 20
181.8094196162
 10
133.1660994029
 20
180.5559612598
 10
133.1563117962
 20
179.199601296
 10
133.0442684205
 20
177.7534022127
 10
132.8310483149
 20
176.2312916976
 10
132.5187049055
 20
174.6479285072
 10
132.1102462301
 20
173.0185612944
 10
131.6096059691
 20
171.3588817563
 10
131.0216055618
 20
169.684873514
 10
130.3519077736
 20
168.0126581821
 10
129.6069621603
 20
166.3583401083
 10
128.7939429553
 20
164.7378512801
 10
127.9206799781
 20
163.1667978905
 10
126.9955832285
 20
161.6603100428
 10
126.0275618939
 20
160.2328960383
 10
125.025938549
 20
158.8983026541
 10
124.000359374
 20
157.6693827543
 10
122.9607012571
 20
156.5579715092
 10
121.9169766743
 20
155.5747724166
 10
120.8792372638
 20
154.7292542212
 10
119.8574770235
 20
154.0295597256
 10
119.077829712
 20
153.5893615011
  0
LINE
  5
EF
330
1F
100
AcDbEntity
  8
0
  6
Continuous
 62
     7
370
    25
100
AcDbLine
 10
111.9833506344
 20
153.2932229277
 30
0.0
 11
112.986779204
 21
152.5491980819
 31
0.0
  0
LWPOLYLINE
  5
F0
330
1F
100
AcDbEntity
  8
0
  6
Continuous
 62
     7
370
    25
100
AcDbPolyline
 90
        3
 70
   128
 43
0.0
 10
109.6296932416
 20
155.6617887536
 10
109.612689319
 20
155.687303299
 10
109.4935626145
 20
155.8594189589
  0
LINE
  5
F1
330
1F
100
AcDbEntity
  8
0
  6
Continuous
 62
     7
370
    25
100
AcDbLine
 10
102.0183725955
 20
158.4695493417
 30
0.0
 11
104.8046865837
 21
156.4035459428
 31
0.0
  0
ARC
  5
F2
330
1F
100
AcDbEntity
  8
0
  6
Continuous
 62
     7
370
    25
100
AcDbCircle
 10
106.5713059012
 20
148.8480484171
 30
0.0
 40
7.759283902064431
100
AcDbArc
 50
81.971846522
 51
103.1604125118
  0
ARC
  5
F3
330
1F
100
AcDbEntity
  8
0
  6
Continuous
 62
     7
370
    25
100
AcDbCircle
 10
106.6763760249
 20
149.6908389682
 30
0.0
 40
6.927582919387271
100
AcDbArc
 50
24.3686163829
 51
47.2292927099
  0
LINE
  5
F4
330
1F
100
AcDbEntity
  8
0
  6
Continuous
 62
     7
370
    25
100
AcDbLine
 10
105.4267675128
 20
157.5809275038
 30
0.0
 11
104.8046865837
 21
156.4035459428
 31
0.0
  0
LINE
  5
F5
330
1F
100
AcDbEntity
  8
0
  6
Continuous
 62
     7
370
    25
100
AcDbLine
 10
102.0183725955
 20
158.4695493417
 30
0.0
 11
101.8708815449
 21
158.1904003833
 31
0.0
  0
LINE
  5
F6
330
1F
100
AcDbEntity
  8
0
  6
Continuous
 62
     7
370
    25
100
AcDbLine
 10
101.8708815449
 20
158.1904003833
 30
0.0
 11
100.1802090224
 21
159.5777493965
 31
0.0
  0
LINE
  5
F7
330
1F
100
AcDbEntity
  8
0
  6
Continuous
 62
     7
370
    25
100
AcDbLine
 10
100.1802090224
 20
159.5777493965
 30
0.0
 11
100.2222518123
 21
159.6573216889
 31
0.0
  0
LINE
  5
F8
330
1F
100
AcDbEntity
  8
0
  6
Continuous
 62
     7
370
    25
100
AcDbLine
 10
112.986779204
 20
152.5491980819
 30
0.0
 11
113.608860133
 21
153.7265796429
 31
0.0
  0
ARC
  5
F9
330
1F
100
AcDbEntity
  8
0
  6
Continuous
 62
     7
370
    25
100
AcDbCircle
 10
104.3271085618
 20
149.7261737171
 30
0.0
 40
8.610773659334471
100
AcDbArc
 50
134.1260021007
 51
143.122876312
  0
LINE
  5
FA
330
1F
100
AcDbEntity
  8
0
  6
Continuous
 62
     7
370
    25
100
AcDbLine
 10
98.3124896732
 20
155.7855820358
 30
0.0
 11
98.3319553351
 21
155.9070766285
 31
0.0
  0
SPLINE
  5
FB
330
1F
100
AcDbEntity
  8
0
  6
Continuous
 62
     7
370
    25
100
AcDbSpline
210
0.0
220
0.0
230
1.0
 70
     8
 71
     3
 72
     9
 73
     5
 74
     0
 42
0.00000001
 43
0.00000001
 40
0.0
 40
0.0
 40
0.0
 40
0.0
 40
0.9874164700850051
 40
1.0
 40
1.0
 40
1.0
 40
1.0
 10
97.43914127442673
 20
154.8935066519861
 30
0.0
 10
97.52044644600696
 20
154.9204951470547
 30
0.0
 10
97.60278776200019
 20
154.9478275806186
 30
0.0
 10
97.68668064611214
 20
154.9718261905508
 30
0.0
 10
97.68773631472901
 20
154.9721281777768
 30
0.0
  0
ARC
  5
FC
330
1F
100
AcDbEntity
  8
0
  6
Continuous
 62
     7
370
    25
100
AcDbCircle
 10
104.2539111042
 20
149.8038127633
 30
0.0
 40
8.50408078161447
100
AcDbArc
 50
125.0641579709
 51
134.1361985936
  0
LINE
  5
FD
330
1F
100
AcDbEntity
  8
0
  6
Continuous
 62
     7
370
    25
100
AcDbLine
 10
99.3036152656
 20
156.5332032515
 30
0.0
 11
99.3683733607
 21
156.7644816174
 31
0.0
  0
SPLINE
  5
FE
330
1F
100
AcDbEntity
  8
0
  6
Continuous
 62
     7
370
    25
100
AcDbSpline
210
0.0
220
0.0
230
1.0
 70
     8
 71
     3
 72
     9
 73
     5
 74
     0
 42
0.00000001
 43
0.00000001
 40
0.0
 40
0.0
 40
0.0
 40
0.0
 40
0.6930890596205621
 40
1.0
 40
1.0
 40
1.0
 40
1.0
 10
98.33195533505581
 20
155.9070766284615
 30
0.0
 10
98.42138618795028
 20
155.9256767639146
 30
0.0
 10
98.5504184553813
 20
155.9525133373606
 30
0.0
 10
98.6808602739266
 20
155.9742808982998
 30
0.0
 10
98.72089429512116
 20
155.9809616008974
 30
0.0
  0
LINE
  5
FF
330
1F
100
AcDbEntity
  8
0
  6
Continuous
 62
     7
370
    25
100
AcDbLine
 10
97.4391412744
 20
154.893506652
 30
0.0
 11
97.4676394721
 21
154.87258044
 31
0.0
  0
ARC
  5
100
330
1F
100
AcDbEntity
  8
0
  6
Continuous
 62
     7
370
    25
100
AcDbCircle
 10
104.2931072569
 20
149.7497508781
 30
0.0
 40
8.569426652354919
100
AcDbArc
 50
143.1125512244
 51
152.1383696214
  0
LINE
  5
101
330
1F
100
AcDbEntity
  8
0
  6
Continuous
 62
     7
370
    25
100
AcDbLine
 10
97.4312467391
 20
154.7272034861
 30
0.0
 11
97.4391412744
 21
154.893506652
 31
0.0
  0
SPLINE
  5
102
330
1F
100
AcDbEntity
  8
0
  6
Continuous
 62
     7
370
    25
100
AcDbSpline
210
0.0
220
0.0
230
1.0
 70
     8
 71
     3
 72
     9
 73
     5
 74
     0
 42
0.00000001
 43
0.00000001
 40
0.0
 40
0.0
 40
0.0
 40
0.0
 40
0.6982440212202685
 40
0.9999999999999999
 40
0.9999999999999999
 40
0.9999999999999999
 40
0.9999999999999999
 10
96.71705888224596
 20
153.7545684988034
 30
0.0
 10
96.7891327745487
 20
153.7876144136898
 30
0.0
 10
96.89235441356364
 20
153.8349415856843
 30
0.0
 10
96.99851328046871
 20
153.8780024768931
 30
0.0
 10
97.0305473532578
 20
153.8909963582669
 30
0.0
  0
LINE
  5
103
330
1F
100
AcDbEntity
  8
0
  6
Continuous
 62
     7
370
    25
100
AcDbLine
 10
98.3319553351
 20
155.9070766285
 30
0.0
 11
98.3559254293
 21
155.8810098728
 31
0.0
  0
LINE
  5
104
330
1F
100
AcDbEntity
  8
0
  6
Continuous
 62
     7
370
    25
100
AcDbLine
 10
96.7170588822
 20
153.7545684988
 30
0.0
 11
96.74921928
 21
153.7394186629
 31
0.0
  0
LINE
  5
105
330
1F
100
AcDbEntity
  8
0
  6
Continuous
 62
     7
370
    25
100
AcDbLine
 10
99.3683733607
 20
156.7644816174
 30
0.0
 11
99.3870870323
 21
156.7340663432
 31
0.0
  0
ARC
  5
106
330
1F
100
AcDbEntity
  8
0
  6
Continuous
 62
     7
370
    25
100
AcDbCircle
 10
104.1170619891
 20
150.0011602743
 30
0.0
 40
8.263931224303807
100
AcDbArc
 50
115.8264770237
 51
125.073604936
  0
SPLINE
  5
107
330
1F
100
AcDbEntity
  8
0
  6
Continuous
 62
     7
370
    25
100
AcDbSpline
210
0.0
220
0.0
230
1.0
 70
     8
 71
     3
 72
     9
 73
     5
 74
     0
 42
0.00000001
 43
0.00000001
 40
0.0
 40
0.0
 40
0.0
 40
0.0
 40
0.2154048105933126
 40
1.0
 40
1.0
 40
1.0
 40
1.0
 10
100.4094088459793
 20
157.1741354986228
 30
0.0
 10
100.4166079861127
 20
157.1936052459054
 30
0.0
 10
100.450029431593
 20
157.283992026168
 30
0.0
 10
100.4875028501439
 20
157.3712262498162
 30
0.0
 10
100.5169043140696
 20
157.4396698020421
 30
0.0
  0
SPLINE
  5
108
330
1F
100
AcDbEntity
  8
0
  6
Continuous
 62
     7
370
    25
100
AcDbSpline
210
0.0
220
0.0
230
1.0
 70
     8
 71
     3
 72
     9
 73
     5
 74
     0
 42
0.00000001
 43
0.00000001
 40
0.0
 40
0.0
 40
0.0
 40
0.0
 40
0.904894262923303
 40
0.9999999999999999
 40
0.9999999999999999
 40
0.9999999999999999
 40
0.9999999999999999
 10
99.36837336068854
 20
156.764481617387
 30
0.0
 10
99.46410615575626
 20
156.7738280215678
 30
0.0
 10
99.5699006104127
 20
156.7841567467723
 30
0.0
 10
99.67613983510513
 20
156.7904668897219
 30
0.0
 10
99.68624379487595
 20
156.7910670205182
 30
0.0
  0
LWPOLYLINE
  5
109
330
1F
100
AcDbEntity
  8
0
  6
Continuous
 62
     7
370
    25
100
AcDbPolyline
 90
       17
 70
   128
 43
0.0
 10
98.2772091924
 20
144.3557655572
 10
97.9760963121
 20
144.5890674258
 10
97.2055248375
 20
145.3388111902
 10
96.56548771
 20
146.2096322401
 10
96.0702599581
 20
147.182108272
 10
95.7308868633
 20
148.2345497269
 10
95.5549376124
 20
149.343483542
 10
95.5463364788
 20
150.4841766806
 10
95.7052752971
 20
151.6311877636
 10
96.0282091853
 20
152.7589345005
 10
96.5079356075
 20
153.8422642617
 10
97.133755015
 20
154.8570150689
 10
97.8917094834
 20
155.7805544901
 10
98.7648940222
 20
156.5922844212
 10
99.7338336139
 20
157.2741004937
 10
100.7769175743
 20
157.8107958651
 10
101.8708815449
 20
158.1904003833
  0
ARC
  5
10A
330
1F
100
AcDbEntity
  8
0
  6
Continuous
 62
     7
370
    25
100
AcDbCircle
 10
103.8740459715
 20
150.6258425688
 30
0.0
 40
7.591625069441279
100
AcDbArc
 50
100.0583651829
 51
106.3053383443
  0
ARC
  5
10B
330
1F
100
AcDbEntity
  8
0
  6
Continuous
 62
     7
370
    25
100
AcDbCircle
 10
103.9693627149
 20
150.308840884
 30
0.0
 40
7.922637822568136
100
AcDbArc
 50
106.3232941148
 51
115.8343848002
  0
ARC
  5
10C
330
1F
100
AcDbEntity
  8
0
  6
Continuous
 62
     7
370
    25
100
AcDbCircle
 10
104.1300101092
 20
149.8343333275
 30
0.0
 40
8.385707465194356
100
AcDbArc
 50
152.1285039345
 51
161.2858024492
  0
ARC
  5
10D
330
1F
100
AcDbEntity
  8
0
  6
Continuous
 62
     7
370
    25
100
AcDbCircle
 10
103.8443795216
 20
149.9297958028
 30
0.0
 40
8.084549115805254
100
AcDbArc
 50
161.2770962331
 51
170.6606445699
  0
ARC
  5
10E
330
1F
100
AcDbEntity
  8
0
  6
Continuous
 62
     7
370
    25
100
AcDbCircle
 10
103.4706074496
 20
149.9903641242
 30
0.0
 40
7.705902511809252
100
AcDbArc
 50
170.6540205522
 51
180.3428072424
  0
ARC
  5
10F
330
1F
100
AcDbEntity
  8
0
  6
Continuous
 62
     7
370
    25
100
AcDbCircle
 10
103.0629805841
 20
149.9874939672
 30
0.0
 40
7.298265782694995
100
AcDbArc
 50
180.3394217349
 51
190.3860843716
  0
ARC
  5
110
330
1F
100
AcDbEntity
  8
0
  6
Continuous
 62
     7
370
    25
100
AcDbCircle
 10
102.8036454595
 20
149.9451391046
 30
0.0
 40
7.035545887383141
100
AcDbArc
 50
190.4275533049
 51
193.555239874
  0
LINE
  5
111
330
1F
100
AcDbEntity
  8
0
  6
Continuous
 62
     7
370
    25
100
AcDbLine
 10
96.7303298449
 20
153.5433439482
 30
0.0
 11
96.7170588822
 21
153.7545684988
 31
0.0
  0
SPLINE
  5
112
330
1F
100
AcDbEntity
  8
0
  6
Continuous
 62
     7
370
    25
100
AcDbSpline
210
0.0
220
0.0
230
1.0
 70
     8
 71
     3
 72
     9
 73
     5
 74
     0
 42
0.00000001
 43
0.00000001
 40
0.0
 40
0.0
 40
0.0
 40
0.0
 40
0.8568070399340679
 40
1.0
 40
1.0
 40
1.0
 40
1.0
 10
96.1876482666096
 20
152.5248682283675
 30
0.0
 10
96.24909247868926
 20
152.5625414556871
 30
0.0
 10
96.320805488989
 20
152.6065107808254
 30
0.0
 10
96.39545702896879
 20
152.6474643924929
 30
0.0
 10
96.40614660395198
 20
152.653328661373
 30
0.0
  0
ARC
  5
113
330
1F
100
AcDbEntity
  8
0
  6
Continuous
 62
     7
370
    25
100
AcDbCircle
 10
100.4038302248
 20
151.5344176127
 30
0.0
 40
6.909642352211522
100
AcDbArc
 50
176.4382369335
 51
229.9150566109
  0
LINE
  5
114
330
1F
100
AcDbEntity
  8
0
  6
Continuous
 62
     7
370
    25
100
AcDbLine
 10
96.1876482666
 20
152.5248682284
 30
0.0
 11
96.2224936871
 21
152.5159550886
 31
0.0
  0
LINE
  5
115
330
1F
100
AcDbEntity
  8
0
  6
Continuous
 62
     7
370
    25
100
AcDbLine
 10
100.5169043141
 20
157.439669802
 30
0.0
 11
100.5297929576
 21
157.4058301621
 31
0.0
  0
LINE
  5
116
330
1F
100
AcDbEntity
  8
0
  6
Continuous
 62
     7
370
    25
100
AcDbLine
 10
96.2317607205
 20
152.2718815015
 30
0.0
 11
96.1876482666
 21
152.5248682284
 31
0.0
  0
SPLINE
  5
117
330
1F
100
AcDbEntity
  8
0
  6
Continuous
 62
     7
370
    25
100
AcDbSpline
210
0.0
220
0.0
230
1.0
 70
     8
 71
     3
 72
     9
 73
     5
 74
     0
 42
0.00000001
 43
0.00000001
 40
0.0
 40
0.0
 40
0.0
 40
0.0
 40
0.8393687152418015
 40
1.0
 40
1.0
 40
1.0
 40
1.0
 10
95.86699530117946
 20
151.2417696611399
 30
0.0
 10
95.91713997694384
 20
151.2818763020533
 30
0.0
 10
95.97688091659744
 20
151.3296582126548
 30
0.0
 10
96.04009876948153
 20
151.3749158293867
 30
0.0
 10
96.05025353440996
 20
151.3821856185074
 30
0.0
  0
LINE
  5
118
330
1F
100
AcDbEntity
  8
0
  6
Continuous
 62
     7
370
    25
100
AcDbLine
 10
101.6669733987
 20
157.7798745119
 30
0.0
 11
101.7426506634
 21
157.9121259311
 31
0.0
  0
SPLINE
  5
119
330
1F
100
AcDbEntity
  8
0
  6
Continuous
 62
     7
370
    25
100
AcDbSpline
210
0.0
220
0.0
230
1.0
 70
     8
 71
     3
 72
     9
 73
     5
 74
     0
 42
0.00000001
 43
0.00000001
 40
0.0
 40
0.0
 40
0.0
 40
0.0
 40
0.804964604247495
 40
0.9999999999999999
 40
0.9999999999999999
 40
0.9999999999999999
 40
0.9999999999999999
 10
100.5169043140696
 20
157.4396698020421
 30
0.0
 10
100.6171650061589
 20
157.4382292985596
 30
0.0
 10
100.7417179263248
 20
157.4364397745545
 30
0.0
 10
100.8660547813727
 20
157.4301066019139
 30
0.0
 10
100.8903048691035
 20
157.4288714090815
 30
0.0
  0
LINE
  5
11A
330
1F
100
AcDbEntity
  8
0
  6
Continuous
 62
     7
370
    25
100
AcDbLine
 10
95.8669953012
 20
151.2417696611
 30
0.0
 11
95.9034669839
 21
151.2393640388
 31
0.0
  0
LINE
  5
11B
330
1F
100
AcDbEntity
  8
0
  6
Continuous
 62
     7
370
    25
100
AcDbLine
 10
101.7426506634
 20
157.9121259311
 30
0.0
 11
101.7493226639
 21
157.8758901257
 31
0.0
  0
LINE
  5
11C
330
1F
100
AcDbEntity
  8
0
  6
Continuous
 62
     7
370
    25
100
AcDbLine
 10
95.9403097475
 20
150.9894994671
 30
0.0
 11
95.8669953012
 21
151.2417696611
 31
0.0
  0
SPLINE
  5
11D
330
1F
100
AcDbEntity
  8
0
  6
Continuous
 62
     7
370
    25
100
AcDbSpline
210
0.0
220
0.0
230
1.0
 70
     8
 71
     3
 72
     9
 73
     5
 74
     0
 42
0.00000001
 43
0.00000001
 40
0.0
 40
0.0
 40
0.0
 40
0.0
 40
0.9075898034528569
 40
1.0
 40
1.0
 40
1.0
 40
1.0
 10
101.7426506633598
 20
157.9121259310954
 30
0.0
 10
101.8454765198611
 20
157.899306143347
 30
0.0
 10
101.9587720374067
 20
157.8851810532462
 30
0.0
 10
102.0712580196746
 20
157.8671159790717
 30
0.0
 10
102.0816528714047
 20
157.8654465820166
 30
0.0
  0
LINE
  5
11E
330
1F
100
AcDbEntity
  8
0
  6
Continuous
 62
     7
370
    25
100
AcDbLine
 10
95.7648428641
 20
149.9442590978
 30
0.0
 11
95.8018326354
 21
149.9484340865
 31
0.0
  0
LINE
  5
11F
330
1F
100
AcDbEntity
  8
0
  6
Continuous
 62
     7
370
    25
100
AcDbLine
 10
95.8842948053
 20
148.6717607403
 30
0.0
 11
95.8984399653
 21
148.6758929281
 31
0.0
  0
LWPOLYLINE
  5
120
330
1F
100
AcDbEntity
  8
0
  6
Continuous
 62
     7
370
    25
100
AcDbPolyline
 90
       63
 70
   128
 43
0.0
 10
79.888363264
 20
209.0584982406
 10
79.2525404337
 20
209.4677839422
 10
78.540341735
 20
209.7159686089
 10
77.7590752906
 20
209.8005055301
 10
76.9167579512
 20
209.7205272427
 10
76.0220330326
 20
209.476854432
 10
75.0840816233
 20
209.0719875108
 10
74.112528374
 20
208.5100809617
 10
73.1173427357
 20
207.7969007061
 10
72.1087366598
 20
206.9397649387
 10
71.0970598094
 20
205.9474690323
 10
70.0926933581
 20
204.8301952856
 10
69.1059434648
 20
203.5994084393
 10
68.1469355187
 20
202.2677380318
 10
67.2255102391
 20
200.8488488037
 10
66.3511226961
 20
199.3573004783
 10
65.5327452893
 20
197.8083983601
 10
64.7787756783
 20
196.2180362806
 10
64.0969506115
 20
194.602533507
 10
63.4942665369
 20
192.9784672838
 10
62.9769078085
 20
191.3625027281
 10
62.550183227
 20
189.7712218231
 10
62.2184715641
 20
188.2209532642
 10
61.9851766304
 20
186.7276049047
 10
61.8526923475
 20
185.3065005195
 10
61.8223781834
 20
183.9722225627
 10
61.8945452026
 20
182.7384625317
 10
62.0684528737
 20
181.617880474
 10
62.3423166687
 20
180.6219750778
 10
62.7133263744
 20
179.7609656803
 10
63.1776749293
 20
179.0436874029
 10
63.7305974888
 20
178.4775004915
 10
64.3664203191
 20
178.0682147898
 10
65.0786190177
 20
177.8200301231
 10
65.8598854622
 20
177.7354932019
 10
66.7022028016
 20
177.8154714894
 10
67.5969277201
 20
178.0591443001
 10
68.5348791294
 20
178.4640112212
 10
69.5064323788
 20
179.0259177704
 10
70.5016180171
 20
179.7390980259
 10
71.510224093
 20
180.5962337933
 10
72.5219009434
 20
181.5885296998
 10
73.5262673947
 20
182.7058034464
 10
74.5130172879
 20
183.9365902928
 10
75.4720252341
 20
185.2682607002
 10
76.3934505137
 20
186.6871499284
 10
77.2678380567
 20
188.1786982537
 10
78.0862154635
 20
189.7276003719
 10
78.8401850745
 20
191.3179624514
 10
79.5220101413
 20
192.933465225
 10
80.1246942159
 20
194.5575314483
 10
80.6420529443
 20
196.1734960039
 10
81.0687775258
 20
197.7647769089
 10
81.4004891886
 20
199.3150454678
 10
81.6337841224
 20
200.8083938274
 10
81.7662684053
 20
202.2294982126
 10
81.7965825693
 20
203.5637761694
 10
81.7244155502
 20
204.7975362003
 10
81.5505078791
 20
205.9181182581
 10
81.2766440841
 20
206.9140236542
 10
80.9056343783
 20
207.7750330517
 10
80.4412858235
 20
208.4923113291
 10
79.888363264
 20
209.0584982406
  0
LWPOLYLINE
  5
121
330
1F
100
AcDbEntity
  8
0
  6
Continuous
 62
     7
370
    25
100
AcDbPolyline
 90
       24
 70
   128
 43
0.0
 10
75.5388425114
 20
210.1815135374
 10
75.4863989353
 20
210.1566146245
 10
74.4904579749
 20
209.6094822691
 10
73.4686977346
 20
208.9097877735
 10
72.4309583242
 20
208.0642695782
 10
71.3872337414
 20
207.0810704856
 10
70.3475756245
 20
205.9696592404
 10
69.3219964495
 20
204.7407393406
 10
68.3203731045
 20
203.4061459565
 10
67.3523517699
 20
201.9787319519
 10
66.4272550203
 20
200.4722441042
 10
65.5539920431
 20
198.9011907147
 10
64.7409728381
 20
197.2807018864
 10
63.9960272248
 20
195.6263838126
 10
63.3263294366
 20
193.9541684807
 10
62.7383290293
 20
192.2801602384
 10
62.2376887683
 20
190.6204807003
 10
61.8292300929
 20
188.9911134875
 10
61.5168866836
 20
187.4077502971
 10
61.3036665779
 20
185.8856397821
 10
61.1916232023
 20
184.4394406987
 10
61.1818355955
 20
183.0830807349
 10
61.2743980176
 20
181.8296223785
 10
61.4104825227
 20
180.9643861441
  0
LWPOLYLINE
  5
122
330
1F
100
AcDbEntity
  8
0
  6
Continuous
 62
     7
370
    25
100
AcDbPolyline
 90
       26
 70
   128
 43
0.0
 10
66.7106258852
 20
176.8565168511
 10
67.1720315928
 20
176.990083076
 10
68.1325618175
 20
177.3793841075
 10
69.1285027779
 20
177.9265164629
 10
70.1502630182
 20
178.6262109586
 10
71.1880024286
 20
179.4717291539
 10
72.2317270114
 20
180.4549282465
 10
73.2713851283
 20
181.5663394916
 10
74.2969643033
 20
182.7952593915
 10
75.2985876483
 20
184.1298527756
 10
76.2666089829
 20
185.5572667801
 10
77.1917057325
 20
187.0637546279
 10
78.0649687097
 20
188.6348080174
 10
78.8779879146
 20
190.2552968457
 10
79.622933528
 20
191.9096149195
 10
80.2926313162
 20
193.5818302514
 10
80.8806317235
 20
195.2558384936
 10
81.3812719845
 20
196.9155180317
 10
81.7897306598
 20
198.5448852445
 10
82.1020740692
 20
200.1282484349
 10
82.3152941748
 20
201.65035895
 10
82.4273375505
 20
203.0965580333
 10
82.4371251573
 20
204.4529179971
 10
82.3445627351
 20
205.7063763536
 10
82.1505417108
 20
206.8448616135
 10
81.8603037539
 20
207.8480721256
  0
LWPOLYLINE
  5
123
330
1F
100
AcDbEntity
  8
0
  6
Continuous
 62
     7
370
    25
100
AcDbPolyline
 90
       11
 70
   128
 43
0.0
 10
68.2417368768
 20
177.0398407551
 10
67.7133290191
 20
176.811188673
 10
66.7793957368
 20
176.5153614549
 10
65.8943368493
 20
176.3797177934
 10
65.066415913
 20
176.4055241567
 10
64.3033630027
 20
176.5925395978
 10
63.6123025377
 20
176.9390180038
 10
62.9996867634
 20
177.4417243994
 10
62.4712355083
 20
178.0959651502
 10
62.0318827794
 20
178.8956317868
 10
61.7118691285
 20
179.7470246561
  0
LWPOLYLINE
  5
124
330
1F
100
AcDbEntity
  8
0
  6
Continuous
 62
     7
370
    25
100
AcDbPolyline
 90
        8
 70
   128
 43
0.0
 10
75.7741303452
 20
210.297672264
 10
75.8321511641
 20
210.3249155558
 10
76.7872770726
 20
210.6998914094
 10
77.6978364843
 20
210.9158790738
 10
78.5553277515
 20
210.9708619304
 10
79.3517447092
 20
210.8643266191
 10
80.0796514267
 20
210.5972678314
 10
80.7322516354
 20
210.1721790233
  0
LWPOLYLINE
  5
125
330
1F
100
AcDbEntity
  8
0
  6
Continuous
 62
     7
370
    25
100
AcDbPolyline
 90
       34
 70
   128
 43
0.0
 10
67.9101265562
 20
174.8786320115
 10
68.5628146693
 20
174.648139486
 10
69.3592316269
 20
174.5416041747
 10
70.2167228941
 20
174.5965870313
 10
71.1272823059
 20
174.8125746957
 10
72.0824082143
 20
175.1875505493
 10
73.0731828662
 20
175.7180135434
 10
74.0903556656
 20
176.3990108882
 10
75.1244295441
 20
177.2241842948
 10
76.1657496325
 20
178.1858293415
 10
77.2045934057
 20
179.2749674076
 10
78.2312614593
 20
180.4814295044
 10
79.2361680703
 20
181.7939512204
 10
80.2099306964
 20
183.200277894
 10
81.1434575784
 20
184.6872790319
 10
82.0280326273
 20
186.2410709052
 10
82.8553968042
 20
187.8471461777
 10
83.6178252327
 20
189.4905093574
 10
84.308199324
 20
191.1558168051
 10
84.9200732412
 20
192.8275199938
 10
85.4477340824
 20
194.4900106813
 10
85.8862552205
 20
196.1277666399
 10
86.2315423018
 20
197.7254965835
 10
86.4803714738
 20
199.2682829382
 10
86.6304194857
 20
200.7417211234
 10
86.6802853794
 20
202.1320540438
 10
86.6295035707
 20
203.4263005354
 10
86.4785481956
 20
204.6123765676
 10
86.2288286838
 20
205.679208068
 10
85.882676599
 20
206.6168343183
 10
85.4433238701
 20
207.4165009549
 10
84.914872615
 20
208.0707417057
 10
84.3022568407
 20
208.5734481013
 10
83.8909268169
 20
208.8030188597
  0
LWPOLYLINE
  5
126
330
1F
100
AcDbEntity
  8
0
  6
Continuous
 62
     7
370
    25
100
AcDbPolyline
 90
       27
 70
   128
 43
0.0
 10
81.2930132568
 20
207.7714147343
 10
81.4901211605
 20
207.277691317
 10
81.7716945087
 20
206.2811336833
 10
81.9542588971
 20
205.1602148989
 10
82.0359999188
 20
203.9260751584
 10
82.0161051948
 20
202.590979897
 10
81.8947724479
 20
201.1681978912
 10
81.6732075373
 20
199.6718693877
 10
81.3536124748
 20
198.1168655716
 10
80.9391635395
 20
196.5186407693
 10
80.4339797113
 20
194.8930788569
 10
79.8430817341
 20
193.2563353991
 10
79.1723422172
 20
191.6246770877
 10
78.4284272715
 20
190.014320076
 10
77.6187302578
 20
188.4412688155
 10
76.7512983089
 20
186.9211569963
 10
75.8347523532
 20
185.4690921727
 10
74.8782014362
 20
184.0995056172
 10
73.8911521906
 20
182.8260088964
 10
72.8834143552
 20
181.6612585927
 10
71.8650032815
 20
180.6168305181
 10
70.8460403962
 20
179.7031046678
 10
69.8366526103
 20
178.92916206
 10
68.846871673
 20
178.302694484
 10
67.8865344721
 20
177.829928056
 10
66.96518527
 20
177.5155613411
 10
66.8462769322
 20
177.4859181479
  0
LWPOLYLINE
  5
127
330
1F
100
AcDbEntity
  8
0
  6
Continuous
 62
     7
370
    25
100
AcDbPolyline
 90
       22
 70
   128
 43
0.0
 10
61.7917911047
 20
181.5262917565
 10
61.7434712075
 20
181.8004478316
 10
61.6111540218
 20
182.9794426775
 10
61.5801923852
 20
184.2656590467
 10
61.6508940083
 20
185.6463139431
 10
61.8225562267
 20
187.1076857981
 10
62.0934729841
 20
188.6352508416
 10
62.4609517881
 20
190.2138274459
 10
62.9213404692
 20
191.8277270076
 10
63.4700634779
 20
193.4609098676
 10
64.1016673583
 20
195.0971447211
 10
64.8098749474
 20
196.7201699308
 10
65.58764776
 20
198.3138551432
 10
66.4272559404
 20
199.8623615985
 10
67.3203550853
 20
201.350299544
 10
68.2580691742
 20
202.7628811838
 10
69.2310787831
 20
204.086067647
 10
70.2297137055
 20
205.306708512
 10
71.2440490588
 20
206.4126725015
 10
72.2640039225
 20
207.3929680486
 10
73.279441527
 20
208.2378525356
 10
74.0991079978
 20
208.8220100712
  0
ARC
  5
128
330
1F
100
AcDbEntity
  8
0
  6
Continuous
 62
     7
370
    25
100
AcDbCircle
 10
77.9074071085
 20
206.0982116869
 30
0.0
 40
3.769344126311607
100
AcDbArc
 50
53.1670291164
 51
106.7418258718
  0
ARC
  5
129
330
1F
100
AcDbEntity
  8
0
  6
Continuous
 62
     7
370
    25
100
AcDbCircle
 10
66.1519832554
 20
181.1713815626
 30
0.0
 40
3.71243499472391
100
AcDbArc
 50
206.0023031354
 51
293.8001917524
  0
LINE
  5
12A
330
1F
100
AcDbEntity
  8
0
  6
Continuous
 62
     7
370
    25
100
AcDbLine
 10
65.3088945532
 20
177.5966273303
 30
0.0
 11
65.3861496494
 21
177.5350811813
 31
0.0
  0
LWPOLYLINE
  5
12B
330
1F
100
AcDbEntity
  8
0
  6
Continuous
 62
     7
370
    25
100
AcDbPolyline
 90
        3
 70
   128
 43
0.0
 10
80.3721966621
 20
209.023580549
 10
80.2251837221
 20
209.0598326284
 10
80.044592351
 20
209.0949917958
  0
LINE
  5
12C
330
1F
100
AcDbEntity
  8
0
  6
Continuous
 62
     7
370
    25
100
AcDbLine
 10
65.2357174427
 20
177.6583933165
 30
0.0
 11
65.3088945532
 21
177.5966273303
 31
0.0
  0
LINE
  5
12D
330
1F
100
AcDbEntity
  8
0
  6
Continuous
 62
     7
370
    25
100
AcDbLine
 10
85.3207119728
 20
207.7359218253
 30
0.0
 11
85.0261188899
 21
207.9533207013
 31
0.0
  0
LWPOLYLINE
  5
12E
330
1F
100
AcDbEntity
  8
0
  6
Continuous
 62
     7
370
    25
100
AcDbPolyline
 90
       32
 70
   128
 43
0.0
 10
69.2881520458
 20
174.5444258577
 10
69.5024297149
 20
174.486249362
 10
70.3030305359
 20
174.3858068863
 10
71.1654181071
 20
174.4497538335
 10
72.0812871649
 20
174.6774743594
 10
73.0418173896
 20
175.066775391
 10
74.03775835
 20
175.6139077464
 10
75.0595185903
 20
176.313602242
 10
76.0972580008
 20
177.1591204374
 10
77.1409825836
 20
178.14231953
 10
78.1806407005
 20
179.2537307751
 10
79.2062198755
 20
180.482650675
 10
80.2078432204
 20
181.8172440591
 10
81.175864555
 20
183.2446580636
 10
82.1009613046
 20
184.7511459114
 10
82.9742242818
 20
186.3221993009
 10
83.7872434868
 20
187.9426881292
 10
84.5321891001
 20
189.5970062029
 10
85.2018868883
 20
191.2692215349
 10
85.7898872956
 20
192.9432297771
 10
86.2905275566
 20
194.6029093152
 10
86.698986232
 20
196.232276528
 10
87.0113296414
 20
197.8156397184
 10
87.224549747
 20
199.3377502335
 10
87.3365931227
 20
200.7839493168
 10
87.3463807294
 20
202.1403092806
 10
87.2538183073
 20
203.3937676371
 10
87.059797283
 20
204.5322528969
 10
86.766186185
 20
205.5448008248
 10
86.3758126488
 20
206.4216600307
 10
85.8924361849
 20
207.154385881
 10
85.3207119728
 20
207.7359218253
  0
LWPOLYLINE
  5
12F
330
1F
100
AcDbEntity
  8
0
  6
Continuous
 62
     7
370
    25
100
AcDbPolyline
 90
       34
 70
   128
 43
0.0
 10
103.0931248233
 20
158.3049362098
 10
103.7458129364
 20
158.0744436843
 10
104.5422298941
 20
157.967908373
 10
105.3997211612
 20
158.0228912296
 10
106.310280573
 20
158.238878894
 10
107.2654064815
 20
158.6138547476
 10
108.2561811334
 20
159.1443177417
 10
109.2733539328
 20
159.8253150865
 10
110.3074278112
 20
160.6504884931
 10
111.3487478996
 20
161.6121335398
 10
112.3875916728
 20
162.7012716059
 10
113.4142597264
 20
163.9077337027
 10
114.4191663374
 20
165.2202554188
 10
115.3929289636
 20
166.6265820923
 10
116.3264558456
 20
168.1135832302
 10
117.2110308945
 20
169.6673751035
 10
118.0383950714
 20
171.273450376
 10
118.8008234999
 20
172.9168135557
 10
119.4911975912
 20
174.5821210034
 10
120.1030715084
 20
176.2538241921
 10
120.6307323496
 20
177.9163148796
 10
121.0692534877
 20
179.5540708382
 10
121.414540569
 20
181.1518007819
 10
121.663369741
 20
182.6945871365
 10
121.8134177528
 20
184.1680253217
 10
121.8632836466
 20
185.5583582421
 10
121.8125018379
 20
186.8526047337
 10
121.6615464628
 20
188.0386807659
 10
121.411826951
 20
189.1055122663
 10
121.0656748662
 20
190.0431385166
 10
120.6263221372
 20
190.8428051532
 10
120.0978708821
 20
191.497045904
 10
119.4852551079
 20
191.9997522996
 10
119.073925084
 20
192.229323058
  0
LWPOLYLINE
  5
130
330
1F
100
AcDbEntity
  8
0
  6
Continuous
 62
     7
370
    25
100
AcDbPolyline
 90
       36
 70
   128
 43
0.0
 10
68.3320127022
 20
174.7130474937
 10
68.6531172137
 20
174.5297634876
 10
69.3810239313
 20
174.2627046999
 10
70.177440889
 20
174.1561693886
 10
71.0349321561
 20
174.2111522452
 10
71.9454915679
 20
174.4271399096
 10
72.9006174764
 20
174.8021157632
 10
73.8913921283
 20
175.3325787573
 10
74.9085649276
 20
176.0135761021
 10
75.9426388061
 20
176.8387495087
 10
76.9839588945
 20
177.8003945554
 10
78.0228026677
 20
178.8895326215
 10
79.0494707213
 20
180.0959947184
 10
80.0543773323
 20
181.4085164344
 10
81.0281399584
 20
182.8148431079
 10
81.9616668405
 20
184.3018442458
 10
82.8462418894
 20
185.8556361191
 10
83.6736060663
 20
187.4617113916
 10
84.4360344948
 20
189.1050745713
 10
85.1264085861
 20
190.770382019
 10
85.7382825033
 20
192.4420852077
 10
86.2659433445
 20
194.1045758952
 10
86.7044644826
 20
195.7423318538
 10
87.0497515638
 20
197.3400617975
 10
87.2985807359
 20
198.8828481521
 10
87.4486287477
 20
200.3562863373
 10
87.4984946415
 20
201.7466192577
 10
87.4477128328
 20
203.0408657494
 10
87.2967574577
 20
204.2269417816
 10
87.0470379458
 20
205.2937732819
 10
86.7008858611
 20
206.2313995322
 10
86.2615331321
 20
207.0310661688
 10
85.733081877
 20
207.6853069196
 10
85.1204661028
 20
208.1880133152
 10
84.4294056378
 20
208.5344917212
 10
84.2872499329
 20
208.5831685914
  0
LINE
  5
131
330
1F
100
AcDbEntity
  8
0
  6
Continuous
 62
     8
370
    25
100
AcDbLine
 10
113.017205746
 20
138.3972904729
 30
0.0
 11
109.202909845
 21
138.0310318581
 31
0.0
  0
LINE
  5
132
330
1F
100
AcDbEntity
  8
0
  6
Continuous
 62
     8
370
    25
100
AcDbLine
 10
98.1922482795
 20
136.9737594919
 30
0.0
 11
66.2275910848
 21
133.9044299563
 31
0.0
  0
SPLINE
  5
133
330
1F
100
AcDbEntity
  8
0
  6
Continuous
 62
     8
370
    25
100
AcDbSpline
210
0.0
220
0.0
230
1.0
 70
     8
 71
     3
 72
    12
 73
     8
 74
     0
 42
0.00000001
 43
0.00000001
 40
0.0
 40
0.0
 40
0.0
 40
0.0
 40
0.1976854888620587
 40
0.3845197826955398
 40
0.5604947108405496
 40
0.7256026361003215
 40
1.0
 40
1.0
 40
1.0
 40
1.0
 10
74.71263314124398
 20
109.7312301891861
 30
0.0
 10
74.70897848526846
 20
109.6551694137834
 30
0.0
 10
74.70186978179395
 20
109.5072229307214
 30
0.0
 10
74.6689267189443
 20
109.3227895777776
 30
0.0
 10
74.6248196215755
 20
109.1825650035611
 30
0.0
 10
74.56049287130125
 20
109.0575276837268
 30
0.0
 10
74.50255293349903
 20
109.033076521622
 30
0.0
 10
74.46637915677874
 20
109.0178108704653
 30
0.0
  0
ARC
  5
134
330
1F
100
AcDbEntity
  8
0
  6
Continuous
 62
     8
370
    25
100
AcDbCircle
 10
74.3358027034
 20
109.2620464395
 30
0.0
 40
0.2159186321779377
100
AcDbArc
 50
177.4251302105
 51
229.9816093462
  0
ARC
  5
135
330
1F
100
AcDbEntity
  8
0
  6
Continuous
 62
     8
370
    25
100
AcDbCircle
 10
64.8670074878
 20
117.030744761
 30
0.0
 40
0.2149116603454706
100
AcDbArc
 50
177.2913165696
 51
230.0244495164
  0
LWPOLYLINE
  5
136
330
1F
100
AcDbEntity
  8
0
  6
Continuous
 62
     8
370
    25
100
AcDbPolyline
 90
        8
 70
   128
 43
0.0
 10
123.07441071
 20
129.9034449995
 10
123.2515038751
 20
129.9264053246
 10
123.4087971297
 20
129.9591463061
 10
123.5402457824
 20
130.0004097265
 10
123.6407983351
 20
130.0486098558
 10
123.7065906097
 20
130.10189439
 10
123.7350942458
 20
130.1582156343
 10
123.7362336677
 20
130.1718861368
  0
LWPOLYLINE
  5
137
330
1F
100
AcDbEntity
  8
0
  6
Continuous
 62
     8
370
    25
100
AcDbPolyline
 90
        3
 70
   128
 43
0.0
 10
64.403220921
 20
117.9926378626
 10
64.4059716708
 20
117.9814296062
 10
64.4179443046
 20
117.967542869
  0
ARC
  5
138
330
1F
100
AcDbEntity
  8
0
  6
Continuous
 62
     8
370
    25
100
AcDbCircle
 10
107.0498110575
 20
147.4906788112
 30
0.0
 40
8.388674527087852
100
AcDbArc
 50
96.5479863034
 51
184.1795881563
  0
LWPOLYLINE
  5
139
330
1F
100
AcDbEntity
  8
0
  6
Continuous
 62
     8
370
    25
100
AcDbPolyline
 90
       25
 70
   128
 43
0.0
 10
118.6009866471
 20
153.3543014707
 10
119.0072864275
 20
153.5601980442
 10
120.0124339375
 20
154.1666363961
 10
121.0392563721
 20
154.9206022329
 10
122.078166567
 20
155.8150559786
 10
123.1194644975
 20
156.8416463597
 10
124.1534278456
 20
157.9907883784
 10
125.1704027739
 20
159.2517528052
 10
126.1608940616
 20
160.6127663551
 10
127.1156537585
 20
162.0611216113
 10
128.0257675304
 20
163.5832956709
 10
128.8827378903
 20
165.1650764049
 10
129.6785635368
 20
166.7916951527
 10
130.4058140604
 20
168.4479646135
 10
131.0576993187
 20
170.1184206454
 10
131.6281328349
 20
171.7874666506
 10
132.1117886248
 20
173.4395191963
 10
132.5041509246
 20
175.0591535129
 10
132.8015563534
 20
176.6312475113
 10
133.0012281166
 20
178.1411229733
 10
133.1013019329
 20
179.5746825985
 10
133.1008434401
 20
180.918541627
 10
132.9998569188
 20
182.1601528092
 10
132.7992852531
 20
183.2879235559
 10
132.7722179027
 20
183.4005039007
  0
ARC
  5
13A
330
1F
100
AcDbEntity
  8
0
  6
Continuous
 62
     8
370
    25
100
AcDbCircle
 10
106.7803547677
 20
149.7871927933
 30
0.0
 40
6.786252091051516
100
AcDbArc
 50
47.3213020142
 51
50.6278748313
  0
ARC
  5
13B
330
1F
100
AcDbEntity
  8
0
  6
Continuous
 62
     8
370
    25
100
AcDbCircle
 10
102.1550152253
 20
151.5107238285
 30
0.0
 40
8.659335343901944
100
AcDbArc
 50
105.6663481803
 51
177.0016100313
  0
LWPOLYLINE
  5
13C
330
1F
100
AcDbEntity
  8
0
  6
Continuous
 62
     8
370
    25
100
AcDbPolyline
 90
        7
 70
   128
 43
0.0
 10
80.4114564006
 20
210.0485305418
 10
79.7568904571
 20
210.473276071
 10
79.02578661
 20
210.7371406535
 10
78.2251857891
 20
210.8375831292
 10
77.3627982178
 20
210.773636182
 10
76.44692916
 20
210.5459156561
 10
75.5388425114
 20
210.1815135374
  0
LWPOLYLINE
  5
13D
330
1F
100
AcDbEntity
  8
0
  6
Continuous
 62
     8
370
    25
100
AcDbPolyline
 90
       11
 70
   128
 43
0.0
 10
61.4104825227
 20
180.9643861441
 10
61.4684190419
 20
180.6911371186
 10
61.7620301399
 20
179.6785891907
 10
62.1524036761
 20
178.8017299848
 10
62.6357801401
 20
178.0690041345
 10
63.2075043522
 20
177.4874681902
 10
63.8620702957
 20
177.062722661
 10
64.5931741428
 20
176.7988580785
 10
65.3937749637
 20
176.6984156028
 10
66.256162535
 20
176.76236255
 10
66.7106258852
 20
176.8565168511
  0
ARC
  5
13E
330
1F
100
AcDbEntity
  8
0
  6
Continuous
 62
     8
370
    25
100
AcDbCircle
 10
76.9526704487
 20
206.1939515338
 30
0.0
 40
5.178897526511873
100
AcDbArc
 50
18.6264182476
 51
48.0977765968
  0
LWPOLYLINE
  5
13F
330
1F
100
AcDbEntity
  8
0
  6
Continuous
 62
     8
370
    25
100
AcDbPolyline
 90
       28
 70
   128
 43
0.0
 10
80.7322516354
 20
210.1721790233
 10
81.3034521827
 20
209.5930291344
 10
81.7879199232
 20
208.8652255312
 10
82.181131512
 20
207.9955635198
 10
82.4794156385
 20
206.9921629002
 10
82.6799873042
 20
205.8643921535
 10
82.7809738254
 20
204.6227809713
 10
82.7814323183
 20
203.2789219428
 10
82.681358502
 20
201.8453623175
 10
82.4816867387
 20
200.3354868556
 10
82.18428131
 20
198.7633928572
 10
81.7919190101
 20
197.1437585406
 10
81.3082632202
 20
195.4917059949
 10
80.7378297041
 20
193.8226599897
 10
80.0859444457
 20
192.1522039578
 10
79.3586939222
 20
190.495934497
 10
78.5628682756
 20
188.8693157492
 10
77.7058979157
 20
187.2875350152
 10
76.7957841438
 20
185.7653609556
 10
75.841024447
 20
184.3170056994
 10
74.8505331593
 20
182.9559921495
 10
73.8335582309
 20
181.6950277227
 10
72.7995948829
 20
180.545885704
 10
71.7582969523
 20
179.5192953229
 10
70.7193867574
 20
178.6248415772
 10
69.6925643228
 20
177.8708757404
 10
68.6874168129
 20
177.2644373885
 10
68.2417368768
 20
177.0398407551
  0
ARC
  5
140
330
1F
100
AcDbEntity
  8
0
  6
Continuous
 62
     8
370
    25
100
AcDbCircle
 10
77.0920547631
 20
205.9769714553
 30
0.0
 40
4.568159251614937
100
AcDbArc
 50
23.1297952936
 51
49.0824096906
  0
LWPOLYLINE
  5
141
330
1F
100
AcDbEntity
  8
0
  6
Continuous
 62
     8
370
    25
100
AcDbPolyline
 90
       10
 70
   128
 43
0.0
 10
66.8462769322
 20
177.4859181479
 10
66.0919808491
 20
177.362718657
 10
65.2755995071
 20
177.3729190231
 10
64.5241548088
 20
177.5460610633
 10
63.8451149489
 20
177.8804240145
 10
63.2452285309
 20
178.3726848273
 10
62.7304574953
 20
179.0179511926
 10
62.3059178681
 20
179.8098101634
 10
61.9758289147
 20
180.7403918895
 10
61.7917911047
 20
181.5262917565
  0
LWPOLYLINE
  5
142
330
1F
100
AcDbEntity
  8
0
  6
Continuous
 62
     8
370
    25
100
AcDbPolyline
 90
        9
 70
   128
 43
0.0
 10
74.0991079978
 20
208.8220100712
 10
74.2802699973
 20
208.9389291209
 10
75.2565426502
 20
209.4892301905
 10
76.1985568496
 20
209.8832866051
 10
77.0969504351
 20
210.1171820551
 10
77.9427947676
 20
210.1885919822
 10
78.7276834663
 20
210.0968066827
 10
79.4438159545
 20
209.8427383601
 10
80.0840749858
 20
209.4289120594
  0
LINE
  5
143
330
1F
100
AcDbEntity
  8
0
  6
Continuous
 62
     8
370
    25
100
AcDbLine
 10
76.821611148
 20
209.7077826136
 30
0.0
 11
76.6968477651
 21
209.6747041183
 31
0.0
  0
LINE
  5
144
330
1F
100
AcDbEntity
  8
0
  6
Continuous
 62
     8
370
    25
100
AcDbLine
 10
62.6569434488
 20
179.8704929814
 30
0.0
 11
62.8153342057
 21
179.543823051
 31
0.0
  0
ENDSEC
  0
SECTION
  2
OBJECTS
  0
DICTIONARY
  5
C
330
0
100
AcDbDictionary
281
     1
  3
ACAD_GROUP
350
D
  3
ACAD_LAYOUT
350
1A
  3
ACAD_MLINESTYLE
350
17
  3
ACAD_PLOTSETTINGS
350
19
  3
ACAD_PLOTSTYLENAME
350
E
  3
ACAD_SCALELIST
350
47
  3
DWGPROPS
350
145
  0
DICTIONARY
  5
D
102
{ACAD_REACTORS
330
C
102
}
330
C
100
AcDbDictionary
281
     1
  0
DICTIONARY
  5
1A
102
{ACAD_REACTORS
330
C
102
}
330
C
100
AcDbDictionary
281
     1
  3
Layout1
350
1E
  3
Layout2
350
26
  3
Model
350
22
  0
DICTIONARY
  5
17
102
{ACAD_REACTORS
330
C
102
}
330
C
100
AcDbDictionary
281
     1
  3
Standard
350
18
  0
DICTIONARY
  5
19
102
{ACAD_REACTORS
330
C
102
}
330
C
100
AcDbDictionary
281
     1
  0
ACDBDICTIONARYWDFLT
  5
E
102
{ACAD_REACTORS
330
C
102
}
330
C
100
AcDbDictionary
281
     1
  3
Normal
350
F
100
AcDbDictionaryWithDefault
340
F
  0
DICTIONARY
  5
47
102
{ACAD_REACTORS
330
C
102
}
330
C
100
AcDbDictionary
281
     1
  3
A0
350
48
  3
A1
350
49
  3
A2
350
4A
  3
A3
350
4B
  3
A4
350
4C
  3
A5
350
4D
  3
A6
350
4E
  3
A7
350
4F
  3
A8
350
50
  3
A9
350
51
  3
B0
350
52
  3
B1
350
53
  3
B2
350
54
  3
B3
350
55
  3
B4
350
56
  3
B5
350
57
  3
B6
350
58
  3
B7
350
59
  3
B8
350
5A
  3
B9
350
5B
  3
C0
350
5C
  3
C1
350
5D
  3
C2
350
5E
  3
C3
350
5F
  3
C4
350
60
  3
C5
350
61
  3
C6
350
62
  3
C7
350
63
  3
C8
350
64
  3
C9
350
65
  3
D0
350
66
  3
D1
350
67
  3
D2
350
68
  0
XRECORD
  5
145
102
{ACAD_REACTORS
330
C
102
}
330
C
100
AcDbXrecord
280
     1
  1
DWGPROPS COOKIE
  2

  3

  4

  6

  7

  8
9128
  9

300
=
301
=
302
=
303
=
304
=
305
=
306
=
307
=
308
=
309
=
 40
0.0
 41
2460018.225637835
 42
2460018.225638044
  1

 90
        0
  0
LAYOUT
  5
1E
102
{ACAD_REACTORS
330
1A
102
}
330
1A
100
AcDbPlotSettings
  1

  2
none_device
  4

  6

 40
0.0
 41
0.0
 42
0.0
 43
0.0
 44
0.0
 45
0.0
 46
0.0
 47
0.0
 48
0.0
 49
0.0
140
0.0
141
0.0
142
1.0
143
1.0
 70
   688
 72
     1
 73
     0
 74
     5
  7

 75
    16
147
1.0
148
0.0
149
0.0
100
AcDbLayout
  1
Layout1
 70
     1
 71
     1
 10
0.0
 20
0.0
 11
420.0
 21
297.0
 12
0.0
 22
0.0
 32
0.0
 14
1.0000000000E+20
 24
1.0000000000E+20
 34
1.0000000000E+20
 15
-1.0000000000E+20
 25
-1.0000000000E+20
 35
-1.0000000000E+20
146
0.0
 13
0.0
 23
0.0
 33
0.0
 16
1.0
 26
0.0
 36
0.0
 17
0.0
 27
1.0
 37
0.0
 76
     0
330
1B
  0
LAYOUT
  5
26
102
{ACAD_REACTORS
330
1A
102
}
330
1A
100
AcDbPlotSettings
  1

  2
none_device
  4

  6

 40
0.0
 41
0.0
 42
0.0
 43
0.0
 44
0.0
 45
0.0
 46
0.0
 47
0.0
 48
0.0
 49
0.0
140
0.0
141
0.0
142
1.0
143
1.0
 70
   688
 72
     1
 73
     0
 74
     5
  7

 75
    16
147
1.0
148
0.0
149
0.0
100
AcDbLayout
  1
Layout2
 70
     1
 71
     2
 10
0.0
 20
0.0
 11
0.0
 21
0.0
 12
0.0
 22
0.0
 32
0.0
 14
0.0
 24
0.0
 34
0.0
 15
0.0
 25
0.0
 35
0.0
146
0.0
 13
0.0
 23
0.0
 33
0.0
 16
1.0
 26
0.0
 36
0.0
 17
0.0
 27
1.0
 37
0.0
 76
     0
330
23
  0
LAYOUT
  5
22
102
{ACAD_REACTORS
330
1A
102
}
330
1A
100
AcDbPlotSettings
  1

  2
none_device
  4
Letter_(8.50_x_11.00_Inches)
  6

 40
6.35
 41
6.35
 42
6.35000508
 43
6.35000508
 44
215.9
 45
279.4
 46
0.0
 47
0.0
 48
0.0
 49
0.0
140
0.0
141
0.0
142
1.0
143
1.0
 70
  1712
 72
     1
 73
     0
 74
     0
  7

 75
     0
147
1.0
148
0.0
149
0.0
100
AcDbLayout
  1
Model
 70
     1
 71
     0
 10
0.0
 20
0.0
 11
210.0
 21
297.0
 12
0.0
 22
0.0
 32
0.0
 14
0.0
 24
0.0
 34
0.0
 15
210.0
 25
297.0
 35
0.0
146
0.0
 13
0.0
 23
0.0
 33
0.0
 16
1.0
 26
0.0
 36
0.0
 17
0.0
 27
1.0
 37
0.0
 76
     0
330
1F
331
29
  0
MLINESTYLE
  5
18
102
{ACAD_REACTORS
330
17
102
}
330
17
100
AcDbMlineStyle
  2
Standard
 70
     0
  3

 62
   256
 51
90.0
 52
90.0
 71
     2
 49
0.5
 62
   256
  6
BYLAYER
 49
-0.5
 62
   256
  6
BYLAYER
  0
ACDBPLACEHOLDER
  5
F
102
{ACAD_REACTORS
330
E
102
}
330
E
  0
SCALE
  5
48
102
{ACAD_REACTORS
330
47
102
}
330
47
100
AcDbScale
 70
     0
300
1:1
140
1.0
141
1.0
290
     1
  0
SCALE
  5
49
102
{ACAD_REACTORS
330
47
102
}
330
47
100
AcDbScale
 70
     0
300
1:2
140
1.0
141
2.0
290
     0
  0
SCALE
  5
4A
102
{ACAD_REACTORS
330
47
102
}
330
47
100
AcDbScale
 70
     0
300
1:4
140
1.0
141
4.0
290
     0
  0
SCALE
  5
4B
102
{ACAD_REACTORS
330
47
102
}
330
47
100
AcDbScale
 70
     0
300
1:5
140
1.0
141
5.0
290
     0
  0
SCALE
  5
4C
102
{ACAD_REACTORS
330
47
102
}
330
47
100
AcDbScale
 70
     0
300
1:8
140
1.0
141
8.0
290
     0
  0
SCALE
  5
4D
102
{ACAD_REACTORS
330
47
102
}
330
47
100
AcDbScale
 70
     0
300
1:10
140
1.0
141
10.0
290
     0
  0
SCALE
  5
4E
102
{ACAD_REACTORS
330
47
102
}
330
47
100
AcDbScale
 70
     0
300
1:16
140
1.0
141
16.0
290
     0
  0
SCALE
  5
4F
102
{ACAD_REACTORS
330
47
102
}
330
47
100
AcDbScale
 70
     0
300
1:20
140
1.0
141
20.0
290
     0
  0
SCALE
  5
50
102
{ACAD_REACTORS
330
47
102
}
330
47
100
AcDbScale
 70
     0
300
1:30
140
1.0
141
30.0
290
     0
  0
SCALE
  5
51
102
{ACAD_REACTORS
330
47
102
}
330
47
100
AcDbScale
 70
     0
300
1:40
140
1.0
141
40.0
290
     0
  0
SCALE
  5
52
102
{ACAD_REACTORS
330
47
102
}
330
47
100
AcDbScale
 70
     0
300
1:50
140
1.0
141
50.0
290
     0
  0
SCALE
  5
53
102
{ACAD_REACTORS
330
47
102
}
330
47
100
AcDbScale
 70
     0
300
1:100
140
1.0
141
100.0
290
     0
  0
SCALE
  5
54
102
{ACAD_REACTORS
330
47
102
}
330
47
100
AcDbScale
 70
     0
300
2:1
140
2.0
141
1.0
290
     0
  0
SCALE
  5
55
102
{ACAD_REACTORS
330
47
102
}
330
47
100
AcDbScale
 70
     0
300
4:1
140
4.0
141
1.0
290
     0
  0
SCALE
  5
56
102
{ACAD_REACTORS
330
47
102
}
330
47
100
AcDbScale
 70
     0
300
8:1
140
8.0
141
1.0
290
     0
  0
SCALE
  5
57
102
{ACAD_REACTORS
330
47
102
}
330
47
100
AcDbScale
 70
     0
300
10:1
140
10.0
141
1.0
290
     0
  0
SCALE
  5
58
102
{ACAD_REACTORS
330
47
102
}
330
47
100
AcDbScale
 70
     0
300
100:1
140
100.0
141
1.0
290
     0
  0
SCALE
  5
59
102
{ACAD_REACTORS
330
47
102
}
330
47
100
AcDbScale
 70
     0
300
1/128" = 1'-0"
140
0.0078125
141
12.0
290
     0
  0
SCALE
  5
5A
102
{ACAD_REACTORS
330
47
102
}
330
47
100
AcDbScale
 70
     0
300
1/64" = 1'-0"
140
0.015625
141
12.0
290
     0
  0
SCALE
  5
5B
102
{ACAD_REACTORS
330
47
102
}
330
47
100
AcDbScale
 70
     0
300
1/32" = 1'-0"
140
0.03125
141
12.0
290
     0
  0
SCALE
  5
5C
102
{ACAD_REACTORS
330
47
102
}
330
47
100
AcDbScale
 70
     0
300
1/16" = 1'-0"
140
0.0625
141
12.0
290
     0
  0
SCALE
  5
5D
102
{ACAD_REACTORS
330
47
102
}
330
47
100
AcDbScale
 70
     0
300
3/32" = 1'-0"
140
0.09375
141
12.0
290
     0
  0
SCALE
  5
5E
102
{ACAD_REACTORS
330
47
102
}
330
47
100
AcDbScale
 70
     0
300
1/8" = 1'-0"
140
0.125
141
12.0
290
     0
  0
SCALE
  5
5F
102
{ACAD_REACTORS
330
47
102
}
330
47
100
AcDbScale
 70
     0
300
3/16" = 1'-0"
140
0.1875
141
12.0
290
     0
  0
SCALE
  5
60
102
{ACAD_REACTORS
330
47
102
}
330
47
100
AcDbScale
 70
     0
300
1/4" = 1'-0"
140
0.25
141
12.0
290
     0
  0
SCALE
  5
61
102
{ACAD_REACTORS
330
47
102
}
330
47
100
AcDbScale
 70
     0
300
3/8" = 1'-0"
140
0.375
141
12.0
290
     0
  0
SCALE
  5
62
102
{ACAD_REACTORS
330
47
102
}
330
47
100
AcDbScale
 70
     0
300
1/2" = 1'-0"
140
0.5
141
12.0
290
     0
  0
SCALE
  5
63
102
{ACAD_REACTORS
330
47
102
}
330
47
100
AcDbScale
 70
     0
300
3/4" = 1'-0"
140
0.75
141
12.0
290
     0
  0
SCALE
  5
64
102
{ACAD_REACTORS
330
47
102
}
330
47
100
AcDbScale
 70
     0
300
1" = 1'-0"
140
1.0
141
12.0
290
     0
  0
SCALE
  5
65
102
{ACAD_REACTORS
330
47
102
}
330
47
100
AcDbScale
 70
     0
300
1-1/2" = 1'-0"
140
1.5
141
12.0
290
     0
  0
SCALE
  5
66
102
{ACAD_REACTORS
330
47
102
}
330
47
100
AcDbScale
 70
     0
300
3" = 1'-0"
140
3.0
141
12.0
290
     0
  0
SCALE
  5
67
102
{ACAD_REACTORS
330
47
102
}
330
47
100
AcDbScale
 70
     0
300
6" = 1'-0"
140
6.0
141
12.0
290
     0
  0
SCALE
  5
68
102
{ACAD_REACTORS
330
47
102
}
330
47
100
AcDbScale
 70
     0
300
1'-0" = 1'-0"
140
12.0
141
12.0
290
     0
  0
ENDSEC
  0
EOF
