  0
SECTION
  2
HEADER
  9
$ACADVER
  1
AC1015
  9
$ACADMAINTVER
 70
     6
  9
$DWGCODEPAGE
  3
DOS932
  9
$INSBASE
 10
0.0
 20
0.0
 30
0.0
  9
$EXTMIN
 10
0.0
 20
0.0
 30
0.0
  9
$EXTMAX
 10
210.0
 20
297.0
 30
0.0
  9
$LIMMIN
 10
0.0
 20
0.0
  9
$LIMMAX
 10
210.0
 20
297.0
  9
$ORTHOMODE
 70
     0
  9
$REGENMODE
 70
     1
  9
$FILLMODE
 70
     1
  9
$QTEXTMODE
 70
     0
  9
$MIRRTEXT
 70
     1
  9
$LTSCALE
 40
1.0
  9
$ATTMODE
 70
     1
  9
$TEXTSIZE
 40
3.5
  9
$TRACEWID
 40
1.0
  9
$TEXTSTYLE
  7
Standard
  9
$CLAYER
  8
0
  9
$CELTYPE
  6
ByLayer
  9
$CECOLOR
 62
   256
  9
$CELTSCALE
 40
1.0
  9
$DISPSILH
 70
     0
  9
$DIMSCALE
 40
1.0
  9
$DIMASZ
 40
1.5
  9
$DIMEXO
 40
1.0
  9
$DIMDLI
 40
3.75
  9
$DIMRND
 40
0.0
  9
$DIMDLE
 40
0.0
  9
$DIMEXE
 40
1.0
  9
$DIMTP
 40
0.0
  9
$DIMTM
 40
0.0
  9
$DIMTXT
 40
3.5
  9
$DIMCEN
 40
2.5
  9
$DIMTSZ
 40
0.0
  9
$DIMTOL
 70
     0
  9
$DIMLIM
 70
     0
  9
$DIMTIH
 70
     1
  9
$DIMTOH
 70
     1
  9
$DIMSE1
 70
     0
  9
$DIMSE2
 70
     0
  9
$DIMTAD
 70
     1
  9
$DIMZIN
 70
     0
  9
$DIMBLK
  1

  9
$DIMASO
 70
     1
  9
$DIMSHO
 70
     1
  9
$DIMPOST
  1

  9
$DIMAPOST
  1

  9
$DIMALT
 70
     0
  9
$DIMALTD
 70
     3
  9
$DIMALTF
 40
0.0393700787
  9
$DIMLFAC
 40
5.0
  9
$DIMTOFL
 70
     1
  9
$DIMTVP
 40
0.0
  9
$DIMTIX
 70
     0
  9
$DIMSOXD
 70
     0
  9
$DIMSAH
 70
     0
  9
$DIMBLK1
  1

  9
$DIMBLK2
  1

  9
$DIMSTYLE
  2
ISO-25
  9
$DIMCLRD
 70
     0
  9
$DIMCLRE
 70
     0
  9
$DIMCLRT
 70
     0
  9
$DIMTFAC
 40
1.0
  9
$DIMGAP
 40
1.5
  9
$DIMJUST
 70
     0
  9
$DIMSD1
 70
     0
  9
$DIMSD2
 70
     0
  9
$DIMTOLJ
 70
     0
  9
$DIMTZIN
 70
     0
  9
$DIMALTZ
 70
     0
  9
$DIMALTTZ
 70
     0
  9
$DIMUPT
 70
     0
  9
$DIMDEC
 70
     1
  9
$DIMTDEC
 70
     1
  9
$DIMALTU
 70
     2
  9
$DIMALTTD
 70
     3
  9
$DIMTXSTY
  7
Standard
  9
$DIMAUNIT
 70
     0
  9
$DIMADEC
 70
     2
  9
$DIMALTRND
 40
0.0
  9
$DIMAZIN
 70
     0
  9
$DIMDSEP
 70
    44
  9
$DIMATFIT
 70
     3
  9
$DIMFRAC
 70
     0
  9
$DIMLDRBLK
  1

  9
$DIMLUNIT
 70
     2
  9
$DIMLWD
 70
    -2
  9
$DIMLWE
 70
    -2
  9
$DIMTMOVE
 70
     0
  9
$LUNITS
 70
     2
  9
$LUPREC
 70
     4
  9
$SKETCHINC
 40
1.0
  9
$FILLETRAD
 40
10.0
  9
$AUNITS
 70
     0
  9
$AUPREC
 70
     2
  9
$MENU
  1
.
  9
$ELEVATION
 40
0.0
  9
$PELEVATION
 40
0.0
  9
$THICKNESS
 40
0.0
  9
$LIMCHECK
 70
     0
  9
$CHAMFERA
 40
0.0
  9
$CHAMFERB
 40
0.0
  9
$CHAMFERC
 40
0.0
  9
$CHAMFERD
 40
0.0
  9
$SKPOLY
 70
     0
  9
$TDCREATE
 40
2460018.601394479
  9
$TDUCREATE
 40
2460018.226394479
  9
$TDUPDATE
 40
2460018.601394803
  9
$TDUUPDATE
 40
2460018.226394803
  9
$TDINDWG
 40
0.0000000116
  9
$TDUSRTIMER
 40
0.0000000116
  9
$USRTIMER
 70
     1
  9
$ANGBASE
 50
0.0
  9
$ANGDIR
 70
     0
  9
$PDMODE
 70
     0
  9
$PDSIZE
 40
-1.0
  9
$PLINEWID
 40
0.0
  9
$SPLFRAME
 70
     0
  9
$SPLINETYPE
 70
     6
  9
$SPLINESEGS
 70
     8
  9
$HANDSEED
  5
1BF
  9
$SURFTAB1
 70
     6
  9
$SURFTAB2
 70
     6
  9
$SURFTYPE
 70
     6
  9
$SURFU
 70
     6
  9
$SURFV
 70
     6
  9
$UCSBASE
  2

  9
$UCSNAME
  2

  9
$UCSORG
 10
0.0
 20
0.0
 30
0.0
  9
$UCSXDIR
 10
1.0
 20
0.0
 30
0.0
  9
$UCSYDIR
 10
0.0
 20
1.0
 30
0.0
  9
$UCSORTHOREF
  2

  9
$UCSORTHOVIEW
 70
     0
  9
$UCSORGTOP
 10
0.0
 20
0.0
 30
0.0
  9
$UCSORGBOTTOM
 10
0.0
 20
0.0
 30
0.0
  9
$UCSORGLEFT
 10
0.0
 20
0.0
 30
0.0
  9
$UCSORGRIGHT
 10
0.0
 20
0.0
 30
0.0
  9
$UCSORGFRONT
 10
0.0
 20
0.0
 30
0.0
  9
$UCSORGBACK
 10
0.0
 20
0.0
 30
0.0
  9
$PUCSBASE
  2

  9
$PUCSNAME
  2

  9
$PUCSORG
 10
0.0
 20
0.0
 30
0.0
  9
$PUCSXDIR
 10
1.0
 20
0.0
 30
0.0
  9
$PUCSYDIR
 10
0.0
 20
1.0
 30
0.0
  9
$PUCSORTHOREF
  2

  9
$PUCSORTHOVIEW
 70
     0
  9
$PUCSORGTOP
 10
0.0
 20
0.0
 30
0.0
  9
$PUCSORGBOTTOM
 10
0.0
 20
0.0
 30
0.0
  9
$PUCSORGLEFT
 10
0.0
 20
0.0
 30
0.0
  9
$PUCSORGRIGHT
 10
0.0
 20
0.0
 30
0.0
  9
$PUCSORGFRONT
 10
0.0
 20
0.0
 30
0.0
  9
$PUCSORGBACK
 10
0.0
 20
0.0
 30
0.0
  9
$USERI1
 70
     0
  9
$USERI2
 70
     0
  9
$USERI3
 70
     0
  9
$USERI4
 70
     0
  9
$USERI5
 70
     0
  9
$USERR1
 40
0.0
  9
$USERR2
 40
0.0
  9
$USERR3
 40
0.0
  9
$USERR4
 40
0.0
  9
$USERR5
 40
0.0
  9
$WORLDVIEW
 70
     1
  9
$SHADEDGE
 70
     3
  9
$SHADEDIF
 70
    70
  9
$TILEMODE
 70
     1
  9
$MAXACTVP
 70
    64
  9
$PINSBASE
 10
0.0
 20
0.0
 30
0.0
  9
$PLIMCHECK
 70
     0
  9
$PEXTMIN
 10
1.0000000000E+20
 20
1.0000000000E+20
 30
1.0000000000E+20
  9
$PEXTMAX
 10
-1.0000000000E+20
 20
-1.0000000000E+20
 30
-1.0000000000E+20
  9
$PLIMMIN
 10
0.0
 20
0.0
  9
$PLIMMAX
 10
420.0
 20
297.0
  9
$UNITMODE
 70
     0
  9
$VISRETAIN
 70
     1
  9
$PLINEGEN
 70
     0
  9
$PSLTSCALE
 70
     1
  9
$TREEDEPTH
 70
  3020
  9
$CMLSTYLE
  2
Standard
  9
$CMLJUST
 70
     0
  9
$CMLSCALE
 40
20.0
  9
$PROXYGRAPHICS
 70
     1
  9
$MEASUREMENT
 70
     1
  9
$CELWEIGHT
370
    -1
  9
$ENDCAPS
280
     0
  9
$JOINSTYLE
280
     0
  9
$LWDISPLAY
290
     1
  9
$INSUNITS
 70
     4
  9
$HYPERLINKBASE
  1

  9
$STYLESHEET
  1

  9
$XEDIT
290
     1
  9
$CEPSNTYPE
380
     0
  9
$PSTYLEMODE
290
     1
  9
$FINGERPRINTGUID
  2
{e4c0bbd3-fb59-45bc-88cc-04b56ea58d8b}
  9
$VERSIONGUID
  2
{FAEB1C32-E019-11D5-929B-00C0DF256EC4}
  9
$EXTNAMES
290
     1
  9
$PSVPSCALE
 40
0.0
  9
$OLESTARTUP
290
     0
  0
ENDSEC
  0
SECTION
  2
CLASSES
  0
CLASS
  1
ACDBDICTIONARYWDFLT
  2
AcDbDictionaryWithDefault
  3
ObjectDBX Classes
 90
        0
280
     0
281
     0
  0
CLASS
  1
VISUALSTYLE
  2
AcDbVisualStyle
  3
ObjectDBX Classes
 90
     4095
280
     0
281
     0
  0
CLASS
  1
MATERIAL
  2
AcDbMaterial
  3
ObjectDBX Classes
 90
     1153
280
     0
281
     0
  0
CLASS
  1
SCALE
  2
AcDbScale
  3
ObjectDBX Classes
 90
     1153
280
     0
281
     0
  0
CLASS
  1
TABLESTYLE
  2
AcDbTableStyle
  3
ObjectDBX Classes
 90
     4095
280
     0
281
     0
  0
CLASS
  1
MLEADERSTYLE
  2
AcDbMLeaderStyle
  3
ACDB_MLEADERSTYLE_CLASS
 90
     4095
280
     0
281
     0
  0
CLASS
  1
SUN
  2
AcDbSun
  3
SCENEOE
 90
     1153
280
     0
281
     0
  0
CLASS
  1
ACDBPLACEHOLDER
  2
AcDbPlaceHolder
  3
ObjectDBX Classes
 90
        0
280
     0
281
     0
  0
CLASS
  1
LAYOUT
  2
AcDbLayout
  3
ObjectDBX Classes
 90
        0
280
     0
281
     0
  0
ENDSEC
  0
SECTION
  2
TABLES
  0
TABLE
  2
VPORT
  5
8
330
0
100
AcDbSymbolTable
 70
     1
  0
VPORT
  5
29
330
8
100
AcDbSymbolTableRecord
100
AcDbViewportTableRecord
  2
*Active
 70
     0
 10
0.0
 20
0.0
 11
1.0
 21
1.0
 12
105.0
 22
148.5
 13
0.0
 23
0.0
 14
10.0
 24
10.0
 15
10.0
 25
10.0
 16
0.0
 26
0.0
 36
1.0
 17
0.0
 27
0.0
 37
0.0
 40
297.0
 41
0.7070707071
 42
50.0
 43
0.0
 44
0.0
 50
0.0
 51
0.0
 71
     0
 72
  2000
 73
     1
 74
     3
 75
     0
 76
     0
 77
     0
 78
     0
281
     0
 65
     1
110
0.0
120
0.0
130
0.0
111
1.0
121
0.0
131
0.0
112
0.0
122
1.0
132
0.0
 79
     0
146
0.0
  0
ENDTAB
  0
TABLE
  2
LTYPE
  5
5
330
0
100
AcDbSymbolTable
 70
     6
  0
LTYPE
  5
14
330
5
100
AcDbSymbolTableRecord
100
AcDbLinetypeTableRecord
  2
ByBlock
 70
     0
  3

 72
    65
 73
     0
 40
0.0
  0
LTYPE
  5
15
330
5
100
AcDbSymbolTableRecord
100
AcDbLinetypeTableRecord
  2
ByLayer
 70
     0
  3

 72
    65
 73
     0
 40
0.0
  0
LTYPE
  5
16
330
5
100
AcDbSymbolTableRecord
100
AcDbLinetypeTableRecord
  2
Continuous
 70
     0
  3
Solid line
 72
    65
 73
     0
 40
0.0
  0
LTYPE
  5
6E
330
5
100
AcDbSymbolTableRecord
100
AcDbLinetypeTableRecord
  2
HIDDEN
 70
     0
  3
Hidden __ __ __ __ __ __ __ __ __ __ __ __ __ __
 72
    65
 73
     2
 40
1.905
 49
1.27
 74
     0
 49
-0.635
 74
     0
  0
LTYPE
  5
6F
330
5
100
AcDbSymbolTableRecord
100
AcDbLinetypeTableRecord
  2
PHANTOM
 70
     0
  3
Phantom ______  __  __  ______  __  __  ______
 72
    65
 73
     6
 40
12.7
 49
6.35
 74
     0
 49
-1.27
 74
     0
 49
1.27
 74
     0
 49
-1.27
 74
     0
 49
1.27
 74
     0
 49
-1.27
 74
     0
  0
LTYPE
  5
70
330
5
100
AcDbSymbolTableRecord
100
AcDbLinetypeTableRecord
  2
CENTER
 70
     0
  3
Center ____ _ ____ _ ____ _ ____ _ ____ _ ____
 72
    65
 73
     4
 40
10.16
 49
6.35
 74
     0
 49
-1.27
 74
     0
 49
1.27
 74
     0
 49
-1.27
 74
     0
  0
LTYPE
  5
71
330
5
100
AcDbSymbolTableRecord
100
AcDbLinetypeTableRecord
  2
CENTERX2
 70
     0
  3
Center (2x) ________  __  ________  __  _____
 72
    65
 73
     4
 40
20.32
 49
12.7
 74
     0
 49
-2.54
 74
     0
 49
2.54
 74
     0
 49
-2.54
 74
     0
  0
LTYPE
  5
72
330
5
100
AcDbSymbolTableRecord
100
AcDbLinetypeTableRecord
  2
DOT2
 70
     0
  3
Dot (.5x) ........................................
 72
    65
 73
     2
 40
0.635
 49
0.0
 74
     0
 49
-0.635
 74
     0
  0
ENDTAB
  0
TABLE
  2
LAYER
  5
2
330
0
100
AcDbSymbolTable
 70
     1
  0
LAYER
  5
10
330
2
100
AcDbSymbolTableRecord
100
AcDbLayerTableRecord
  2
0
 70
     0
 62
     7
  6
Continuous
370
    -3
390
F
  0
ENDTAB
  0
TABLE
  2
STYLE
  5
3
330
0
100
AcDbSymbolTable
 70
     2
  0
STYLE
  5
11
330
3
100
AcDbSymbolTableRecord
100
AcDbTextStyleTableRecord
  2
Standard
 70
     0
 40
0.0
 41
1.0
 50
0.0
 71
     0
 42
3.5
  3
txt
  4
bigfont
  0
STYLE
  5
76
330
3
100
AcDbSymbolTableRecord
100
AcDbTextStyleTableRecord
  2
SLDTEXTSTYLE0
 70
     0
 40
0.0
 41
0.7
 50
0.0
 71
     0
 42
3.5
  3
TXT
  4
bigfont
  0
ENDTAB
  0
TABLE
  2
VIEW
  5
6
330
0
100
AcDbSymbolTable
 70
     0
  0
ENDTAB
  0
TABLE
  2
UCS
  5
7
330
0
100
AcDbSymbolTable
 70
     0
  0
ENDTAB
  0
TABLE
  2
APPID
  5
9
330
0
100
AcDbSymbolTable
 70
     1
  0
APPID
  5
12
330
9
100
AcDbSymbolTableRecord
100
AcDbRegAppTableRecord
  2
ACAD
 70
     0
  0
ENDTAB
  0
TABLE
  2
DIMSTYLE
  5
A
330
0
100
AcDbSymbolTable
 70
     1
100
AcDbDimStyleTable
  0
DIMSTYLE
105
27
330
A
100
AcDbSymbolTableRecord
100
AcDbDimStyleTableRecord
  2
ISO-25
 70
     0
 41
2.5
 42
0.625
 43
3.75
 44
1.25
 73
     0
 74
     0
 77
     1
 78
     8
140
2.5
141
2.5
143
0.0393700787
147
0.625
171
     3
172
     1
178
     0
271
     2
272
     2
274
     3
278
    44
283
     0
284
     8
340
11
  0
ENDTAB
  0
TABLE
  2
BLOCK_RECORD
  5
1
330
0
100
AcDbSymbolTable
 70
     2
  0
BLOCK_RECORD
  5
1F
330
1
100
AcDbSymbolTableRecord
100
AcDbBlockTableRecord
  2
*Model_Space
340
22
  0
BLOCK_RECORD
  5
1B
330
1
100
AcDbSymbolTableRecord
100
AcDbBlockTableRecord
  2
*Paper_Space
340
1E
  0
BLOCK_RECORD
  5
23
330
1
100
AcDbSymbolTableRecord
100
AcDbBlockTableRecord
  2
*Paper_Space0
340
26
  0
BLOCK_RECORD
  5
73
330
1
100
AcDbSymbolTableRecord
100
AcDbBlockTableRecord
  2
SW_NOTE_0
340
0
102
{BLKREFS
331
7B
102
}
  0
ENDTAB
  0
ENDSEC
  0
SECTION
  2
BLOCKS
  0
BLOCK
  5
20
330
1F
100
AcDbEntity
  8
0
100
AcDbBlockBegin
  2
*Model_Space
 70
     0
 10
0.0
 20
0.0
 30
0.0
  3
*Model_Space
  1

  0
ENDBLK
  5
21
330
1F
100
AcDbEntity
  8
0
100
AcDbBlockEnd
  0
BLOCK
  5
1C
330
1B
100
AcDbEntity
 67
     1
  8
0
100
AcDbBlockBegin
  2
*Paper_Space
 70
     0
 10
0.0
 20
0.0
 30
0.0
  3
*Paper_Space
  1

  0
ENDBLK
  5
1D
330
1B
100
AcDbEntity
 67
     1
  8
0
100
AcDbBlockEnd
  0
BLOCK
  5
24
330
23
100
AcDbEntity
  8
0
100
AcDbBlockBegin
  2
*Paper_Space0
 70
     0
 10
0.0
 20
0.0
 30
0.0
  3
*Paper_Space0
  1

  0
ENDBLK
  5
25
330
23
100
AcDbEntity
  8
0
100
AcDbBlockEnd
  0
BLOCK
  5
74
330
73
100
AcDbEntity
  8
0
100
AcDbBlockBegin
  2
SW_NOTE_0
 70
     0
 10
0.0
 20
0.0
 30
0.0
  3
SW_NOTE_0
  1

  0
MTEXT
  5
77
330
73
100
AcDbEntity
  8
0
  6
Continuous
 62
     0
370
     0
100
AcDbMText
 10
0.0
 20
4.5117370892
 30
0.0
 40
3.5
 41
0.0
 71
     1
 72
     1
  1
HBB-D76S/C/K
  7
SLDTEXTSTYLE0
 73
     1
 44
1.0
  0
MTEXT
  5
78
330
73
100
AcDbEntity
  8
0
  6
Continuous
 62
     0
370
     0
100
AcDbMText
 10
0.0
 20
0.0117372829
 30
0.0
 40
3.5
 41
0.0
 71
     1
 72
     1
  1
HBB-D75S/C/K
  7
SLDTEXTSTYLE0
 73
     1
 44
1.0
  0
MTEXT
  5
79
330
73
100
AcDbEntity
  8
0
  6
Continuous
 62
     0
370
     0
100
AcDbMText
 10
0.0
 20
-4.4882625234
 30
0.0
 40
3.5
 41
0.0
 71
     1
 72
     1
  1
HBB-D78S/C/K
  7
SLDTEXTSTYLE0
 73
     1
 44
1.0
  0
MTEXT
  5
7A
330
73
100
AcDbEntity
  8
0
  6
Continuous
 62
     0
370
     0
100
AcDbMText
 10
0.0
 20
-8.9882623297
 30
0.0
 40
3.5
 41
0.0
 71
     1
 72
     1
  1
HBB-D77S/C/K
  7
SLDTEXTSTYLE0
 73
     1
 44
1.0
  0
ENDBLK
  5
75
330
73
100
AcDbEntity
  8
0
100
AcDbBlockEnd
  0
ENDSEC
  0
SECTION
  2
ENTITIES
  0
INSERT
  5
7B
330
1F
100
AcDbEntity
  8
0
  6
Continuous
 62
     7
370
     0
100
AcDbBlockReference
  2
SW_NOTE_0
 10
141.0036734694
 20
110.7238775119
 30
0.0
  0
SPLINE
  5
7C
330
1F
100
AcDbEntity
  8
0
  6
Continuous
 62
     7
370
    25
100
AcDbSpline
210
0.0
220
0.0
230
1.0
 70
     8
 71
     3
 72
    13
 73
     9
 74
     0
 42
0.00000001
 43
0.00000001
 40
0.0
 40
0.0
 40
0.0
 40
0.0
 40
0.0713893490910633
 40
0.315542483021836
 40
0.4994076493450348
 40
0.6785806032880581
 40
0.9669101438504586
 40
1.0
 40
1.0
 40
1.0
 40
1.0
 10
127.5423903830637
 20
163.9646400626321
 30
0.0
 10
127.5523308169133
 20
164.0207441040159
 30
0.0
 10
127.5962677517526
 20
164.2687251929488
 30
0.0
 10
127.6237051826557
 20
164.7051215911374
 30
0.0
 10
127.6426386358166
 20
165.2456579197096
 30
0.0
 10
127.6318983472219
 20
165.8428403544714
 30
0.0
 10
127.6117549096747
 20
166.3137185680716
 30
0.0
 10
127.5721717176814
 20
166.6106390846639
 30
0.0
 10
127.5680966614079
 20
166.6412068017414
 30
0.0
  0
SPLINE
  5
7D
330
1F
100
AcDbEntity
  8
0
  6
Continuous
 62
     7
370
    25
100
AcDbSpline
210
0.0
220
0.0
230
1.0
 70
     8
 71
     3
 72
    13
 73
     9
 74
     0
 42
0.00000001
 43
0.00000001
 40
0.0
 40
0.0
 40
0.0
 40
0.0
 40
0.0677703679047995
 40
0.248667204359842
 40
0.3878456750281663
 40
0.5330140585080854
 40
0.748333389695888
 40
1.0
 40
1.0
 40
1.0
 40
1.0
 10
127.6101917918141
 20
164.6000809103082
 30
0.0
 10
127.6210618373906
 20
164.6490009634928
 30
0.0
 10
127.6609468775391
 20
164.8285014330734
 30
0.0
 10
127.6903905581877
 20
165.1561370033386
 30
0.0
 10
127.7111779175795
 20
165.5620089026001
 30
0.0
 10
127.7090703159231
 20
166.018073700908
 30
0.0
 10
127.676075276727
 20
166.5943159529486
 30
0.0
 10
127.6097450111948
 20
167.024097503639
 30
0.0
 10
127.5739985109175
 20
167.2557140394344
 30
0.0
  0
LINE
  5
7E
330
1F
100
AcDbEntity
  8
0
  6
Continuous
 62
     7
370
    25
100
AcDbLine
 10
90.6241042649
 20
161.206961762
 30
0.0
 11
90.5733840892
 21
161.2485822324
 31
0.0
  0
LINE
  5
7F
330
1F
100
AcDbEntity
  8
0
  6
Continuous
 62
     7
370
    25
100
AcDbLine
 10
88.035974964
 20
158.1564058256
 30
0.0
 11
88.0866951397
 21
158.1147853552
 31
0.0
  0
LINE
  5
80
330
1F
100
AcDbEntity
  8
0
  6
Continuous
 62
     7
370
    25
100
AcDbLine
 10
88.8998102048
 20
159.3537467596
 30
0.0
 11
88.7053828647
 21
159.5132918961
 31
0.0
  0
LINE
  5
81
330
1F
100
AcDbEntity
  8
0
  6
Continuous
 62
     7
370
    25
100
AcDbLine
 10
89.6165618597
 20
160.1275454942
 30
0.0
 11
89.8109891997
 21
159.9680003577
 31
0.0
  0
LINE
  5
82
330
1F
100
AcDbEntity
  8
0
  6
Continuous
 62
     7
370
    25
100
AcDbLine
 10
118.8556930242
 20
163.9178323553
 30
0.0
 11
118.8049728485
 21
163.9594528257
 31
0.0
  0
LINE
  5
83
330
1F
100
AcDbEntity
  8
0
  6
Continuous
 62
     7
370
    25
100
AcDbLine
 10
116.2675637233
 20
160.8672764189
 30
0.0
 11
116.318283899
 21
160.8256559485
 31
0.0
  0
LINE
  5
84
330
1F
100
AcDbEntity
  8
0
  6
Continuous
 62
     7
370
    25
100
AcDbLine
 10
117.1695362524
 20
162.0206410755
 30
0.0
 11
116.9751089124
 21
162.180186212
 31
0.0
  0
LINE
  5
85
330
1F
100
AcDbEntity
  8
0
  6
Continuous
 62
     7
370
    25
100
AcDbLine
 10
117.8100133307
 20
162.8823923649
 30
0.0
 11
118.0044406707
 21
162.7228472283
 31
0.0
  0
LINE
  5
86
330
1F
100
AcDbEntity
  8
0
  6
Continuous
 62
     7
370
    25
100
AcDbLine
 10
76.611989274
 20
149.8649004676
 30
0.0
 11
76.5982100048
 21
148.4301873966
 31
0.0
  0
LINE
  5
87
330
1F
100
AcDbEntity
  8
0
  6
Continuous
 62
     7
370
    25
100
AcDbLine
 10
124.9228738663
 20
153.8799552201
 30
0.0
 11
124.9417852846
 21
155.8490334554
 31
0.0
  0
LINE
  5
88
330
1F
100
AcDbEntity
  8
0
  6
Continuous
 62
     7
370
    25
100
AcDbLine
 10
121.6881604906
 20
150.5218223214
 30
0.0
 11
121.7154924585
 21
153.3676576851
 31
0.0
  0
LINE
  5
89
330
1F
100
AcDbEntity
  8
0
  6
Continuous
 62
     7
370
    25
100
AcDbLine
 10
72.6786165631
 20
157.1955224735
 30
0.0
 11
72.6660973832
 21
155.8920113227
 31
0.0
  0
LINE
  5
8A
330
1F
100
AcDbEntity
  8
0
  6
Continuous
 62
     7
370
    25
100
AcDbLine
 10
75.8430249797
 20
153.2334236186
 30
0.0
 11
75.8273213233
 21
151.5983411763
 31
0.0
  0
SPLINE
  5
8B
330
1F
100
AcDbEntity
  8
0
  6
Continuous
 62
     7
370
    25
100
AcDbSpline
210
0.0
220
0.0
230
1.0
 70
     8
 71
     3
 72
     9
 73
     5
 74
     0
 42
0.00000001
 43
0.00000001
 40
0.0
 40
0.0
 40
0.0
 40
0.0
 40
0.5030015694034804
 40
1.0
 40
1.0
 40
1.0
 40
1.0
 10
79.6409562931886
 20
151.482296210844
 30
0.0
 10
79.68493239789693
 20
151.453314904093
 30
0.0
 10
79.77235976867131
 20
151.3956981718323
 30
0.0
 10
79.86531026177104
 20
151.3989334391386
 30
0.0
 10
79.91150651096478
 20
151.4005413619124
 30
0.0
  0
LINE
  5
8C
330
1F
100
AcDbEntity
  8
0
  6
Continuous
 62
     7
370
    25
100
AcDbLine
 10
79.8835457527
 20
151.3959332013
 30
0.0
 11
80.8386931542
 21
151.4876489395
 31
0.0
  0
LINE
  5
8D
330
1F
100
AcDbEntity
  8
0
  6
Continuous
 62
     7
370
    25
100
AcDbLine
 10
70.1729557782
 20
159.2516427279
 30
0.0
 11
79.6407219042
 21
151.4824882543
 31
0.0
  0
SPLINE
  5
8E
330
1F
100
AcDbEntity
  8
0
  6
Continuous
 62
     7
370
    25
100
AcDbSpline
210
0.0
220
0.0
230
1.0
 70
     8
 71
     3
 72
    10
 73
     6
 74
     0
 42
0.00000001
 43
0.00000001
 40
0.0
 40
0.0
 40
0.0
 40
0.0
 40
0.1503531963953973
 40
0.5557031571192617
 40
0.9999999999999999
 40
0.9999999999999999
 40
0.9999999999999999
 40
0.9999999999999999
 10
129.1723398011297
 20
172.5581886620156
 30
0.0
 10
129.174286810605
 20
172.578015139766
 30
0.0
 10
129.1814829284017
 20
172.6512935039421
 30
0.0
 10
129.1155447712586
 20
172.7757075638513
 30
0.0
 10
129.0327579726145
 20
172.8250725561686
 30
0.0
 10
128.9894671450451
 20
172.8508864710122
 30
0.0
  0
LINE
  5
8F
330
1F
100
AcDbEntity
  8
0
  6
Continuous
 62
     7
370
    25
100
AcDbLine
 10
129.1710644867
 20
171.6004244499
 30
0.0
 11
129.1802506662
 21
172.5568998306
 31
0.0
  0
LINE
  5
90
330
1F
100
AcDbEntity
  8
0
  6
Continuous
 62
     7
370
    25
100
AcDbLine
 10
129.0446745726
 20
172.8275363764
 30
0.0
 11
119.5769084466
 21
180.59669085
 31
0.0
  0
SPLINE
  5
91
330
1F
100
AcDbEntity
  8
0
  6
Continuous
 62
     7
370
    25
100
AcDbSpline
210
0.0
220
0.0
230
1.0
 70
     8
 71
     3
 72
    11
 73
     7
 74
     0
 42
0.00000001
 43
0.00000001
 40
0.0
 40
0.0
 40
0.0
 40
0.0
 40
0.4767774502005068
 40
0.6708556235671577
 40
0.9923332447694821
 40
1.0
 40
1.0
 40
1.0
 40
1.0
 10
70.59560804881023
 20
175.7269563744124
 30
0.0
 10
70.49915203430285
 20
175.5876963600294
 30
0.0
 10
70.36343240299072
 20
175.3917488299027
 30
0.0
 10
70.26454465970652
 20
175.0619878270427
 30
0.0
 10
70.22253023733529
 20
174.8810612994395
 30
0.0
 10
70.23259316816949
 20
174.7703158513539
 30
0.0
 10
70.2328275638728
 20
174.767736259223
 30
0.0
  0
SPLINE
  5
92
330
1F
100
AcDbEntity
  8
0
  6
Continuous
 62
     7
370
    25
100
AcDbSpline
210
0.0
220
0.0
230
1.0
 70
     8
 71
     3
 72
     9
 73
     5
 74
     0
 42
0.00000001
 43
0.00000001
 40
0.0
 40
0.0
 40
0.0
 40
0.0
 40
0.1319650365323776
 40
1.0
 40
1.0
 40
1.0
 40
1.0
 10
71.03667616882322
 20
176.0965133702679
 30
0.0
 10
71.01418019427864
 20
176.0851477799624
 30
0.0
 10
70.84371099171015
 20
175.9990220105606
 30
0.0
 10
70.71089605636259
 20
175.8533793210666
 30
0.0
 10
70.59560804881023
 20
175.7269563744124
 30
0.0
  0
SPLINE
  5
93
330
1F
100
AcDbEntity
  8
0
  6
Continuous
 62
     7
370
    25
100
AcDbSpline
210
0.0
220
0.0
230
1.0
 70
     8
 71
     3
 72
    10
 73
     6
 74
     0
 42
0.00000001
 43
0.00000001
 40
0.0
 40
0.0
 40
0.0
 40
0.0
 40
0.1862609462195219
 40
0.6838733393061542
 40
1.0
 40
1.0
 40
1.0
 40
1.0
 10
71.64510676071835
 20
176.2875219463783
 30
0.0
 10
71.60577926886708
 20
176.2873268817721
 30
0.0
 10
71.46138494614537
 20
176.2866106850257
 30
0.0
 10
71.25152001128191
 20
176.2161567667936
 30
0.0
 10
71.09678761889823
 20
176.1299885584546
 30
0.0
 10
71.03667616882322
 20
176.0965133702679
 30
0.0
  0
LINE
  5
94
330
1F
100
AcDbEntity
  8
0
  6
Continuous
 62
     7
370
    25
100
AcDbLine
 10
70.2319850436
 20
174.7699169728
 30
0.0
 11
69.8472414987
 21
160.3782266465
 31
0.0
  0
LINE
  5
95
330
1F
100
AcDbEntity
  8
0
  6
Continuous
 62
     7
370
    25
100
AcDbLine
 10
118.4350340392
 20
180.7926157786
 30
0.0
 11
114.6470481979
 21
180.4288835242
 31
0.0
  0
LINE
  5
96
330
1F
100
AcDbEntity
  8
0
  6
Continuous
 62
     7
370
    25
100
AcDbLine
 10
103.6363866324
 20
179.371611158
 30
0.0
 11
71.645419378
 21
176.2997552621
 31
0.0
  0
SPLINE
  5
97
330
1F
100
AcDbEntity
  8
0
  6
Continuous
 62
     7
370
    25
100
AcDbSpline
210
0.0
220
0.0
230
1.0
 70
     8
 71
     3
 72
    12
 73
     8
 74
     0
 42
0.00000001
 43
0.00000001
 40
0.0
 40
0.0
 40
0.0
 40
0.0
 40
0.1561055973285347
 40
0.3016831913350399
 40
0.5701962870727072
 40
0.8170345227112435
 40
1.0
 40
1.0
 40
1.0
 40
1.0
 10
69.84726416887466
 20
160.3787869036986
 30
0.0
 10
69.84722371027307
 20
160.312277323522
 30
0.0
 10
69.84714552166066
 20
160.1837436722921
 30
0.0
 10
69.8729704926038
 20
159.9331045397785
 30
0.0
 10
69.93303621828342
 20
159.6582914452783
 30
0.0
 10
70.02935403407638
 20
159.4114351897876
 30
0.0
 10
70.11198880351624
 20
159.3218663319924
 30
0.0
 10
70.14716604739866
 20
159.2837372783714
 30
0.0
  0
LINE
  5
98
330
1F
100
AcDbEntity
  8
0
  6
Continuous
 62
     7
370
    25
100
AcDbLine
 10
118.7170324302
 20
180.8043877485
 30
0.0
 11
118.4390998301
 21
180.7888889042
 31
0.0
  0
SPLINE
  5
99
330
1F
100
AcDbEntity
  8
0
  6
Continuous
 62
     7
370
    25
100
AcDbSpline
210
0.0
220
0.0
230
1.0
 70
     8
 71
     3
 72
    12
 73
     8
 74
     0
 42
0.00000001
 43
0.00000001
 40
0.0
 40
0.0
 40
0.0
 40
0.0
 40
0.1987230938293001
 40
0.382059838621771
 40
0.5629960172363467
 40
0.7652036400245078
 40
1.0
 40
1.0
 40
1.0
 40
1.0
 10
119.5695320891725
 20
180.5838036371773
 30
0.0
 10
119.5317414696421
 20
180.6171400623409
 30
0.0
 10
119.4590862098985
 20
180.6812318041351
 30
0.0
 10
119.3150881811333
 20
180.7267627382865
 30
0.0
 10
119.1521960045312
 20
180.7671847939001
 30
0.0
 10
118.9515137152982
 20
180.7961462954499
 30
0.0
 10
118.7989843863606
 20
180.8015073343738
 30
0.0
 10
118.7170324302307
 20
180.8043877484539
 30
0.0
  0
SPLINE
  5
9A
330
1F
100
AcDbEntity
  8
0
  6
Continuous
 62
     7
370
    25
100
AcDbSpline
210
0.0
220
0.0
230
1.0
 70
     8
 71
     3
 72
    14
 73
    10
 74
     0
 42
0.00000001
 43
0.00000001
 40
0.0
 40
0.0
 40
0.0
 40
0.0
 40
0.2257386023527624
 40
0.3182996820073541
 40
0.4717387065854136
 40
0.6313242550364878
 40
0.8027365653295034
 40
0.9819500845158585
 40
1.0
 40
1.0
 40
1.0
 40
1.0
 10
116.9427370237116
 20
186.2268181933375
 30
0.0
 10
117.1711980328729
 20
186.5264153316815
 30
0.0
 10
117.4933364080078
 20
186.948858249602
 30
0.0
 10
117.8872059485716
 20
187.6276596266714
 30
0.0
 10
118.1851535866085
 20
188.2309785823317
 30
0.0
 10
118.4730933005662
 20
188.978436053909
 30
0.0
 10
118.6866300396288
 20
189.7858333100298
 30
0.0
 10
118.8042028516849
 20
190.3786708700084
 30
0.0
 10
118.8180499349171
 20
190.6954949747774
 30
0.0
 10
118.8193169648787
 20
190.7244848802
 30
0.0
  0
SPLINE
  5
9B
330
1F
100
AcDbEntity
  8
0
  6
Continuous
 62
     7
370
    25
100
AcDbSpline
210
0.0
220
0.0
230
1.0
 70
     8
 71
     3
 72
    13
 73
     9
 74
     0
 42
0.00000001
 43
0.00000001
 40
0.0
 40
0.0
 40
0.0
 40
0.0
 40
0.1186838360455702
 40
0.328712438686415
 40
0.5252196346911316
 40
0.6642510817528191
 40
0.8099311328491233
 40
1.0
 40
1.0
 40
1.0
 40
1.0
 10
113.2326500189484
 20
183.6282357549822
 30
0.0
 10
113.4017318978222
 20
183.6848208265182
 30
0.0
 10
113.8700291705944
 20
183.8415415517458
 30
0.0
 10
114.5818680521778
 20
184.2116934984591
 30
0.0
 10
115.2852765703077
 20
184.6622023163134
 30
0.0
 10
115.8666086664601
 20
185.1207317164626
 30
0.0
 10
116.4092009016286
 20
185.6135634875937
 30
0.0
 10
116.7498781872011
 20
186.0051432511188
 30
0.0
 10
116.9427370237116
 20
186.2268181933375
 30
0.0
  0
LINE
  5
9C
330
1F
100
AcDbEntity
  8
0
  6
Continuous
 62
     7
370
    25
100
AcDbLine
 10
105.3262927036
 20
185.5049593059
 30
0.0
 11
106.7988944109
 21
184.4373667386
 31
0.0
  0
LINE
  5
9D
330
1F
100
AcDbEntity
  8
0
  6
Continuous
 62
     7
370
    25
100
AcDbLine
 10
116.7177466949
 20
196.5248305653
 30
0.0
 11
114.6298622846
 21
198.4584306378
 31
0.0
  0
LINE
  5
9E
330
1F
100
AcDbEntity
  8
0
  6
Continuous
 62
     7
370
    25
100
AcDbLine
 10
114.6157713605
 20
177.1723038886
 30
0.0
 11
114.6841631453
 21
184.2933337793
 31
0.0
  0
LINE
  5
9F
330
1F
100
AcDbEntity
  8
0
  6
Continuous
 62
     7
370
    25
100
AcDbLine
 10
103.7039900688
 20
186.4105573173
 30
0.0
 11
103.6162786489
 21
177.2779452004
 31
0.0
  0
LINE
  5
A0
330
1F
100
AcDbEntity
  8
0
  6
Continuous
 62
     7
370
    25
100
AcDbLine
 10
103.4152942353
 20
187.0443493342
 30
0.0
 11
103.8961454671
 21
186.5990306316
 31
0.0
  0
LINE
  5
A1
330
1F
100
AcDbEntity
  8
0
  6
Continuous
 62
     7
370
    25
100
AcDbLine
 10
115.7837339901
 20
177.3053960097
 30
0.0
 11
115.3117340749
 21
177.7437401894
 31
0.0
  0
LINE
  5
A2
330
1F
100
AcDbEntity
  8
0
  6
Continuous
 62
     7
370
    25
100
AcDbLine
 10
102.9314196777
 20
177.8626431867
 30
0.0
 11
102.4510877172
 21
177.4334453914
 31
0.0
  0
LINE
  5
A3
330
1F
100
AcDbEntity
  8
0
  6
Continuous
 62
     7
370
    25
100
AcDbLine
 10
116.1019229157
 20
175.7231851842
 30
0.0
 11
116.1111090951
 21
176.6796605649
 31
0.0
  0
LINE
  5
A4
330
1F
100
AcDbEntity
  8
0
  6
Continuous
 62
     7
370
    25
100
AcDbLine
 10
102.1117547349
 20
176.8141131435
 30
0.0
 11
102.1025685554
 21
175.8576377628
 31
0.0
  0
LINE
  5
A5
330
1F
100
AcDbEntity
  8
0
  6
Continuous
 62
     7
370
    25
100
AcDbLine
 10
90.3607713005
 20
248.1907122441
 30
0.0
 11
89.5391978646
 21
248.7000034459
 31
0.0
  0
LINE
  5
A6
330
1F
100
AcDbEntity
  8
0
  6
Continuous
 62
     7
370
    25
100
AcDbLine
 10
74.9183708061
 20
225.1141196141
 30
0.0
 11
75.739944242
 21
224.6048284123
 31
0.0
  0
SPLINE
  5
A7
330
1F
100
AcDbEntity
  8
0
  6
Continuous
 62
     7
370
    25
100
AcDbSpline
210
0.0
220
0.0
230
1.0
 70
     8
 71
     3
 72
     9
 73
     5
 74
     0
 42
0.00000001
 43
0.00000001
 40
0.0
 40
0.0
 40
0.0
 40
0.0
 40
0.0264378644176161
 40
0.9999999999999999
 40
0.9999999999999999
 40
0.9999999999999999
 40
0.9999999999999999
 10
72.52294886217281
 20
228.1542508229975
 30
0.0
 10
72.52264406830756
 20
228.1446264458374
 30
0.0
 10
72.51111538125276
 20
227.7805888288789
 30
0.0
 10
72.55182254511588
 20
227.4605610384854
 30
0.0
 10
72.59145349849996
 20
227.1489940994242
 30
0.0
  0
SPLINE
  5
A8
330
1F
100
AcDbEntity
  8
0
  6
Continuous
 62
     7
370
    25
100
AcDbSpline
210
0.0
220
0.0
230
1.0
 70
     8
 71
     3
 72
     9
 73
     5
 74
     0
 42
0.00000001
 43
0.00000001
 40
0.0
 40
0.0
 40
0.0
 40
0.0
 40
0.0387657935244965
 40
1.0
 40
1.0
 40
1.0
 40
1.0
 10
86.68948565453185
 20
249.8814054655514
 30
0.0
 10
86.67956697327757
 20
249.8786222694844
 30
0.0
 10
86.42370528820689
 20
249.8068271167481
 30
0.0
 10
86.15067107290676
 20
249.6762026549698
 30
0.0
 10
85.88822124562206
 20
249.550641954106
 30
0.0
  0
LINE
  5
A9
330
1F
100
AcDbEntity
  8
0
  6
Continuous
 62
     7
370
    25
100
AcDbLine
 10
74.385314531
 20
223.826801886
 30
0.0
 11
78.0218978053
 21
221.5724935245
 31
0.0
  0
LINE
  5
AA
330
1F
100
AcDbEntity
  8
0
  6
Continuous
 62
     7
370
    25
100
AcDbLine
 10
94.0916356533
 20
247.4957171955
 30
0.0
 11
90.4550523791
 21
249.750025557
 31
0.0
  0
LINE
  5
AB
330
1F
100
AcDbEntity
  8
0
  6
Continuous
 62
     7
370
    25
100
AcDbLine
 10
78.4046960447
 20
221.3351979075
 30
0.0
 11
107.880160478
 21
203.0634353982
 31
0.0
  0
LINE
  5
AC
330
1F
100
AcDbEntity
  8
0
  6
Continuous
 62
     7
370
    25
100
AcDbLine
 10
123.949898326
 20
228.9866590692
 30
0.0
 11
94.4744338927
 21
247.2584215785
 31
0.0
  0
LINE
  5
AD
330
1F
100
AcDbEntity
  8
0
  6
Continuous
 62
     7
370
    25
100
AcDbLine
 10
119.5413289352
 20
195.8347078878
 30
0.0
 11
119.9383050189
 21
195.5886234626
 31
0.0
  0
LINE
  5
AE
330
1F
100
AcDbEntity
  8
0
  6
Continuous
 62
     7
370
    25
100
AcDbLine
 10
107.880160478
 20
203.0634353982
 30
0.0
 11
110.1769499143
 21
201.6396616962
 31
0.0
  0
LINE
  5
AF
330
1F
100
AcDbEntity
  8
0
  6
Continuous
 62
     7
370
    25
100
AcDbLine
 10
136.0080428669
 20
221.5118471335
 30
0.0
 11
123.949898326
 21
228.9866590692
 31
0.0
  0
LINE
  5
B0
330
1F
100
AcDbEntity
  8
0
  6
Continuous
 62
     7
370
    25
100
AcDbLine
 10
137.8624326016
 20
217.3378394397
 30
0.0
 11
137.8008653907
 21
218.2042697681
 31
0.0
  0
SPLINE
  5
B1
330
1F
100
AcDbEntity
  8
0
  6
Continuous
 62
     7
370
    25
100
AcDbSpline
210
0.0
220
0.0
230
1.0
 70
     8
 71
     3
 72
     9
 73
     5
 74
     0
 42
0.00000001
 43
0.00000001
 40
0.0
 40
0.0
 40
0.0
 40
0.0
 40
0.0430080160323937
 40
1.0
 40
1.0
 40
1.0
 40
1.0
 10
123.6944200483329
 20
195.454565635594
 30
0.0
 10
123.7074853244547
 20
195.4582278702815
 30
0.0
 10
124.0112723234174
 20
195.5433802447764
 30
0.0
 10
124.3354503652279
 20
195.6983878441777
 30
0.0
 10
124.6456861526189
 20
195.8467288742588
 30
0.0
  0
LINE
  5
B2
330
1F
100
AcDbEntity
  8
0
  6
Continuous
 62
     7
370
    25
100
AcDbLine
 10
101.2295087109
 20
188.7722385941
 30
0.0
 11
103.2583157379
 21
187.1074197783
 31
0.0
  0
SPLINE
  5
B3
330
1F
100
AcDbEntity
  8
0
  6
Continuous
 62
     7
370
    25
100
AcDbSpline
210
0.0
220
0.0
230
1.0
 70
     8
 71
     3
 72
    15
 73
    11
 74
     0
 42
0.00000001
 43
0.00000001
 40
0.0
 40
0.0
 40
0.0
 40
0.0
 40
0.1902003308712563
 40
0.2681657254286022
 40
0.3974145089459981
 40
0.5318360958634459
 40
0.6762150300735702
 40
0.8271570058918062
 40
0.9833883470201414
 40
1.0
 40
1.0
 40
1.0
 40
1.0
 10
100.7040249955262
 20
199.5521433565852
 30
0.0
 10
100.4729004647556
 20
199.249311975836
 30
0.0
 10
100.1470352195454
 20
198.822346383667
 30
0.0
 10
99.74776193977596
 20
198.1367689885884
 30
0.0
 10
99.44451188848488
 20
197.5275875620478
 30
0.0
 10
99.15320179387832
 20
196.7730656854696
 30
0.0
 10
98.92362225656122
 20
195.9573186749917
 30
0.0
 10
98.78526130828607
 20
195.0883948780131
 30
0.0
 10
98.72775817471272
 20
194.4596666824232
 30
0.0
 10
98.74987095130864
 20
194.1303659176425
 30
0.0
 10
98.75199617352621
 20
194.0987173682827
 30
0.0
  0
SPLINE
  5
B4
330
1F
100
AcDbEntity
  8
0
  6
Continuous
 62
     7
370
    25
100
AcDbSpline
210
0.0
220
0.0
230
1.0
 70
     8
 71
     3
 72
    15
 73
    11
 74
     0
 42
0.00000001
 43
0.00000001
 40
0.0
 40
0.0
 40
0.0
 40
0.0
 40
0.0536246996090427
 40
0.2056072332592117
 40
0.3555655910899942
 40
0.5013541976199077
 40
0.6362223874102149
 40
0.7427511859710383
 40
0.8388570842363141
 40
1.0
 40
1.0
 40
1.0
 40
1.0
 10
106.4657153838101
 20
202.6249511835733
 30
0.0
 10
106.3499704022444
 20
202.6201003815779
 30
0.0
 10
105.9061822673572
 20
202.6015014899356
 30
0.0
 10
105.1392883038293
 20
202.43516177706
 30
0.0
 10
104.1944900938924
 20
202.1349791636415
 30
0.0
 10
103.3192429848451
 20
201.7265023807144
 30
0.0
 10
102.572161205939
 20
201.2722076008826
 30
0.0
 10
101.9599210012257
 20
200.8127626096182
 30
0.0
 10
101.3351775087773
 20
200.2688964865193
 30
0.0
 10
100.9471123919412
 20
199.8281996956949
 30
0.0
 10
100.7040249955262
 20
199.5521433565852
 30
0.0
  0
LWPOLYLINE
  5
B5
330
1F
100
AcDbEntity
  8
0
  6
Continuous
 62
     7
370
    25
100
AcDbPolyline
 90
       22
 70
   128
 43
0.0
 10
91.2189223305
 20
159.5897547611
 10
91.2140847376
 20
160.1588891418
 10
91.0440948226
 20
160.6837726524
 10
90.7240569355
 20
161.1177670896
 10
90.2824078469
 20
161.4223101431
 10
89.7583900165
 20
161.5703418261
 10
89.1985647283
 20
161.548708874
 10
88.6526749157
 20
161.3593334695
 10
88.1692252843
 20
161.0190424484
 10
87.7911724554
 20
160.5580721611
 10
87.5521080818
 20
160.0173818408
 10
87.4732740823
 20
159.445014195
 10
87.5616752038
 20
158.891826601
 10
87.8094566186
 20
158.4069722041
 10
88.1946018606
 20
158.0335324452
 10
88.6828890849
 20
157.8046890857
 10
89.2309318288
 20
157.7407758623
 10
89.7900340896
 20
157.8474717455
 10
90.3105171776
 20
158.1152963377
 10
90.7461338865
 20
158.5204522487
 10
91.05817776
 20
159.0269395977
 10
91.2189223305
 20
159.5897547611
  0
ARC
  5
B6
330
1F
100
AcDbEntity
  8
0
  6
Continuous
 62
     7
370
    25
100
AcDbCircle
 10
89.4264850903
 20
159.602541598
 30
0.0
 40
2.006197169694479
100
AcDbArc
 50
55.1326716953
 51
226.1234064599
  0
LINE
  5
B7
330
1F
100
AcDbEntity
  8
0
  6
Continuous
 62
     7
370
    25
100
AcDbLine
 10
89.7526329745
 20
160.7314766179
 30
0.0
 11
89.255693607
 21
160.7504416306
 31
0.0
  0
LINE
  5
B8
330
1F
100
AcDbEntity
  8
0
  6
Continuous
 62
     7
370
    25
100
AcDbLine
 10
89.255693607
 20
160.7504416306
 30
0.0
 11
89.1950862191
 21
160.3104067705
 31
0.0
  0
ARC
  5
B9
330
1F
100
AcDbEntity
  8
0
  6
Continuous
 62
     7
370
    25
100
AcDbCircle
 10
88.7717542992
 20
160.3677986643
 30
0.0
 40
0.4272045690929464
100
AcDbArc
 50
269.6960436743
 51
352.2793762317
  0
LINE
  5
BA
330
1F
100
AcDbEntity
  8
0
  6
Continuous
 62
     7
370
    25
100
AcDbLine
 10
88.7694879731
 20
159.9406001067
 30
0.0
 11
88.3424307041
 21
159.9568981644
 31
0.0
  0
LINE
  5
BB
330
1F
100
AcDbEntity
  8
0
  6
Continuous
 62
     7
370
    25
100
AcDbLine
 10
88.3424307041
 20
159.9568981644
 30
0.0
 11
88.2719057436
 21
159.4448576
 31
0.0
  0
LINE
  5
BC
330
1F
100
AcDbEntity
  8
0
  6
Continuous
 62
     7
370
    25
100
AcDbLine
 10
88.2719057436
 20
159.4448576
 30
0.0
 11
88.6989630126
 21
159.4285595422
 31
0.0
  0
ARC
  5
BD
330
1F
100
AcDbEntity
  8
0
  6
Continuous
 62
     7
370
    25
100
AcDbCircle
 10
88.6850952916
 20
159.0898870925
 30
0.0
 40
0.3389562536358744
100
AcDbArc
 50
349.875947035
 51
87.6552026637
  0
LINE
  5
BE
330
1F
100
AcDbEntity
  8
0
  6
Continuous
 62
     7
370
    25
100
AcDbLine
 10
89.0187738179
 20
159.0303053594
 30
0.0
 11
88.95816643
 21
158.5902704993
 31
0.0
  0
LINE
  5
BF
330
1F
100
AcDbEntity
  8
0
  6
Continuous
 62
     7
370
    25
100
AcDbLine
 10
88.95816643
 20
158.5902704993
 30
0.0
 11
89.4551057976
 21
158.5713054866
 31
0.0
  0
LINE
  5
C0
330
1F
100
AcDbEntity
  8
0
  6
Continuous
 62
     7
370
    25
100
AcDbLine
 10
89.4551057976
 20
158.5713054866
 30
0.0
 11
89.5157131855
 21
159.0113403467
 31
0.0
  0
ARC
  5
C1
330
1F
100
AcDbEntity
  8
0
  6
Continuous
 62
     7
370
    25
100
AcDbCircle
 10
89.9390451054
 20
158.9539484529
 30
0.0
 40
0.4272045690930149
100
AcDbArc
 50
89.6960436743
 51
172.2793762317
  0
LINE
  5
C2
330
1F
100
AcDbEntity
  8
0
  6
Continuous
 62
     7
370
    25
100
AcDbLine
 10
89.9413114315
 20
159.3811470106
 30
0.0
 11
90.3683687005
 21
159.3648489528
 31
0.0
  0
LINE
  5
C3
330
1F
100
AcDbEntity
  8
0
  6
Continuous
 62
     7
370
    25
100
AcDbLine
 10
90.3683687005
 20
159.3648489528
 30
0.0
 11
90.4388936609
 21
159.8768895172
 31
0.0
  0
LINE
  5
C4
330
1F
100
AcDbEntity
  8
0
  6
Continuous
 62
     7
370
    25
100
AcDbLine
 10
90.4388936609
 20
159.8768895172
 30
0.0
 11
90.0118363919
 21
159.893187575
 31
0.0
  0
ARC
  5
C5
330
1F
100
AcDbEntity
  8
0
  6
Continuous
 62
     7
370
    25
100
AcDbCircle
 10
90.025704113
 20
160.2318600247
 30
0.0
 40
0.3389562536358167
100
AcDbArc
 50
169.8759470349
 51
267.6552026638
  0
LINE
  5
C6
330
1F
100
AcDbEntity
  8
0
  6
Continuous
 62
     7
370
    25
100
AcDbLine
 10
89.6920255866
 20
160.2914417578
 30
0.0
 11
89.7526329745
 21
160.7314766179
 31
0.0
  0
LINE
  5
C7
330
1F
100
AcDbEntity
  8
0
  6
Continuous
 62
     7
370
    25
100
AcDbLine
 10
88.2927488509
 20
159.5961872337
 30
0.0
 11
88.5045356725
 21
159.5881046787
 31
0.0
  0
LINE
  5
C8
330
1F
100
AcDbEntity
  8
0
  6
Continuous
 62
     7
370
    25
100
AcDbLine
 10
88.6989630126
 20
159.4285595422
 30
0.0
 11
88.5045356725
 21
159.5881046787
 31
0.0
  0
LINE
  5
C9
330
1F
100
AcDbEntity
  8
0
  6
Continuous
 62
     7
370
    25
100
AcDbLine
 10
89.4975982465
 20
160.4509868943
 30
0.0
 11
89.6920255866
 21
160.2914417578
 31
0.0
  0
LINE
  5
CA
330
1F
100
AcDbEntity
  8
0
  6
Continuous
 62
     7
370
    25
100
AcDbLine
 10
89.4975982465
 20
160.4509868943
 30
0.0
 11
89.5373625271
 21
160.7396921207
 31
0.0
  0
ARC
  5
CB
330
1F
100
AcDbEntity
  8
0
  6
Continuous
 62
     7
370
    25
100
AcDbCircle
 10
88.4947289332
 20
159.2547668627
 30
0.0
 40
0.3334820411350478
100
AcDbArc
 50
50.8258220064
 51
88.3148544163
  0
LINE
  5
CC
330
1F
100
AcDbEntity
  8
0
  6
Continuous
 62
     7
370
    25
100
AcDbLine
 10
90.1739413604
 20
159.5243940893
 30
0.0
 11
90.2236232135
 21
159.88510502
 31
0.0
  0
LINE
  5
CD
330
1F
100
AcDbEntity
  8
0
  6
Continuous
 62
     7
370
    25
100
AcDbLine
 10
89.7468840914
 20
159.5406921471
 30
0.0
 11
90.1739413604
 21
159.5243940893
 31
0.0
  0
ARC
  5
CE
330
1F
100
AcDbEntity
  8
0
  6
Continuous
 62
     7
370
    25
100
AcDbCircle
 10
89.7446177653
 20
159.1134935895
 30
0.0
 40
0.4272045690929369
100
AcDbArc
 50
89.6960436743
 51
172.2793762317
  0
LINE
  5
CF
330
1F
100
AcDbEntity
  8
0
  6
Continuous
 62
     7
370
    25
100
AcDbLine
 10
89.2606784575
 20
158.7308506232
 30
0.0
 11
89.3212858454
 21
159.1708854832
 31
0.0
  0
LINE
  5
D0
330
1F
100
AcDbEntity
  8
0
  6
Continuous
 62
     7
370
    25
100
AcDbLine
 10
88.9790095374
 20
158.741600133
 30
0.0
 11
89.2606784575
 21
158.7308506232
 31
0.0
  0
ARC
  5
D1
330
1F
100
AcDbEntity
  8
0
  6
Continuous
 62
     7
370
    25
100
AcDbCircle
 10
89.8456345378
 20
160.3953981986
 30
0.0
 40
0.3524476743163474
100
AcDbArc
 50
170.925311664
 51
229.4623149303
  0
LINE
  5
D2
330
1F
100
AcDbEntity
  8
0
  6
Continuous
 62
     7
370
    25
100
AcDbLine
 10
89.7468840914
 20
159.5406921471
 30
0.0
 11
89.9413114315
 21
159.3811470106
 31
0.0
  0
LINE
  5
D3
330
1F
100
AcDbEntity
  8
0
  6
Continuous
 62
     7
370
    25
100
AcDbLine
 10
89.5157131855
 20
159.0113403467
 30
0.0
 11
89.3212858454
 21
159.1708854832
 31
0.0
  0
LINE
  5
D4
330
1F
100
AcDbEntity
  8
0
  6
Continuous
 62
     7
370
    25
100
AcDbLine
 10
89.2606784575
 20
158.7308506232
 30
0.0
 11
89.4551057976
 21
158.5713054866
 31
0.0
  0
LINE
  5
D5
330
1F
100
AcDbEntity
  8
0
  6
Continuous
 62
     7
370
    25
100
AcDbLine
 10
90.1739413604
 20
159.5243940893
 30
0.0
 11
90.3683687005
 21
159.3648489528
 31
0.0
  0
LWPOLYLINE
  5
D6
330
1F
100
AcDbEntity
  8
0
  6
Continuous
 62
     7
370
    25
100
AcDbPolyline
 90
       22
 70
   128
 43
0.0
 10
117.723315825
 20
164.2922619236
 10
117.1639294417
 20
164.1891224139
 10
116.6421337088
 20
163.9245008702
 10
116.2042924671
 20
163.5219100779
 10
115.8893098324
 20
163.0171219957
 10
115.725173394
 20
162.4549892599
 10
115.7264673948
 20
161.8854598309
 10
115.8930768572
 20
161.3591388978
 10
116.2101977992
 20
160.9227923853
 10
116.6496526336
 20
160.6151915959
 10
117.1723938697
 20
160.4636682096
 10
117.7319736546
 20
160.4816857443
 10
118.278670869
 20
160.6676432628
 10
118.763909066
 20
161.0050176237
 10
119.1445727025
 20
161.4638316343
 10
119.3868381439
 20
162.0033176565
 10
119.4691790424
 20
162.5755399896
 10
119.384279048
 20
163.1296541682
 10
119.1396818978
 20
163.6164247158
 10
118.7571211218
 20
163.9925999331
 10
118.2705889239
 20
164.2247550012
 10
117.723315825
 20
164.2922619236
  0
LINE
  5
D7
330
1F
100
AcDbEntity
  8
0
  6
Continuous
 62
     7
370
    25
100
AcDbLine
 10
116.5492111925
 20
162.5938132246
 30
0.0
 11
116.5128572289
 21
162.0816751521
 31
0.0
  0
LINE
  5
D8
330
1F
100
AcDbEntity
  8
0
  6
Continuous
 62
     7
370
    25
100
AcDbLine
 10
116.5128572289
 20
162.0816751521
 30
0.0
 11
116.9430608126
 21
162.0955269891
 31
0.0
  0
ARC
  5
D9
330
1F
100
AcDbEntity
  8
0
  6
Continuous
 62
     7
370
    25
100
AcDbCircle
 10
116.9559207657
 20
161.7586150396
 30
0.0
 40
0.3371572928671778
100
AcDbArc
 50
354.0238884714
 51
92.185922794
  0
LINE
  5
DA
330
1F
100
AcDbEntity
  8
0
  6
Continuous
 62
     7
370
    25
100
AcDbLine
 10
117.2912457402
 20
161.7235123107
 30
0.0
 11
117.2600040528
 21
161.2833936547
 31
0.0
  0
LINE
  5
DB
330
1F
100
AcDbEntity
  8
0
  6
Continuous
 62
     7
370
    25
100
AcDbLine
 10
117.2600040528
 20
161.2833936547
 30
0.0
 11
117.7606045865
 21
161.2995121559
 31
0.0
  0
LINE
  5
DC
330
1F
100
AcDbEntity
  8
0
  6
Continuous
 62
     7
370
    25
100
AcDbLine
 10
117.7606045865
 20
161.2995121559
 30
0.0
 11
117.791846274
 21
161.739630812
 31
0.0
  0
ARC
  5
DD
330
1F
100
AcDbEntity
  8
0
  6
Continuous
 62
     7
370
    25
100
AcDbCircle
 10
118.2199208254
 20
161.7072774462
 30
0.0
 40
0.4292954248770385
100
AcDbArc
 50
93.38645943
 51
175.6778701586
  0
LINE
  5
DE
330
1F
100
AcDbEntity
  8
0
  6
Continuous
 62
     7
370
    25
100
AcDbLine
 10
118.194562147
 20
162.1358232422
 30
0.0
 11
118.6247657307
 21
162.1496750792
 31
0.0
  0
LINE
  5
DF
330
1F
100
AcDbEntity
  8
0
  6
Continuous
 62
     7
370
    25
100
AcDbLine
 10
118.6247657307
 20
162.1496750792
 30
0.0
 11
118.6611196943
 21
162.6618131517
 31
0.0
  0
LINE
  5
E0
330
1F
100
AcDbEntity
  8
0
  6
Continuous
 62
     7
370
    25
100
AcDbLine
 10
118.6611196943
 20
162.6618131517
 30
0.0
 11
118.2309161106
 21
162.6479613147
 31
0.0
  0
ARC
  5
E1
330
1F
100
AcDbEntity
  8
0
  6
Continuous
 62
     7
370
    25
100
AcDbCircle
 10
118.2180561575
 20
162.9848732642
 30
0.0
 40
0.3371572928671518
100
AcDbArc
 50
174.0238884714
 51
272.185922794
  0
LINE
  5
E2
330
1F
100
AcDbEntity
  8
0
  6
Continuous
 62
     7
370
    25
100
AcDbLine
 10
117.882731183
 20
163.0199759931
 30
0.0
 11
117.9139728704
 21
163.4600946491
 31
0.0
  0
LINE
  5
E3
330
1F
100
AcDbEntity
  8
0
  6
Continuous
 62
     7
370
    25
100
AcDbLine
 10
117.9139728704
 20
163.4600946491
 30
0.0
 11
117.4133723367
 21
163.4439761479
 31
0.0
  0
LINE
  5
E4
330
1F
100
AcDbEntity
  8
0
  6
Continuous
 62
     7
370
    25
100
AcDbLine
 10
117.4133723367
 20
163.4439761479
 30
0.0
 11
117.3821306492
 21
163.0038574919
 31
0.0
  0
ARC
  5
E5
330
1F
100
AcDbEntity
  8
0
  6
Continuous
 62
     7
370
    25
100
AcDbCircle
 10
116.9540560978
 20
163.0362108576
 30
0.0
 40
0.4292954248770668
100
AcDbArc
 50
273.38645943
 51
355.6778701586
  0
LINE
  5
E6
330
1F
100
AcDbEntity
  8
0
  6
Continuous
 62
     7
370
    25
100
AcDbLine
 10
116.9794147762
 20
162.6076650616
 30
0.0
 11
116.5492111925
 21
162.5938132246
 31
0.0
  0
ARC
  5
E7
330
1F
100
AcDbEntity
  8
0
  6
Continuous
 62
     7
370
    25
100
AcDbCircle
 10
117.6812774706
 20
162.3123275544
 30
0.0
 40
2.021573482099766
100
AcDbArc
 50
90.2460624108
 51
225.628043314
  0
ARC
  5
E8
330
1F
100
AcDbEntity
  8
0
  6
Continuous
 62
     7
370
    25
100
AcDbCircle
 10
117.7467183511
 20
162.6585260462
 30
0.0
 40
1.676995249510747
100
AcDbArc
 50
50.8729559911
 51
92.5332820707
  0
LINE
  5
E9
330
1F
100
AcDbEntity
  8
0
  6
Continuous
 62
     7
370
    25
100
AcDbLine
 10
116.5246538345
 20
162.2478603553
 30
0.0
 11
116.7486334725
 21
162.2550721257
 31
0.0
  0
LINE
  5
EA
330
1F
100
AcDbEntity
  8
0
  6
Continuous
 62
     7
370
    25
100
AcDbLine
 10
116.9430608126
 20
162.0955269891
 30
0.0
 11
116.7486334725
 21
162.2550721257
 31
0.0
  0
LINE
  5
EB
330
1F
100
AcDbEntity
  8
0
  6
Continuous
 62
     7
370
    25
100
AcDbLine
 10
117.6883038429
 20
163.1795211296
 30
0.0
 11
117.882731183
 21
163.0199759931
 31
0.0
  0
LINE
  5
EC
330
1F
100
AcDbEntity
  8
0
  6
Continuous
 62
     7
370
    25
100
AcDbLine
 10
117.6883038429
 20
163.1795211296
 30
0.0
 11
117.7077489248
 21
163.4534545824
 31
0.0
  0
ARC
  5
ED
330
1F
100
AcDbEntity
  8
0
  6
Continuous
 62
     7
370
    25
100
AcDbCircle
 10
118.0351466165
 20
163.148102782
 30
0.0
 40
0.3482628636347749
100
AcDbArc
 50
174.8240548336
 51
229.7257891511
  0
LINE
  5
EE
330
1F
100
AcDbEntity
  8
0
  6
Continuous
 62
     7
370
    25
100
AcDbLine
 10
118.4303383906
 20
162.3092202157
 30
0.0
 11
118.4548957486
 21
162.655173085
 31
0.0
  0
LINE
  5
EF
330
1F
100
AcDbEntity
  8
0
  6
Continuous
 62
     7
370
    25
100
AcDbLine
 10
118.0001348069
 20
162.2953683787
 30
0.0
 11
118.4303383906
 21
162.3092202157
 31
0.0
  0
ARC
  5
F0
330
1F
100
AcDbEntity
  8
0
  6
Continuous
 62
     7
370
    25
100
AcDbCircle
 10
118.0254934853
 20
161.8668225828
 30
0.0
 40
0.4292954248770685
100
AcDbArc
 50
93.38645943
 51
175.6778701586
  0
LINE
  5
F1
330
1F
100
AcDbEntity
  8
0
  6
Continuous
 62
     7
370
    25
100
AcDbLine
 10
117.5661772464
 20
161.4590572924
 30
0.0
 11
117.5974189339
 21
161.8991759485
 31
0.0
  0
LINE
  5
F2
330
1F
100
AcDbEntity
  8
0
  6
Continuous
 62
     7
370
    25
100
AcDbLine
 10
117.2718006583
 20
161.4495788579
 30
0.0
 11
117.5661772464
 21
161.4590572924
 31
0.0
  0
ARC
  5
F3
330
1F
100
AcDbEntity
  8
0
  6
Continuous
 62
     7
370
    25
100
AcDbCircle
 10
116.7630718559
 20
161.9188330121
 30
0.0
 40
0.3365489688067665
100
AcDbArc
 50
50.9474208233
 51
92.4588172384
  0
LINE
  5
F4
330
1F
100
AcDbEntity
  8
0
  6
Continuous
 62
     7
370
    25
100
AcDbLine
 10
118.0001348069
 20
162.2953683787
 30
0.0
 11
118.194562147
 21
162.1358232422
 31
0.0
  0
LINE
  5
F5
330
1F
100
AcDbEntity
  8
0
  6
Continuous
 62
     7
370
    25
100
AcDbLine
 10
117.791846274
 20
161.739630812
 30
0.0
 11
117.5974189339
 21
161.8991759485
 31
0.0
  0
LINE
  5
F6
330
1F
100
AcDbEntity
  8
0
  6
Continuous
 62
     7
370
    25
100
AcDbLine
 10
117.5661772464
 20
161.4590572924
 30
0.0
 11
117.7606045865
 21
161.2995121559
 31
0.0
  0
LINE
  5
F7
330
1F
100
AcDbEntity
  8
0
  6
Continuous
 62
     7
370
    25
100
AcDbLine
 10
118.4303383906
 20
162.3092202157
 30
0.0
 11
118.6247657307
 21
162.1496750792
 31
0.0
  0
ARC
  5
F8
330
1F
100
AcDbEntity
  8
0
  6
Continuous
 62
     7
370
    25
100
AcDbCircle
 10
77.6251865612
 20
149.8417000012
 30
0.0
 40
0.9863449251366054
100
AcDbArc
 50
130.256813417
 51
239.6881621747
  0
ARC
  5
F9
330
1F
100
AcDbEntity
  8
0
  6
Continuous
 62
     7
370
    25
100
AcDbCircle
 10
81.7523636794
 20
156.0312703873
 30
0.0
 40
8.42420672294712
100
AcDbArc
 50
236.7007355893
 51
261.5702343381
  0
ARC
  5
FA
330
1F
100
AcDbEntity
  8
0
  6
Continuous
 62
     7
370
    25
100
AcDbCircle
 10
77.7178755643
 20
148.500718461
 30
0.0
 40
1.121884840804614
100
AcDbArc
 50
183.6044689775
 51
237.4094749318
  0
LWPOLYLINE
  5
FB
330
1F
100
AcDbEntity
  8
0
  6
Continuous
 62
     7
370
    25
100
AcDbPolyline
 90
       19
 70
   128
 43
0.0
 10
93.8271827179
 20
147.6422223304
 10
93.5083310789
 20
147.353792809
 10
92.9760883216
 20
147.029078912
 10
92.2885557441
 20
146.7311768765
 10
91.459729527
 20
146.466151129
 10
90.5064821821
 20
146.2393968293
 10
89.4482190762
 20
146.0555300411
 10
88.3064833945
 20
145.918293762
 10
87.1045175829
 20
145.8304817269
 10
85.8667901992
 20
145.7938815356
 10
84.6184978037
 20
145.8092382623
 10
83.3850520296
 20
145.8762392885
 10
82.191562276
 20
145.9935206665
 10
81.0623245525
 20
146.1586948857
 10
80.0203268828
 20
146.3683994751
 10
79.0867813345
 20
146.6183654542
 10
78.2806922029
 20
146.9035042365
 10
77.618469138
 20
147.2180112186
 10
77.1135930919
 20
147.5554839453
  0
LINE
  5
FC
330
1F
100
AcDbEntity
  8
0
  6
Continuous
 62
     7
370
    25
100
AcDbLine
 10
84.1221031948
 20
75.3321724701
 30
0.0
 11
85.7689458724
 21
75.4903065881
 31
0.0
  0
LINE
  5
FD
330
1F
100
AcDbEntity
  8
0
  6
Continuous
 62
     7
370
    25
100
AcDbLine
 10
83.9303440026
 20
78.769258146
 30
0.0
 11
84.1221031948
 21
75.3321724701
 31
0.0
  0
LINE
  5
FE
330
1F
100
AcDbEntity
  8
0
  6
Continuous
 62
     7
370
    25
100
AcDbLine
 10
87.0434388756
 20
145.8274330648
 30
0.0
 11
83.9303440026
 21
78.769258146
 31
0.0
  0
LINE
  5
FF
330
1F
100
AcDbEntity
  8
0
  6
Continuous
 62
     7
370
    25
100
AcDbLine
 10
86.2829763992
 20
78.9951640287
 30
0.0
 11
89.3958210216
 21
146.0479483791
 31
0.0
  0
LINE
  5
100
330
1F
100
AcDbEntity
  8
0
  6
Continuous
 62
     7
370
    25
100
AcDbLine
 10
85.7689458724
 20
75.4903065881
 30
0.0
 11
86.2829763992
 21
78.9951640287
 31
0.0
  0
LINE
  5
101
330
1F
100
AcDbEntity
  8
0
  6
Continuous
 62
     7
370
    25
100
AcDbLine
 10
84.56679035
 20
145.8109992589
 30
0.0
 11
83.9229663029
 21
78.7753122127
 31
0.0
  0
LINE
  5
102
330
1F
100
AcDbEntity
  8
0
  6
Continuous
 62
     7
370
    25
100
AcDbLine
 10
83.9229663029
 20
78.7753122127
 30
0.0
 11
83.9303440026
 21
78.769258146
 31
0.0
  0
LINE
  5
103
330
1F
100
AcDbEntity
  8
0
  6
Continuous
 62
     7
370
    25
100
AcDbLine
 10
83.5303678119
 20
75.8177446247
 30
0.0
 11
83.0850077413
 21
79.4629326525
 31
0.0
  0
LINE
  5
104
330
1F
100
AcDbEntity
  8
0
  6
Continuous
 62
     7
370
    25
100
AcDbLine
 10
83.0923854409
 20
79.4568785857
 30
0.0
 11
83.0850077413
 21
79.4629326525
 31
0.0
  0
LINE
  5
105
330
1F
100
AcDbEntity
  8
0
  6
Continuous
 62
     7
370
    25
100
AcDbLine
 10
76.9965132872
 20
147.658228233
 30
0.0
 11
83.0923854409
 21
79.4568785857
 31
0.0
  0
LINE
  5
106
330
1F
100
AcDbEntity
  8
0
  6
Continuous
 62
     7
370
    25
100
AcDbLine
 10
77.7318353617
 20
147.1566610185
 30
0.0
 11
83.9229663029
 21
78.7753122127
 31
0.0
  0
LINE
  5
107
330
1F
100
AcDbEntity
  8
0
  6
Continuous
 62
     7
370
    25
100
AcDbLine
 10
83.5303678119
 20
75.8177446247
 30
0.0
 11
84.1221031948
 21
75.3321724701
 31
0.0
  0
LINE
  5
108
330
1F
100
AcDbEntity
  8
0
  6
Continuous
 62
     7
370
    25
100
AcDbLine
 10
93.5691101278
 20
147.4004785619
 30
0.0
 11
86.2891628208
 21
79.1284237457
 31
0.0
  0
LINE
  5
109
330
1F
100
AcDbEntity
  8
0
  6
Continuous
 62
     7
370
    25
100
AcDbLine
 10
83.0850077413
 20
79.4629326525
 30
0.0
 11
83.082333375
 21
79.5693423062
 31
0.0
  0
LINE
  5
10A
330
1F
100
AcDbEntity
  8
0
  6
Continuous
 62
     7
370
    25
100
AcDbLine
 10
81.4431448696
 20
149.5006021066
 30
0.0
 11
124.2610544879
 21
153.6120891731
 31
0.0
  0
ARC
  5
10B
330
1F
100
AcDbEntity
  8
0
  6
Continuous
 62
     7
370
    25
100
AcDbCircle
 10
81.1037914011
 20
151.646792332
 30
0.0
 40
2.172853713457097
100
AcDbArc
 50
244.3714921084
 51
278.9851633868
  0
LINE
  5
10C
330
1F
100
AcDbEntity
  8
0
  6
Continuous
 62
     7
370
    25
100
AcDbLine
 10
72.7249983074
 20
155.792045214
 30
0.0
 11
80.1639574065
 21
149.6877095561
 31
0.0
  0
ARC
  5
10D
330
1F
100
AcDbEntity
  8
0
  6
Continuous
 62
     7
370
    25
100
AcDbCircle
 10
82.5743428187
 20
148.7404711988
 30
0.0
 40
2.172853713456274
100
AcDbArc
 50
244.3714921084
 51
278.9851633868
  0
LINE
  5
10E
330
1F
100
AcDbEntity
  8
0
  6
Continuous
 62
     7
370
    25
100
AcDbLine
 10
121.0263411123
 20
150.2539562743
 30
0.0
 11
82.9136962872
 21
146.5942809734
 31
0.0
  0
LINE
  5
10F
330
1F
100
AcDbEntity
  8
0
  6
Continuous
 62
     7
370
    25
100
AcDbLine
 10
75.8862222475
 20
151.4983750676
 30
0.0
 11
81.6345088241
 21
146.7813884229
 31
0.0
  0
LWPOLYLINE
  5
110
330
1F
100
AcDbEntity
  8
0
  6
Continuous
 62
     7
370
    25
100
AcDbPolyline
 90
        8
 70
   128
 43
0.0
 10
124.2610544879
 20
153.6120891731
 10
124.438147653
 20
153.6350494981
 10
124.5954409076
 20
153.6677904796
 10
124.7268895603
 20
153.7090539001
 10
124.827442113
 20
153.7572540294
 10
124.8932343876
 20
153.8105385635
 10
124.9217380237
 20
153.8668598078
 10
124.9228738663
 20
153.8799552201
  0
LWPOLYLINE
  5
111
330
1F
100
AcDbEntity
  8
0
  6
Continuous
 62
     7
370
    25
100
AcDbPolyline
 90
        8
 70
   128
 43
0.0
 10
121.0263411123
 20
150.2539562743
 10
121.2034342773
 20
150.2769165994
 10
121.360727532
 20
150.3096575809
 10
121.4921761847
 20
150.3509210013
 10
121.5927287374
 20
150.3991211306
 10
121.6585210119
 20
150.4524056648
 10
121.6870246481
 20
150.5087269091
 10
121.6881604906
 20
150.5218223214
  0
LWPOLYLINE
  5
112
330
1F
100
AcDbEntity
  8
0
  6
Continuous
 62
     7
370
    25
100
AcDbPolyline
 90
        3
 70
   128
 43
0.0
 10
72.6660973832
 20
155.8920113227
 10
72.6771136068
 20
155.8479131744
 10
72.7249983074
 20
155.792045214
  0
LWPOLYLINE
  5
113
330
1F
100
AcDbEntity
  8
0
  6
Continuous
 62
     7
370
    25
100
AcDbPolyline
 90
        3
 70
   128
 43
0.0
 10
75.8273213233
 20
151.5983411763
 10
75.8383375469
 20
151.554243028
 10
75.8862222475
 20
151.4983750676
  0
ARC
  5
114
330
1F
100
AcDbEntity
  8
0
  6
Continuous
 62
     7
370
    25
100
AcDbCircle
 10
81.8352864053
 20
166.5010578675
 30
0.0
 40
1.61466673836578
100
AcDbArc
 50
96.7115226566
 51
177.9270729378
  0
ARC
  5
115
330
1F
100
AcDbEntity
  8
0
  6
Continuous
 62
     7
370
    25
100
AcDbCircle
 10
81.259353084
 20
167.8362270871
 30
0.0
 40
0.4711691059001818
100
AcDbArc
 50
355.1234324975
 51
34.7304087508
  0
SPLINE
  5
116
330
1F
100
AcDbEntity
  8
0
  6
Continuous
 62
     7
370
    25
100
AcDbSpline
210
0.0
220
0.0
230
1.0
 70
     8
 71
     3
 72
    13
 73
     9
 74
     0
 42
0.00000001
 43
0.00000001
 40
0.0
 40
0.0
 40
0.0
 40
0.0
 40
0.2396832910637715
 40
0.3697720286455055
 40
0.4999999403308915
 40
0.6300887375505757
 40
0.7603167089362249
 40
1.0
 40
1.0
 40
1.0
 40
1.0
 10
81.72881662665864
 20
167.7961732669665
 30
0.0
 10
81.58224293068123
 20
167.766389939361
 30
0.0
 10
81.35611597511796
 20
167.7204416322444
 30
0.0
 10
81.08294816729544
 20
167.5485939802416
 30
0.0
 10
80.89547567892902
 20
167.3795570934062
 30
0.0
 10
80.74165128187951
 20
167.1785115966107
 30
0.0
 10
80.59086613696722
 20
166.8906591234953
 30
0.0
 10
80.56084767109874
 20
166.6587647880669
 30
0.0
 10
80.54139726387295
 20
166.5085092994221
 30
0.0
  0
ARC
  5
117
330
1F
100
AcDbEntity
  8
0
  6
Continuous
 62
     7
370
    25
100
AcDbCircle
 10
80.4653329368
 20
167.0597867065
 30
0.0
 40
0.5565002798299358
100
AcDbArc
 50
244.0340210651
 51
277.855971621
  0
LINE
  5
118
330
1F
100
AcDbEntity
  8
0
  6
Continuous
 62
     7
370
    25
100
AcDbLine
 10
81.4565971762
 20
166.8144407474
 30
0.0
 11
128.5092451084
 21
171.3325584029
 31
0.0
  0
ARC
  5
119
330
1F
100
AcDbEntity
  8
0
  6
Continuous
 62
     7
370
    25
100
AcDbCircle
 10
81.4879824245
 20
166.5472776142
 30
0.0
 40
0.2690003225704442
100
AcDbArc
 50
96.7001677992
 51
178.8383085007
  0
LINE
  5
11A
330
1F
100
AcDbEntity
  8
0
  6
Continuous
 62
     7
370
    25
100
AcDbLine
 10
81.0812447
 20
152.2056006044
 30
0.0
 11
81.2190373917
 21
166.552731314
 31
0.0
  0
LINE
  5
11B
330
1F
100
AcDbEntity
  8
0
  6
Continuous
 62
     7
370
    25
100
AcDbLine
 10
80.156653719
 20
152.1168189732
 30
0.0
 11
81.0812447
 21
152.2056006044
 31
0.0
  0
LINE
  5
11C
330
1F
100
AcDbEntity
  8
0
  6
Continuous
 62
     7
370
    25
100
AcDbLine
 10
80.5413972639
 20
166.5085092994
 30
0.0
 11
80.156653719
 21
152.1168189732
 31
0.0
  0
LINE
  5
11D
330
1F
100
AcDbEntity
  8
0
  6
Continuous
 62
     7
370
    25
100
AcDbLine
 10
81.7288166267
 20
167.796173267
 30
0.0
 11
128.5184312878
 21
172.2890337835
 31
0.0
  0
LINE
  5
11E
330
1F
100
AcDbEntity
  8
0
  6
Continuous
 62
     7
370
    25
100
AcDbLine
 10
128.5184312878
 20
172.2890337835
 30
0.0
 11
128.5092451084
 21
171.3325584029
 31
0.0
  0
LINE
  5
11F
330
1F
100
AcDbEntity
  8
0
  6
Continuous
 62
     7
370
    25
100
AcDbLine
 10
70.2467084272
 20
174.7448219793
 30
0.0
 11
80.2216763101
 21
166.5594628017
 31
0.0
  0
ARC
  5
120
330
1F
100
AcDbEntity
  8
0
  6
Continuous
 62
     7
370
    25
100
AcDbCircle
 10
71.8603185225
 20
174.6864170451
 30
0.0
 40
1.614666738365663
100
AcDbArc
 50
96.7115226566
 51
177.9270729378
  0
LINE
  5
121
330
1F
100
AcDbEntity
  8
0
  6
Continuous
 62
     7
370
    25
100
AcDbLine
 10
71.6716116626
 20
176.2900187403
 30
0.0
 11
81.6465795454
 21
168.1046595628
 31
0.0
  0
LINE
  5
122
330
1F
100
AcDbEntity
  8
0
  6
Continuous
 62
     7
370
    25
100
AcDbLine
 10
79.8369327652
 20
152.1677724755
 30
0.0
 11
80.2216763101
 21
166.5594628017
 31
0.0
  0
ARC
  5
123
330
1F
100
AcDbEntity
  8
0
  6
Continuous
 62
     7
370
    25
100
AcDbCircle
 10
80.0805893919
 20
152.6680963803
 30
0.0
 40
0.5565002798296418
100
AcDbArc
 50
244.0340210652
 51
277.855971621
  0
LINE
  5
124
330
1F
100
AcDbEntity
  8
0
  6
Continuous
 62
     7
370
    25
100
AcDbLine
 10
81.6465795454
 20
168.1046595628
 30
0.0
 11
128.4361942065
 21
172.5975200794
 31
0.0
  0
ARC
  5
125
330
1F
100
AcDbEntity
  8
0
  6
Continuous
 62
     7
370
    25
100
AcDbCircle
 10
128.0489677452
 20
172.3290876037
 30
0.0
 40
0.4711691059005657
100
AcDbArc
 50
355.1234324976
 51
34.7304087508
  0
LINE
  5
126
330
1F
100
AcDbEntity
  8
0
  6
Continuous
 62
     7
370
    25
100
AcDbLine
 10
70.2467084272
 20
174.7448219793
 30
0.0
 11
69.8619648824
 21
160.353131653
 31
0.0
  0
SPLINE
  5
127
330
1F
100
AcDbEntity
  8
0
  6
Continuous
 62
     7
370
    25
100
AcDbSpline
210
0.0
220
0.0
230
1.0
 70
     8
 71
     3
 72
    13
 73
     9
 74
     0
 42
0.00000001
 43
0.00000001
 40
0.0
 40
0.0
 40
0.0
 40
0.0
 40
0.2394259924026154
 40
0.3695846593149659
 40
0.4999752278747435
 40
0.6301417045486257
 40
0.7605400971976229
 40
1.0
 40
1.0
 40
1.0
 40
1.0
 10
79.56412264685136
 20
151.657335331421
 30
0.0
 10
79.59627207440936
 20
151.6408162540455
 30
0.0
 10
79.64589883010096
 20
151.615316944122
 30
0.0
 10
79.70739165144666
 20
151.6562684293485
 30
0.0
 10
79.75021706429428
 20
151.715982724412
 30
0.0
 10
79.78605972550008
 20
151.803433218135
 30
0.0
 10
79.82211874222588
 20
151.9449645073678
 30
0.0
 10
79.831110906411
 20
152.0802097298752
 30
0.0
 10
79.83693276518295
 20
152.1677724754845
 30
0.0
  0
LINE
  5
128
330
1F
100
AcDbEntity
  8
0
  6
Continuous
 62
     7
370
    25
100
AcDbLine
 10
70.0963565208
 20
159.426489805
 30
0.0
 11
79.5641226469
 21
151.6573353314
 31
0.0
  0
SPLINE
  5
129
330
1F
100
AcDbEntity
  8
0
  6
Continuous
 62
     7
370
    25
100
AcDbSpline
210
0.0
220
0.0
230
1.0
 70
     8
 71
     3
 72
    13
 73
     9
 74
     0
 42
0.00000001
 43
0.00000001
 40
0.0
 40
0.0
 40
0.0
 40
0.0
 40
0.2394599028268714
 40
0.3696300083677745
 40
0.5000245666300004
 40
0.6301870679524907
 40
0.7605740075726591
 40
1.0
 40
1.0
 40
1.0
 40
1.0
 10
69.86196488236584
 20
160.3531316530337
 30
0.0
 10
69.86295517245634
 20
160.2599784547535
 30
0.0
 10
69.8644837830091
 20
160.1161872936727
 30
0.0
 10
69.89157708488578
 20
159.9228240922012
 30
0.0
 10
69.92128080886812
 20
159.7816329363621
 30
0.0
 10
69.95915730322214
 20
159.6556203984152
 30
0.0
 10
70.0158631687268
 20
159.5176401621012
 30
0.0
 10
70.06472328146768
 20
159.4623111615193
 30
0.0
 10
70.0963565207877
 20
159.426489805027
 30
0.0
  0
LINE
  5
12A
330
1F
100
AcDbEntity
  8
0
  6
Continuous
 62
     7
370
    25
100
AcDbLine
 10
128.8883830472
 20
172.8733941962
 30
0.0
 11
119.4206169211
 21
180.6425486698
 31
0.0
  0
SPLINE
  5
12B
330
1F
100
AcDbEntity
  8
0
  6
Continuous
 62
     7
370
    25
100
AcDbSpline
210
0.0
220
0.0
230
1.0
 70
     8
 71
     3
 72
    13
 73
     9
 74
     0
 42
0.00000001
 43
0.00000001
 40
0.0
 40
0.0
 40
0.0
 40
0.0
 40
0.23944294786128
 40
0.3696073166373069
 40
0.4999998972369518
 40
0.6301643686854234
 40
0.7605570521388034
 40
1.0
 40
1.0
 40
1.0
 40
1.0
 10
128.4361942065449
 20
172.597520079354
 30
0.0
 10
128.521543792742
 20
172.6088375609886
 30
0.0
 10
128.6532905483354
 20
172.6263073760549
 30
0.0
 10
128.786205155833
 20
172.6680077964681
 30
0.0
 10
128.8657258339771
 20
172.7056715863455
 30
0.0
 10
128.9166108280255
 20
172.7475521428378
 30
0.0
 10
128.9454091058812
 20
172.8044878493477
 30
0.0
 10
128.9107939574867
 20
172.8463144015114
 30
0.0
 10
128.8883830471512
 20
172.8733941961579
 30
0.0
  0
SPLINE
  5
12C
330
1F
100
AcDbEntity
  8
0
  6
Continuous
 62
     7
370
    25
100
AcDbSpline
210
0.0
220
0.0
230
1.0
 70
     8
 71
     3
 72
    13
 73
     9
 74
     0
 42
0.00000001
 43
0.00000001
 40
0.0
 40
0.0
 40
0.0
 40
0.0
 40
0.239442947861199
 40
0.3696073166343406
 40
0.4999998972369404
 40
0.6301643686846636
 40
0.7605570521388965
 40
1.0
 40
1.0
 40
1.0
 40
1.0
 10
119.4206169210873
 20
180.6425486697639
 30
0.0
 10
119.3792465224457
 20
180.6678080742349
 30
0.0
 10
119.3153866252692
 20
180.7067988266865
 30
0.0
 10
119.1684226924637
 20
180.7468604765288
 30
0.0
 10
119.0369058487666
 20
180.7712117546548
 30
0.0
 10
118.8917954604933
 20
180.7873296513037
 30
0.0
 10
118.695737429486
 20
180.7974526887653
 30
0.0
 10
118.5533878281498
 20
180.7886065311006
 30
0.0
 10
118.461226323728
 20
180.7828792569032
 30
0.0
  0
LINE
  5
12D
330
1F
100
AcDbEntity
  8
0
  6
Continuous
 62
     7
370
    25
100
AcDbLine
 10
127.4667750824
 20
156.0914895442
 30
0.0
 11
127.6123261769
 21
171.2464339139
 31
0.0
  0
LINE
  5
12E
330
1F
100
AcDbEntity
  8
0
  6
Continuous
 62
     7
370
    25
100
AcDbLine
 10
80.9842768318
 20
151.6281191443
 30
0.0
 11
127.4667750824
 21
156.0914895442
 31
0.0
  0
LWPOLYLINE
  5
12F
330
1F
100
AcDbEntity
  8
0
  6
Continuous
 62
     7
370
    25
100
AcDbPolyline
 90
       23
 70
   128
 43
0.0
 10
89.4014390815
 20
157.3576624536
 10
90.0253578798
 20
157.5085371307
 10
90.6004793802
 20
157.8292855141
 10
91.0802106593
 20
158.2939224774
 10
91.4256867418
 20
158.864805897
 10
91.6089192101
 20
159.4956861936
 10
91.6150636594
 20
160.1354531974
 10
91.443622303
 20
160.7322767907
 10
91.1084842999
 20
161.2378058753
 10
90.636800538
 20
161.6110854914
 10
90.0667840306
 20
161.8218747443
 10
89.4446141249
 20
161.8530967426
 10
88.8206953266
 20
161.7022220655
 10
88.2455738261
 20
161.381473682
 10
87.7658425471
 20
160.9168367188
 10
87.4203664646
 20
160.3459532991
 10
87.2371339963
 20
159.7150730026
 10
87.230989547
 20
159.0753059988
 10
87.4024309034
 20
158.4784824055
 10
87.7375689065
 20
157.9729533209
 10
88.2092526683
 20
157.5996737048
 10
88.7792691758
 20
157.3888844518
 10
89.4014390815
 20
157.3576624536
  0
LWPOLYLINE
  5
130
330
1F
100
AcDbEntity
  8
0
  6
Continuous
 62
     7
370
    25
100
AcDbPolyline
 90
       23
 70
   128
 43
0.0
 10
117.6330278408
 20
160.0685330469
 10
118.2569466391
 20
160.219407724
 10
118.8320681396
 20
160.5401561074
 10
119.3117994186
 20
161.0047930707
 10
119.6572755011
 20
161.5756764903
 10
119.8405079694
 20
162.2065567869
 10
119.8466524187
 20
162.8463237907
 10
119.6752110623
 20
163.443147384
 10
119.3400730592
 20
163.9486764686
 10
118.8683892973
 20
164.3219560847
 10
118.2983727899
 20
164.5327453376
 10
117.6762028842
 20
164.5639673359
 10
117.0522840859
 20
164.4130926588
 10
116.4771625854
 20
164.0923442753
 10
115.9974313064
 20
163.6277073121
 10
115.6519552239
 20
163.0568238924
 10
115.4687227556
 20
162.4259435959
 10
115.4625783063
 20
161.7861765921
 10
115.6340196627
 20
161.1893529988
 10
115.9691576658
 20
160.6838239142
 10
116.4408414277
 20
160.3105442981
 10
117.0108579351
 20
160.0997550451
 10
117.6330278408
 20
160.0685330469
  0
LWPOLYLINE
  5
131
330
1F
100
AcDbEntity
  8
0
  6
Continuous
 62
     7
370
    25
100
AcDbPolyline
 90
        3
 70
   128
 43
0.0
 10
79.6902348321
 20
151.4525310312
 10
79.6654261224
 20
151.4651296364
 10
79.6409803761
 20
151.4822765121
  0
LWPOLYLINE
  5
132
330
1F
100
AcDbEntity
  8
0
  6
Continuous
 62
     7
370
    25
100
AcDbPolyline
 90
        8
 70
   128
 43
0.0
 10
80.8386931542
 20
151.4876489395
 10
80.8640217451
 20
151.493219283
 10
80.9233296319
 20
151.5336362302
 10
80.9757117868
 20
151.6105394003
 10
81.019155193
 20
151.7209734477
 10
81.0519903447
 20
151.8606944538
 10
81.0729554056
 20
152.0243330188
 10
81.0812447
 20
152.2056006044
  0
ARC
  5
133
330
1F
100
AcDbEntity
  8
0
  6
Continuous
 62
     7
370
    25
100
AcDbCircle
 10
128.9113296791
 20
172.6623369277
 30
0.0
 40
0.2123010091393611
100
AcDbArc
 50
51.0903925894
 51
96.2049569565
  0
LWPOLYLINE
  5
134
330
1F
100
AcDbEntity
  8
0
  6
Continuous
 62
     7
370
    25
100
AcDbPolyline
 90
        8
 70
   128
 43
0.0
 10
128.5092451084
 20
171.3325584029
 10
128.6863382734
 20
171.3555187279
 10
128.8436315281
 20
171.3882597094
 10
128.9750801807
 20
171.4295231299
 10
129.0756327335
 20
171.4777232592
 10
129.141425008
 20
171.5310077933
 10
129.1699286441
 20
171.5873290376
 10
129.1710644867
 20
171.6004244499
  0
ARC
  5
135
330
1F
100
AcDbEntity
  8
0
  6
Continuous
 62
     7
370
    25
100
AcDbCircle
 10
119.443563553
 20
180.4314914013
 30
0.0
 40
0.2123010091396292
100
AcDbArc
 50
51.0903925894
 51
96.2049569564
  0
LWPOLYLINE
  5
136
330
1F
100
AcDbEntity
  8
0
  6
Continuous
 62
     7
370
    25
100
AcDbPolyline
 90
        3
 70
   128
 43
0.0
 10
71.6716116626
 20
176.2900187403
 10
71.6550758428
 20
176.2989570571
 10
71.645419378
 20
176.2997552621
  0
LWPOLYLINE
  5
137
330
1F
100
AcDbEntity
  8
0
  6
Continuous
 62
     7
370
    25
100
AcDbPolyline
 90
        3
 70
   128
 43
0.0
 10
70.2319850436
 20
174.7699169728
 10
70.2347357934
 20
174.7587087164
 10
70.2467084272
 20
174.7448219793
  0
LWPOLYLINE
  5
138
330
1F
100
AcDbEntity
  8
0
  6
Continuous
 62
     7
370
    25
100
AcDbPolyline
 90
        3
 70
   128
 43
0.0
 10
118.4612263237
 20
180.7828792569
 10
118.4446905039
 20
180.7918175736
 10
118.4350340392
 20
180.7926157786
  0
SPLINE
  5
139
330
1F
100
AcDbEntity
  8
0
  6
Continuous
 62
     7
370
    25
100
AcDbSpline
210
0.0
220
0.0
230
1.0
 70
    11
 71
     3
 72
    39
 73
    35
 74
     0
 42
0.00000001
 43
0.00000001
 40
0.0
 40
0.0
 40
0.0
 40
0.0
 40
0.029129008105451
 40
0.0600028324322984
 40
0.0921602034406938
 40
0.125
 40
0.1578397965593062
 40
0.1899971675677016
 40
0.2208709918945491
 40
0.2500000000000001
 40
0.2791290081054509
 40
0.3100028324322984
 40
0.3421602034406938
 40
0.3749999999999999
 40
0.4078397965593061
 40
0.4399971675677017
 40
0.4708709918945491
 40
0.5
 40
0.5291290081054509
 40
0.5600028324322983
 40
0.5921602034406938
 40
0.625
 40
0.6578397965593061
 40
0.6899971675677017
 40
0.7208709918945491
 40
0.7499999999999999
 40
0.7791290081054508
 40
0.8100028324322982
 40
0.8421602034406936
 40
0.875
 40
0.9078397965593061
 40
0.9399971675677017
 40
0.9708709918945491
 40
1.0
 40
1.0
 40
1.0
 40
1.0
 10
111.6972766129915
 20
197.5970432043666
 30
0.0
 10
112.1177515998514
 20
197.6146951164481
 30
0.0
 10
112.9838878612439
 20
197.6510562832583
 30
0.0
 10
114.2656739765986
 20
197.3844506077039
 30
0.0
 10
115.4956252792392
 20
196.8563814383228
 30
0.0
 10
116.5899505591138
 20
196.0504271067699
 30
0.0
 10
117.4752367563049
 20
195.0156134783369
 30
0.0
 10
118.1035533231582
 20
193.8206032529336
 30
0.0
 10
118.4605826681881
 20
192.5495111509201
 30
0.0
 10
118.5660950471833
 20
191.2524681085013
 30
0.0
 10
118.4354508231577
 20
189.9327550573259
 30
0.0
 10
118.0533239744899
 20
188.5906667303329
 30
0.0
 10
117.4008727933505
 20
187.2727536537088
 30
0.0
 10
116.4940538315293
 20
186.0655515053654
 30
0.0
 10
115.3822238313389
 20
185.0488945842363
 30
0.0
 10
114.1398096602914
 20
184.279315816977
 30
0.0
 10
112.8506697960784
 20
183.7802408545958
 30
0.0
 10
111.5622375118984
 20
183.5366194578692
 30
0.0
 10
110.276110493833
 20
183.5330249730289
 30
0.0
 10
108.9941859723371
 20
183.7852196448208
 30
0.0
 10
107.7642741470274
 20
184.3173992384907
 30
0.0
 10
106.6699379257613
 20
185.1222143399947
 30
0.0
 10
105.7846546694047
 20
186.1573341714389
 30
0.0
 10
105.156337335432
 20
187.3522645234972
 30
0.0
 10
104.7993081877049
 20
188.6233771689028
 30
0.0
 10
104.6937957475456
 20
189.9204138428538
 30
0.0
 10
104.8244400327353
 20
191.240133262497
 30
0.0
 10
105.2065666841002
 20
192.5822010460979
 30
0.0
 10
105.8590186323591
 20
193.900193996067
 30
0.0
 10
106.7658346533457
 20
195.1070899413993
 30
0.0
 10
107.8776755949277
 20
196.1248860925772
 30
0.0
 10
109.1200502886444
 20
196.8903544355477
 30
0.0
 10
110.4093285589985
 20
197.4038404016915
 30
0.0
 10
111.2763647471777
 20
197.5339029621012
 30
0.0
 10
111.6972766129915
 20
197.5970432043666
 30
0.0
  0
ARC
  5
13A
330
1F
100
AcDbEntity
  8
0
  6
Continuous
 62
     7
370
    25
100
AcDbCircle
 10
112.2203150158
 20
191.6134314092
 30
0.0
 40
6.63206099205336
100
AcDbArc
 50
352.706952817
 51
95.9118302724
  0
ARC
  5
13B
330
1F
100
AcDbEntity
  8
0
  6
Continuous
 62
     7
370
    25
100
AcDbCircle
 10
110.7559639699
 20
189.8212899442
 30
0.0
 40
6.651809616300786
100
AcDbArc
 50
184.7983071307
 51
291.4346571219
  0
LWPOLYLINE
  5
13C
330
1F
100
AcDbEntity
  8
0
  6
Continuous
 62
     7
370
    25
100
AcDbPolyline
 90
       41
 70
   128
 43
0.0
 10
111.5633456064
 20
183.6519955067
 10
110.4968704683
 20
183.6348855991
 10
109.4582953956
 20
183.7889460814
 10
108.4731935536
 20
184.1103834732
 10
107.5658214188
 20
184.5912829192
 10
106.7585215047
 20
185.2198030789
 10
106.0711722145
 20
185.9804677001
 10
105.5206983687
 20
186.8545466953
 10
105.1206544604
 20
187.8205173388
 10
104.8808908984
 20
188.8545942274
 10
104.8073114572
 20
189.9313149563
 10
104.9017279069
 20
191.0241670876
 10
105.1618154011
 20
192.1062409749
 10
105.5811697225
 20
193.150892368
 10
106.1494649761
 20
194.1323984824
 10
106.8527078465
 20
195.0265913804
 10
107.6735821605
 20
195.8114530649
 10
108.591875268
 20
196.4676576366
 10
109.5849757451
 20
196.9790471612
 10
110.6284301621
 20
197.3330295312
 10
111.6965452083
 20
197.5208885259
 10
112.7630203464
 20
197.5379984335
 10
113.8015954191
 20
197.3839379512
 10
114.7866972611
 20
197.0625005594
 10
115.6940693959
 20
196.5816011135
 10
116.50136931
 20
195.9530809537
 10
117.1887186003
 20
195.1924163325
 10
117.739192446
 20
194.3183373373
 10
118.1392363543
 20
193.3523666938
 10
118.3789999163
 20
192.3182898052
 10
118.4525793575
 20
191.2415690764
 10
118.3581629078
 20
190.148716945
 10
118.0980754136
 20
189.0666430577
 10
117.6787210922
 20
188.0219916647
 10
117.1104258386
 20
187.0404855502
 10
116.4071829682
 20
186.1462926523
 10
115.5863086542
 20
185.3614309677
 10
114.6680155468
 20
184.705226396
 10
113.6749150697
 20
184.1938368715
 10
112.6314606526
 20
183.8398545014
 10
111.5633456064
 20
183.6519955067
  0
SPLINE
  5
13D
330
1F
100
AcDbEntity
  8
0
  6
Continuous
 62
     7
370
    25
100
AcDbSpline
210
0.0
220
0.0
230
1.0
 70
     8
 71
     3
 72
    10
 73
     6
 74
     0
 42
0.00000001
 43
0.00000001
 40
0.0
 40
0.0
 40
0.0
 40
0.0
 40
0.0293904055451649
 40
0.6462902581999513
 40
0.9999999999999999
 40
0.9999999999999999
 40
0.9999999999999999
 40
0.9999999999999999
 10
105.327078082029
 20
185.5061092810241
 30
0.0
 10
105.3097584621149
 20
185.5181092606484
 30
0.0
 10
104.9289028250934
 20
185.7819868692056
 30
0.0
 10
104.4563797509518
 20
186.1663955283284
 30
0.0
 10
104.1466994721809
 20
186.3926618457271
 30
0.0
 10
104.033845723289
 20
186.4751178621959
 30
0.0
  0
LWPOLYLINE
  5
13E
330
1F
100
AcDbEntity
  8
0
  6
Continuous
 62
     7
370
    25
100
AcDbPolyline
 90
       18
 70
   128
 43
0.0
 10
104.0338457233
 20
186.4751178622
 10
103.28783745
 20
187.2450403009
 10
102.6741889256
 20
188.1320051576
 10
102.2064934726
 20
189.116364704
 10
101.8951113135
 20
190.1763137596
 10
101.7469400743
 20
191.2883727122
 10
101.7652619914
 20
192.4279076297
 10
101.9496712042
 20
193.5696759423
 10
102.2960827458
 20
194.688385607
 10
102.7968230317
 20
195.7592553673
 10
103.4407998422
 20
196.7585636996
 10
104.2137480335
 20
197.6641742832
 10
105.0985455336
 20
198.4560263564
 10
106.075592625
 20
199.1165790954
 10
107.12324611
 20
199.6312001723
 10
108.2182987436
 20
199.988489885
 10
109.3364933114
 20
200.1805336798
 10
109.4305187119
 20
200.1889659153
  0
LWPOLYLINE
  5
13F
330
1F
100
AcDbEntity
  8
0
  6
Continuous
 62
     7
370
    25
100
AcDbPolyline
 90
        3
 70
   128
 43
0.0
 10
114.3561617031
 20
198.6979777352
 10
114.4203160614
 20
198.6442354962
 10
114.6298622846
 20
198.4584306378
  0
LWPOLYLINE
  5
140
330
1F
100
AcDbEntity
  8
0
  6
Continuous
 62
     7
370
    25
100
AcDbPolyline
 90
       36
 70
   128
 43
0.0
 10
111.4080576226
 20
185.2254434789
 10
112.3750875616
 20
185.4066016796
 10
113.3127340582
 20
185.7587032647
 10
114.1908603822
 20
186.2704313994
 10
114.9812428312
 20
186.9253387205
 10
115.658477863
 20
187.7023759677
 10
116.2007985863
 20
188.5765685247
 10
116.5907743669
 20
189.5198191233
 10
116.8158710623
 20
190.5018109132
 10
116.8688538796
 20
191.4909818704
 10
116.7480199074
 20
192.4555392262
 10
116.457252849
 20
193.3644813137
 10
116.0058981968
 20
194.1885939863
 10
115.4084628608
 20
194.9013895847
 10
114.6841489043
 20
195.4799582717
 10
113.8562363738
 20
195.9057043738
 10
112.9513350591
 20
196.1649440609
 10
111.9985292332
 20
196.2493451562
 10
111.0284428593
 20
196.1561949391
 10
110.0722553115
 20
195.888487334
 10
109.1606992445
 20
195.4548266839
 10
108.3230728203
 20
194.8691511987
 10
107.5862980412
 20
194.1502849704
 10
106.9740554551
 20
193.3213329512
 10
106.5060230422
 20
192.4089383409
 10
106.1972437495
 20
191.4424262531
 10
106.0576419975
 20
190.4528611815
 10
106.0917047015
 20
189.4720485618
 10
106.2983370579
 20
188.5315125185
 10
106.6708977329
 20
187.661482654
 10
107.19741232
 20
186.889922444
 10
107.8609582069
 20
186.2416304684
 10
108.6402084829
 20
185.7374433648
 10
109.5101174031
 20
185.3935661215
 10
110.4427253788
 20
185.221051236
 10
111.4080576226
 20
185.2254434789
  0
LWPOLYLINE
  5
141
330
1F
100
AcDbEntity
  8
0
  6
Continuous
 62
     7
370
    25
100
AcDbPolyline
 90
       19
 70
   128
 43
0.0
 10
103.6162786489
 20
177.2779452004
 10
103.6407943582
 20
177.1218653147
 10
103.8253387595
 20
176.8334833926
 10
104.1848878332
 20
176.5580561286
 10
104.7075484592
 20
176.304694072
 10
105.3760321331
 20
176.081777902
 10
106.1682268337
 20
175.8966812125
 10
107.0579284416
 20
175.7555266089
 10
108.015707516
 20
175.6629831861
 10
109.0098827576
 20
175.6221120841
 10
110.0075689595
 20
175.6342652322
 10
110.9757647795
 20
175.69904063
 10
111.8824443547
 20
175.8142956449
 10
112.697616649
 20
175.9762178855
 10
113.3943174931
 20
176.1794513079
 10
113.9495015015
 20
176.4172733816
 10
114.3448043655
 20
176.6818174573
 10
114.5671503055
 20
176.9643329784
 10
114.6157713605
 20
177.1723038886
  0
LINE
  5
142
330
1F
100
AcDbEntity
  8
0
  6
Continuous
 62
     7
370
    25
100
AcDbLine
 10
103.718074049
 20
186.4127770964
 30
0.0
 11
103.7235733113
 21
186.4102889091
 31
0.0
  0
LINE
  5
143
330
1F
100
AcDbEntity
  8
0
  6
Continuous
 62
     7
370
    25
100
AcDbLine
 10
103.7214169867
 20
186.760847541
 30
0.0
 11
103.718074049
 21
186.4127770964
 31
0.0
  0
LWPOLYLINE
  5
144
330
1F
100
AcDbEntity
  8
0
  6
Continuous
 62
     7
370
    25
100
AcDbPolyline
 90
       18
 70
   128
 43
0.0
 10
108.8545470249
 20
200.5615843685
 10
108.8289307318
 20
200.5591690999
 10
107.7018780563
 20
200.3644925649
 10
106.5987805326
 20
200.0011733106
 10
105.5447110001
 20
199.4774693968
 10
104.563627917
 20
198.805284344
 10
103.6778307971
 20
197.9998965727
 10
102.9074533534
 20
197.0796121328
 10
102.270005869
 20
196.0653486161
 10
101.7799771971
 20
194.9801597106
 10
101.4485054375
 20
193.8487112021
 10
101.2831247728
 20
192.696720333
 10
101.2875942205
 20
191.5503712634
 10
101.4618121922
 20
190.4357199178
 10
101.801818803
 20
189.3781017481
 10
102.2998858777
 20
188.4015558712
 10
102.9446926078
 20
187.5282786726
 10
103.4152942353
 20
187.0443493342
  0
LWPOLYLINE
  5
145
330
1F
100
AcDbEntity
  8
0
  6
Continuous
 62
     7
370
    25
100
AcDbPolyline
 90
       25
 70
   128
 43
0.0
 10
115.7837339901
 20
177.3053960097
 10
115.9931820277
 20
177.0596671397
 10
116.1093277167
 20
176.7318101083
 10
116.0442315804
 20
176.4043435568
 10
115.7995795743
 20
176.0857486967
 10
115.381708057
 20
175.7842769676
 10
114.8014396812
 20
175.5077363289
 10
114.0738030931
 20
175.263289038
 10
113.2176436981
 20
175.0572661512
 10
112.2551355749
 20
174.8950035531
 10
111.2112071781
 20
174.7807037597
 10
110.112895705
 20
174.7173270757
 10
108.9886468457
 20
174.7065149238
 10
107.8675780553
 20
174.7485473333
 10
106.7787244265
 20
174.8423356866
 10
105.7502866963
 20
174.9854509147
 10
104.8089008617
 20
175.1741864085
 10
103.9789483214
 20
175.4036540176
 10
103.2819244102
 20
175.6679106517
 10
102.7358816813
 20
175.9601122027
 10
102.3549623545
 20
176.2726908038
 10
102.1490320403
 20
176.5975508336
 10
102.1234242257
 20
176.9262785879
 10
102.2788021396
 20
177.2503601905
 10
102.4510877172
 20
177.4334453914
  0
LWPOLYLINE
  5
146
330
1F
100
AcDbEntity
  8
0
  6
Continuous
 62
     7
370
    25
100
AcDbPolyline
 90
       28
 70
   128
 43
0.0
 10
114.6254746975
 20
178.1826262979
 10
115.0304780926
 20
177.9594100095
 10
115.3934761315
 20
177.6615374386
 10
115.5852416677
 20
177.3517606615
 10
115.6005438373
 20
177.0385295813
 10
115.4389652371
 20
176.7303883252
 10
115.10491331
 20
176.4357421836
 10
114.6075001218
 20
176.162628335
 10
113.9602938076
 20
175.9184966133
 10
113.1809484685
 20
175.7100062954
 10
112.2907226138
 20
175.5428444538
 10
111.3138992841
 20
175.4215708277
 10
110.2771236736
 20
175.3494934455
 10
109.2086763181
 20
175.3285783902
 10
108.1377016763
 20
175.3593961702
 10
107.0934131446
 20
175.4411061566
 10
106.1042961919
 20
175.571479514
 10
105.1973313502
 20
175.7469599972
 10
104.3972582561
 20
175.9627609559
 10
103.725900818
 20
176.2129959026
 10
103.2015719168
 20
176.4908390803
 10
102.8385738779
 20
176.7887116513
 10
102.6468083417
 20
177.0984884283
 10
102.6315061721
 20
177.4117195086
 10
102.7930847723
 20
177.7198607646
 10
103.1271366995
 20
178.0145069062
 10
103.6245498877
 20
178.2876207548
 10
103.6259819859
 20
178.2882676096
  0
LWPOLYLINE
  5
147
330
1F
100
AcDbEntity
  8
0
  6
Continuous
 62
     7
370
    25
100
AcDbPolyline
 90
       22
 70
   128
 43
0.0
 10
102.1025685554
 20
175.8576377628
 10
102.1164323899
 20
175.7232273497
 10
102.2776010997
 20
175.396603927
 10
102.6155245207
 20
175.0801799128
 10
103.1214506138
 20
174.782150523
 10
103.782276159
 20
174.5102345622
 10
104.5808861219
 20
174.2714745109
 10
105.4965969237
 20
174.0720541292
 10
106.5056921358
 20
173.9171383
 10
107.5820367222
 20
173.810739262
 10
108.6977539236
 20
173.7556126945
 10
109.8239472504
 20
173.7531863465
 10
110.9314488871
 20
173.8035230592
 10
111.9915751229
 20
173.9053191381
 10
112.9768692454
 20
174.0559381183
 10
113.8618126542
 20
174.2514790474
 10
114.6234857798
 20
174.4868775179
 10
115.2421616885
 20
174.7560368332
 10
115.7018169992
 20
175.0519859083
 10
115.9905468807
 20
175.3670598177
 10
116.1008733809
 20
175.6930983126
 10
116.1019229157
 20
175.7231851842
  0
SPLINE
  5
148
330
1F
100
AcDbEntity
  8
0
  6
Continuous
 62
     7
370
    25
100
AcDbSpline
210
0.0
220
0.0
230
1.0
 70
     8
 71
     3
 72
     9
 73
     5
 74
     0
 42
0.00000001
 43
0.00000001
 40
0.0
 40
0.0
 40
0.0
 40
0.0
 40
0.2862930771489476
 40
1.0
 40
1.0
 40
1.0
 40
1.0
 10
103.3340879258958
 20
197.5791799831573
 30
0.0
 10
103.2931562555244
 20
197.5644368081814
 30
0.0
 10
103.1501850360348
 20
197.5129400164226
 30
0.0
 10
103.0123727782101
 20
197.4599474945687
 30
0.0
 10
102.9140152157469
 20
197.4221263648622
 30
0.0
  0
SPLINE
  5
149
330
1F
100
AcDbEntity
  8
0
  6
Continuous
 62
     7
370
    25
100
AcDbSpline
210
0.0
220
0.0
230
1.0
 70
     8
 71
     3
 72
     9
 73
     5
 74
     0
 42
0.00000001
 43
0.00000001
 40
0.0
 40
0.0
 40
0.0
 40
0.0
 40
0.7860632125065526
 40
1.0
 40
1.0
 40
1.0
 40
1.0
 10
102.9140152157469
 20
197.4221263648622
 30
0.0
 10
102.9038588000617
 20
197.3461114580619
 30
0.0
 10
102.8909381907218
 20
197.2494081578808
 30
0.0
 10
102.8795919837717
 20
197.1503563631777
 30
0.0
 10
102.8771646127066
 20
197.1291655404235
 30
0.0
  0
LINE
  5
14A
330
1F
100
AcDbEntity
  8
0
  6
Continuous
 62
     7
370
    25
100
AcDbLine
 10
104.1149204502
 20
198.4924162687
 30
0.0
 11
103.8155839065
 21
198.4153459507
 31
0.0
  0
SPLINE
  5
14B
330
1F
100
AcDbEntity
  8
0
  6
Continuous
 62
     7
370
    25
100
AcDbSpline
210
0.0
220
0.0
230
1.0
 70
     8
 71
     3
 72
     9
 73
     5
 74
     0
 42
0.00000001
 43
0.00000001
 40
0.0
 40
0.0
 40
0.0
 40
0.0
 40
0.7861923976234336
 40
1.0
 40
1.0
 40
1.0
 40
1.0
 10
103.8155839064904
 20
198.4153459507245
 30
0.0
 10
103.7985357633673
 20
198.3469213804692
 30
0.0
 10
103.7768513217795
 20
198.259888523802
 30
0.0
 10
103.7562576349882
 20
198.1701895671483
 30
0.0
 10
103.7518545481913
 20
198.1510112482905
 30
0.0
  0
LINE
  5
14C
330
1F
100
AcDbEntity
  8
0
  6
Continuous
 62
     7
370
    25
100
AcDbLine
 10
102.4137499612
 20
196.421546354
 30
0.0
 11
102.1796722183
 21
196.3013003747
 31
0.0
  0
SPLINE
  5
14D
330
1F
100
AcDbEntity
  8
0
  6
Continuous
 62
     7
370
    25
100
AcDbSpline
210
0.0
220
0.0
230
1.0
 70
     8
 71
     3
 72
    10
 73
     6
 74
     0
 42
0.00000001
 43
0.00000001
 40
0.0
 40
0.0
 40
0.0
 40
0.0
 40
0.4797318113379627
 40
0.959465028068289
 40
1.0
 40
1.0
 40
1.0
 40
1.0
 10
102.1796722182901
 20
196.3013003746782
 30
0.0
 10
102.1779791559766
 20
196.2188645537721
 30
0.0
 10
102.1745930263897
 20
196.053992670461
 30
0.0
 10
102.1730591213732
 20
195.8810195942399
 30
0.0
 10
102.1737165968655
 20
195.7886942556989
 30
0.0
 10
102.1737678218898
 20
195.7815010328806
 30
0.0
  0
LINE
  5
14E
330
1F
100
AcDbEntity
  8
0
  6
Continuous
 62
     7
370
    25
100
AcDbLine
 10
105.1815511736
 20
199.2976330305
 30
0.0
 11
104.8569845821
 21
199.2507806577
 31
0.0
  0
SPLINE
  5
14F
330
1F
100
AcDbEntity
  8
0
  6
Continuous
 62
     7
370
    25
100
AcDbSpline
210
0.0
220
0.0
230
1.0
 70
     8
 71
     3
 72
     9
 73
     5
 74
     0
 42
0.00000001
 43
0.00000001
 40
0.0
 40
0.0
 40
0.0
 40
0.0
 40
0.5242987559102259
 40
1.0
 40
1.0
 40
1.0
 40
1.0
 10
104.8569845820627
 20
199.2507806577398
 30
0.0
 10
104.8346114824584
 20
199.1909979154575
 30
0.0
 10
104.7919390569527
 20
199.0769737229368
 30
0.0
 10
104.7501199793703
 20
198.9586026465097
 30
0.0
 10
104.7302265921376
 20
198.9022933781891
 30
0.0
  0
SPLINE
  5
150
330
1F
100
AcDbEntity
  8
0
  6
Continuous
 62
     7
370
    25
100
AcDbSpline
210
0.0
220
0.0
230
1.0
 70
     8
 71
     3
 72
     9
 73
     5
 74
     0
 42
0.00000001
 43
0.00000001
 40
0.0
 40
0.0
 40
0.0
 40
0.0
 40
0.7858816461216048
 40
1.0
 40
1.0
 40
1.0
 40
1.0
 10
101.6348675544984
 20
195.0869237107163
 30
0.0
 10
101.6421999512953
 20
195.0003573333242
 30
0.0
 10
101.6515301053117
 20
194.890205406734
 30
0.0
 10
101.6632301301709
 20
194.7785554964399
 30
0.0
 10
101.6657353202341
 20
194.7546492014371
 30
0.0
  0
SPLINE
  5
151
330
1F
100
AcDbEntity
  8
0
  6
Continuous
 62
     7
370
    25
100
AcDbSpline
210
0.0
220
0.0
230
1.0
 70
     8
 71
     3
 72
     9
 73
     5
 74
     0
 42
0.00000001
 43
0.00000001
 40
0.0
 40
0.0
 40
0.0
 40
0.0
 40
0.2222903880416562
 40
0.9999999999999999
 40
0.9999999999999999
 40
0.9999999999999999
 40
0.9999999999999999
 10
101.9162509365802
 20
195.274948749246
 30
0.0
 10
101.8947207599523
 20
195.2609417723207
 30
0.0
 10
101.7978646753617
 20
195.197929704868
 30
0.0
 10
101.7061752792045
 20
195.1354864388784
 30
0.0
 10
101.6348675544984
 20
195.0869237107163
 30
0.0
  0
LINE
  5
152
330
1F
100
AcDbEntity
  8
0
  6
Continuous
 62
     7
370
    25
100
AcDbLine
 10
106.3503635121
 20
199.9150955636
 30
0.0
 11
106.0065748099
 21
199.9030462251
 31
0.0
  0
SPLINE
  5
153
330
1F
100
AcDbEntity
  8
0
  6
Continuous
 62
     7
370
    25
100
AcDbSpline
210
0.0
220
0.0
230
1.0
 70
     8
 71
     3
 72
     9
 73
     5
 74
     0
 42
0.00000001
 43
0.00000001
 40
0.0
 40
0.0
 40
0.0
 40
0.0
 40
0.786579387884628
 40
0.9999999999999999
 40
0.9999999999999999
 40
0.9999999999999999
 40
0.9999999999999999
 10
106.0065748099165
 20
199.9030462250894
 30
0.0
 10
105.9804892781825
 20
199.8532854399913
 30
0.0
 10
105.9473260245608
 20
199.7900231859016
 30
0.0
 10
105.914187739671
 20
199.7237230951678
 30
0.0
 10
105.9071153466254
 20
199.7095732892202
 30
0.0
  0
LINE
  5
154
330
1F
100
AcDbEntity
  8
0
  6
Continuous
 62
     7
370
    25
100
AcDbLine
 10
107.585843889
 20
200.326042425
 30
0.0
 11
107.2294248727
 21
200.3523238936
 31
0.0
  0
SPLINE
  5
155
330
1F
100
AcDbEntity
  8
0
  6
Continuous
 62
     7
370
    25
100
AcDbSpline
210
0.0
220
0.0
230
1.0
 70
     8
 71
     3
 72
     9
 73
     5
 74
     0
 42
0.00000001
 43
0.00000001
 40
0.0
 40
0.0
 40
0.0
 40
0.0
 40
0.7868860346215999
 40
1.0
 40
1.0
 40
1.0
 40
1.0
 10
107.2294248726964
 20
200.3523238935694
 30
0.0
 10
107.2014683234015
 20
200.3130695002617
 30
0.0
 10
107.1659402442836
 20
200.2631837587684
 30
0.0
 10
107.1298876071087
 20
200.2102175030098
 30
0.0
 10
107.1222042866381
 20
200.1989296542138
 30
0.0
  0
LINE
  5
156
330
1F
100
AcDbEntity
  8
0
  6
Continuous
 62
     7
370
    25
100
AcDbLine
 10
108.8340320181
 20
200.5210244988
 30
0.0
 11
108.48837909
 21
200.5849625886
 31
0.0
  0
SPLINE
  5
157
330
1F
100
AcDbEntity
  8
0
  6
Continuous
 62
     7
370
    25
100
AcDbSpline
210
0.0
220
0.0
230
1.0
 70
     8
 71
     3
 72
     9
 73
     5
 74
     0
 42
0.00000001
 43
0.00000001
 40
0.0
 40
0.0
 40
0.0
 40
0.0
 40
0.7873427605388228
 40
1.0
 40
1.0
 40
1.0
 40
1.0
 10
108.4883790900368
 20
200.5849625885689
 30
0.0
 10
108.4604107596846
 20
200.5565789120862
 30
0.0
 10
108.4248883268206
 20
200.5205289502331
 30
0.0
 10
108.3883032383903
 20
200.4814541824693
 30
0.0
 10
108.3805231544793
 20
200.4731446502241
 30
0.0
  0
LINE
  5
158
330
1F
100
AcDbEntity
  8
0
  6
Continuous
 62
     7
370
    25
100
AcDbLine
 10
101.5864980595
 20
190.0506378016
 30
0.0
 11
101.7334471357
 21
189.7979034599
 31
0.0
  0
LINE
  5
159
330
1F
100
AcDbEntity
  8
0
  6
Continuous
 62
     7
370
    25
100
AcDbLine
 10
101.6191645072
 20
190.1497733478
 30
0.0
 11
101.5864980595
 21
190.0506378016
 31
0.0
  0
LWPOLYLINE
  5
15A
330
1F
100
AcDbEntity
  8
0
  6
Continuous
 62
     7
370
    25
100
AcDbPolyline
 90
       56
 70
   128
 43
0.0
 10
89.8224425219
 20
248.4972441878
 10
89.2381410971
 20
248.8605510992
 10
88.5624619876
 20
249.0680259935
 10
87.8042137037
 20
249.1169641183
 10
86.9732811715
 20
249.0067274902
 10
86.0804968673
 20
248.7387532122
 10
85.1374995998
 20
248.3165347389
 10
84.1565827805
 20
247.7455763338
 10
83.1505341603
 20
247.0333213129
 10
82.1324691214
 20
246.1890550096
 10
81.1156596987
 20
245.2237837262
 10
80.113361558
 20
244.1500912503
 10
79.1386411882
 20
242.9819748052
 10
78.2042055602
 20
241.7346625752
 10
77.3222364712
 20
240.4244151826
 10
76.5042317373
 20
239.0683137061
 10
75.7608553011
 20
237.6840370023
 10
75.1017982113
 20
236.289631235
 10
74.5356522849
 20
234.9032746158
 10
74.0697980999
 20
233.5430404234
 10
73.7103087781
 20
232.2266613908
 10
73.4618708124
 20
230.9712985317
 10
73.3277229718
 20
229.7933174209
 10
73.3096140785
 20
228.7080748436
 10
73.4077802097
 20
227.7297185965
 10
73.6209416195
 20
226.8710030495
 10
73.9463194232
 20
226.143122873
 10
74.3796718234
 20
225.5555670982
 10
74.9153494089
 20
225.1159954131
 10
75.5463688031
 20
224.830138307
 10
76.2645037032
 20
224.7017223644
 10
77.0603921225
 20
224.7324216835
 10
77.9236584384
 20
224.9218360517
 10
78.8430486541
 20
225.267496163
 10
79.8065771123
 20
225.7648958093
 10
80.8016827459
 20
226.4075506256
 10
81.8153928313
 20
227.1870826234
 10
82.834492107
 20
228.093329411
 10
83.8456950557
 20
229.1144766757
 10
84.8358191004
 20
230.2372122012
 10
85.7919564599
 20
231.4468994129
 10
86.7016424217
 20
232.727768188
 10
87.5530178379
 20
234.0631204433
 10
88.3349837281
 20
235.4355478199
 10
89.0373459709
 20
236.8271586281
 10
89.6509482005
 20
238.2198110928
 10
90.1677911734
 20
239.5953498593
 10
90.581137051
 20
240.9358426763
 10
90.8855972376
 20
242.2238141698
 10
91.0772026292
 20
243.4424736617
 10
91.1534553564
 20
244.5759340619
 10
91.1133613484
 20
245.6094189806
 10
90.9574432917
 20
246.5294553613
 10
90.6877338168
 20
247.324049123
 10
90.3077489991
 20
247.9828415206
 10
89.8224425219
 20
248.4972441878
  0
LWPOLYLINE
  5
15B
330
1F
100
AcDbEntity
  8
0
  6
Continuous
 62
     7
370
    25
100
AcDbPolyline
 90
       20
 70
   128
 43
0.0
 10
85.7480287595
 20
249.4258831397
 10
85.6947448149
 20
249.4008132365
 10
84.7007190968
 20
248.8659696863
 10
83.6777122038
 20
248.1909188722
 10
82.6377179563
 20
247.3835751476
 10
81.592929336
 20
246.4534038796
 10
80.5555955342
 20
245.4113104759
 10
79.5378783412
 20
244.2695125288
 10
78.5517095607
 20
243.0413965753
 10
77.60865112
 20
241.741361152
 10
76.719759517
 20
240.3846479858
 10
75.8954561931
 20
238.9871632979
 10
75.145405351
 20
237.5652913187
 10
74.4784006511
 20
236.135702197
 10
73.9022621136
 20
234.7151565582
 10
73.4237444362
 20
233.3203090011
 10
73.0484578011
 20
231.9675128381
 10
72.7808021009
 20
230.6726283672
 10
72.6239153541
 20
229.4508369249
 10
72.5794197354
 20
228.3375192687
  0
LWPOLYLINE
  5
15C
330
1F
100
AcDbEntity
  8
0
  6
Continuous
 62
     7
370
    25
100
AcDbPolyline
 90
       25
 70
   128
 43
0.0
 10
76.6041418972
 20
223.7404939258
 10
76.9078557046
 20
223.7876094032
 10
77.8094333554
 20
224.024944089
 10
78.7628238558
 20
224.4133098235
 10
79.7568495739
 20
224.9481533737
 10
80.7798564669
 20
225.6232041879
 10
81.8198507144
 20
226.4305479124
 10
82.8646393347
 20
227.3607191804
 10
83.9019731365
 20
228.4028125841
 10
84.9196903295
 20
229.5446105312
 10
85.9058591099
 20
230.7727264848
 10
86.8489175507
 20
232.072761908
 10
87.7378091537
 20
233.4294750743
 10
88.5621124776
 20
234.8269597621
 10
89.3121633197
 20
236.2488317414
 10
89.9791680196
 20
237.6784208631
 10
90.5553065571
 20
239.0989665018
 10
91.0338242345
 20
240.4938140589
 10
91.4091108696
 20
241.846610222
 10
91.6767665698
 20
243.1414946929
 10
91.8336533166
 20
244.3632861351
 10
91.8779317565
 20
245.4976601612
 10
91.8090827651
 20
246.5313172728
 10
91.627913534
 20
247.4521387853
 10
91.5831503255
 20
247.6062488655
  0
LWPOLYLINE
  5
15D
330
1F
100
AcDbEntity
  8
0
  6
Continuous
 62
     7
370
    25
100
AcDbPolyline
 90
       11
 70
   128
 43
0.0
 10
77.838142324
 20
223.6621688178
 10
77.0105726805
 20
223.4503040592
 10
76.1573914758
 20
223.365390936
 10
75.3776357809
 20
223.4378504821
 10
74.6804475185
 20
223.6668331757
 10
74.0740005834
 20
224.049654404
 10
73.5654050115
 20
224.5818259381
 10
73.1606236208
 20
225.2571085534
 10
72.8644021031
 20
226.0675851786
 10
72.6802133848
 20
227.0037537164
 10
72.6784639717
 20
227.0175258304
  0
ARC
  5
15E
330
1F
100
AcDbEntity
  8
0
  6
Continuous
 62
     7
370
    25
100
AcDbCircle
 10
88.4949907793
 20
246.0562903088
 30
0.0
 40
4.148032522163638
100
AcDbArc
 50
56.7989189531
 51
113.4667808188
  0
LINE
  5
15F
330
1F
100
AcDbEntity
  8
0
  6
Continuous
 62
     7
370
    25
100
AcDbLine
 10
94.4029496009
 20
247.2728646775
 30
0.0
 11
94.0916356533
 21
247.4957171955
 31
0.0
  0
LWPOLYLINE
  5
160
330
1F
100
AcDbEntity
  8
0
  6
Continuous
 62
     7
370
    25
100
AcDbPolyline
 90
       30
 70
   128
 43
0.0
 10
78.0218978053
 20
221.5724935245
 10
78.3170307927
 20
221.4125248141
 10
79.0142190552
 20
221.1835421206
 10
79.79397475
 20
221.1110825744
 10
80.6471559547
 20
221.1959956977
 10
81.5637598997
 20
221.4372859616
 10
82.5330402418
 20
221.8321244584
 10
83.5436330551
 20
222.3758820677
 10
84.583690063
 20
223.0621837288
 10
85.641017548
 20
223.8829831821
 10
86.703219312
 20
224.8286573046
 10
87.7578420105
 20
225.8881189317
 10
88.7925211566
 20
227.0489468446
 10
89.7951260835
 20
228.2975313973
 10
90.7539021649
 20
229.6192340776
 10
91.6576086279
 20
230.99855913
 10
92.4956503406
 20
232.4193352293
 10
93.2582020301
 20
233.8649050749
 10
93.936323475
 20
235.3183206819
 10
94.5220643214
 20
236.7625420813
 10
95.0085572934
 20
238.1806370977
 10
95.3900987058
 20
239.5559798634
 10
95.6622153343
 20
240.8724457422
 10
95.8217168602
 20
242.1146003752
 10
95.8667332741
 20
243.267880635
 10
95.7967367995
 20
244.3187653651
 10
95.6125480812
 20
245.2549339029
 10
95.3163265635
 20
246.0654105281
 10
94.9115451729
 20
246.7406931434
 10
94.4029496009
 20
247.2728646775
  0
LWPOLYLINE
  5
161
330
1F
100
AcDbEntity
  8
0
  6
Continuous
 62
     7
370
    25
100
AcDbPolyline
 90
       57
 70
   128
 43
0.0
 10
89.9195164785
 20
248.6454079399
 10
90.4031682545
 20
248.1350380027
 10
90.7840224098
 20
247.4834697468
 10
91.0572894824
 20
246.698897021
 10
91.2195329804
 20
245.7911862825
 10
91.2687125977
 20
244.7717525205
 10
91.2042098719
 20
243.6534157062
 10
91.0268359624
 20
242.4502395738
 10
90.7388214489
 20
241.1773547612
 10
90.3437882811
 20
239.8507685336
 10
89.8467042302
 20
238.4871634824
 10
89.2538204166
 20
237.1036877324
 10
88.5725926983
 20
235.7177392938
 10
87.811587909
 20
234.3467472723
 10
86.9803761256
 20
233.0079526882
 10
86.0894103185
 20
231.7181916601
 10
85.1498948997
 20
230.4936836813
 10
84.1736448206
 20
229.34982765
 10
83.1729369925
 20
228.3010082196
 10
82.160355897
 20
227.360414903
 10
81.1486353287
 20
226.5398762067
 10
80.1504982609
 20
225.8497108811
 10
79.1784968464
 20
225.2985981555
 10
78.2448545669
 20
224.8934685922
 10
77.3613125157
 20
224.6394169306
 10
76.5389817468
 20
224.5396380176
 10
75.7882035468
 20
224.5953866311
 10
75.1184193871
 20
224.8059616998
 10
74.5380521922
 20
225.1687151201
 10
74.0544004162
 20
225.6790850573
 10
73.6735462609
 20
226.3306533132
 10
73.4002791883
 20
227.1152260391
 10
73.2380356903
 20
228.0229367776
 10
73.188856073
 20
229.0423705395
 10
73.2533587988
 20
230.1607073539
 10
73.4307327083
 20
231.3638834863
 10
73.7187472218
 20
232.6367682989
 10
74.1137803896
 20
233.9633545265
 10
74.6108644405
 20
235.3269595777
 10
75.2037482541
 20
236.7104353277
 10
75.8849759724
 20
238.0963837663
 10
76.6459807617
 20
239.4673757877
 10
77.4771925451
 20
240.8061703718
 10
78.3681583522
 20
242.0959313999
 10
79.307673771
 20
243.3204393787
 10
80.2839238501
 20
244.46429541
 10
81.2846316782
 20
245.5131148404
 10
82.2972127737
 20
246.4537081571
 10
83.308933342
 20
247.2742468533
 10
84.3070704097
 20
247.964412179
 10
85.2790718243
 20
248.5155249046
 10
86.2127141038
 20
248.9206544678
 10
87.096256155
 20
249.1747061295
 10
87.9185869239
 20
249.2744850424
 10
88.6693651239
 20
249.2187364289
 10
89.3391492836
 20
249.0081613602
 10
89.9195164785
 20
248.6454079399
  0
LINE
  5
162
330
1F
100
AcDbEntity
  8
0
  6
Continuous
 62
     7
370
    25
100
AcDbLine
 10
124.2612122736
 20
228.7638065512
 30
0.0
 11
123.949898326
 21
228.9866590692
 31
0.0
  0
LWPOLYLINE
  5
163
330
1F
100
AcDbEntity
  8
0
  6
Continuous
 62
     7
370
    25
100
AcDbPolyline
 90
       30
 70
   128
 43
0.0
 10
107.880160478
 20
203.0634353982
 10
108.1752934654
 20
202.9034666878
 10
108.8724817279
 20
202.6744839943
 10
109.6522374227
 20
202.6020244481
 10
110.5054186274
 20
202.6869375714
 10
111.4220225724
 20
202.9282278353
 10
112.3913029145
 20
203.3230663321
 10
113.4018957278
 20
203.8668239414
 10
114.4419527357
 20
204.5531256025
 10
115.4992802207
 20
205.3739250558
 10
116.5614819847
 20
206.3195991782
 10
117.6161046832
 20
207.3790608054
 10
118.6507838293
 20
208.5398887183
 10
119.6533887562
 20
209.788473271
 10
120.6121648376
 20
211.1101759513
 10
121.5158713006
 20
212.4895010037
 10
122.3539130133
 20
213.910277103
 10
123.1164647028
 20
215.3558469486
 10
123.7945861477
 20
216.8092625556
 10
124.3803269941
 20
218.253483955
 10
124.8668199661
 20
219.6715789714
 10
125.2483613785
 20
221.0469217371
 10
125.520478007
 20
222.3633876159
 10
125.6799795329
 20
223.6055422489
 10
125.7249959468
 20
224.7588225087
 10
125.6549994722
 20
225.8097072388
 10
125.4708107539
 20
226.7458757766
 10
125.1745892362
 20
227.5563524018
 10
124.7698078456
 20
228.2316350171
 10
124.2612122736
 20
228.7638065512
  0
LINE
  5
164
330
1F
100
AcDbEntity
  8
0
  6
Continuous
 62
     7
370
    25
100
AcDbLine
 10
94.7857478403
 20
247.0355690605
 30
0.0
 11
94.2783892297
 21
247.3695753343
 31
0.0
  0
LWPOLYLINE
  5
165
330
1F
100
AcDbEntity
  8
0
  6
Continuous
 62
     7
370
    25
100
AcDbPolyline
 90
       30
 70
   128
 43
0.0
 10
78.2179424684
 20
221.4613397686
 10
78.6998290321
 20
221.1752291971
 10
79.3970172946
 20
220.9462465036
 10
80.1767729894
 20
220.8737869574
 10
81.0299541941
 20
220.9587000807
 10
81.9465581391
 20
221.1999903446
 10
82.9158384812
 20
221.5948288414
 10
83.9264312945
 20
222.1385864507
 10
84.9664883024
 20
222.8248881118
 10
86.0238157874
 20
223.6456875651
 10
87.0860175514
 20
224.5913616876
 10
88.1406402499
 20
225.6508233147
 10
89.175319396
 20
226.8116512276
 10
90.1779243228
 20
228.0602357803
 10
91.1367004043
 20
229.3819384606
 10
92.0404068673
 20
230.761263513
 10
92.87844858
 20
232.1820396123
 10
93.6410002695
 20
233.6276094579
 10
94.3191217144
 20
235.0810250649
 10
94.9048625608
 20
236.5252464643
 10
95.3913555328
 20
237.9433414807
 10
95.7728969452
 20
239.3186842464
 10
96.0450135737
 20
240.6351501252
 10
96.2045150996
 20
241.8773047582
 10
96.2495315135
 20
243.030585018
 10
96.1795350389
 20
244.0814697481
 10
95.9953463206
 20
245.0176382859
 10
95.6991248029
 20
245.8281149111
 10
95.2943434123
 20
246.5033975264
 10
94.7857478403
 20
247.0355690605
  0
LWPOLYLINE
  5
166
330
1F
100
AcDbEntity
  8
0
  6
Continuous
 62
     7
370
    25
100
AcDbPolyline
 90
       27
 70
   128
 43
0.0
 10
79.8647391215
 20
221.112205006
 10
80.2794417104
 20
221.0938365113
 10
81.118636338
 20
221.1773576161
 10
82.0202139888
 20
221.4146923019
 10
82.9736044892
 20
221.8030580365
 10
83.9676302072
 20
222.3379015867
 10
84.9906371002
 20
223.0129524008
 10
86.0306313477
 20
223.8202961254
 10
87.075419968
 20
224.7504673934
 10
88.1127537699
 20
225.7925607971
 10
89.1304709628
 20
226.9343587442
 10
90.1166397433
 20
228.1624746977
 10
91.059698184
 20
229.462510121
 10
91.948589787
 20
230.8192232872
 10
92.772893111
 20
232.2167079751
 10
93.5229439531
 20
233.6385799543
 10
94.189948653
 20
235.068169076
 10
94.7660871904
 20
236.4887147148
 10
95.2446048678
 20
237.8835622719
 10
95.619891503
 20
239.2363584349
 10
95.8875472031
 20
240.5312429058
 10
96.04443395
 20
241.7530343481
 10
96.0887123898
 20
242.8874083742
 10
96.0198633984
 20
243.9210654858
 10
95.8386941673
 20
244.8418869983
 10
95.5473287401
 20
245.6390771215
 10
95.3235828535
 20
246.049952438
  0
LWPOLYLINE
  5
167
330
1F
100
AcDbEntity
  8
0
  6
Continuous
 62
     7
370
    25
100
AcDbPolyline
 90
       30
 70
   128
 43
0.0
 10
107.880160478
 20
203.0634353982
 10
108.1752934654
 20
202.9034666878
 10
108.8724817279
 20
202.6744839943
 10
109.6522374227
 20
202.6020244481
 10
110.5054186274
 20
202.6869375714
 10
111.4220225724
 20
202.9282278353
 10
112.3913029145
 20
203.3230663321
 10
113.4018957278
 20
203.8668239414
 10
114.4419527357
 20
204.5531256025
 10
115.4992802207
 20
205.3739250558
 10
116.5614819847
 20
206.3195991782
 10
117.6161046832
 20
207.3790608054
 10
118.6507838293
 20
208.5398887183
 10
119.6533887562
 20
209.788473271
 10
120.6121648376
 20
211.1101759513
 10
121.5158713006
 20
212.4895010037
 10
122.3539130133
 20
213.910277103
 10
123.1164647028
 20
215.3558469486
 10
123.7945861477
 20
216.8092625556
 10
124.3803269941
 20
218.253483955
 10
124.8668199661
 20
219.6715789714
 10
125.2483613785
 20
221.0469217371
 10
125.520478007
 20
222.3633876159
 10
125.6799795329
 20
223.6055422489
 10
125.7249959468
 20
224.7588225087
 10
125.6549994722
 20
225.8097072388
 10
125.4708107539
 20
226.7458757766
 10
125.1745892362
 20
227.5563524018
 10
124.7698078456
 20
228.2316350171
 10
124.2612122736
 20
228.7638065512
  0
LINE
  5
168
330
1F
100
AcDbEntity
  8
0
  6
Continuous
 62
     7
370
    25
100
AcDbLine
 10
119.943046919
 20
196.447849103
 30
0.0
 11
112.2870821311
 21
201.1937614431
 31
0.0
  0
ARC
  5
169
330
1F
100
AcDbEntity
  8
0
  6
Continuous
 62
     7
370
    25
100
AcDbCircle
 10
111.8954034608
 20
204.5560576355
 30
0.0
 40
3.385032919550398
100
AcDbArc
 50
239.491759209
 51
276.6445189927
  0
ARC
  5
16A
330
1F
100
AcDbEntity
  8
0
  6
Continuous
 62
     7
370
    25
100
AcDbCircle
 10
121.8632811326
 20
199.4305115201
 30
0.0
 40
4.297166145851804
100
AcDbArc
 50
243.3868632045
 51
292.9483671127
  0
ARC
  5
16B
330
1F
100
AcDbEntity
  8
0
  6
Continuous
 62
     7
370
    25
100
AcDbCircle
 10
133.4005928806
 20
218.0661758667
 30
0.0
 40
4.321046853458931
100
AcDbArc
 50
3.5387542763
 51
52.884038333
  0
LWPOLYLINE
  5
16C
330
1F
100
AcDbEntity
  8
0
  6
Continuous
 62
     7
370
    25
100
AcDbPolyline
 90
       20
 70
   128
 43
0.0
 10
137.8119763755
 20
217.1278679147
 10
137.8137204837
 20
217.0221861207
 10
137.7694420438
 20
215.8878120947
 10
137.612555297
 20
214.6660206524
 10
137.3448995969
 20
213.3711361815
 10
136.9696129617
 20
212.0183400184
 10
136.4910952843
 20
210.6234924614
 10
135.9149567469
 20
209.2029468226
 10
135.247952047
 20
207.7733577009
 10
134.4979012048
 20
206.3514857217
 10
133.6735978809
 20
204.9540010338
 10
132.7847062779
 20
203.5972878675
 10
131.8416478372
 20
202.2972524443
 10
130.8554790567
 20
201.0691364908
 10
129.8377618638
 20
199.9273385437
 10
128.8004280619
 20
198.8852451399
 10
127.7556394416
 20
197.955073872
 10
126.7156451941
 20
197.1477301474
 10
125.6926383011
 20
196.4726793332
 10
124.796883939
 20
195.9850664785
  0
LINE
  5
16D
330
1F
100
AcDbEntity
  8
0
  6
Continuous
 62
     7
370
    25
100
AcDbLine
 10
107.9229807963
 20
200.8813534466
 30
0.0
 11
106.2323082738
 21
202.2687024597
 31
0.0
  0
LINE
  5
16E
330
1F
100
AcDbEntity
  8
0
  6
Continuous
 62
     7
370
    25
100
AcDbLine
 10
106.2323082738
 20
202.2687024597
 30
0.0
 11
107.0785650946
 21
203.560342258
 31
0.0
  0
LINE
  5
16F
330
1F
100
AcDbEntity
  8
0
  6
Continuous
 62
     7
370
    25
100
AcDbLine
 10
112.2870821311
 20
201.1937614431
 30
0.0
 11
110.8972802232
 21
199.0725100547
 31
0.0
  0
LINE
  5
170
330
1F
100
AcDbEntity
  8
0
  6
Continuous
 62
     7
370
    25
100
AcDbLine
 10
108.0965837948
 20
201.1463232955
 30
0.0
 11
110.8972802232
 21
199.0725100547
 31
0.0
  0
LINE
  5
171
330
1F
100
AcDbEntity
  8
0
  6
Continuous
 62
     7
370
    25
100
AcDbLine
 10
107.9229807963
 20
200.8813534466
 30
0.0
 11
108.0965837948
 21
201.1463232955
 31
0.0
  0
ARC
  5
172
330
1F
100
AcDbEntity
  8
0
  6
Continuous
 62
     7
370
    25
100
AcDbCircle
 10
111.9076858752
 20
192.1543227937
 30
0.0
 40
6.991583122635912
100
AcDbArc
 50
18.1013349646
 51
98.309335862
  0
LINE
  5
173
330
1F
100
AcDbEntity
  8
0
  6
Continuous
 62
     7
370
    25
100
AcDbLine
 10
119.943046919
 20
196.447849103
 30
0.0
 11
118.553245011
 21
194.3265977146
 31
0.0
  0
LWPOLYLINE
  5
174
330
1F
100
AcDbEntity
  8
0
  6
Continuous
 62
     7
370
    25
100
AcDbPolyline
 90
        3
 70
   128
 43
0.0
 10
114.8732556633
 20
198.2330228267
 10
114.6312211768
 20
198.5690075171
 10
114.6061699878
 20
198.6014331795
  0
LINE
  5
175
330
1F
100
AcDbEntity
  8
0
  6
Continuous
 62
     7
370
    25
100
AcDbLine
 10
117.9709912183
 20
194.7577353462
 30
0.0
 11
118.553245011
 21
194.3265977146
 31
0.0
  0
ARC
  5
176
330
1F
100
AcDbEntity
  8
0
  6
Continuous
 62
     7
370
    25
100
AcDbCircle
 10
109.5689926065
 20
192.2827250471
 30
0.0
 40
8.564628977522458
100
AcDbArc
 50
128.7493435956
 51
137.7785355994
  0
SPLINE
  5
177
330
1F
100
AcDbEntity
  8
0
  6
Continuous
 62
     7
370
    25
100
AcDbSpline
210
0.0
220
0.0
230
1.0
 70
     8
 71
     3
 72
     9
 73
     5
 74
     0
 42
0.00000001
 43
0.00000001
 40
0.0
 40
0.0
 40
0.0
 40
0.0
 40
0.3887165422953495
 40
1.0
 40
1.0
 40
1.0
 40
1.0
 10
104.11492045015
 20
198.4924162686739
 30
0.0
 10
104.1255652640456
 20
198.553904974997
 30
0.0
 10
104.1529497788203
 20
198.7120888947242
 30
0.0
 10
104.1872808224692
 20
198.8673184475299
 30
0.0
 10
104.2082668215375
 20
198.962207705307
 30
0.0
  0
SPLINE
  5
178
330
1F
100
AcDbEntity
  8
0
  6
Continuous
 62
     7
370
    25
100
AcDbSpline
210
0.0
220
0.0
230
1.0
 70
     8
 71
     3
 72
    10
 73
     6
 74
     0
 42
0.00000001
 43
0.00000001
 40
0.0
 40
0.0
 40
0.0
 40
0.0
 40
0.4922287432496958
 40
0.9844457036209076
 40
1.0
 40
1.0
 40
1.0
 40
1.0
 10
103.2264317682776
 20
198.038139153503
 30
0.0
 10
103.3122079883707
 20
198.0581539957681
 30
0.0
 10
103.4837583752619
 20
198.0981832011866
 30
0.0
 10
103.6588692777117
 20
198.134562714804
 30
0.0
 10
103.7490908374432
 20
198.1505223645291
 30
0.0
 10
103.7518545481913
 20
198.1510112482905
 30
0.0
  0
ARC
  5
179
330
1F
100
AcDbEntity
  8
0
  6
Continuous
 62
     7
370
    25
100
AcDbCircle
 10
109.6030374496
 20
192.2497375699
 30
0.0
 40
8.61200864540096
100
AcDbArc
 50
137.7682174244
 51
146.7642306731
  0
SPLINE
  5
17A
330
1F
100
AcDbEntity
  8
0
  6
Continuous
 62
     7
370
    25
100
AcDbSpline
210
0.0
220
0.0
230
1.0
 70
     8
 71
     3
 72
     9
 73
     5
 74
     0
 42
0.00000001
 43
0.00000001
 40
0.0
 40
0.0
 40
0.0
 40
0.0
 40
0.3887209501962895
 40
1.0
 40
1.0
 40
1.0
 40
1.0
 10
103.1828802321553
 20
197.5239114988621
 30
0.0
 10
103.1869836807829
 20
197.5909088298106
 30
0.0
 10
103.1975399644757
 20
197.763262110267
 30
0.0
 10
103.2154709391293
 20
197.9338576649411
 30
0.0
 10
103.2264317682776
 20
198.038139153503
 30
0.0
  0
SPLINE
  5
17B
330
1F
100
AcDbEntity
  8
0
  6
Continuous
 62
     7
370
    25
100
AcDbSpline
210
0.0
220
0.0
230
1.0
 70
     8
 71
     3
 72
    10
 73
     6
 74
     0
 42
0.00000001
 43
0.00000001
 40
0.0
 40
0.0
 40
0.0
 40
0.0
 40
0.4921928644806406
 40
0.9843739469417967
 40
1.0
 40
1.0
 40
1.0
 40
1.0
 10
102.3997612778615
 20
196.9698546555032
 30
0.0
 10
102.477418537452
 20
196.9973929253792
 30
0.0
 10
102.6327311976884
 20
197.0524688059252
 30
0.0
 10
102.7920156997314
 20
197.1043171968228
 30
0.0
 10
102.8746226618693
 20
197.1284237427232
 30
0.0
 10
102.8771646127066
 20
197.1291655404235
 30
0.0
  0
LINE
  5
17C
330
1F
100
AcDbEntity
  8
0
  6
Continuous
 62
     7
370
    25
100
AcDbLine
 10
103.2264317683
 20
198.0381391535
 30
0.0
 11
103.4876453617
 21
197.7953571365
 31
0.0
  0
LINE
  5
17D
330
1F
100
AcDbEntity
  8
0
  6
Continuous
 62
     7
370
    25
100
AcDbLine
 10
102.3997612779
 20
196.9698546555
 30
0.0
 11
102.700876941
 21
196.7831938517
 31
0.0
  0
LINE
  5
17E
330
1F
100
AcDbEntity
  8
0
  6
Continuous
 62
     7
370
    25
100
AcDbLine
 10
104.2082668215
 20
198.9622077053
 30
0.0
 11
104.4118384038
 21
198.6823588275
 31
0.0
  0
SPLINE
  5
17F
330
1F
100
AcDbEntity
  8
0
  6
Continuous
 62
     7
370
    25
100
AcDbSpline
210
0.0
220
0.0
230
1.0
 70
     8
 71
     3
 72
     9
 73
     5
 74
     0
 42
0.00000001
 43
0.00000001
 40
0.0
 40
0.0
 40
0.0
 40
0.0
 40
0.3887243955686672
 40
1.0
 40
1.0
 40
1.0
 40
1.0
 10
102.4137499611711
 20
196.4215463540238
 30
0.0
 10
102.4103507634269
 20
196.4927028227451
 30
0.0
 10
102.4016062704574
 20
196.6757540269724
 30
0.0
 10
102.4004612195481
 20
196.8582806088445
 30
0.0
 10
102.3997612778615
 20
196.9698546555032
 30
0.0
  0
ARC
  5
180
330
1F
100
AcDbEntity
  8
0
  6
Continuous
 62
     7
370
    25
100
AcDbCircle
 10
109.5178695062
 20
192.3037320379
 30
0.0
 40
8.511178827404466
100
AcDbArc
 50
146.7540175676
 51
155.8210087603
  0
SPLINE
  5
181
330
1F
100
AcDbEntity
  8
0
  6
Continuous
 62
     7
370
    25
100
AcDbSpline
210
0.0
220
0.0
230
1.0
 70
     8
 71
     3
 72
    10
 73
     6
 74
     0
 42
0.00000001
 43
0.00000001
 40
0.0
 40
0.0
 40
0.0
 40
0.0
 40
0.4921473024135832
 40
0.9842828238982226
 40
1.0
 40
1.0
 40
1.0
 40
1.0
 10
101.7533733148254
 20
195.7898134952012
 30
0.0
 10
101.8216011822023
 20
195.823177522566
 30
0.0
 10
101.9580552837304
 20
195.8899047786337
 30
0.0
 10
102.0988223743905
 20
195.953887053158
 30
0.0
 10
102.1724000224135
 20
195.9845130009826
 30
0.0
 10
102.1746771253148
 20
195.9854608219108
 30
0.0
  0
ARC
  5
182
330
1F
100
AcDbEntity
  8
0
  6
Continuous
 62
     7
370
    25
100
AcDbCircle
 10
109.4517559548
 20
192.4310988906
 30
0.0
 40
8.375533454029002
100
AcDbArc
 50
119.5944570279
 51
128.7591770418
  0
SPLINE
  5
183
330
1F
100
AcDbEntity
  8
0
  6
Continuous
 62
     7
370
    25
100
AcDbSpline
210
0.0
220
0.0
230
1.0
 70
     8
 71
     3
 72
     9
 73
     5
 74
     0
 42
0.00000001
 43
0.00000001
 40
0.0
 40
0.0
 40
0.0
 40
0.0
 40
0.3887108849944624
 40
1.0
 40
1.0
 40
1.0
 40
1.0
 10
105.1815511736199
 20
199.2976330304779
 30
0.0
 10
105.1975772722956
 20
199.3524310358791
 30
0.0
 10
105.2388061117604
 20
199.4934047197059
 30
0.0
 10
105.2863629182375
 20
199.6303002239393
 30
0.0
 10
105.3154338763814
 20
199.7139829555703
 30
0.0
  0
SPLINE
  5
184
330
1F
100
AcDbEntity
  8
0
  6
Continuous
 62
     7
370
    25
100
AcDbSpline
210
0.0
220
0.0
230
1.0
 70
     8
 71
     3
 72
    10
 73
     6
 74
     0
 42
0.00000001
 43
0.00000001
 40
0.0
 40
0.0
 40
0.0
 40
0.0
 40
0.4922566330966573
 40
0.984501482647043
 40
1.0
 40
1.0
 40
1.0
 40
1.0
 10
104.2082668215375
 20
198.962207705307
 30
0.0
 10
104.3006048836562
 20
198.9732300484332
 30
0.0
 10
104.4852787975226
 20
198.9952744708347
 30
0.0
 10
104.6730447231661
 20
199.0133197109187
 30
0.0
 10
104.7692352916122
 20
199.0197520786818
 30
0.0
 10
104.7721714426117
 20
199.0199484222874
 30
0.0
  0
LINE
  5
185
330
1F
100
AcDbEntity
  8
0
  6
Continuous
 62
     7
370
    25
100
AcDbLine
 10
101.7533733148
 20
195.7898134952
 30
0.0
 11
102.070232235
 21
195.6695163321
 31
0.0
  0
SPLINE
  5
186
330
1F
100
AcDbEntity
  8
0
  6
Continuous
 62
     7
370
    25
100
AcDbSpline
210
0.0
220
0.0
230
1.0
 70
     8
 71
     3
 72
     9
 73
     5
 74
     0
 42
0.00000001
 43
0.00000001
 40
0.0
 40
0.0
 40
0.0
 40
0.0
 40
0.3887270170898057
 40
0.9999999999999999
 40
0.9999999999999999
 40
0.9999999999999999
 40
0.9999999999999999
 10
101.8308991315849
 20
195.2188157572367
 30
0.0
 10
101.8192640173662
 20
195.2926554660727
 30
0.0
 10
101.789332693565
 20
195.4826080692874
 30
0.0
 10
101.7670153214493
 20
195.6732681431372
 30
0.0
 10
101.7533733148254
 20
195.7898134952012
 30
0.0
  0
ARC
  5
187
330
1F
100
AcDbEntity
  8
0
  6
Continuous
 62
     7
370
    25
100
AcDbCircle
 10
109.3026940686
 20
192.3988381146
 30
0.0
 40
8.275926405840965
100
AcDbArc
 50
155.8115174735
 51
165.0496992012
  0
SPLINE
  5
188
330
1F
100
AcDbEntity
  8
0
  6
Continuous
 62
     7
370
    25
100
AcDbSpline
210
0.0
220
0.0
230
1.0
 70
     8
 71
     3
 72
    10
 73
     6
 74
     0
 42
0.00000001
 43
0.00000001
 40
0.0
 40
0.0
 40
0.0
 40
0.0
 40
0.4920888676392259
 40
0.9841659557484626
 40
1.0
 40
1.0
 40
1.0
 40
1.0
 10
101.3069080503385
 20
194.5338706261242
 30
0.0
 10
101.3646825963194
 20
194.5711857243141
 30
0.0
 10
101.4802303052851
 20
194.6458150274522
 30
0.0
 10
101.6003511135477
 20
194.7182279128991
 30
0.0
 10
101.6637586024174
 20
194.7535481005198
 30
0.0
 10
101.6657353202341
 20
194.7546492014371
 30
0.0
  0
LINE
  5
189
330
1F
100
AcDbEntity
  8
0
  6
Continuous
 62
     7
370
    25
100
AcDbLine
 10
105.3154338764
 20
199.7139829556
 30
0.0
 11
105.4524206707
 21
199.4224503388
 31
0.0
  0
ARC
  5
18A
330
1F
100
AcDbEntity
  8
0
  6
Continuous
 62
     7
370
    25
100
AcDbCircle
 10
109.3021056474
 20
192.6970550427
 30
0.0
 40
8.07036734881144
100
AcDbArc
 50
110.2085493414
 51
119.6030983717
  0
SPLINE
  5
18B
330
1F
100
AcDbEntity
  8
0
  6
Continuous
 62
     7
370
    25
100
AcDbSpline
210
0.0
220
0.0
230
1.0
 70
     8
 71
     3
 72
     9
 73
     5
 74
     0
 42
0.00000001
 43
0.00000001
 40
0.0
 40
0.0
 40
0.0
 40
0.0
 40
0.3887034647715247
 40
1.0
 40
1.0
 40
1.0
 40
1.0
 10
106.3503635120775
 20
199.9150955635673
 30
0.0
 10
106.3704472588563
 20
199.9622241222621
 30
0.0
 10
106.422115814964
 20
200.083469655081
 30
0.0
 10
106.4793221733968
 20
200.1996201801748
 30
0.0
 10
106.5142922220998
 20
200.2706225937297
 30
0.0
  0
SPLINE
  5
18C
330
1F
100
AcDbEntity
  8
0
  6
Continuous
 62
     7
370
    25
100
AcDbSpline
210
0.0
220
0.0
230
1.0
 70
     8
 71
     3
 72
    10
 73
     6
 74
     0
 42
0.00000001
 43
0.00000001
 40
0.0
 40
0.0
 40
0.0
 40
0.0
 40
0.4922770615232012
 40
0.9845423390110183
 40
1.0
 40
1.0
 40
1.0
 40
1.0
 10
105.3154338763814
 20
199.7139829555703
 30
0.0
 10
105.4125772871476
 20
199.714816963358
 30
0.0
 10
105.6068617832792
 20
199.716484958969
 30
0.0
 10
105.8037274627071
 20
199.7138870905627
 30
0.0
 10
105.9040606942518
 20
199.7097007428735
 30
0.0
 10
105.9071153466254
 20
199.7095732892202
 30
0.0
  0
LINE
  5
18D
330
1F
100
AcDbEntity
  8
0
  6
Continuous
 62
     7
370
    25
100
AcDbLine
 10
101.3069080503
 20
194.5338706261
 30
0.0
 11
101.6120746628
 21
194.4799231936
 31
0.0
  0
LINE
  5
18E
330
1F
100
AcDbEntity
  8
0
  6
Continuous
 62
     7
370
    25
100
AcDbLine
 10
106.5142922221
 20
200.2706225937
 30
0.0
 11
106.5859003068
 21
199.995864178
 31
0.0
  0
SPLINE
  5
18F
330
1F
100
AcDbEntity
  8
0
  6
Continuous
 62
     7
370
    25
100
AcDbSpline
210
0.0
220
0.0
230
1.0
 70
     8
 71
     3
 72
     9
 73
     5
 74
     0
 42
0.00000001
 43
0.00000001
 40
0.0
 40
0.0
 40
0.0
 40
0.0
 40
0.388728823922582
 40
0.9999999999999999
 40
0.9999999999999999
 40
0.9999999999999999
 40
0.9999999999999999
 10
101.4520371874609
 20
193.9522642229366
 30
0.0
 10
101.4316831923185
 20
194.0272296951212
 30
0.0
 10
101.3793227963565
 20
194.2200774274509
 30
0.0
 10
101.3343801777004
 20
194.414826271303
 30
0.0
 10
101.3069080503385
 20
194.5338706261242
 30
0.0
  0
ARC
  5
190
330
1F
100
AcDbEntity
  8
0
  6
Continuous
 62
     7
370
    25
100
AcDbCircle
 10
108.9758565194
 20
192.4849646184
 30
0.0
 40
7.937933386570946
100
AcDbArc
 50
165.041710434
 51
174.5405669133
  0
SPLINE
  5
191
330
1F
100
AcDbEntity
  8
0
  6
Continuous
 62
     7
370
    25
100
AcDbSpline
210
0.0
220
0.0
230
1.0
 70
     8
 71
     3
 72
    10
 73
     6
 74
     0
 42
0.00000001
 43
0.00000001
 40
0.0
 40
0.0
 40
0.0
 40
0.0
 40
0.4920119477074407
 40
0.9840121177260741
 40
1.0
 40
1.0
 40
1.0
 40
1.0
 10
101.0739311055391
 20
193.2401872368095
 30
0.0
 10
101.1205460129829
 20
193.2794586624145
 30
0.0
 10
101.2137747120117
 20
193.3580005735526
 30
0.0
 10
101.3117471006552
 20
193.4348851058791
 30
0.0
 10
101.3641520397771
 20
193.4729322331528
 30
0.0
 10
101.3658013777753
 20
193.4741296884649
 30
0.0
  0
LWPOLYLINE
  5
192
330
1F
100
AcDbEntity
  8
0
  6
Continuous
 62
     7
370
    25
100
AcDbPolyline
 90
       18
 70
   128
 43
0.0
 10
103.7214169252
 20
186.7608411346
 10
103.5096850829
 20
186.9113096849
 10
102.7025705942
 20
187.6206323274
 10
102.0210370278
 20
188.456440896
 10
101.4802849255
 20
189.4000939859
 10
101.0923749182
 20
190.4305448888
 10
100.8659587329
 20
191.5248110067
 10
100.8060862289
 20
192.6584864431
 10
100.914092769
 20
193.8062863379
 10
101.1875694359
 20
194.9426108072
 10
101.6204167597
 20
196.0421159085
 10
102.2029807569
 20
197.0802788978
 10
102.9222682474
 20
198.0339451711
 10
103.7622366473
 20
198.8818446917
 10
104.7041517732
 20
199.605066385
 10
105.7270056794
 20
200.1874799208
 10
106.8079852071
 20
200.6160954748
 10
107.9229807963
 20
200.8813534466
  0
ARC
  5
193
330
1F
100
AcDbEntity
  8
0
  6
Continuous
 62
     7
370
    25
100
AcDbCircle
 10
109.1045408037
 20
193.4023404017
 30
0.0
 40
7.335582371384961
100
AcDbArc
 50
93.2055480426
 51
100.4946137607
  0
ARC
  5
194
330
1F
100
AcDbEntity
  8
0
  6
Continuous
 62
     7
370
    25
100
AcDbCircle
 10
109.1713826615
 20
193.0547178573
 30
0.0
 40
7.689565057156248
100
AcDbArc
 50
100.5125462285
 51
110.2150656084
  0
ARC
  5
195
330
1F
100
AcDbEntity
  8
0
  6
Continuous
 62
     7
370
    25
100
AcDbCircle
 10
108.5811211363
 20
192.5219691033
 30
0.0
 40
7.54146799009753
100
AcDbArc
 50
174.5351052838
 51
184.3643684703
  0
ARC
  5
196
330
1F
100
AcDbEntity
  8
0
  6
Continuous
 62
     7
370
    25
100
AcDbCircle
 10
108.1772756825
 20
192.4909325041
 30
0.0
 40
7.136431729360956
100
AcDbArc
 50
184.3626472685
 51
194.560792452
  0
ARC
  5
197
330
1F
100
AcDbEntity
  8
0
  6
Continuous
 62
     7
370
    25
100
AcDbCircle
 10
107.8238067743
 20
192.3995020585
 30
0.0
 40
6.77132948264606
100
AcDbArc
 50
194.5639296512
 51
205.1258472333
  0
ARC
  5
198
330
1F
100
AcDbEntity
  8
0
  6
Continuous
 62
     7
370
    25
100
AcDbCircle
 10
107.6193159125
 20
192.307788723
 30
0.0
 40
6.547246981773669
100
AcDbArc
 50
205.1590425232
 51
210.5540214043
  0
ARC
  5
199
330
1F
100
AcDbEntity
  8
0
  6
Continuous
 62
     7
370
    25
100
AcDbCircle
 10
105.6277705954
 20
194.0256186446
 30
0.0
 40
6.851474991597428
100
AcDbArc
 50
179.8090702907
 51
230.0630831301
  0
SPLINE
  5
19A
330
1F
100
AcDbEntity
  8
0
  6
Continuous
 62
     7
370
    25
100
AcDbSpline
210
0.0
220
0.0
230
1.0
 70
     8
 71
     3
 72
     9
 73
     5
 74
     0
 42
0.00000001
 43
0.00000001
 40
0.0
 40
0.0
 40
0.0
 40
0.0
 40
0.3886933535586709
 40
1.0
 40
1.0
 40
1.0
 40
1.0
 10
107.5858438890127
 20
200.3260424250022
 30
0.0
 10
107.6085382919407
 20
200.3647558724373
 30
0.0
 10
107.6669246850196
 20
200.464354816131
 30
0.0
 10
107.7299111250725
 20
200.5579798193268
 30
0.0
 10
107.7684151545125
 20
200.6152134060536
 30
0.0
  0
SPLINE
  5
19B
330
1F
100
AcDbEntity
  8
0
  6
Continuous
 62
     7
370
    25
100
AcDbSpline
210
0.0
220
0.0
230
1.0
 70
     8
 71
     3
 72
    10
 73
     6
 74
     0
 42
0.00000001
 43
0.00000001
 40
0.0
 40
0.0
 40
0.0
 40
0.0
 40
0.4922892481972762
 40
0.9845667120671224
 40
1.0
 40
1.0
 40
1.0
 40
1.0
 10
106.5142922220998
 20
200.2706225937297
 30
0.0
 10
106.6143384836275
 20
200.2603820004659
 30
0.0
 10
106.8144286117944
 20
200.2399010590758
 30
0.0
 10
107.0165631951362
 20
200.2149777164306
 30
0.0
 10
107.1190877656441
 20
200.1994030885764
 30
0.0
 10
107.1222042866381
 20
200.1989296542138
 30
0.0
  0
LINE
  5
19C
330
1F
100
AcDbEntity
  8
0
  6
Continuous
 62
     7
370
    25
100
AcDbLine
 10
101.0739311055
 20
193.2401872368
 30
0.0
 11
101.3402601362
 21
193.2420798244
 31
0.0
  0
LINE
  5
19D
330
1F
100
AcDbEntity
  8
0
  6
Continuous
 62
     7
370
    25
100
AcDbLine
 10
107.7684151545
 20
200.6152134061
 30
0.0
 11
107.7861605953
 21
200.3850852834
 31
0.0
  0
SPLINE
  5
19E
330
1F
100
AcDbEntity
  8
0
  6
Continuous
 62
     7
370
    25
100
AcDbSpline
210
0.0
220
0.0
230
1.0
 70
     8
 71
     3
 72
     9
 73
     5
 74
     0
 42
0.00000001
 43
0.00000001
 40
0.0
 40
0.0
 40
0.0
 40
0.0
 40
0.3887296542173829
 40
1.0
 40
1.0
 40
1.0
 40
1.0
 10
101.2886753670336
 20
192.6603755236757
 30
0.0
 10
101.2593845425139
 20
192.7348749962319
 30
0.0
 10
101.1840344265607
 20
192.9265235410441
 30
0.0
 10
101.1157011879395
 20
193.1211921120796
 30
0.0
 10
101.0739311055391
 20
193.2401872368095
 30
0.0
  0
SPLINE
  5
19F
330
1F
100
AcDbEntity
  8
0
  6
Continuous
 62
     7
370
    25
100
AcDbSpline
210
0.0
220
0.0
230
1.0
 70
     8
 71
     3
 72
    10
 73
     6
 74
     0
 42
0.00000001
 43
0.00000001
 40
0.0
 40
0.0
 40
0.0
 40
0.0
 40
0.4919063544291746
 40
0.9838009336970307
 40
1.0
 40
1.0
 40
1.0
 40
1.0
 10
101.0615213670036
 20
191.9480712424069
 30
0.0
 10
101.096609387836
 20
191.9872448013356
 30
0.0
 10
101.1667845895703
 20
192.0655909814638
 30
0.0
 10
101.2417785536402
 20
192.1428529807706
 30
0.0
 10
101.2826820748207
 20
192.1815775844522
 30
0.0
 10
101.283986162871
 20
192.1828122041489
 30
0.0
  0
LINE
  5
1A0
330
1F
100
AcDbEntity
  8
0
  6
Continuous
 62
     7
370
    25
100
AcDbLine
 10
101.061521367
 20
191.9480712424
 30
0.0
 11
101.2657620919
 21
191.9858123257
 31
0.0
  0
SPLINE
  5
1A1
330
1F
100
AcDbEntity
  8
0
  6
Continuous
 62
     7
370
    25
100
AcDbSpline
210
0.0
220
0.0
230
1.0
 70
     8
 71
     3
 72
    10
 73
     6
 74
     0
 42
0.00000001
 43
0.00000001
 40
0.0
 40
0.0
 40
0.0
 40
0.0
 40
0.4922902015997333
 40
0.9845686188497065
 40
1.0
 40
1.0
 40
1.0
 40
1.0
 10
107.7684151545125
 20
200.6152134060536
 30
0.0
 10
107.8693735720917
 20
200.5933484464492
 30
0.0
 10
108.0712879905265
 20
200.5496190506398
 30
0.0
 10
108.2747021243145
 20
200.5013648797689
 30
0.0
 10
108.3774016937455
 20
200.4739770777509
 30
0.0
 10
108.3805231544793
 20
200.4731446502241
 30
0.0
  0
SPLINE
  5
1A2
330
1F
100
AcDbEntity
  8
0
  6
Continuous
 62
     7
370
    25
100
AcDbSpline
210
0.0
220
0.0
230
1.0
 70
     8
 71
     3
 72
     9
 73
     5
 74
     0
 42
0.00000001
 43
0.00000001
 40
0.0
 40
0.0
 40
0.0
 40
0.0
 40
0.3887290045950685
 40
1.0
 40
1.0
 40
1.0
 40
1.0
 10
101.3457767787557
 20
191.3824035167458
 30
0.0
 10
101.3076029041901
 20
191.4548592300859
 30
0.0
 10
101.2094011386559
 20
191.6412505527904
 30
0.0
 10
101.117622802129
 20
191.831672083676
 30
0.0
 10
101.0615213670036
 20
191.9480712424069
 30
0.0
  0
SPLINE
  5
1A3
330
1F
100
AcDbEntity
  8
0
  6
Continuous
 62
     7
370
    25
100
AcDbSpline
210
0.0
220
0.0
230
1.0
 70
     8
 71
     3
 72
     9
 73
     5
 74
     0
 42
0.00000001
 43
0.00000001
 40
0.0
 40
0.0
 40
0.0
 40
0.0
 40
0.6400467842747642
 40
1.0
 40
1.0
 40
1.0
 40
1.0
 10
101.2700558983577
 20
190.6967829335641
 30
0.0
 10
101.2932202575081
 20
190.7338517707962
 30
0.0
 10
101.3294119230542
 20
190.7917675952997
 30
0.0
 10
101.3707879227632
 20
190.8483044523605
 30
0.0
 10
101.3856813469123
 20
190.8686550758665
 30
0.0
  0
LINE
  5
1A4
330
1F
100
AcDbEntity
  8
0
  6
Continuous
 62
     7
370
    25
100
AcDbLine
 10
101.2700558984
 20
190.6967829336
 30
0.0
 11
101.3960892705
 21
190.743087858
 31
0.0
  0
SPLINE
  5
1A5
330
1F
100
AcDbEntity
  8
0
  6
Continuous
 62
     7
370
    25
100
AcDbSpline
210
0.0
220
0.0
230
1.0
 70
     8
 71
     3
 72
     9
 73
     5
 74
     0
 42
0.00000001
 43
0.00000001
 40
0.0
 40
0.0
 40
0.0
 40
0.0
 40
0.3722962347105056
 40
1.0
 40
1.0
 40
1.0
 40
1.0
 10
101.6122228465779
 20
190.1711463366527
 30
0.0
 10
101.5686478785027
 20
190.235413118352
 30
0.0
 10
101.4516040730259
 20
190.4080358195976
 30
0.0
 10
101.340067699799
 20
190.5854311909938
 30
0.0
 10
101.2700558983577
 20
190.6967829335641
 30
0.0
  0
SPLINE
  5
1A6
330
1F
100
AcDbEntity
  8
0
  6
Continuous
 62
     7
370
    25
100
AcDbSpline
210
0.0
220
0.0
230
1.0
 70
     8
 71
     3
 72
     9
 73
     5
 74
     0
 42
0.00000001
 43
0.00000001
 40
0.0
 40
0.0
 40
0.0
 40
0.0
 40
0.564668555247667
 40
0.9999999999999999
 40
0.9999999999999999
 40
0.9999999999999999
 40
0.9999999999999999
 10
101.6931984833893
 20
189.5243420723647
 30
0.0
 10
101.7052339918555
 20
189.5572036045588
 30
0.0
 10
101.7265482803072
 20
189.6153997479222
 30
0.0
 10
101.753939861212
 20
189.6730123126745
 30
0.0
 10
101.7658642777013
 20
189.698092873724
 30
0.0
  0
LINE
  5
1A7
330
1F
100
AcDbEntity
  8
0
  6
Continuous
 62
     7
370
    25
100
AcDbLine
 10
101.6931984834
 20
189.5243420724
 30
0.0
 11
101.734523153
 21
189.5477892612
 31
0.0
  0
LINE
  5
1A8
330
1F
100
AcDbEntity
  8
0
  6
Continuous
 62
     8
370
    25
100
AcDbLine
 10
124.2819300131
 20
155.7856724357
 30
0.0
 11
124.2610544879
 21
153.6120891731
 31
0.0
  0
LINE
  5
1A9
330
1F
100
AcDbEntity
  8
0
  6
Continuous
 62
     8
370
    25
100
AcDbLine
 10
81.4431448696
 20
149.5006021066
 30
0.0
 11
81.4640203948
 21
151.6741853692
 31
0.0
  0
LINE
  5
1AA
330
1F
100
AcDbEntity
  8
0
  6
Continuous
 62
     8
370
    25
100
AcDbLine
 10
80.1806375095
 20
151.4244607246
 30
0.0
 11
80.1639574065
 21
149.6877095561
 31
0.0
  0
LINE
  5
1AB
330
1F
100
AcDbEntity
  8
0
  6
Continuous
 62
     8
370
    25
100
AcDbLine
 10
72.7249983074
 20
155.792045214
 30
0.0
 11
72.7380094994
 21
157.1467852221
 31
0.0
  0
LINE
  5
1AC
330
1F
100
AcDbEntity
  8
0
  6
Continuous
 62
     8
370
    25
100
AcDbLine
 10
82.9136962872
 20
146.5942809734
 30
0.0
 11
82.9429923619
 21
149.6446213645
 31
0.0
  0
LINE
  5
1AD
330
1F
100
AcDbEntity
  8
0
  6
Continuous
 62
     8
370
    25
100
AcDbLine
 10
81.6608254415
 20
149.5215043614
 30
0.0
 11
81.6345088241
 21
146.7813884229
 31
0.0
  0
LINE
  5
1AE
330
1F
100
AcDbEntity
  8
0
  6
Continuous
 62
     8
370
    25
100
AcDbLine
 10
121.055637187
 20
153.3042966654
 30
0.0
 11
121.0263411123
 21
150.2539562743
 31
0.0
  0
LINE
  5
1AF
330
1F
100
AcDbEntity
  8
0
  6
Continuous
 62
     8
370
    25
100
AcDbLine
 10
75.8862222475
 20
151.4983750676
 30
0.0
 11
75.902417916
 21
153.1846863673
 31
0.0
  0
LINE
  5
1B0
330
1F
100
AcDbEntity
  8
0
  6
Continuous
 62
     8
370
    25
100
AcDbLine
 10
118.4612263237
 20
180.7828792569
 30
0.0
 11
114.6469304227
 21
180.4166206421
 31
0.0
  0
LINE
  5
1B1
330
1F
100
AcDbEntity
  8
0
  6
Continuous
 62
     8
370
    25
100
AcDbLine
 10
103.6362688573
 20
179.3593482759
 30
0.0
 11
71.6716116626
 21
176.2900187403
 31
0.0
  0
SPLINE
  5
1B2
330
1F
100
AcDbEntity
  8
0
  6
Continuous
 62
     8
370
    25
100
AcDbSpline
210
0.0
220
0.0
230
1.0
 70
     8
 71
     3
 72
    12
 73
     8
 74
     0
 42
0.00000001
 43
0.00000001
 40
0.0
 40
0.0
 40
0.0
 40
0.0
 40
0.1976854888620587
 40
0.3845197826955398
 40
0.5604947108405496
 40
0.7256026361003215
 40
1.0
 40
1.0
 40
1.0
 40
1.0
 10
80.15665371900418
 20
152.1168189731763
 30
0.0
 10
80.15299906302866
 20
152.0407581977735
 30
0.0
 10
80.14589035955413
 20
151.8928117147115
 30
0.0
 10
80.1129472967045
 20
151.7083783617677
 30
0.0
 10
80.06884019933568
 20
151.5681537875512
 30
0.0
 10
80.00451344906143
 20
151.443116467717
 30
0.0
 10
79.94657351125922
 20
151.4186653056122
 30
0.0
 10
79.91039973453894
 20
151.4033996544554
 30
0.0
  0
ARC
  5
1B3
330
1F
100
AcDbEntity
  8
0
  6
Continuous
 62
     8
370
    25
100
AcDbCircle
 10
79.7798232811
 20
151.6476352235
 30
0.0
 40
0.2159186321780487
100
AcDbArc
 50
177.4251302105
 51
229.9816093462
  0
ARC
  5
1B4
330
1F
100
AcDbEntity
  8
0
  6
Continuous
 62
     8
370
    25
100
AcDbCircle
 10
70.3110280656
 20
159.4163335449
 30
0.0
 40
0.2149116603455233
100
AcDbArc
 50
177.2913165696
 51
230.0244495164
  0
LWPOLYLINE
  5
1B5
330
1F
100
AcDbEntity
  8
0
  6
Continuous
 62
     8
370
    25
100
AcDbPolyline
 90
        8
 70
   128
 43
0.0
 10
128.5184312878
 20
172.2890337835
 10
128.6955244529
 20
172.3119941086
 10
128.8528177075
 20
172.3447350901
 10
128.9842663602
 20
172.3859985105
 10
129.0848189129
 20
172.4341986398
 10
129.1506111874
 20
172.487483174
 10
129.1791148236
 20
172.5438044183
 10
129.1802542455
 20
172.5574749208
  0
LWPOLYLINE
  5
1B6
330
1F
100
AcDbEntity
  8
0
  6
Continuous
 62
     8
370
    25
100
AcDbPolyline
 90
        3
 70
   128
 43
0.0
 10
69.8472414987
 20
160.3782266465
 10
69.8499922486
 20
160.3670183902
 10
69.8619648824
 20
160.353131653
  0
ARC
  5
1B7
330
1F
100
AcDbEntity
  8
0
  6
Continuous
 62
     8
370
    25
100
AcDbCircle
 10
112.4938316353
 20
189.8762675952
 30
0.0
 40
8.388674527087845
100
AcDbArc
 50
96.5479863034
 51
184.1795881563
  0
LWPOLYLINE
  5
1B8
330
1F
100
AcDbEntity
  8
0
  6
Continuous
 62
     8
370
    25
100
AcDbPolyline
 90
        7
 70
   128
 43
0.0
 10
90.438144537
 20
249.4369887276
 10
89.8416393549
 20
249.8135341981
 10
89.1558804082
 20
250.038763077
 10
88.3889075936
 20
250.1100347617
 10
87.549712966
 20
250.0265136569
 10
86.6481353152
 20
249.7891789711
 10
85.7480287595
 20
249.4258831397
  0
LWPOLYLINE
  5
1B9
330
1F
100
AcDbEntity
  8
0
  6
Continuous
 62
     8
370
    25
100
AcDbPolyline
 90
       11
 70
   128
 43
0.0
 10
72.5794197354
 20
228.3375192687
 10
72.5796369142
 20
228.3164628988
 10
72.6484859056
 20
227.2828057873
 10
72.8296551367
 20
226.3619842747
 10
73.121020564
 20
225.5647941515
 10
73.5191661941
 20
224.900581743
 10
74.0194241337
 20
224.3771343324
 10
74.6159293158
 20
224.000588862
 10
75.3016882625
 20
223.775359983
 10
76.0686610771
 20
223.7040882983
 10
76.6041418972
 20
223.7404939258
  0
ARC
  5
1BA
330
1F
100
AcDbEntity
  8
0
  6
Continuous
 62
     8
370
    25
100
AcDbCircle
 10
87.9715737406
 20
246.6208807182
 30
0.0
 40
3.743585956596458
100
AcDbArc
 50
15.2609174406
 51
48.785552388
  0
LWPOLYLINE
  5
1BB
330
1F
100
AcDbEntity
  8
0
  6
Continuous
 62
     8
370
    25
100
AcDbPolyline
 90
       26
 70
   128
 43
0.0
 10
90.7663663267
 20
249.5271730391
 10
91.2749618986
 20
248.995001505
 10
91.6797432893
 20
248.3197188896
 10
91.975964807
 20
247.5092422644
 10
92.1601535253
 20
246.5730737267
 10
92.2301499999
 20
245.5221889966
 10
92.185133586
 20
244.3689087367
 10
92.0256320601
 20
243.1267541037
 10
91.7535154316
 20
241.810288225
 10
91.3719740192
 20
240.4349454592
 10
90.8854810472
 20
239.0168504429
 10
90.2997402007
 20
237.5726290435
 10
89.6216187558
 20
236.1192134364
 10
88.8590670664
 20
234.6736435908
 10
88.0210253537
 20
233.2528674915
 10
87.1173188906
 20
231.8735424391
 10
86.1585428092
 20
230.5518397588
 10
85.1559378824
 20
229.3032552061
 10
84.1212587363
 20
228.1424272932
 10
83.0666360377
 20
227.0829656661
 10
82.0044342737
 20
226.1372915437
 10
80.9471067888
 20
225.3164920903
 10
79.9070497809
 20
224.6301904293
 10
78.8964569675
 20
224.0864328199
 10
77.9271766255
 20
223.6915943231
 10
77.838142324
 20
223.6621688178
  0
LWPOLYLINE
  5
1BC
330
1F
100
AcDbEntity
  8
0
  6
Continuous
 62
     8
370
    25
100
AcDbPolyline
 90
       21
 70
   128
 43
0.0
 10
123.5387524189
 20
195.473437746
 10
124.4494474554
 20
195.8482543964
 10
125.4600402687
 20
196.3920120058
 10
126.5000972766
 20
197.0783136669
 10
127.5574247616
 20
197.8991131202
 10
128.6196265256
 20
198.8447872426
 10
129.6742492241
 20
199.9042488697
 10
130.7089283702
 20
201.0650767826
 10
131.711533297
 20
202.3136613354
 10
132.6703093784
 20
203.6353640157
 10
133.5740158415
 20
205.014689068
 10
134.4120575542
 20
206.4354651674
 10
135.1746092437
 20
207.8810350129
 10
135.8527306886
 20
209.33445062
 10
136.438471535
 20
210.7786720194
 10
136.924964507
 20
212.1967670357
 10
137.3065059194
 20
213.5721098015
 10
137.5786225479
 20
214.8885756803
 10
137.7381240738
 20
216.1307303133
 10
137.7831404877
 20
217.2840105731
 10
137.7134006968
 20
218.332886666
  0
ARC
  5
1BD
330
1F
100
AcDbEntity
  8
0
  6
Continuous
 62
     8
370
    25
100
AcDbCircle
 10
107.3687767986
 20
194.0715552673
 30
0.0
 40
8.592474218344707
100
AcDbArc
 50
96.0730505006
 51
180.1540683696
  0
ENDSEC
  0
SECTION
  2
OBJECTS
  0
DICTIONARY
  5
C
330
0
100
AcDbDictionary
281
     1
  3
ACAD_GROUP
350
D
  3
ACAD_LAYOUT
350
1A
  3
ACAD_MLINESTYLE
350
17
  3
ACAD_PLOTSETTINGS
350
19
  3
ACAD_PLOTSTYLENAME
350
E
  3
ACAD_SCALELIST
350
47
  3
DWGPROPS
350
1BE
  0
DICTIONARY
  5
D
102
{ACAD_REACTORS
330
C
102
}
330
C
100
AcDbDictionary
281
     1
  0
DICTIONARY
  5
1A
102
{ACAD_REACTORS
330
C
102
}
330
C
100
AcDbDictionary
281
     1
  3
Layout1
350
1E
  3
Layout2
350
26
  3
Model
350
22
  0
DICTIONARY
  5
17
102
{ACAD_REACTORS
330
C
102
}
330
C
100
AcDbDictionary
281
     1
  3
Standard
350
18
  0
DICTIONARY
  5
19
102
{ACAD_REACTORS
330
C
102
}
330
C
100
AcDbDictionary
281
     1
  0
ACDBDICTIONARYWDFLT
  5
E
102
{ACAD_REACTORS
330
C
102
}
330
C
100
AcDbDictionary
281
     1
  3
Normal
350
F
100
AcDbDictionaryWithDefault
340
F
  0
DICTIONARY
  5
47
102
{ACAD_REACTORS
330
C
102
}
330
C
100
AcDbDictionary
281
     1
  3
A0
350
48
  3
A1
350
49
  3
A2
350
4A
  3
A3
350
4B
  3
A4
350
4C
  3
A5
350
4D
  3
A6
350
4E
  3
A7
350
4F
  3
A8
350
50
  3
A9
350
51
  3
B0
350
52
  3
B1
350
53
  3
B2
350
54
  3
B3
350
55
  3
B4
350
56
  3
B5
350
57
  3
B6
350
58
  3
B7
350
59
  3
B8
350
5A
  3
B9
350
5B
  3
C0
350
5C
  3
C1
350
5D
  3
C2
350
5E
  3
C3
350
5F
  3
C4
350
60
  3
C5
350
61
  3
C6
350
62
  3
C7
350
63
  3
C8
350
64
  3
C9
350
65
  3
D0
350
66
  3
D1
350
67
  3
D2
350
68
  0
XRECORD
  5
1BE
102
{ACAD_REACTORS
330
C
102
}
330
C
100
AcDbXrecord
280
     1
  1
DWGPROPS COOKIE
  2

  3

  4

  6

  7

  8
9128
  9

300
=
301
=
302
=
303
=
304
=
305
=
306
=
307
=
308
=
309
=
 40
0.0
 41
2460018.226394479
 42
2460018.226394803
  1

 90
        0
  0
LAYOUT
  5
1E
102
{ACAD_REACTORS
330
1A
102
}
330
1A
100
AcDbPlotSettings
  1

  2
none_device
  4

  6

 40
0.0
 41
0.0
 42
0.0
 43
0.0
 44
0.0
 45
0.0
 46
0.0
 47
0.0
 48
0.0
 49
0.0
140
0.0
141
0.0
142
1.0
143
1.0
 70
   688
 72
     1
 73
     0
 74
     5
  7

 75
    16
147
1.0
148
0.0
149
0.0
100
AcDbLayout
  1
Layout1
 70
     1
 71
     1
 10
0.0
 20
0.0
 11
420.0
 21
297.0
 12
0.0
 22
0.0
 32
0.0
 14
1.0000000000E+20
 24
1.0000000000E+20
 34
1.0000000000E+20
 15
-1.0000000000E+20
 25
-1.0000000000E+20
 35
-1.0000000000E+20
146
0.0
 13
0.0
 23
0.0
 33
0.0
 16
1.0
 26
0.0
 36
0.0
 17
0.0
 27
1.0
 37
0.0
 76
     0
330
1B
  0
LAYOUT
  5
26
102
{ACAD_REACTORS
330
1A
102
}
330
1A
100
AcDbPlotSettings
  1

  2
none_device
  4

  6

 40
0.0
 41
0.0
 42
0.0
 43
0.0
 44
0.0
 45
0.0
 46
0.0
 47
0.0
 48
0.0
 49
0.0
140
0.0
141
0.0
142
1.0
143
1.0
 70
   688
 72
     1
 73
     0
 74
     5
  7

 75
    16
147
1.0
148
0.0
149
0.0
100
AcDbLayout
  1
Layout2
 70
     1
 71
     2
 10
0.0
 20
0.0
 11
0.0
 21
0.0
 12
0.0
 22
0.0
 32
0.0
 14
0.0
 24
0.0
 34
0.0
 15
0.0
 25
0.0
 35
0.0
146
0.0
 13
0.0
 23
0.0
 33
0.0
 16
1.0
 26
0.0
 36
0.0
 17
0.0
 27
1.0
 37
0.0
 76
     0
330
23
  0
LAYOUT
  5
22
102
{ACAD_REACTORS
330
1A
102
}
330
1A
100
AcDbPlotSettings
  1

  2
none_device
  4
Letter_(8.50_x_11.00_Inches)
  6

 40
6.35
 41
6.35
 42
6.35000508
 43
6.35000508
 44
215.9
 45
279.4
 46
0.0
 47
0.0
 48
0.0
 49
0.0
140
0.0
141
0.0
142
1.0
143
1.0
 70
  1712
 72
     1
 73
     0
 74
     0
  7

 75
     0
147
1.0
148
0.0
149
0.0
100
AcDbLayout
  1
Model
 70
     1
 71
     0
 10
0.0
 20
0.0
 11
210.0
 21
297.0
 12
0.0
 22
0.0
 32
0.0
 14
0.0
 24
0.0
 34
0.0
 15
210.0
 25
297.0
 35
0.0
146
0.0
 13
0.0
 23
0.0
 33
0.0
 16
1.0
 26
0.0
 36
0.0
 17
0.0
 27
1.0
 37
0.0
 76
     0
330
1F
331
29
  0
MLINESTYLE
  5
18
102
{ACAD_REACTORS
330
17
102
}
330
17
100
AcDbMlineStyle
  2
Standard
 70
     0
  3

 62
   256
 51
90.0
 52
90.0
 71
     2
 49
0.5
 62
   256
  6
BYLAYER
 49
-0.5
 62
   256
  6
BYLAYER
  0
ACDBPLACEHOLDER
  5
F
102
{ACAD_REACTORS
330
E
102
}
330
E
  0
SCALE
  5
48
102
{ACAD_REACTORS
330
47
102
}
330
47
100
AcDbScale
 70
     0
300
1:1
140
1.0
141
1.0
290
     1
  0
SCALE
  5
49
102
{ACAD_REACTORS
330
47
102
}
330
47
100
AcDbScale
 70
     0
300
1:2
140
1.0
141
2.0
290
     0
  0
SCALE
  5
4A
102
{ACAD_REACTORS
330
47
102
}
330
47
100
AcDbScale
 70
     0
300
1:4
140
1.0
141
4.0
290
     0
  0
SCALE
  5
4B
102
{ACAD_REACTORS
330
47
102
}
330
47
100
AcDbScale
 70
     0
300
1:5
140
1.0
141
5.0
290
     0
  0
SCALE
  5
4C
102
{ACAD_REACTORS
330
47
102
}
330
47
100
AcDbScale
 70
     0
300
1:8
140
1.0
141
8.0
290
     0
  0
SCALE
  5
4D
102
{ACAD_REACTORS
330
47
102
}
330
47
100
AcDbScale
 70
     0
300
1:10
140
1.0
141
10.0
290
     0
  0
SCALE
  5
4E
102
{ACAD_REACTORS
330
47
102
}
330
47
100
AcDbScale
 70
     0
300
1:16
140
1.0
141
16.0
290
     0
  0
SCALE
  5
4F
102
{ACAD_REACTORS
330
47
102
}
330
47
100
AcDbScale
 70
     0
300
1:20
140
1.0
141
20.0
290
     0
  0
SCALE
  5
50
102
{ACAD_REACTORS
330
47
102
}
330
47
100
AcDbScale
 70
     0
300
1:30
140
1.0
141
30.0
290
     0
  0
SCALE
  5
51
102
{ACAD_REACTORS
330
47
102
}
330
47
100
AcDbScale
 70
     0
300
1:40
140
1.0
141
40.0
290
     0
  0
SCALE
  5
52
102
{ACAD_REACTORS
330
47
102
}
330
47
100
AcDbScale
 70
     0
300
1:50
140
1.0
141
50.0
290
     0
  0
SCALE
  5
53
102
{ACAD_REACTORS
330
47
102
}
330
47
100
AcDbScale
 70
     0
300
1:100
140
1.0
141
100.0
290
     0
  0
SCALE
  5
54
102
{ACAD_REACTORS
330
47
102
}
330
47
100
AcDbScale
 70
     0
300
2:1
140
2.0
141
1.0
290
     0
  0
SCALE
  5
55
102
{ACAD_REACTORS
330
47
102
}
330
47
100
AcDbScale
 70
     0
300
4:1
140
4.0
141
1.0
290
     0
  0
SCALE
  5
56
102
{ACAD_REACTORS
330
47
102
}
330
47
100
AcDbScale
 70
     0
300
8:1
140
8.0
141
1.0
290
     0
  0
SCALE
  5
57
102
{ACAD_REACTORS
330
47
102
}
330
47
100
AcDbScale
 70
     0
300
10:1
140
10.0
141
1.0
290
     0
  0
SCALE
  5
58
102
{ACAD_REACTORS
330
47
102
}
330
47
100
AcDbScale
 70
     0
300
100:1
140
100.0
141
1.0
290
     0
  0
SCALE
  5
59
102
{ACAD_REACTORS
330
47
102
}
330
47
100
AcDbScale
 70
     0
300
1/128" = 1'-0"
140
0.0078125
141
12.0
290
     0
  0
SCALE
  5
5A
102
{ACAD_REACTORS
330
47
102
}
330
47
100
AcDbScale
 70
     0
300
1/64" = 1'-0"
140
0.015625
141
12.0
290
     0
  0
SCALE
  5
5B
102
{ACAD_REACTORS
330
47
102
}
330
47
100
AcDbScale
 70
     0
300
1/32" = 1'-0"
140
0.03125
141
12.0
290
     0
  0
SCALE
  5
5C
102
{ACAD_REACTORS
330
47
102
}
330
47
100
AcDbScale
 70
     0
300
1/16" = 1'-0"
140
0.0625
141
12.0
290
     0
  0
SCALE
  5
5D
102
{ACAD_REACTORS
330
47
102
}
330
47
100
AcDbScale
 70
     0
300
3/32" = 1'-0"
140
0.09375
141
12.0
290
     0
  0
SCALE
  5
5E
102
{ACAD_REACTORS
330
47
102
}
330
47
100
AcDbScale
 70
     0
300
1/8" = 1'-0"
140
0.125
141
12.0
290
     0
  0
SCALE
  5
5F
102
{ACAD_REACTORS
330
47
102
}
330
47
100
AcDbScale
 70
     0
300
3/16" = 1'-0"
140
0.1875
141
12.0
290
     0
  0
SCALE
  5
60
102
{ACAD_REACTORS
330
47
102
}
330
47
100
AcDbScale
 70
     0
300
1/4" = 1'-0"
140
0.25
141
12.0
290
     0
  0
SCALE
  5
61
102
{ACAD_REACTORS
330
47
102
}
330
47
100
AcDbScale
 70
     0
300
3/8" = 1'-0"
140
0.375
141
12.0
290
     0
  0
SCALE
  5
62
102
{ACAD_REACTORS
330
47
102
}
330
47
100
AcDbScale
 70
     0
300
1/2" = 1'-0"
140
0.5
141
12.0
290
     0
  0
SCALE
  5
63
102
{ACAD_REACTORS
330
47
102
}
330
47
100
AcDbScale
 70
     0
300
3/4" = 1'-0"
140
0.75
141
12.0
290
     0
  0
SCALE
  5
64
102
{ACAD_REACTORS
330
47
102
}
330
47
100
AcDbScale
 70
     0
300
1" = 1'-0"
140
1.0
141
12.0
290
     0
  0
SCALE
  5
65
102
{ACAD_REACTORS
330
47
102
}
330
47
100
AcDbScale
 70
     0
300
1-1/2" = 1'-0"
140
1.5
141
12.0
290
     0
  0
SCALE
  5
66
102
{ACAD_REACTORS
330
47
102
}
330
47
100
AcDbScale
 70
     0
300
3" = 1'-0"
140
3.0
141
12.0
290
     0
  0
SCALE
  5
67
102
{ACAD_REACTORS
330
47
102
}
330
47
100
AcDbScale
 70
     0
300
6" = 1'-0"
140
6.0
141
12.0
290
     0
  0
SCALE
  5
68
102
{ACAD_REACTORS
330
47
102
}
330
47
100
AcDbScale
 70
     0
300
1'-0" = 1'-0"
140
12.0
141
12.0
290
     0
  0
ENDSEC
  0
EOF
