  0
SECTION
  2
HEADER
  9
$ACADVER
  1
AC1015
  9
$ACADMAINTVER
 70
     6
  9
$DWGCODEPAGE
  3
DOS932
  9
$INSBASE
 10
0.0
 20
0.0
 30
0.0
  9
$EXTMIN
 10
0.0
 20
0.0
 30
0.0
  9
$EXTMAX
 10
1050.0
 20
1485.0
 30
0.0
  9
$LIMMIN
 10
0.0
 20
0.0
  9
$LIMMAX
 10
1050.0
 20
1485.0
  9
$ORTHOMODE
 70
     0
  9
$REGENMODE
 70
     1
  9
$FILLMODE
 70
     1
  9
$QTEXTMODE
 70
     0
  9
$MIRRTEXT
 70
     1
  9
$LTSCALE
 40
5.0
  9
$ATTMODE
 70
     1
  9
$TEXTSIZE
 40
17.5
  9
$TRACEWID
 40
1.0
  9
$TEXTSTYLE
  7
STANDARD
  9
$CLAYER
  8
0
  9
$CELTYPE
  6
ByLayer
  9
$CECOLOR
 62
   256
  9
$CELTSCALE
 40
1.0
  9
$DISPSILH
 70
     0
  9
$DIMSCALE
 40
1.0
  9
$DIMASZ
 40
16.51
  9
$DIMEXO
 40
5.0
  9
$DIMDLI
 40
3.75
  9
$DIMRND
 40
0.0
  9
$DIMDLE
 40
0.0
  9
$DIMEXE
 40
5.0
  9
$DIMTP
 40
0.0
  9
$DIMTM
 40
0.0
  9
$DIMTXT
 40
17.5
  9
$DIMCEN
 40
2.5
  9
$DIMTSZ
 40
0.0
  9
$DIMTOL
 70
     0
  9
$DIMLIM
 70
     0
  9
$DIMTIH
 70
     1
  9
$DIMTOH
 70
     1
  9
$DIMSE1
 70
     0
  9
$DIMSE2
 70
     0
  9
$DIMTAD
 70
     1
  9
$DIMZIN
 70
     1
  9
$DIMBLK
  1

  9
$DIMASO
 70
     1
  9
$DIMSHO
 70
     1
  9
$DIMPOST
  1

  9
$DIMAPOST
  1

  9
$DIMALT
 70
     0
  9
$DIMALTD
 70
     3
  9
$DIMALTF
 40
0.0393700787
  9
$DIMLFAC
 40
1.0
  9
$DIMTOFL
 70
     1
  9
$DIMTVP
 40
0.0
  9
$DIMTIX
 70
     0
  9
$DIMSOXD
 70
     0
  9
$DIMSAH
 70
     0
  9
$DIMBLK1
  1

  9
$DIMBLK2
  1

  9
$DIMSTYLE
  2
ISO-25
  9
$DIMCLRD
 70
     0
  9
$DIMCLRE
 70
     0
  9
$DIMCLRT
 70
     0
  9
$DIMTFAC
 40
1.0
  9
$DIMGAP
 40
7.62
  9
$DIMJUST
 70
     0
  9
$DIMSD1
 70
     0
  9
$DIMSD2
 70
     0
  9
$DIMTOLJ
 70
     0
  9
$DIMTZIN
 70
     1
  9
$DIMALTZ
 70
     0
  9
$DIMALTTZ
 70
     0
  9
$DIMUPT
 70
     0
  9
$DIMDEC
 70
     2
  9
$DIMTDEC
 70
     2
  9
$DIMALTU
 70
     2
  9
$DIMALTTD
 70
     3
  9
$DIMTXSTY
  7
STANDARD
  9
$DIMAUNIT
 70
     0
  9
$DIMADEC
 70
     2
  9
$DIMALTRND
 40
0.0
  9
$DIMAZIN
 70
     0
  9
$DIMDSEP
 70
    44
  9
$DIMATFIT
 70
     3
  9
$DIMFRAC
 70
     0
  9
$DIMLDRBLK
  1

  9
$DIMLUNIT
 70
     2
  9
$DIMLWD
 70
    -2
  9
$DIMLWE
 70
    -2
  9
$DIMTMOVE
 70
     0
  9
$LUNITS
 70
     2
  9
$LUPREC
 70
     2
  9
$SKETCHINC
 40
1.0
  9
$FILLETRAD
 40
10.0
  9
$AUNITS
 70
     0
  9
$AUPREC
 70
     2
  9
$MENU
  1
.
  9
$ELEVATION
 40
0.0
  9
$PELEVATION
 40
0.0
  9
$THICKNESS
 40
0.0
  9
$LIMCHECK
 70
     0
  9
$CHAMFERA
 40
0.0
  9
$CHAMFERB
 40
0.0
  9
$CHAMFERC
 40
0.0
  9
$CHAMFERD
 40
0.0
  9
$SKPOLY
 70
     0
  9
$TDCREATE
 40
2458876.395221771
  9
$TDUCREATE
 40
2458876.020221771
  9
$TDUPDATE
 40
2458876.3952225
  9
$TDUUPDATE
 40
2458876.0202225
  9
$TDINDWG
 40
0.0000000116
  9
$TDUSRTIMER
 40
0.0000000116
  9
$USRTIMER
 70
     1
  9
$ANGBASE
 50
0.0
  9
$ANGDIR
 70
     0
  9
$PDMODE
 70
     0
  9
$PDSIZE
 40
-1.0
  9
$PLINEWID
 40
0.0
  9
$SPLFRAME
 70
     0
  9
$SPLINETYPE
 70
     6
  9
$SPLINESEGS
 70
     8
  9
$HANDSEED
  5
273
  9
$SURFTAB1
 70
     6
  9
$SURFTAB2
 70
     6
  9
$SURFTYPE
 70
     6
  9
$SURFU
 70
     6
  9
$SURFV
 70
     6
  9
$UCSBASE
  2

  9
$UCSNAME
  2

  9
$UCSORG
 10
0.0
 20
0.0
 30
0.0
  9
$UCSXDIR
 10
1.0
 20
0.0
 30
0.0
  9
$UCSYDIR
 10
0.0
 20
1.0
 30
0.0
  9
$UCSORTHOREF
  2

  9
$UCSORTHOVIEW
 70
     0
  9
$UCSORGTOP
 10
0.0
 20
0.0
 30
0.0
  9
$UCSORGBOTTOM
 10
0.0
 20
0.0
 30
0.0
  9
$UCSORGLEFT
 10
0.0
 20
0.0
 30
0.0
  9
$UCSORGRIGHT
 10
0.0
 20
0.0
 30
0.0
  9
$UCSORGFRONT
 10
0.0
 20
0.0
 30
0.0
  9
$UCSORGBACK
 10
0.0
 20
0.0
 30
0.0
  9
$PUCSBASE
  2

  9
$PUCSNAME
  2

  9
$PUCSORG
 10
0.0
 20
0.0
 30
0.0
  9
$PUCSXDIR
 10
1.0
 20
0.0
 30
0.0
  9
$PUCSYDIR
 10
0.0
 20
1.0
 30
0.0
  9
$PUCSORTHOREF
  2

  9
$PUCSORTHOVIEW
 70
     0
  9
$PUCSORGTOP
 10
0.0
 20
0.0
 30
0.0
  9
$PUCSORGBOTTOM
 10
0.0
 20
0.0
 30
0.0
  9
$PUCSORGLEFT
 10
0.0
 20
0.0
 30
0.0
  9
$PUCSORGRIGHT
 10
0.0
 20
0.0
 30
0.0
  9
$PUCSORGFRONT
 10
0.0
 20
0.0
 30
0.0
  9
$PUCSORGBACK
 10
0.0
 20
0.0
 30
0.0
  9
$USERI1
 70
     0
  9
$USERI2
 70
     0
  9
$USERI3
 70
     0
  9
$USERI4
 70
     0
  9
$USERI5
 70
     0
  9
$USERR1
 40
0.0
  9
$USERR2
 40
0.0
  9
$USERR3
 40
0.0
  9
$USERR4
 40
0.0
  9
$USERR5
 40
0.0
  9
$WORLDVIEW
 70
     1
  9
$SHADEDGE
 70
     3
  9
$SHADEDIF
 70
    70
  9
$TILEMODE
 70
     1
  9
$MAXACTVP
 70
    64
  9
$PINSBASE
 10
0.0
 20
0.0
 30
0.0
  9
$PLIMCHECK
 70
     0
  9
$PEXTMIN
 10
1.0000000000E+20
 20
1.0000000000E+20
 30
1.0000000000E+20
  9
$PEXTMAX
 10
-1.0000000000E+20
 20
-1.0000000000E+20
 30
-1.0000000000E+20
  9
$PLIMMIN
 10
0.0
 20
0.0
  9
$PLIMMAX
 10
420.0
 20
297.0
  9
$UNITMODE
 70
     0
  9
$VISRETAIN
 70
     1
  9
$PLINEGEN
 70
     0
  9
$PSLTSCALE
 70
     1
  9
$TREEDEPTH
 70
  3020
  9
$CMLSTYLE
  2
Standard
  9
$CMLJUST
 70
     0
  9
$CMLSCALE
 40
20.0
  9
$PROXYGRAPHICS
 70
     1
  9
$MEASUREMENT
 70
     1
  9
$CELWEIGHT
370
    -1
  9
$ENDCAPS
280
     0
  9
$JOINSTYLE
280
     0
  9
$LWDISPLAY
290
     1
  9
$INSUNITS
 70
     4
  9
$HYPERLINKBASE
  1

  9
$STYLESHEET
  1

  9
$XEDIT
290
     1
  9
$CEPSNTYPE
380
     0
  9
$PSTYLEMODE
290
     1
  9
$FINGERPRINTGUID
  2
{37DE1911-2BCC-4FA0-B8E7-CED4340375A3}
  9
$VERSIONGUID
  2
{FAEB1C32-E019-11D5-929B-00C0DF256EC4}
  9
$EXTNAMES
290
     1
  9
$PSVPSCALE
 40
0.0
  9
$OLESTARTUP
290
     0
  0
ENDSEC
  0
SECTION
  2
CLASSES
  0
CLASS
  1
ACDBDICTIONARYWDFLT
  2
AcDbDictionaryWithDefault
  3
ObjectDBX Classes
 90
        0
280
     0
281
     0
  0
CLASS
  1
VISUALSTYLE
  2
AcDbVisualStyle
  3
ObjectDBX Classes
 90
     4095
280
     0
281
     0
  0
CLASS
  1
MATERIAL
  2
AcDbMaterial
  3
ObjectDBX Classes
 90
     1153
280
     0
281
     0
  0
CLASS
  1
SCALE
  2
AcDbScale
  3
ObjectDBX Classes
 90
     1153
280
     0
281
     0
  0
CLASS
  1
TABLESTYLE
  2
AcDbTableStyle
  3
ObjectDBX Classes
 90
     4095
280
     0
281
     0
  0
CLASS
  1
MLEADERSTYLE
  2
AcDbMLeaderStyle
  3
ACDB_MLEADERSTYLE_CLASS
 90
     4095
280
     0
281
     0
  0
CLASS
  1
SUN
  2
AcDbSun
  3
SCENEOE
 90
     1153
280
     0
281
     0
  0
CLASS
  1
ACDBPLACEHOLDER
  2
AcDbPlaceHolder
  3
ObjectDBX Classes
 90
        0
280
     0
281
     0
  0
CLASS
  1
LAYOUT
  2
AcDbLayout
  3
ObjectDBX Classes
 90
        0
280
     0
281
     0
  0
ENDSEC
  0
SECTION
  2
TABLES
  0
TABLE
  2
VPORT
  5
8
330
0
100
AcDbSymbolTable
 70
     1
  0
VPORT
  5
29
330
8
100
AcDbSymbolTableRecord
100
AcDbViewportTableRecord
  2
*Active
 70
     0
 10
0.0
 20
0.0
 11
1.0
 21
1.0
 12
525.0
 22
742.5
 13
0.0
 23
0.0
 14
10.0
 24
10.0
 15
10.0
 25
10.0
 16
0.0
 26
0.0
 36
1.0
 17
0.0
 27
0.0
 37
0.0
 40
1485.0
 41
0.7070707071
 42
50.0
 43
0.0
 44
0.0
 50
0.0
 51
0.0
 71
     0
 72
  2000
 73
     1
 74
     3
 75
     0
 76
     0
 77
     0
 78
     0
281
     0
 65
     1
110
0.0
120
0.0
130
0.0
111
1.0
121
0.0
131
0.0
112
0.0
122
1.0
132
0.0
 79
     0
146
0.0
  0
ENDTAB
  0
TABLE
  2
LTYPE
  5
5
330
0
100
AcDbSymbolTable
 70
     8
  0
LTYPE
  5
14
330
5
100
AcDbSymbolTableRecord
100
AcDbLinetypeTableRecord
  2
ByBlock
 70
     0
  3

 72
    65
 73
     0
 40
0.0
  0
LTYPE
  5
15
330
5
100
AcDbSymbolTableRecord
100
AcDbLinetypeTableRecord
  2
ByLayer
 70
     0
  3

 72
    65
 73
     0
 40
0.0
  0
LTYPE
  5
16
330
5
100
AcDbSymbolTableRecord
100
AcDbLinetypeTableRecord
  2
Continuous
 70
     0
  3
Solid line
 72
    65
 73
     0
 40
0.0
  0
LTYPE
  5
6E
330
5
100
AcDbSymbolTableRecord
100
AcDbLinetypeTableRecord
  2
SLD-実線
 70
     0
  3
SolidWorks Line Style
 72
    65
 73
     0
 40
0.0
  0
LTYPE
  5
6F
330
5
100
AcDbSymbolTableRecord
100
AcDbLinetypeTableRecord
  2
SLD-破線
 70
     0
  3
SolidWorks Line Style
 72
    65
 73
     2
 40
1.905
 49
1.27
 74
     0
 49
-0.635
 74
     0
  0
LTYPE
  5
70
330
5
100
AcDbSymbolTableRecord
100
AcDbLinetypeTableRecord
  2
SLD-2点鎖線
 70
     0
  3
SolidWorks Line Style
 72
    65
 73
     6
 40
12.7
 49
6.35
 74
     0
 49
-1.27
 74
     0
 49
1.27
 74
     0
 49
-1.27
 74
     0
 49
1.27
 74
     0
 49
-1.27
 74
     0
  0
LTYPE
  5
71
330
5
100
AcDbSymbolTableRecord
100
AcDbLinetypeTableRecord
  2
SLD-鎖線
 70
     0
  3
SolidWorks Line Style
 72
    65
 73
     4
 40
10.16
 49
6.35
 74
     0
 49
-1.27
 74
     0
 49
1.27
 74
     0
 49
-1.27
 74
     0
  0
LTYPE
  5
72
330
5
100
AcDbSymbolTableRecord
100
AcDbLinetypeTableRecord
  2
SLD-1点鎖線(中心線)
 70
     0
  3
SolidWorks Line Style
 72
    65
 73
     4
 40
34.29
 49
30.48
 74
     0
 49
-1.27
 74
     0
 49
1.27
 74
     0
 49
-1.27
 74
     0
  0
LTYPE
  5
73
330
5
100
AcDbSymbolTableRecord
100
AcDbLinetypeTableRecord
  2
SLD-点線
 70
     0
  3
SolidWorks Line Style
 72
    65
 73
     2
 40
0.635
 49
0.0
 74
     0
 49
-0.635
 74
     0
  0
LTYPE
  5
74
330
5
100
AcDbSymbolTableRecord
100
AcDbLinetypeTableRecord
  2
SLD-細-太鎖線(切断面)
 70
     0
  3
SolidWorks Line Style
 72
    65
 73
     4
 40
10.16
 49
6.35
 74
     0
 49
-1.27
 74
     0
 49
1.27
 74
     0
 49
-1.27
 74
     0
  0
ENDTAB
  0
TABLE
  2
LAYER
  5
2
330
0
100
AcDbSymbolTable
 70
     1
  0
LAYER
  5
10
330
2
100
AcDbSymbolTableRecord
100
AcDbLayerTableRecord
  2
0
 70
     0
 62
     7
  6
Continuous
370
    -3
390
F
  0
ENDTAB
  0
TABLE
  2
STYLE
  5
3
330
0
100
AcDbSymbolTable
 70
     2
  0
STYLE
  5
11
330
3
100
AcDbSymbolTableRecord
100
AcDbTextStyleTableRecord
  2
STANDARD
 70
     0
 40
0.0
 41
1.0
 50
0.0
 71
     0
 42
17.5
  3
MSGOTHIC.TTC
  4

1001
ACAD
1000
ＭＳ Ｐゴシック
1071
    32818
  0
STYLE
  5
78
330
3
100
AcDbSymbolTableRecord
100
AcDbTextStyleTableRecord
  2
SLDTEXTSTYLE0
 70
     0
 40
0.0
 41
1.0
 50
0.0
 71
     0
 42
17.5
  3
MSGOTHIC.TTC
  4

1001
ACAD
1000
ＭＳ Ｐゴシック
1071
      306
  0
ENDTAB
  0
TABLE
  2
VIEW
  5
6
330
0
100
AcDbSymbolTable
 70
     0
  0
ENDTAB
  0
TABLE
  2
UCS
  5
7
330
0
100
AcDbSymbolTable
 70
     0
  0
ENDTAB
  0
TABLE
  2
APPID
  5
9
330
0
100
AcDbSymbolTable
 70
     1
  0
APPID
  5
12
330
9
100
AcDbSymbolTableRecord
100
AcDbRegAppTableRecord
  2
ACAD
 70
     0
  0
ENDTAB
  0
TABLE
  2
DIMSTYLE
  5
A
330
0
100
AcDbSymbolTable
 70
     1
100
AcDbDimStyleTable
  0
DIMSTYLE
105
27
330
A
100
AcDbSymbolTableRecord
100
AcDbDimStyleTableRecord
  2
ISO-25
 70
     0
 41
2.5
 42
0.625
 43
3.75
 44
1.25
 73
     0
 74
     0
 77
     1
 78
     8
140
2.5
141
2.5
143
0.0393700787
147
0.625
171
     3
172
     1
178
     0
271
     2
272
     2
274
     3
278
    44
283
     0
284
     8
340
11
  0
ENDTAB
  0
TABLE
  2
BLOCK_RECORD
  5
1
330
0
100
AcDbSymbolTable
 70
     2
  0
BLOCK_RECORD
  5
1F
330
1
100
AcDbSymbolTableRecord
100
AcDbBlockTableRecord
  2
*Model_Space
340
22
  0
BLOCK_RECORD
  5
1B
330
1
100
AcDbSymbolTableRecord
100
AcDbBlockTableRecord
  2
*Paper_Space
340
1E
  0
BLOCK_RECORD
  5
23
330
1
100
AcDbSymbolTableRecord
100
AcDbBlockTableRecord
  2
*Paper_Space0
340
26
  0
BLOCK_RECORD
  5
75
330
1
100
AcDbSymbolTableRecord
100
AcDbBlockTableRecord
  2
SW_NOTE_0
340
0
102
{BLKREFS
331
7B
102
}
  0
ENDTAB
  0
ENDSEC
  0
SECTION
  2
BLOCKS
  0
BLOCK
  5
20
330
1F
100
AcDbEntity
  8
0
100
AcDbBlockBegin
  2
*Model_Space
 70
     0
 10
0.0
 20
0.0
 30
0.0
  3
*Model_Space
  1

  0
ENDBLK
  5
21
330
1F
100
AcDbEntity
  8
0
100
AcDbBlockEnd
  0
BLOCK
  5
1C
330
1B
100
AcDbEntity
 67
     1
  8
0
100
AcDbBlockBegin
  2
*Paper_Space
 70
     0
 10
0.0
 20
0.0
 30
0.0
  3
*Paper_Space
  1

  0
ENDBLK
  5
1D
330
1B
100
AcDbEntity
 67
     1
  8
0
100
AcDbBlockEnd
  0
BLOCK
  5
24
330
23
100
AcDbEntity
  8
0
100
AcDbBlockBegin
  2
*Paper_Space0
 70
     0
 10
0.0
 20
0.0
 30
0.0
  3
*Paper_Space0
  1

  0
ENDBLK
  5
25
330
23
100
AcDbEntity
  8
0
100
AcDbBlockEnd
  0
BLOCK
  5
76
330
75
100
AcDbEntity
  8
0
100
AcDbBlockBegin
  2
SW_NOTE_0
 70
     0
 10
0.0
 20
0.0
 30
0.0
  3
SW_NOTE_0
  1

  0
MTEXT
  5
79
330
75
100
AcDbEntity
  8
0
  6
Continuous
 62
     0
370
     0
100
AcDbMText
 10
0.0
 20
20.3636363636
 30
0.0
 40
17.5
 41
0.0
 71
     1
 72
     1
  1
HBB-M54C
  7
SLDTEXTSTYLE0
 73
     1
 44
1.0
  0
MTEXT
  5
7A
330
75
100
AcDbEntity
  8
0
  6
Continuous
 62
     0
370
     0
100
AcDbMText
 10
0.0
 20
-2.1363626678
 30
0.0
 40
17.5
 41
0.0
 71
     1
 72
     1
  1
HBB-M54S
  7
SLDTEXTSTYLE0
 73
     1
 44
1.0
  0
ENDBLK
  5
77
330
75
100
AcDbEntity
  8
0
100
AcDbBlockEnd
  0
ENDSEC
  0
SECTION
  2
ENTITIES
  0
INSERT
  5
7B
330
1F
100
AcDbEntity
  8
0
  6
Continuous
 62
     7
370
     0
100
AcDbBlockReference
  2
SW_NOTE_0
 10
796.7732356813
 20
364.7160351144
 30
0.0
  0
LINE
  5
7C
330
1F
100
AcDbEntity
  8
0
  6
SLD-実線
 62
     7
370
    25
100
AcDbLine
 10
624.4892728532
 20
822.9229706012
 30
0.0
 11
624.4892728532
 21
831.0883800585
 31
0.0
  0
LINE
  5
7D
330
1F
100
AcDbEntity
  8
0
  6
SLD-実線
 62
     7
370
    25
100
AcDbLine
 10
524.4892728524
 20
831.0883819593
 30
0.0
 11
524.4892728524
 21
822.9229725021
 31
0.0
  0
LINE
  5
7E
330
1F
100
AcDbEntity
  8
0
  6
SLD-実線
 62
     7
370
    25
100
AcDbLine
 10
604.4892712067
 20
790.2613337226
 30
0.0
 11
604.4892712067
 21
799.8314550232
 31
0.0
  0
LINE
  5
7F
330
1F
100
AcDbEntity
  8
0
  6
SLD-実線
 62
     7
370
    25
100
AcDbLine
 10
414.6776215199
 20
1101.7942153971
 30
0.0
 11
306.3051204279
 21
1039.2321021887
 31
0.0
  0
LINE
  5
80
330
1F
100
AcDbEntity
  8
0
  6
SLD-実線
 62
     7
370
    25
100
AcDbLine
 10
470.9597854515
 20
886.0313282946
 30
0.0
 11
522.1688846931
 21
915.5937120338
 31
0.0
  0
LINE
  5
81
330
1F
100
AcDbEntity
  8
0
  6
SLD-実線
 62
     7
370
    25
100
AcDbLine
 10
424.2181574807
 20
905.6161358678
 30
0.0
 11
425.9856407044
 21
904.5954615729
 31
0.0
  0
LINE
  5
82
330
1F
100
AcDbEntity
  8
0
  6
SLD-実線
 62
     7
370
    25
100
AcDbLine
 10
468.9129435099
 20
905.7780920199
 30
0.0
 11
469.5405891096
 21
906.1404241121
 31
0.0
  0
LINE
  5
83
330
1F
100
AcDbEntity
  8
0
  6
SLD-実線
 62
     7
370
    25
100
AcDbLine
 10
544.3526413308
 20
960.7208488623
 30
0.0
 11
563.2403267297
 21
986.4954448922
 31
0.0
  0
LINE
  5
84
330
1F
100
AcDbEntity
  8
0
  6
SLD-実線
 62
     7
370
    25
100
AcDbLine
 10
496.6160555116
 20
1101.9045712317
 30
0.0
 11
464.850431831
 21
1098.4376349076
 31
0.0
  0
LINE
  5
85
330
1F
100
AcDbEntity
  8
0
  6
SLD-実線
 62
     7
370
    25
100
AcDbLine
 10
564.1494375448
 20
981.6853305515
 30
0.0
 11
576.3877710585
 21
988.7503701054
 31
0.0
  0
LINE
  5
86
330
1F
100
AcDbEntity
  8
0
  6
SLD-実線
 62
     7
370
    25
100
AcDbLine
 10
563.6159045408
 20
1145.9176982801
 30
0.0
 11
492.9052280026
 21
1105.0972936014
 31
0.0
  0
LINE
  5
87
330
1F
100
AcDbEntity
  8
0
  6
SLD-実線
 62
     7
370
    25
100
AcDbLine
 10
649.6193674978
 20
1055.1271758551
 30
0.0
 11
649.6193674978
 21
1059.2092170833
 31
0.0
  0
LINE
  5
88
330
1F
100
AcDbEntity
  8
0
  6
SLD-実線
 62
     7
370
    25
100
AcDbLine
 10
602.7811575614
 20
1140.3441720866
 30
0.0
 11
599.2461976995
 21
1142.3855244781
 31
0.0
  0
LINE
  5
89
330
1F
100
AcDbEntity
  8
0
  6
SLD-実線
 62
     7
370
    25
100
AcDbLine
 10
546.8689378378
 20
964.1546491469
 30
0.0
 11
575.7040997849
 21
947.5084644789
 31
0.0
  0
LINE
  5
8A
330
1F
100
AcDbEntity
  8
0
  6
SLD-実線
 62
     7
370
    25
100
AcDbLine
 10
576.4676607392
 20
973.867142162
 30
0.0
 11
578.2354279819
 21
972.8466318549
 31
0.0
  0
LINE
  5
8B
330
1F
100
AcDbEntity
  8
0
  6
SLD-実線
 62
     7
370
    25
100
AcDbLine
 10
581.21444626
 20
974.6848383796
 30
0.0
 11
579.4466790173
 21
975.7053486867
 31
0.0
  0
LINE
  5
8C
330
1F
100
AcDbEntity
  8
0
  6
SLD-実線
 62
     7
370
    25
100
AcDbLine
 10
583.1203300424
 20
977.7079724517
 30
0.0
 11
584.8880972851
 21
976.6874621447
 31
0.0
  0
LINE
  5
8D
330
1F
100
AcDbEntity
  8
0
  6
SLD-実線
 62
     7
370
    25
100
AcDbLine
 10
576.6490831657
 20
963.7603779705
 30
0.0
 11
578.4168504084
 21
962.7398676635
 31
0.0
  0
LINE
  5
8E
330
1F
100
AcDbEntity
  8
0
  6
SLD-実線
 62
     7
370
    25
100
AcDbLine
 10
589.8464723331
 20
979.8107070518
 30
0.0
 11
588.0787050904
 21
980.8312173588
 31
0.0
  0
LINE
  5
8F
330
1F
100
AcDbEntity
  8
0
  6
SLD-実線
 62
     7
370
    25
100
AcDbLine
 10
588.6036745463
 20
978.414645019
 30
0.0
 11
589.5706681309
 21
977.856411505
 31
0.0
  0
LINE
  5
90
330
1F
100
AcDbEntity
  8
0
  6
SLD-実線
 62
     7
370
    25
100
AcDbLine
 10
583.8562420055
 20
967.7331274345
 30
0.0
 11
582.0884747628
 21
968.7536377416
 31
0.0
  0
LINE
  5
91
330
1F
100
AcDbEntity
  8
0
  6
SLD-実線
 62
     7
370
    25
100
AcDbLine
 10
589.6990398582
 20
981.5057940979
 30
0.0
 11
591.466807101
 21
980.4852837909
 31
0.0
  0
LINE
  5
92
330
1F
100
AcDbEntity
  8
0
  6
SLD-実線
 62
     7
370
    25
100
AcDbLine
 10
589.6562649229
 20
975.3696091386
 30
0.0
 11
587.8884976802
 21
976.3901194456
 31
0.0
  0
LINE
  5
93
330
1F
100
AcDbEntity
  8
0
  6
SLD-実線
 62
     7
370
    25
100
AcDbLine
 10
583.8618281093
 20
967.2778126442
 30
0.0
 11
585.0695888588
 21
966.5805872044
 31
0.0
  0
LINE
  5
94
330
1F
100
AcDbEntity
  8
0
  6
SLD-実線
 62
     7
370
    25
100
AcDbLine
 10
588.4881362051
 20
973.7590798896
 30
0.0
 11
589.3971449458
 21
973.2343203134
 31
0.0
  0
LINE
  5
95
330
1F
100
AcDbEntity
  8
0
  6
SLD-実線
 62
     7
370
    25
100
AcDbLine
 10
590.126152893
 20
971.2974489329
 30
0.0
 11
588.3583856502
 21
972.3179592399
 31
0.0
  0
LINE
  5
96
330
1F
100
AcDbEntity
  8
0
  6
SLD-実線
 62
     7
370
    25
100
AcDbLine
 10
590.1490192046
 20
971.2443307639
 30
0.0
 11
591.6486929782
 21
970.3785875223
 31
0.0
  0
LINE
  5
97
330
1F
100
AcDbEntity
  8
0
  6
SLD-実線
 62
     7
370
    25
100
AcDbLine
 10
599.9719324706
 20
987.4361331996
 30
0.0
 11
601.7396997133
 21
986.4156228926
 31
0.0
  0
LINE
  5
98
330
1F
100
AcDbEntity
  8
0
  6
SLD-実線
 62
     7
370
    25
100
AcDbLine
 10
604.4561213109
 20
988.1019717948
 30
0.0
 11
602.6883540682
 21
989.1224821019
 31
0.0
  0
LINE
  5
99
330
1F
100
AcDbEntity
  8
0
  6
SLD-実線
 62
     7
370
    25
100
AcDbLine
 10
604.0218177934
 20
989.7740822318
 30
0.0
 11
605.7895850361
 21
988.7535719247
 31
0.0
  0
LINE
  5
9A
330
1F
100
AcDbEntity
  8
0
  6
SLD-実線
 62
     7
370
    25
100
AcDbLine
 10
608.6857975161
 20
990.5438159826
 30
0.0
 11
606.9180302734
 21
991.5643262896
 31
0.0
  0
LINE
  5
9B
330
1F
100
AcDbEntity
  8
0
  6
SLD-実線
 62
     7
370
    25
100
AcDbLine
 10
600.0091694582
 20
977.2464604757
 30
0.0
 11
601.776936701
 21
976.2259501686
 31
0.0
  0
LINE
  5
9C
330
1F
100
AcDbEntity
  8
0
  6
SLD-実線
 62
     7
370
    25
100
AcDbLine
 10
610.3220575365
 20
993.4112087897
 30
0.0
 11
612.0898247793
 21
992.3906984827
 31
0.0
  0
LINE
  5
9D
330
1F
100
AcDbEntity
  8
0
  6
SLD-実線
 62
     7
370
    25
100
AcDbLine
 10
604.7579108562
 20
978.0665225
 30
0.0
 11
603.6613980305
 21
978.6995258804
 31
0.0
  0
LINE
  5
9E
330
1F
100
AcDbEntity
  8
0
  6
SLD-実線
 62
     7
370
    25
100
AcDbLine
 10
599.4892720298
 20
831.0883810089
 30
0.0
 11
599.4892720298
 21
951.9689081792
 31
0.0
  0
LINE
  5
9F
330
1F
100
AcDbEntity
  8
0
  6
SLD-実線
 62
     7
370
    25
100
AcDbLine
 10
549.4892732642
 20
962.6419632694
 30
0.0
 11
549.4892732642
 21
831.0883812465
 31
0.0
  0
LINE
  5
A0
330
1F
100
AcDbEntity
  8
0
  6
SLD-実線
 62
     7
370
    25
100
AcDbLine
 10
614.6992086105
 20
994.0153579849
 30
0.0
 11
612.9314413677
 21
995.0358682919
 31
0.0
  0
LINE
  5
A1
330
1F
100
AcDbEntity
  8
0
  6
SLD-実線
 62
     7
370
    25
100
AcDbLine
 10
614.9620468945
 20
991.8252838183
 30
0.0
 11
617.1717567711
 21
990.5496454593
 31
0.0
  0
LINE
  5
A2
330
1F
100
AcDbEntity
  8
0
  6
SLD-実線
 62
     7
370
    25
100
AcDbLine
 10
620.0721859939
 20
997.1177049667
 30
0.0
 11
618.3044187512
 21
998.1382152738
 31
0.0
  0
LINE
  5
A3
330
1F
100
AcDbEntity
  8
0
  6
SLD-実線
 62
     7
370
    25
100
AcDbLine
 10
618.5693199259
 20
995.9681665779
 30
0.0
 11
619.9038241514
 21
995.1977736868
 31
0.0
  0
LINE
  5
A4
330
1F
100
AcDbEntity
  8
0
  6
SLD-実線
 62
     7
370
    25
100
AcDbLine
 10
619.5335377454
 20
991.3056028953
 30
0.0
 11
617.3238278689
 21
992.5812412543
 31
0.0
  0
LINE
  5
A5
330
1F
100
AcDbEntity
  8
0
  6
SLD-実線
 62
     7
370
    25
100
AcDbLine
 10
615.902198205
 20
986.6981184567
 30
0.0
 11
614.1344309622
 21
987.7186287638
 31
0.0
  0
LINE
  5
A6
330
1F
100
AcDbEntity
  8
0
  6
SLD-実線
 62
     7
370
    25
100
AcDbLine
 10
613.9885814637
 20
985.5335267142
 30
0.0
 11
615.7563487064
 21
984.5130164071
 31
0.0
  0
ARC
  5
A7
330
1F
100
AcDbEntity
  8
0
  6
SLD-実線
 62
     7
370
    25
100
AcDbCircle
 10
587.4109096923
 20
832.0253078715
 30
0.0
 40
12.11464686658777
100
AcDbArc
 50
293.1154688318
 51
355.5644094277
  0
LWPOLYLINE
  5
A8
330
1F
100
AcDbEntity
  8
0
  6
SLD-実線
 62
     7
370
    25
100
AcDbPolyline
 90
       14
 70
   128
 43
0.0
 10
549.4892732642
 20
831.0883812465
 10
549.7290115465
 20
829.0944816566
 10
550.7852559287
 20
826.5019537338
 10
552.6487133927
 20
824.0656115683
 10
555.2559240271
 20
821.8684210627
 10
558.5181032727
 20
819.9852050696
 10
562.3241612566
 20
818.4800944075
 10
566.5444865414
 20
817.4043435492
 10
571.0353633128
 20
816.7945865925
 10
575.643859426
 20
816.6715874536
 10
580.2130363162
 20
817.0395351269
 10
584.5872976145
 20
817.8858999332
 10
588.617682817
 20
819.1818587166
 10
592.1669436337
 20
820.8832788888
  0
LWPOLYLINE
  5
A9
330
1F
100
AcDbEntity
  8
0
  6
SLD-実線
 62
     7
370
    25
100
AcDbPolyline
 90
        8
 70
   128
 43
0.0
 10
609.8446127682
 20
802.5127682619
 10
614.0754867013
 20
805.2903345501
 10
617.6563541559
 20
808.3574285413
 10
620.5284198668
 20
811.663688924
 10
622.6445266966
 20
815.154824383
 10
623.9699248979
 20
818.7735138886
 10
624.4828503979
 20
822.4603373992
 10
624.4892728532
 20
822.9229706012
  0
LWPOLYLINE
  5
AA
330
1F
100
AcDbEntity
  8
0
  6
SLD-実線
 62
     7
370
    25
100
AcDbPolyline
 90
       20
 70
   128
 43
0.0
 10
524.4892728524
 20
822.9229725021
 10
524.5470675416
 20
821.5355447816
 10
525.2644241901
 20
817.8601059264
 10
526.7900540838
 20
814.2677994819
 10
529.0989047491
 20
810.8176115021
 10
532.1530619266
 20
807.5661921362
 10
535.9023793041
 20
804.5669313408
 10
540.2852918193
 20
801.869074986
 10
545.2298341399
 20
799.5169240037
 10
550.6548134905
 20
797.549100304
 10
556.471155964
 20
795.9979140305
 10
562.5833528504
 20
794.88883655
 10
568.8910469058
 20
794.2400789392
 10
575.2906655427
 20
794.0622935517
 10
581.6771231677
 20
794.3583991401
 10
587.9455564459
 20
795.1235352353
 10
593.993035694
 20
796.3451377056
 10
599.7202672173
 20
798.0031459488
 10
605.0332055096
 20
800.0703367289
 10
609.8446127682
 20
802.5127682619
  0
LWPOLYLINE
  5
AB
330
1F
100
AcDbEntity
  8
0
  6
SLD-実線
 62
     7
370
    25
100
AcDbPolyline
 90
       16
 70
   128
 43
0.0
 10
609.8446127682
 20
810.6781777191
 10
614.0754867013
 20
813.4557440074
 10
617.6563541559
 20
816.5228379986
 10
620.5284198668
 20
819.8290983813
 10
622.6445266966
 20
823.3202338403
 10
623.9699248979
 20
826.9389233458
 10
624.4828503979
 20
830.6257468565
 10
624.1748837051
 20
834.3201680576
 10
623.0510807949
 20
837.9615223274
 10
621.1298940846
 20
841.4900184838
 10
618.4428695022
 20
844.847721523
 10
615.03412953
 20
847.9794954404
 10
610.9596430424
 20
850.833918964
 10
606.2863123992
 20
853.3641205022
 10
601.0908773802
 20
855.5285553529
 10
599.4892740878
 20
856.085673069
  0
LWPOLYLINE
  5
AC
330
1F
100
AcDbEntity
  8
0
  6
SLD-実線
 62
     7
370
    25
100
AcDbPolyline
 90
       29
 70
   128
 43
0.0
 10
549.4892728526
 20
856.085671881
 10
546.5443947566
 20
855.0237884235
 10
541.4717996911
 20
852.7643349203
 10
536.9413509803
 20
850.1489625493
 10
533.0274386348
 20
847.2206157496
 10
529.7943271322
 20
844.0273786165
 10
527.2951070958
 20
840.6216834356
 10
525.5708120224
 20
837.0594510242
 10
524.6497568563
 20
833.3991747604
 10
524.5470675416
 20
829.7009542388
 10
525.2644241901
 20
826.0255153837
 10
526.7900540838
 20
822.4332089392
 10
529.0989047491
 20
818.9830209594
 10
532.1530619266
 20
815.7316015935
 10
535.9023793041
 20
812.7323407981
 10
540.2852918193
 20
810.0344844433
 10
545.2298341399
 20
807.6823334609
 10
550.6548134905
 20
805.7145097613
 10
556.471155964
 20
804.1633234878
 10
562.5833528504
 20
803.0542460073
 10
568.8910469058
 20
802.4054883964
 10
575.2906655427
 20
802.2277030089
 10
581.6771231677
 20
802.5238085973
 10
587.9455564459
 20
803.2889446926
 10
593.993035694
 20
804.5105471628
 10
599.7202672173
 20
806.168555406
 10
605.0332055096
 20
808.2357461862
 10
609.8446127682
 20
810.6781777191
 10
609.8446127682
 20
810.6781777191
  0
LWPOLYLINE
  5
AD
330
1F
100
AcDbEntity
  8
0
  6
SLD-実線
 62
     7
370
    25
100
AcDbPolyline
 90
       14
 70
   128
 43
0.0
 10
549.4892732642
 20
831.0883812465
 10
549.7290115465
 20
829.0944816566
 10
550.7852559287
 20
826.5019537338
 10
552.6487133927
 20
824.0656115683
 10
555.2559240271
 20
821.8684210627
 10
558.5181032727
 20
819.9852050696
 10
562.3241612566
 20
818.4800944075
 10
566.5444865414
 20
817.4043435492
 10
571.0353633128
 20
816.7945865925
 10
575.643859426
 20
816.6715874536
 10
580.2130363162
 20
817.0395351269
 10
584.5872976145
 20
817.8858999332
 10
588.617682817
 20
819.1818587166
 10
592.1669436337
 20
820.8832788888
  0
LINE
  5
AE
330
1F
100
AcDbEntity
  8
0
  6
SLD-実線
 62
     7
370
    25
100
AcDbLine
 10
578.2584737469
 20
686.5462871165
 30
0.0
 11
592.1669423989
 21
678.514498901
 31
0.0
  0
LINE
  5
AF
330
1F
100
AcDbEntity
  8
0
  6
SLD-実線
 62
     7
370
    25
100
AcDbLine
 10
567.4874630078
 20
794.3429953225
 30
0.0
 11
578.2584737469
 21
686.5462871165
 31
0.0
  0
LINE
  5
B0
330
1F
100
AcDbEntity
  8
0
  6
SLD-実線
 62
     7
370
    25
100
AcDbLine
 10
583.3281074201
 20
692.27942785
 30
0.0
 11
573.1573451827
 21
794.0688325917
 31
0.0
  0
LINE
  5
B1
330
1F
100
AcDbEntity
  8
0
  6
SLD-実線
 62
     7
370
    25
100
AcDbLine
 10
592.1669423989
 20
687.1752282578
 30
0.0
 11
583.3281074201
 21
692.27942785
 31
0.0
  0
LINE
  5
B2
330
1F
100
AcDbEntity
  8
0
  6
SLD-実線
 62
     7
370
    25
100
AcDbLine
 10
597.4702433039
 20
690.2367587038
 30
0.0
 11
592.1669423989
 21
687.1752282578
 31
0.0
  0
LINE
  5
B3
330
1F
100
AcDbEntity
  8
0
  6
SLD-実線
 62
     7
370
    25
100
AcDbLine
 10
606.3090782828
 20
705.5460599409
 30
0.0
 11
597.4702433039
 21
690.2367587038
 31
0.0
  0
LINE
  5
B4
330
1F
100
AcDbEntity
  8
0
  6
SLD-実線
 62
     7
370
    25
100
AcDbLine
 10
615.3327020854
 20
806.2733045766
 30
0.0
 11
606.3090782828
 21
705.5460599409
 31
0.0
  0
LINE
  5
B5
330
1F
100
AcDbEntity
  8
0
  6
SLD-実線
 62
     7
370
    25
100
AcDbLine
 10
611.3787119559
 20
705.6661936559
 30
0.0
 11
620.9242207565
 21
812.2190531335
 31
0.0
  0
LINE
  5
B6
330
1F
100
AcDbEntity
  8
0
  6
SLD-実線
 62
     7
370
    25
100
AcDbLine
 10
597.4702433039
 20
681.576029347
 30
0.0
 11
611.3787119559
 21
705.6661936559
 31
0.0
  0
LINE
  5
B7
330
1F
100
AcDbEntity
  8
0
  6
SLD-実線
 62
     7
370
    25
100
AcDbLine
 10
597.4702433039
 20
616.7480583791
 30
0.0
 11
597.4702433039
 21
681.576029347
 31
0.0
  0
LINE
  5
B8
330
1F
100
AcDbEntity
  8
0
  6
SLD-実線
 62
     7
370
    25
100
AcDbLine
 10
592.1669423989
 20
613.6865279331
 30
0.0
 11
597.4702433039
 21
616.7480583791
 31
0.0
  0
LINE
  5
B9
330
1F
100
AcDbEntity
  8
0
  6
SLD-実線
 62
     7
370
    25
100
AcDbLine
 10
592.1669423989
 20
678.514498901
 30
0.0
 11
592.1669423989
 21
613.6865279331
 31
0.0
  0
LINE
  5
BA
330
1F
100
AcDbEntity
  8
0
  6
SLD-実線
 62
     7
370
    25
100
AcDbLine
 10
560.5808037892
 20
696.7513887614
 30
0.0
 11
550.5044076871
 21
797.5963714873
 31
0.0
  0
LINE
  5
BB
330
1F
100
AcDbEntity
  8
0
  6
SLD-実線
 62
     7
370
    25
100
AcDbLine
 10
578.2584737469
 20
686.5462871165
 30
0.0
 11
560.5808037892
 21
696.7513887614
 31
0.0
  0
LWPOLYLINE
  5
BC
330
1F
100
AcDbEntity
  8
0
  6
SLD-実線
 62
     7
370
    25
100
AcDbPolyline
 90
       11
 70
   128
 43
0.0
 10
575.2676790467
 20
772.9485332119
 10
580.0690900113
 20
773.2448977908
 10
585.0021810661
 20
774.0408970089
 10
589.6287999126
 20
775.3097519533
 10
593.8140727254
 20
777.0144736613
 10
597.4359938446
 20
779.1053642176
 10
600.3889784178
 20
781.5214707842
 10
602.5869378024
 20
784.1923609927
 10
603.9657982932
 20
787.0401738413
 10
604.4853676841
 20
789.9818871683
 10
604.4892712067
 20
790.2613337226
  0
LINE
  5
BD
330
1F
100
AcDbEntity
  8
0
  6
SLD-実線
 62
     7
370
    25
100
AcDbLine
 10
543.6629205026
 20
800.1970664889
 30
0.0
 11
555.0438356524
 21
612.6660178637
 31
0.0
  0
LINE
  5
BE
330
1F
100
AcDbEntity
  8
0
  6
SLD-実線
 62
     7
370
    25
100
AcDbLine
 10
555.0438356524
 20
612.6660178637
 30
0.0
 11
549.7405347474
 21
615.7275483096
 31
0.0
  0
LINE
  5
BF
330
1F
100
AcDbEntity
  8
0
  6
SLD-実線
 62
     7
370
    25
100
AcDbLine
 10
538.3778118896
 20
802.9587998434
 30
0.0
 11
549.7405347474
 21
615.7275483096
 31
0.0
  0
LINE
  5
C0
330
1F
100
AcDbEntity
  8
0
  6
SLD-実線
 62
     7
370
    25
100
AcDbLine
 10
574.4892724412
 20
688.7196005459
 30
0.0
 11
560.5808037892
 21
696.7513887614
 31
0.0
  0
LINE
  5
C1
330
1F
100
AcDbEntity
  8
0
  6
SLD-実線
 62
     7
370
    25
100
AcDbLine
 10
574.4892724412
 20
521.824034176
 30
0.0
 11
574.4892724412
 21
688.7196005459
 31
0.0
  0
LINE
  5
C2
330
1F
100
AcDbEntity
  8
0
  6
SLD-実線
 62
     7
370
    25
100
AcDbLine
 10
555.0438356524
 20
612.6660178637
 30
0.0
 11
574.4892724412
 21
521.824034176
 31
0.0
  0
LINE
  5
C3
330
1F
100
AcDbEntity
  8
0
  6
SLD-実線
 62
     7
370
    25
100
AcDbLine
 10
544.2512483198
 20
706.1782404777
 30
0.0
 11
537.5998337497
 21
710.018020377
 31
0.0
  0
LINE
  5
C4
330
1F
100
AcDbEntity
  8
0
  6
SLD-実線
 62
     7
370
    25
100
AcDbLine
 10
527.2661953455
 20
813.4375049667
 30
0.0
 11
537.5998337497
 21
710.018020377
 31
0.0
  0
LINE
  5
C5
330
1F
100
AcDbEntity
  8
0
  6
SLD-実線
 62
     7
370
    25
100
AcDbLine
 10
606.3090782828
 20
705.5460599409
 30
0.0
 11
580.5146245938
 21
720.4368810955
 31
0.0
  0
LINE
  5
C6
330
1F
100
AcDbEntity
  8
0
  6
SLD-実線
 62
     7
370
    25
100
AcDbLine
 10
599.2380101351
 20
638.1787717383
 30
0.0
 11
602.1599293116
 21
689.6987842908
 31
0.0
  0
LINE
  5
C7
330
1F
100
AcDbEntity
  8
0
  6
SLD-実線
 62
     7
370
    25
100
AcDbLine
 10
597.4702428923
 20
627.879397418
 30
0.0
 11
599.2380101351
 21
638.1787717383
 31
0.0
  0
LINE
  5
C8
330
1F
100
AcDbEntity
  8
0
  6
SLD-実線
 62
     7
370
    25
100
AcDbLine
 10
592.1669423989
 20
678.514498901
 30
0.0
 11
574.4892724412
 21
688.7196005459
 31
0.0
  0
LINE
  5
C9
330
1F
100
AcDbEntity
  8
0
  6
SLD-実線
 62
     7
370
    25
100
AcDbLine
 10
597.4702433039
 20
690.2367587038
 30
0.0
 11
582.6790175533
 21
698.7755515763
 31
0.0
  0
LINE
  5
CA
330
1F
100
AcDbEntity
  8
0
  6
SLD-実線
 62
     7
370
    25
100
AcDbLine
 10
537.5998337497
 20
710.018020377
 30
0.0
 11
544.2513275509
 21
706.1769578848
 31
0.0
  0
LINE
  5
CB
330
1F
100
AcDbEntity
  8
0
  6
SLD-実線
 62
     7
370
    25
100
AcDbLine
 10
592.1669423989
 20
613.6865279331
 30
0.0
 11
574.4892724412
 21
521.824034176
 31
0.0
  0
LINE
  5
CC
330
1F
100
AcDbEntity
  8
0
  6
SLD-実線
 62
     7
370
    25
100
AcDbLine
 10
574.4892724412
 20
521.824034176
 30
0.0
 11
569.1859715362
 21
524.885564622
 31
0.0
  0
LINE
  5
CD
330
1F
100
AcDbEntity
  8
0
  6
SLD-実線
 62
     7
370
    25
100
AcDbLine
 10
549.7405347474
 20
615.7275483096
 30
0.0
 11
569.1859715362
 21
524.885564622
 31
0.0
  0
LINE
  5
CE
330
1F
100
AcDbEntity
  8
0
  6
SLD-実線
 62
     7
370
    25
100
AcDbLine
 10
579.7925733462
 20
524.885564622
 30
0.0
 11
574.4892724412
 21
521.824034176
 31
0.0
  0
LINE
  5
CF
330
1F
100
AcDbEntity
  8
0
  6
SLD-実線
 62
     7
370
    25
100
AcDbLine
 10
579.7925733462
 20
524.885564622
 30
0.0
 11
597.4702433039
 21
616.7480583791
 31
0.0
  0
LWPOLYLINE
  5
D0
330
1F
100
AcDbEntity
  8
0
  6
SLD-実線
 62
     7
370
    25
100
AcDbPolyline
 90
        3
 70
   128
 43
0.0
 10
453.3094282157
 20
886.1639799101
 10
456.2794660046
 20
885.612960828
 10
457.9564623535
 20
885.5449106978
  0
LINE
  5
D1
330
1F
100
AcDbEntity
  8
0
  6
SLD-実線
 62
     7
370
    25
100
AcDbLine
 10
453.3094282157
 20
886.8352823296
 30
0.0
 11
453.3094282157
 21
886.1639799101
 31
0.0
  0
LWPOLYLINE
  5
D2
330
1F
100
AcDbEntity
  8
0
  6
SLD-実線
 62
     7
370
    25
100
AcDbPolyline
 90
        3
 70
   128
 43
0.0
 10
459.0969783001
 20
885.2996442202
 10
456.77964908
 20
885.2808733436
 10
454.2472219368
 20
885.6846786184
  0
LINE
  5
D3
330
1F
100
AcDbEntity
  8
0
  6
SLD-実線
 62
     7
370
    25
100
AcDbLine
 10
454.2472219368
 20
885.6846786184
 30
0.0
 11
453.3094282157
 21
886.1639799101
 31
0.0
  0
LWPOLYLINE
  5
D4
330
1F
100
AcDbEntity
  8
0
  6
SLD-実線
 62
     7
370
    25
100
AcDbPolyline
 90
       38
 70
   128
 43
0.0
 10
522.1688846931
 20
915.5937120338
 10
522.9545348766
 20
916.0607124642
 10
527.415024758
 20
919.2811804141
 10
531.4152414192
 20
923.1992852007
 10
534.9239533868
 20
927.7844670684
 10
537.913804722
 20
933.0009374927
 10
540.3614500221
 20
938.8080066666
 10
542.2477980816
 20
945.1603606172
 10
543.5581370164
 20
952.0084328941
 10
544.2822330447
 20
959.2987924143
 10
544.4144424401
 20
966.9745560238
 10
543.9537247023
 20
974.9758371725
 10
542.9036886553
 20
983.2402059978
 10
541.2725200071
 20
991.7031722124
 10
539.0729418378
 20
1000.2987136219
 10
536.3221224026
 20
1008.959755208
 10
533.0415236671
 20
1017.6187280542
 10
529.2567432562
 20
1026.2080560277
 10
524.9973103058
 20
1034.6607375139
 10
520.2964549717
 20
1042.9108130797
 10
515.1908614757
 20
1050.8939110825
 10
509.7203651751
 20
1058.5477419423
 10
503.9276496322
 20
1065.8126000193
 10
497.8579107566
 20
1072.6317780342
 10
491.5585061302
 20
1078.9520812986
 10
485.0785911614
 20
1084.7242050604
 10
478.4687223121
 20
1089.9031004396
 10
471.7804745245
 20
1094.4483625845
 10
465.0660316885
 20
1098.3245279272
 10
458.3777839009
 20
1101.5013523087
 10
451.7679150516
 20
1103.9540490599
 10
445.2880000828
 20
1105.6634758717
 10
438.9885954564
 20
1106.6163103759
 10
432.9188565808
 20
1106.805103698
 10
427.1261410379
 20
1106.228372626
 10
421.6556447373
 20
1104.8906423528
 10
416.5500512413
 20
1102.8023371264
 10
414.6776215199
 20
1101.7942153971
  0
ELLIPSE
  5
D5
330
1F
100
AcDbEntity
  8
0
  6
SLD-実線
 62
     7
370
    25
100
AcDbEllipse
 10
388.6324523414
 20
962.6317157523
 30
0.0
 11
84.08716585653507
 21
-75.1814872028808
 31
0.0
210
0.0
220
0.0
230
1.0
 40
0.2456342933
 41
0.0
 42
6.283185307179586
  0
ELLIPSE
  5
D6
330
1F
100
AcDbEntity
  8
0
  6
SLD-実線
 62
     7
370
    25
100
AcDbEllipse
 10
388.2686422286
 20
963.2118130847
 30
0.0
 11
81.55031657521323
 21
-72.91494664002005
 31
0.0
210
0.0
220
0.0
230
1.0
 40
0.2456359894
 41
0.0
 42
6.283185307179586
  0
LWPOLYLINE
  5
D7
330
1F
100
AcDbEntity
  8
0
  6
SLD-実線
 62
     7
370
    25
100
AcDbPolyline
 90
       10
 70
   128
 43
0.0
 10
424.2290753311
 20
905.6098312257
 10
430.5194558398
 20
902.3193227285
 10
436.7545564761
 20
899.7394302469
 10
442.8795826328
 20
897.8928268311
 10
448.8407077627
 20
896.7957416495
 10
454.5855438271
 20
896.4578148323
 10
460.0636068041
 20
896.8820164782
 10
465.2267537974
 20
898.0646187723
 10
470.029614383
 20
899.9952272765
 10
471.242139702
 20
900.6333100061
  0
LWPOLYLINE
  5
D8
330
1F
100
AcDbEntity
  8
0
  6
SLD-実線
 62
     7
370
    25
100
AcDbPolyline
 90
       18
 70
   128
 43
0.0
 10
357.0604067709
 20
1020.87998227
 10
357.2200182033
 20
1016.413292979
 10
357.9565212101
 20
1008.7661320441
 10
359.2754278089
 20
1000.8941340672
 10
361.1651542018
 20
992.8664658636
 10
363.6090853108
 20
984.7536892258
 10
366.5857459996
 20
976.6270936337
 10
370.0689788802
 20
968.5580955053
 10
374.028174804
 20
960.6176041825
 10
378.4285362791
 20
952.8754040797
 10
383.2313968648
 20
945.3995307775
 10
388.394543858
 20
938.2556858537
 10
393.872606835
 20
931.5066473224
 10
399.6174428995
 20
925.2117276037
 10
405.5785680294
 20
919.4262442099
 10
411.703594186
 20
914.2010429529
 10
417.9386948224
 20
909.5820414725
 10
424.2290753311
 20
905.6098312257
  0
LWPOLYLINE
  5
D9
330
1F
100
AcDbEntity
  8
0
  6
SLD-実線
 62
     7
370
    25
100
AcDbPolyline
 90
        9
 70
   128
 43
0.0
 10
471.6520737801
 20
898.1907987007
 10
467.54423119
 20
896.6845966167
 10
462.2906133522
 20
895.5616683276
 10
456.727344594
 20
895.1949886548
 10
450.9018977427
 20
895.5876811984
 10
444.8639698596
 20
896.7363974554
 10
438.665072296
 20
898.6313379915
 10
432.3580952309
 20
901.2563351003
 10
425.9968458665
 20
904.5889910693
  0
LWPOLYLINE
  5
DA
330
1F
100
AcDbEntity
  8
0
  6
SLD-実線
 62
     7
370
    25
100
AcDbPolyline
 90
       26
 70
   128
 43
0.0
 10
360.5995434948
 20
1018.6058078738
 10
360.7566392872
 20
1014.49992757
 10
361.4978508873
 20
1007.022836998
 10
362.8247719727
 20
999.3231416527
 10
364.725008736
 20
991.4727345329
 10
367.1808134025
 20
983.544911189
 10
370.1692653306
 20
975.6136910271
 10
373.6624619897
 20
967.7531272063
 10
377.6277823773
 20
960.0366108406
 10
382.0282064142
 20
952.5361904141
 10
386.8226508011
 20
945.3218926241
 10
391.9663476823
 20
938.461077984
 10
397.4112726996
 20
932.0178032032
 10
403.1065895098
 20
926.0522267609
 10
408.9991189974
 20
920.620049891
 10
415.0338488238
 20
915.7719879298
 10
421.1544306282
 20
911.5533087977
 10
427.303720034
 20
908.0033995856
 10
433.4243018384
 20
905.1554053848
 10
439.4590316648
 20
903.0359165969
 10
445.3515611524
 20
901.6647237343
 10
451.0468779625
 20
901.0546273547
 10
456.4918029799
 20
901.211325524
 10
461.6354998611
 20
902.1333541556
 10
466.429944248
 20
903.812104284
 10
469.7624593398
 20
905.5543294806
  0
LWPOLYLINE
  5
DB
330
1F
100
AcDbEntity
  8
0
  6
SLD-実線
 62
     7
370
    25
100
AcDbPolyline
 90
       26
 70
   128
 43
0.0
 10
361.0420985751
 20
1018.3160560038
 10
361.1974162973
 20
1014.2824385195
 10
361.9334846647
 20
1006.8572718711
 10
363.2511927125
 20
999.2110438072
 10
365.1382256584
 20
991.4151568354
 10
367.5769806076
 20
983.5423856027
 10
370.5446817983
 20
975.6662438208
 10
374.0136176776
 20
967.8602656511
 10
377.9514043195
 20
960.1973365218
 10
382.3212685984
 20
952.749002084
 10
387.0824169749
 20
945.5848047427
 10
392.1903944021
 20
938.7716344445
 10
397.5975074401
 20
932.3731046634
 10
403.2532720671
 20
926.4489569045
 10
409.1048828917
 20
921.0545018085
 10
415.097704592
 20
916.2401073106
 10
421.1757822875
 20
912.0507248254
 10
427.2823683747
 20
908.5254677145
 10
433.3604460701
 20
905.6972510663
 10
439.3532677704
 20
903.5924809076
 10
445.204878595
 20
902.2308099537
 10
450.860643222
 20
901.6249508693
 10
456.2677562601
 20
901.780560821
 10
461.3757336872
 20
902.6961859146
 10
466.1368820637
 20
904.3632783496
 10
469.5373622415
 20
906.1487755091
  0
LWPOLYLINE
  5
DC
330
1F
100
AcDbEntity
  8
0
  6
SLD-実線
 62
     7
370
    25
100
AcDbPolyline
 90
       23
 70
   128
 43
0.0
 10
375.6898472338
 20
1008.098466999
 10
375.7815232147
 20
1006.5136139013
 10
376.5171931628
 20
999.9625974077
 10
377.8320200783
 20
993.2078806336
 10
379.7100441353
 20
986.3314494866
 10
382.1284698155
 20
979.4167797407
 10
385.0579392048
 20
972.5478066338
 10
388.4628941925
 20
965.8079077831
 10
392.3020012325
 20
959.2788975126
 10
396.5286584228
 20
953.0400287932
 10
401.0915634997
 20
947.1670332115
 10
405.9353246384
 20
941.7312008672
 10
411.0011486316
 20
936.7985154108
 10
416.2275414162
 20
932.4288532474
 10
421.5510614898
 20
928.6752558199
 10
426.9070891724
 20
925.5832868532
 10
432.2306092459
 20
923.1904788336
 10
437.4570020306
 20
921.5258763309
 10
442.5228260237
 20
920.6096859016
 10
447.3665871624
 20
920.4530306746
 10
451.9294922394
 20
921.0578081916
 10
456.1561494296
 20
922.4166823928
 10
459.5885887723
 20
924.2440298734
  0
LWPOLYLINE
  5
DD
330
1F
100
AcDbEntity
  8
0
  6
SLD-実線
 62
     7
370
    25
100
AcDbPolyline
 90
       23
 70
   128
 43
0.0
 10
375.6898472338
 20
1008.098466999
 10
375.7815232147
 20
1006.5136139013
 10
376.5171931628
 20
999.9625974077
 10
377.8320200783
 20
993.2078806336
 10
379.7100441353
 20
986.3314494866
 10
382.1284698155
 20
979.4167797407
 10
385.0579392048
 20
972.5478066338
 10
388.4628941925
 20
965.8079077831
 10
392.3020012325
 20
959.2788975126
 10
396.5286584228
 20
953.0400287932
 10
401.0915634997
 20
947.1670332115
 10
405.9353246384
 20
941.7312008672
 10
411.0011486316
 20
936.7985154108
 10
416.2275414162
 20
932.4288532474
 10
421.5510614898
 20
928.6752558199
 10
426.9070891724
 20
925.5832868532
 10
432.2306092459
 20
923.1904788336
 10
437.4570020306
 20
921.5258763309
 10
442.5228260237
 20
920.6096859016
 10
447.3665871624
 20
920.4530306746
 10
451.9294922394
 20
921.0578081916
 10
456.1561494296
 20
922.4166823928
 10
459.64019232
 20
924.2774988851
  0
LWPOLYLINE
  5
DE
330
1F
100
AcDbEntity
  8
0
  6
SLD-実線
 62
     7
370
    25
100
AcDbPolyline
 90
       26
 70
   128
 43
0.0
 10
496.6160555116
 20
1101.9045712317
 10
498.3187519715
 20
1102.0374450836
 10
503.1625131102
 20
1101.8807908072
 10
508.2283371033
 20
1100.9645984768
 10
513.454729888
 20
1099.3000026281
 10
518.7782499615
 20
1096.9071936579
 10
524.1342776441
 20
1093.8152246912
 10
529.4577977177
 20
1090.0616282143
 10
534.6841905023
 20
1085.6919593968
 10
539.7500144955
 20
1080.7592758416
 10
544.5937756342
 20
1075.3234425467
 10
549.1566807111
 20
1069.4504460144
 10
553.3833379014
 20
1063.2115791962
 10
557.2224449414
 20
1056.682572728
 10
560.6273999291
 20
1049.9426719761
 10
563.5568693184
 20
1043.0737007704
 10
565.9752949986
 20
1036.1590310245
 10
567.8533190556
 20
1029.2825998775
 10
569.1681459712
 20
1022.527879301
 10
569.9038159192
 20
1015.9768666098
 10
570.0513957434
 20
1009.7090730644
 10
569.6091007883
 20
1003.8005866119
 10
568.582291606
 20
998.323130813
 10
566.9834377368
 20
993.3431884047
 10
564.8319464875
 20
988.9212104033
 10
563.2403267297
 20
986.4954448922
  0
LWPOLYLINE
  5
DF
330
1F
100
AcDbEntity
  8
0
  6
SLD-実線
 62
     7
370
    25
100
AcDbPolyline
 90
       34
 70
   128
 43
0.0
 10
487.5723576261
 20
1100.9175344008
 10
490.1285738664
 20
1103.2224273931
 10
493.8801010723
 20
1105.6300874309
 10
498.0378349944
 20
1107.3080510974
 10
502.5530285217
 20
1108.2366491987
 10
507.3727494931
 20
1108.4050011982
 10
512.4404882044
 20
1107.8111207874
 10
517.6968299469
 20
1106.4619763114
 10
523.0801497719
 20
1104.3733938745
 10
528.5273327737
 20
1101.5698468549
 10
533.9745157756
 20
1098.0842102496
 10
539.3578356005
 20
1093.9573439162
 10
544.614177343
 20
1089.2376453953
 10
549.6819160544
 20
1083.9804392338
 10
554.5016370258
 20
1078.2473558494
 10
559.0168305531
 20
1072.105626266
 10
563.1745644752
 20
1065.6272451929
 10
566.9260916811
 20
1058.8881640401
 10
570.2274279831
 20
1051.9674021817
 10
573.0398707207
 20
1044.9460859698
 10
575.3304399847
 20
1037.9065476269
 10
577.0722902083
 20
1030.9313119682
 10
578.2449933409
 20
1024.1021572561
 10
578.8348022658
 20
1017.4991494373
 10
578.8348022658
 20
1011.1997067878
 10
578.2449933409
 20
1005.2776778588
 10
577.0722902083
 20
999.8024973634
 10
575.3304399847
 20
994.8383591654
 10
573.0398707207
 20
990.4434558021
 10
570.2274279831
 20
986.669318758
 10
566.9260916811
 20
983.5601948586
 10
563.1745644752
 20
981.152536722
 10
559.0168305531
 20
979.4745730555
 10
557.8629881352
 20
979.157397389
  0
LWPOLYLINE
  5
E0
330
1F
100
AcDbEntity
  8
0
  6
SLD-実線
 62
     7
370
    25
100
AcDbPolyline
 90
       28
 70
   128
 43
0.0
 10
643.1217327426
 20
1030.2992550611
 10
645.5674386291
 20
1034.6070904745
 10
647.4561706198
 20
1039.5112761536
 10
648.7652253927
 20
1044.9528455765
 10
649.478867027
 20
1050.8663879523
 10
649.5885113948
 20
1057.180808701
 10
649.0928479927
 20
1063.8201830845
 10
647.9978267703
 20
1070.7047143888
 10
646.3166186177
 20
1077.7516274642
 10
644.0694309732
 20
1084.8761991347
 10
641.2832806251
 20
1091.992779099
 10
637.99166444
 20
1099.0158241283
 10
634.2341543572
 20
1105.8608847294
 10
630.0559199447
 20
1112.4456868582
 10
625.507193331
 20
1118.6910567824
 10
620.6426600522
 20
1124.5219191323
 10
615.5207988605
 20
1129.868172321
 10
610.2031886065
 20
1134.6655449513
 10
604.753753794
 20
1138.8563659513
 10
599.2380093119
 20
1142.3902515336
 10
593.7222648297
 20
1145.2247089764
 10
588.2728300173
 20
1147.3256714865
 10
582.9552197633
 20
1148.6678809707
 10
577.8333585716
 20
1149.23520284
 10
572.9688252928
 20
1149.0208110639
 10
568.4200986791
 20
1148.0272890991
 10
564.2418642665
 20
1146.2665737395
 10
563.6159045408
 20
1145.9176982801
  0
LINE
  5
E1
330
1F
100
AcDbEntity
  8
0
  6
SLD-実線
 62
     7
370
    25
100
AcDbLine
 10
607.7663944736
 20
1009.8890527217
 30
0.0
 11
643.1217327426
 21
1030.2992550611
 31
0.0
  0
SPLINE
  5
E2
330
1F
100
AcDbEntity
  8
0
  6
SLD-実線
 62
     7
370
    25
100
AcDbSpline
210
0.0
220
0.0
230
1.0
 70
     8
 71
     3
 72
    19
 73
    15
 74
     0
 42
0.000000001
 43
0.00000001
 40
0.0
 40
0.0
 40
0.0
 40
0.0
 40
0.0491864262392352
 40
0.1349512672785176
 40
0.2213745984728678
 40
0.304902091252661
 40
0.3890982546403235
 40
0.4754495109986525
 40
0.5625684967280956
 40
0.6397446432330656
 40
0.7174683671458196
 40
0.7969112238880707
 40
0.8769463831917563
 40
1.0
 40
1.0
 40
1.0
 40
1.0
 10
576.3807048759653
 20
988.7625539589903
 30
0.0
 10
576.8955663304423
 20
989.0580477250371
 30
0.0
 10
578.308175683612
 20
989.8687847769014
 30
0.0
 10
580.6572484741617
 20
991.3638622428828
 30
0.0
 10
583.3890176206384
 20
993.1848016411097
 30
0.0
 10
586.1211542550529
 20
995.0891444854922
 30
0.0
 10
588.8597692357273
 20
997.0461075516596
 30
0.0
 10
591.6352030271437
 20
999.053634066768
 30
0.0
 10
594.3220344280064
 20
1000.993947878506
 30
0.0
 10
596.8925624346531
 20
1002.825110080525
 30
0.0
 10
599.3509957400041
 20
1004.538147443648
 30
0.0
 10
601.7942557331348
 20
1006.185308974198
 30
0.0
 10
604.6466160231649
 20
1008.037626415515
 30
0.0
 10
606.5893011845723
 20
1009.190509054347
 30
0.0
 10
607.7663944735638
 20
1009.889052721702
 30
0.0
  0
LWPOLYLINE
  5
E3
330
1F
100
AcDbEntity
  8
0
  6
SLD-実線
 62
     7
370
    25
100
AcDbPolyline
 90
       16
 70
   128
 43
0.0
 10
602.7811575614
 20
1140.3441720866
 10
608.0078329422
 20
1136.988136024
 10
613.1765689204
 20
1132.9923022643
 10
618.2150196879
 20
1128.41111207
 10
623.0600847447
 20
1123.301943337
 10
627.6510866231
 20
1117.7287752441
 10
631.9305261557
 20
1111.7614100377
 10
635.844809344
 20
1105.4745743277
 10
639.3449174276
 20
1098.9470151506
 10
642.3870110987
 20
1092.260474351
 10
644.9329968501
 20
1085.4986924295
 10
646.9509846641
 20
1078.7463534423
 10
648.4157061879
 20
1072.0880222942
 10
649.3088110787
 20
1065.6070915253
 10
649.6191205436
 20
1059.3847185874
 10
649.6193674978
 20
1059.2092170833
  0
LWPOLYLINE
  5
E4
330
1F
100
AcDbEntity
  8
0
  6
SLD-実線
 62
     7
370
    25
100
AcDbPolyline
 90
       33
 70
   128
 43
0.0
 10
579.9285492046
 20
991.1633985368
 10
577.787747779
 20
987.0927189336
 10
575.7281728793
 20
982.2311997319
 10
574.1782142935
 20
977.343867278
 10
573.1742006294
 20
972.5452761941
 10
572.7396666213
 20
967.9479023182
 10
572.8847950136
 20
963.6595026429
 10
573.6061860703
 20
959.7805951158
 10
574.8869300149
 20
956.4020966821
 10
576.6970070959
 20
953.6031971596
 10
578.9939922297
 20
951.4495018605
 10
581.7240444639
 20
949.9914877588
 10
584.8231746748
 20
949.2633332096
 10
588.2187412873
 20
949.2821055386
 10
591.8311554934
 20
950.047361402
 10
595.5757447271
 20
951.5411655042
 10
599.3647394112
 20
953.7285055764
 10
603.1093286449
 20
956.5581121771
 10
606.721742851
 20
959.963660978
 10
610.1173094636
 20
963.865326411
 10
613.2164396745
 20
968.171660538
 10
615.9464919086
 20
972.7817258559
 10
618.2434770425
 20
977.5874637403
 10
620.0535541235
 20
982.4762337764
 10
621.334298068
 20
987.3334476931
 10
622.0556891248
 20
992.0452556056
 10
622.2008175171
 20
996.501216956
 10
621.7662835089
 20
1000.5968885451
 10
620.7622698448
 20
1004.2362701268
 10
619.212311259
 20
1007.3340584891
 10
617.1527363593
 20
1009.8176431274
 10
614.6318213973
 20
1011.628811781
 10
612.3745646073
 20
1012.5492920507
  0
LWPOLYLINE
  5
E5
330
1F
100
AcDbEntity
  8
0
  6
SLD-実線
 62
     7
370
    25
100
AcDbPolyline
 90
       32
 70
   128
 43
0.0
 10
617.5280803871
 20
1015.5243524356
 10
619.8457339403
 20
1013.1027878471
 10
621.733795862
 20
1009.9520994288
 10
623.0670455602
 20
1006.2088666588
 10
623.8170668394
 20
1001.9528695136
 10
623.9678768245
 20
997.2748192891
 10
623.516256879
 20
992.2744176063
 10
622.4718332775
 20
987.0582397032
 10
620.8568697633
 20
981.7374609078
 10
618.7057818725
 20
976.4254834454
 10
616.0644207663
 20
971.2355235806
 10
612.9890771831
 20
966.2781948647
 10
609.545302643
 20
961.6591555644
 10
605.8064902852
 20
957.4768511707
 10
601.8523289342
 20
953.8204223201
 10
597.767094177
 20
950.767798095
 10
593.6378554758
 20
948.3840393326
 10
589.5526207187
 20
946.7199519051
 10
585.5984593677
 20
945.8110032365
 10
581.8596470099
 20
945.6765667664
 10
578.4158724698
 20
946.3195086163
 10
575.3405288865
 20
947.7261212101
 10
572.6991677804
 20
949.8664304554
 10
570.5480798895
 20
952.6948147038
 10
568.9331163753
 20
956.1509963147
 10
567.8886927738
 20
960.1613083951
 10
567.4370728284
 20
964.6402807879
 10
567.5878828135
 20
969.4924525149
 10
568.3379040927
 20
974.6144057966
 10
569.6711537909
 20
979.8969759024
 10
571.5592157125
 20
985.2275742148
 10
571.9595547971
 20
986.1940165428
  0
SPLINE
  5
E6
330
1F
100
AcDbEntity
  8
0
  6
SLD-実線
 62
     7
370
    25
100
AcDbSpline
210
0.0
220
0.0
230
1.0
 70
     8
 71
     3
 72
    10
 73
     6
 74
     0
 42
0.000000001
 43
0.00000001
 40
0.0
 40
0.0
 40
0.0
 40
0.0
 40
0.1519602979038552
 40
0.5011962457842419
 40
1.0
 40
1.0
 40
1.0
 40
1.0
 10
618.303592277862
 20
998.1366459460348
 30
0.0
 10
618.299658416353
 20
998.138822389821
 30
0.0
 10
618.2866837338413
 20
998.1460007480486
 30
0.0
 10
618.2498363272139
 20
998.133768473739
 30
0.0
 10
618.2197422750936
 20
998.1175525154907
 30
0.0
 10
618.2020414220085
 20
998.108014541228
 30
0.0
  0
SPLINE
  5
E7
330
1F
100
AcDbEntity
  8
0
  6
SLD-実線
 62
     7
370
    25
100
AcDbSpline
210
0.0
220
0.0
230
1.0
 70
     8
 71
     3
 72
     9
 73
     5
 74
     0
 42
0.000000001
 43
0.00000001
 40
0.0
 40
0.0
 40
0.0
 40
0.0
 40
0.4352472362802388
 40
1.0
 40
1.0
 40
1.0
 40
1.0
 10
618.2020414220085
 20
998.108014541228
 30
0.0
 10
618.1408573885067
 20
998.0773194497009
 30
0.0
 10
618.0002843339256
 20
998.0067961035
 30
0.0
 10
617.8624450519887
 20
997.9611608632324
 30
0.0
 10
617.7845999365658
 20
997.9353882351683
 30
0.0
  0
SPLINE
  5
E8
330
1F
100
AcDbEntity
  8
0
  6
SLD-実線
 62
     7
370
    25
100
AcDbSpline
210
0.0
220
0.0
230
1.0
 70
     8
 71
     3
 72
     9
 73
     5
 74
     0
 42
0.000000001
 43
0.00000001
 40
0.0
 40
0.0
 40
0.0
 40
0.0
 40
0.5060474499364245
 40
1.0
 40
1.0
 40
1.0
 40
1.0
 10
617.7845999365658
 20
997.9353882351683
 30
0.0
 10
617.5992280887775
 20
997.8714832999198
 30
0.0
 10
617.2329149143674
 20
997.7452008035718
 30
0.0
 10
616.8593217888172
 20
997.5365227568217
 30
0.0
 10
616.6747845117654
 20
997.4334457034872
 30
0.0
  0
SPLINE
  5
E9
330
1F
100
AcDbEntity
  8
0
  6
SLD-実線
 62
     7
370
    25
100
AcDbSpline
210
0.0
220
0.0
230
1.0
 70
     8
 71
     3
 72
    12
 73
     8
 74
     0
 42
0.000000001
 43
0.00000001
 40
0.0
 40
0.0
 40
0.0
 40
0.0
 40
0.2564402968420129
 40
0.4834588899363456
 40
0.6919195567930295
 40
0.9315088192786021
 40
1.0
 40
1.0
 40
1.0
 40
1.0
 10
616.6747845117654
 20
997.4334457034872
 30
0.0
 10
616.4101709283682
 20
997.2632246109077
 30
0.0
 10
615.91130319632
 20
996.9423120964718
 30
0.0
 10
615.2304605102019
 20
996.2518630961853
 30
0.0
 10
614.68438804794
 20
995.4370970005899
 30
0.0
 10
614.3563756366816
 20
994.7190203650081
 30
0.0
 10
614.3138759889376
 20
994.3297914350624
 30
0.0
 10
614.3044276415387
 20
994.2432596555524
 30
0.0
  0
SPLINE
  5
EA
330
1F
100
AcDbEntity
  8
0
  6
SLD-実線
 62
     7
370
    25
100
AcDbSpline
210
0.0
220
0.0
230
1.0
 70
     8
 71
     3
 72
    10
 73
     6
 74
     0
 42
0.000000001
 43
0.00000001
 40
0.0
 40
0.0
 40
0.0
 40
0.0
 40
0.2880704485960511
 40
0.6085282851597652
 40
1.0
 40
1.0
 40
1.0
 40
1.0
 10
614.2060904828842
 20
993.527179001332
 30
0.0
 10
614.2208005820492
 20
993.274342911935
 30
0.0
 10
614.2518746178032
 20
992.7402446986086
 30
0.0
 10
614.5840935944991
 20
992.0802173116075
 30
0.0
 10
615.000176521287
 20
991.8828760586698
 30
0.0
 10
615.2289698008246
 20
991.7743631889006
 30
0.0
  0
SPLINE
  5
EB
330
1F
100
AcDbEntity
  8
0
  6
SLD-実線
 62
     7
370
    25
100
AcDbSpline
210
0.0
220
0.0
230
1.0
 70
     8
 71
     3
 72
     9
 73
     5
 74
     0
 42
0.000000001
 43
0.00000001
 40
0.0
 40
0.0
 40
0.0
 40
0.0
 40
0.4562377319193267
 40
1.0
 40
1.0
 40
1.0
 40
1.0
 10
617.457008617431
 20
990.456793297287
 30
0.0
 10
617.5168693588178
 20
990.3422506563006
 30
0.0
 10
617.648074511743
 20
990.0911915417801
 30
0.0
 10
617.6592526765024
 20
989.7368359756008
 30
0.0
 10
617.6653309407251
 20
989.5441507892282
 30
0.0
  0
SPLINE
  5
EC
330
1F
100
AcDbEntity
  8
0
  6
SLD-実線
 62
     7
370
    25
100
AcDbSpline
210
0.0
220
0.0
230
1.0
 70
     8
 71
     3
 72
    11
 73
     7
 74
     0
 42
0.000000001
 43
0.00000001
 40
0.0
 40
0.0
 40
0.0
 40
0.0
 40
0.2507460400238493
 40
0.512505084171294
 40
0.737274396748445
 40
1.0
 40
1.0
 40
1.0
 40
1.0
 10
617.6653309407251
 20
989.5441507892282
 30
0.0
 10
617.6391964049378
 20
989.2773059681195
 30
0.0
 10
617.5857794797408
 20
988.7318962480301
 30
0.0
 10
617.1847232012138
 20
987.8867321854478
 30
0.0
 10
616.6128903527351
 20
987.1661568536181
 30
0.0
 10
616.1881018024644
 20
986.8806104943869
 30
0.0
 10
615.959170536721
 20
986.7267210135958
 30
0.0
  0
SPLINE
  5
ED
330
1F
100
AcDbEntity
  8
0
  6
SLD-実線
 62
     7
370
    25
100
AcDbSpline
210
0.0
220
0.0
230
1.0
 70
     8
 71
     3
 72
    11
 73
     7
 74
     0
 42
0.000000001
 43
0.00000001
 40
0.0
 40
0.0
 40
0.0
 40
0.0
 40
0.0488189947777795
 40
0.3180764950178927
 40
0.6259764319858969
 40
1.0
 40
1.0
 40
1.0
 40
1.0
 10
614.1341000436328
 20
987.7181268893256
 30
0.0
 10
614.1334434761568
 20
987.7187224031487
 30
0.0
 10
614.1291656600638
 20
987.7226024287506
 30
0.0
 10
614.1164001978705
 20
987.7226561847557
 30
0.0
 10
614.0964199190898
 20
987.7175815363096
 30
0.0
 10
614.0814434627164
 20
987.7094016003068
 30
0.0
 10
614.0732291283987
 20
987.70491504305
 30
0.0
  0
SPLINE
  5
EE
330
1F
100
AcDbEntity
  8
0
  6
SLD-実線
 62
     7
370
    25
100
AcDbSpline
210
0.0
220
0.0
230
1.0
 70
     8
 71
     3
 72
    13
 73
     9
 74
     0
 42
0.000000001
 43
0.00000001
 40
0.0
 40
0.0
 40
0.0
 40
0.0
 40
0.0887711014351385
 40
0.1721713266810358
 40
0.2604976832236208
 40
0.3626421759072044
 40
0.6297200836148497
 40
1.0
 40
1.0
 40
1.0
 40
1.0
 10
614.0732291283987
 20
987.70491504305
 30
0.0
 10
614.0663130086175
 20
987.7003784957561
 30
0.0
 10
614.0528992117967
 20
987.6915798737548
 30
0.0
 10
614.0343894793745
 20
987.6701791777543
 30
0.0
 10
614.0192776672342
 20
987.6438141072065
 30
0.0
 10
614.0016631691142
 20
987.5977587210284
 30
0.0
 10
613.9873029193501
 20
987.5246425450238
 30
0.0
 10
613.982298719236
 20
987.4650827672335
 30
0.0
 10
613.979391475095
 20
987.4304808706119
 30
0.0
  0
SPLINE
  5
EF
330
1F
100
AcDbEntity
  8
0
  6
SLD-実線
 62
     7
370
    25
100
AcDbSpline
210
0.0
220
0.0
230
1.0
 70
     8
 71
     3
 72
     9
 73
     5
 74
     0
 42
0.000000001
 43
0.00000001
 40
0.0
 40
0.0
 40
0.0
 40
0.0
 40
0.4438095961024555
 40
1.0
 40
1.0
 40
1.0
 40
1.0
 10
613.979391475095
 20
987.4304808706119
 30
0.0
 10
613.964426173574
 20
987.2060823743236
 30
0.0
 10
613.930706079073
 20
986.7004635272797
 30
0.0
 10
613.9233888292251
 20
986.208567209042
 30
0.0
 10
613.9193190450768
 20
985.9349791971256
 30
0.0
  0
SPLINE
  5
F0
330
1F
100
AcDbEntity
  8
0
  6
SLD-実線
 62
     7
370
    25
100
AcDbSpline
210
0.0
220
0.0
230
1.0
 70
     8
 71
     3
 72
    10
 73
     6
 74
     0
 42
0.000000001
 43
0.00000001
 40
0.0
 40
0.0
 40
0.0
 40
0.0
 40
0.536648910233051
 40
0.8604893705402891
 40
0.9999999999999999
 40
0.9999999999999999
 40
0.9999999999999999
 40
0.9999999999999999
 10
613.9193190450768
 20
985.9349791971256
 30
0.0
 10
613.9197464055316
 20
985.8545563422534
 30
0.0
 10
613.9204316563944
 20
985.7256023642494
 30
0.0
 10
613.9351505006256
 20
985.5726970981381
 30
0.0
 10
613.978515969673
 20
985.5461779606209
 30
0.0
 10
613.9915729021315
 20
985.5381932992066
 30
0.0
  0
SPLINE
  5
F1
330
1F
100
AcDbEntity
  8
0
  6
SLD-実線
 62
     7
370
    25
100
AcDbSpline
210
0.0
220
0.0
230
1.0
 70
     8
 71
     3
 72
    11
 73
     7
 74
     0
 42
0.000000001
 43
0.00000001
 40
0.0
 40
0.0
 40
0.0
 40
0.0
 40
0.0341003470318654
 40
0.1714042874043728
 40
0.5196837681370435
 40
1.0
 40
1.0
 40
1.0
 40
1.0
 10
602.6878420498413
 20
989.1216746333895
 30
0.0
 10
602.6865595747244
 20
989.1227359743118
 30
0.0
 10
602.6801132551802
 20
989.1280707700054
 30
0.0
 10
602.6522671855164
 20
989.1292144318878
 30
0.0
 10
602.5965993937428
 20
989.1129005567086
 30
0.0
 10
602.5475022507111
 20
989.0854909773665
 30
0.0
 10
602.5190418636035
 20
989.069602329059
 30
0.0
  0
SPLINE
  5
F2
330
1F
100
AcDbEntity
  8
0
  6
SLD-実線
 62
     7
370
    25
100
AcDbSpline
210
0.0
220
0.0
230
1.0
 70
     8
 71
     3
 72
    10
 73
     6
 74
     0
 42
0.000000001
 43
0.00000001
 40
0.0
 40
0.0
 40
0.0
 40
0.0
 40
0.6680349662956325
 40
0.9104990236071847
 40
1.0
 40
1.0
 40
1.0
 40
1.0
 10
602.5190418636035
 20
989.069602329059
 30
0.0
 10
602.2583443636756
 20
988.9122531418031
 30
0.0
 10
601.9030264071062
 20
988.6977938865398
 30
0.0
 10
601.5131247808993
 20
988.4513999329403
 30
0.0
 10
601.3836280094825
 20
988.371480947624
 30
0.0
 10
601.3487144303258
 20
988.3499340180023
 30
0.0
  0
SPLINE
  5
F3
330
1F
100
AcDbEntity
  8
0
  6
SLD-実線
 62
     7
370
    25
100
AcDbSpline
210
0.0
220
0.0
230
1.0
 70
     8
 71
     3
 72
    10
 73
     6
 74
     0
 42
0.000000001
 43
0.00000001
 40
0.0
 40
0.0
 40
0.0
 40
0.0
 40
0.1891538061377747
 40
0.4708997817033925
 40
1.0
 40
1.0
 40
1.0
 40
1.0
 10
601.3487144303258
 20
988.3499340180023
 30
0.0
 10
601.2728383448125
 20
988.3094902086058
 30
0.0
 10
601.0839442758308
 20
988.2088050497663
 30
0.0
 10
600.6828895924003
 20
987.9977213890967
 30
0.0
 10
600.3574323128626
 20
987.8170356278661
 30
0.0
 10
600.1450621754024
 20
987.6991330263197
 30
0.0
  0
SPLINE
  5
F4
330
1F
100
AcDbEntity
  8
0
  6
SLD-実線
 62
     7
370
    25
100
AcDbSpline
210
0.0
220
0.0
230
1.0
 70
     8
 71
     3
 72
    13
 73
     9
 74
     0
 42
0.000000001
 43
0.00000001
 40
0.0
 40
0.0
 40
0.0
 40
0.0
 40
0.3558572994504892
 40
0.6127718499000142
 40
0.7137304011479767
 40
0.8053450727865594
 40
0.8975179779846015
 40
1.0
 40
1.0
 40
1.0
 40
1.0
 10
600.1450621754024
 20
987.6991330263197
 30
0.0
 10
600.1164961225835
 20
987.6819733396989
 30
0.0
 10
600.0673065371595
 20
987.6524250546681
 30
0.0
 10
600.0102759905412
 20
987.6048148114321
 30
0.0
 10
599.9790961445792
 20
987.564841795411
 30
0.0
 10
599.9637734817502
 20
987.5358106023281
 30
0.0
 10
599.9547559825417
 20
987.5055574115943
 30
0.0
 10
599.9538954477621
 20
987.4869253436542
 30
0.0
 10
599.9534423929873
 20
987.4771159233424
 30
0.0
  0
SPLINE
  5
F5
330
1F
100
AcDbEntity
  8
0
  6
SLD-実線
 62
     7
370
    25
100
AcDbSpline
210
0.0
220
0.0
230
1.0
 70
     8
 71
     3
 72
    10
 73
     6
 74
     0
 42
0.000000001
 43
0.00000001
 40
0.0
 40
0.0
 40
0.0
 40
0.0
 40
0.5013228257373907
 40
0.9722858596503403
 40
1.0
 40
1.0
 40
1.0
 40
1.0
 10
599.9534423929873
 20
987.4771159233424
 30
0.0
 10
599.9544144708385
 20
987.4682064456648
 30
0.0
 10
599.956299758124
 20
987.4509270426176
 30
0.0
 10
599.965093970548
 20
987.4383485107536
 30
0.0
 10
599.971689209445
 20
987.4364955557487
 30
0.0
 10
599.972055741915
 20
987.4363925771931
 30
0.0
  0
SPLINE
  5
F6
330
1F
100
AcDbEntity
  8
0
  6
SLD-実線
 62
     7
370
    25
100
AcDbSpline
210
0.0
220
0.0
230
1.0
 70
     8
 71
     3
 72
     9
 73
     5
 74
     0
 42
0.000000001
 43
0.00000001
 40
0.0
 40
0.0
 40
0.0
 40
0.0
 40
0.3089134039668749
 40
1.0
 40
1.0
 40
1.0
 40
1.0
 10
600.826948176085
 20
986.9425430917809
 30
0.0
 10
600.8339043725621
 20
986.6533765038953
 30
0.0
 10
600.8564226459283
 20
985.7172999718566
 30
0.0
 10
600.8508998823196
 20
984.7646306019517
 30
0.0
 10
600.8470831744165
 20
984.1062535699592
 30
0.0
  0
LINE
  5
F7
330
1F
100
AcDbEntity
  8
0
  6
SLD-実線
 62
     7
370
    25
100
AcDbLine
 10
600.8470831744
 20
984.10625357
 30
0.0
 11
600.8470831744
 21
981.6828577196
 31
0.0
  0
SPLINE
  5
F8
330
1F
100
AcDbEntity
  8
0
  6
SLD-実線
 62
     7
370
    25
100
AcDbSpline
210
0.0
220
0.0
230
1.0
 70
     8
 71
     3
 72
     9
 73
     5
 74
     0
 42
0.000000001
 43
0.00000001
 40
0.0
 40
0.0
 40
0.0
 40
0.0
 40
0.6532696459763657
 40
1.0
 40
1.0
 40
1.0
 40
1.0
 10
600.8470831744165
 20
981.6828577195562
 30
0.0
 10
600.8524165015908
 20
981.0341130260938
 30
0.0
 10
600.8605805533067
 20
980.0410396490311
 30
0.0
 10
600.8072540399916
 20
979.0145848499178
 30
0.0
 10
600.7887641191509
 20
978.658681814032
 30
0.0
  0
SPLINE
  5
F9
330
1F
100
AcDbEntity
  8
0
  6
SLD-実線
 62
     7
370
    25
100
AcDbSpline
210
0.0
220
0.0
230
1.0
 70
     8
 71
     3
 72
    10
 73
     6
 74
     0
 42
0.000000001
 43
0.00000001
 40
0.0
 40
0.0
 40
0.0
 40
0.0
 40
0.6278754837508286
 40
0.8145610431596377
 40
1.0
 40
1.0
 40
1.0
 40
1.0
 10
600.7887641191509
 20
978.658681814032
 30
0.0
 10
600.7682713596955
 20
978.4548422992361
 30
0.0
 10
600.741685509553
 20
978.1903953951825
 30
0.0
 10
600.5847365735519
 20
977.83892850162
 30
0.0
 10
600.4897112620474
 20
977.7470100582065
 30
0.0
 10
600.4423577718328
 20
977.7012047980941
 30
0.0
  0
SPLINE
  5
FA
330
1F
100
AcDbEntity
  8
0
  6
SLD-実線
 62
     7
370
    25
100
AcDbSpline
210
0.0
220
0.0
230
1.0
 70
     8
 71
     3
 72
     9
 73
     5
 74
     0
 42
0.000000001
 43
0.00000001
 40
0.0
 40
0.0
 40
0.0
 40
0.0
 40
0.5665792624831741
 40
1.0
 40
1.0
 40
1.0
 40
1.0
 10
600.4423577718328
 20
977.7012047980941
 30
0.0
 10
600.3754010690179
 20
977.6464131877648
 30
0.0
 10
600.2572239537429
 20
977.549707194522
 30
0.0
 10
600.1367615028322
 20
977.472084884119
 30
0.0
 10
600.0845505785154
 20
977.4384417650964
 30
0.0
  0
SPLINE
  5
FB
330
1F
100
AcDbEntity
  8
0
  6
SLD-実線
 62
     7
370
    25
100
AcDbSpline
210
0.0
220
0.0
230
1.0
 70
     8
 71
     3
 72
    12
 73
     8
 74
     0
 42
0.000000001
 43
0.00000001
 40
0.0
 40
0.0
 40
0.0
 40
0.0
 40
0.2619404442335202
 40
0.4696601902387936
 40
0.6420889970065173
 40
0.8236187315194108
 40
1.0
 40
1.0
 40
1.0
 40
1.0
 10
600.0845505785154
 20
977.4384417650964
 30
0.0
 10
600.0726896589384
 20
977.4309718208385
 30
0.0
 10
600.0514229860456
 20
977.4175781830152
 30
0.0
 10
600.0235640090094
 20
977.3902781198192
 30
0.0
 10
600.0030734237365
 20
977.3604541794397
 30
0.0
 10
599.9901936144237
 20
977.3284555273564
 30
0.0
 10
599.9887798049539
 20
977.3088608722186
 30
0.0
 10
599.988083068878
 20
977.2992044769144
 30
0.0
  0
SPLINE
  5
FC
330
1F
100
AcDbEntity
  8
0
  6
SLD-実線
 62
     7
370
    25
100
AcDbSpline
210
0.0
220
0.0
230
1.0
 70
     8
 71
     3
 72
    10
 73
     6
 74
     0
 42
0.000000001
 43
0.00000001
 40
0.0
 40
0.0
 40
0.0
 40
0.0
 40
0.3967263733666644
 40
0.754968730781742
 40
1.0
 40
1.0
 40
1.0
 40
1.0
 10
599.988083068878
 20
977.2992044769145
 30
0.0
 10
599.9885917158331
 20
977.2901071600432
 30
0.0
 10
599.9895596689913
 20
977.2727950017579
 30
0.0
 10
599.9973906596615
 20
977.2545615281966
 30
0.0
 10
600.0061577869391
 20
977.2494268166122
 30
0.0
 10
600.0097187255072
 20
977.2473412540398
 30
0.0
  0
SPLINE
  5
FD
330
1F
100
AcDbEntity
  8
0
  6
SLD-実線
 62
     7
370
    25
100
AcDbSpline
210
0.0
220
0.0
230
1.0
 70
     8
 71
     3
 72
    11
 73
     7
 74
     0
 42
0.000000001
 43
0.00000001
 40
0.0
 40
0.0
 40
0.0
 40
0.0
 40
0.0340958102103761
 40
0.1714037739220476
 40
0.5196880158500845
 40
0.9999999999999999
 40
0.9999999999999999
 40
0.9999999999999999
 40
0.9999999999999999
 10
579.4461669988966
 20
975.7045412181939
 30
0.0
 10
579.4448849531958
 20
975.7056028244298
 30
0.0
 10
579.43843995394
 20
975.7109396477556
 30
0.0
 10
579.4105913190589
 20
975.712079190678
 30
0.0
 10
579.3549250147606
 20
975.6957679975844
 30
0.0
 10
579.3058275364053
 20
975.6683579315431
 30
0.0
 10
579.2773672242492
 20
975.6524691514695
 30
0.0
  0
SPLINE
  5
FE
330
1F
100
AcDbEntity
  8
0
  6
SLD-実線
 62
     7
370
    25
100
AcDbSpline
210
0.0
220
0.0
230
1.0
 70
     8
 71
     3
 72
    10
 73
     6
 74
     0
 42
0.000000001
 43
0.00000001
 40
0.0
 40
0.0
 40
0.0
 40
0.0
 40
0.6607605880893315
 40
0.9097934919352916
 40
1.0
 40
1.0
 40
1.0
 40
1.0
 10
579.2773672242492
 20
975.6524691514695
 30
0.0
 10
578.9934499994663
 20
975.4814852925741
 30
0.0
 10
578.6025277077739
 20
975.2460596257698
 30
0.0
 10
578.1731198962383
 20
974.9776011180819
 30
0.0
 10
578.0273971614729
 20
974.8882216226973
 30
0.0
 10
577.9886483056875
 20
974.8644548907429
 30
0.0
  0
SPLINE
  5
FF
330
1F
100
AcDbEntity
  8
0
  6
SLD-実線
 62
     7
370
    25
100
AcDbSpline
210
0.0
220
0.0
230
1.0
 70
     8
 71
     3
 72
    10
 73
     6
 74
     0
 42
0.000000001
 43
0.00000001
 40
0.0
 40
0.0
 40
0.0
 40
0.0
 40
0.17256206661773
 40
0.4394591810126278
 40
1.0
 40
1.0
 40
1.0
 40
1.0
 10
577.9886483056875
 20
974.8644548907429
 30
0.0
 10
577.9110866940304
 20
974.8230644269959
 30
0.0
 10
577.7135626204896
 20
974.7176564444859
 30
0.0
 10
577.2641353526242
 20
974.4796657380091
 30
0.0
 10
576.8919733243359
 20
974.2711339957248
 30
0.0
 10
576.6398553107466
 20
974.1298659333253
 30
0.0
  0
SPLINE
  5
100
330
1F
100
AcDbEntity
  8
0
  6
SLD-実線
 62
     7
370
    25
100
AcDbSpline
210
0.0
220
0.0
230
1.0
 70
     8
 71
     3
 72
    13
 73
     9
 74
     0
 42
0.000000001
 43
0.00000001
 40
0.0
 40
0.0
 40
0.0
 40
0.0
 40
0.3556546713951426
 40
0.6122596595136062
 40
0.7131515097297351
 40
0.8048203908799432
 40
0.8972000824602341
 40
1.0
 40
1.0
 40
1.0
 40
1.0
 10
576.6398553107466
 20
974.1298659333253
 30
0.0
 10
576.6113965094313
 20
974.1127701514216
 30
0.0
 10
576.5624046715479
 20
974.0833397560149
 30
0.0
 10
576.5056047011502
 20
974.0358531147253
 30
0.0
 10
576.4745911412157
 20
973.9959694985104
 30
0.0
 10
576.4593653380842
 20
973.9669849526924
 30
0.0
 10
576.4504149173864
 20
973.9367788060871
 30
0.0
 10
576.4495620389815
 20
973.9181611134924
 30
0.0
 10
576.4491128330933
 20
973.9083552876066
 30
0.0
  0
SPLINE
  5
101
330
1F
100
AcDbEntity
  8
0
  6
SLD-実線
 62
     7
370
    25
100
AcDbSpline
210
0.0
220
0.0
230
1.0
 70
     8
 71
     3
 72
    10
 73
     6
 74
     0
 42
0.000000001
 43
0.00000001
 40
0.0
 40
0.0
 40
0.0
 40
0.0
 40
0.4987293498331727
 40
0.9661298770085238
 40
1.0
 40
1.0
 40
1.0
 40
1.0
 10
576.4491128330933
 20
973.9083552876066
 30
0.0
 10
576.4500720387604
 20
973.8994378138493
 30
0.0
 10
576.4519301954009
 20
973.8821630378067
 30
0.0
 10
576.4607160396203
 20
973.8694918701361
 30
0.0
 10
576.467361531867
 20
973.8675842581106
 30
0.0
 10
576.4678105580361
 20
973.8674553635625
 30
0.0
  0
SPLINE
  5
102
330
1F
100
AcDbEntity
  8
0
  6
SLD-実線
 62
     7
370
    25
100
AcDbSpline
210
0.0
220
0.0
230
1.0
 70
     8
 71
     3
 72
     9
 73
     5
 74
     0
 42
0.000000001
 43
0.00000001
 40
0.0
 40
0.0
 40
0.0
 40
0.0
 40
0.2652627489294137
 40
1.0
 40
1.0
 40
1.0
 40
1.0
 10
577.4689826026321
 20
973.2890916546099
 30
0.0
 10
577.4748174874246
 20
973.0556698370825
 30
0.0
 10
577.4968141108334
 20
972.1757052794143
 30
0.0
 10
577.4909130181446
 20
971.2792094453617
 30
0.0
 10
577.4865772655241
 20
970.6205205606539
 30
0.0
  0
LINE
  5
103
330
1F
100
AcDbEntity
  8
0
  6
SLD-実線
 62
     7
370
    25
100
AcDbLine
 10
577.4865772655
 20
970.6205205607
 30
0.0
 11
577.4865772655
 21
968.1971247103
 31
0.0
  0
SPLINE
  5
104
330
1F
100
AcDbEntity
  8
0
  6
SLD-実線
 62
     7
370
    25
100
AcDbSpline
210
0.0
220
0.0
230
1.0
 70
     8
 71
     3
 72
     9
 73
     5
 74
     0
 42
0.000000001
 43
0.00000001
 40
0.0
 40
0.0
 40
0.0
 40
0.0
 40
0.6532599491607005
 40
0.9999999999999999
 40
0.9999999999999999
 40
0.9999999999999999
 40
0.9999999999999999
 10
577.4865772655241
 20
968.1971247102508
 30
0.0
 10
577.4919904539881
 20
967.5484170270918
 30
0.0
 10
577.5002768772887
 20
966.5553855639007
 30
0.0
 10
577.4461502244276
 20
965.5285041074906
 30
0.0
 10
577.4273823460628
 20
965.172443179089
 30
0.0
  0
SPLINE
  5
105
330
1F
100
AcDbEntity
  8
0
  6
SLD-実線
 62
     7
370
    25
100
AcDbSpline
210
0.0
220
0.0
230
1.0
 70
     8
 71
     3
 72
    10
 73
     6
 74
     0
 42
0.000000001
 43
0.00000001
 40
0.0
 40
0.0
 40
0.0
 40
0.0
 40
0.6277756281814826
 40
0.8146059642571208
 40
1.0
 40
1.0
 40
1.0
 40
1.0
 10
577.4273823460628
 20
965.172443179089
 30
0.0
 10
577.4073298116488
 20
964.9687928854358
 30
0.0
 10
577.3813095053501
 20
964.7045348665112
 30
0.0
 10
577.2241524758032
 20
964.3532151126102
 30
0.0
 10
577.1291634971216
 20
964.2612681233364
 30
0.0
 10
577.0818522745307
 20
964.2154720263945
 30
0.0
  0
SPLINE
  5
106
330
1F
100
AcDbEntity
  8
0
  6
SLD-実線
 62
     7
370
    25
100
AcDbSpline
210
0.0
220
0.0
230
1.0
 70
     8
 71
     3
 72
     9
 73
     5
 74
     0
 42
0.000000001
 43
0.00000001
 40
0.0
 40
0.0
 40
0.0
 40
0.0
 40
0.5659393691233758
 40
1.0
 40
1.0
 40
1.0
 40
1.0
 10
577.0818522745307
 20
964.2154720263945
 30
0.0
 10
577.0147232946506
 20
964.1605788277404
 30
0.0
 10
576.8961081504452
 20
964.0635839875705
 30
0.0
 10
576.7752078883792
 20
963.9857391169651
 30
0.0
 10
576.7227298443537
 20
963.9519497233196
 30
0.0
  0
SPLINE
  5
107
330
1F
100
AcDbEntity
  8
0
  6
SLD-実線
 62
     7
370
    25
100
AcDbSpline
210
0.0
220
0.0
230
1.0
 70
     8
 71
     3
 72
    12
 73
     8
 74
     0
 42
0.000000001
 43
0.00000001
 40
0.0
 40
0.0
 40
0.0
 40
0.0
 40
0.2610416528453584
 40
0.4677484957486121
 40
0.6397221593954207
 40
0.8219361340370777
 40
1.0
 40
1.0
 40
1.0
 40
1.0
 10
576.7227298443537
 20
963.9519497233196
 30
0.0
 10
576.7110290210426
 20
963.9445746385209
 30
0.0
 10
576.6900628555162
 20
963.9313595642863
 30
0.0
 10
576.6626262231389
 20
963.9042862563671
 30
0.0
 10
576.6425294956102
 20
963.8746299091479
 30
0.0
 10
576.6300372556824
 20
963.8428399330008
 30
0.0
 10
576.628684776643
 20
963.8233551568889
 30
0.0
 10
576.6280163268544
 20
963.8137249932461
 30
0.0
  0
SPLINE
  5
108
330
1F
100
AcDbEntity
  8
0
  6
SLD-実線
 62
     7
370
    25
100
AcDbSpline
210
0.0
220
0.0
230
1.0
 70
     8
 71
     3
 72
    10
 73
     6
 74
     0
 42
0.000000001
 43
0.00000001
 40
0.0
 40
0.0
 40
0.0
 40
0.0
 40
0.3934157844466147
 40
0.7473591294314962
 40
1.0
 40
1.0
 40
1.0
 40
1.0
 10
576.6280163268544
 20
963.8137249932461
 30
0.0
 10
576.6285044703525
 20
963.8046201110606
 30
0.0
 10
576.6294317806286
 20
963.7873238634451
 30
0.0
 10
576.6371237855418
 20
963.7687660471572
 30
0.0
 10
576.6459328254684
 20
963.7634237856156
 30
0.0
 10
576.6496017694648
 20
963.7611987464998
 30
0.0
  0
SPLINE
  5
109
330
1F
100
AcDbEntity
  8
0
  6
SLD-実線
 62
     7
370
    25
100
AcDbSpline
210
0.0
220
0.0
230
1.0
 70
     8
 71
     3
 72
    10
 73
     6
 74
     0
 42
0.000000001
 43
0.00000001
 40
0.0
 40
0.0
 40
0.0
 40
0.0
 40
0.1915525016279329
 40
0.5674486742741323
 40
1.0
 40
1.0
 40
1.0
 40
1.0
 10
582.0879215853918
 20
968.7526710550339
 30
0.0
 10
582.085884607113
 20
968.7540758756417
 30
0.0
 10
582.0798503313192
 20
968.7582374688583
 30
0.0
 10
582.0645004532629
 20
968.7560167136428
 30
0.0
 10
582.0518683049429
 20
968.749548532378
 30
0.0
 10
582.0451096069278
 20
968.7460878000649
 30
0.0
  0
SPLINE
  5
10A
330
1F
100
AcDbEntity
  8
0
  6
SLD-実線
 62
     7
370
    25
100
AcDbSpline
210
0.0
220
0.0
230
1.0
 70
     8
 71
     3
 72
    10
 73
     6
 74
     0
 42
0.000000001
 43
0.00000001
 40
0.0
 40
0.0
 40
0.0
 40
0.0
 40
0.2239732313417811
 40
0.4329573960383626
 40
1.0
 40
1.0
 40
1.0
 40
1.0
 10
582.0451096069278
 20
968.7460878000649
 30
0.0
 10
582.0291728836534
 20
968.7349146027175
 30
0.0
 10
581.9983659779848
 20
968.7133159572005
 30
0.0
 10
581.9491636361511
 20
968.621350033237
 30
0.0
 10
581.9427821350274
 20
968.5544588569162
 30
0.0
 10
581.9381191734384
 20
968.5055814878162
 30
0.0
  0
SPLINE
  5
10B
330
1F
100
AcDbEntity
  8
0
  6
SLD-実線
 62
     7
370
    25
100
AcDbSpline
210
0.0
220
0.0
230
1.0
 70
     8
 71
     3
 72
     9
 73
     5
 74
     0
 42
0.000000001
 43
0.00000001
 40
0.0
 40
0.0
 40
0.0
 40
0.0
 40
0.555838370066193
 40
1.0
 40
1.0
 40
1.0
 40
1.0
 10
581.9381191734384
 20
968.5055814878162
 30
0.0
 10
581.9034378965682
 20
968.3205280272194
 30
0.0
 10
581.8410433611458
 20
967.9876012798721
 30
0.0
 10
581.6929898695375
 20
967.6497879664178
 30
0.0
 10
581.6272301893874
 20
967.4997442545006
 30
0.0
  0
SPLINE
  5
10C
330
1F
100
AcDbEntity
  8
0
  6
SLD-実線
 62
     7
370
    25
100
AcDbSpline
210
0.0
220
0.0
230
1.0
 70
     8
 71
     3
 72
    10
 73
     6
 74
     0
 42
0.000000001
 43
0.00000001
 40
0.0
 40
0.0
 40
0.0
 40
0.0
 40
0.2391752209479253
 40
0.5021111997932239
 40
1.0
 40
1.0
 40
1.0
 40
1.0
 10
581.6272301893874
 20
967.4997442545006
 30
0.0
 10
581.5342195383912
 20
967.3513089909945
 30
0.0
 10
581.3389581338853
 20
967.0396922275387
 30
0.0
 10
580.8233441104016
 20
966.624621288765
 30
0.0
 10
580.4369936008103
 20
966.4006026286784
 30
0.0
 10
580.1841632554061
 20
966.2540033262301
 30
0.0
  0
SPLINE
  5
10D
330
1F
100
AcDbEntity
  8
0
  6
SLD-実線
 62
     7
370
    25
100
AcDbSpline
210
0.0
220
0.0
230
1.0
 70
     8
 71
     3
 72
     9
 73
     5
 74
     0
 42
0.000000001
 43
0.00000001
 40
0.0
 40
0.0
 40
0.0
 40
0.0
 40
0.6532550466423073
 40
1.0
 40
1.0
 40
1.0
 40
1.0
 10
584.1402113364304
 20
972.0381859000987
 30
0.0
 10
584.1456637847529
 20
971.3894962844117
 30
0.0
 10
584.1540103690625
 20
970.3964850263721
 30
0.0
 10
584.0994836894789
 20
969.3693904623796
 30
0.0
 10
584.0805768385101
 20
969.0132506056939
 30
0.0
  0
SPLINE
  5
10E
330
1F
100
AcDbEntity
  8
0
  6
SLD-実線
 62
     7
370
    25
100
AcDbSpline
210
0.0
220
0.0
230
1.0
 70
     8
 71
     3
 72
    10
 73
     6
 74
     0
 42
0.000000001
 43
0.00000001
 40
0.0
 40
0.0
 40
0.0
 40
0.0
 40
0.6273497773307345
 40
0.8141056246683257
 40
1.0
 40
1.0
 40
1.0
 40
1.0
 10
584.0805768385101
 20
969.0132506056939
 30
0.0
 10
584.060600016164
 20
968.8096400186381
 30
0.0
 10
584.0346762906402
 20
968.5454165660224
 30
0.0
 10
583.8773516698725
 20
968.1938445342344
 30
0.0
 10
583.7821163933435
 20
968.101895083661
 30
0.0
 10
583.73460883488
 20
968.0560266401808
 30
0.0
  0
LINE
  5
10F
330
1F
100
AcDbEntity
  8
0
  6
SLD-実線
 62
     7
370
    25
100
AcDbLine
 10
583.7346088349
 20
968.0560266402
 30
0.0
 11
583.5490688588
 21
967.9104539047
 31
0.0
  0
SPLINE
  5
110
330
1F
100
AcDbEntity
  8
0
  6
SLD-実線
 62
     7
370
    25
100
AcDbSpline
210
0.0
220
0.0
230
1.0
 70
     8
 71
     3
 72
     9
 73
     5
 74
     0
 42
0.000000001
 43
0.00000001
 40
0.0
 40
0.0
 40
0.0
 40
0.0
 40
0.4666965839335188
 40
1.0
 40
1.0
 40
1.0
 40
1.0
 10
588.3583444911997
 20
972.3178651365105
 30
0.0
 10
588.3527166854112
 20
972.319888079684
 30
0.0
 10
588.3406578746501
 20
972.3242226800287
 30
0.0
 10
588.325110573097
 20
972.3165701278638
 30
0.0
 10
588.3168191440683
 20
972.3124889956526
 30
0.0
  0
SPLINE
  5
111
330
1F
100
AcDbEntity
  8
0
  6
SLD-実線
 62
     7
370
    25
100
AcDbSpline
210
0.0
220
0.0
230
1.0
 70
     8
 71
     3
 72
    13
 73
     9
 74
     0
 42
0.000000001
 43
0.00000001
 40
0.0
 40
0.0
 40
0.0
 40
0.0
 40
0.0932232790027632
 40
0.1783348193787182
 40
0.265294028255786
 40
0.3640932338039307
 40
0.6251347018441948
 40
1.0
 40
1.0
 40
1.0
 40
1.0
 10
588.3168191440683
 20
972.3124889956526
 30
0.0
 10
588.3097004436919
 20
972.3079572296868
 30
0.0
 10
588.2960824701619
 20
972.2992880252389
 30
0.0
 10
588.2769731350435
 20
972.2794246642329
 30
0.0
 10
588.2609168509347
 20
972.2547231044484
 30
0.0
 10
588.2415111319768
 20
972.2108840034725
 30
0.0
 10
588.2235567175684
 20
972.1386015036107
 30
0.0
 10
588.2143679521097
 20
972.0785316180527
 30
0.0
 10
588.2089512000219
 20
972.0431205849313
 30
0.0
  0
SPLINE
  5
112
330
1F
100
AcDbEntity
  8
0
  6
SLD-実線
 62
     7
370
    25
100
AcDbSpline
210
0.0
220
0.0
230
1.0
 70
     8
 71
     3
 72
    11
 73
     7
 74
     0
 42
0.000000001
 43
0.00000001
 40
0.0
 40
0.0
 40
0.0
 40
0.0
 40
0.3433809609102533
 40
0.6129867966692978
 40
0.8023280905469689
 40
1.0
 40
1.0
 40
1.0
 40
1.0
 10
588.2089512000219
 20
972.0431205849313
 30
0.0
 10
588.1856160807649
 20
971.891530202646
 30
0.0
 10
588.1439593739829
 20
971.6209185106156
 30
0.0
 10
588.0213771925411
 20
971.2487070297715
 30
0.0
 10
587.8582512662445
 20
970.9557585942572
 30
0.0
 10
587.7345468235732
 20
970.8138329900462
 30
0.0
 10
587.6713632081816
 20
970.7413426849529
 30
0.0
  0
SPLINE
  5
113
330
1F
100
AcDbEntity
  8
0
  6
SLD-実線
 62
     7
370
    25
100
AcDbSpline
210
0.0
220
0.0
230
1.0
 70
     8
 71
     3
 72
     9
 73
     5
 74
     0
 42
0.000000001
 43
0.00000001
 40
0.0
 40
0.0
 40
0.0
 40
0.0
 40
0.8497892294260551
 40
1.0
 40
1.0
 40
1.0
 40
1.0
 10
587.6713632081816
 20
970.7413426849529
 30
0.0
 10
587.4571541550085
 20
970.5545254774709
 30
0.0
 10
587.2050809988004
 20
970.3346860149159
 30
0.0
 10
586.9466637584318
 20
970.1824051618971
 30
0.0
 10
586.9078467056265
 20
970.1595309376215
 30
0.0
  0
SPLINE
  5
114
330
1F
100
AcDbEntity
  8
0
  6
SLD-実線
 62
     7
370
    25
100
AcDbSpline
210
0.0
220
0.0
230
1.0
 70
     8
 71
     3
 72
     9
 73
     5
 74
     0
 42
0.000000001
 43
0.00000001
 40
0.0
 40
0.0
 40
0.0
 40
0.0
 40
0.452854541710374
 40
1.0
 40
1.0
 40
1.0
 40
1.0
 10
587.8881667615577
 20
976.3893795106267
 30
0.0
 10
587.883304692107
 20
976.3913214386486
 30
0.0
 10
587.8725681994741
 20
976.395609632413
 30
0.0
 10
587.8584371802247
 20
976.3883347980434
 30
0.0
 10
587.8507054572212
 20
976.3843544054582
 30
0.0
  0
SPLINE
  5
115
330
1F
100
AcDbEntity
  8
0
  6
SLD-実線
 62
     7
370
    25
100
AcDbSpline
210
0.0
220
0.0
230
1.0
 70
     8
 71
     3
 72
    11
 73
     7
 74
     0
 42
0.000000001
 43
0.00000001
 40
0.0
 40
0.0
 40
0.0
 40
0.0
 40
0.1139298500637797
 40
0.2519890744594939
 40
0.4262990083894074
 40
1.0
 40
1.0
 40
1.0
 40
1.0
 10
587.8507054572212
 20
976.3843544054582
 30
0.0
 10
587.8415011660111
 20
976.377349865691
 30
0.0
 10
587.8211431929091
 20
976.3618572841426
 30
0.0
 10
587.7927056682398
 20
976.3211586991472
 30
0.0
 10
587.7412183753296
 20
976.2345872763511
 30
0.0
 10
587.7016844742169
 20
976.1587365266872
 30
0.0
 10
587.6713632081816
 20
976.1005613733425
 30
0.0
  0
SPLINE
  5
116
330
1F
100
AcDbEntity
  8
0
  6
SLD-実線
 62
     7
370
    25
100
AcDbSpline
210
0.0
220
0.0
230
1.0
 70
     8
 71
     3
 72
    10
 73
     6
 74
     0
 42
0.000000001
 43
0.00000001
 40
0.0
 40
0.0
 40
0.0
 40
0.0
 40
0.2209141216938241
 40
0.4698895128243841
 40
1.0
 40
1.0
 40
1.0
 40
1.0
 10
587.6713632081816
 20
976.1005613733425
 30
0.0
 10
587.637984923079
 20
976.0472083537284
 30
0.0
 10
587.5669885286179
 20
975.9337252309565
 30
0.0
 10
587.3701398704382
 20
975.7589129971406
 30
0.0
 10
587.2159140539708
 20
975.6555082701432
 30
0.0
 10
587.1109747591138
 20
975.5851489789131
 30
0.0
  0
LINE
  5
117
330
1F
100
AcDbEntity
  8
0
  6
SLD-実線
 62
     7
370
    25
100
AcDbLine
 10
587.1109747591
 20
975.5851489789
 30
0.0
 11
586.9108027473
 21
975.4650504498
 31
0.0
  0
SPLINE
  5
118
330
1F
100
AcDbEntity
  8
0
  6
SLD-実線
 62
     7
370
    25
100
AcDbSpline
210
0.0
220
0.0
230
1.0
 70
     8
 71
     3
 72
    10
 73
     6
 74
     0
 42
0.000000001
 43
0.00000001
 40
0.0
 40
0.0
 40
0.0
 40
0.0
 40
0.0786252625642341
 40
0.5290960960039185
 40
1.0
 40
1.0
 40
1.0
 40
1.0
 10
588.0785025879776
 20
980.8309084397896
 30
0.0
 10
588.0780694581712
 20
980.8312923847766
 30
0.0
 10
588.0751547805964
 20
980.8338760809976
 30
0.0
 10
588.0669334120488
 20
980.8344401570765
 30
0.0
 10
588.0587735798586
 20
980.8307283519988
 30
0.0
 10
588.0546031846022
 20
980.8288312916269
 30
0.0
  0
SPLINE
  5
119
330
1F
100
AcDbEntity
  8
0
  6
SLD-実線
 62
     7
370
    25
100
AcDbSpline
210
0.0
220
0.0
230
1.0
 70
     8
 71
     3
 72
     9
 73
     5
 74
     0
 42
0.000000001
 43
0.00000001
 40
0.0
 40
0.0
 40
0.0
 40
0.0
 40
0.554361041321129
 40
1.0
 40
1.0
 40
1.0
 40
1.0
 10
588.0546031846022
 20
980.8288312916269
 30
0.0
 10
588.0232923665568
 20
980.7995430574665
 30
0.0
 10
587.9668114530156
 20
980.7467106396429
 30
0.0
 10
587.9119756464635
 20
980.6895171265644
 30
0.0
 10
587.8875386747334
 20
980.6640294689528
 30
0.0
  0
SPLINE
  5
11A
330
1F
100
AcDbEntity
  8
0
  6
SLD-実線
 62
     7
370
    25
100
AcDbSpline
210
0.0
220
0.0
230
1.0
 70
     8
 71
     3
 72
     9
 73
     5
 74
     0
 42
0.000000001
 43
0.00000001
 40
0.0
 40
0.0
 40
0.0
 40
0.0
 40
0.4697239760656872
 40
1.0
 40
1.0
 40
1.0
 40
1.0
 10
587.8875386747334
 20
980.6640294689528
 30
0.0
 10
587.8077455657985
 20
980.6011966040996
 30
0.0
 10
587.637873230128
 20
980.4674310991333
 30
0.0
 10
587.4654827614379
 20
980.3562063605773
 30
0.0
 10
587.3740682291367
 20
980.2972265484527
 30
0.0
  0
SPLINE
  5
11B
330
1F
100
AcDbEntity
  8
0
  6
SLD-実線
 62
     7
370
    25
100
AcDbSpline
210
0.0
220
0.0
230
1.0
 70
     8
 71
     3
 72
    11
 73
     7
 74
     0
 42
0.000000001
 43
0.00000001
 40
0.0
 40
0.0
 40
0.0
 40
0.0
 40
0.2299882211667642
 40
0.6096581693371963
 40
0.8752050628537509
 40
1.0
 40
1.0
 40
1.0
 40
1.0
 10
587.3740682291367
 20
980.2972265484527
 30
0.0
 10
587.1645230945768
 20
980.1727585665
 30
0.0
 10
586.6090559385581
 20
979.8428159214661
 30
0.0
 10
585.8115494908135
 20
979.3821934757813
 30
0.0
 10
585.1099200725886
 20
978.9755941280868
 30
0.0
 10
584.7542405250479
 20
978.7701763793477
 30
0.0
 10
584.6405273554801
 20
978.7045029284673
 30
0.0
  0
LINE
  5
11C
330
1F
100
AcDbEntity
  8
0
  6
SLD-実線
 62
     7
370
    25
100
AcDbLine
 10
584.6405273555
 20
978.7045029285
 30
0.0
 11
584.1524890756
 21
978.4516263696
 31
0.0
  0
SPLINE
  5
11D
330
1F
100
AcDbEntity
  8
0
  6
SLD-実線
 62
     7
370
    25
100
AcDbSpline
210
0.0
220
0.0
230
1.0
 70
     8
 71
     3
 72
     9
 73
     5
 74
     0
 42
0.000000001
 43
0.00000001
 40
0.0
 40
0.0
 40
0.0
 40
0.0
 40
0.5571647914855414
 40
1.0
 40
1.0
 40
1.0
 40
1.0
 10
584.152489075601
 20
978.4516263696336
 30
0.0
 10
583.9929085045592
 20
978.3652738676809
 30
0.0
 10
583.7064931145693
 20
978.2102882991883
 30
0.0
 10
583.4199438891721
 20
978.0442160146724
 30
0.0
 10
583.2930498031938
 20
977.9706733599303
 30
0.0
  0
SPLINE
  5
11E
330
1F
100
AcDbEntity
  8
0
  6
SLD-実線
 62
     7
370
    25
100
AcDbSpline
210
0.0
220
0.0
230
1.0
 70
     8
 71
     3
 72
    13
 73
     9
 74
     0
 42
0.000000001
 43
0.00000001
 40
0.0
 40
0.0
 40
0.0
 40
0.0
 40
0.3547565676086476
 40
0.6117560390275004
 40
0.7129798701984945
 40
0.8048823203092906
 40
0.8973022810224242
 40
1.0
 40
1.0
 40
1.0
 40
1.0
 10
583.2930498031938
 20
977.9706733599303
 30
0.0
 10
583.264628651368
 20
977.9535934401018
 30
0.0
 10
583.21561811047
 20
977.9241401612758
 30
0.0
 10
583.1587778363655
 20
977.8766229917319
 30
0.0
 10
583.1276153699081
 20
977.8366833745199
 30
0.0
 10
583.1122583355277
 20
977.807643517343
 30
0.0
 10
583.1031935766431
 20
977.7773658025635
 30
0.0
 10
583.1023260205841
 20
977.7587225442405
 30
0.0
 10
583.1018693934426
 20
977.7489099013926
 30
0.0
  0
SPLINE
  5
11F
330
1F
100
AcDbEntity
  8
0
  6
SLD-実線
 62
     7
370
    25
100
AcDbSpline
210
0.0
220
0.0
230
1.0
 70
     8
 71
     3
 72
    10
 73
     6
 74
     0
 42
0.000000001
 43
0.00000001
 40
0.0
 40
0.0
 40
0.0
 40
0.0
 40
0.5019699301304484
 40
0.973765040351883
 40
1.0
 40
1.0
 40
1.0
 40
1.0
 10
583.1018693934426
 20
977.7489099013926
 30
0.0
 10
583.1028416569185
 20
977.740000858386
 30
0.0
 10
583.1047277383867
 20
977.7227183199268
 30
0.0
 10
583.1135191564035
 20
977.7101580745064
 30
0.0
 10
583.1201002582748
 20
977.7083161441365
 30
0.0
 10
583.1204469340128
 20
977.708219115921
 30
0.0
  0
SPLINE
  5
120
330
1F
100
AcDbEntity
  8
0
  6
SLD-実線
 62
     7
370
    25
100
AcDbSpline
210
0.0
220
0.0
230
1.0
 70
     8
 71
     3
 72
     9
 73
     5
 74
     0
 42
0.000000001
 43
0.00000001
 40
0.0
 40
0.0
 40
0.0
 40
0.0
 40
0.2647231151347578
 40
1.0
 40
1.0
 40
1.0
 40
1.0
 10
584.1236160148292
 20
977.1287881950861
 30
0.0
 10
584.1291158414369
 20
976.8958190334073
 30
0.0
 10
584.1498916116406
 20
976.0157706040877
 30
0.0
 10
584.1443130925612
 20
975.1201274550656
 30
0.0
 10
584.1402113364304
 20
974.4615817505018
 30
0.0
  0
LINE
  5
121
330
1F
100
AcDbEntity
  8
0
  6
SLD-実線
 62
     7
370
    25
100
AcDbLine
 10
584.1402113364
 20
974.4615817505
 30
0.0
 11
584.1402113364
 21
972.0381859001
 31
0.0
  0
SPLINE
  5
122
330
1F
100
AcDbEntity
  8
0
  6
SLD-実線
 62
     7
370
    25
100
AcDbSpline
210
0.0
220
0.0
230
1.0
 70
     8
 71
     3
 72
     9
 73
     5
 74
     0
 42
0.000000001
 43
0.00000001
 40
0.0
 40
0.0
 40
0.0
 40
0.0
 40
0.6532500949924662
 40
1.0
 40
1.0
 40
1.0
 40
1.0
 10
590.7184239511987
 20
975.8357072100905
 30
0.0
 10
590.7239167312025
 20
975.1870362347607
 30
0.0
 10
590.7323251188106
 20
974.1940459844689
 30
0.0
 10
590.6773973189679
 20
973.1667378598769
 30
0.0
 10
590.6583511095902
 20
972.810518865261
 30
0.0
  0
SPLINE
  5
123
330
1F
100
AcDbEntity
  8
0
  6
SLD-実線
 62
     7
370
    25
100
AcDbSpline
210
0.0
220
0.0
230
1.0
 70
     8
 71
     3
 72
    10
 73
     6
 74
     0
 42
0.000000001
 43
0.00000001
 40
0.0
 40
0.0
 40
0.0
 40
0.0
 40
0.6271194745454772
 40
0.8138605888827579
 40
1.0
 40
1.0
 40
1.0
 40
1.0
 10
590.6583511095902
 20
972.810518865261
 30
0.0
 10
590.6389621952683
 20
972.6072353733833
 30
0.0
 10
590.6137997280379
 20
972.3434189410688
 30
0.0
 10
590.4565644685686
 20
971.991862478104
 30
0.0
 10
590.3612695383831
 20
971.899941066821
 30
0.0
 10
590.3136989602051
 20
971.8540545262344
 30
0.0
  0
SPLINE
  5
124
330
1F
100
AcDbEntity
  8
0
  6
SLD-実線
 62
     7
370
    25
100
AcDbSpline
210
0.0
220
0.0
230
1.0
 70
     8
 71
     3
 72
     9
 73
     5
 74
     0
 42
0.000000001
 43
0.00000001
 40
0.0
 40
0.0
 40
0.0
 40
0.0
 40
0.5666046011751232
 40
1.0
 40
1.0
 40
1.0
 40
1.0
 10
590.3136989602051
 20
971.8540545262344
 30
0.0
 10
590.2466555804833
 20
971.799212963424
 30
0.0
 10
590.1283307741144
 20
971.7024231338029
 30
0.0
 10
590.0077237477128
 20
971.6247161662172
 30
0.0
 10
589.9554532174045
 20
971.591038324009
 30
0.0
  0
SPLINE
  5
125
330
1F
100
AcDbEntity
  8
0
  6
SLD-実線
 62
     7
370
    25
100
AcDbSpline
210
0.0
220
0.0
230
1.0
 70
     8
 71
     3
 72
    13
 73
     9
 74
     0
 42
0.000000001
 43
0.00000001
 40
0.0
 40
0.0
 40
0.0
 40
0.0
 40
0.2036408106115526
 40
0.3730046930301126
 40
0.516439104584765
 40
0.6425579671029804
 40
0.82331176494692
 40
1.0
 40
1.0
 40
1.0
 40
1.0
 10
589.9554532174045
 20
971.591038324009
 30
0.0
 10
589.9462691815922
 20
971.5853596129804
 30
0.0
 10
589.9294469716991
 20
971.5749580345456
 30
0.0
 10
589.906703962671
 20
971.5553089730128
 30
0.0
 10
589.8887647896303
 20
971.5348611851002
 30
0.0
 10
589.8732684998866
 20
971.5105040712444
 30
0.0
 10
589.8618348557444
 20
971.4813891115454
 30
0.0
 10
589.860514739793
 20
971.4619272624298
 30
0.0
 10
589.8598621893483
 20
971.4523070178736
 30
0.0
  0
SPLINE
  5
126
330
1F
100
AcDbEntity
  8
0
  6
SLD-実線
 62
     7
370
    25
100
AcDbSpline
210
0.0
220
0.0
230
1.0
 70
     8
 71
     3
 72
    10
 73
     6
 74
     0
 42
0.000000001
 43
0.00000001
 40
0.0
 40
0.0
 40
0.0
 40
0.0
 40
0.3147864150930192
 40
0.6100723291183298
 40
1.0
 40
1.0
 40
1.0
 40
1.0
 10
597.6145416857784
 20
984.6660746874808
 30
0.0
 10
597.1894197438446
 20
984.8108833386237
 30
0.0
 10
596.3655114655977
 20
985.0915299829627
 30
0.0
 10
594.6596255454147
 20
984.5327986656282
 30
0.0
 10
593.4945188096725
 20
983.8599796629346
 30
0.0
 10
592.8315031225885
 20
983.4771052535184
 30
0.0
  0
SPLINE
  5
127
330
1F
100
AcDbEntity
  8
0
  6
SLD-実線
 62
     7
370
    25
100
AcDbSpline
210
0.0
220
0.0
230
1.0
 70
     8
 71
     3
 72
     9
 73
     5
 74
     0
 42
0.000000001
 43
0.00000001
 40
0.0
 40
0.0
 40
0.0
 40
0.0
 40
0.6975897906302383
 40
1.0
 40
1.0
 40
1.0
 40
1.0
 10
592.8315031225885
 20
983.4771052535184
 30
0.0
 10
592.4569200965859
 20
983.2540351408321
 30
0.0
 10
591.9199526251094
 20
982.9342625241991
 30
0.0
 10
591.3832399149272
 20
982.6033586697121
 30
0.0
 10
591.2209325118696
 20
982.5032899657954
 30
0.0
  0
SPLINE
  5
128
330
1F
100
AcDbEntity
  8
0
  6
SLD-実線
 62
     7
370
    25
100
AcDbSpline
210
0.0
220
0.0
230
1.0
 70
     8
 71
     3
 72
    10
 73
     6
 74
     0
 42
0.000000001
 43
0.00000001
 40
0.0
 40
0.0
 40
0.0
 40
0.0
 40
0.1726862195096515
 40
0.4395159151013147
 40
0.9999999999999999
 40
0.9999999999999999
 40
0.9999999999999999
 40
0.9999999999999999
 10
591.2209325118696
 20
982.5032899657954
 30
0.0
 10
591.1433402804114
 20
982.4618810692581
 30
0.0
 10
590.9458548023521
 20
982.3564883569352
 30
0.0
 10
590.4965744121225
 20
982.1185949906933
 30
0.0
 10
590.1245892132076
 20
981.9101623541824
 30
0.0
 10
589.8725786837974
 20
981.7689545340146
 30
0.0
  0
SPLINE
  5
129
330
1F
100
AcDbEntity
  8
0
  6
SLD-実線
 62
     7
370
    25
100
AcDbSpline
210
0.0
220
0.0
230
1.0
 70
     8
 71
     3
 72
    13
 73
     9
 74
     0
 42
0.000000001
 43
0.00000001
 40
0.0
 40
0.0
 40
0.0
 40
0.0
 40
0.3542981920530518
 40
0.6117572425702283
 40
0.7132489290084789
 40
0.8052686910096788
 40
0.8975815037808677
 40
1.0
 40
1.0
 40
1.0
 40
1.0
 10
589.8725786837974
 20
981.7689545340146
 30
0.0
 10
589.8441108589305
 20
981.7518427297261
 30
0.0
 10
589.7949562246899
 20
981.7222962334648
 30
0.0
 10
589.7379361963012
 20
981.6746749607404
 30
0.0
 10
589.7065630805129
 20
981.6346396856198
 30
0.0
 10
589.6910560386332
 20
981.6055314267744
 30
0.0
 10
589.6818675865554
 20
981.575174853789
 30
0.0
 10
589.6809849724192
 20
981.5565042576671
 30
0.0
 10
589.6805207634893
 20
981.5466844994154
 30
0.0
  0
SPLINE
  5
12A
330
1F
100
AcDbEntity
  8
0
  6
SLD-実線
 62
     7
370
    25
100
AcDbSpline
210
0.0
220
0.0
230
1.0
 70
     8
 71
     3
 72
    10
 73
     6
 74
     0
 42
0.000000001
 43
0.00000001
 40
0.0
 40
0.0
 40
0.0
 40
0.0
 40
0.5019806556126066
 40
0.9740843325970079
 40
1.0
 40
1.0
 40
1.0
 40
1.0
 10
589.6805207634893
 20
981.5466844994154
 30
0.0
 10
589.6815022366469
 20
981.5377775316645
 30
0.0
 10
589.683406767459
 20
981.5204937227367
 30
0.0
 10
589.6922357441184
 20
981.5079870464967
 30
0.0
 10
589.6988120652212
 20
981.5061320628108
 30
0.0
 10
589.6991542803427
 20
981.5060355341504
 30
0.0
  0
SPLINE
  5
12B
330
1F
100
AcDbEntity
  8
0
  6
SLD-実線
 62
     7
370
    25
100
AcDbSpline
210
0.0
220
0.0
230
1.0
 70
     8
 71
     3
 72
     9
 73
     5
 74
     0
 42
0.000000001
 43
0.00000001
 40
0.0
 40
0.0
 40
0.0
 40
0.0
 40
0.2651002859568181
 40
0.9999999999999999
 40
0.9999999999999999
 40
0.9999999999999999
 40
0.9999999999999999
 10
590.7011610301025
 20
980.9272817719984
 30
0.0
 10
590.7068845542797
 20
980.6939899237685
 30
0.0
 10
590.7284745882414
 20
979.813976356873
 30
0.0
 10
590.7226813790078
 20
978.9177439788322
 30
0.0
 10
590.7184239511987
 20
978.2591030604935
 30
0.0
  0
LINE
  5
12C
330
1F
100
AcDbEntity
  8
0
  6
SLD-実線
 62
     7
370
    25
100
AcDbLine
 10
590.7184239512
 20
978.2591030605
 30
0.0
 11
590.7184239512
 21
975.8357072101
 31
0.0
  0
SPLINE
  5
12D
330
1F
100
AcDbEntity
  8
0
  6
SLD-実線
 62
     7
370
    25
100
AcDbSpline
210
0.0
220
0.0
230
1.0
 70
     8
 71
     3
 72
    10
 73
     6
 74
     0
 42
0.000000001
 43
0.00000001
 40
0.0
 40
0.0
 40
0.0
 40
0.0
 40
0.3736792125289775
 40
0.6564318726496348
 40
1.0
 40
1.0
 40
1.0
 40
1.0
 10
605.0429853071626
 20
984.5172701607132
 30
0.0
 10
605.0587447497522
 20
984.0391148911729
 30
0.0
 10
605.086428923943
 20
983.1991528368818
 30
0.0
 10
605.3733521927742
 20
982.0725762932109
 30
0.0
 10
605.830254717509
 20
981.6976461564356
 30
0.0
 10
606.0808884948718
 20
981.4919783140839
 30
0.0
  0
SPLINE
  5
12E
330
1F
100
AcDbEntity
  8
0
  6
SLD-実線
 62
     7
370
    25
100
AcDbSpline
210
0.0
220
0.0
230
1.0
 70
     8
 71
     3
 72
    11
 73
     7
 74
     0
 42
0.000000001
 43
0.00000001
 40
0.0
 40
0.0
 40
0.0
 40
0.0
 40
0.032941502021509
 40
0.1704257620521404
 40
0.5189933403283785
 40
0.9999999999999999
 40
0.9999999999999999
 40
0.9999999999999999
 40
0.9999999999999999
 10
612.9309408739097
 20
995.0350822103713
 30
0.0
 10
612.9297120090234
 20
995.0361073365372
 30
0.0
 10
612.9233543683015
 20
995.041410917044
 30
0.0
 10
612.8957054648487
 20
995.0426158927507
 30
0.0
 10
612.8402809856648
 20
995.0264606493276
 30
0.0
 10
612.7913784117421
 20
994.999157871639
 30
0.0
 10
612.763023548903
 20
994.9833270788116
 30
0.0
  0
SPLINE
  5
12F
330
1F
100
AcDbEntity
  8
0
  6
SLD-実線
 62
     7
370
    25
100
AcDbSpline
210
0.0
220
0.0
230
1.0
 70
     8
 71
     3
 72
     9
 73
     5
 74
     0
 42
0.000000001
 43
0.00000001
 40
0.0
 40
0.0
 40
0.0
 40
0.0
 40
0.6709875484155688
 40
1.0
 40
1.0
 40
1.0
 40
1.0
 10
612.763023548903
 20
994.9833270788116
 30
0.0
 10
612.5385467072743
 20
994.8463010481015
 30
0.0
 10
612.203999751584
 20
994.6420855883156
 30
0.0
 10
611.8697371752174
 20
994.4299111037564
 30
0.0
 10
611.7597606254942
 20
994.360103056428
 30
0.0
  0
SPLINE
  5
130
330
1F
100
AcDbEntity
  8
0
  6
SLD-実線
 62
     7
370
    25
100
AcDbSpline
210
0.0
220
0.0
230
1.0
 70
     8
 71
     3
 72
    10
 73
     6
 74
     0
 42
0.000000001
 43
0.00000001
 40
0.0
 40
0.0
 40
0.0
 40
0.0
 40
0.1721586245576831
 40
0.4321003118444765
 40
1.0
 40
1.0
 40
1.0
 40
1.0
 10
611.7597606254942
 20
994.360103056428
 30
0.0
 10
611.6871872706713
 20
994.3215722288363
 30
0.0
 10
611.5050356687337
 20
994.2248638434112
 30
0.0
 10
611.0835628687021
 20
994.0037939695754
 30
0.0
 10
610.7343084315131
 20
993.8081055203895
 30
0.0
 10
610.4947196747172
 20
993.6738631249682
 30
0.0
  0
SPLINE
  5
131
330
1F
100
AcDbEntity
  8
0
  6
SLD-実線
 62
     7
370
    25
100
AcDbSpline
210
0.0
220
0.0
230
1.0
 70
     8
 71
     3
 72
    13
 73
     9
 74
     0
 42
0.000000001
 43
0.00000001
 40
0.0
 40
0.0
 40
0.0
 40
0.0
 40
0.3534259835670927
 40
0.6107350134326038
 40
0.7123604507611995
 40
0.8046103417748763
 40
0.8972257833108618
 40
1.0
 40
1.0
 40
1.0
 40
1.0
 10
610.4947196747172
 20
993.6738631249682
 30
0.0
 10
610.4664197858417
 20
993.6568469434304
 30
0.0
 10
610.4175163836695
 20
993.627442263686
 30
0.0
 10
610.3607769544335
 20
993.5799656338901
 30
0.0
 10
610.3295263900662
 20
993.5400122453361
 30
0.0
 10
610.3140602014599
 20
993.5109291674453
 30
0.0
 10
610.3048853295517
 20
993.4805874233053
 30
0.0
 10
610.3040027010293
 20
993.4619188105081
 30
0.0
 10
610.3035384417853
 20
993.4520991912186
 30
0.0
  0
SPLINE
  5
132
330
1F
100
AcDbEntity
  8
0
  6
SLD-実線
 62
     7
370
    25
100
AcDbSpline
210
0.0
220
0.0
230
1.0
 70
     8
 71
     3
 72
    10
 73
     6
 74
     0
 42
0.000000001
 43
0.00000001
 40
0.0
 40
0.0
 40
0.0
 40
0.0
 40
0.5019739766432619
 40
0.9740713721784662
 40
1.0
 40
1.0
 40
1.0
 40
1.0
 10
610.3035384417852
 20
993.4520991912186
 30
0.0
 10
610.3045201758752
 20
993.4431927735491
 30
0.0
 10
610.3064252130215
 20
993.4259100320437
 30
0.0
 10
610.3152518009077
 20
993.413397905883
 30
0.0
 10
610.321830287411
 20
993.4115470613111
 30
0.0
 10
610.3221727818194
 20
993.4114507011656
 30
0.0
  0
SPLINE
  5
133
330
1F
100
AcDbEntity
  8
0
  6
SLD-実線
 62
     7
370
    25
100
AcDbSpline
210
0.0
220
0.0
230
1.0
 70
     8
 71
     3
 72
     9
 73
     5
 74
     0
 42
0.000000001
 43
0.00000001
 40
0.0
 40
0.0
 40
0.0
 40
0.0
 40
0.2649212733660977
 40
1.0
 40
1.0
 40
1.0
 40
1.0
 10
611.3247508189398
 20
992.8323665593397
 30
0.0
 10
611.3305743273586
 20
992.5993528329055
 30
0.0
 10
611.3525563612841
 20
991.7197944513773
 30
0.0
 10
611.3466562133108
 20
990.8237140031805
 30
0.0
 10
611.3423191400516
 20
990.1650243283585
 30
0.0
  0
LINE
  5
134
330
1F
100
AcDbEntity
  8
0
  6
SLD-実線
 62
     7
370
    25
100
AcDbLine
 10
611.3423191401
 20
990.1650243284
 30
0.0
 11
611.3423191401
 21
988.4434309252
 31
0.0
  0
SPLINE
  5
135
330
1F
100
AcDbEntity
  8
0
  6
SLD-実線
 62
     7
370
    25
100
AcDbSpline
210
0.0
220
0.0
230
1.0
 70
     8
 71
     3
 72
     9
 73
     5
 74
     0
 42
0.000000001
 43
0.00000001
 40
0.0
 40
0.0
 40
0.0
 40
0.0
 40
0.6073708707387455
 40
1.0
 40
1.0
 40
1.0
 40
1.0
 10
611.3423191400516
 20
988.4434309252446
 30
0.0
 10
611.3440104818568
 20
987.7155690398523
 30
0.0
 10
611.3467951755039
 20
986.517187753461
 30
0.0
 10
610.8460956601501
 20
985.1890875150971
 30
0.0
 10
610.6495064454153
 20
984.6676366749366
 30
0.0
  0
SPLINE
  5
136
330
1F
100
AcDbEntity
  8
0
  6
SLD-実線
 62
     7
370
    25
100
AcDbSpline
210
0.0
220
0.0
230
1.0
 70
     8
 71
     3
 72
    10
 73
     6
 74
     0
 42
0.000000001
 43
0.00000001
 40
0.0
 40
0.0
 40
0.0
 40
0.0
 40
0.270733549502294
 40
0.5514212784588222
 40
1.0
 40
1.0
 40
1.0
 40
1.0
 10
610.6495064454153
 20
984.6676366749366
 30
0.0
 10
610.5149425785032
 20
984.4326785259564
 30
0.0
 10
610.2408672758177
 20
983.9541234184225
 30
0.0
 10
609.6095313383255
 20
983.1900144993666
 30
0.0
 10
609.0938933120366
 20
982.8213358723232
 30
0.0
 10
608.7767194636401
 20
982.5945581464784
 30
0.0
  0
LINE
  5
137
330
1F
100
AcDbEntity
  8
0
  6
SLD-実線
 62
     7
370
    25
100
AcDbLine
 10
608.7767194636
 20
982.5945581465
 30
0.0
 11
608.0439240624
 21
982.3013534424
 31
0.0
  0
SPLINE
  5
138
330
1F
100
AcDbEntity
  8
0
  6
SLD-実線
 62
     7
370
    25
100
AcDbSpline
210
0.0
220
0.0
230
1.0
 70
     8
 71
     3
 72
    11
 73
     7
 74
     0
 42
0.000000001
 43
0.00000001
 40
0.0
 40
0.0
 40
0.0
 40
0.0
 40
0.0333250302216449
 40
0.170409453819761
 40
0.5186053993216571
 40
0.9999999999999999
 40
0.9999999999999999
 40
0.9999999999999999
 40
0.9999999999999999
 10
606.9175248405096
 20
991.5635307027385
 30
0.0
 10
606.9162738855393
 20
991.5645711460011
 30
0.0
 10
606.9098770555343
 20
991.569891512313
 30
0.0
 10
606.8820890720749
 20
991.5710501194586
 30
0.0
 10
606.8263840264726
 20
991.554717520735
 30
0.0
 10
606.7772305477598
 20
991.5272660316842
 30
0.0
 10
606.7487077790689
 20
991.5113364882841
 30
0.0
  0
SPLINE
  5
139
330
1F
100
AcDbEntity
  8
0
  6
SLD-実線
 62
     7
370
    25
100
AcDbSpline
210
0.0
220
0.0
230
1.0
 70
     8
 71
     3
 72
     9
 73
     5
 74
     0
 42
0.000000001
 43
0.00000001
 40
0.0
 40
0.0
 40
0.0
 40
0.0
 40
0.6496584740247551
 40
0.9999999999999999
 40
0.9999999999999999
 40
0.9999999999999999
 40
0.9999999999999999
 10
606.7487077790689
 20
991.5113364882841
 30
0.0
 10
606.4926567258764
 20
991.3556820484971
 30
0.0
 10
606.0985249421312
 20
991.1160877908826
 30
0.0
 10
605.7045620866761
 20
990.8707760809043
 30
0.0
 10
605.5665405387183
 20
990.7848332020909
 30
0.0
  0
SPLINE
  5
13A
330
1F
100
AcDbEntity
  8
0
  6
SLD-実線
 62
     7
370
    25
100
AcDbSpline
210
0.0
220
0.0
230
1.0
 70
     8
 71
     3
 72
     9
 73
     5
 74
     0
 42
0.000000001
 43
0.00000001
 40
0.0
 40
0.0
 40
0.0
 40
0.0
 40
0.4534665658361386
 40
0.9999999999999999
 40
0.9999999999999999
 40
0.9999999999999999
 40
0.9999999999999999
 10
605.5665405387183
 20
990.7848332020909
 30
0.0
 10
605.3593527391057
 20
990.6747125316282
 30
0.0
 10
604.9024551082283
 20
990.4318706580282
 30
0.0
 10
604.4452586051518
 20
990.1767608893016
 30
0.0
 10
604.1953854302378
 20
990.0373348713106
 30
0.0
  0
SPLINE
  5
13B
330
1F
100
AcDbEntity
  8
0
  6
SLD-実線
 62
     7
370
    25
100
AcDbSpline
210
0.0
220
0.0
230
1.0
 70
     8
 71
     3
 72
    13
 73
     9
 74
     0
 42
0.000000001
 43
0.00000001
 40
0.0
 40
0.0
 40
0.0
 40
0.0
 40
0.3556259687509894
 40
0.6127718799137404
 40
0.7138647278830219
 40
0.8055381553098682
 40
0.8976569860638001
 40
1.0
 40
1.0
 40
1.0
 40
1.0
 10
604.1953854302378
 20
990.0373348713106
 30
0.0
 10
604.1667961672431
 20
990.0201592940699
 30
0.0
 10
604.1175345891526
 20
989.9905644059596
 30
0.0
 10
604.0604143041303
 20
989.9429022018851
 30
0.0
 10
604.0291290985332
 20
989.9028814006136
 30
0.0
 10
604.0137311818602
 20
989.8738159904035
 30
0.0
 10
604.0046525011774
 20
989.8435234070703
 30
0.0
 10
604.0037843878878
 20
989.8248778022953
 30
0.0
 10
604.0033275099298
 20
989.8150648367114
 30
0.0
  0
SPLINE
  5
13C
330
1F
100
AcDbEntity
  8
0
  6
SLD-実線
 62
     7
370
    25
100
AcDbSpline
210
0.0
220
0.0
230
1.0
 70
     8
 71
     3
 72
    10
 73
     6
 74
     0
 42
0.000000001
 43
0.00000001
 40
0.0
 40
0.0
 40
0.0
 40
0.0
 40
0.5013212817755115
 40
0.9722859014420063
 40
1.0
 40
1.0
 40
1.0
 40
1.0
 10
604.0033275099298
 20
989.8150648367114
 30
0.0
 10
604.0042994807227
 20
989.8061552768567
 30
0.0
 10
604.0061845662615
 20
989.7888756604716
 30
0.0
 10
604.0149790599913
 20
989.7762974363048
 30
0.0
 10
604.0215743265384
 20
989.7744444693099
 30
0.0
 10
604.0219408588575
 20
989.7743414905622
 30
0.0
  0
SPLINE
  5
13D
330
1F
100
AcDbEntity
  8
0
  6
SLD-実線
 62
     7
370
    25
100
AcDbSpline
210
0.0
220
0.0
230
1.0
 70
     8
 71
     3
 72
     9
 73
     5
 74
     0
 42
0.000000001
 43
0.00000001
 40
0.0
 40
0.0
 40
0.0
 40
0.0
 40
0.2650303162510592
 40
1.0
 40
1.0
 40
1.0
 40
1.0
 10
605.0241303547184
 20
989.1954589078605
 30
0.0
 10
605.0303808793848
 20
988.9625721650654
 30
0.0
 10
605.0539650668652
 20
988.083854793825
 30
0.0
 10
605.0476365645256
 20
987.1873789094986
 30
0.0
 10
605.0429853071626
 20
986.528496312307
 30
0.0
  0
LINE
  5
13E
330
1F
100
AcDbEntity
  8
0
  6
SLD-実線
 62
     7
370
    25
100
AcDbLine
 10
605.0429853072
 20
986.5284963123
 30
0.0
 11
605.0429853072
 21
984.5172701607
 31
0.0
  0
LINE
  5
13F
330
1F
100
AcDbEntity
  8
0
  6
SLD-実線
 62
     7
370
    25
100
AcDbLine
 10
578.4076225535
 20
973.1093556263
 30
0.0
 11
576.6398553107
 21
974.1298659333
 31
0.0
  0
SPLINE
  5
140
330
1F
100
AcDbEntity
  8
0
  6
SLD-実線
 62
     7
370
    25
100
AcDbSpline
210
0.0
220
0.0
230
1.0
 70
     8
 71
     3
 72
    13
 73
     9
 74
     0
 42
0.000000001
 43
0.00000001
 40
0.0
 40
0.0
 40
0.0
 40
0.0
 40
0.3556546713951426
 40
0.6122596595136062
 40
0.7131515097297351
 40
0.8048203908799432
 40
0.8972000824602341
 40
1.0
 40
1.0
 40
1.0
 40
1.0
 10
578.4076225534726
 20
973.1093556262721
 30
0.0
 10
578.3791637521573
 20
973.0922598443686
 30
0.0
 10
578.3301719142739
 20
973.0628294489618
 30
0.0
 10
578.2733719438761
 20
973.0153428076724
 30
0.0
 10
578.2423583839416
 20
972.9754591914573
 30
0.0
 10
578.2271325808101
 20
972.9464746456396
 30
0.0
 10
578.2181821601123
 20
972.9162684990339
 30
0.0
 10
578.2173292817075
 20
972.8976508064394
 30
0.0
 10
578.2168800758192
 20
972.8878449805535
 30
0.0
  0
LINE
  5
141
330
1F
100
AcDbEntity
  8
0
  6
SLD-実線
 62
     7
370
    25
100
AcDbLine
 10
578.2168800758
 20
972.8878449806
 30
0.0
 11
576.4491128331
 21
973.9083552876
 31
0.0
  0
SPLINE
  5
142
330
1F
100
AcDbEntity
  8
0
  6
SLD-実線
 62
     7
370
    25
100
AcDbSpline
210
0.0
220
0.0
230
1.0
 70
     8
 71
     3
 72
    10
 73
     6
 74
     0
 42
0.000000001
 43
0.00000001
 40
0.0
 40
0.0
 40
0.0
 40
0.0
 40
0.7205601889513397
 40
0.8753613220419385
 40
1.0
 40
1.0
 40
1.0
 40
1.0
 10
581.9519304981321
 20
965.2334930191772
 30
0.0
 10
581.5921472408102
 20
965.0216257917481
 30
0.0
 10
581.1550701546668
 20
964.7642421905675
 30
0.0
 10
580.6739131669652
 20
964.662920086403
 30
0.0
 10
580.5670497860064
 20
964.7051492165748
 30
0.0
 10
580.5193854590271
 20
964.7239846965164
 30
0.0
  0
SPLINE
  5
143
330
1F
100
AcDbEntity
  8
0
  6
SLD-実線
 62
     7
370
    25
100
AcDbSpline
210
0.0
220
0.0
230
1.0
 70
     8
 71
     3
 72
    10
 73
     6
 74
     0
 42
0.000000001
 43
0.00000001
 40
0.0
 40
0.0
 40
0.0
 40
0.0
 40
0.2391752209479253
 40
0.5021111997932239
 40
1.0
 40
1.0
 40
1.0
 40
1.0
 10
583.3949974321133
 20
966.4792339474475
 30
0.0
 10
583.3019867811171
 20
966.3307986839415
 30
0.0
 10
583.1067253766113
 20
966.0191819204857
 30
0.0
 10
582.5911113531276
 20
965.6041109817119
 30
0.0
 10
582.2047608435362
 20
965.3800923216255
 30
0.0
 10
581.9519304981321
 20
965.2334930191772
 30
0.0
  0
SPLINE
  5
144
330
1F
100
AcDbEntity
  8
0
  6
SLD-実線
 62
     7
370
    25
100
AcDbSpline
210
0.0
220
0.0
230
1.0
 70
     8
 71
     3
 72
     9
 73
     5
 74
     0
 42
0.000000001
 43
0.00000001
 40
0.0
 40
0.0
 40
0.0
 40
0.0
 40
0.555838370066193
 40
1.0
 40
1.0
 40
1.0
 40
1.0
 10
583.7058864161644
 20
967.4850711807634
 30
0.0
 10
583.6712051392941
 20
967.3000177201665
 30
0.0
 10
583.6088106038717
 20
966.967090972819
 30
0.0
 10
583.4607571122634
 20
966.6292776593647
 30
0.0
 10
583.3949974321133
 20
966.4792339474475
 30
0.0
  0
SPLINE
  5
145
330
1F
100
AcDbEntity
  8
0
  6
SLD-実線
 62
     7
370
    25
100
AcDbSpline
210
0.0
220
0.0
230
1.0
 70
     8
 71
     3
 72
    10
 73
     6
 74
     0
 42
0.000000001
 43
0.00000001
 40
0.0
 40
0.0
 40
0.0
 40
0.0
 40
0.2239732313417811
 40
0.4329573960383626
 40
1.0
 40
1.0
 40
1.0
 40
1.0
 10
583.8128768496538
 20
967.7255774930119
 30
0.0
 10
583.7969401263795
 20
967.7144042956644
 30
0.0
 10
583.7661332207107
 20
967.6928056501474
 30
0.0
 10
583.7169308788772
 20
967.600839726184
 30
0.0
 10
583.7105493777534
 20
967.5339485498631
 30
0.0
 10
583.7058864161644
 20
967.4850711807634
 30
0.0
  0
SPLINE
  5
146
330
1F
100
AcDbEntity
  8
0
  6
SLD-実線
 62
     7
370
    25
100
AcDbSpline
210
0.0
220
0.0
230
1.0
 70
     8
 71
     3
 72
    13
 73
     9
 74
     0
 42
0.000000001
 43
0.00000001
 40
0.0
 40
0.0
 40
0.0
 40
0.0
 40
0.3863534883808674
 40
0.6468885153910373
 40
0.7414872325818449
 40
0.8234199430189376
 40
0.9055226988793824
 40
1.0
 40
1.0
 40
1.0
 40
1.0
 10
583.8847899099254
 20
967.5615134715748
 30
0.0
 10
583.8845332586927
 20
967.5933209064929
 30
0.0
 10
583.8841035363273
 20
967.6465774836207
 30
0.0
 10
583.8769274504473
 20
967.7041693424479
 30
0.0
 10
583.863263525856
 20
967.7293631006651
 30
0.0
 10
583.8499250984725
 20
967.7372425684093
 30
0.0
 10
583.8324180204132
 20
967.7357693078397
 30
0.0
 10
583.8196879433906
 20
967.7291298598069
 30
0.0
 10
583.8128768496538
 20
967.7255774930119
 30
0.0
  0
SPLINE
  5
147
330
1F
100
AcDbEntity
  8
0
  6
SLD-実線
 62
     7
370
    25
100
AcDbSpline
210
0.0
220
0.0
230
1.0
 70
     8
 71
     3
 72
     9
 73
     5
 74
     0
 42
0.000000001
 43
0.00000001
 40
0.0
 40
0.0
 40
0.0
 40
0.0
 40
0.6406355012376195
 40
1.0
 40
1.0
 40
1.0
 40
1.0
 10
583.7058864161644
 20
966.0804536823164
 30
0.0
 10
583.7579310901579
 20
966.4025034725539
 30
0.0
 10
583.8391702251932
 20
966.9052070998354
 30
0.0
 10
583.8727297927513
 20
967.3880109190737
 30
0.0
 10
583.8847899099254
 20
967.5615134715748
 30
0.0
  0
SPLINE
  5
148
330
1F
100
AcDbEntity
  8
0
  6
SLD-実線
 62
     7
370
    25
100
AcDbSpline
210
0.0
220
0.0
230
1.0
 70
     8
 71
     3
 72
    12
 73
     8
 74
     0
 42
0.000000001
 43
0.00000001
 40
0.0
 40
0.0
 40
0.0
 40
0.0
 40
0.4818518630198694
 40
0.5965139330710415
 40
0.6852778855233299
 40
0.8240464723195361
 40
1.0
 40
1.0
 40
1.0
 40
1.0
 10
582.9543159109841
 20
965.2728940777761
 30
0.0
 10
583.1014571525823
 20
965.3562708384214
 30
0.0
 10
583.2836123074729
 20
965.4594880369764
 30
0.0
 10
583.488400995304
 20
965.623904649665
 30
0.0
 10
583.5858573489378
 20
965.7279200322033
 30
0.0
 10
583.664988397947
 20
965.8906797963263
 30
0.0
 10
583.6912206166785
 20
966.0124018333297
 30
0.0
 10
583.7058864161644
 20
966.0804536823164
 30
0.0
  0
SPLINE
  5
149
330
1F
100
AcDbEntity
  8
0
  6
SLD-実線
 62
     7
370
    25
100
AcDbSpline
210
0.0
220
0.0
230
1.0
 70
     8
 71
     3
 72
     9
 73
     5
 74
     0
 42
0.000000001
 43
0.00000001
 40
0.0
 40
0.0
 40
0.0
 40
0.0
 40
0.4923553993917502
 40
1.0
 40
1.0
 40
1.0
 40
1.0
 10
580.9732230530647
 20
964.1712609713704
 30
0.0
 10
581.2982933055889
 20
964.3480437425255
 30
0.0
 10
581.9585282759493
 20
964.7070989521843
 30
0.0
 10
582.6190205661302
 20
965.0823831042738
 30
0.0
 10
582.9543159109841
 20
965.2728940777761
 30
0.0
  0
SPLINE
  5
14A
330
1F
100
AcDbEntity
  8
0
  6
SLD-実線
 62
     7
370
    25
100
AcDbSpline
210
0.0
220
0.0
230
1.0
 70
     8
 71
     3
 72
     9
 73
     5
 74
     0
 42
0.000000001
 43
0.00000001
 40
0.0
 40
0.0
 40
0.0
 40
0.0
 40
0.511241068623197
 40
1.0
 40
1.0
 40
1.0
 40
1.0
 10
579.7564155484137
 20
963.509320908019
 30
0.0
 10
579.9638884946419
 20
963.6266438184182
 30
0.0
 10
580.3697106379742
 20
963.8561302928034
 30
0.0
 10
580.7750901808747
 20
964.0678037020608
 30
0.0
 10
580.9732230530647
 20
964.1712609713704
 30
0.0
  0
SPLINE
  5
14B
330
1F
100
AcDbEntity
  8
0
  6
SLD-実線
 62
     7
370
    25
100
AcDbSpline
210
0.0
220
0.0
230
1.0
 70
     8
 71
     3
 72
     9
 73
     5
 74
     0
 42
0.000000001
 43
0.00000001
 40
0.0
 40
0.0
 40
0.0
 40
0.0
 40
0.7078094510130583
 40
1.0
 40
1.0
 40
1.0
 40
1.0
 10
579.2666230706014
 20
963.2149237152167
 30
0.0
 10
579.3822032365695
 20
963.2833794026535
 30
0.0
 10
579.5454960066824
 20
963.3800942562614
 30
0.0
 10
579.7087223527476
 20
963.4801001353162
 30
0.0
 10
579.7564155484137
 20
963.509320908019
 30
0.0
  0
SPLINE
  5
14C
330
1F
100
AcDbEntity
  8
0
  6
SLD-実線
 62
     7
370
    25
100
AcDbSpline
210
0.0
220
0.0
230
1.0
 70
     8
 71
     3
 72
     9
 73
     5
 74
     0
 42
0.000000001
 43
0.00000001
 40
0.0
 40
0.0
 40
0.0
 40
0.0
 40
0.5297580606782825
 40
0.9999999999999999
 40
0.9999999999999999
 40
0.9999999999999999
 40
0.9999999999999999
 10
578.5860881151359
 20
962.7931973046141
 30
0.0
 10
578.7063381124888
 20
962.8653354866478
 30
0.0
 10
578.9333285186357
 20
963.0015074251011
 30
0.0
 10
579.1600221960855
 20
963.1466646841941
 30
0.0
 10
579.2666230706014
 20
963.2149237152167
 30
0.0
  0
SPLINE
  5
14D
330
1F
100
AcDbEntity
  8
0
  6
SLD-実線
 62
     7
370
    25
100
AcDbSpline
210
0.0
220
0.0
230
1.0
 70
     8
 71
     3
 72
    13
 73
     9
 74
     0
 42
0.000000001
 43
0.00000001
 40
0.0
 40
0.0
 40
0.0
 40
0.0
 40
0.10208250950227
 40
0.1939228125763001
 40
0.2853392746183647
 40
0.3862517903639207
 40
0.643472670584815
 40
1.0
 40
1.0
 40
1.0
 40
1.0
 10
578.3957835695803
 20
962.793214686193
 30
0.0
 10
578.3962336671199
 20
962.7840454770326
 30
0.0
 10
578.3970887027301
 20
962.7666270295615
 30
0.0
 10
578.4060470796389
 20
962.7470644808101
 30
0.0
 10
578.4212694356578
 20
962.735942706619
 30
0.0
 10
578.4522469368179
 20
962.7321620271215
 30
0.0
 10
578.5088734972691
 20
962.7504115032509
 30
0.0
 10
578.5577156370182
 20
962.7774756803095
 30
0.0
 10
578.5860881151359
 20
962.7931973046141
 30
0.0
  0
SPLINE
  5
14E
330
1F
100
AcDbEntity
  8
0
  6
SLD-実線
 62
     7
370
    25
100
AcDbSpline
210
0.0
220
0.0
230
1.0
 70
     8
 71
     3
 72
    12
 73
     8
 74
     0
 42
0.000000001
 43
0.00000001
 40
0.0
 40
0.0
 40
0.0
 40
0.0
 40
0.2610416528453584
 40
0.4677484957486121
 40
0.6397221593954207
 40
0.8219361340370777
 40
1.0
 40
1.0
 40
1.0
 40
1.0
 10
578.4904970870797
 20
962.9314394162666
 30
0.0
 10
578.4787962637685
 20
962.9240643314677
 30
0.0
 10
578.4578300982421
 20
962.9108492572332
 30
0.0
 10
578.4303934658648
 20
962.883775949314
 30
0.0
 10
578.4102967383362
 20
962.8541196020948
 30
0.0
 10
578.3978044984084
 20
962.8223296259478
 30
0.0
 10
578.3964520193689
 20
962.8028448498358
 30
0.0
 10
578.3957835695803
 20
962.793214686193
 30
0.0
  0
SPLINE
  5
14F
330
1F
100
AcDbEntity
  8
0
  6
SLD-実線
 62
     7
370
    25
100
AcDbSpline
210
0.0
220
0.0
230
1.0
 70
     8
 71
     3
 72
     9
 73
     5
 74
     0
 42
0.000000001
 43
0.00000001
 40
0.0
 40
0.0
 40
0.0
 40
0.0
 40
0.5659393691233758
 40
1.0
 40
1.0
 40
1.0
 40
1.0
 10
578.8496195172567
 20
963.1949617193417
 30
0.0
 10
578.7824905373766
 20
963.1400685206876
 30
0.0
 10
578.6638753931712
 20
963.0430736805175
 30
0.0
 10
578.5429751311052
 20
962.9652288099121
 30
0.0
 10
578.4904970870797
 20
962.9314394162666
 30
0.0
  0
SPLINE
  5
150
330
1F
100
AcDbEntity
  8
0
  6
SLD-実線
 62
     7
370
    25
100
AcDbSpline
210
0.0
220
0.0
230
1.0
 70
     8
 71
     3
 72
    10
 73
     6
 74
     0
 42
0.000000001
 43
0.00000001
 40
0.0
 40
0.0
 40
0.0
 40
0.0
 40
0.6277756281814826
 40
0.8146059642571208
 40
1.0
 40
1.0
 40
1.0
 40
1.0
 10
579.1951495887888
 20
964.151932872036
 30
0.0
 10
579.1750970543748
 20
963.948282578383
 30
0.0
 10
579.149076748076
 20
963.6840245594582
 30
0.0
 10
578.9919197185292
 20
963.3327048055573
 30
0.0
 10
578.8969307398476
 20
963.2407578162833
 30
0.0
 10
578.8496195172567
 20
963.1949617193417
 30
0.0
  0
SPLINE
  5
151
330
1F
100
AcDbEntity
  8
0
  6
SLD-実線
 62
     7
370
    25
100
AcDbSpline
210
0.0
220
0.0
230
1.0
 70
     8
 71
     3
 72
     9
 73
     5
 74
     0
 42
0.000000001
 43
0.00000001
 40
0.0
 40
0.0
 40
0.0
 40
0.0
 40
0.6532599491607005
 40
0.9999999999999999
 40
0.9999999999999999
 40
0.9999999999999999
 40
0.9999999999999999
 10
579.25434450825
 20
967.1766144031977
 30
0.0
 10
579.2597576967141
 20
966.5279067200386
 30
0.0
 10
579.2680441200147
 20
965.5348752568476
 30
0.0
 10
579.2139174671536
 20
964.5079938004375
 30
0.0
 10
579.1951495887888
 20
964.151932872036
 30
0.0
  0
LINE
  5
152
330
1F
100
AcDbEntity
  8
0
  6
SLD-実線
 62
     7
370
    25
100
AcDbLine
 10
579.2543445083
 20
969.6000102536
 30
0.0
 11
579.2543445083
 21
967.1766144032
 31
0.0
  0
SPLINE
  5
153
330
1F
100
AcDbEntity
  8
0
  6
SLD-実線
 62
     7
370
    25
100
AcDbSpline
210
0.0
220
0.0
230
1.0
 70
     8
 71
     3
 72
     9
 73
     5
 74
     0
 42
0.000000001
 43
0.00000001
 40
0.0
 40
0.0
 40
0.0
 40
0.0
 40
0.3388569337977373
 40
1.0
 40
1.0
 40
1.0
 40
1.0
 10
579.2302286083677
 20
972.5629257755558
 30
0.0
 10
579.2387695050644
 20
972.2317045518454
 30
0.0
 10
579.2639745277297
 20
971.2542382801706
 30
0.0
 10
579.2581773031104
 20
970.2584011002028
 30
0.0
 10
579.25434450825
 20
969.6000102536008
 30
0.0
  0
SPLINE
  5
154
330
1F
100
AcDbEntity
  8
0
  6
SLD-実線
 62
     7
370
    25
100
AcDbSpline
210
0.0
220
0.0
230
1.0
 70
     8
 71
     3
 72
    12
 73
     8
 74
     0
 42
0.000000001
 43
0.00000001
 40
0.0
 40
0.0
 40
0.0
 40
0.0
 40
0.2124448406883847
 40
0.3841107386006349
 40
0.5415516800268073
 40
0.7460721964073767
 40
1.0
 40
1.0
 40
1.0
 40
1.0
 10
578.7171960948689
 20
973.0516026916872
 30
0.0
 10
578.7822192467596
 20
973.0705366781101
 30
0.0
 10
578.8997843089091
 20
973.1047702583936
 30
0.0
 10
579.0494188896585
 20
973.0893526409724
 30
0.0
 10
579.15559198342
 20
972.9953071592412
 30
0.0
 10
579.2135892446402
 20
972.8113327541873
 30
0.0
 10
579.224297476
 20
972.6514709083787
 30
0.0
 10
579.2302286083677
 20
972.5629257755558
 30
0.0
  0
SPLINE
  5
155
330
1F
100
AcDbEntity
  8
0
  6
SLD-実線
 62
     7
370
    25
100
AcDbSpline
210
0.0
220
0.0
230
1.0
 70
     8
 71
     3
 72
     9
 73
     5
 74
     0
 42
0.000000001
 43
0.00000001
 40
0.0
 40
0.0
 40
0.0
 40
0.0
 40
0.5765480560493984
 40
1.0
 40
1.0
 40
1.0
 40
1.0
 10
578.3120315254164
 20
972.8592269629402
 30
0.0
 10
578.3904415813656
 20
972.9030207093139
 30
0.0
 10
578.5264407493908
 20
972.9789792454916
 30
0.0
 10
578.66044973107
 20
973.0299984924035
 30
0.0
 10
578.7171960948689
 20
973.0516026916872
 30
0.0
  0
SPLINE
  5
156
330
1F
100
AcDbEntity
  8
0
  6
SLD-実線
 62
     7
370
    25
100
AcDbSpline
210
0.0
220
0.0
230
1.0
 70
     8
 71
     3
 72
    12
 73
     8
 74
     0
 42
0.000000001
 43
0.00000001
 40
0.0
 40
0.0
 40
0.0
 40
0.0
 40
0.1864928305667291
 40
0.3612706882373681
 40
0.5407592565552872
 40
0.7651854983925743
 40
0.9999999999999999
 40
0.9999999999999999
 40
0.9999999999999999
 40
0.9999999999999999
 10
578.2168800758192
 20
972.8878449805535
 30
0.0
 10
578.2177381910834
 20
972.8787206006416
 30
0.0
 10
578.2194005171426
 20
972.8610450095721
 30
0.0
 10
578.2335163543091
 20
972.8456075681091
 30
0.0
 10
578.2543106604062
 20
972.8398922456563
 30
0.0
 10
578.2812500435383
 20
972.8437074204124
 30
0.0
 10
578.3016174576927
 20
972.8539763526037
 30
0.0
 10
578.3120315254164
 20
972.8592269629402
 30
0.0
  0
SPLINE
  5
157
330
1F
100
AcDbEntity
  8
0
  6
SLD-実線
 62
     7
370
    25
100
AcDbSpline
210
0.0
220
0.0
230
1.0
 70
     8
 71
     3
 72
    10
 73
     6
 74
     0
 42
0.000000001
 43
0.00000001
 40
0.0
 40
0.0
 40
0.0
 40
0.0
 40
0.17256206661773
 40
0.4394591810126278
 40
1.0
 40
1.0
 40
1.0
 40
1.0
 10
579.7564155484137
 20
973.8439445836898
 30
0.0
 10
579.6788539367564
 20
973.802554119943
 30
0.0
 10
579.4813298632156
 20
973.6971461374329
 30
0.0
 10
579.0319025953502
 20
973.459155430956
 30
0.0
 10
578.6597405670618
 20
973.2506236886718
 30
0.0
 10
578.4076225534726
 20
973.1093556262721
 30
0.0
  0
SPLINE
  5
158
330
1F
100
AcDbEntity
  8
0
  6
SLD-実線
 62
     7
370
    25
100
AcDbSpline
210
0.0
220
0.0
230
1.0
 70
     8
 71
     3
 72
    10
 73
     6
 74
     0
 42
0.000000001
 43
0.00000001
 40
0.0
 40
0.0
 40
0.0
 40
0.0
 40
0.6607605880893315
 40
0.9097934919352916
 40
1.0
 40
1.0
 40
1.0
 40
1.0
 10
581.0451344669751
 20
974.6319588444163
 30
0.0
 10
580.7612172421922
 20
974.4609749855211
 30
0.0
 10
580.3702949504999
 20
974.2255493187168
 30
0.0
 10
579.9408871389643
 20
973.957090811029
 30
0.0
 10
579.7951644041989
 20
973.8677113156442
 30
0.0
 10
579.7564155484137
 20
973.8439445836898
 30
0.0
  0
SPLINE
  5
159
330
1F
100
AcDbEntity
  8
0
  6
SLD-実線
 62
     7
370
    25
100
AcDbSpline
210
0.0
220
0.0
230
1.0
 70
     8
 71
     3
 72
    13
 73
     9
 74
     0
 42
0.000000001
 43
0.00000001
 40
0.0
 40
0.0
 40
0.0
 40
0.0
 40
0.1028765259378814
 40
0.1954467964956161
 40
0.2874643436297391
 40
0.3887547418725182
 40
0.6456797490822535
 40
1.0
 40
1.0
 40
1.0
 40
1.0
 10
581.2358769446286
 20
974.6306747757419
 30
0.0
 10
581.2354198552825
 20
974.6399598061525
 30
0.0
 10
581.2345514681792
 20
974.6575996849549
 30
0.0
 10
581.2254949514547
 20
974.6774132377972
 30
0.0
 10
581.2101580421943
 20
974.6887327500195
 30
0.0
 10
581.1790569495664
 20
974.6927229684196
 30
0.0
 10
581.1223566867733
 20
974.6747031604151
 30
0.0
 10
581.0734716393772
 20
974.6476441362254
 30
0.0
 10
581.0451344669751
 20
974.6319588444163
 30
0.0
  0
SPLINE
  5
15A
330
1F
100
AcDbEntity
  8
0
  6
SLD-実線
 62
     7
370
    25
100
AcDbSpline
210
0.0
220
0.0
230
1.0
 70
     8
 71
     3
 72
    11
 73
     7
 74
     0
 42
0.000000001
 43
0.00000001
 40
0.0
 40
0.0
 40
0.0
 40
0.0
 40
0.2987532918587235
 40
0.5768423581400812
 40
0.782787467346172
 40
0.9999999999999999
 40
0.9999999999999999
 40
0.9999999999999999
 40
0.9999999999999999
 10
581.1402859165723
 20
974.4919434696064
 30
0.0
 10
581.1535848675692
 20
974.5008191955745
 30
0.0
 10
581.1792629051438
 20
974.517956729577
 30
0.0
 10
581.2110404898913
 20
974.5548252405263
 30
0.0
 10
581.2323234400557
 20
974.5954102861905
 30
0.0
 10
581.234671601596
 20
974.6187131176367
 30
0.0
 10
581.2358769446286
 20
974.6306747757419
 30
0.0
  0
SPLINE
  5
15B
330
1F
100
AcDbEntity
  8
0
  6
SLD-実線
 62
     7
370
    25
100
AcDbSpline
210
0.0
220
0.0
230
1.0
 70
     8
 71
     3
 72
     9
 73
     5
 74
     0
 42
0.000000001
 43
0.00000001
 40
0.0
 40
0.0
 40
0.0
 40
0.0
 40
0.6211194534969412
 40
1.0
 40
1.0
 40
1.0
 40
1.0
 10
580.7469619773732
 20
974.2233615940673
 30
0.0
 10
580.8280406433669
 20
974.2837629170737
 30
0.0
 10
580.9585769927553
 20
974.3810088214906
 30
0.0
 10
581.0903570256796
 20
974.4614615107372
 30
0.0
 10
581.1402859165723
 20
974.4919434696064
 30
0.0
  0
SPLINE
  5
15C
330
1F
100
AcDbEntity
  8
0
  6
SLD-実線
 62
     7
370
    25
100
AcDbSpline
210
0.0
220
0.0
230
1.0
 70
     8
 71
     3
 72
    11
 73
     7
 74
     0
 42
0.000000001
 43
0.00000001
 40
0.0
 40
0.0
 40
0.0
 40
0.0
 40
0.3346098964626484
 40
0.5895231219303745
 40
0.7766899352113402
 40
1.0
 40
1.0
 40
1.0
 40
1.0
 10
580.2812870458047
 20
973.1696888961719
 30
0.0
 10
580.2889854434426
 20
973.2911406855279
 30
0.0
 10
580.3025486507994
 20
973.505117136261
 30
0.0
 10
580.3933206921506
 20
973.8190314540619
 30
0.0
 10
580.5572959699081
 20
974.0650274365423
 30
0.0
 10
580.6801345854673
 20
974.167573743949
 30
0.0
 10
580.7469619773732
 20
974.2233615940673
 30
0.0
  0
SPLINE
  5
15D
330
1F
100
AcDbEntity
  8
0
  6
SLD-実線
 62
     7
370
    25
100
AcDbSpline
210
0.0
220
0.0
230
1.0
 70
     8
 71
     3
 72
    10
 73
     6
 74
     0
 42
0.000000001
 43
0.00000001
 40
0.0
 40
0.0
 40
0.0
 40
0.0
 40
0.4806403779511438
 40
0.7630416974794699
 40
1.0
 40
1.0
 40
1.0
 40
1.0
 10
580.2562919890042
 20
970.1784222223953
 30
0.0
 10
580.2568730056953
 20
970.6557315103806
 30
0.0
 10
580.2577954000313
 20
971.4134849286005
 30
0.0
 10
580.2550632207149
 20
972.4044941474564
 30
0.0
 10
580.2730709862918
 20
972.9299494389107
 30
0.0
 10
580.2812870458047
 20
973.1696888961719
 30
0.0
  0
LINE
  5
15E
330
1F
100
AcDbEntity
  8
0
  6
SLD-実線
 62
     7
370
    25
100
AcDbLine
 10
580.256291989
 20
967.72616431
 30
0.0
 11
580.256291989
 21
970.1784222224
 31
0.0
  0
SPLINE
  5
15F
330
1F
100
AcDbEntity
  8
0
  6
SLD-実線
 62
     7
370
    25
100
AcDbSpline
210
0.0
220
0.0
230
1.0
 70
     8
 71
     3
 72
    12
 73
     8
 74
     0
 42
0.000000001
 43
0.00000001
 40
0.0
 40
0.0
 40
0.0
 40
0.0
 40
0.0380414291119799
 40
0.0867112851242554
 40
0.1487867437117716
 40
0.3584137540793245
 40
1.0
 40
1.0
 40
1.0
 40
1.0
 10
580.5193854590271
 20
964.7239846965164
 30
0.0
 10
580.4973378100518
 20
964.7431439833556
 30
0.0
 10
580.4470826008958
 20
964.786815486311
 30
0.0
 10
580.3992793979693
 20
964.910275170891
 30
0.0
 10
580.3285616986536
 20
965.2009409574932
 30
0.0
 10
580.2565633877498
 20
966.1349329072731
 30
0.0
 10
580.2564086327344
 20
967.0422732847455
 30
0.0
 10
580.2562919890042
 20
967.7261643100021
 30
0.0
  0
LINE
  5
160
330
1F
100
AcDbEntity
  8
0
  6
SLD-実線
 62
     7
370
    25
100
AcDbLine
 10
579.7564155484
 20
973.8439445837
 30
0.0
 11
577.9886483057
 21
974.8644548907
 31
0.0
  0
LINE
  5
161
330
1F
100
AcDbEntity
  8
0
  6
SLD-実線
 62
     7
370
    25
100
AcDbLine
 10
581.045134467
 20
974.6319588444
 30
0.0
 11
579.2773672242
 21
975.6524691515
 31
0.0
  0
LINE
  5
162
330
1F
100
AcDbEntity
  8
0
  6
SLD-実線
 62
     7
370
    25
100
AcDbLine
 10
579.2543445083
 20
969.6000102536
 30
0.0
 11
577.4865772655
 21
970.6205205607
 31
0.0
  0
LINE
  5
163
330
1F
100
AcDbEntity
  8
0
  6
SLD-実線
 62
     7
370
    25
100
AcDbLine
 10
579.2543445083
 20
967.1766144032
 30
0.0
 11
577.4865772655
 21
968.1971247103
 31
0.0
  0
LINE
  5
164
330
1F
100
AcDbEntity
  8
0
  6
SLD-実線
 62
     7
370
    25
100
AcDbLine
 10
579.1951495888
 20
964.151932872
 30
0.0
 11
577.4273823461
 21
965.1724431791
 31
0.0
  0
SPLINE
  5
165
330
1F
100
AcDbEntity
  8
0
  6
SLD-実線
 62
     7
370
    25
100
AcDbSpline
210
0.0
220
0.0
230
1.0
 70
     8
 71
     3
 72
    12
 73
     8
 74
     0
 42
0.000000001
 43
0.00000001
 40
0.0
 40
0.0
 40
0.0
 40
0.0
 40
0.2116079618670443
 40
0.382938100439943
 40
0.5405397636625217
 40
0.7455719455999814
 40
1.0
 40
1.0
 40
1.0
 40
1.0
 10
585.3708285194139
 20
976.8926629311109
 30
0.0
 10
585.4355150111205
 20
976.9113914312097
 30
0.0
 10
585.5525754564824
 20
976.9452836164972
 30
0.0
 10
585.7015665647235
 20
976.9293603983951
 30
0.0
 10
585.8075906680647
 20
976.8352836456367
 30
0.0
 10
585.8664781039117
 20
976.6520613327694
 30
0.0
 10
585.8785129510865
 20
976.4928885066005
 30
0.0
 10
585.8851772987481
 20
976.4047458790722
 30
0.0
  0
SPLINE
  5
166
330
1F
100
AcDbEntity
  8
0
  6
SLD-実線
 62
     7
370
    25
100
AcDbSpline
210
0.0
220
0.0
230
1.0
 70
     8
 71
     3
 72
     9
 73
     5
 74
     0
 42
0.000000001
 43
0.00000001
 40
0.0
 40
0.0
 40
0.0
 40
0.0
 40
0.5761834486788919
 40
1.0
 40
1.0
 40
1.0
 40
1.0
 10
584.9661035284204
 20
976.7005409656068
 30
0.0
 10
585.0443791907776
 20
976.74424976463
 30
0.0
 10
585.1802311707966
 20
976.8201089360854
 30
0.0
 10
585.3140948686448
 20
976.8710663399436
 30
0.0
 10
585.3708285194139
 20
976.8926629311109
 30
0.0
  0
SPLINE
  5
167
330
1F
100
AcDbEntity
  8
0
  6
SLD-実線
 62
     7
370
    25
100
AcDbSpline
210
0.0
220
0.0
230
1.0
 70
     8
 71
     3
 72
    12
 73
     8
 74
     0
 42
0.000000001
 43
0.00000001
 40
0.0
 40
0.0
 40
0.0
 40
0.0
 40
0.1849681238971053
 40
0.3588172952584425
 40
0.5381374585438964
 40
0.763364347305806
 40
1.0
 40
1.0
 40
1.0
 40
1.0
 10
584.8696366361686
 20
976.7283995943396
 30
0.0
 10
584.8705052361894
 20
976.7192764029412
 30
0.0
 10
584.8721902222484
 20
976.7015784407585
 30
0.0
 10
584.8864828531626
 20
976.686238173924
 30
0.0
 10
584.9075403938239
 20
976.6806859210274
 30
0.0
 10
584.9348601482187
 20
976.6847418941977
 30
0.0
 10
584.9555189661004
 20
976.6951885916047
 30
0.0
 10
584.9661035284204
 20
976.7005409656068
 30
0.0
  0
SPLINE
  5
168
330
1F
100
AcDbEntity
  8
0
  6
SLD-実線
 62
     7
370
    25
100
AcDbSpline
210
0.0
220
0.0
230
1.0
 70
     8
 71
     3
 72
    13
 73
     9
 74
     0
 42
0.000000001
 43
0.00000001
 40
0.0
 40
0.0
 40
0.0
 40
0.0
 40
0.3547565676086476
 40
0.6117560390275004
 40
0.7129798701984945
 40
0.8048823203092906
 40
0.8973022810224242
 40
1.0
 40
1.0
 40
1.0
 40
1.0
 10
585.0608170459197
 20
976.9501630528771
 30
0.0
 10
585.0323958940938
 20
976.9330831330487
 30
0.0
 10
584.983385353196
 20
976.9036298542228
 30
0.0
 10
584.9265450790914
 20
976.8561126846787
 30
0.0
 10
584.8953826126341
 20
976.8161730674668
 30
0.0
 10
584.8800255782537
 20
976.78713321029
 30
0.0
 10
584.8709608193691
 20
976.7568554955104
 30
0.0
 10
584.8700932633101
 20
976.7382122371873
 30
0.0
 10
584.8696366361686
 20
976.7283995943396
 30
0.0
  0
SPLINE
  5
169
330
1F
100
AcDbEntity
  8
0
  6
SLD-実線
 62
     7
370
    25
100
AcDbSpline
210
0.0
220
0.0
230
1.0
 70
     8
 71
     3
 72
     9
 73
     5
 74
     0
 42
0.000000001
 43
0.00000001
 40
0.0
 40
0.0
 40
0.0
 40
0.0
 40
0.5571647914855414
 40
1.0
 40
1.0
 40
1.0
 40
1.0
 10
585.920256318327
 20
977.4311160625805
 30
0.0
 10
585.7606757472851
 20
977.344763560628
 30
0.0
 10
585.4742603572952
 20
977.1897779921354
 30
0.0
 10
585.1877111318981
 20
977.0237057076192
 30
0.0
 10
585.0608170459197
 20
976.9501630528771
 30
0.0
  0
LINE
  5
16A
330
1F
100
AcDbEntity
  8
0
  6
SLD-実線
 62
     7
370
    25
100
AcDbLine
 10
586.4082945982
 20
977.6839926214
 30
0.0
 11
585.9202563183
 21
977.4311160626
 31
0.0
  0
SPLINE
  5
16B
330
1F
100
AcDbEntity
  8
0
  6
SLD-実線
 62
     7
370
    25
100
AcDbSpline
210
0.0
220
0.0
230
1.0
 70
     8
 71
     3
 72
    11
 73
     7
 74
     0
 42
0.000000001
 43
0.00000001
 40
0.0
 40
0.0
 40
0.0
 40
0.0
 40
0.2299882211667642
 40
0.6096581693371963
 40
0.8752050628537509
 40
1.0
 40
1.0
 40
1.0
 40
1.0
 10
589.1418354718627
 20
979.2767162413998
 30
0.0
 10
588.9322903373028
 20
979.152248259447
 30
0.0
 10
588.376823181284
 20
978.8223056144132
 30
0.0
 10
587.5793167335395
 20
978.3616831687282
 30
0.0
 10
586.8776873153145
 20
977.9550838210337
 30
0.0
 10
586.5220077677739
 20
977.7496660722946
 30
0.0
 10
586.408294598206
 20
977.6839926214143
 30
0.0
  0
SPLINE
  5
16C
330
1F
100
AcDbEntity
  8
0
  6
SLD-実線
 62
     7
370
    25
100
AcDbSpline
210
0.0
220
0.0
230
1.0
 70
     8
 71
     3
 72
     9
 73
     5
 74
     0
 42
0.000000001
 43
0.00000001
 40
0.0
 40
0.0
 40
0.0
 40
0.0
 40
0.4697239760656872
 40
1.0
 40
1.0
 40
1.0
 40
1.0
 10
589.6553059174594
 20
979.6435191618999
 30
0.0
 10
589.5755128085245
 20
979.5806862970466
 30
0.0
 10
589.4056404728539
 20
979.4469207920803
 30
0.0
 10
589.2332500041638
 20
979.3356960535243
 30
0.0
 10
589.1418354718627
 20
979.2767162413998
 30
0.0
  0
SPLINE
  5
16D
330
1F
100
AcDbEntity
  8
0
  6
SLD-実線
 62
     7
370
    25
100
AcDbSpline
210
0.0
220
0.0
230
1.0
 70
     8
 71
     3
 72
     9
 73
     5
 74
     0
 42
0.000000001
 43
0.00000001
 40
0.0
 40
0.0
 40
0.0
 40
0.0
 40
0.554361041321129
 40
1.0
 40
1.0
 40
1.0
 40
1.0
 10
589.8223704273282
 20
979.8083209845737
 30
0.0
 10
589.7910596092827
 20
979.7790327504135
 30
0.0
 10
589.7345786957416
 20
979.7262003325899
 30
0.0
 10
589.6797428891895
 20
979.6690068195113
 30
0.0
 10
589.6553059174594
 20
979.6435191618999
 30
0.0
  0
SPLINE
  5
16E
330
1F
100
AcDbEntity
  8
0
  6
SLD-実線
 62
     7
370
    25
100
AcDbSpline
210
0.0
220
0.0
230
1.0
 70
     8
 71
     3
 72
    12
 73
     8
 74
     0
 42
0.000000001
 43
0.00000001
 40
0.0
 40
0.0
 40
0.0
 40
0.0
 40
0.5955186806210049
 40
0.7092700676447402
 40
0.8095643864895471
 40
0.9026705745031206
 40
1.0
 40
1.0
 40
1.0
 40
1.0
 10
589.8697271860779
 20
979.7110970637729
 30
0.0
 10
589.8691802601098
 20
979.740933280913
 30
0.0
 10
589.8685288645602
 20
979.7764685822191
 30
0.0
 10
589.8539351136354
 20
979.8049196413726
 30
0.0
 10
589.845666589055
 20
979.8122154531014
 30
0.0
 10
589.8348533170189
 20
979.8141647872588
 30
0.0
 10
589.8265924568226
 20
979.8102975066697
 30
0.0
 10
589.8223704273282
 20
979.8083209845737
 30
0.0
  0
SPLINE
  5
16F
330
1F
100
AcDbEntity
  8
0
  6
SLD-実線
 62
     7
370
    25
100
AcDbSpline
210
0.0
220
0.0
230
1.0
 70
     8
 71
     3
 72
     9
 73
     5
 74
     0
 42
0.000000001
 43
0.00000001
 40
0.0
 40
0.0
 40
0.0
 40
0.0
 40
0.722035793538015
 40
1.0
 40
1.0
 40
1.0
 40
1.0
 10
589.7745749133001
 20
979.0085437949606
 30
0.0
 10
589.796669370381
 20
979.1773276899829
 30
0.0
 10
589.8272695944677
 20
979.4110888089369
 30
0.0
 10
589.8604924276233
 20
979.6458436270444
 30
0.0
 10
589.8697271860779
 20
979.7110970637729
 30
0.0
  0
SPLINE
  5
170
330
1F
100
AcDbEntity
  8
0
  6
SLD-実線
 62
     7
370
    25
100
AcDbSpline
210
0.0
220
0.0
230
1.0
 70
     8
 71
     3
 72
     9
 73
     5
 74
     0
 42
0.000000001
 43
0.00000001
 40
0.0
 40
0.0
 40
0.0
 40
0.0
 40
0.5858353485109525
 40
1.0
 40
1.0
 40
1.0
 40
1.0
 10
589.7140637280035
 20
978.0642052287485
 30
0.0
 10
589.7278678466415
 20
978.249588875518
 30
0.0
 10
589.7514309837469
 20
978.5660321342607
 30
0.0
 10
589.7677967792919
 20
978.8789459524883
 30
0.0
 10
589.7745749133001
 20
979.0085437949606
 30
0.0
  0
SPLINE
  5
171
330
1F
100
AcDbEntity
  8
0
  6
SLD-実線
 62
     7
370
    25
100
AcDbSpline
210
0.0
220
0.0
230
1.0
 70
     8
 71
     3
 72
    11
 73
     7
 74
     0
 42
0.000000001
 43
0.00000001
 40
0.0
 40
0.0
 40
0.0
 40
0.0
 40
0.1022794711465415
 40
0.2058514988441938
 40
0.44268994192393
 40
0.9999999999999999
 40
0.9999999999999999
 40
0.9999999999999999
 40
0.9999999999999999
 10
589.6311891943963
 20
977.865470068467
 30
0.0
 10
589.6368461340196
 20
977.8694756293362
 30
0.0
 10
589.6482315028259
 20
977.8775373713396
 30
0.0
 10
589.6690148118654
 20
977.9056407102962
 30
0.0
 10
589.697158554417
 20
977.9702011073385
 30
0.0
 10
589.7070924278412
 20
978.0254401167851
 30
0.0
 10
589.7140637280035
 20
978.0642052287485
 30
0.0
  0
SPLINE
  5
172
330
1F
100
AcDbEntity
  8
0
  6
SLD-実線
 62
     7
370
    25
100
AcDbSpline
210
0.0
220
0.0
230
1.0
 70
     8
 71
     3
 72
    13
 73
     9
 74
     0
 42
0.000000001
 43
0.00000001
 40
0.0
 40
0.0
 40
0.0
 40
0.0
 40
0.3140919536427901
 40
0.5631026192988062
 40
0.6697807483795702
 40
0.7721331189305446
 40
0.8790878641744194
 40
1.0
 40
1.0
 40
1.0
 40
1.0
 10
589.5355981663402
 20
977.9890285922689
 30
0.0
 10
589.5362038440171
 20
977.9644731393033
 30
0.0
 10
589.5372897001889
 20
977.9204502354288
 30
0.0
 10
589.5500763465586
 20
977.8755584809599
 30
0.0
 10
589.568365536061
 20
977.8560739714997
 30
0.0
 10
589.5856425905187
 20
977.8503276073558
 30
0.0
 10
589.6071559851468
 20
977.8530863378122
 30
0.0
 10
589.6228575387624
 20
977.861176968107
 30
0.0
 10
589.6311891943963
 20
977.865470068467
 30
0.0
  0
SPLINE
  5
173
330
1F
100
AcDbEntity
  8
0
  6
SLD-実線
 62
     7
370
    25
100
AcDbSpline
210
0.0
220
0.0
230
1.0
 70
     8
 71
     3
 72
     9
 73
     5
 74
     0
 42
0.000000001
 43
0.00000001
 40
0.0
 40
0.0
 40
0.0
 40
0.0
 40
0.624005486921031
 40
1.0
 40
1.0
 40
1.0
 40
1.0
 10
589.463685929249
 20
978.4437384412664
 30
0.0
 10
589.489137680505
 20
978.3569819717123
 30
0.0
 10
589.529925384763
 20
978.2179503904642
 30
0.0
 10
589.5340480622324
 20
978.0515821411584
 30
0.0
 10
589.5355981663402
 20
977.9890285922689
 30
0.0
  0
SPLINE
  5
174
330
1F
100
AcDbEntity
  8
0
  6
SLD-実線
 62
     7
370
    25
100
AcDbSpline
210
0.0
220
0.0
230
1.0
 70
     8
 71
     3
 72
    11
 73
     7
 74
     0
 42
0.000000001
 43
0.00000001
 40
0.0
 40
0.0
 40
0.0
 40
0.0
 40
0.4406930100055384
 40
0.7123183379532727
 40
0.8630795757721257
 40
1.0
 40
1.0
 40
1.0
 40
1.0
 10
588.616525219193
 20
978.4215385090839
 30
0.0
 10
588.7603666758125
 20
978.4830976491507
 30
0.0
 10
588.99286618223
 20
978.5825993506586
 30
0.0
 10
589.2645912134885
 20
978.6235517431036
 30
0.0
 10
589.4028230106356
 20
978.5550093766448
 30
0.0
 10
589.4440596087346
 20
978.4796197149782
 30
0.0
 10
589.463685929249
 20
978.4437384412664
 30
0.0
  0
SPLINE
  5
175
330
1F
100
AcDbEntity
  8
0
  6
SLD-実線
 62
     7
370
    25
100
AcDbSpline
210
0.0
220
0.0
230
1.0
 70
     8
 71
     3
 72
     9
 73
     5
 74
     0
 42
0.000000001
 43
0.00000001
 40
0.0
 40
0.0
 40
0.0
 40
0.0
 40
0.5642344619390638
 40
0.9999999999999999
 40
0.9999999999999999
 40
0.9999999999999999
 40
0.9999999999999999
 10
586.9822762290994
 20
977.5201341055863
 30
0.0
 10
587.2897658168702
 20
977.6957158072513
 30
0.0
 10
587.8347335714349
 20
978.0069015172868
 30
0.0
 10
588.3792456293118
 20
978.2956930927951
 30
0.0
 10
588.616525219193
 20
978.4215385090839
 30
0.0
  0
SPLINE
  5
176
330
1F
100
AcDbEntity
  8
0
  6
SLD-実線
 62
     7
370
    25
100
AcDbSpline
210
0.0
220
0.0
230
1.0
 70
     8
 71
     3
 72
    13
 73
     9
 74
     0
 42
0.000000001
 43
0.00000001
 40
0.0
 40
0.0
 40
0.0
 40
0.0
 40
0.3434655201494075
 40
0.594984845234355
 40
0.6979089925529138
 40
0.7944200720766629
 40
0.8926964627254125
 40
1.0
 40
1.0
 40
1.0
 40
1.0
 10
586.9108027472867
 20
977.3406392501687
 30
0.0
 10
586.9113419308501
 20
977.3617601396301
 30
0.0
 10
586.9122759577908
 20
977.3983478272149
 30
0.0
 10
586.9233304951381
 20
977.446160263633
 30
0.0
 10
586.9378819161143
 20
977.4764907684033
 30
0.0
 10
586.950680462736
 20
977.4946120238315
 30
0.0
 10
586.9658188789565
 20
977.5096646841278
 30
0.0
 10
586.9766321728263
 20
977.5165436123814
 30
0.0
 10
586.9822762290994
 20
977.5201341055863
 30
0.0
  0
LINE
  5
177
330
1F
100
AcDbEntity
  8
0
  6
SLD-実線
 62
     7
370
    25
100
AcDbLine
 10
586.9108027473
 20
973.5384496764
 30
0.0
 11
586.9108027473
 21
977.3406392502
 31
0.0
  0
SPLINE
  5
178
330
1F
100
AcDbEntity
  8
0
  6
SLD-実線
 62
     7
370
    25
100
AcDbSpline
210
0.0
220
0.0
230
1.0
 70
     8
 71
     3
 72
    13
 73
     9
 74
     0
 42
0.000000001
 43
0.00000001
 40
0.0
 40
0.0
 40
0.0
 40
0.0
 40
0.1273151566064998
 40
0.2333885070839846
 40
0.3289220547563796
 40
0.4265649529507462
 40
0.6665991426928943
 40
1.0
 40
1.0
 40
1.0
 40
1.0
 10
586.9822762290994
 20
973.4414766436328
 30
0.0
 10
586.9754208383531
 20
973.4378138978713
 30
0.0
 10
586.9628538396202
 20
973.4310995145418
 30
0.0
 10
586.9457189303323
 20
973.4273217411159
 30
0.0
 10
586.932331484887
 20
973.430496767244
 30
0.0
 10
586.9188555635943
 20
973.4451843927809
 30
0.0
 10
586.9113557149559
 20
973.4826517898026
 30
0.0
 10
586.9110060474583
 20
973.5179354211415
 30
0.0
 10
586.9108027472867
 20
973.5384496764137
 30
0.0
  0
SPLINE
  5
179
330
1F
100
AcDbEntity
  8
0
  6
SLD-実線
 62
     7
370
    25
100
AcDbSpline
210
0.0
220
0.0
230
1.0
 70
     8
 71
     3
 72
     9
 73
     5
 74
     0
 42
0.000000001
 43
0.00000001
 40
0.0
 40
0.0
 40
0.0
 40
0.0
 40
0.6029034813172196
 40
1.0
 40
1.0
 40
1.0
 40
1.0
 10
588.8787420018398
 20
974.56463867186
 30
0.0
 10
588.497663750569
 20
974.3337620851705
 30
0.0
 10
587.8655920125883
 20
973.95082087842
 30
0.0
 10
587.2333409320962
 20
973.5862474735221
 30
0.0
 10
586.9822762290994
 20
973.4414766436328
 30
0.0
  0
SPLINE
  5
17A
330
1F
100
AcDbEntity
  8
0
  6
SLD-実線
 62
     7
370
    25
100
AcDbSpline
210
0.0
220
0.0
230
1.0
 70
     8
 71
     3
 72
    10
 73
     6
 74
     0
 42
0.000000001
 43
0.00000001
 40
0.0
 40
0.0
 40
0.0
 40
0.0
 40
0.2209141216938241
 40
0.4698895128243841
 40
1.0
 40
1.0
 40
1.0
 40
1.0
 10
589.4391304509077
 20
975.0800510662897
 30
0.0
 10
589.405752165805
 20
975.0266980466754
 30
0.0
 10
589.3347557713439
 20
974.9132149239034
 30
0.0
 10
589.1379071131641
 20
974.7384026900877
 30
0.0
 10
588.9836812966968
 20
974.63499796309
 30
0.0
 10
588.8787420018398
 20
974.56463867186
 30
0.0
  0
SPLINE
  5
17B
330
1F
100
AcDbEntity
  8
0
  6
SLD-実線
 62
     7
370
    25
100
AcDbSpline
210
0.0
220
0.0
230
1.0
 70
     8
 71
     3
 72
    11
 73
     7
 74
     0
 42
0.000000001
 43
0.00000001
 40
0.0
 40
0.0
 40
0.0
 40
0.0
 40
0.1139298500637797
 40
0.2519890744594939
 40
0.4262990083894074
 40
1.0
 40
1.0
 40
1.0
 40
1.0
 10
589.6184726999472
 20
975.3638440984053
 30
0.0
 10
589.609268408737
 20
975.3568395586382
 30
0.0
 10
589.588910435635
 20
975.3413469770896
 30
0.0
 10
589.5604729109657
 20
975.3006483920941
 30
0.0
 10
589.5089856180556
 20
975.2140769692983
 30
0.0
 10
589.4694517169429
 20
975.1382262196341
 30
0.0
 10
589.4391304509077
 20
975.0800510662897
 30
0.0
  0
SPLINE
  5
17C
330
1F
100
AcDbEntity
  8
0
  6
SLD-実線
 62
     7
370
    25
100
AcDbSpline
210
0.0
220
0.0
230
1.0
 70
     8
 71
     3
 72
    12
 73
     8
 74
     0
 42
0.000000001
 43
0.00000001
 40
0.0
 40
0.0
 40
0.0
 40
0.0
 40
0.2763793891017383
 40
0.4886842627241027
 40
0.6546116319200114
 40
0.8228935576458963
 40
1.0
 40
1.0
 40
1.0
 40
1.0
 10
589.6781071978676
 20
975.288392206933
 30
0.0
 10
589.6777793543931
 20
975.3017315085723
 30
0.0
 10
589.6771996731546
 20
975.3253175900381
 30
0.0
 10
589.6707996895263
 20
975.3530717148595
 30
0.0
 10
589.6594199940179
 20
975.3702907099661
 30
0.0
 10
589.6408724018255
 20
975.3748658254835
 30
0.0
 10
589.6260653715493
 20
975.3675800567966
 30
0.0
 10
589.6184726999472
 20
975.3638440984053
 30
0.0
  0
SPLINE
  5
17D
330
1F
100
AcDbEntity
  8
0
  6
SLD-実線
 62
     7
370
    25
100
AcDbSpline
210
0.0
220
0.0
230
1.0
 70
     8
 71
     3
 72
     9
 73
     5
 74
     0
 42
0.000000001
 43
0.00000001
 40
0.0
 40
0.0
 40
0.0
 40
0.0
 40
0.7351156105346491
 40
1.0
 40
1.0
 40
1.0
 40
1.0
 10
589.5842703677445
 20
974.4615297333252
 30
0.0
 10
589.6052480996697
 20
974.6633164640313
 30
0.0
 10
589.6337847429194
 20
974.9378130572397
 30
0.0
 10
589.6688254591439
 20
975.2149760553866
 30
0.0
 10
589.6781071978676
 20
975.288392206933
 30
0.0
  0
SPLINE
  5
17E
330
1F
100
AcDbEntity
  8
0
  6
SLD-実線
 62
     7
370
    25
100
AcDbSpline
210
0.0
220
0.0
230
1.0
 70
     8
 71
     3
 72
     9
 73
     5
 74
     0
 42
0.000000001
 43
0.00000001
 40
0.0
 40
0.0
 40
0.0
 40
0.0
 40
0.4960333101084949
 40
1.0
 40
1.0
 40
1.0
 40
1.0
 10
589.5355981663402
 20
973.551874783545
 30
0.0
 10
589.5407642873714
 20
973.7008294294458
 30
0.0
 10
589.5511791545305
 20
974.0011210487086
 30
0.0
 10
589.573181778283
 20
974.3072506243908
 30
0.0
 10
589.5842703677445
 20
974.4615297333252
 30
0.0
  0
SPLINE
  5
17F
330
1F
100
AcDbEntity
  8
0
  6
SLD-実線
 62
     7
370
    25
100
AcDbSpline
210
0.0
220
0.0
230
1.0
 70
     8
 71
     3
 72
    12
 73
     8
 74
     0
 42
0.000000001
 43
0.00000001
 40
0.0
 40
0.0
 40
0.0
 40
0.0
 40
0.106422517066003
 40
0.205477500273747
 40
0.3134552971419963
 40
0.435898774210376
 40
1.0
 40
1.0
 40
1.0
 40
1.0
 10
589.4518469453568
 20
973.2417427642073
 30
0.0
 10
589.4614026932007
 20
973.248437785319
 30
0.0
 10
589.4798526531752
 20
973.2613643373332
 30
0.0
 10
589.5021839414037
 20
973.2957231942802
 30
0.0
 10
589.5167395856123
 20
973.3336370497525
 30
0.0
 10
589.5369334547198
 20
973.4235925190492
 30
0.0
 10
589.536200445366
 20
973.4940133369184
 30
0.0
 10
589.5355981663402
 20
973.551874783545
 30
0.0
  0
SPLINE
  5
180
330
1F
100
AcDbEntity
  8
0
  6
SLD-実線
 62
     7
370
    25
100
AcDbSpline
210
0.0
220
0.0
230
1.0
 70
     8
 71
     3
 72
    12
 73
     8
 74
     0
 42
0.000000001
 43
0.00000001
 40
0.0
 40
0.0
 40
0.0
 40
0.0
 40
0.3051276809567156
 40
0.572049341664788
 40
0.7052057807099151
 40
0.8440182955543698
 40
1.0
 40
1.0
 40
1.0
 40
1.0
 10
589.3689724117497
 20
973.3169435665749
 30
0.0
 10
589.3698742192685
 20
973.2995598214
 30
0.0
 10
589.3715649160804
 20
973.2669690058046
 30
0.0
 10
589.387828883015
 20
973.2377044627071
 30
0.0
 10
589.4086630521937
 20
973.2288060670026
 30
0.0
 10
589.4289174180791
 20
973.2301892361729
 30
0.0
 10
589.443912655705
 20
973.2377449042945
 30
0.0
 10
589.4518469453568
 20
973.2417427642073
 30
0.0
  0
SPLINE
  5
181
330
1F
100
AcDbEntity
  8
0
  6
SLD-実線
 62
     7
370
    25
100
AcDbSpline
210
0.0
220
0.0
230
1.0
 70
     8
 71
     3
 72
     9
 73
     5
 74
     0
 42
0.000000001
 43
0.00000001
 40
0.0
 40
0.0
 40
0.0
 40
0.0
 40
0.5960598301820782
 40
1.0
 40
1.0
 40
1.0
 40
1.0
 10
589.3203002103453
 20
973.7445616455457
 30
0.0
 10
589.3389581532623
 20
973.6659033190406
 30
0.0
 10
589.3702602843106
 20
973.5339395084934
 30
0.0
 10
589.3693429570708
 20
973.3793774077833
 30
0.0
 10
589.3689724117497
 20
973.3169435665749
 30
0.0
  0
SPLINE
  5
182
330
1F
100
AcDbEntity
  8
0
  6
SLD-実線
 62
     7
370
    25
100
AcDbSpline
210
0.0
220
0.0
230
1.0
 70
     8
 71
     3
 72
    12
 73
     8
 74
     0
 42
0.000000001
 43
0.00000001
 40
0.0
 40
0.0
 40
0.0
 40
0.0
 40
0.2863390232512265
 40
0.5051268361291841
 40
0.6783223964805589
 40
0.8491297478835496
 40
1.0
 40
1.0
 40
1.0
 40
1.0
 10
588.6998385080785
 20
973.868929228966
 30
0.0
 10
588.7757917856333
 20
973.9004396972051
 30
0.0
 10
588.909779945365
 20
973.9560268922223
 30
0.0
 10
589.0802381751088
 20
973.9764738625342
 30
0.0
 10
589.2023365273432
 20
973.9422179442431
 30
0.0
 10
589.2809263450828
 20
973.860888781683
 30
0.0
 10
589.3077293248613
 20
973.7817013852517
 30
0.0
 10
589.3203002103453
 20
973.7445616455457
 30
0.0
  0
SPLINE
  5
183
330
1F
100
AcDbEntity
  8
0
  6
SLD-実線
 62
     7
370
    25
100
AcDbSpline
210
0.0
220
0.0
230
1.0
 70
     8
 71
     3
 72
     9
 73
     5
 74
     0
 42
0.000000001
 43
0.00000001
 40
0.0
 40
0.0
 40
0.0
 40
0.0
 40
0.549924160925968
 40
1.0
 40
1.0
 40
1.0
 40
1.0
 10
586.9936772808938
 20
972.9523407031485
 30
0.0
 10
587.3066666105052
 20
973.128044170257
 30
0.0
 10
587.8758165985406
 20
973.447549075829
 30
0.0
 10
588.4440778489758
 20
973.7381408792246
 30
0.0
 10
588.6998385080785
 20
973.868929228966
 30
0.0
  0
SPLINE
  5
184
330
1F
100
AcDbEntity
  8
0
  6
SLD-実線
 62
     7
370
    25
100
AcDbSpline
210
0.0
220
0.0
230
1.0
 70
     8
 71
     3
 72
    12
 73
     8
 74
     0
 42
0.000000001
 43
0.00000001
 40
0.0
 40
0.0
 40
0.0
 40
0.0
 40
0.2777876514111608
 40
0.5294790122431889
 40
0.6671368015326699
 40
0.820688084661201
 40
1.0
 40
1.0
 40
1.0
 40
1.0
 10
586.9108027472867
 20
972.8082915581856
 30
0.0
 10
586.911659193044
 20
972.8231620081299
 30
0.0
 10
586.9132916272121
 20
972.851505928776
 30
0.0
 10
586.9302696381955
 20
972.8916632416126
 30
0.0
 10
586.9507171573233
 20
972.9187755765284
 30
0.0
 10
586.9708680125771
 20
972.9379686501674
 30
0.0
 10
586.9856917824205
 20
972.947309064012
 30
0.0
 10
586.9936772808938
 20
972.9523407031485
 30
0.0
  0
LINE
  5
185
330
1F
100
AcDbEntity
  8
0
  6
SLD-実線
 62
     7
370
    25
100
AcDbLine
 10
586.9108027473
 20
971.5965936627
 30
0.0
 11
586.9108027473
 21
972.8082915582
 31
0.0
  0
SPLINE
  5
186
330
1F
100
AcDbEntity
  8
0
  6
SLD-実線
 62
     7
370
    25
100
AcDbSpline
210
0.0
220
0.0
230
1.0
 70
     8
 71
     3
 72
     9
 73
     5
 74
     0
 42
0.000000001
 43
0.00000001
 40
0.0
 40
0.0
 40
0.0
 40
0.0
 40
0.5472855394908719
 40
0.9999999999999999
 40
0.9999999999999999
 40
0.9999999999999999
 40
0.9999999999999999
 10
586.9108027472867
 20
969.239023361327
 30
0.0
 10
586.9085909291326
 20
969.6678355380694
 30
0.0
 10
586.9045494955583
 20
970.4513610394769
 30
0.0
 10
586.908854024699
 20
971.2397008366944
 30
0.0
 10
586.9108027472867
 20
971.5965936626897
 30
0.0
  0
SPLINE
  5
187
330
1F
100
AcDbEntity
  8
0
  6
SLD-実線
 62
     7
370
    25
100
AcDbSpline
210
0.0
220
0.0
230
1.0
 70
     8
 71
     3
 72
    13
 73
     9
 74
     0
 42
0.000000001
 43
0.00000001
 40
0.0
 40
0.0
 40
0.0
 40
0.0
 40
0.4155274275402828
 40
0.521670354330428
 40
0.6105758014140169
 40
0.7148924802858589
 40
0.8400355599743685
 40
1.0
 40
1.0
 40
1.0
 40
1.0
 10
588.2942360065282
 20
968.9090059354946
 30
0.0
 10
588.0129039244575
 20
968.7443314381326
 30
0.0
 10
587.6597079686404
 20
968.5375922491058
 30
0.0
 10
587.264762862942
 20
968.4494125797597
 30
0.0
 10
587.0956021028238
 20
968.4861255568975
 30
0.0
 10
586.9829399620897
 20
968.6388730059975
 30
0.0
 10
586.9276767190943
 20
968.9044363352361
 30
0.0
 10
586.916867464221
 20
969.1187685910652
 30
0.0
 10
586.9108027472867
 20
969.239023361327
 30
0.0
  0
SPLINE
  5
188
330
1F
100
AcDbEntity
  8
0
  6
SLD-実線
 62
     7
370
    25
100
AcDbSpline
210
0.0
220
0.0
230
1.0
 70
     8
 71
     3
 72
     9
 73
     5
 74
     0
 42
0.000000001
 43
0.00000001
 40
0.0
 40
0.0
 40
0.0
 40
0.0
 40
0.5693553794947203
 40
1.0
 40
1.0
 40
1.0
 40
1.0
 10
589.4391304509077
 20
969.7208323778997
 30
0.0
 10
589.224417444961
 20
969.5393818233744
 30
0.0
 10
588.8473014754285
 20
969.2206871011321
 30
0.0
 10
588.4607166723451
 20
969.0028264520441
 30
0.0
 10
588.2942360065282
 20
968.9090059354946
 30
0.0
  0
SPLINE
  5
189
330
1F
100
AcDbEntity
  8
0
  6
SLD-実線
 62
     7
370
    25
100
AcDbSpline
210
0.0
220
0.0
230
1.0
 70
     8
 71
     3
 72
    11
 73
     7
 74
     0
 42
0.000000001
 43
0.00000001
 40
0.0
 40
0.0
 40
0.0
 40
0.0
 40
0.3433809609102533
 40
0.6129867966692978
 40
0.8023280905469689
 40
1.0
 40
1.0
 40
1.0
 40
1.0
 10
589.9767184427479
 20
971.0226102778782
 30
0.0
 10
589.9533833234909
 20
970.8710198955929
 30
0.0
 10
589.9117266167088
 20
970.6004082035624
 30
0.0
 10
589.789144435267
 20
970.2281967227185
 30
0.0
 10
589.6260185089703
 20
969.935248287204
 30
0.0
 10
589.502314066299
 20
969.7933226829931
 30
0.0
 10
589.4391304509077
 20
969.7208323778997
 30
0.0
  0
SPLINE
  5
18A
330
1F
100
AcDbEntity
  8
0
  6
SLD-実線
 62
     7
370
    25
100
AcDbSpline
210
0.0
220
0.0
230
1.0
 70
     8
 71
     3
 72
    13
 73
     9
 74
     0
 42
0.000000001
 43
0.00000001
 40
0.0
 40
0.0
 40
0.0
 40
0.0
 40
0.0932232790027632
 40
0.1783348193787182
 40
0.265294028255786
 40
0.3640932338039307
 40
0.6251347018441948
 40
1.0
 40
1.0
 40
1.0
 40
1.0
 10
590.0845863867942
 20
971.2919786885996
 30
0.0
 10
590.0774676864178
 20
971.2874469226338
 30
0.0
 10
590.0638497128878
 20
971.2787777181858
 30
0.0
 10
590.0447403777695
 20
971.2589143571798
 30
0.0
 10
590.0286840936607
 20
971.2342127973956
 30
0.0
 10
590.0092783747027
 20
971.1903736964194
 30
0.0
 10
589.9913239602944
 20
971.1180911965578
 30
0.0
 10
589.9821351948356
 20
971.0580213109997
 30
0.0
 10
589.9767184427479
 20
971.0226102778782
 30
0.0
  0
SPLINE
  5
18B
330
1F
100
AcDbEntity
  8
0
  6
SLD-実線
 62
     7
370
    25
100
AcDbSpline
210
0.0
220
0.0
230
1.0
 70
     8
 71
     3
 72
    12
 73
     8
 74
     0
 42
0.000000001
 43
0.00000001
 40
0.0
 40
0.0
 40
0.0
 40
0.0
 40
0.5645026414211879
 40
0.6816992501535944
 40
0.7864814855494178
 40
0.8870345597079262
 40
0.9999999999999999
 40
0.9999999999999999
 40
0.9999999999999999
 40
0.9999999999999999
 10
590.1569373791637
 20
971.1266484553562
 30
0.0
 10
590.1577022882308
 20
971.1743752946855
 30
0.0
 10
590.1586260003612
 20
971.232010721335
 30
0.0
 10
590.1406154406177
 20
971.28374182642
 30
0.0
 10
590.1277166645824
 20
971.2988615619819
 30
0.0
 10
590.1082433018288
 20
971.3032823776222
 30
0.0
 10
590.0927718237323
 20
971.2958898339677
 30
0.0
 10
590.0845863867942
 20
971.2919786885996
 30
0.0
  0
SPLINE
  5
18C
330
1F
100
AcDbEntity
  8
0
  6
SLD-実線
 62
     7
370
    25
100
AcDbSpline
210
0.0
220
0.0
230
1.0
 70
     8
 71
     3
 72
    10
 73
     6
 74
     0
 42
0.000000001
 43
0.00000001
 40
0.0
 40
0.0
 40
0.0
 40
0.0
 40
0.627477135703049
 40
0.8913519533548946
 40
1.0
 40
1.0
 40
1.0
 40
1.0
 10
590.0008351658108
 20
969.7002723636678
 30
0.0
 10
590.0403086901968
 20
970.0014885892181
 30
0.0
 10
590.0963821326623
 20
970.4293761659112
 30
0.0
 10
590.1431400103429
 20
970.9029223790503
 30
0.0
 10
590.1538219431781
 20
971.0761312677594
 30
0.0
 10
590.1569373791637
 20
971.1266484553562
 30
0.0
  0
SPLINE
  5
18D
330
1F
100
AcDbEntity
  8
0
  6
SLD-実線
 62
     7
370
    25
100
AcDbSpline
210
0.0
220
0.0
230
1.0
 70
     8
 71
     3
 72
    13
 73
     9
 74
     0
 42
0.000000001
 43
0.00000001
 40
0.0
 40
0.0
 40
0.0
 40
0.0
 40
0.4215040230646691
 40
0.5327038724759974
 40
0.6250170879073766
 40
0.7278239401788406
 40
0.8464721274816724
 40
1.0
 40
1.0
 40
1.0
 40
1.0
 10
589.3562567404812
 20
968.9686558521435
 30
0.0
 10
589.4700247273563
 20
969.0320469570577
 30
0.0
 10
589.6138066223227
 20
969.1121617014504
 30
0.0
 10
589.7805052730258
 20
969.2386343573297
 30
0.0
 10
589.8584089129805
 20
969.318505152201
 30
0.0
 10
589.9226616458402
 20
969.4227250354019
 30
0.0
 10
589.9693942434233
 20
969.5548099428464
 30
0.0
 10
589.9894961633786
 20
969.6478121106526
 30
0.0
 10
590.0008351658108
 20
969.7002723636678
 30
0.0
  0
SPLINE
  5
18E
330
1F
100
AcDbEntity
  8
0
  6
SLD-実線
 62
     7
370
    25
100
AcDbSpline
210
0.0
220
0.0
230
1.0
 70
     8
 71
     3
 72
     9
 73
     5
 74
     0
 42
0.000000001
 43
0.00000001
 40
0.0
 40
0.0
 40
0.0
 40
0.0
 40
0.481098929769589
 40
1.0
 40
1.0
 40
1.0
 40
1.0
 10
587.3400840398023
 20
967.8467715835709
 30
0.0
 10
587.6633443099664
 20
968.0224936208839
 30
0.0
 10
588.3352648862999
 20
968.3877449786397
 30
0.0
 10
589.0074560343556
 20
968.7701996920435
 30
0.0
 10
589.3562567404812
 20
968.9686558521435
 30
0.0
  0
SPLINE
  5
18F
330
1F
100
AcDbEntity
  8
0
  6
SLD-実線
 62
     7
370
    25
100
AcDbSpline
210
0.0
220
0.0
230
1.0
 70
     8
 71
     3
 72
     9
 73
     5
 74
     0
 42
0.000000001
 43
0.00000001
 40
0.0
 40
0.0
 40
0.0
 40
0.0
 40
0.4450418557975926
 40
1.0
 40
1.0
 40
1.0
 40
1.0
 10
586.408294598206
 20
967.3493689457435
 30
0.0
 10
586.5466126828545
 20
967.4260542803027
 30
0.0
 10
586.8574106063455
 20
967.5983646676516
 30
0.0
 10
587.1678198834418
 20
967.7581161804789
 30
0.0
 10
587.3400840398023
 20
967.8467715835709
 30
0.0
  0
SPLINE
  5
190
330
1F
100
AcDbEntity
  8
0
  6
SLD-実線
 62
     7
370
    25
100
AcDbSpline
210
0.0
220
0.0
230
1.0
 70
     8
 71
     3
 72
     9
 73
     5
 74
     0
 42
0.000000001
 43
0.00000001
 40
0.0
 40
0.0
 40
0.0
 40
0.0
 40
0.7412769228121423
 40
1.0
 40
1.0
 40
1.0
 40
1.0
 10
585.9316565469409
 20
967.0625656417462
 30
0.0
 10
586.0494066717196
 20
967.1350578552479
 30
0.0
 10
586.2082543589402
 20
967.2328515559159
 30
0.0
 10
586.3671775112135
 20
967.3254194860184
 30
0.0
 10
586.408294598206
 20
967.3493689457435
 30
0.0
  0
SPLINE
  5
191
330
1F
100
AcDbEntity
  8
0
  6
SLD-実線
 62
     7
370
    25
100
AcDbSpline
210
0.0
220
0.0
230
1.0
 70
     8
 71
     3
 72
     9
 73
     5
 74
     0
 42
0.000000001
 43
0.00000001
 40
0.0
 40
0.0
 40
0.0
 40
0.0
 40
0.5309207184141929
 40
1.0
 40
1.0
 40
1.0
 40
1.0
 10
585.2397205396809
 20
966.6342575440378
 30
0.0
 10
585.3621474952266
 20
966.7109243238581
 30
0.0
 10
585.5927411626039
 20
966.8553277670864
 30
0.0
 10
585.8234403417327
 20
966.996394268573
 30
0.0
 10
585.9316565469409
 20
967.0625656417462
 30
0.0
  0
SPLINE
  5
192
330
1F
100
AcDbEntity
  8
0
  6
SLD-実線
 62
     7
370
    25
100
AcDbSpline
210
0.0
220
0.0
230
1.0
 70
     8
 71
     3
 72
    13
 73
     9
 74
     0
 42
0.000000001
 43
0.00000001
 40
0.0
 40
0.0
 40
0.0
 40
0.0
 40
0.1017644510989636
 40
0.1934041163040084
 40
0.2847629054967736
 40
0.3857467012829195
 40
0.6432769585003518
 40
1.0
 40
1.0
 40
1.0
 40
1.0
 10
585.0485401299297
 20
966.6337692999791
 30
0.0
 10
585.0489930457529
 20
966.6246001134648
 30
0.0
 10
585.0498538157333
 20
966.6071740044861
 30
0.0
 10
585.0588846824925
 20
966.5876479405763
 30
0.0
 10
585.0742004080463
 20
966.5765866668697
 30
0.0
 10
585.105345610109
 20
966.5729116636656
 30
0.0
 10
585.1622012707656
 20
966.591301062254
 30
0.0
 10
585.2112410513175
 20
966.6184759372165
 30
0.0
 10
585.2397205396809
 20
966.6342575440378
 30
0.0
  0
SPLINE
  5
193
330
1F
100
AcDbEntity
  8
0
  6
SLD-実線
 62
     7
370
    25
100
AcDbSpline
210
0.0
220
0.0
230
1.0
 70
     8
 71
     3
 72
    12
 73
     8
 74
     0
 42
0.000000001
 43
0.00000001
 40
0.0
 40
0.0
 40
0.0
 40
0.0
 40
0.261941168825112
 40
0.4696600624951505
 40
0.6420869542810151
 40
0.8236187342020385
 40
1.0
 40
1.0
 40
1.0
 40
1.0
 10
585.1450070221815
 20
966.773006231752
 30
0.0
 10
585.1331461132417
 20
966.7655362910693
 30
0.0
 10
585.111879524034
 20
966.7521427003497
 30
0.0
 10
585.0840205948206
 20
966.7248427884567
 30
0.0
 10
585.0635305580266
 20
966.6950187317125
 30
0.0
 10
585.0506500634606
 20
966.663020205354
 30
0.0
 10
585.0492366612963
 20
966.6434256103769
 30
0.0
 10
585.0485401299297
 20
966.6337692999791
 30
0.0
  0
SPLINE
  5
194
330
1F
100
AcDbEntity
  8
0
  6
SLD-実線
 62
     7
370
    25
100
AcDbSpline
210
0.0
220
0.0
230
1.0
 70
     8
 71
     3
 72
     9
 73
     5
 74
     0
 42
0.000000001
 43
0.00000001
 40
0.0
 40
0.0
 40
0.0
 40
0.0
 40
0.5682267685714517
 40
1.0
 40
1.0
 40
1.0
 40
1.0
 10
585.502376077606
 20
967.0355163331277
 30
0.0
 10
585.4353020181044
 20
966.9806625817198
 30
0.0
 10
585.3172610119227
 20
966.8841276163822
 30
0.0
 10
585.1969528611904
 20
966.8065165937768
 30
0.0
 10
585.1450070221815
 20
966.773006231752
 30
0.0
  0
SPLINE
  5
195
330
1F
100
AcDbEntity
  8
0
  6
SLD-実線
 62
     7
370
    25
100
AcDbSpline
210
0.0
220
0.0
230
1.0
 70
     8
 71
     3
 72
    10
 73
     6
 74
     0
 42
0.000000001
 43
0.00000001
 40
0.0
 40
0.0
 40
0.0
 40
0.0
 40
0.6273497773307345
 40
0.8141056246683257
 40
1.0
 40
1.0
 40
1.0
 40
1.0
 10
585.848344081236
 20
967.992740298641
 30
0.0
 10
585.8283672588899
 20
967.7891297115851
 30
0.0
 10
585.8024435333662
 20
967.5249062589693
 30
0.0
 10
585.6451189125984
 20
967.1733342271813
 30
0.0
 10
585.5498836360695
 20
967.0813847766079
 30
0.0
 10
585.502376077606
 20
967.0355163331277
 30
0.0
  0
SPLINE
  5
196
330
1F
100
AcDbEntity
  8
0
  6
SLD-実線
 62
     7
370
    25
100
AcDbSpline
210
0.0
220
0.0
230
1.0
 70
     8
 71
     3
 72
     9
 73
     5
 74
     0
 42
0.000000001
 43
0.00000001
 40
0.0
 40
0.0
 40
0.0
 40
0.0
 40
0.6532550466423073
 40
1.0
 40
1.0
 40
1.0
 40
1.0
 10
585.9079785791563
 20
971.0176755930456
 30
0.0
 10
585.9134310274789
 20
970.3689859773588
 30
0.0
 10
585.9217776117883
 20
969.3759747193193
 30
0.0
 10
585.8672509322049
 20
968.3488801553265
 30
0.0
 10
585.848344081236
 20
967.992740298641
 30
0.0
  0
LINE
  5
197
330
1F
100
AcDbEntity
  8
0
  6
SLD-実線
 62
     7
370
    25
100
AcDbLine
 10
585.9079785792
 20
973.4410714434
 30
0.0
 11
585.9079785792
 21
971.017675593
 31
0.0
  0
SPLINE
  5
198
330
1F
100
AcDbEntity
  8
0
  6
SLD-実線
 62
     7
370
    25
100
AcDbSpline
210
0.0
220
0.0
230
1.0
 70
     8
 71
     3
 72
     9
 73
     5
 74
     0
 42
0.000000001
 43
0.00000001
 40
0.0
 40
0.0
 40
0.0
 40
0.0
 40
0.3388493640247646
 40
1.0
 40
1.0
 40
1.0
 40
1.0
 10
585.8851772987481
 20
976.4047458790722
 30
0.0
 10
585.8932519124503
 20
976.0732535504735
 30
0.0
 10
585.9170814206607
 20
975.0949653676028
 30
0.0
 10
585.9116015795751
 20
974.0993338527143
 30
0.0
 10
585.9079785791563
 20
973.4410714434487
 30
0.0
  0
LINE
  5
199
330
1F
100
AcDbEntity
  8
0
  6
SLD-実線
 62
     7
370
    25
100
AcDbLine
 10
585.0608170459
 20
976.9501630529
 30
0.0
 11
583.2930498032
 21
977.9706733599
 31
0.0
  0
LINE
  5
19A
330
1F
100
AcDbEntity
  8
0
  6
SLD-実線
 62
     7
370
    25
100
AcDbLine
 10
584.8696366362
 20
976.7283995943
 30
0.0
 11
583.1018693934
 21
977.7489099014
 31
0.0
  0
LINE
  5
19B
330
1F
100
AcDbEntity
  8
0
  6
SLD-実線
 62
     7
370
    25
100
AcDbLine
 10
585.9202563183
 20
977.4311160626
 30
0.0
 11
584.1524890756
 21
978.4516263696
 31
0.0
  0
LINE
  5
19C
330
1F
100
AcDbEntity
  8
0
  6
SLD-実線
 62
     7
370
    25
100
AcDbLine
 10
586.4082945982
 20
977.6839926214
 30
0.0
 11
584.6405273555
 21
978.7045029285
 31
0.0
  0
LINE
  5
19D
330
1F
100
AcDbEntity
  8
0
  6
SLD-実線
 62
     7
370
    25
100
AcDbLine
 10
589.1418354719
 20
979.2767162414
 30
0.0
 11
587.3740682291
 21
980.2972265485
 31
0.0
  0
LINE
  5
19E
330
1F
100
AcDbEntity
  8
0
  6
SLD-実線
 62
     7
370
    25
100
AcDbLine
 10
585.9079785792
 20
973.4410714434
 30
0.0
 11
584.1402113364
 21
974.4615817505
 31
0.0
  0
LINE
  5
19F
330
1F
100
AcDbEntity
  8
0
  6
SLD-実線
 62
     7
370
    25
100
AcDbLine
 10
578.8496195173
 20
963.1949617193
 30
0.0
 11
577.0818522745
 21
964.2154720264
 31
0.0
  0
LINE
  5
1A0
330
1F
100
AcDbEntity
  8
0
  6
SLD-実線
 62
     7
370
    25
100
AcDbLine
 10
578.4904970871
 20
962.9314394163
 30
0.0
 11
576.7227298444
 21
963.9519497233
 31
0.0
  0
LINE
  5
1A1
330
1F
100
AcDbEntity
  8
0
  6
SLD-実線
 62
     7
370
    25
100
AcDbLine
 10
578.3957835696
 20
962.7932146862
 30
0.0
 11
576.6280163269
 21
963.8137249932
 31
0.0
  0
LINE
  5
1A2
330
1F
100
AcDbEntity
  8
0
  6
SLD-実線
 62
     7
370
    25
100
AcDbLine
 10
589.6553059175
 20
979.6435191619
 30
0.0
 11
587.8875386747
 21
980.664029469
 31
0.0
  0
LINE
  5
1A3
330
1F
100
AcDbEntity
  8
0
  6
SLD-実線
 62
     7
370
    25
100
AcDbLine
 10
589.4636859292
 20
978.4437384413
 30
0.0
 11
589.204920743
 21
978.5931204036
 31
0.0
  0
LINE
  5
1A4
330
1F
100
AcDbEntity
  8
0
  6
SLD-実線
 62
     7
370
    25
100
AcDbLine
 10
585.9079785792
 20
971.017675593
 30
0.0
 11
584.1402113364
 21
972.0381859001
 31
0.0
  0
LINE
  5
1A5
330
1F
100
AcDbEntity
  8
0
  6
SLD-実線
 62
     7
370
    25
100
AcDbLine
 10
589.8223704273
 20
979.8083209846
 30
0.0
 11
588.0546031846
 21
980.8288312916
 31
0.0
  0
LINE
  5
1A6
330
1F
100
AcDbEntity
  8
0
  6
SLD-実線
 62
     7
370
    25
100
AcDbLine
 10
583.3949974321
 20
966.4792339474
 30
0.0
 11
581.6272301894
 21
967.4997442545
 31
0.0
  0
LINE
  5
1A7
330
1F
100
AcDbEntity
  8
0
  6
SLD-実線
 62
     7
370
    25
100
AcDbLine
 10
583.7058864162
 20
967.4850711808
 30
0.0
 11
581.9381191734
 21
968.5055814878
 31
0.0
  0
LINE
  5
1A8
330
1F
100
AcDbEntity
  8
0
  6
SLD-実線
 62
     7
370
    25
100
AcDbLine
 10
588.8787420018
 20
974.5646386719
 30
0.0
 11
587.1109747591
 21
975.5851489789
 31
0.0
  0
LINE
  5
1A9
330
1F
100
AcDbEntity
  8
0
  6
SLD-実線
 62
     7
370
    25
100
AcDbLine
 10
583.8128768497
 20
967.725577493
 30
0.0
 11
582.0451096069
 21
968.7460878001
 31
0.0
  0
SPLINE
  5
1AA
330
1F
100
AcDbEntity
  8
0
  6
SLD-実線
 62
     7
370
    25
100
AcDbSpline
210
0.0
220
0.0
230
1.0
 70
     8
 71
     3
 72
    11
 73
     7
 74
     0
 42
0.000000001
 43
0.00000001
 40
0.0
 40
0.0
 40
0.0
 40
0.0
 40
0.6277867317949409
 40
0.8685237789853524
 40
0.9417449465983999
 40
1.0
 40
1.0
 40
1.0
 40
1.0
 10
593.5135712519867
 20
973.3540246925868
 30
0.0
 10
593.5218500962256
 20
973.1358524344381
 30
0.0
 10
593.5333036245019
 20
972.8340177754366
 30
0.0
 10
593.5815400317616
 20
972.5316895663489
 30
0.0
 10
593.615690209985
 20
972.4244360183233
 30
0.0
 10
593.6363862428254
 20
972.3961317713961
 30
0.0
 10
593.6455563306862
 20
972.3835906030881
 30
0.0
  0
SPLINE
  5
1AB
330
1F
100
AcDbEntity
  8
0
  6
SLD-実線
 62
     7
370
    25
100
AcDbSpline
210
0.0
220
0.0
230
1.0
 70
     8
 71
     3
 72
    11
 73
     7
 74
     0
 42
0.000000001
 43
0.00000001
 40
0.0
 40
0.0
 40
0.0
 40
0.0
 40
0.0830037429749301
 40
0.1977804268011761
 40
0.3586630151141792
 40
0.9999999999999999
 40
0.9999999999999999
 40
0.9999999999999999
 40
0.9999999999999999
 10
593.6455563306862
 20
972.3835906030881
 30
0.0
 10
593.6843839278165
 20
972.3538627516465
 30
0.0
 10
593.7769019090164
 20
972.2830275466874
 30
0.0
 10
594.0092632530789
 20
972.2804799269877
 30
0.0
 10
594.6346924500136
 20
972.4213050616781
 30
0.0
 10
595.2117775598352
 20
972.7443824091822
 30
0.0
 10
595.6731300831597
 20
973.002667620433
 30
0.0
  0
SPLINE
  5
1AC
330
1F
100
AcDbEntity
  8
0
  6
SLD-実線
 62
     7
370
    25
100
AcDbSpline
210
0.0
220
0.0
230
1.0
 70
     8
 71
     3
 72
     9
 73
     5
 74
     0
 42
0.000000001
 43
0.00000001
 40
0.0
 40
0.0
 40
0.0
 40
0.0
 40
0.5732064075005735
 40
1.0
 40
1.0
 40
1.0
 40
1.0
 10
595.6731300831597
 20
973.002667620433
 30
0.0
 10
596.2802323769893
 20
973.422351099418
 30
0.0
 10
597.3393662001383
 20
974.1545192564612
 30
0.0
 10
598.1611682635037
 20
975.3943769862618
 30
0.0
 10
598.5119081184507
 20
975.9235403209515
 30
0.0
  0
SPLINE
  5
1AD
330
1F
100
AcDbEntity
  8
0
  6
SLD-実線
 62
     7
370
    25
100
AcDbSpline
210
0.0
220
0.0
230
1.0
 70
     8
 71
     3
 72
    10
 73
     6
 74
     0
 42
0.000000001
 43
0.00000001
 40
0.0
 40
0.0
 40
0.0
 40
0.0
 40
0.2513916401070668
 40
0.5312695801423621
 40
0.9999999999999999
 40
0.9999999999999999
 40
0.9999999999999999
 40
0.9999999999999999
 10
598.5119081184507
 20
975.9235403209515
 30
0.0
 10
598.6745282101213
 20
976.2495113725961
 30
0.0
 10
599.0181955961478
 20
976.9383906991796
 30
0.0
 10
599.3733013631968
 20
978.2738605286595
 30
0.0
 10
599.4311528989396
 20
979.1917057572729
 30
0.0
 10
599.4673758107998
 20
979.7664014224854
 30
0.0
  0
SPLINE
  5
1AE
330
1F
100
AcDbEntity
  8
0
  6
SLD-実線
 62
     7
370
    25
100
AcDbSpline
210
0.0
220
0.0
230
1.0
 70
     8
 71
     3
 72
    10
 73
     6
 74
     0
 42
0.000000001
 43
0.00000001
 40
0.0
 40
0.0
 40
0.0
 40
0.0
 40
0.3516783804531221
 40
0.6453643907615911
 40
1.0
 40
1.0
 40
1.0
 40
1.0
 10
599.4673758107998
 20
979.7664014224854
 30
0.0
 10
599.4417615825594
 20
980.1974154071681
 30
0.0
 10
599.3947569563953
 20
980.9883684287219
 30
0.0
 10
599.0117030423246
 20
981.9778590606618
 30
0.0
 10
598.5661829172379
 20
982.3661382339849
 30
0.0
 10
598.3224808776569
 20
982.5785291477448
 30
0.0
  0
SPLINE
  5
1AF
330
1F
100
AcDbEntity
  8
0
  6
SLD-実線
 62
     7
370
    25
100
AcDbSpline
210
0.0
220
0.0
230
1.0
 70
     8
 71
     3
 72
    10
 73
     6
 74
     0
 42
0.000000001
 43
0.00000001
 40
0.0
 40
0.0
 40
0.0
 40
0.0
 40
0.2964782879874734
 40
0.5688503390813616
 40
0.9999999999999999
 40
0.9999999999999999
 40
0.9999999999999999
 40
0.9999999999999999
 10
598.3224808776569
 20
982.5785291477448
 30
0.0
 10
598.0063788623538
 20
982.721463649686
 30
0.0
 10
597.3998766465927
 20
982.9957108481826
 30
0.0
 10
596.0334018119203
 20
982.7604098028775
 30
0.0
 10
595.0335557370605
 20
982.2168147911359
 30
0.0
 10
594.4208052152414
 20
981.8836753855031
 30
0.0
  0
SPLINE
  5
1B0
330
1F
100
AcDbEntity
  8
0
  6
SLD-実線
 62
     7
370
    25
100
AcDbSpline
210
0.0
220
0.0
230
1.0
 70
     8
 71
     3
 72
    11
 73
     7
 74
     0
 42
0.000000001
 43
0.00000001
 40
0.0
 40
0.0
 40
0.0
 40
0.0
 40
0.6359203312038026
 40
0.8804389359391024
 40
0.9501814506301318
 40
1.0
 40
1.0
 40
1.0
 40
1.0
 10
594.4208052152414
 20
981.8836753855031
 30
0.0
 10
594.2549068480016
 20
981.7813299507377
 30
0.0
 10
594.0252186704744
 20
981.639631531515
 30
0.0
 10
593.7797774524414
 20
981.4586611563569
 30
0.0
 10
593.6866087212597
 20
981.3821255529682
 30
0.0
 10
593.6576308094568
 20
981.3519810210955
 30
0.0
 10
593.6455563306862
 20
981.3394204365846
 30
0.0
  0
SPLINE
  5
1B1
330
1F
100
AcDbEntity
  8
0
  6
SLD-実線
 62
     7
370
    25
100
AcDbSpline
210
0.0
220
0.0
230
1.0
 70
     8
 71
     3
 72
    11
 73
     7
 74
     0
 42
0.000000001
 43
0.00000001
 40
0.0
 40
0.0
 40
0.0
 40
0.0
 40
0.2872922781257935
 40
0.5317504975060717
 40
0.7412908226585145
 40
0.9999999999999999
 40
0.9999999999999999
 40
0.9999999999999999
 40
0.9999999999999999
 10
593.6455563306862
 20
981.3394204365846
 30
0.0
 10
593.6193150272547
 20
981.3096707654294
 30
0.0
 10
593.5707448873055
 20
981.2546069727626
 30
0.0
 10
593.5224791638656
 20
981.1570935156802
 30
0.0
 10
593.5029063624655
 20
981.0650165646362
 30
0.0
 10
593.5015851453365
 20
981.0098813575872
 30
0.0
 10
593.5008551691278
 20
980.9794189994167
 30
0.0
  0
SPLINE
  5
1B2
330
1F
100
AcDbEntity
  8
0
  6
SLD-実線
 62
     7
370
    25
100
AcDbSpline
210
0.0
220
0.0
230
1.0
 70
     8
 71
     3
 72
     9
 73
     5
 74
     0
 42
0.000000001
 43
0.00000001
 40
0.0
 40
0.0
 40
0.0
 40
0.0
 40
0.4912224123327356
 40
0.9999999999999999
 40
0.9999999999999999
 40
0.9999999999999999
 40
0.9999999999999999
 10
593.5008551691278
 20
980.9794189994167
 30
0.0
 10
593.4966014678478
 20
980.4963447879869
 30
0.0
 10
593.4879420476478
 20
979.5129323880199
 30
0.0
 10
593.4889445024087
 20
978.5350468847605
 30
0.0
 10
593.4894545289237
 20
978.0375206573974
 30
0.0
  0
LINE
  5
1B3
330
1F
100
AcDbEntity
  8
0
  6
SLD-実線
 62
     7
370
    25
100
AcDbLine
 10
593.4894545289
 20
978.0375206574
 30
0.0
 11
593.4894545289
 21
976.330611466
 31
0.0
  0
SPLINE
  5
1B4
330
1F
100
AcDbEntity
  8
0
  6
SLD-実線
 62
     7
370
    25
100
AcDbSpline
210
0.0
220
0.0
230
1.0
 70
     8
 71
     3
 72
     9
 73
     5
 74
     0
 42
0.000000001
 43
0.00000001
 40
0.0
 40
0.0
 40
0.0
 40
0.0
 40
0.7121556055639695
 40
1.0
 40
1.0
 40
1.0
 40
1.0
 10
593.4894545289237
 20
976.3306114659513
 30
0.0
 10
593.4890497419691
 20
975.6203860153183
 30
0.0
 10
593.4884813451869
 20
974.623096314747
 30
0.0
 10
593.5079634401576
 20
973.6376732095621
 30
0.0
 10
593.5135712519867
 20
973.3540246925868
 30
0.0
  0
SPLINE
  5
1B5
330
1F
100
AcDbEntity
  8
0
  6
SLD-実線
 62
     7
370
    25
100
AcDbSpline
210
0.0
220
0.0
230
1.0
 70
     8
 71
     3
 72
    12
 73
     8
 74
     0
 42
0.000000001
 43
0.00000001
 40
0.0
 40
0.0
 40
0.0
 40
0.0
 40
0.2117300905832976
 40
0.3831752705494593
 40
0.540765525667566
 40
0.7456658583888577
 40
1.0
 40
1.0
 40
1.0
 40
1.0
 10
591.9499194679197
 20
980.6906912923765
 30
0.0
 10
592.0146242727326
 20
980.7094262930949
 30
0.0
 10
592.1317227967152
 20
980.7433316721045
 30
0.0
 10
592.280771475605
 20
980.7275016992947
 30
0.0
 10
592.3867605433267
 20
980.6334152692273
 30
0.0
 10
592.4451470232063
 20
980.4497971425085
 30
0.0
 10
592.4563232014754
 20
980.2901673415599
 30
0.0
 10
592.4625128145498
 20
980.2017608506084
 30
0.0
  0
SPLINE
  5
1B6
330
1F
100
AcDbEntity
  8
0
  6
SLD-実線
 62
     7
370
    25
100
AcDbSpline
210
0.0
220
0.0
230
1.0
 70
     8
 71
     3
 72
     9
 73
     5
 74
     0
 42
0.000000001
 43
0.00000001
 40
0.0
 40
0.0
 40
0.0
 40
0.0
 40
0.5753469804151193
 40
1.0
 40
1.0
 40
1.0
 40
1.0
 10
591.5438782110908
 20
980.4978094627801
 30
0.0
 10
591.6222886967812
 20
980.5415792645628
 30
0.0
 10
591.7585725191691
 20
980.6176547516563
 30
0.0
 10
591.8928837838209
 20
980.6689209475063
 30
0.0
 10
591.9499194679197
 20
980.6906912923765
 30
0.0
  0
SPLINE
  5
1B7
330
1F
100
AcDbEntity
  8
0
  6
SLD-実線
 62
     7
370
    25
100
AcDbSpline
210
0.0
220
0.0
230
1.0
 70
     8
 71
     3
 72
    12
 73
     8
 74
     0
 42
0.000000001
 43
0.00000001
 40
0.0
 40
0.0
 40
0.0
 40
0.0
 40
0.1862507442934697
 40
0.3614161819231748
 40
0.5416884262530173
 40
0.7665398731389496
 40
0.9999999999999999
 40
0.9999999999999999
 40
0.9999999999999999
 40
0.9999999999999999
 10
591.4482880062152
 20
980.5261741923624
 30
0.0
 10
591.4491667814273
 20
980.5170549761347
 30
0.0
 10
591.4508720287436
 20
980.4993593028979
 30
0.0
 10
591.4652020022455
 20
980.4840764354819
 30
0.0
 10
591.4861585903216
 20
980.4785012998404
 30
0.0
 10
591.5131428024159
 20
980.482345400997
 30
0.0
 10
591.5335055803486
 20
980.492590628557
 30
0.0
 10
591.5438782110908
 20
980.4978094627801
 30
0.0
  0
SPLINE
  5
1B8
330
1F
100
AcDbEntity
  8
0
  6
SLD-実線
 62
     7
370
    25
100
AcDbSpline
210
0.0
220
0.0
230
1.0
 70
     8
 71
     3
 72
    13
 73
     9
 74
     0
 42
0.000000001
 43
0.00000001
 40
0.0
 40
0.0
 40
0.0
 40
0.0
 40
0.3542981920530518
 40
0.6117572425702283
 40
0.7132489290084789
 40
0.8052686910096788
 40
0.8975815037808677
 40
1.0
 40
1.0
 40
1.0
 40
1.0
 10
591.6403459265233
 20
980.7484442269615
 30
0.0
 10
591.6118781016565
 20
980.7313324226731
 30
0.0
 10
591.5627234674159
 20
980.7017859264118
 30
0.0
 10
591.5057034390272
 20
980.6541646536873
 30
0.0
 10
591.4743303232387
 20
980.6141293785669
 30
0.0
 10
591.4588232813592
 20
980.5850211197212
 30
0.0
 10
591.4496348292814
 20
980.5546645467361
 30
0.0
 10
591.4487522151452
 20
980.535993950614
 30
0.0
 10
591.4482880062152
 20
980.5261741923624
 30
0.0
  0
SPLINE
  5
1B9
330
1F
100
AcDbEntity
  8
0
  6
SLD-実線
 62
     7
370
    25
100
AcDbSpline
210
0.0
220
0.0
230
1.0
 70
     8
 71
     3
 72
    10
 73
     6
 74
     0
 42
0.000000001
 43
0.00000001
 40
0.0
 40
0.0
 40
0.0
 40
0.0
 40
0.1726862195096515
 40
0.4395159151013147
 40
0.9999999999999999
 40
0.9999999999999999
 40
0.9999999999999999
 40
0.9999999999999999
 10
592.9886997545956
 20
981.4827796587423
 30
0.0
 10
592.9111075231373
 20
981.4413707622051
 30
0.0
 10
592.713622045078
 20
981.3359780498823
 30
0.0
 10
592.2643416548485
 20
981.0980846836402
 30
0.0
 10
591.8923564559335
 20
980.8896520471294
 30
0.0
 10
591.6403459265233
 20
980.7484442269615
 30
0.0
  0
SPLINE
  5
1BA
330
1F
100
AcDbEntity
  8
0
  6
SLD-実線
 62
     7
370
    25
100
AcDbSpline
210
0.0
220
0.0
230
1.0
 70
     8
 71
     3
 72
     9
 73
     5
 74
     0
 42
0.000000001
 43
0.00000001
 40
0.0
 40
0.0
 40
0.0
 40
0.0
 40
0.6975897906302383
 40
1.0
 40
1.0
 40
1.0
 40
1.0
 10
594.5992703653145
 20
982.4565949464653
 30
0.0
 10
594.2246873393119
 20
982.233524833779
 30
0.0
 10
593.6877198678354
 20
981.9137522171461
 30
0.0
 10
593.1510071576532
 20
981.582848362659
 30
0.0
 10
592.9886997545956
 20
981.4827796587423
 30
0.0
  0
SPLINE
  5
1BB
330
1F
100
AcDbEntity
  8
0
  6
SLD-実線
 62
     7
370
    25
100
AcDbSpline
210
0.0
220
0.0
230
1.0
 70
     8
 71
     3
 72
    10
 73
     6
 74
     0
 42
0.000000001
 43
0.00000001
 40
0.0
 40
0.0
 40
0.0
 40
0.0
 40
0.3147864150930192
 40
0.6100723291183298
 40
1.0
 40
1.0
 40
1.0
 40
1.0
 10
599.3823089285045
 20
983.6455643804278
 30
0.0
 10
598.9571869865706
 20
983.7903730315708
 30
0.0
 10
598.1332787083237
 20
984.0710196759096
 30
0.0
 10
596.4273927881407
 20
983.5122883585752
 30
0.0
 10
595.2622860523986
 20
982.8394693558816
 30
0.0
 10
594.5992703653145
 20
982.4565949464653
 30
0.0
  0
SPLINE
  5
1BC
330
1F
100
AcDbEntity
  8
0
  6
SLD-実線
 62
     7
370
    25
100
AcDbSpline
210
0.0
220
0.0
230
1.0
 70
     8
 71
     3
 72
    10
 73
     6
 74
     0
 42
0.000000001
 43
0.00000001
 40
0.0
 40
0.0
 40
0.0
 40
0.0
 40
0.3313837058207169
 40
0.6183663736337333
 40
0.9999999999999999
 40
0.9999999999999999
 40
0.9999999999999999
 40
0.9999999999999999
 10
600.5412355543693
 20
980.8141940529874
 30
0.0
 10
600.5187312444789
 20
981.2248328891269
 30
0.0
 10
600.476737904874
 20
981.9910903831336
 30
0.0
 10
600.1126180553129
 20
983.011295419677
 30
0.0
 10
599.6476843548481
 20
983.4150874636028
 30
0.0
 10
599.3823089285045
 20
983.6455643804278
 30
0.0
  0
SPLINE
  5
1BD
330
1F
100
AcDbEntity
  8
0
  6
SLD-実線
 62
     7
370
    25
100
AcDbSpline
210
0.0
220
0.0
230
1.0
 70
     8
 71
     3
 72
    10
 73
     6
 74
     0
 42
0.000000001
 43
0.00000001
 40
0.0
 40
0.0
 40
0.0
 40
0.0
 40
0.2390589146858879
 40
0.5102144408857519
 40
1.0
 40
1.0
 40
1.0
 40
1.0
 10
599.2516391879542
 20
976.1850012040986
 30
0.0
 10
599.4398730031116
 20
976.5536936258538
 30
0.0
 10
599.841613347673
 20
977.3405799800892
 30
0.0
 10
600.3912776053012
 20
978.9485397546133
 30
0.0
 10
600.4825119009995
 20
980.0836023303966
 30
0.0
 10
600.5412355543693
 20
980.8141940529874
 30
0.0
  0
SPLINE
  5
1BE
330
1F
100
AcDbEntity
  8
0
  6
SLD-実線
 62
     7
370
    25
100
AcDbSpline
210
0.0
220
0.0
230
1.0
 70
     8
 71
     3
 72
    10
 73
     6
 74
     0
 42
0.000000001
 43
0.00000001
 40
0.0
 40
0.0
 40
0.0
 40
0.0
 40
0.3778563650143676
 40
0.6721102586491563
 40
1.0
 40
1.0
 40
1.0
 40
1.0
 10
595.6371739646141
 20
972.5130296137462
 30
0.0
 10
596.1372017335252
 20
972.8365447999306
 30
0.0
 10
597.0266238108318
 20
973.4119959385001
 30
0.0
 10
598.2947323258215
 20
974.6776625407832
 30
0.0
 10
598.9213771662855
 20
975.6647659189463
 30
0.0
 10
599.2516391879542
 20
976.1850012040986
 30
0.0
  0
SPLINE
  5
1BF
330
1F
100
AcDbEntity
  8
0
  6
SLD-実線
 62
     7
370
    25
100
AcDbSpline
210
0.0
220
0.0
230
1.0
 70
     8
 71
     3
 72
     9
 73
     5
 74
     0
 42
0.000000001
 43
0.00000001
 40
0.0
 40
0.0
 40
0.0
 40
0.0
 40
0.5624587130364581
 40
0.9999999999999999
 40
0.9999999999999999
 40
0.9999999999999999
 40
0.9999999999999999
 10
593.9788082514574
 20
971.6371980379125
 30
0.0
 10
594.2894273235366
 20
971.7926252728938
 30
0.0
 10
594.8416795420192
 20
972.0689606400573
 30
0.0
 10
595.3950510728469
 20
972.3778693146922
 30
0.0
 10
595.6371739646141
 20
972.5130296137462
 30
0.0
  0
SPLINE
  5
1C0
330
1F
100
AcDbEntity
  8
0
  6
SLD-実線
 62
     7
370
    25
100
AcDbSpline
210
0.0
220
0.0
230
1.0
 70
     8
 71
     3
 72
    10
 73
     6
 74
     0
 42
0.000000001
 43
0.00000001
 40
0.0
 40
0.0
 40
0.0
 40
0.0
 40
0.1523015582659204
 40
0.3893391004124725
 40
1.0
 40
1.0
 40
1.0
 40
1.0
 10
592.9886997545956
 20
971.1481559830717
 30
0.0
 10
593.0390105731258
 20
971.1737860680063
 30
0.0
 10
593.1676236290301
 20
971.2393060424936
 30
0.0
 10
593.4974523371123
 20
971.3987719748862
 30
0.0
 10
593.7772493987474
 20
971.5373615504245
 30
0.0
 10
593.9788082514574
 20
971.6371980379125
 30
0.0
  0
SPLINE
  5
1C1
330
1F
100
AcDbEntity
  8
0
  6
SLD-実線
 62
     7
370
    25
100
AcDbSpline
210
0.0
220
0.0
230
1.0
 70
     8
 71
     3
 72
     9
 73
     5
 74
     0
 42
0.000000001
 43
0.00000001
 40
0.0
 40
0.0
 40
0.0
 40
0.0
 40
0.7382832936763075
 40
1.0
 40
1.0
 40
1.0
 40
1.0
 10
592.510746672266
 20
970.8605935277998
 30
0.0
 10
592.6283446515085
 20
970.9329994079566
 30
0.0
 10
592.7876303623594
 20
971.0310727095971
 30
0.0
 10
592.9469921202156
 20
971.1238695100893
 30
0.0
 10
592.9886997545956
 20
971.1481559830717
 30
0.0
  0
SPLINE
  5
1C2
330
1F
100
AcDbEntity
  8
0
  6
SLD-実線
 62
     7
370
    25
100
AcDbSpline
210
0.0
220
0.0
230
1.0
 70
     8
 71
     3
 72
     9
 73
     5
 74
     0
 42
0.000000001
 43
0.00000001
 40
0.0
 40
0.0
 40
0.0
 40
0.0
 40
0.5310697460762948
 40
1.0
 40
1.0
 40
1.0
 40
1.0
 10
591.8183727329082
 20
970.4320326172726
 30
0.0
 10
591.940911666722
 20
970.5087634200095
 30
0.0
 10
592.1716514795604
 20
970.6532468956805
 30
0.0
 10
592.4024964715536
 20
970.7944017473595
 30
0.0
 10
592.510746672266
 20
970.8605935277998
 30
0.0
  0
SPLINE
  5
1C3
330
1F
100
AcDbEntity
  8
0
  6
SLD-実線
 62
     7
370
    25
100
AcDbSpline
210
0.0
220
0.0
230
1.0
 70
     8
 71
     3
 72
    13
 73
     9
 74
     0
 42
0.000000001
 43
0.00000001
 40
0.0
 40
0.0
 40
0.0
 40
0.0
 40
0.1019421223516967
 40
0.1937310690362083
 40
0.2852063053049015
 40
0.3862559839659292
 40
0.6437049638467528
 40
1.0
 40
1.0
 40
1.0
 40
1.0
 10
591.6276294320742
 20
970.4317967108205
 30
0.0
 10
591.6280828247208
 20
970.422627951262
 30
0.0
 10
591.6289444532613
 20
970.4052036172377
 30
0.0
 10
591.6379669170503
 20
970.3856752792635
 30
0.0
 10
591.6532634397012
 20
970.3746046175436
 30
0.0
 10
591.68434664485
 20
970.3708989529969
 30
0.0
 10
591.7410624544779
 20
970.3891985736517
 30
0.0
 10
591.7899766921652
 20
970.4162996866384
 30
0.0
 10
591.8183727329082
 20
970.4320326172726
 30
0.0
  0
SPLINE
  5
1C4
330
1F
100
AcDbEntity
  8
0
  6
SLD-実線
 62
     7
370
    25
100
AcDbSpline
210
0.0
220
0.0
230
1.0
 70
     8
 71
     3
 72
    13
 73
     9
 74
     0
 42
0.000000001
 43
0.00000001
 40
0.0
 40
0.0
 40
0.0
 40
0.0
 40
0.2036408106115526
 40
0.3730046930301126
 40
0.516439104584765
 40
0.6425579671029804
 40
0.82331176494692
 40
1.0
 40
1.0
 40
1.0
 40
1.0
 10
591.7232204601304
 20
970.5705280169559
 30
0.0
 10
591.7140364243182
 20
970.5648493059273
 30
0.0
 10
591.6972142144251
 20
970.5544477274926
 30
0.0
 10
591.6744712053969
 20
970.5347986659598
 30
0.0
 10
591.6565320323563
 20
970.5143508780471
 30
0.0
 10
591.6410357426126
 20
970.4899937641915
 30
0.0
 10
591.6296020984704
 20
970.4608788044922
 30
0.0
 10
591.628281982519
 20
970.4414169553767
 30
0.0
 10
591.6276294320742
 20
970.4317967108205
 30
0.0
  0
SPLINE
  5
1C5
330
1F
100
AcDbEntity
  8
0
  6
SLD-実線
 62
     7
370
    25
100
AcDbSpline
210
0.0
220
0.0
230
1.0
 70
     8
 71
     3
 72
     9
 73
     5
 74
     0
 42
0.000000001
 43
0.00000001
 40
0.0
 40
0.0
 40
0.0
 40
0.0
 40
0.5666046011751232
 40
1.0
 40
1.0
 40
1.0
 40
1.0
 10
592.0814662029311
 20
970.8335442191814
 30
0.0
 10
592.0144228232093
 20
970.778702656371
 30
0.0
 10
591.8960980168403
 20
970.6819128267498
 30
0.0
 10
591.7754909904388
 20
970.6042058591642
 30
0.0
 10
591.7232204601304
 20
970.5705280169559
 30
0.0
  0
SPLINE
  5
1C6
330
1F
100
AcDbEntity
  8
0
  6
SLD-実線
 62
     7
370
    25
100
AcDbSpline
210
0.0
220
0.0
230
1.0
 70
     8
 71
     3
 72
    10
 73
     6
 74
     0
 42
0.000000001
 43
0.00000001
 40
0.0
 40
0.0
 40
0.0
 40
0.0
 40
0.6271194745454772
 40
0.8138605888827579
 40
1.0
 40
1.0
 40
1.0
 40
1.0
 10
592.426118352316
 20
971.7900085582079
 30
0.0
 10
592.4067294379943
 20
971.5867250663305
 30
0.0
 10
592.3815669707639
 20
971.3229086340157
 30
0.0
 10
592.2243317112946
 20
970.971352171051
 30
0.0
 10
592.1290367811091
 20
970.8794307597681
 30
0.0
 10
592.0814662029311
 20
970.8335442191814
 30
0.0
  0
SPLINE
  5
1C7
330
1F
100
AcDbEntity
  8
0
  6
SLD-実線
 62
     7
370
    25
100
AcDbSpline
210
0.0
220
0.0
230
1.0
 70
     8
 71
     3
 72
     9
 73
     5
 74
     0
 42
0.000000001
 43
0.00000001
 40
0.0
 40
0.0
 40
0.0
 40
0.0
 40
0.6532500949924662
 40
1.0
 40
1.0
 40
1.0
 40
1.0
 10
592.4861911939246
 20
974.8151969030374
 30
0.0
 10
592.4916839739285
 20
974.1665259277077
 30
0.0
 10
592.5000923615368
 20
973.1735356774159
 30
0.0
 10
592.4451645616938
 20
972.1462275528238
 30
0.0
 10
592.426118352316
 20
971.7900085582079
 30
0.0
  0
LINE
  5
1C8
330
1F
100
AcDbEntity
  8
0
  6
SLD-実線
 62
     7
370
    25
100
AcDbLine
 10
592.4861911939
 20
977.2385927534
 30
0.0
 11
592.4861911939
 21
974.815196903
 31
0.0
  0
SPLINE
  5
1C9
330
1F
100
AcDbEntity
  8
0
  6
SLD-実線
 62
     7
370
    25
100
AcDbSpline
210
0.0
220
0.0
230
1.0
 70
     8
 71
     3
 72
     9
 73
     5
 74
     0
 42
0.000000001
 43
0.00000001
 40
0.0
 40
0.0
 40
0.0
 40
0.0
 40
0.3388543641745129
 40
0.9999999999999999
 40
0.9999999999999999
 40
0.9999999999999999
 40
0.9999999999999999
 10
592.4625128145498
 20
980.2017608506084
 30
0.0
 10
592.4708983207322
 20
979.8704492682403
 30
0.0
 10
592.4956449584298
 20
978.892708924907
 30
0.0
 10
592.4899538472465
 20
977.8969406215188
 30
0.0
 10
592.4861911939246
 20
977.2385927534405
 30
0.0
  0
LINE
  5
1CA
330
1F
100
AcDbEntity
  8
0
  6
SLD-実線
 62
     7
370
    25
100
AcDbLine
 10
585.8483440812
 20
967.9927402986
 30
0.0
 11
584.0805768385
 21
969.0132506057
 31
0.0
  0
LINE
  5
1CB
330
1F
100
AcDbEntity
  8
0
  6
SLD-実線
 62
     7
370
    25
100
AcDbLine
 10
591.6403459265
 20
980.748444227
 30
0.0
 11
589.8725786838
 21
981.768954534
 31
0.0
  0
LINE
  5
1CC
330
1F
100
AcDbEntity
  8
0
  6
SLD-実線
 62
     7
370
    25
100
AcDbLine
 10
591.4482880062
 20
980.5261741924
 30
0.0
 11
589.6805207635
 21
981.5466844994
 31
0.0
  0
LINE
  5
1CD
330
1F
100
AcDbEntity
  8
0
  6
SLD-実線
 62
     7
370
    25
100
AcDbLine
 10
592.9886997546
 20
981.4827796587
 30
0.0
 11
591.2209325119
 21
982.5032899658
 31
0.0
  0
LINE
  5
1CE
330
1F
100
AcDbEntity
  8
0
  6
SLD-実線
 62
     7
370
    25
100
AcDbLine
 10
589.4391304509
 20
975.0800510663
 30
0.0
 11
587.6713632082
 21
976.1005613733
 31
0.0
  0
LINE
  5
1CF
330
1F
100
AcDbEntity
  8
0
  6
SLD-実線
 62
     7
370
    25
100
AcDbLine
 10
594.5992703653
 20
982.4565949465
 30
0.0
 11
592.8315031226
 21
983.4771052535
 31
0.0
  0
LINE
  5
1D0
330
1F
100
AcDbEntity
  8
0
  6
SLD-実線
 62
     7
370
    25
100
AcDbLine
 10
589.6184726999
 20
975.3638440984
 30
0.0
 11
587.8507054572
 21
976.3843544055
 31
0.0
  0
LINE
  5
1D1
330
1F
100
AcDbEntity
  8
0
  6
SLD-実線
 62
     7
370
    25
100
AcDbLine
 10
589.3203002103
 20
973.7445616455
 30
0.0
 11
588.9579393876
 21
973.9537480959
 31
0.0
  0
LINE
  5
1D2
330
1F
100
AcDbEntity
  8
0
  6
SLD-実線
 62
     7
370
    25
100
AcDbLine
 10
592.4861911939
 20
977.2385927534
 30
0.0
 11
590.7184239512
 21
978.2591030605
 31
0.0
  0
LINE
  5
1D3
330
1F
100
AcDbEntity
  8
0
  6
SLD-実線
 62
     7
370
    25
100
AcDbLine
 10
585.5023760776
 20
967.0355163331
 30
0.0
 11
583.7346088349
 21
968.0560266402
 31
0.0
  0
LINE
  5
1D4
330
1F
100
AcDbEntity
  8
0
  6
SLD-実線
 62
     7
370
    25
100
AcDbLine
 10
599.3823089285
 20
983.6455643804
 30
0.0
 11
597.6145416858
 21
984.6660746875
 31
0.0
  0
SPLINE
  5
1D5
330
1F
100
AcDbEntity
  8
0
  6
SLD-実線
 62
     7
370
    25
100
AcDbSpline
210
0.0
220
0.0
230
1.0
 70
     8
 71
     3
 72
     9
 73
     5
 74
     0
 42
0.000000001
 43
0.00000001
 40
0.0
 40
0.0
 40
0.0
 40
0.0
 40
0.546062345179546
 40
1.0
 40
1.0
 40
1.0
 40
1.0
 10
597.6996085680738
 20
980.7869117295384
 30
0.0
 10
597.6784451021448
 20
981.2236201315777
 30
0.0
 10
597.6396886009582
 20
982.0233610510797
 30
0.0
 10
597.3567781917208
 20
982.6140713159006
 30
0.0
 10
597.2283545040273
 20
982.8822169481915
 30
0.0
  0
SPLINE
  5
1D6
330
1F
100
AcDbEntity
  8
0
  6
SLD-実線
 62
     7
370
    25
100
AcDbSpline
210
0.0
220
0.0
230
1.0
 70
     8
 71
     3
 72
    10
 73
     6
 74
     0
 42
0.000000001
 43
0.00000001
 40
0.0
 40
0.0
 40
0.0
 40
0.0
 40
0.2513916401070668
 40
0.5312695801423621
 40
0.9999999999999999
 40
0.9999999999999999
 40
0.9999999999999999
 40
0.9999999999999999
 10
596.7441408757247
 20
976.9440506280046
 30
0.0
 10
596.9067609673953
 20
977.270021679649
 30
0.0
 10
597.2504283534217
 20
977.9589010062328
 30
0.0
 10
597.6055341204708
 20
979.2943708357124
 30
0.0
 10
597.6633856562137
 20
980.212216064326
 30
0.0
 10
597.6996085680738
 20
980.7869117295384
 30
0.0
  0
SPLINE
  5
1D7
330
1F
100
AcDbEntity
  8
0
  6
SLD-実線
 62
     7
370
    25
100
AcDbSpline
210
0.0
220
0.0
230
1.0
 70
     8
 71
     3
 72
     9
 73
     5
 74
     0
 42
0.000000001
 43
0.00000001
 40
0.0
 40
0.0
 40
0.0
 40
0.0
 40
0.5732064075005735
 40
1.0
 40
1.0
 40
1.0
 40
1.0
 10
593.9053628404337
 20
974.023177927486
 30
0.0
 10
594.5124651342633
 20
974.4428614064709
 30
0.0
 10
595.5715989574123
 20
975.1750295635142
 30
0.0
 10
596.3934010207777
 20
976.4148872933148
 30
0.0
 10
596.7441408757247
 20
976.9440506280046
 30
0.0
  0
LINE
  5
1D8
330
1F
100
AcDbEntity
  8
0
  6
SLD-実線
 62
     7
370
    25
100
AcDbLine
 10
593.5050393963
 20
973.8333854172
 30
0.0
 11
593.9053628404
 21
974.0231779275
 31
0.0
  0
LINE
  5
1D9
330
1F
100
AcDbEntity
  8
0
  6
SLD-実線
 62
     7
370
    25
100
AcDbLine
 10
592.4861911939
 20
974.815196903
 30
0.0
 11
590.7184239512
 21
975.8357072101
 31
0.0
  0
LINE
  5
1DA
330
1F
100
AcDbEntity
  8
0
  6
SLD-実線
 62
     7
370
    25
100
AcDbLine
 10
589.4391304509
 20
969.7208323779
 30
0.0
 11
587.6713632082
 21
970.741342685
 31
0.0
  0
LINE
  5
1DB
330
1F
100
AcDbEntity
  8
0
  6
SLD-実線
 62
     7
370
    25
100
AcDbLine
 10
589.9767184427
 20
971.0226102779
 30
0.0
 11
588.2089512
 21
972.0431205849
 31
0.0
  0
LINE
  5
1DC
330
1F
100
AcDbEntity
  8
0
  6
SLD-実線
 62
     7
370
    25
100
AcDbLine
 10
590.0845863868
 20
971.2919786886
 30
0.0
 11
588.3168191441
 21
972.3124889957
 31
0.0
  0
LINE
  5
1DD
330
1F
100
AcDbEntity
  8
0
  6
SLD-実線
 62
     7
370
    25
100
AcDbLine
 10
592.4261183523
 20
971.7900085582
 30
0.0
 11
590.6583511096
 21
972.8105188653
 31
0.0
  0
LINE
  5
1DE
330
1F
100
AcDbEntity
  8
0
  6
SLD-実線
 62
     7
370
    25
100
AcDbLine
 10
599.4673758108
 20
979.7664014225
 30
0.0
 11
597.6996085681
 21
980.7869117295
 31
0.0
  0
LINE
  5
1DF
330
1F
100
AcDbEntity
  8
0
  6
SLD-実線
 62
     7
370
    25
100
AcDbLine
 10
592.0814662029
 20
970.8335442192
 30
0.0
 11
590.3136989602
 21
971.8540545262
 31
0.0
  0
LINE
  5
1E0
330
1F
100
AcDbEntity
  8
0
  6
SLD-実線
 62
     7
370
    25
100
AcDbLine
 10
591.7232204601
 20
970.570528017
 30
0.0
 11
589.9554532174
 21
971.591038324
 31
0.0
  0
LINE
  5
1E1
330
1F
100
AcDbEntity
  8
0
  6
SLD-実線
 62
     7
370
    25
100
AcDbLine
 10
591.6276294321
 20
970.4317967108
 30
0.0
 11
589.8598621893
 21
971.4523070179
 31
0.0
  0
SPLINE
  5
1E2
330
1F
100
AcDbEntity
  8
0
  6
SLD-実線
 62
     7
370
    25
100
AcDbSpline
210
0.0
220
0.0
230
1.0
 70
     8
 71
     3
 72
    11
 73
     7
 74
     0
 42
0.000000001
 43
0.00000001
 40
0.0
 40
0.0
 40
0.0
 40
0.0
 40
0.2025302755455954
 40
0.3726405939839204
 40
0.5392906066146775
 40
1.0
 40
1.0
 40
1.0
 40
1.0
 10
604.1434233874257
 20
977.796763885492
 30
0.0
 10
604.0842536045976
 20
977.7759547259386
 30
0.0
 10
603.9753856195046
 20
977.7376674251615
 30
0.0
 10
603.8422497516858
 20
977.7715302241714
 30
0.0
 10
603.714717503564
 20
977.9319538440715
 30
0.0
 10
603.6934016290181
 20
978.1357648815527
 30
0.0
 10
603.6777480442669
 20
978.2854361203081
 30
0.0
  0
SPLINE
  5
1E3
330
1F
100
AcDbEntity
  8
0
  6
SLD-実線
 62
     7
370
    25
100
AcDbSpline
210
0.0
220
0.0
230
1.0
 70
     8
 71
     3
 72
     9
 73
     5
 74
     0
 42
0.000000001
 43
0.00000001
 40
0.0
 40
0.0
 40
0.0
 40
0.0
 40
0.525362864925001
 40
1.0
 40
1.0
 40
1.0
 40
1.0
 10
604.6805722123972
 20
978.0506479647097
 30
0.0
 10
604.5861972670923
 20
978.0021253827931
 30
0.0
 10
604.4065596268903
 20
977.9097652539065
 30
0.0
 10
604.2281182780284
 20
977.8331353049335
 30
0.0
 10
604.1434233874257
 20
977.796763885492
 30
0.0
  0
SPLINE
  5
1E4
330
1F
100
AcDbEntity
  8
0
  6
SLD-実線
 62
     7
370
    25
100
AcDbSpline
210
0.0
220
0.0
230
1.0
 70
     8
 71
     3
 72
    12
 73
     8
 74
     0
 42
0.000000001
 43
0.00000001
 40
0.0
 40
0.0
 40
0.0
 40
0.0
 40
0.150095379727249
 40
0.3022609215580171
 40
0.4663335611162381
 40
0.6974885272033976
 40
1.0
 40
1.0
 40
1.0
 40
1.0
 10
604.7766015841416
 20
978.0225367607642
 30
0.0
 10
604.7761092422667
 20
978.0300916734892
 30
0.0
 10
604.7751177679847
 20
978.0453056986424
 30
0.0
 10
604.7658588840228
 20
978.062427288927
 30
0.0
 10
604.748076533327
 20
978.0725991265823
 30
0.0
 10
604.7184105242828
 20
978.0702704509905
 30
0.0
 10
604.6942613128826
 20
978.0577469649844
 30
0.0
 10
604.6805722123972
 20
978.0506479647097
 30
0.0
  0
SPLINE
  5
1E5
330
1F
100
AcDbEntity
  8
0
  6
SLD-実線
 62
     7
370
    25
100
AcDbSpline
210
0.0
220
0.0
230
1.0
 70
     8
 71
     3
 72
    13
 73
     9
 74
     0
 42
0.000000001
 43
0.00000001
 40
0.0
 40
0.0
 40
0.0
 40
0.0
 40
0.3593956525891507
 40
0.62356111753836
 40
0.7280582646087891
 40
0.8207199012857423
 40
0.9087623721878902
 40
1.0
 40
1.0
 40
1.0
 40
1.0
 10
604.585858694898
 20
977.8025453773539
 30
0.0
 10
604.6141386464742
 20
977.819858431188
 30
0.0
 10
604.6632051226035
 20
977.8498970449524
 30
0.0
 10
604.7195105746524
 20
977.9000458151601
 30
0.0
 10
604.7504201696721
 20
977.9405505408253
 30
0.0
 10
604.7657114169211
 20
977.9687408212358
 30
0.0
 10
604.775088232108
 20
977.9969760411499
 30
0.0
 10
604.7760911752624
 20
978.0139158860705
 30
0.0
 10
604.7766015841416
 20
978.0225367607642
 30
0.0
  0
SPLINE
  5
1E6
330
1F
100
AcDbEntity
  8
0
  6
SLD-実線
 62
     7
370
    25
100
AcDbSpline
210
0.0
220
0.0
230
1.0
 70
     8
 71
     3
 72
    10
 73
     6
 74
     0
 42
0.000000001
 43
0.00000001
 40
0.0
 40
0.0
 40
0.0
 40
0.0
 40
0.160809268520088
 40
0.4175493251456259
 40
1.0
 40
1.0
 40
1.0
 40
1.0
 10
603.1164816730518
 20
976.9948000352784
 30
0.0
 10
603.195222914102
 20
977.037123447539
 30
0.0
 10
603.3996784928396
 20
977.1470183086368
 30
0.0
 10
603.8893262816445
 20
977.4093359416084
 30
0.0
 10
604.300487311967
 20
977.6414463124361
 30
0.0
 10
604.585858694898
 20
977.8025453773539
 30
0.0
  0
SPLINE
  5
1E7
330
1F
100
AcDbEntity
  8
0
  6
SLD-実線
 62
     7
370
    25
100
AcDbSpline
210
0.0
220
0.0
230
1.0
 70
     8
 71
     3
 72
    10
 73
     6
 74
     0
 42
0.000000001
 43
0.00000001
 40
0.0
 40
0.0
 40
0.0
 40
0.0
 40
0.6680854251188246
 40
0.9107953089109847
 40
0.9999999999999999
 40
0.9999999999999999
 40
0.9999999999999999
 40
0.9999999999999999
 10
601.9470315445359
 20
976.2791828891322
 30
0.0
 10
602.2075390511859
 20
976.4358812162194
 30
0.0
 10
602.5626867704326
 20
976.6495067435234
 30
0.0
 10
602.9523293420453
 20
976.8939897372538
 30
0.0
 10
603.0817096757526
 20
976.9734456299578
 30
0.0
 10
603.1164816730518
 20
976.9948000352784
 30
0.0
  0
SPLINE
  5
1E8
330
1F
100
AcDbEntity
  8
0
  6
SLD-実線
 62
     7
370
    25
100
AcDbSpline
210
0.0
220
0.0
230
1.0
 70
     8
 71
     3
 72
    13
 73
     9
 74
     0
 42
0.000000001
 43
0.00000001
 40
0.0
 40
0.0
 40
0.0
 40
0.0
 40
0.1019163554934353
 40
0.1939464243322851
 40
0.2860074790204336
 40
0.3877983472520464
 40
0.6459482073611588
 40
1.0
 40
1.0
 40
1.0
 40
1.0
 10
601.755850311604
 20
976.2786941698614
 30
0.0
 10
601.7563188679766
 20
976.2695289307962
 30
0.0
 10
601.7572105289138
 20
976.2520875168425
 30
0.0
 10
601.7664588087713
 20
976.2326851918922
 30
0.0
 10
601.7819934069925
 20
976.2217914233978
 30
0.0
 10
601.8133133242195
 20
976.2182896361653
 30
0.0
 10
601.8699689487222
 20
976.2365281761575
 30
0.0
 10
601.9187944910759
 20
976.2635534725797
 30
0.0
 10
601.9470315445359
 20
976.2791828891322
 30
0.0
  0
SPLINE
  5
1E9
330
1F
100
AcDbEntity
  8
0
  6
SLD-実線
 62
     7
370
    25
100
AcDbSpline
210
0.0
220
0.0
230
1.0
 70
     8
 71
     3
 72
    12
 73
     8
 74
     0
 42
0.000000001
 43
0.00000001
 40
0.0
 40
0.0
 40
0.0
 40
0.0
 40
0.2619404442335202
 40
0.4696601902387936
 40
0.6420889970065173
 40
0.8236187315194108
 40
1.0
 40
1.0
 40
1.0
 40
1.0
 10
601.8523178212414
 20
976.4179314580434
 30
0.0
 10
601.8404569016644
 20
976.4104615137853
 30
0.0
 10
601.8191902287716
 20
976.3970678759623
 30
0.0
 10
601.7913312517354
 20
976.3697678127661
 30
0.0
 10
601.7708406664625
 20
976.3399438723866
 30
0.0
 10
601.7579608571497
 20
976.3079452203033
 30
0.0
 10
601.7565470476798
 20
976.2883505651656
 30
0.0
 10
601.755850311604
 20
976.2786941698614
 30
0.0
  0
SPLINE
  5
1EA
330
1F
100
AcDbEntity
  8
0
  6
SLD-実線
 62
     7
370
    25
100
AcDbSpline
210
0.0
220
0.0
230
1.0
 70
     8
 71
     3
 72
     9
 73
     5
 74
     0
 42
0.000000001
 43
0.00000001
 40
0.0
 40
0.0
 40
0.0
 40
0.0
 40
0.5665792624831741
 40
1.0
 40
1.0
 40
1.0
 40
1.0
 10
602.2101250145588
 20
976.6806944910409
 30
0.0
 10
602.1431683117438
 20
976.6259028807117
 30
0.0
 10
602.0249911964688
 20
976.5291968874689
 30
0.0
 10
601.9045287455582
 20
976.4515745770659
 30
0.0
 10
601.8523178212414
 20
976.4179314580434
 30
0.0
  0
SPLINE
  5
1EB
330
1F
100
AcDbEntity
  8
0
  6
SLD-実線
 62
     7
370
    25
100
AcDbSpline
210
0.0
220
0.0
230
1.0
 70
     8
 71
     3
 72
    10
 73
     6
 74
     0
 42
0.000000001
 43
0.00000001
 40
0.0
 40
0.0
 40
0.0
 40
0.0
 40
0.6278754837508286
 40
0.8145610431596377
 40
1.0
 40
1.0
 40
1.0
 40
1.0
 10
602.556531361877
 20
977.6381715069789
 30
0.0
 10
602.5360386024216
 20
977.4343319921833
 30
0.0
 10
602.509452752279
 20
977.1698850881294
 30
0.0
 10
602.3525038162779
 20
976.8184181945669
 30
0.0
 10
602.2574785047734
 20
976.7264997511534
 30
0.0
 10
602.2101250145588
 20
976.6806944910409
 30
0.0
  0
SPLINE
  5
1EC
330
1F
100
AcDbEntity
  8
0
  6
SLD-実線
 62
     7
370
    25
100
AcDbSpline
210
0.0
220
0.0
230
1.0
 70
     8
 71
     3
 72
     9
 73
     5
 74
     0
 42
0.000000001
 43
0.00000001
 40
0.0
 40
0.0
 40
0.0
 40
0.0
 40
0.6532696459763657
 40
1.0
 40
1.0
 40
1.0
 40
1.0
 10
602.6148504171425
 20
980.6623474125031
 30
0.0
 10
602.6201837443168
 20
980.0136027190408
 30
0.0
 10
602.6283477960327
 20
979.0205293419781
 30
0.0
 10
602.5750212827176
 20
977.9940745428647
 30
0.0
 10
602.5565313618769
 20
977.6381715069789
 30
0.0
  0
LINE
  5
1ED
330
1F
100
AcDbEntity
  8
0
  6
SLD-実線
 62
     7
370
    25
100
AcDbLine
 10
602.6148504171
 20
983.0857432629
 30
0.0
 11
602.6148504171
 21
980.6623474125
 31
0.0
  0
SPLINE
  5
1EE
330
1F
100
AcDbEntity
  8
0
  6
SLD-実線
 62
     7
370
    25
100
AcDbSpline
210
0.0
220
0.0
230
1.0
 70
     8
 71
     3
 72
     9
 73
     5
 74
     0
 42
0.000000001
 43
0.00000001
 40
0.0
 40
0.0
 40
0.0
 40
0.0
 40
0.3388493678667675
 40
1.0
 40
1.0
 40
1.0
 40
1.0
 10
602.5920489309392
 20
986.0494175797265
 30
0.0
 10
602.6001237972281
 20
985.7179253979203
 30
0.0
 10
602.6239540505936
 20
984.7396376593506
 30
0.0
 10
602.6184737327495
 20
983.7440058578442
 30
0.0
 10
602.6148504171425
 20
983.0857432629061
 30
0.0
  0
SPLINE
  5
1EF
330
1F
100
AcDbEntity
  8
0
  6
SLD-実線
 62
     7
370
    25
100
AcDbSpline
210
0.0
220
0.0
230
1.0
 70
     8
 71
     3
 72
    11
 73
     7
 74
     0
 42
0.000000001
 43
0.00000001
 40
0.0
 40
0.0
 40
0.0
 40
0.0
 40
0.2438101359791849
 40
0.4855998604428637
 40
0.714830201719485
 40
1.0
 40
1.0
 40
1.0
 40
1.0
 10
602.1860080857007
 20
986.5866944327256
 30
0.0
 10
602.2526223519
 20
986.5994485257308
 30
0.0
 10
602.3852988636455
 20
986.6248510208261
 30
0.0
 10
602.5096942860175
 20
986.4980956710556
 30
0.0
 10
602.5720614995931
 20
986.2977637811979
 30
0.0
 10
602.584920334058
 20
986.1379912401732
 30
0.0
 10
602.5920489309392
 20
986.0494175797265
 30
0.0
  0
SPLINE
  5
1F0
330
1F
100
AcDbEntity
  8
0
  6
SLD-実線
 62
     7
370
    25
100
AcDbSpline
210
0.0
220
0.0
230
1.0
 70
     8
 71
     3
 72
     9
 73
     5
 74
     0
 42
0.000000001
 43
0.00000001
 40
0.0
 40
0.0
 40
0.0
 40
0.0
 40
0.5109408773551442
 40
1.0
 40
1.0
 40
1.0
 40
1.0
 10
601.8172388016624
 20
986.4284942935409
 30
0.0
 10
601.880804330211
 20
986.4626289168649
 30
0.0
 10
602.0052131050145
 20
986.5294363007267
 30
0.0
 10
602.1266286874697
 20
986.5678888585386
 30
0.0
 10
602.1860080857007
 20
986.5866944327256
 30
0.0
  0
SPLINE
  5
1F1
330
1F
100
AcDbEntity
  8
0
  6
SLD-実線
 62
     7
370
    25
100
AcDbSpline
210
0.0
220
0.0
230
1.0
 70
     8
 71
     3
 72
    12
 73
     8
 74
     0
 42
0.000000001
 43
0.00000001
 40
0.0
 40
0.0
 40
0.0
 40
0.0
 40
0.1855272500816552
 40
0.3598190877682031
 40
0.5393670472488649
 40
0.7643569451845675
 40
1.0
 40
1.0
 40
1.0
 40
1.0
 10
601.7212096357132
 20
986.4566056162894
 30
0.0
 10
601.7220784633946
 20
986.4474832260955
 30
0.0
 10
601.7237635031053
 20
986.4297908918624
 30
0.0
 10
601.7380269595712
 20
986.4144407424644
 30
0.0
 10
601.7590126382016
 20
986.4088530118723
 30
0.0
 10
601.7861891163096
 20
986.4128176438625
 30
0.0
 10
601.8067305511582
 20
986.4231887917292
 30
0.0
 10
601.8172388016624
 20
986.4284942935409
 30
0.0
  0
SPLINE
  5
1F2
330
1F
100
AcDbEntity
  8
0
  6
SLD-実線
 62
     7
370
    25
100
AcDbSpline
210
0.0
220
0.0
230
1.0
 70
     8
 71
     3
 72
    13
 73
     9
 74
     0
 42
0.000000001
 43
0.00000001
 40
0.0
 40
0.0
 40
0.0
 40
0.0
 40
0.3558572994504892
 40
0.6127718499000142
 40
0.7137304011479767
 40
0.8053450727865594
 40
0.8975179779846015
 40
1.0
 40
1.0
 40
1.0
 40
1.0
 10
601.9128294181282
 20
986.6786227192667
 30
0.0
 10
601.8842633653095
 20
986.6614630326458
 30
0.0
 10
601.8350737798854
 20
986.6319147476149
 30
0.0
 10
601.7780432332671
 20
986.584304504379
 30
0.0
 10
601.7468633873051
 20
986.5443314883579
 30
0.0
 10
601.7315407244761
 20
986.5153002952751
 30
0.0
 10
601.7225232252677
 20
986.4850471045414
 30
0.0
 10
601.7216626904881
 20
986.4664150366012
 30
0.0
 10
601.7212096357132
 20
986.4566056162894
 30
0.0
  0
SPLINE
  5
1F3
330
1F
100
AcDbEntity
  8
0
  6
SLD-実線
 62
     7
370
    25
100
AcDbSpline
210
0.0
220
0.0
230
1.0
 70
     8
 71
     3
 72
    10
 73
     6
 74
     0
 42
0.000000001
 43
0.00000001
 40
0.0
 40
0.0
 40
0.0
 40
0.0
 40
0.1891538061377747
 40
0.4708997817033925
 40
1.0
 40
1.0
 40
1.0
 40
1.0
 10
603.1164816730518
 20
987.3294237109492
 30
0.0
 10
603.0406055875386
 20
987.2889799015527
 30
0.0
 10
602.851711518557
 20
987.1882947427132
 30
0.0
 10
602.4506568351262
 20
986.9772110820438
 30
0.0
 10
602.1251995555886
 20
986.796525320813
 30
0.0
 10
601.9128294181282
 20
986.6786227192667
 30
0.0
  0
SPLINE
  5
1F4
330
1F
100
AcDbEntity
  8
0
  6
SLD-実線
 62
     7
370
    25
100
AcDbSpline
210
0.0
220
0.0
230
1.0
 70
     8
 71
     3
 72
    10
 73
     6
 74
     0
 42
0.000000001
 43
0.00000001
 40
0.0
 40
0.0
 40
0.0
 40
0.0
 40
0.6680349662956325
 40
0.9104990236071847
 40
1.0
 40
1.0
 40
1.0
 40
1.0
 10
604.2868091063295
 20
988.0490920220059
 30
0.0
 10
604.0261116064016
 20
987.8917428347503
 30
0.0
 10
603.6707936498321
 20
987.6772835794867
 30
0.0
 10
603.2808920236251
 20
987.4308896258874
 30
0.0
 10
603.1513952522085
 20
987.3509706405712
 30
0.0
 10
603.1164816730518
 20
987.3294237109492
 30
0.0
  0
SPLINE
  5
1F5
330
1F
100
AcDbEntity
  8
0
  6
SLD-実線
 62
     7
370
    25
100
AcDbSpline
210
0.0
220
0.0
230
1.0
 70
     8
 71
     3
 72
    13
 73
     9
 74
     0
 42
0.000000001
 43
0.00000001
 40
0.0
 40
0.0
 40
0.0
 40
0.0
 40
0.1028765587674329
 40
0.1954481838026567
 40
0.2874668828034504
 40
0.3887544278774722
 40
0.6456762140065664
 40
1.0
 40
1.0
 40
1.0
 40
1.0
 10
604.4775519955732
 20
988.0478081909373
 30
0.0
 10
604.477094985899
 20
988.057093300665
 30
0.0
 10
604.476226744272
 20
988.0747334497371
 30
0.0
 10
604.4671690514745
 20
988.0945460881353
 30
0.0
 10
604.4518320090259
 20
988.105865113645
 30
0.0
 10
604.4207318617637
 20
988.1098567059553
 30
0.0
 10
604.3640315147057
 20
988.0918364262367
 30
0.0
 10
604.3151465176915
 20
988.0647774401582
 30
0.0
 10
604.2868091063295
 20
988.0490920220059
 30
0.0
  0
SPLINE
  5
1F6
330
1F
100
AcDbEntity
  8
0
  6
SLD-実線
 62
     7
370
    25
100
AcDbSpline
210
0.0
220
0.0
230
1.0
 70
     8
 71
     3
 72
    11
 73
     7
 74
     0
 42
0.000000001
 43
0.00000001
 40
0.0
 40
0.0
 40
0.0
 40
0.0
 40
0.2951022984323233
 40
0.5741622748223947
 40
0.7817106170014154
 40
1.0
 40
1.0
 40
1.0
 40
1.0
 10
604.3823997227954
 20
987.9093301728328
 30
0.0
 10
604.3954786299374
 20
987.9181060253586
 30
0.0
 10
604.4209254499615
 20
987.9351806583805
 30
0.0
 10
604.4524598030381
 20
987.9718834620639
 30
0.0
 10
604.473908757536
 20
988.012439010517
 30
0.0
 10
604.4763173321454
 20
988.0358218663856
 30
0.0
 10
604.4775519955732
 20
988.0478081909373
 30
0.0
  0
SPLINE
  5
1F7
330
1F
100
AcDbEntity
  8
0
  6
SLD-実線
 62
     7
370
    25
100
AcDbSpline
210
0.0
220
0.0
230
1.0
 70
     8
 71
     3
 72
     9
 73
     5
 74
     0
 42
0.000000001
 43
0.00000001
 40
0.0
 40
0.0
 40
0.0
 40
0.0
 40
0.631150265493981
 40
1.0
 40
1.0
 40
1.0
 40
1.0
 10
604.0824734468507
 20
987.694665620628
 30
0.0
 10
604.1451244407133
 20
987.744408692767
 30
0.0
 10
604.2443892232665
 20
987.8232220512623
 30
0.0
 10
604.3452114655112
 20
987.8861275107879
 30
0.0
 10
604.3823997227954
 20
987.9093301728328
 30
0.0
  0
SPLINE
  5
1F8
330
1F
100
AcDbEntity
  8
0
  6
SLD-実線
 62
     7
370
    25
100
AcDbSpline
210
0.0
220
0.0
230
1.0
 70
     8
 71
     3
 72
    11
 73
     7
 74
     0
 42
0.000000001
 43
0.00000001
 40
0.0
 40
0.0
 40
0.0
 40
0.0
 40
0.3421281923525805
 40
0.6010923928106775
 40
0.7860256572451864
 40
1.0
 40
1.0
 40
1.0
 40
1.0
 10
603.6422302694095
 20
986.655674361887
 30
0.0
 10
603.649989127414
 20
986.7771220166969
 30
0.0
 10
603.6636208322183
 20
986.9904960182049
 30
0.0
 10
603.7499466612836
 20
987.2995818977303
 30
0.0
 10
603.9037210825994
 20
987.5412170006939
 30
0.0
 10
604.0200659642024
 20
987.6410923874793
 30
0.0
 10
604.0824734468507
 20
987.694665620628
 30
0.0
  0
SPLINE
  5
1F9
330
1F
100
AcDbEntity
  8
0
  6
SLD-実線
 62
     7
370
    25
100
AcDbSpline
210
0.0
220
0.0
230
1.0
 70
     8
 71
     3
 72
    10
 73
     6
 74
     0
 42
0.000000001
 43
0.00000001
 40
0.0
 40
0.0
 40
0.0
 40
0.0
 40
0.4806472063739737
 40
0.763052137487561
 40
1.0
 40
1.0
 40
1.0
 40
1.0
 10
603.6185518900346
 20
983.665167789809
 30
0.0
 10
603.6191020327738
 20
984.1424614732697
 30
0.0
 10
603.6199754126403
 20
984.9001897208165
 30
0.0
 10
603.6173857244002
 20
985.8912497283969
 30
0.0
 10
603.634446510679
 20
986.4161812694414
 30
0.0
 10
603.6422302694095
 20
986.655674361887
 30
0.0
  0
LINE
  5
1FA
330
1F
100
AcDbEntity
  8
0
  6
SLD-実線
 62
     7
370
    25
100
AcDbLine
 10
603.61855189
 20
981.2417719394
 30
0.0
 11
603.61855189
 21
983.6651677898
 31
0.0
  0
SPLINE
  5
1FB
330
1F
100
AcDbEntity
  8
0
  6
SLD-実線
 62
     7
370
    25
100
AcDbSpline
210
0.0
220
0.0
230
1.0
 70
     8
 71
     3
 72
     9
 73
     5
 74
     0
 42
0.000000001
 43
0.00000001
 40
0.0
 40
0.0
 40
0.0
 40
0.0
 40
0.4693486932797046
 40
1.0
 40
1.0
 40
1.0
 40
1.0
 10
603.6777480442669
 20
978.2854361203081
 30
0.0
 10
603.6558094973901
 20
978.7402821183346
 30
0.0
 10
603.6090669641927
 20
979.7093825005007
 30
0.0
 10
603.6152636242682
 20
980.7105180512152
 30
0.0
 10
603.6185518900346
 20
981.2417719394059
 30
0.0
  0
LINE
  5
1FC
330
1F
100
AcDbEntity
  8
0
  6
SLD-実線
 62
     7
370
    25
100
AcDbLine
 10
601.9128294181
 20
986.6786227193
 30
0.0
 11
600.1450621754
 21
987.6991330263
 31
0.0
  0
LINE
  5
1FD
330
1F
100
AcDbEntity
  8
0
  6
SLD-実線
 62
     7
370
    25
100
AcDbLine
 10
601.7212096357
 20
986.4566056163
 30
0.0
 11
599.953442393
 21
987.4771159233
 31
0.0
  0
LINE
  5
1FE
330
1F
100
AcDbEntity
  8
0
  6
SLD-実線
 62
     7
370
    25
100
AcDbLine
 10
595.6731300832
 20
973.0026676204
 30
0.0
 11
593.9053628404
 21
974.0231779275
 31
0.0
  0
LINE
  5
1FF
330
1F
100
AcDbEntity
  8
0
  6
SLD-実線
 62
     7
370
    25
100
AcDbLine
 10
603.1164816731
 20
987.3294237109
 30
0.0
 11
601.3487144303
 21
988.349934018
 31
0.0
  0
LINE
  5
200
330
1F
100
AcDbEntity
  8
0
  6
SLD-実線
 62
     7
370
    25
100
AcDbLine
 10
604.2868091063
 20
988.049092022
 30
0.0
 11
602.5190418636
 21
989.0696023291
 31
0.0
  0
LINE
  5
201
330
1F
100
AcDbEntity
  8
0
  6
SLD-実線
 62
     7
370
    25
100
AcDbLine
 10
598.5119081185
 20
975.923540321
 30
0.0
 11
596.7441408757
 21
976.944050628
 31
0.0
  0
LINE
  5
202
330
1F
100
AcDbEntity
  8
0
  6
SLD-実線
 62
     7
370
    25
100
AcDbLine
 10
602.6148504171
 20
983.0857432629
 30
0.0
 11
600.8470831744
 21
984.10625357
 31
0.0
  0
SPLINE
  5
203
330
1F
100
AcDbEntity
  8
0
  6
SLD-実線
 62
     7
370
    25
100
AcDbSpline
210
0.0
220
0.0
230
1.0
 70
     8
 71
     3
 72
    12
 73
     8
 74
     0
 42
0.000000001
 43
0.00000001
 40
0.0
 40
0.0
 40
0.0
 40
0.0
 40
0.2118796994184174
 40
0.3833803348222906
 40
0.5409423712613575
 40
0.7457573459053235
 40
1.0
 40
1.0
 40
1.0
 40
1.0
 10
606.2722878706719
 20
988.9588185792478
 30
0.0
 10
606.337058122699
 20
988.9775937889724
 30
0.0
 10
606.4542550083693
 20
989.0115661148268
 30
0.0
 10
606.6034302682588
 20
988.9958297190435
 30
0.0
 10
606.709462509295
 20
988.9017572622158
 30
0.0
 10
606.767748318714
 20
988.7180474610784
 30
0.0
 10
606.7787747783022
 20
988.5583400779364
 30
0.0
 10
606.7848816288924
 20
988.4698883750855
 30
0.0
  0
SPLINE
  5
204
330
1F
100
AcDbEntity
  8
0
  6
SLD-実線
 62
     7
370
    25
100
AcDbSpline
210
0.0
220
0.0
230
1.0
 70
     8
 71
     3
 72
     9
 73
     5
 74
     0
 42
0.000000001
 43
0.00000001
 40
0.0
 40
0.0
 40
0.0
 40
0.0
 40
0.5765456208113112
 40
0.9999999999999999
 40
0.9999999999999999
 40
0.9999999999999999
 40
0.9999999999999999
 10
605.8671237128098
 20
988.7664430881068
 30
0.0
 10
605.9455333525187
 20
988.8102365449516
 30
0.0
 10
606.0815323730275
 20
988.8861948997879
 30
0.0
 10
606.2155412323442
 20
988.9372142232883
 30
0.0
 10
606.2722878706719
 20
988.9588185792478
 30
0.0
  0
SPLINE
  5
205
330
1F
100
AcDbEntity
  8
0
  6
SLD-実線
 62
     7
370
    25
100
AcDbSpline
210
0.0
220
0.0
230
1.0
 70
     8
 71
     3
 72
    12
 73
     8
 74
     0
 42
0.000000001
 43
0.00000001
 40
0.0
 40
0.0
 40
0.0
 40
0.0
 40
0.1855271224647866
 40
0.3598199638937171
 40
0.5393680820883784
 40
0.7643567368845021
 40
1.0
 40
1.0
 40
1.0
 40
1.0
 10
605.7710947526557
 20
988.7945545296584
 30
0.0
 10
605.7719634792709
 20
988.7854320653631
 30
0.0
 10
605.7736483282306
 20
988.767739532165
 30
0.0
 10
605.7879121139076
 20
988.7523897457926
 30
0.0
 10
605.8088976838393
 20
988.7468019289603
 30
0.0
 10
605.8360740879428
 20
988.7507664381131
 30
0.0
 10
605.8566154610129
 20
988.7611375752007
 30
0.0
 10
605.8671237128098
 20
988.7664430881068
 30
0.0
  0
SPLINE
  5
206
330
1F
100
AcDbEntity
  8
0
  6
SLD-実線
 62
     7
370
    25
100
AcDbSpline
210
0.0
220
0.0
230
1.0
 70
     8
 71
     3
 72
    13
 73
     9
 74
     0
 42
0.000000001
 43
0.00000001
 40
0.0
 40
0.0
 40
0.0
 40
0.0
 40
0.3556259687509894
 40
0.6127718799137404
 40
0.7138647278830219
 40
0.8055381553098682
 40
0.8976569860638001
 40
1.0
 40
1.0
 40
1.0
 40
1.0
 10
605.9631526729638
 20
989.0168245642575
 30
0.0
 10
605.934563409969
 20
988.999648987017
 30
0.0
 10
605.8853018318785
 20
988.9700540989066
 30
0.0
 10
605.8281815468562
 20
988.922391894832
 30
0.0
 10
605.7968963412591
 20
988.8823710935606
 30
0.0
 10
605.7814984245862
 20
988.8533056833504
 30
0.0
 10
605.7724197439034
 20
988.8230131000172
 30
0.0
 10
605.7715516306137
 20
988.8043674952423
 30
0.0
 10
605.7710947526557
 20
988.7945545296584
 30
0.0
  0
SPLINE
  5
207
330
1F
100
AcDbEntity
  8
0
  6
SLD-実線
 62
     7
370
    25
100
AcDbSpline
210
0.0
220
0.0
230
1.0
 70
     8
 71
     3
 72
     9
 73
     5
 74
     0
 42
0.000000001
 43
0.00000001
 40
0.0
 40
0.0
 40
0.0
 40
0.0
 40
0.4534665658361386
 40
0.9999999999999999
 40
0.9999999999999999
 40
0.9999999999999999
 40
0.9999999999999999
 10
607.3343077814443
 20
989.7643228950378
 30
0.0
 10
607.1271199818316
 20
989.6542022245752
 30
0.0
 10
606.6702223509542
 20
989.4113603509752
 30
0.0
 10
606.2130258478778
 20
989.1562505822485
 30
0.0
 10
605.9631526729638
 20
989.0168245642575
 30
0.0
  0
SPLINE
  5
208
330
1F
100
AcDbEntity
  8
0
  6
SLD-実線
 62
     7
370
    25
100
AcDbSpline
210
0.0
220
0.0
230
1.0
 70
     8
 71
     3
 72
     9
 73
     5
 74
     0
 42
0.000000001
 43
0.00000001
 40
0.0
 40
0.0
 40
0.0
 40
0.0
 40
0.6496584740247551
 40
0.9999999999999999
 40
0.9999999999999999
 40
0.9999999999999999
 40
0.9999999999999999
 10
608.5164750217949
 20
990.4908261812312
 30
0.0
 10
608.2604239686024
 20
990.3351717414441
 30
0.0
 10
607.8662921848572
 20
990.0955774838295
 30
0.0
 10
607.472329329402
 20
989.8502657738511
 30
0.0
 10
607.3343077814443
 20
989.7643228950378
 30
0.0
  0
SPLINE
  5
209
330
1F
100
AcDbEntity
  8
0
  6
SLD-実線
 62
     7
370
    25
100
AcDbSpline
210
0.0
220
0.0
230
1.0
 70
     8
 71
     3
 72
    13
 73
     9
 74
     0
 42
0.000000001
 43
0.00000001
 40
0.0
 40
0.0
 40
0.0
 40
0.0
 40
0.1028382902977671
 40
0.1953131936867097
 40
0.2871585329075874
 40
0.3882467628589686
 40
0.6450119801109597
 40
1.0
 40
1.0
 40
1.0
 40
1.0
 10
608.7072174994482
 20
990.4895421125565
 30
0.0
 10
608.706764338759
 20
990.4988281914929
 30
0.0
 10
608.705903684024
 20
990.5164645575643
 30
0.0
 10
608.6969003718211
 20
990.536307992931
 30
0.0
 10
608.6816181107424
 20
990.5476688314868
 30
0.0
 10
608.6505617311965
 20
990.5517038186662
 30
0.0
 10
608.5938112692559
 20
990.5336461804193
 30
0.0
 10
608.5448729422851
 20
990.5065497128512
 30
0.0
 10
608.5164750217949
 20
990.4908261812312
 30
0.0
  0
SPLINE
  5
20A
330
1F
100
AcDbEntity
  8
0
  6
SLD-実線
 62
     7
370
    25
100
AcDbSpline
210
0.0
220
0.0
230
1.0
 70
     8
 71
     3
 72
    11
 73
     7
 74
     0
 42
0.000000001
 43
0.00000001
 40
0.0
 40
0.0
 40
0.0
 40
0.0
 40
0.2987537714182326
 40
0.5768377954906635
 40
0.7827871186760876
 40
1.0
 40
1.0
 40
1.0
 40
1.0
 10
608.611626471392
 20
990.3508108064212
 30
0.0
 10
608.6249254760711
 20
990.3596864755414
 30
0.0
 10
608.6506033729722
 20
990.3768237367198
 30
0.0
 10
608.6823802476598
 20
990.4136927563842
 30
0.0
 10
608.7036641277105
 20
990.454277335269
 30
0.0
 10
608.7060122087825
 20
990.477580429391
 30
0.0
 10
608.7072174994482
 20
990.4895421125565
 30
0.0
  0
SPLINE
  5
20B
330
1F
100
AcDbEntity
  8
0
  6
SLD-実線
 62
     7
370
    25
100
AcDbSpline
210
0.0
220
0.0
230
1.0
 70
     8
 71
     3
 72
     9
 73
     5
 74
     0
 42
0.000000001
 43
0.00000001
 40
0.0
 40
0.0
 40
0.0
 40
0.0
 40
0.6320713040774061
 40
1.0
 40
1.0
 40
1.0
 40
1.0
 10
608.3130160496924
 20
990.1369058807029
 30
0.0
 10
608.3754814671078
 20
990.1865397238095
 30
0.0
 10
608.4743080029946
 20
990.265065426189
 30
0.0
 10
608.5746922326746
 20
990.3277480649025
 30
0.0
 10
608.611626471392
 20
990.3508108064212
 30
0.0
  0
SPLINE
  5
20C
330
1F
100
AcDbEntity
  8
0
  6
SLD-実線
 62
     7
370
    25
100
AcDbSpline
210
0.0
220
0.0
230
1.0
 70
     8
 71
     3
 72
    11
 73
     7
 74
     0
 42
0.000000001
 43
0.00000001
 40
0.0
 40
0.0
 40
0.0
 40
0.0
 40
0.3426435257875721
 40
0.6033942456650729
 40
0.7878060385792246
 40
1.0
 40
1.0
 40
1.0
 40
1.0
 10
607.872334528563
 20
989.0976615715372
 30
0.0
 10
607.8798470126826
 20
989.2196940604041
 30
0.0
 10
607.8930764752209
 20
989.4345929159924
 30
0.0
 10
607.978396622998
 20
989.7454866368186
 30
0.0
 10
608.1330084783395
 20
989.9890417684273
 30
0.0
 10
608.2502753508015
 20
990.0853686166015
 30
0.0
 10
608.3130160496924
 20
990.1369058807029
 30
0.0
  0
SPLINE
  5
20D
330
1F
100
AcDbEntity
  8
0
  6
SLD-実線
 62
     7
370
    25
100
AcDbSpline
210
0.0
220
0.0
230
1.0
 70
     8
 71
     3
 72
    10
 73
     6
 74
     0
 42
0.000000001
 43
0.00000001
 40
0.0
 40
0.0
 40
0.0
 40
0.0
 40
0.4806472064087681
 40
0.7630521375034354
 40
1.0
 40
1.0
 40
1.0
 40
1.0
 10
607.8486557375978
 20
986.1071547618528
 30
0.0
 10
607.8492060630331
 20
986.5844485507598
 30
0.0
 10
607.8500797329391
 20
987.3421769656687
 30
0.0
 10
607.8474899739579
 20
988.333236932512
 30
0.0
 10
607.8645507668263
 20
988.8581684773573
 30
0.0
 10
607.872334528563
 20
989.0976615715372
 30
0.0
  0
LINE
  5
20E
330
1F
100
AcDbEntity
  8
0
  6
SLD-実線
 62
     7
370
    25
100
AcDbLine
 10
607.8486557376
 20
984.1784637866
 30
0.0
 11
607.8486557376
 21
986.1071547619
 31
0.0
  0
SPLINE
  5
20F
330
1F
100
AcDbEntity
  8
0
  6
SLD-実線
 62
     7
370
    25
100
AcDbSpline
210
0.0
220
0.0
230
1.0
 70
     8
 71
     3
 72
    10
 73
     6
 74
     0
 42
0.000000001
 43
0.00000001
 40
0.0
 40
0.0
 40
0.0
 40
0.0
 40
0.1979905240802097
 40
0.4387895999631402
 40
1.0
 40
1.0
 40
1.0
 40
1.0
 10
608.7422965190273
 20
981.2921793191895
 30
0.0
 10
608.6011260064945
 20
981.3899342845542
 30
0.0
 10
608.288261777216
 20
981.6065803202473
 30
0.0
 10
607.8973580819627
 20
982.5383439369032
 30
0.0
 10
607.8687055202087
 20
983.5032591969692
 30
0.0
 10
607.8486557375978
 20
984.1784637866435
 30
0.0
  0
SPLINE
  5
210
330
1F
100
AcDbEntity
  8
0
  6
SLD-実線
 62
     7
370
    25
100
AcDbSpline
210
0.0
220
0.0
230
1.0
 70
     8
 71
     3
 72
     9
 73
     5
 74
     0
 42
0.000000001
 43
0.00000001
 40
0.0
 40
0.0
 40
0.0
 40
0.0
 40
0.5370498874281258
 40
0.9999999999999999
 40
0.9999999999999999
 40
0.9999999999999999
 40
0.9999999999999999
 10
610.5444867063661
 20
981.5740478394254
 30
0.0
 10
610.1829691242333
 20
981.3837916290954
 30
0.0
 10
609.509814561509
 20
981.0295299212288
 30
0.0
 10
608.9851773671945
 20
981.2090639980942
 30
0.0
 10
608.7422965190273
 20
981.2921793191895
 30
0.0
  0
SPLINE
  5
211
330
1F
100
AcDbEntity
  8
0
  6
SLD-実線
 62
     7
370
    25
100
AcDbSpline
210
0.0
220
0.0
230
1.0
 70
     8
 71
     3
 72
    10
 73
     6
 74
     0
 42
0.000000001
 43
0.00000001
 40
0.0
 40
0.0
 40
0.0
 40
0.0
 40
0.270733549502294
 40
0.5514212784588222
 40
1.0
 40
1.0
 40
1.0
 40
1.0
 10
612.4172736881412
 20
983.6471263678836
 30
0.0
 10
612.2827098212292
 20
983.4121682189032
 30
0.0
 10
612.0086345185435
 20
982.9336131113695
 30
0.0
 10
611.3772985810515
 20
982.1695041923135
 30
0.0
 10
610.8616605547625
 20
981.8008255652702
 30
0.0
 10
610.5444867063661
 20
981.5740478394254
 30
0.0
  0
SPLINE
  5
212
330
1F
100
AcDbEntity
  8
0
  6
SLD-実線
 62
     7
370
    25
100
AcDbSpline
210
0.0
220
0.0
230
1.0
 70
     8
 71
     3
 72
     9
 73
     5
 74
     0
 42
0.000000001
 43
0.00000001
 40
0.0
 40
0.0
 40
0.0
 40
0.0
 40
0.6073708707387455
 40
1.0
 40
1.0
 40
1.0
 40
1.0
 10
613.1100863827775
 20
987.4229206181916
 30
0.0
 10
613.1117777245827
 20
986.6950587327991
 30
0.0
 10
613.11456241823
 20
985.4966774464081
 30
0.0
 10
612.6138629028761
 20
984.1685772080441
 30
0.0
 10
612.4172736881412
 20
983.6471263678836
 30
0.0
  0
LINE
  5
213
330
1F
100
AcDbEntity
  8
0
  6
SLD-実線
 62
     7
370
    25
100
AcDbLine
 10
613.1100863828
 20
989.1445140213
 30
0.0
 11
613.1100863828
 21
987.4229206182
 31
0.0
  0
SPLINE
  5
214
330
1F
100
AcDbEntity
  8
0
  6
SLD-実線
 62
     7
370
    25
100
AcDbSpline
210
0.0
220
0.0
230
1.0
 70
     8
 71
     3
 72
     9
 73
     5
 74
     0
 42
0.000000001
 43
0.00000001
 40
0.0
 40
0.0
 40
0.0
 40
0.0
 40
0.338856933537006
 40
1.0
 40
1.0
 40
1.0
 40
1.0
 10
613.0859688365339
 20
992.1074285928363
 30
0.0
 10
613.0945096855744
 20
991.7762073415482
 30
0.0
 10
613.1197145676213
 20
990.7987409877372
 30
0.0
 10
613.1139184474446
 20
989.8029044461238
 30
0.0
 10
613.1100863827775
 20
989.1445140213053
 30
0.0
  0
SPLINE
  5
215
330
1F
100
AcDbEntity
  8
0
  6
SLD-実線
 62
     7
370
    25
100
AcDbSpline
210
0.0
220
0.0
230
1.0
 70
     8
 71
     3
 72
    12
 73
     8
 74
     0
 42
0.000000001
 43
0.00000001
 40
0.0
 40
0.0
 40
0.0
 40
0.0
 40
0.2116328797912701
 40
0.3829410091473644
 40
0.5404664557022653
 40
0.7454513921691274
 40
1.0
 40
1.0
 40
1.0
 40
1.0
 10
612.5746913441488
 20
992.5971186610911
 30
0.0
 10
612.6393052077779
 20
992.6158062665527
 30
0.0
 10
612.7562213418278
 20
992.6496207215706
 30
0.0
 10
612.904978409039
 20
992.6335825292323
 30
0.0
 10
613.0106032498473
 20
992.5392263004161
 30
0.0
 10
613.068657731364
 20
992.3554463181573
 30
0.0
 10
613.0797979531028
 20
992.1958393821407
 30
0.0
 10
613.0859688365339
 20
992.1074285928363
 30
0.0
  0
SPLINE
  5
216
330
1F
100
AcDbEntity
  8
0
  6
SLD-実線
 62
     7
370
    25
100
AcDbSpline
210
0.0
220
0.0
230
1.0
 70
     8
 71
     3
 72
     9
 73
     5
 74
     0
 42
0.000000001
 43
0.00000001
 40
0.0
 40
0.0
 40
0.0
 40
0.0
 40
0.5746326473183764
 40
0.9999999999999999
 40
0.9999999999999999
 40
0.9999999999999999
 40
0.9999999999999999
 10
612.1668958893869
 20
992.4032241545833
 30
0.0
 10
612.2455408379595
 20
992.4471150074971
 30
0.0
 10
612.3824020986966
 20
992.5234957232792
 30
0.0
 10
612.5173071427124
 20
992.575147627382
 30
0.0
 10
612.5746913441488
 20
992.5971186610911
 30
0.0
  0
SPLINE
  5
217
330
1F
100
AcDbEntity
  8
0
  6
SLD-実線
 62
     7
370
    25
100
AcDbSpline
210
0.0
220
0.0
230
1.0
 70
     8
 71
     3
 72
    12
 73
     8
 74
     0
 42
0.000000001
 43
0.00000001
 40
0.0
 40
0.0
 40
0.0
 40
0.0
 40
0.1862507442934697
 40
0.3614161819231748
 40
0.5416884262530173
 40
0.7665398731389496
 40
0.9999999999999999
 40
0.9999999999999999
 40
0.9999999999999999
 40
0.9999999999999999
 10
612.0713056845113
 20
992.4315888841656
 30
0.0
 10
612.0721844597232
 20
992.422469667938
 30
0.0
 10
612.0738897070396
 20
992.4047739947013
 30
0.0
 10
612.0882196805414
 20
992.3894911272852
 30
0.0
 10
612.1091762686176
 20
992.3839159916437
 30
0.0
 10
612.136160480712
 20
992.3877600928002
 30
0.0
 10
612.1565232586446
 20
992.3980053203602
 30
0.0
 10
612.1668958893869
 20
992.4032241545833
 30
0.0
  0
SPLINE
  5
218
330
1F
100
AcDbEntity
  8
0
  6
SLD-実線
 62
     7
370
    25
100
AcDbSpline
210
0.0
220
0.0
230
1.0
 70
     8
 71
     3
 72
    13
 73
     9
 74
     0
 42
0.000000001
 43
0.00000001
 40
0.0
 40
0.0
 40
0.0
 40
0.0
 40
0.3534259835670927
 40
0.6107350134326038
 40
0.7123604507611995
 40
0.8046103417748763
 40
0.8972257833108618
 40
1.0
 40
1.0
 40
1.0
 40
1.0
 10
612.2624869174431
 20
992.6533528179152
 30
0.0
 10
612.2341870285676
 20
992.6363366363773
 30
0.0
 10
612.1852836263954
 20
992.606931956633
 30
0.0
 10
612.1285441971595
 20
992.559455326837
 30
0.0
 10
612.0972936327922
 20
992.519501938283
 30
0.0
 10
612.0818274441859
 20
992.4904188603922
 30
0.0
 10
612.0726525722777
 20
992.4600771162523
 30
0.0
 10
612.0717699437553
 20
992.4414085034552
 30
0.0
 10
612.0713056845113
 20
992.4315888841656
 30
0.0
  0
SPLINE
  5
219
330
1F
100
AcDbEntity
  8
0
  6
SLD-実線
 62
     7
370
    25
100
AcDbSpline
210
0.0
220
0.0
230
1.0
 70
     8
 71
     3
 72
    10
 73
     6
 74
     0
 42
0.000000001
 43
0.00000001
 40
0.0
 40
0.0
 40
0.0
 40
0.0
 40
0.1721586245576831
 40
0.4321003118444765
 40
1.0
 40
1.0
 40
1.0
 40
1.0
 10
613.5275278682201
 20
993.3395927493749
 30
0.0
 10
613.4549545133973
 20
993.3010619217833
 30
0.0
 10
613.2728029114598
 20
993.2043535363583
 30
0.0
 10
612.851330111428
 20
992.9832836625225
 30
0.0
 10
612.5020756742391
 20
992.7875952133365
 30
0.0
 10
612.2624869174431
 20
992.6533528179152
 30
0.0
  0
SPLINE
  5
21A
330
1F
100
AcDbEntity
  8
0
  6
SLD-実線
 62
     7
370
    25
100
AcDbSpline
210
0.0
220
0.0
230
1.0
 70
     8
 71
     3
 72
     9
 73
     5
 74
     0
 42
0.000000001
 43
0.00000001
 40
0.0
 40
0.0
 40
0.0
 40
0.0
 40
0.6709875484155688
 40
1.0
 40
1.0
 40
1.0
 40
1.0
 10
614.5307907916289
 20
993.9628167717588
 30
0.0
 10
614.3063139500003
 20
993.8257907410483
 30
0.0
 10
613.9717669943099
 20
993.6215752812626
 30
0.0
 10
613.6375044179434
 20
993.4094007967034
 30
0.0
 10
613.5275278682201
 20
993.3395927493749
 30
0.0
  0
SPLINE
  5
21B
330
1F
100
AcDbEntity
  8
0
  6
SLD-実線
 62
     7
370
    25
100
AcDbSpline
210
0.0
220
0.0
230
1.0
 70
     8
 71
     3
 72
    13
 73
     9
 74
     0
 42
0.000000001
 43
0.00000001
 40
0.0
 40
0.0
 40
0.0
 40
0.0
 40
0.1031957706253608
 40
0.1959750223020601
 40
0.2880534369761244
 40
0.389269078639268
 40
0.6458838437791975
 40
1.0
 40
1.0
 40
1.0
 40
1.0
 10
614.7206557587255
 20
993.9610261270224
 30
0.0
 10
614.720203223575
 20
993.9703124036148
 30
0.0
 10
614.7193438318999
 20
993.9879476056318
 30
0.0
 10
614.7103536751331
 20
994.0077919432014
 30
0.0
 10
614.6951116579299
 20
994.0191729435664
 30
0.0
 10
614.6641794310026
 20
994.0232707399725
 30
0.0
 10
614.6077084452293
 20
994.0053901517001
 30
0.0
 10
614.5590209479628
 20
993.978441964613
 30
0.0
 10
614.5307907916289
 20
993.9628167717588
 30
0.0
  0
SPLINE
  5
21C
330
1F
100
AcDbEntity
  8
0
  6
SLD-実線
 62
     7
370
    25
100
AcDbSpline
210
0.0
220
0.0
230
1.0
 70
     8
 71
     3
 72
    11
 73
     7
 74
     0
 42
0.000000001
 43
0.00000001
 40
0.0
 40
0.0
 40
0.0
 40
0.0
 40
0.2999910960112979
 40
0.5776029455904502
 40
0.7829962481346571
 40
1.0
 40
1.0
 40
1.0
 40
1.0
 10
614.6250663770304
 20
993.8222957713112
 30
0.0
 10
614.6384290650619
 20
993.8311976733312
 30
0.0
 10
614.6641575885769
 20
993.8483373981313
 30
0.0
 10
614.6959780047544
 20
993.8852483891347
 30
0.0
 10
614.7171496802684
 20
993.9258199990543
 30
0.0
 10
614.7194658443995
 20
993.949077656231
 30
0.0
 10
614.7206557587255
 20
993.9610261270224
 30
0.0
  0
SPLINE
  5
21D
330
1F
100
AcDbEntity
  8
0
  6
SLD-実線
 62
     7
370
    25
100
AcDbSpline
210
0.0
220
0.0
230
1.0
 70
     8
 71
     3
 72
     9
 73
     5
 74
     0
 42
0.000000001
 43
0.00000001
 40
0.0
 40
0.0
 40
0.0
 40
0.0
 40
0.6334684490860047
 40
1.0
 40
1.0
 40
1.0
 40
1.0
 10
614.3277697516241
 20
993.6091492840492
 30
0.0
 10
614.3900972052837
 20
993.6587002185466
 30
0.0
 10
614.4884879834661
 20
993.73692184832
 30
0.0
 10
614.588433274501
 20
993.7993967490524
 30
0.0
 10
614.6250663770304
 20
993.8222957713112
 30
0.0
  0
SPLINE
  5
21E
330
1F
100
AcDbEntity
  8
0
  6
SLD-実線
 62
     7
370
    25
100
AcDbSpline
210
0.0
220
0.0
230
1.0
 70
     8
 71
     3
 72
    11
 73
     7
 74
     0
 42
0.000000001
 43
0.00000001
 40
0.0
 40
0.0
 40
0.0
 40
0.0
 40
0.340233813083092
 40
0.596451607069991
 40
0.7822915337775462
 40
1.0
 40
1.0
 40
1.0
 40
1.0
 10
613.8862123662993
 20
992.5693993492458
 30
0.0
 10
613.893581974921
 20
992.6898559377853
 30
0.0
 10
613.906501369575
 20
992.901024031766
 30
0.0
 10
613.9939356148287
 20
993.2088039775233
 30
0.0
 10
614.1485293612675
 20
993.4492214569448
 30
0.0
 10
614.2649581304811
 20
993.5531054087467
 30
0.0
 10
614.3277697516241
 20
993.6091492840492
 30
0.0
  0
SPLINE
  5
21F
330
1F
100
AcDbEntity
  8
0
  6
SLD-実線
 62
     7
370
    25
100
AcDbSpline
210
0.0
220
0.0
230
1.0
 70
     8
 71
     3
 72
    10
 73
     6
 74
     0
 42
0.000000001
 43
0.00000001
 40
0.0
 40
0.0
 40
0.0
 40
0.0
 40
0.4806426898112064
 40
0.7630452319303067
 40
1.0
 40
1.0
 40
1.0
 40
1.0
 10
613.8616568879578
 20
989.578386438712
 30
0.0
 10
613.8622269953116
 20
990.0556901798329
 30
0.0
 10
613.8631320703439
 20
990.8134346573115
 30
0.0
 10
613.8604472420999
 20
991.8044605582252
 30
0.0
 10
613.8781400781467
 20
992.3297418070429
 30
0.0
 10
613.8862123662993
 20
992.5693993492458
 30
0.0
  0
LINE
  5
220
330
1F
100
AcDbEntity
  8
0
  6
SLD-実線
 62
     7
370
    25
100
AcDbLine
 10
613.861656888
 20
988.1038923222
 30
0.0
 11
613.861656888
 21
989.5783864387
 31
0.0
  0
SPLINE
  5
221
330
1F
100
AcDbEntity
  8
0
  6
SLD-実線
 62
     7
370
    25
100
AcDbSpline
210
0.0
220
0.0
230
1.0
 70
     8
 71
     3
 72
    10
 73
     6
 74
     0
 42
0.000000001
 43
0.00000001
 40
0.0
 40
0.0
 40
0.0
 40
0.0
 40
0.271619481353883
 40
0.549415642878394
 40
1.0
 40
1.0
 40
1.0
 40
1.0
 10
612.7641183791476
 20
983.3521440124088
 30
0.0
 10
612.9946822540576
 20
983.790957648478
 30
0.0
 10
613.4610530715221
 20
984.6785636285903
 30
0.0
 10
613.8165736325133
 20
986.3390459922379
 30
0.0
 10
613.8444266802654
 20
987.429392033575
 30
0.0
 10
613.8616568879578
 20
988.1038923222278
 30
0.0
  0
SPLINE
  5
222
330
1F
100
AcDbEntity
  8
0
  6
SLD-実線
 62
     7
370
    25
100
AcDbSpline
210
0.0
220
0.0
230
1.0
 70
     8
 71
     3
 72
     9
 73
     5
 74
     0
 42
0.000000001
 43
0.00000001
 40
0.0
 40
0.0
 40
0.0
 40
0.0
 40
0.5030270798394764
 40
1.0
 40
1.0
 40
1.0
 40
1.0
 10
610.3059487146845
 20
980.9127759696008
 30
0.0
 10
610.7615768605972
 20
981.207799069688
 30
0.0
 10
611.6673494604701
 20
981.7942945326786
 30
0.0
 10
612.400007282069
 20
982.8349609727655
 30
0.0
 10
612.7641183791476
 20
983.3521440124088
 30
0.0
  0
SPLINE
  5
223
330
1F
100
AcDbEntity
  8
0
  6
SLD-実線
 62
     7
370
    25
100
AcDbSpline
210
0.0
220
0.0
230
1.0
 70
     8
 71
     3
 72
    10
 73
     6
 74
     0
 42
0.000000001
 43
0.00000001
 40
0.0
 40
0.0
 40
0.0
 40
0.0
 40
0.3480547031762641
 40
0.6587751719798275
 40
1.0
 40
1.0
 40
1.0
 40
1.0
 10
607.8486557375978
 20
980.4714680070309
 30
0.0
 10
608.0958861724165
 20
980.397862101646
 30
0.0
 10
608.5638277653042
 20
980.2585456593273
 30
0.0
 10
609.4282033667204
 20
980.462730733592
 30
0.0
 10
610.0043805362703
 20
980.7581533078665
 30
0.0
 10
610.3059487146845
 20
980.9127759696008
 30
0.0
  0
SPLINE
  5
224
330
1F
100
AcDbEntity
  8
0
  6
SLD-実線
 62
     7
370
    25
100
AcDbSpline
210
0.0
220
0.0
230
1.0
 70
     8
 71
     3
 72
    10
 73
     6
 74
     0
 42
0.000000001
 43
0.00000001
 40
0.0
 40
0.0
 40
0.0
 40
0.0
 40
0.3736792125289775
 40
0.6564318726496348
 40
1.0
 40
1.0
 40
1.0
 40
1.0
 10
606.8107525498885
 20
983.4967598536603
 30
0.0
 10
606.8265119924782
 20
983.0186045841198
 30
0.0
 10
606.8541961666689
 20
982.1786425298287
 30
0.0
 10
607.1411194355002
 20
981.0520659861578
 30
0.0
 10
607.5980219602349
 20
980.6771358493825
 30
0.0
 10
607.8486557375978
 20
980.4714680070309
 30
0.0
  0
LINE
  5
225
330
1F
100
AcDbEntity
  8
0
  6
SLD-実線
 62
     7
370
    25
100
AcDbLine
 10
606.8107525499
 20
985.5079860053
 30
0.0
 11
606.8107525499
 21
983.4967598537
 31
0.0
  0
SPLINE
  5
226
330
1F
100
AcDbEntity
  8
0
  6
SLD-実線
 62
     7
370
    25
100
AcDbSpline
210
0.0
220
0.0
230
1.0
 70
     8
 71
     3
 72
     9
 73
     5
 74
     0
 42
0.000000001
 43
0.00000001
 40
0.0
 40
0.0
 40
0.0
 40
0.0
 40
0.3388676709058157
 40
1.0
 40
1.0
 40
1.0
 40
1.0
 10
606.7848816288924
 20
988.4698883750855
 30
0.0
 10
606.7940432598698
 20
988.1390282249586
 30
0.0
 10
606.8210792735233
 20
987.1626584542968
 30
0.0
 10
606.8148625962281
 20
986.1665472956239
 30
0.0
 10
606.8107525498885
 20
985.5079860052539
 30
0.0
  0
LINE
  5
227
330
1F
100
AcDbEntity
  8
0
  6
SLD-実線
 62
     7
370
    25
100
AcDbLine
 10
605.963152673
 20
989.0168245643
 30
0.0
 11
604.1953854302
 21
990.0373348713
 31
0.0
  0
LINE
  5
228
330
1F
100
AcDbEntity
  8
0
  6
SLD-実線
 62
     7
370
    25
100
AcDbLine
 10
605.7710947527
 20
988.7945545297
 30
0.0
 11
604.0033275099
 21
989.8150648367
 31
0.0
  0
LINE
  5
229
330
1F
100
AcDbEntity
  8
0
  6
SLD-実線
 62
     7
370
    25
100
AcDbLine
 10
607.3343077814
 20
989.764322895
 30
0.0
 11
605.5665405387
 21
990.7848332021
 31
0.0
  0
LINE
  5
22A
330
1F
100
AcDbEntity
  8
0
  6
SLD-実線
 62
     7
370
    25
100
AcDbLine
 10
602.6148504171
 20
980.6623474125
 30
0.0
 11
600.8470831744
 21
981.6828577196
 31
0.0
  0
LINE
  5
22B
330
1F
100
AcDbEntity
  8
0
  6
SLD-実線
 62
     7
370
    25
100
AcDbLine
 10
608.5164750218
 20
990.4908261812
 30
0.0
 11
606.7487077791
 21
991.5113364883
 31
0.0
  0
LINE
  5
22C
330
1F
100
AcDbEntity
  8
0
  6
SLD-実線
 62
     7
370
    25
100
AcDbLine
 10
606.8107525499
 20
985.5079860053
 30
0.0
 11
605.0429853072
 21
986.5284963123
 31
0.0
  0
LINE
  5
22D
330
1F
100
AcDbEntity
  8
0
  6
SLD-実線
 62
     7
370
    25
100
AcDbLine
 10
602.5565313619
 20
977.638171507
 30
0.0
 11
600.7887641192
 21
978.658681814
 31
0.0
  0
LINE
  5
22E
330
1F
100
AcDbEntity
  8
0
  6
SLD-実線
 62
     7
370
    25
100
AcDbLine
 10
606.8107525499
 20
983.4967598537
 30
0.0
 11
605.0429853072
 21
984.5172701607
 31
0.0
  0
LINE
  5
22F
330
1F
100
AcDbEntity
  8
0
  6
SLD-実線
 62
     7
370
    25
100
AcDbLine
 10
602.2101250146
 20
976.680694491
 30
0.0
 11
600.4423577718
 21
977.7012047981
 31
0.0
  0
LINE
  5
230
330
1F
100
AcDbEntity
  8
0
  6
SLD-実線
 62
     7
370
    25
100
AcDbLine
 10
601.8523178212
 20
976.417931458
 30
0.0
 11
600.0845505785
 21
977.4384417651
 31
0.0
  0
LINE
  5
231
330
1F
100
AcDbEntity
  8
0
  6
SLD-実線
 62
     7
370
    25
100
AcDbLine
 10
601.7558503116
 20
976.2786941699
 30
0.0
 11
599.9880830689
 21
977.2992044769
 31
0.0
  0
LINE
  5
232
330
1F
100
AcDbEntity
  8
0
  6
SLD-実線
 62
     7
370
    25
100
AcDbLine
 10
607.8486557376
 20
980.471468007
 30
0.0
 11
606.0808884949
 21
981.4919783141
 31
0.0
  0
LINE
  5
233
330
1F
100
AcDbEntity
  8
0
  6
SLD-実線
 62
     7
370
    25
100
AcDbLine
 10
612.2624869174
 20
992.6533528179
 30
0.0
 11
610.4947196747
 21
993.673863125
 31
0.0
  0
LINE
  5
234
330
1F
100
AcDbEntity
  8
0
  6
SLD-実線
 62
     7
370
    25
100
AcDbLine
 10
612.0713056845
 20
992.4315888842
 30
0.0
 11
610.3035384418
 21
993.4520991912
 31
0.0
  0
LINE
  5
235
330
1F
100
AcDbEntity
  8
0
  6
SLD-実線
 62
     7
370
    25
100
AcDbLine
 10
613.5275278682
 20
993.3395927494
 30
0.0
 11
611.7597606255
 21
994.3601030564
 31
0.0
  0
LINE
  5
236
330
1F
100
AcDbEntity
  8
0
  6
SLD-実線
 62
     7
370
    25
100
AcDbLine
 10
614.5307907916
 20
993.9628167718
 30
0.0
 11
612.7630235489
 21
994.9833270788
 31
0.0
  0
LWPOLYLINE
  5
237
330
1F
100
AcDbEntity
  8
0
  6
SLD-実線
 62
     7
370
    25
100
AcDbPolyline
 90
       19
 70
   128
 43
0.0
 10
549.4892732642
 20
831.0883812465
 10
549.515948124
 20
830.4218523083
 10
550.1533213521
 20
827.7841225758
 10
551.6194264367
 20
825.2589156353
 10
553.8643363405
 20
822.9322236641
 10
556.8116037183
 20
820.8832798392
 10
560.3608622713
 20
819.181859073
 10
564.3912485027
 20
817.8858996956
 10
568.7655085663
 20
817.0395356021
 10
573.3346862796
 20
816.6715874536
 10
577.9431823929
 20
816.7945865925
 10
582.4340591642
 20
817.4043435492
 10
586.654384449
 20
818.4800944075
 10
590.4604441822
 20
819.9852041785
 10
593.722623222
 20
821.8684200529
 10
596.3298323129
 20
824.0656115683
 10
598.1932893653
 20
826.5019534962
 10
599.2495338408
 20
829.0944814728
 10
599.4892720298
 20
831.0883810089
  0
LINE
  5
238
330
1F
100
AcDbEntity
  8
0
  6
SLD-実線
 62
     7
370
    25
100
AcDbLine
 10
550.3411271329
 20
961.9912984686
 30
0.0
 11
550.3411271329
 21
962.1501971897
 31
0.0
  0
LINE
  5
239
330
1F
100
AcDbEntity
  8
0
  6
SLD-実線
 62
     7
370
    25
100
AcDbLine
 10
613.1100863828
 20
989.1445140213
 30
0.0
 11
611.3423191401
 21
990.1650243284
 31
0.0
  0
SPLINE
  5
23A
330
1F
100
AcDbEntity
  8
0
  6
SLD-実線
 62
     7
370
    25
100
AcDbSpline
210
0.0
220
0.0
230
1.0
 70
     8
 71
     3
 72
    11
 73
     7
 74
     0
 42
0.000000001
 43
0.00000001
 40
0.0
 40
0.0
 40
0.0
 40
0.0
 40
0.403127005797473
 40
0.6463937536290093
 40
0.8026530553346171
 40
1.0
 40
1.0
 40
1.0
 40
1.0
 10
615.6870862878028
 20
984.9144688900725
 30
0.0
 10
615.6868724813123
 20
984.8330139274163
 30
0.0
 10
615.6865296534247
 20
984.7024050168105
 30
0.0
 10
615.707121115638
 20
984.5468553531407
 30
0.0
 10
615.7793682948508
 20
984.4942958813058
 30
0.0
 10
615.8352437390769
 20
984.4940594447746
 30
0.0
 10
615.8664277136617
 20
984.4939274900155
 30
0.0
  0
SPLINE
  5
23B
330
1F
100
AcDbEntity
  8
0
  6
SLD-実線
 62
     7
370
    25
100
AcDbSpline
210
0.0
220
0.0
230
1.0
 70
     8
 71
     3
 72
     9
 73
     5
 74
     0
 42
0.000000001
 43
0.00000001
 40
0.0
 40
0.0
 40
0.0
 40
0.0
 40
0.4438095961024555
 40
1.0
 40
1.0
 40
1.0
 40
1.0
 10
615.747158717821
 20
986.409970563559
 30
0.0
 10
615.7321934163
 20
986.1855720672706
 30
0.0
 10
615.698473321799
 20
985.6799532202268
 30
0.0
 10
615.6911560719511
 20
985.188056901989
 30
0.0
 10
615.6870862878028
 20
984.9144688900725
 30
0.0
  0
SPLINE
  5
23C
330
1F
100
AcDbEntity
  8
0
  6
SLD-実線
 62
     7
370
    25
100
AcDbSpline
210
0.0
220
0.0
230
1.0
 70
     8
 71
     3
 72
    13
 73
     9
 74
     0
 42
0.000000001
 43
0.00000001
 40
0.0
 40
0.0
 40
0.0
 40
0.0
 40
0.0887711014351385
 40
0.1721713266810358
 40
0.2604976832236208
 40
0.3626421759072044
 40
0.6297200836148497
 40
1.0
 40
1.0
 40
1.0
 40
1.0
 10
615.8409963711247
 20
986.684404735997
 30
0.0
 10
615.8340802513435
 20
986.679868188703
 30
0.0
 10
615.8206664545226
 20
986.6710695667018
 30
0.0
 10
615.8021567221004
 20
986.6496688707014
 30
0.0
 10
615.7870449099602
 20
986.6233038001534
 30
0.0
 10
615.7694304118401
 20
986.5772484139753
 30
0.0
 10
615.7550701620761
 20
986.5041322379708
 30
0.0
 10
615.7500659619619
 20
986.4445724601804
 30
0.0
 10
615.747158717821
 20
986.409970563559
 30
0.0
  0
SPLINE
  5
23D
330
1F
100
AcDbEntity
  8
0
  6
SLD-実線
 62
     7
370
    25
100
AcDbSpline
210
0.0
220
0.0
230
1.0
 70
     8
 71
     3
 72
    13
 73
     9
 74
     0
 42
0.000000001
 43
0.00000001
 40
0.0
 40
0.0
 40
0.0
 40
0.0
 40
0.331105240143522
 40
0.5635363265090141
 40
0.6590331573062027
 40
0.7555530407189787
 40
0.8659249560507747
 40
0.9999999999999999
 40
0.9999999999999999
 40
0.9999999999999999
 40
0.9999999999999999
 10
615.9265017900411
 20
986.5823668325123
 30
0.0
 10
615.926295677165
 20
986.6054711763384
 30
0.0
 10
615.9259448760328
 20
986.6447944351319
 30
0.0
 10
615.9168373049737
 20
986.6861922473021
 30
0.0
 10
615.9005015728587
 20
986.7006660074308
 30
0.0
 10
615.8844360558736
 20
986.7025811737959
 30
0.0
 10
615.8640983978394
 20
986.6969273855685
 30
0.0
 10
615.8491792646438
 20
986.6888403428503
 30
0.0
 10
615.8409963711247
 20
986.684404735997
 30
0.0
  0
SPLINE
  5
23E
330
1F
100
AcDbEntity
  8
0
  6
SLD-実線
 62
     7
370
    25
100
AcDbSpline
210
0.0
220
0.0
230
1.0
 70
     8
 71
     3
 72
     9
 73
     5
 74
     0
 42
0.000000001
 43
0.00000001
 40
0.0
 40
0.0
 40
0.0
 40
0.0
 40
0.6128973321439742
 40
1.0
 40
1.0
 40
1.0
 40
1.0
 10
615.9615808096202
 20
986.0927221603773
 30
0.0
 10
615.9480890642717
 20
986.1886082010757
 30
0.0
 10
615.9260760049209
 20
986.3450553508177
 30
0.0
 10
615.9263829649824
 20
986.5161396455811
 30
0.0
 10
615.9265017900411
 20
986.5823668325123
 30
0.0
  0
SPLINE
  5
23F
330
1F
100
AcDbEntity
  8
0
  6
SLD-実線
 62
     7
370
    25
100
AcDbSpline
210
0.0
220
0.0
230
1.0
 70
     8
 71
     3
 72
    11
 73
     7
 74
     0
 42
0.000000001
 43
0.00000001
 40
0.0
 40
0.0
 40
0.0
 40
0.0
 40
0.2837066199415481
 40
0.5546664160438279
 40
0.7666856022773454
 40
1.0
 40
1.0
 40
1.0
 40
1.0
 10
617.7269377794469
 20
985.7062107065427
 30
0.0
 10
617.5056671666085
 20
985.5947999436926
 30
0.0
 10
617.0730675401911
 20
985.3769840585662
 30
0.0
 10
616.5180203990213
 20
985.3501514594282
 30
0.0
 10
616.1159029841853
 20
985.5909939314796
 30
0.0
 10
616.0146356866491
 20
985.920231527964
 30
0.0
 10
615.9615808096202
 20
986.0927221603773
 30
0.0
  0
SPLINE
  5
240
330
1F
100
AcDbEntity
  8
0
  6
SLD-実線
 62
     7
370
    25
100
AcDbSpline
210
0.0
220
0.0
230
1.0
 70
     8
 71
     3
 72
    11
 73
     7
 74
     0
 42
0.000000001
 43
0.00000001
 40
0.0
 40
0.0
 40
0.0
 40
0.0
 40
0.2507460400238493
 40
0.512505084171294
 40
0.737274396748445
 40
1.0
 40
1.0
 40
1.0
 40
1.0
 10
619.433098183451
 20
988.5236404821751
 30
0.0
 10
619.4069636476638
 20
988.2567956610666
 30
0.0
 10
619.3535467224668
 20
987.7113859409772
 30
0.0
 10
618.9524904439397
 20
986.8662218783949
 30
0.0
 10
618.380657595461
 20
986.145646546565
 30
0.0
 10
617.9558690451904
 20
985.8601001873341
 30
0.0
 10
617.7269377794469
 20
985.7062107065427
 30
0.0
  0
SPLINE
  5
241
330
1F
100
AcDbEntity
  8
0
  6
SLD-実線
 62
     7
370
    25
100
AcDbSpline
210
0.0
220
0.0
230
1.0
 70
     8
 71
     3
 72
    11
 73
     7
 74
     0
 42
0.000000001
 43
0.00000001
 40
0.0
 40
0.0
 40
0.0
 40
0.0
 40
0.3607790646619725
 40
0.6284781283291846
 40
0.8096564571753183
 40
1.0
 40
1.0
 40
1.0
 40
1.0
 10
618.0628201739371
 20
990.2142219232256
 30
0.0
 10
618.306176674796
 20
990.1174624978825
 30
0.0
 10
618.7301043722632
 20
989.9489073113588
 30
0.0
 10
619.1913784681294
 20
989.5735162275712
 30
0.0
 10
619.4086884869704
 20
989.0848556485997
 30
0.0
 10
619.424828893355
 20
988.7137637400022
 30
0.0
 10
619.433098183451
 20
988.5236404821751
 30
0.0
  0
LINE
  5
242
330
1F
100
AcDbEntity
  8
0
  6
SLD-実線
 62
     7
370
    25
100
AcDbLine
 10
617.5252321821
 20
990.4127617663
 30
0.0
 11
618.0628201739
 21
990.2142219232
 31
0.0
  0
SPLINE
  5
243
330
1F
100
AcDbEntity
  8
0
  6
SLD-実線
 62
     7
370
    25
100
AcDbSpline
210
0.0
220
0.0
230
1.0
 70
     8
 71
     3
 72
    10
 73
     6
 74
     0
 42
0.000000001
 43
0.00000001
 40
0.0
 40
0.0
 40
0.0
 40
0.0
 40
0.2170325088276978
 40
0.4584657019298682
 40
1.0
 40
1.0
 40
1.0
 40
1.0
 10
615.9738577256102
 20
992.506668694279
 30
0.0
 10
615.987720725054
 20
992.2525468491676
 30
0.0
 10
616.0170053230398
 20
991.7157325685604
 30
0.0
 10
616.478796433385
 20
990.8712879260463
 30
0.0
 10
617.0973876497173
 20
990.6002342514869
 30
0.0
 10
617.5252321820968
 20
990.4127617662986
 30
0.0
  0
SPLINE
  5
244
330
1F
100
AcDbEntity
  8
0
  6
SLD-実線
 62
     7
370
    25
100
AcDbSpline
210
0.0
220
0.0
230
1.0
 70
     8
 71
     3
 72
    12
 73
     8
 74
     0
 42
0.000000001
 43
0.00000001
 40
0.0
 40
0.0
 40
0.0
 40
0.0
 40
0.2159433847868771
 40
0.40711132526289
 40
0.5826519971086065
 40
0.7844054537098542
 40
1.0
 40
1.0
 40
1.0
 40
1.0
 10
618.4425517544913
 20
996.4129353964341
 30
0.0
 10
618.177693690396
 20
996.2426519553742
 30
0.0
 10
617.6783650465164
 20
995.9216218972937
 30
0.0
 10
617.0005935655246
 20
995.2319561284619
 30
0.0
 10
616.4435526471314
 20
994.4143928117433
 30
0.0
 10
616.0437906348141
 20
993.4476844392343
 30
0.0
 10
615.9976784560225
 20
992.827199938146
 30
0.0
 10
615.9738577256102
 20
992.506668694279
 30
0.0
  0
SPLINE
  5
245
330
1F
100
AcDbEntity
  8
0
  6
SLD-実線
 62
     7
370
    25
100
AcDbSpline
210
0.0
220
0.0
230
1.0
 70
     8
 71
     3
 72
     9
 73
     5
 74
     0
 42
0.000000001
 43
0.00000001
 40
0.0
 40
0.0
 40
0.0
 40
0.0
 40
0.5060474499364245
 40
1.0
 40
1.0
 40
1.0
 40
1.0
 10
619.5523671792918
 20
996.9148779281153
 30
0.0
 10
619.3669953315034
 20
996.8509729928668
 30
0.0
 10
619.0006821570934
 20
996.7246904965187
 30
0.0
 10
618.627089031543
 20
996.5160124497686
 30
0.0
 10
618.4425517544913
 20
996.4129353964341
 30
0.0
  0
SPLINE
  5
246
330
1F
100
AcDbEntity
  8
0
  6
SLD-実線
 62
     7
370
    25
100
AcDbSpline
210
0.0
220
0.0
230
1.0
 70
     8
 71
     3
 72
     9
 73
     5
 74
     0
 42
0.000000001
 43
0.00000001
 40
0.0
 40
0.0
 40
0.0
 40
0.0
 40
0.4352472362802388
 40
1.0
 40
1.0
 40
1.0
 40
1.0
 10
619.9698086647344
 20
997.0875042341751
 30
0.0
 10
619.9086246312326
 20
997.0568091426479
 30
0.0
 10
619.7680515766516
 20
996.9862857964471
 30
0.0
 10
619.6302122947147
 20
996.9406505561794
 30
0.0
 10
619.5523671792918
 20
996.9148779281153
 30
0.0
  0
SPLINE
  5
247
330
1F
100
AcDbEntity
  8
0
  6
SLD-実線
 62
     7
370
    25
100
AcDbSpline
210
0.0
220
0.0
230
1.0
 70
     8
 71
     3
 72
    12
 73
     8
 74
     0
 42
0.000000001
 43
0.00000001
 40
0.0
 40
0.0
 40
0.0
 40
0.0
 40
0.1728420608487936
 40
0.317827893827719
 40
0.463401068846412
 40
0.684380860110689
 40
1.0
 40
1.0
 40
1.0
 40
1.0
 10
620.0903931032299
 20
997.0609095131316
 30
0.0
 10
620.0900557892866
 20
997.0720539820422
 30
0.0
 10
620.0894355248693
 20
997.0925468126895
 30
0.0
 10
620.0793646858712
 20
997.115828124142
 30
0.0
 10
620.0562797782449
 20
997.1246301325507
 30
0.0
 10
620.0180632442275
 20
997.1140537305117
 30
0.0
 10
619.9876797582876
 20
997.0973368456662
 30
0.0
 10
619.9698086647344
 20
997.0875042341751
 30
0.0
  0
SPLINE
  5
248
330
1F
100
AcDbEntity
  8
0
  6
SLD-実線
 62
     7
370
    25
100
AcDbSpline
210
0.0
220
0.0
230
1.0
 70
     8
 71
     3
 72
    10
 73
     6
 74
     0
 42
0.000000001
 43
0.00000001
 40
0.0
 40
0.0
 40
0.0
 40
0.0
 40
0.7789311982937849
 40
0.9428907050083157
 40
1.0
 40
1.0
 40
1.0
 40
1.0
 10
620.041282146547
 20
995.5717357635082
 30
0.0
 10
620.044293607837
 20
995.9533547453007
 30
0.0
 10
620.0479389604238
 20
996.4153018230079
 30
0.0
 10
620.0827619183057
 20
996.921211427985
 30
0.0
 10
620.0888264392971
 20
997.0322298318443
 30
0.0
 10
620.0903931032299
 20
997.0609095131316
 30
0.0
  0
SPLINE
  5
249
330
1F
100
AcDbEntity
  8
0
  6
SLD-実線
 62
     7
370
    25
100
AcDbSpline
210
0.0
220
0.0
230
1.0
 70
     8
 71
     3
 72
    13
 73
     9
 74
     0
 42
0.000000001
 43
0.00000001
 40
0.0
 40
0.0
 40
0.0
 40
0.0
 40
0.0677984912309531
 40
0.1364083942950199
 40
0.2174503249028903
 40
0.3189348776074496
 40
0.5997917253922147
 40
1.0
 40
1.0
 40
1.0
 40
1.0
 10
619.9579696808422
 20
995.2061584130141
 30
0.0
 10
619.965033146096
 20
995.2110679398925
 30
0.0
 10
619.9792446121025
 20
995.2209457508302
 30
0.0
 10
619.9979360368626
 20
995.2478983552751
 30
0.0
 10
620.01228715653
 20
995.2813733502519
 30
0.0
 10
620.0288047311112
 20
995.3429921458707
 30
0.0
 10
620.0396911872162
 20
995.4422374009686
 30
0.0
 10
620.040693289843
 20
995.5238049475089
 30
0.0
 10
620.041282146547
 20
995.5717357635082
 30
0.0
  0
SPLINE
  5
24A
330
1F
100
AcDbEntity
  8
0
  6
SLD-実線
 62
     7
370
    25
100
AcDbSpline
210
0.0
220
0.0
230
1.0
 70
     8
 71
     3
 72
    13
 73
     9
 74
     0
 42
0.000000001
 43
0.00000001
 40
0.0
 40
0.0
 40
0.0
 40
0.0
 40
0.3198074308696698
 40
0.5732795823534462
 40
0.6789499484307333
 40
0.7779009493456319
 40
0.8807931060558013
 40
1.0
 40
1.0
 40
1.0
 40
1.0
 10
619.8623786527859
 20
995.3302231199281
 30
0.0
 10
619.8652432137624
 20
995.307180684617
 30
0.0
 10
619.870378161114
 20
995.2658753351582
 30
0.0
 10
619.8822939759349
 20
995.2209077651302
 30
0.0
 10
619.8986635793624
 20
995.199602046358
 30
0.0
 10
619.914390272195
 20
995.1924375158653
 30
0.0
 10
619.9348033498653
 20
995.1942335261983
 30
0.0
 10
619.9498784465594
 20
995.2019934438994
 30
0.0
 10
619.9579696808422
 20
995.2061584130141
 30
0.0
  0
SPLINE
  5
24B
330
1F
100
AcDbEntity
  8
0
  6
SLD-実線
 62
     7
370
    25
100
AcDbSpline
210
0.0
220
0.0
230
1.0
 70
     8
 71
     3
 72
     9
 73
     5
 74
     0
 42
0.000000001
 43
0.00000001
 40
0.0
 40
0.0
 40
0.0
 40
0.0
 40
0.5709973422814587
 40
1.0
 40
1.0
 40
1.0
 40
1.0
 10
619.7080306373662
 20
995.9302634991279
 30
0.0
 10
619.7494869950593
 20
995.8264804405661
 30
0.0
 10
619.8220904112636
 20
995.6447229245907
 30
0.0
 10
619.8502836699008
 20
995.4246394957994
 30
0.0
 10
619.8623786527859
 20
995.3302231199281
 30
0.0
  0
SPLINE
  5
24C
330
1F
100
AcDbEntity
  8
0
  6
SLD-実線
 62
     7
370
    25
100
AcDbSpline
210
0.0
220
0.0
230
1.0
 70
     8
 71
     3
 72
    12
 73
     8
 74
     0
 42
0.000000001
 43
0.00000001
 40
0.0
 40
0.0
 40
0.0
 40
0.0
 40
0.3184604171068934
 40
0.5621990748756943
 40
0.748142161935972
 40
0.9063084261766747
 40
1.0
 40
1.0
 40
1.0
 40
1.0
 10
618.216730257259
 20
995.800018742765
 30
0.0
 10
618.3967901694299
 20
995.8953557578476
 30
0.0
 10
618.7146617497172
 20
996.063660447541
 30
0.0
 10
619.1247606349185
 20
996.163692060679
 30
0.0
 10
619.416769406125
 20
996.1463725321195
 30
0.0
 10
619.6043312820497
 20
996.061794918471
 30
0.0
 10
619.6799138023498
 20
995.9659266641097
 30
0.0
 10
619.7080306373662
 20
995.9302634991279
 30
0.0
  0
SPLINE
  5
24D
330
1F
100
AcDbEntity
  8
0
  6
SLD-実線
 62
     7
370
    25
100
AcDbSpline
210
0.0
220
0.0
230
1.0
 70
     8
 71
     3
 72
    12
 73
     8
 74
     0
 42
0.000000001
 43
0.00000001
 40
0.0
 40
0.0
 40
0.0
 40
0.0
 40
0.2011617334431161
 40
0.3829494096374113
 40
0.5584820809878838
 40
0.7709365270252634
 40
0.9999999999999999
 40
0.9999999999999999
 40
0.9999999999999999
 40
0.9999999999999999
 10
616.7495457770342
 20
993.3539747181842
 30
0.0
 10
616.7608356277767
 20
993.5362994434453
 30
0.0
 10
616.7823279941565
 20
993.8833890449613
 30
0.0
 10
616.9745472824618
 20
994.4402691023081
 30
0.0
 10
617.2813863349312
 20
994.9724226195414
 30
0.0
 10
617.7096157834343
 20
995.4634947221954
 30
0.0
 10
618.0435053453272
 20
995.6850657157167
 30
0.0
 10
618.216730257259
 20
995.800018742765
 30
0.0
  0
SPLINE
  5
24E
330
1F
100
AcDbEntity
  8
0
  6
SLD-実線
 62
     7
370
    25
100
AcDbSpline
210
0.0
220
0.0
230
1.0
 70
     8
 71
     3
 72
    11
 73
     7
 74
     0
 42
0.000000001
 43
0.00000001
 40
0.0
 40
0.0
 40
0.0
 40
0.0
 40
0.3960612209769569
 40
0.668367017411271
 40
0.8355534580168322
 40
1.0
 40
1.0
 40
1.0
 40
1.0
 10
618.2062067160214
 20
991.8803567601807
 30
0.0
 10
617.9405570033327
 20
991.9712749950602
 30
0.0
 10
617.4922639194807
 20
992.1247026629467
 30
0.0
 10
617.000762195705
 20
992.4526212690914
 30
0.0
 10
616.773715879468
 20
992.8735945512324
 30
0.0
 10
616.7575579798519
 20
993.194732392348
 30
0.0
 10
616.7495457770342
 20
993.3539747181842
 30
0.0
  0
LINE
  5
24F
330
1F
100
AcDbEntity
  8
0
  6
SLD-実線
 62
     7
370
    25
100
AcDbLine
 10
618.5381427825
 20
991.7681688035
 30
0.0
 11
618.206206716
 21
991.8803567602
 31
0.0
  0
SPLINE
  5
250
330
1F
100
AcDbEntity
  8
0
  6
SLD-実線
 62
     7
370
    25
100
AcDbSpline
210
0.0
220
0.0
230
1.0
 70
     8
 71
     3
 72
    10
 73
     6
 74
     0
 42
0.000000001
 43
0.00000001
 40
0.0
 40
0.0
 40
0.0
 40
0.0
 40
0.2250223828434425
 40
0.4640299718273158
 40
0.9999999999999999
 40
0.9999999999999999
 40
0.9999999999999999
 40
0.9999999999999999
 10
620.2806976487855
 20
989.5360096358877
 30
0.0
 10
620.2659748085923
 20
989.8263140820732
 30
0.0
 10
620.2356140994324
 20
990.4249654796923
 30
0.0
 10
619.7051858416985
 20
991.3276825476528
 30
0.0
 10
619.0152786189942
 20
991.5880796658392
 30
0.0
 10
618.5381427825475
 20
991.7681688034877
 30
0.0
  0
SPLINE
  5
251
330
1F
100
AcDbEntity
  8
0
  6
SLD-実線
 62
     7
370
    25
100
AcDbSpline
210
0.0
220
0.0
230
1.0
 70
     8
 71
     3
 72
    11
 73
     7
 74
     0
 42
0.000000001
 43
0.00000001
 40
0.0
 40
0.0
 40
0.0
 40
0.0
 40
0.3387281433306699
 40
0.6345534790011472
 40
0.8362947506884562
 40
1.0
 40
1.0
 40
1.0
 40
1.0
 10
619.2669111841391
 20
986.6650949886363
 30
0.0
 10
619.4658377155617
 20
986.9777812471036
 30
0.0
 10
619.838495036972
 20
987.5635493831534
 30
0.0
 10
620.1249405370793
 20
988.4089919392785
 30
0.0
 10
620.2584844557889
 20
989.0539786108657
 30
0.0
 10
620.2738254875237
 20
989.3868822710092
 30
0.0
 10
620.2806976487855
 20
989.5360096358877
 30
0.0
  0
SPLINE
  5
252
330
1F
100
AcDbEntity
  8
0
  6
SLD-実線
 62
     7
370
    25
100
AcDbSpline
210
0.0
220
0.0
230
1.0
 70
     8
 71
     3
 72
     9
 73
     5
 74
     0
 42
0.000000001
 43
0.00000001
 40
0.0
 40
0.0
 40
0.0
 40
0.0
 40
0.5652247269526699
 40
1.0
 40
1.0
 40
1.0
 40
1.0
 10
617.4642822415218
 20
985.0451939536539
 30
0.0
 10
617.8264078138309
 20
985.2768363284163
 30
0.0
 10
618.4670832037086
 20
985.686659826428
 30
0.0
 10
619.0245419189899
 20
986.3686029715243
 30
0.0
 10
619.2669111841391
 20
986.6650949886363
 30
0.0
  0
SPLINE
  5
253
330
1F
100
AcDbEntity
  8
0
  6
SLD-実線
 62
     7
370
    25
100
AcDbSpline
210
0.0
220
0.0
230
1.0
 70
     8
 71
     3
 72
     9
 73
     5
 74
     0
 42
0.000000001
 43
0.00000001
 40
0.0
 40
0.0
 40
0.0
 40
0.0
 40
0.5543575207140412
 40
0.9999999999999999
 40
0.9999999999999999
 40
0.9999999999999999
 40
0.9999999999999999
 10
615.8664277136617
 20
984.4939274900155
 30
0.0
 10
616.1526837267111
 20
984.5354474142214
 30
0.0
 10
616.6690580922659
 20
984.6103447911926
 30
0.0
 10
617.2191416438012
 20
984.9111447252648
 30
0.0
 10
617.4642822415218
 20
985.0451939536539
 30
0.0
  0
LINE
  5
254
330
1F
100
AcDbEntity
  8
0
  6
SLD-実線
 62
     7
370
    25
100
AcDbLine
 10
618.4425517545
 20
996.4129353964
 30
0.0
 11
616.6747845118
 21
997.4334457035
 31
0.0
  0
LINE
  5
255
330
1F
100
AcDbEntity
  8
0
  6
SLD-実線
 62
     7
370
    25
100
AcDbLine
 10
615.9738577256
 20
992.5066686943
 30
0.0
 11
614.2060904829
 21
993.5271790013
 31
0.0
  0
LINE
  5
256
330
1F
100
AcDbEntity
  8
0
  6
SLD-実線
 62
     7
370
    25
100
AcDbLine
 10
613.1100863828
 20
987.4229206182
 30
0.0
 11
611.3423191401
 21
988.4434309252
 31
0.0
  0
LINE
  5
257
330
1F
100
AcDbEntity
  8
0
  6
SLD-実線
 62
     7
370
    25
100
AcDbLine
 10
610.5444867064
 20
981.5740478394
 30
0.0
 11
608.7767194636
 21
982.5945581465
 31
0.0
  0
LINE
  5
258
330
1F
100
AcDbEntity
  8
0
  6
SLD-実線
 62
     7
370
    25
100
AcDbLine
 10
612.4172736881
 20
983.6471263679
 30
0.0
 11
610.6495064454
 21
984.6676366749
 31
0.0
  0
LINE
  5
259
330
1F
100
AcDbEntity
  8
0
  6
SLD-実線
 62
     7
370
    25
100
AcDbLine
 10
619.5523671793
 20
996.9148779281
 30
0.0
 11
617.7845999366
 21
997.9353882352
 31
0.0
  0
LINE
  5
25A
330
1F
100
AcDbEntity
  8
0
  6
SLD-実線
 62
     7
370
    25
100
AcDbLine
 10
619.9698086647
 20
997.0875042342
 30
0.0
 11
618.202041422
 21
998.1080145412
 31
0.0
  0
LINE
  5
25B
330
1F
100
AcDbEntity
  8
0
  6
SLD-実線
 62
     7
370
    25
100
AcDbLine
 10
619.8623786528
 20
995.3302231199
 30
0.0
 11
618.6722636034
 21
996.0172619139
 31
0.0
  0
LINE
  5
25C
330
1F
100
AcDbEntity
  8
0
  6
SLD-実線
 62
     7
370
    25
100
AcDbLine
 10
618.5381427825
 20
991.7681688035
 30
0.0
 11
616.7703755398
 21
992.7886791105
 31
0.0
  0
LINE
  5
25D
330
1F
100
AcDbEntity
  8
0
  6
SLD-実線
 62
     7
370
    25
100
AcDbLine
 10
615.8409963711
 20
986.684404736
 30
0.0
 11
614.0732291284
 21
987.7049150431
 31
0.0
  0
LINE
  5
25E
330
1F
100
AcDbEntity
  8
0
  6
SLD-実線
 62
     7
370
    25
100
AcDbLine
 10
615.7471587178
 20
986.4099705636
 30
0.0
 11
613.9793914751
 21
987.4304808706
 31
0.0
  0
LINE
  5
25F
330
1F
100
AcDbEntity
  8
0
  6
SLD-実線
 62
     7
370
    25
100
AcDbLine
 10
615.6870862878
 20
984.9144688901
 30
0.0
 11
613.9193190451
 21
985.9349791971
 31
0.0
  0
LINE
  5
260
330
1F
100
AcDbEntity
  8
0
  6
SLD-実線
 62
     7
370
    25
100
AcDbLine
 10
619.4330981835
 20
988.5236404822
 30
0.0
 11
617.6653309407
 21
989.5441507892
 31
0.0
  0
LINE
  5
261
330
1F
100
AcDbEntity
  8
0
  6
SLD-実線
 62
     7
370
    25
100
AcDbLine
 10
617.7269377794
 20
985.7062107065
 30
0.0
 11
615.9591705367
 21
986.7267210136
 31
0.0
  0
LINE
  5
262
330
1F
100
AcDbEntity
  8
0
  6
SLD-実線
 62
     8
370
    25
100
AcDbLine
 10
579.2302286084
 20
972.5629257756
 30
0.0
 11
578.5241503578
 21
972.9705360734
 31
0.0
  0
LINE
  5
263
330
1F
100
AcDbEntity
  8
0
  6
SLD-実線
 62
     8
370
    25
100
AcDbLine
 10
585.8851772987
 20
976.4047458791
 30
0.0
 11
585.1791583172
 21
976.8123219616
 31
0.0
  0
LINE
  5
264
330
1F
100
AcDbEntity
  8
0
  6
SLD-実線
 62
     8
370
    25
100
AcDbLine
 10
581.9519304981
 20
965.2334930192
 30
0.0
 11
580.2852234956
 21
966.1956624914
 31
0.0
  0
LINE
  5
265
330
1F
100
AcDbEntity
  8
0
  6
SLD-実線
 62
     8
370
    25
100
AcDbLine
 10
589.5355981663
 20
977.9890285923
 30
0.0
 11
588.719780059
 21
978.459990361
 31
0.0
  0
LINE
  5
266
330
1F
100
AcDbEntity
  8
0
  6
SLD-実線
 62
     8
370
    25
100
AcDbLine
 10
586.9822762291
 20
973.4414766436
 30
0.0
 11
586.9133167409
 21
973.4812861088
 31
0.0
  0
LINE
  5
267
330
1F
100
AcDbEntity
  8
0
  6
SLD-実線
 62
     8
370
    25
100
AcDbLine
 10
592.4625128145
 20
980.2017608506
 30
0.0
 11
591.7564543203
 21
980.6093597433
 31
0.0
  0
LINE
  5
268
330
1F
100
AcDbEntity
  8
0
  6
SLD-実線
 62
     8
370
    25
100
AcDbLine
 10
585.1450070222
 20
966.7730062318
 30
0.0
 11
583.8800747312
 21
967.5032360999
 31
0.0
  0
LINE
  5
269
330
1F
100
AcDbEntity
  8
0
  6
SLD-実線
 62
     8
370
    25
100
AcDbLine
 10
585.0485401299
 20
966.6337693
 30
0.0
 11
583.8650006475
 21
967.3170121
 31
0.0
  0
LINE
  5
26A
330
1F
100
AcDbEntity
  8
0
  6
SLD-実線
 62
     8
370
    25
100
AcDbLine
 10
589.3689724117
 20
973.3169435666
 30
0.0
 11
588.548672909
 21
973.7904923897
 31
0.0
  0
LINE
  5
26B
330
1F
100
AcDbEntity
  8
0
  6
SLD-実線
 62
     8
370
    25
100
AcDbLine
 10
588.2942360065
 20
968.9090059355
 30
0.0
 11
586.9092971499
 21
969.7085141194
 31
0.0
  0
LINE
  5
26C
330
1F
100
AcDbEntity
  8
0
  6
SLD-実線
 62
     8
370
    25
100
AcDbLine
 10
602.5920489309
 20
986.0494175797
 30
0.0
 11
601.8805442736
 21
986.4601604755
 31
0.0
  0
LINE
  5
26D
330
1F
100
AcDbEntity
  8
0
  6
SLD-実線
 62
     8
370
    25
100
AcDbLine
 10
606.7848816289
 20
988.4698883751
 30
0.0
 11
606.078783622
 21
988.877510078
 31
0.0
  0
LINE
  5
26E
330
1F
100
AcDbEntity
  8
0
  6
SLD-実線
 62
     8
370
    25
100
AcDbLine
 10
604.1434233874
 20
977.7967638855
 30
0.0
 11
603.7331468662
 21
978.0336114797
 31
0.0
  0
LINE
  5
26F
330
1F
100
AcDbEntity
  8
0
  6
SLD-実線
 62
     8
370
    25
100
AcDbLine
 10
613.0859688365
 20
992.1074285928
 30
0.0
 11
612.3799004641
 21
992.5150331881
 31
0.0
  0
LINE
  5
270
330
1F
100
AcDbEntity
  8
0
  6
SLD-実線
 62
     8
370
    25
100
AcDbLine
 10
604.6805722124
 20
978.0506479647
 30
0.0
 11
603.6638453465
 21
978.6375918909
 31
0.0
  0
LINE
  5
271
330
1F
100
AcDbEntity
  8
0
  6
SLD-実線
 62
     8
370
    25
100
AcDbLine
 10
618.206206716
 20
991.8803567602
 30
0.0
 11
616.9429471281
 21
992.6096209974
 31
0.0
  0
LINE
  5
272
330
1F
100
AcDbEntity
  8
0
  6
SLD-実線
 62
     8
370
    25
100
AcDbLine
 10
619.7080306374
 20
995.9302634991
 30
0.0
 11
619.355027732
 21
996.1340477387
 31
0.0
  0
ENDSEC
  0
SECTION
  2
OBJECTS
  0
DICTIONARY
  5
C
330
0
100
AcDbDictionary
281
     1
  3
ACAD_GROUP
350
D
  3
ACAD_LAYOUT
350
1A
  3
ACAD_MLINESTYLE
350
17
  3
ACAD_PLOTSETTINGS
350
19
  3
ACAD_PLOTSTYLENAME
350
E
  3
ACAD_SCALELIST
350
47
  0
DICTIONARY
  5
D
102
{ACAD_REACTORS
330
C
102
}
330
C
100
AcDbDictionary
281
     1
  0
DICTIONARY
  5
1A
102
{ACAD_REACTORS
330
C
102
}
330
C
100
AcDbDictionary
281
     1
  3
Layout1
350
1E
  3
Layout2
350
26
  3
Model
350
22
  0
DICTIONARY
  5
17
102
{ACAD_REACTORS
330
C
102
}
330
C
100
AcDbDictionary
281
     1
  3
Standard
350
18
  0
DICTIONARY
  5
19
102
{ACAD_REACTORS
330
C
102
}
330
C
100
AcDbDictionary
281
     1
  0
ACDBDICTIONARYWDFLT
  5
E
102
{ACAD_REACTORS
330
C
102
}
330
C
100
AcDbDictionary
281
     1
  3
Normal
350
F
100
AcDbDictionaryWithDefault
340
F
  0
DICTIONARY
  5
47
102
{ACAD_REACTORS
330
C
102
}
330
C
100
AcDbDictionary
281
     1
  3
A0
350
48
  3
A1
350
49
  3
A2
350
4A
  3
A3
350
4B
  3
A4
350
4C
  3
A5
350
4D
  3
A6
350
4E
  3
A7
350
4F
  3
A8
350
50
  3
A9
350
51
  3
B0
350
52
  3
B1
350
53
  3
B2
350
54
  3
B3
350
55
  3
B4
350
56
  3
B5
350
57
  3
B6
350
58
  3
B7
350
59
  3
B8
350
5A
  3
B9
350
5B
  3
C0
350
5C
  3
C1
350
5D
  3
C2
350
5E
  3
C3
350
5F
  3
C4
350
60
  3
C5
350
61
  3
C6
350
62
  3
C7
350
63
  3
C8
350
64
  3
C9
350
65
  3
D0
350
66
  3
D1
350
67
  3
D2
350
68
  0
LAYOUT
  5
1E
102
{ACAD_REACTORS
330
1A
102
}
330
1A
100
AcDbPlotSettings
  1

  2
none_device
  4

  6

 40
0.0
 41
0.0
 42
0.0
 43
0.0
 44
0.0
 45
0.0
 46
0.0
 47
0.0
 48
0.0
 49
0.0
140
0.0
141
0.0
142
1.0
143
1.0
 70
   688
 72
     1
 73
     0
 74
     5
  7

 75
    16
147
1.0
148
0.0
149
0.0
100
AcDbLayout
  1
Layout1
 70
     1
 71
     1
 10
0.0
 20
0.0
 11
420.0
 21
297.0
 12
0.0
 22
0.0
 32
0.0
 14
1.0000000000E+20
 24
1.0000000000E+20
 34
1.0000000000E+20
 15
-1.0000000000E+20
 25
-1.0000000000E+20
 35
-1.0000000000E+20
146
0.0
 13
0.0
 23
0.0
 33
0.0
 16
1.0
 26
0.0
 36
0.0
 17
0.0
 27
1.0
 37
0.0
 76
     0
330
1B
  0
LAYOUT
  5
26
102
{ACAD_REACTORS
330
1A
102
}
330
1A
100
AcDbPlotSettings
  1

  2
none_device
  4

  6

 40
0.0
 41
0.0
 42
0.0
 43
0.0
 44
0.0
 45
0.0
 46
0.0
 47
0.0
 48
0.0
 49
0.0
140
0.0
141
0.0
142
1.0
143
1.0
 70
   688
 72
     1
 73
     0
 74
     5
  7

 75
    16
147
1.0
148
0.0
149
0.0
100
AcDbLayout
  1
Layout2
 70
     1
 71
     2
 10
0.0
 20
0.0
 11
0.0
 21
0.0
 12
0.0
 22
0.0
 32
0.0
 14
0.0
 24
0.0
 34
0.0
 15
0.0
 25
0.0
 35
0.0
146
0.0
 13
0.0
 23
0.0
 33
0.0
 16
1.0
 26
0.0
 36
0.0
 17
0.0
 27
1.0
 37
0.0
 76
     0
330
23
  0
LAYOUT
  5
22
102
{ACAD_REACTORS
330
1A
102
}
330
1A
100
AcDbPlotSettings
  1

  2
none_device
  4
Letter_(8.50_x_11.00_Inches)
  6

 40
6.35
 41
6.35
 42
6.35000508
 43
6.35000508
 44
215.9
 45
279.4
 46
0.0
 47
0.0
 48
0.0
 49
0.0
140
0.0
141
0.0
142
1.0
143
1.0
 70
  1712
 72
     1
 73
     0
 74
     0
  7

 75
     0
147
1.0
148
0.0
149
0.0
100
AcDbLayout
  1
Model
 70
     1
 71
     0
 10
0.0
 20
0.0
 11
1050.0
 21
1485.0
 12
0.0
 22
0.0
 32
0.0
 14
0.0
 24
0.0
 34
0.0
 15
1050.0
 25
1485.0
 35
0.0
146
0.0
 13
0.0
 23
0.0
 33
0.0
 16
1.0
 26
0.0
 36
0.0
 17
0.0
 27
1.0
 37
0.0
 76
     0
330
1F
331
29
  0
MLINESTYLE
  5
18
102
{ACAD_REACTORS
330
17
102
}
330
17
100
AcDbMlineStyle
  2
Standard
 70
     0
  3

 62
   256
 51
90.0
 52
90.0
 71
     2
 49
0.5
 62
   256
  6
BYLAYER
 49
-0.5
 62
   256
  6
BYLAYER
  0
ACDBPLACEHOLDER
  5
F
102
{ACAD_REACTORS
330
E
102
}
330
E
  0
SCALE
  5
48
102
{ACAD_REACTORS
330
47
102
}
330
47
100
AcDbScale
 70
     0
300
1:1
140
1.0
141
1.0
290
     1
  0
SCALE
  5
49
102
{ACAD_REACTORS
330
47
102
}
330
47
100
AcDbScale
 70
     0
300
1:2
140
1.0
141
2.0
290
     0
  0
SCALE
  5
4A
102
{ACAD_REACTORS
330
47
102
}
330
47
100
AcDbScale
 70
     0
300
1:4
140
1.0
141
4.0
290
     0
  0
SCALE
  5
4B
102
{ACAD_REACTORS
330
47
102
}
330
47
100
AcDbScale
 70
     0
300
1:5
140
1.0
141
5.0
290
     0
  0
SCALE
  5
4C
102
{ACAD_REACTORS
330
47
102
}
330
47
100
AcDbScale
 70
     0
300
1:8
140
1.0
141
8.0
290
     0
  0
SCALE
  5
4D
102
{ACAD_REACTORS
330
47
102
}
330
47
100
AcDbScale
 70
     0
300
1:10
140
1.0
141
10.0
290
     0
  0
SCALE
  5
4E
102
{ACAD_REACTORS
330
47
102
}
330
47
100
AcDbScale
 70
     0
300
1:16
140
1.0
141
16.0
290
     0
  0
SCALE
  5
4F
102
{ACAD_REACTORS
330
47
102
}
330
47
100
AcDbScale
 70
     0
300
1:20
140
1.0
141
20.0
290
     0
  0
SCALE
  5
50
102
{ACAD_REACTORS
330
47
102
}
330
47
100
AcDbScale
 70
     0
300
1:30
140
1.0
141
30.0
290
     0
  0
SCALE
  5
51
102
{ACAD_REACTORS
330
47
102
}
330
47
100
AcDbScale
 70
     0
300
1:40
140
1.0
141
40.0
290
     0
  0
SCALE
  5
52
102
{ACAD_REACTORS
330
47
102
}
330
47
100
AcDbScale
 70
     0
300
1:50
140
1.0
141
50.0
290
     0
  0
SCALE
  5
53
102
{ACAD_REACTORS
330
47
102
}
330
47
100
AcDbScale
 70
     0
300
1:100
140
1.0
141
100.0
290
     0
  0
SCALE
  5
54
102
{ACAD_REACTORS
330
47
102
}
330
47
100
AcDbScale
 70
     0
300
2:1
140
2.0
141
1.0
290
     0
  0
SCALE
  5
55
102
{ACAD_REACTORS
330
47
102
}
330
47
100
AcDbScale
 70
     0
300
4:1
140
4.0
141
1.0
290
     0
  0
SCALE
  5
56
102
{ACAD_REACTORS
330
47
102
}
330
47
100
AcDbScale
 70
     0
300
8:1
140
8.0
141
1.0
290
     0
  0
SCALE
  5
57
102
{ACAD_REACTORS
330
47
102
}
330
47
100
AcDbScale
 70
     0
300
10:1
140
10.0
141
1.0
290
     0
  0
SCALE
  5
58
102
{ACAD_REACTORS
330
47
102
}
330
47
100
AcDbScale
 70
     0
300
100:1
140
100.0
141
1.0
290
     0
  0
SCALE
  5
59
102
{ACAD_REACTORS
330
47
102
}
330
47
100
AcDbScale
 70
     0
300
1/128" = 1'-0"
140
0.0078125
141
12.0
290
     0
  0
SCALE
  5
5A
102
{ACAD_REACTORS
330
47
102
}
330
47
100
AcDbScale
 70
     0
300
1/64" = 1'-0"
140
0.015625
141
12.0
290
     0
  0
SCALE
  5
5B
102
{ACAD_REACTORS
330
47
102
}
330
47
100
AcDbScale
 70
     0
300
1/32" = 1'-0"
140
0.03125
141
12.0
290
     0
  0
SCALE
  5
5C
102
{ACAD_REACTORS
330
47
102
}
330
47
100
AcDbScale
 70
     0
300
1/16" = 1'-0"
140
0.0625
141
12.0
290
     0
  0
SCALE
  5
5D
102
{ACAD_REACTORS
330
47
102
}
330
47
100
AcDbScale
 70
     0
300
3/32" = 1'-0"
140
0.09375
141
12.0
290
     0
  0
SCALE
  5
5E
102
{ACAD_REACTORS
330
47
102
}
330
47
100
AcDbScale
 70
     0
300
1/8" = 1'-0"
140
0.125
141
12.0
290
     0
  0
SCALE
  5
5F
102
{ACAD_REACTORS
330
47
102
}
330
47
100
AcDbScale
 70
     0
300
3/16" = 1'-0"
140
0.1875
141
12.0
290
     0
  0
SCALE
  5
60
102
{ACAD_REACTORS
330
47
102
}
330
47
100
AcDbScale
 70
     0
300
1/4" = 1'-0"
140
0.25
141
12.0
290
     0
  0
SCALE
  5
61
102
{ACAD_REACTORS
330
47
102
}
330
47
100
AcDbScale
 70
     0
300
3/8" = 1'-0"
140
0.375
141
12.0
290
     0
  0
SCALE
  5
62
102
{ACAD_REACTORS
330
47
102
}
330
47
100
AcDbScale
 70
     0
300
1/2" = 1'-0"
140
0.5
141
12.0
290
     0
  0
SCALE
  5
63
102
{ACAD_REACTORS
330
47
102
}
330
47
100
AcDbScale
 70
     0
300
3/4" = 1'-0"
140
0.75
141
12.0
290
     0
  0
SCALE
  5
64
102
{ACAD_REACTORS
330
47
102
}
330
47
100
AcDbScale
 70
     0
300
1" = 1'-0"
140
1.0
141
12.0
290
     0
  0
SCALE
  5
65
102
{ACAD_REACTORS
330
47
102
}
330
47
100
AcDbScale
 70
     0
300
1-1/2" = 1'-0"
140
1.5
141
12.0
290
     0
  0
SCALE
  5
66
102
{ACAD_REACTORS
330
47
102
}
330
47
100
AcDbScale
 70
     0
300
3" = 1'-0"
140
3.0
141
12.0
290
     0
  0
SCALE
  5
67
102
{ACAD_REACTORS
330
47
102
}
330
47
100
AcDbScale
 70
     0
300
6" = 1'-0"
140
6.0
141
12.0
290
     0
  0
SCALE
  5
68
102
{ACAD_REACTORS
330
47
102
}
330
47
100
AcDbScale
 70
     0
300
1'-0" = 1'-0"
140
12.0
141
12.0
290
     0
  0
ENDSEC
  0
EOF
