  0
SECTION
  2
HEADER
  9
$ACADVER
  1
AC1015
  9
$ACADMAINTVER
 70
     6
  9
$DWGCODEPAGE
  3
DOS932
  9
$INSBASE
 10
0.0
 20
0.0
 30
0.0
  9
$EXTMIN
 10
0.0
 20
0.0
 30
0.0
  9
$EXTMAX
 10
1050.0
 20
1485.0
 30
0.0
  9
$LIMMIN
 10
0.0
 20
0.0
  9
$LIMMAX
 10
1050.0
 20
1485.0
  9
$ORTHOMODE
 70
     0
  9
$REGENMODE
 70
     1
  9
$FILLMODE
 70
     1
  9
$QTEXTMODE
 70
     0
  9
$MIRRTEXT
 70
     1
  9
$LTSCALE
 40
5.0
  9
$ATTMODE
 70
     1
  9
$TEXTSIZE
 40
17.6388888889
  9
$TRACEWID
 40
1.0
  9
$TEXTSTYLE
  7
Standard
  9
$CLAYER
  8
0
  9
$CELTYPE
  6
ByLayer
  9
$CECOLOR
 62
   256
  9
$CELTSCALE
 40
1.0
  9
$DISPSILH
 70
     0
  9
$DIMSCALE
 40
1.0
  9
$DIMASZ
 40
7.5
  9
$DIMEXO
 40
5.0
  9
$DIMDLI
 40
3.75
  9
$DIMRND
 40
0.0
  9
$DIMDLE
 40
0.0
  9
$DIMEXE
 40
5.0
  9
$DIMTP
 40
0.0
  9
$DIMTM
 40
0.0
  9
$DIMTXT
 40
17.6388888889
  9
$DIMCEN
 40
2.5
  9
$DIMTSZ
 40
0.0
  9
$DIMTOL
 70
     0
  9
$DIMLIM
 70
     0
  9
$DIMTIH
 70
     1
  9
$DIMTOH
 70
     1
  9
$DIMSE1
 70
     0
  9
$DIMSE2
 70
     0
  9
$DIMTAD
 70
     1
  9
$DIMZIN
 70
     0
  9
$DIMBLK
  1

  9
$DIMASO
 70
     1
  9
$DIMSHO
 70
     1
  9
$DIMPOST
  1

  9
$DIMAPOST
  1

  9
$DIMALT
 70
     0
  9
$DIMALTD
 70
     3
  9
$DIMALTF
 40
0.0393700787
  9
$DIMLFAC
 40
1.0
  9
$DIMTOFL
 70
     1
  9
$DIMTVP
 40
0.0
  9
$DIMTIX
 70
     0
  9
$DIMSOXD
 70
     0
  9
$DIMSAH
 70
     0
  9
$DIMBLK1
  1

  9
$DIMBLK2
  1

  9
$DIMSTYLE
  2
ISO-25
  9
$DIMCLRD
 70
     0
  9
$DIMCLRE
 70
     0
  9
$DIMCLRT
 70
     0
  9
$DIMTFAC
 40
1.0
  9
$DIMGAP
 40
7.5
  9
$DIMJUST
 70
     0
  9
$DIMSD1
 70
     0
  9
$DIMSD2
 70
     0
  9
$DIMTOLJ
 70
     0
  9
$DIMTZIN
 70
     0
  9
$DIMALTZ
 70
     0
  9
$DIMALTTZ
 70
     0
  9
$DIMUPT
 70
     0
  9
$DIMDEC
 70
     1
  9
$DIMTDEC
 70
     1
  9
$DIMALTU
 70
     2
  9
$DIMALTTD
 70
     3
  9
$DIMTXSTY
  7
Standard
  9
$DIMAUNIT
 70
     0
  9
$DIMADEC
 70
     2
  9
$DIMALTRND
 40
0.0
  9
$DIMAZIN
 70
     0
  9
$DIMDSEP
 70
    44
  9
$DIMATFIT
 70
     3
  9
$DIMFRAC
 70
     0
  9
$DIMLDRBLK
  1

  9
$DIMLUNIT
 70
     2
  9
$DIMLWD
 70
    -2
  9
$DIMLWE
 70
    -2
  9
$DIMTMOVE
 70
     0
  9
$LUNITS
 70
     2
  9
$LUPREC
 70
     2
  9
$SKETCHINC
 40
1.0
  9
$FILLETRAD
 40
0.0
  9
$AUNITS
 70
     0
  9
$AUPREC
 70
     2
  9
$MENU
  1
.
  9
$ELEVATION
 40
0.0
  9
$PELEVATION
 40
0.0
  9
$THICKNESS
 40
0.0
  9
$LIMCHECK
 70
     0
  9
$CHAMFERA
 40
0.0
  9
$CHAMFERB
 40
0.0
  9
$CHAMFERC
 40
0.0
  9
$CHAMFERD
 40
0.0
  9
$SKPOLY
 70
     0
  9
$TDCREATE
 40
2460340.5584336
  9
$TDUCREATE
 40
2460340.1834336
  9
$TDUPDATE
 40
2460340.558433947
  9
$TDUUPDATE
 40
2460340.183433947
  9
$TDINDWG
 40
0.0000000116
  9
$TDUSRTIMER
 40
0.0000000116
  9
$USRTIMER
 70
     1
  9
$ANGBASE
 50
0.0
  9
$ANGDIR
 70
     0
  9
$PDMODE
 70
     0
  9
$PDSIZE
 40
-1.0
  9
$PLINEWID
 40
0.0
  9
$SPLFRAME
 70
     0
  9
$SPLINETYPE
 70
     6
  9
$SPLINESEGS
 70
     8
  9
$HANDSEED
  5
124
  9
$SURFTAB1
 70
     6
  9
$SURFTAB2
 70
     6
  9
$SURFTYPE
 70
     6
  9
$SURFU
 70
     6
  9
$SURFV
 70
     6
  9
$UCSBASE
  2

  9
$UCSNAME
  2

  9
$UCSORG
 10
0.0
 20
0.0
 30
0.0
  9
$UCSXDIR
 10
1.0
 20
0.0
 30
0.0
  9
$UCSYDIR
 10
0.0
 20
1.0
 30
0.0
  9
$UCSORTHOREF
  2

  9
$UCSORTHOVIEW
 70
     0
  9
$UCSORGTOP
 10
0.0
 20
0.0
 30
0.0
  9
$UCSORGBOTTOM
 10
0.0
 20
0.0
 30
0.0
  9
$UCSORGLEFT
 10
0.0
 20
0.0
 30
0.0
  9
$UCSORGRIGHT
 10
0.0
 20
0.0
 30
0.0
  9
$UCSORGFRONT
 10
0.0
 20
0.0
 30
0.0
  9
$UCSORGBACK
 10
0.0
 20
0.0
 30
0.0
  9
$PUCSBASE
  2

  9
$PUCSNAME
  2

  9
$PUCSORG
 10
0.0
 20
0.0
 30
0.0
  9
$PUCSXDIR
 10
1.0
 20
0.0
 30
0.0
  9
$PUCSYDIR
 10
0.0
 20
1.0
 30
0.0
  9
$PUCSORTHOREF
  2

  9
$PUCSORTHOVIEW
 70
     0
  9
$PUCSORGTOP
 10
0.0
 20
0.0
 30
0.0
  9
$PUCSORGBOTTOM
 10
0.0
 20
0.0
 30
0.0
  9
$PUCSORGLEFT
 10
0.0
 20
0.0
 30
0.0
  9
$PUCSORGRIGHT
 10
0.0
 20
0.0
 30
0.0
  9
$PUCSORGFRONT
 10
0.0
 20
0.0
 30
0.0
  9
$PUCSORGBACK
 10
0.0
 20
0.0
 30
0.0
  9
$USERI1
 70
     0
  9
$USERI2
 70
     0
  9
$USERI3
 70
     0
  9
$USERI4
 70
     0
  9
$USERI5
 70
     0
  9
$USERR1
 40
0.0
  9
$USERR2
 40
0.0
  9
$USERR3
 40
0.0
  9
$USERR4
 40
0.0
  9
$USERR5
 40
0.0
  9
$WORLDVIEW
 70
     1
  9
$SHADEDGE
 70
     3
  9
$SHADEDIF
 70
    70
  9
$TILEMODE
 70
     1
  9
$MAXACTVP
 70
    64
  9
$PINSBASE
 10
0.0
 20
0.0
 30
0.0
  9
$PLIMCHECK
 70
     0
  9
$PEXTMIN
 10
1.0000000000E+20
 20
1.0000000000E+20
 30
1.0000000000E+20
  9
$PEXTMAX
 10
-1.0000000000E+20
 20
-1.0000000000E+20
 30
-1.0000000000E+20
  9
$PLIMMIN
 10
0.0
 20
0.0
  9
$PLIMMAX
 10
420.0
 20
297.0
  9
$UNITMODE
 70
     0
  9
$VISRETAIN
 70
     1
  9
$PLINEGEN
 70
     0
  9
$PSLTSCALE
 70
     1
  9
$TREEDEPTH
 70
  3020
  9
$CMLSTYLE
  2
Standard
  9
$CMLJUST
 70
     0
  9
$CMLSCALE
 40
20.0
  9
$PROXYGRAPHICS
 70
     1
  9
$MEASUREMENT
 70
     1
  9
$CELWEIGHT
370
    -1
  9
$ENDCAPS
280
     0
  9
$JOINSTYLE
280
     0
  9
$LWDISPLAY
290
     1
  9
$INSUNITS
 70
     4
  9
$HYPERLINKBASE
  1

  9
$STYLESHEET
  1

  9
$XEDIT
290
     1
  9
$CEPSNTYPE
380
     0
  9
$PSTYLEMODE
290
     1
  9
$FINGERPRINTGUID
  2
{4d4649e3-0bf0-42e2-97a4-ebafff6dab97}
  9
$VERSIONGUID
  2
{FAEB1C32-E019-11D5-929B-00C0DF256EC4}
  9
$EXTNAMES
290
     1
  9
$PSVPSCALE
 40
0.0
  9
$OLESTARTUP
290
     0
  0
ENDSEC
  0
SECTION
  2
CLASSES
  0
CLASS
  1
ACDBDICTIONARYWDFLT
  2
AcDbDictionaryWithDefault
  3
ObjectDBX Classes
 90
        0
280
     0
281
     0
  0
CLASS
  1
VISUALSTYLE
  2
AcDbVisualStyle
  3
ObjectDBX Classes
 90
     4095
280
     0
281
     0
  0
CLASS
  1
MATERIAL
  2
AcDbMaterial
  3
ObjectDBX Classes
 90
     1153
280
     0
281
     0
  0
CLASS
  1
SCALE
  2
AcDbScale
  3
ObjectDBX Classes
 90
     1153
280
     0
281
     0
  0
CLASS
  1
TABLESTYLE
  2
AcDbTableStyle
  3
ObjectDBX Classes
 90
     4095
280
     0
281
     0
  0
CLASS
  1
MLEADERSTYLE
  2
AcDbMLeaderStyle
  3
ACDB_MLEADERSTYLE_CLASS
 90
     4095
280
     0
281
     0
  0
CLASS
  1
SUN
  2
AcDbSun
  3
SCENEOE
 90
     1153
280
     0
281
     0
  0
CLASS
  1
ACDBPLACEHOLDER
  2
AcDbPlaceHolder
  3
ObjectDBX Classes
 90
        0
280
     0
281
     0
  0
CLASS
  1
LAYOUT
  2
AcDbLayout
  3
ObjectDBX Classes
 90
        0
280
     0
281
     0
  0
ENDSEC
  0
SECTION
  2
TABLES
  0
TABLE
  2
VPORT
  5
8
330
0
100
AcDbSymbolTable
 70
     1
  0
VPORT
  5
29
330
8
100
AcDbSymbolTableRecord
100
AcDbViewportTableRecord
  2
*Active
 70
     0
 10
0.0
 20
0.0
 11
1.0
 21
1.0
 12
525.0
 22
742.5
 13
0.0
 23
0.0
 14
10.0
 24
10.0
 15
10.0
 25
10.0
 16
0.0
 26
0.0
 36
1.0
 17
0.0
 27
0.0
 37
0.0
 40
1485.0
 41
0.7070707071
 42
50.0
 43
0.0
 44
0.0
 50
0.0
 51
0.0
 71
     0
 72
  2000
 73
     1
 74
     3
 75
     0
 76
     0
 77
     0
 78
     0
281
     0
 65
     1
110
0.0
120
0.0
130
0.0
111
1.0
121
0.0
131
0.0
112
0.0
122
1.0
132
0.0
 79
     0
146
0.0
  0
ENDTAB
  0
TABLE
  2
LTYPE
  5
5
330
0
100
AcDbSymbolTable
 70
     6
  0
LTYPE
  5
14
330
5
100
AcDbSymbolTableRecord
100
AcDbLinetypeTableRecord
  2
ByBlock
 70
     0
  3

 72
    65
 73
     0
 40
0.0
  0
LTYPE
  5
15
330
5
100
AcDbSymbolTableRecord
100
AcDbLinetypeTableRecord
  2
ByLayer
 70
     0
  3

 72
    65
 73
     0
 40
0.0
  0
LTYPE
  5
16
330
5
100
AcDbSymbolTableRecord
100
AcDbLinetypeTableRecord
  2
Continuous
 70
     0
  3
Solid line
 72
    65
 73
     0
 40
0.0
  0
LTYPE
  5
5E
330
5
100
AcDbSymbolTableRecord
100
AcDbLinetypeTableRecord
  2
HIDDEN
 70
     0
  3
Hidden __ __ __ __ __ __ __ __ __ __ __ __ __ __
 72
    65
 73
     2
 40
1.905
 49
1.27
 74
     0
 49
-0.635
 74
     0
  0
LTYPE
  5
5F
330
5
100
AcDbSymbolTableRecord
100
AcDbLinetypeTableRecord
  2
PHANTOM
 70
     0
  3
Phantom ______  __  __  ______  __  __  ______
 72
    65
 73
     6
 40
12.7
 49
6.35
 74
     0
 49
-1.27
 74
     0
 49
1.27
 74
     0
 49
-1.27
 74
     0
 49
1.27
 74
     0
 49
-1.27
 74
     0
  0
LTYPE
  5
60
330
5
100
AcDbSymbolTableRecord
100
AcDbLinetypeTableRecord
  2
CENTER
 70
     0
  3
Center ____ _ ____ _ ____ _ ____ _ ____ _ ____
 72
    65
 73
     4
 40
10.16
 49
6.35
 74
     0
 49
-1.27
 74
     0
 49
1.27
 74
     0
 49
-1.27
 74
     0
  0
LTYPE
  5
61
330
5
100
AcDbSymbolTableRecord
100
AcDbLinetypeTableRecord
  2
CENTERX2
 70
     0
  3
Center (2x) ________  __  ________  __  _____
 72
    65
 73
     4
 40
20.32
 49
12.7
 74
     0
 49
-2.54
 74
     0
 49
2.54
 74
     0
 49
-2.54
 74
     0
  0
LTYPE
  5
62
330
5
100
AcDbSymbolTableRecord
100
AcDbLinetypeTableRecord
  2
DOT2
 70
     0
  3
Dot (.5x) ........................................
 72
    65
 73
     2
 40
0.635
 49
0.0
 74
     0
 49
-0.635
 74
     0
  0
ENDTAB
  0
TABLE
  2
LAYER
  5
2
330
0
100
AcDbSymbolTable
 70
     2
  0
LAYER
  5
10
330
2
100
AcDbSymbolTableRecord
100
AcDbLayerTableRecord
  2
0
 70
     0
 62
     7
  6
Continuous
370
    -3
390
F
  0
LAYER
  5
63
330
2
100
AcDbSymbolTableRecord
100
AcDbLayerTableRecord
  2
FORMAT
 70
     0
 62
     7
  6
Continuous
370
    -3
390
F
  0
ENDTAB
  0
TABLE
  2
STYLE
  5
3
330
0
100
AcDbSymbolTable
 70
     2
  0
STYLE
  5
11
330
3
100
AcDbSymbolTableRecord
100
AcDbTextStyleTableRecord
  2
Standard
 70
     0
 40
0.0
 41
1.0
 50
0.0
 71
     0
 42
17.6388888889
  3
txt
  4
bigfont
  0
STYLE
  5
120
330
3
100
AcDbSymbolTableRecord
100
AcDbTextStyleTableRecord
  2
SLDTEXTSTYLE0
 70
     0
 40
0.0
 41
0.7
 50
0.0
 71
     0
 42
17.6388888889
  3
TXT
  4
bigfont
  0
ENDTAB
  0
TABLE
  2
VIEW
  5
6
330
0
100
AcDbSymbolTable
 70
     0
  0
ENDTAB
  0
TABLE
  2
UCS
  5
7
330
0
100
AcDbSymbolTable
 70
     0
  0
ENDTAB
  0
TABLE
  2
APPID
  5
9
330
0
100
AcDbSymbolTable
 70
     1
  0
APPID
  5
12
330
9
100
AcDbSymbolTableRecord
100
AcDbRegAppTableRecord
  2
ACAD
 70
     0
  0
ENDTAB
  0
TABLE
  2
DIMSTYLE
  5
A
330
0
100
AcDbSymbolTable
 70
     1
100
AcDbDimStyleTable
  0
DIMSTYLE
105
27
330
A
100
AcDbSymbolTableRecord
100
AcDbDimStyleTableRecord
  2
ISO-25
 70
     0
 41
2.5
 42
0.625
 43
3.75
 44
1.25
 73
     0
 74
     0
 77
     1
 78
     8
140
2.5
141
2.5
143
0.0393700787
147
0.625
171
     3
172
     1
178
     0
271
     2
272
     2
274
     3
278
    44
283
     0
284
     8
340
11
  0
ENDTAB
  0
TABLE
  2
BLOCK_RECORD
  5
1
330
0
100
AcDbSymbolTable
 70
     1
  0
BLOCK_RECORD
  5
1F
330
1
100
AcDbSymbolTableRecord
100
AcDbBlockTableRecord
  2
*Model_Space
340
22
  0
BLOCK_RECORD
  5
1B
330
1
100
AcDbSymbolTableRecord
100
AcDbBlockTableRecord
  2
*Paper_Space
340
1E
  0
BLOCK_RECORD
  5
23
330
1
100
AcDbSymbolTableRecord
100
AcDbBlockTableRecord
  2
*Paper_Space0
340
26
  0
ENDTAB
  0
ENDSEC
  0
SECTION
  2
BLOCKS
  0
BLOCK
  5
20
330
1F
100
AcDbEntity
  8
0
100
AcDbBlockBegin
  2
*Model_Space
 70
     0
 10
0.0
 20
0.0
 30
0.0
  3
*Model_Space
  1

  0
ENDBLK
  5
21
330
1F
100
AcDbEntity
  8
0
100
AcDbBlockEnd
  0
BLOCK
  5
1C
330
1B
100
AcDbEntity
 67
     1
  8
0
100
AcDbBlockBegin
  2
*Paper_Space
 70
     0
 10
0.0
 20
0.0
 30
0.0
  3
*Paper_Space
  1

  0
ENDBLK
  5
1D
330
1B
100
AcDbEntity
 67
     1
  8
0
100
AcDbBlockEnd
  0
BLOCK
  5
24
330
23
100
AcDbEntity
  8
0
100
AcDbBlockBegin
  2
*Paper_Space0
 70
     0
 10
0.0
 20
0.0
 30
0.0
  3
*Paper_Space0
  1

  0
ENDBLK
  5
25
330
23
100
AcDbEntity
  8
0
100
AcDbBlockEnd
  0
ENDSEC
  0
SECTION
  2
ENTITIES
  0
LINE
  5
64
330
1F
100
AcDbEntity
  8
0
  6
Continuous
 62
     7
370
    25
100
AcDbLine
 10
597.047689265
 20
707.8742891465
 30
0.0
 11
597.047689265
 21
717.5335474094
 31
0.0
  0
LINE
  5
65
330
1F
100
AcDbEntity
  8
0
  6
Continuous
 62
     7
370
    25
100
AcDbLine
 10
497.047689265
 20
717.5335474094
 30
0.0
 11
497.047689265
 21
707.8742891465
 31
0.0
  0
LINE
  5
66
330
1F
100
AcDbEntity
  8
0
  6
Continuous
 62
     7
370
    25
100
AcDbLine
 10
577.047689265
 20
669.237256095
 30
0.0
 11
577.047689265
 21
697.5215273424
 31
0.0
  0
LINE
  5
67
330
1F
100
AcDbEntity
  8
0
  6
Continuous
 62
     7
370
    25
100
AcDbLine
 10
515.3614117762
 20
1112.2189054169
 30
0.0
 11
509.2376874192
 21
1115.4635980578
 31
0.0
  0
LINE
  5
68
330
1F
100
AcDbEntity
  8
0
  6
Continuous
 62
     7
370
    25
100
AcDbLine
 10
425.547945973
 20
957.515537998
 30
0.0
 11
431.67167033
 21
954.2708453571
 31
0.0
  0
LINE
  5
69
330
1F
100
AcDbEntity
  8
0
  6
Continuous
 62
     7
370
    25
100
AcDbLine
 10
423.2747979056
 20
949.5249075623
 30
0.0
 11
449.3006264227
 21
935.7349638384
 31
0.0
  0
LINE
  5
6A
330
1F
100
AcDbEntity
  8
0
  6
Continuous
 62
     7
370
    25
100
AcDbLine
 10
540.5985261822
 20
1108.0419384492
 30
0.0
 11
514.5726976651
 21
1121.831882173
 31
0.0
  0
LINE
  5
6B
330
1F
100
AcDbEntity
  8
0
  6
Continuous
 62
     7
370
    25
100
AcDbLine
 10
546.7222505391
 20
1104.7972458083
 30
0.0
 11
543.6603883606
 21
1106.4195921287
 31
0.0
  0
LINE
  5
6C
330
1F
100
AcDbEntity
  8
0
  6
Continuous
 62
     7
370
    25
100
AcDbLine
 10
452.3624886011
 20
934.112617518
 30
0.0
 11
455.4243507796
 21
932.4902711975
 31
0.0
  0
LINE
  5
6D
330
1F
100
AcDbEntity
  8
0
  6
Continuous
 62
     7
370
    25
100
AcDbLine
 10
494.389586023
 20
927.9440803499
 30
0.0
 11
528.3386005299
 21
935.3285881032
 31
0.0
  0
LINE
  5
6E
330
1F
100
AcDbEntity
  8
0
  6
Continuous
 62
     7
370
    25
100
AcDbLine
 10
585.3215530166
 20
1042.8727941938
 30
0.0
 11
572.3662578469
 21
1075.1098360527
 31
0.0
  0
LINE
  5
6F
330
1F
100
AcDbEntity
  8
0
  6
Continuous
 62
     7
370
    25
100
AcDbLine
 10
614.0405652889
 20
1039.4210718174
 30
0.0
 11
579.3142099009
 21
1057.8210426855
 31
0.0
  0
LINE
  5
70
330
1F
100
AcDbEntity
  8
0
  6
Continuous
 62
     7
370
    25
100
AcDbLine
 10
502.2001680081
 20
881.0080744
 30
0.0
 11
522.8995436078
 21
875.650681773
 31
0.0
  0
LINE
  5
71
330
1F
100
AcDbEntity
  8
0
  6
Continuous
 62
     7
370
    25
100
AcDbLine
 10
509.154488992
 20
894.6288534733
 30
0.0
 11
509.6676167638
 21
894.986159338
 31
0.0
  0
LINE
  5
72
330
1F
100
AcDbEntity
  8
0
  6
Continuous
 62
     7
370
    25
100
AcDbLine
 10
510.5892615083
 20
895.6279275108
 30
0.0
 11
511.1461811268
 21
896.0157269183
 31
0.0
  0
LINE
  5
73
330
1F
100
AcDbEntity
  8
0
  6
Continuous
 62
     7
370
    25
100
AcDbLine
 10
551.5820174277
 20
868.2271112878
 30
0.0
 11
558.2383804172
 21
866.504317775
 31
0.0
  0
LINE
  5
74
330
1F
100
AcDbEntity
  8
0
  6
Continuous
 62
     7
370
    25
100
AcDbLine
 10
572.047689265
 20
717.5335474094
 30
0.0
 11
572.047689265
 21
867.9192397053
 31
0.0
  0
LINE
  5
75
330
1F
100
AcDbEntity
  8
0
  6
Continuous
 62
     7
370
    25
100
AcDbLine
 10
522.047689265
 20
874.7498613427
 30
0.0
 11
522.047689265
 21
717.5335474094
 31
0.0
  0
LWPOLYLINE
  5
76
330
1F
100
AcDbEntity
  8
0
  6
Continuous
 62
     7
370
    25
100
AcDbPolyline
 90
       21
 70
   128
 43
0.0
 10
522.047689265
 20
717.5335474094
 10
522.098362901
 20
717.1217798939
 10
522.7261076826
 20
716.0364035181
 10
524.0535400841
 20
714.9940972463
 10
526.0424722922
 20
714.0248463321
 10
528.6356863485
 20
713.1565343596
 10
531.758580206
 20
712.4141410833
 10
535.3213138944
 20
711.8190238061
 10
539.221394052
 20
711.3883029687
 10
543.3466224737
 20
711.1343696251
 10
547.5783238483
 20
711.0645289755
 10
551.7947598322
 20
711.1807902081
 10
555.8746312388
 20
711.4798086989
 10
559.700567596
 20
711.9529822304
 10
563.1625036806
 20
712.5866984616
 10
566.1608458947
 20
713.3627265304
 10
568.6093373918
 20
714.258741522
 10
570.4375395294
 20
715.2489667166
 10
571.5928582608
 20
716.3049151382
 10
572.0420571694
 20
717.3962090733
 10
572.047689265
 20
717.5335474094
  0
LWPOLYLINE
  5
77
330
1F
100
AcDbEntity
  8
0
  6
Continuous
 62
     7
370
    25
100
AcDbPolyline
 90
       43
 70
   128
 43
0.0
 10
511.6923502057
 20
726.684182504
 10
507.6885152346
 20
725.5144768949
 10
504.2586256499
 20
724.2283913625
 10
501.4526969654
 20
722.8446799297
 10
499.3116459396
 20
721.3835202251
 10
497.8666939176
 20
719.8662192475
 10
497.1389115538
 20
718.3149026618
 10
497.1389115538
 20
716.752192157
 10
497.8666939176
 20
715.2008755713
 10
499.3116459396
 20
713.6835745937
 10
501.4526969654
 20
712.2224148892
 10
504.2586256499
 20
710.8387034564
 10
507.6885152346
 20
709.5526179239
 10
511.6923502057
 20
708.3829123148
 10
516.2117456336
 20
707.3466435708
 10
521.1807985561
 20
706.4589228237
 10
526.5270489924
 20
705.732695041
 10
532.1725365722
 20
705.178550259
 10
538.0349373743
 20
704.8045691564
 10
544.0287643939
 20
704.61620522
 10
550.0666141361
 20
704.61620522
 10
556.0604411557
 20
704.8045691564
 10
561.9228419578
 20
705.178550259
 10
567.5683295376
 20
705.732695041
 10
572.9145799739
 20
706.4589228237
 10
577.8836328964
 20
707.3466435708
 10
582.4030283243
 20
708.3829123148
 10
586.4068632955
 20
709.5526179239
 10
589.8367528801
 20
710.8387034564
 10
592.6426815646
 20
712.2224148892
 10
594.7837325904
 20
713.6835745937
 10
596.2286846124
 20
715.2008755713
 10
596.9564669762
 20
716.752192157
 10
596.9564669762
 20
718.3149026618
 10
596.2286846124
 20
719.8662192475
 10
594.7837325904
 20
721.3835202251
 10
592.6426815646
 20
722.8446799297
 10
589.8367528801
 20
724.2283913625
 10
586.4068632955
 20
725.5144768949
 10
582.4030283243
 20
726.684182504
 10
577.8836328964
 20
727.720451248
 10
572.9145799739
 20
728.6081719951
 10
572.047689265
 20
728.7407408115
  0
ARC
  5
78
330
1F
100
AcDbEntity
  8
0
  6
Continuous
 62
     7
370
    25
100
AcDbCircle
 10
537.3223573446
 20
624.7292932603
 30
0.0
 40
105.1270503088744
100
AcDbArc
 50
98.3544908726
 51
104.11094669
  0
LWPOLYLINE
  5
79
330
1F
100
AcDbEntity
  8
0
  6
Continuous
 62
     7
370
    25
100
AcDbPolyline
 90
       21
 70
   128
 43
0.0
 10
522.047689265
 20
717.5335474094
 10
522.098362901
 20
717.1217798939
 10
522.7261076826
 20
716.0364035181
 10
524.0535400841
 20
714.9940972463
 10
526.0424722922
 20
714.0248463321
 10
528.6356863485
 20
713.1565343596
 10
531.758580206
 20
712.4141410833
 10
535.3213138944
 20
711.8190238061
 10
539.221394052
 20
711.3883029687
 10
543.3466224737
 20
711.1343696251
 10
547.5783238483
 20
711.0645289755
 10
551.7947598322
 20
711.1807902081
 10
555.8746312388
 20
711.4798086989
 10
559.700567596
 20
711.9529822304
 10
563.1625036806
 20
712.5866984616
 10
566.1608458947
 20
713.3627265304
 10
568.6093373918
 20
714.258741522
 10
570.4375395294
 20
715.2489667166
 10
571.5928582608
 20
716.3049151382
 10
572.0420571694
 20
717.3962090733
 10
572.047689265
 20
717.5335474094
  0
LWPOLYLINE
  5
7A
330
1F
100
AcDbEntity
  8
0
  6
Continuous
 62
     7
370
    25
100
AcDbPolyline
 90
       28
 70
   128
 43
0.0
 10
497.047689265
 20
707.8742891465
 10
497.1389115538
 20
707.0929338941
 10
497.8666939176
 20
705.5416173084
 10
499.3116459396
 20
704.0243163308
 10
501.4526969654
 20
702.5631566263
 10
504.2586256499
 20
701.1794451935
 10
507.6885152346
 20
699.893359661
 10
511.6923502057
 20
698.7236540519
 10
516.2117456336
 20
697.6873853079
 10
521.1807985561
 20
696.7996645608
 10
526.5270489924
 20
696.0734367781
 10
532.1725365722
 20
695.5192919961
 10
538.0349373743
 20
695.1453108935
 10
544.0287643939
 20
694.9569469571
 10
550.0666141361
 20
694.9569469571
 10
556.0604411557
 20
695.1453108935
 10
561.9228419578
 20
695.5192919961
 10
567.5683295376
 20
696.0734367781
 10
572.9145799739
 20
696.7996645608
 10
577.8836328964
 20
697.6873853079
 10
582.4030283243
 20
698.7236540519
 10
586.4068632955
 20
699.893359661
 10
589.8367528801
 20
701.1794451935
 10
592.6426815646
 20
702.5631566263
 10
594.7837325904
 20
704.0243163308
 10
596.2286846124
 20
705.5416173084
 10
596.9564669762
 20
707.0929338941
 10
597.047689265
 20
707.8742891465
  0
LINE
  5
7B
330
1F
100
AcDbEntity
  8
0
  6
Continuous
 62
     7
370
    25
100
AcDbLine
 10
522.5525260046
 20
696.5926671878
 30
0.0
 11
533.1392210383
 21
566.7671738707
 31
0.0
  0
LINE
  5
7C
330
1F
100
AcDbEntity
  8
0
  6
Continuous
 62
     7
370
    25
100
AcDbLine
 10
550.816890568
 20
562.1918563234
 30
0.0
 11
539.9818192585
 21
695.0632079017
 31
0.0
  0
LINE
  5
7D
330
1F
100
AcDbEntity
  8
0
  6
Continuous
 62
     7
370
    25
100
AcDbLine
 10
533.1392210383
 20
566.7671738707
 30
0.0
 11
550.816890568
 21
562.1918563234
 31
0.0
  0
LINE
  5
7E
330
1F
100
AcDbEntity
  8
0
  6
Continuous
 62
     7
370
    25
100
AcDbLine
 10
564.7253587947
 20
546.7923118633
 30
0.0
 11
550.816890568
 21
562.1918563234
 31
0.0
  0
LINE
  5
7F
330
1F
100
AcDbEntity
  8
0
  6
Continuous
 62
     7
370
    25
100
AcDbLine
 10
545.4392209744
 20
694.940034714
 30
0.0
 11
555.8865240298
 21
566.8239164466
 31
0.0
  0
LINE
  5
80
330
1F
100
AcDbEntity
  8
0
  6
Continuous
 62
     7
370
    25
100
AcDbLine
 10
555.8865240298
 20
566.8239164466
 30
0.0
 11
564.7253587947
 21
557.0375023917
 31
0.0
  0
LINE
  5
81
330
1F
100
AcDbEntity
  8
0
  6
Continuous
 62
     7
370
    25
100
AcDbLine
 10
564.7253587947
 20
557.0375023917
 30
0.0
 11
570.0286596536
 21
558.4100976559
 31
0.0
  0
LINE
  5
82
330
1F
100
AcDbEntity
  8
0
  6
Continuous
 62
     7
370
    25
100
AcDbLine
 10
570.0286596536
 20
558.4100976559
 30
0.0
 11
578.8674944184
 21
572.7718292581
 31
0.0
  0
LINE
  5
83
330
1F
100
AcDbEntity
  8
0
  6
Continuous
 62
     7
370
    25
100
AcDbLine
 10
578.8674944184
 20
572.7718292581
 30
0.0
 11
588.883804444
 21
700.7874689032
 31
0.0
  0
LINE
  5
84
330
1F
100
AcDbEntity
  8
0
  6
Continuous
 62
     7
370
    25
100
AcDbLine
 10
594.3361150048
 20
703.6705324718
 30
0.0
 11
583.9371278802
 21
570.7640045181
 31
0.0
  0
LINE
  5
85
330
1F
100
AcDbEntity
  8
0
  6
Continuous
 62
     7
370
    25
100
AcDbLine
 10
583.9371278802
 20
570.7640045181
 30
0.0
 11
570.0286596536
 21
548.1649071275
 31
0.0
  0
LINE
  5
86
330
1F
100
AcDbEntity
  8
0
  6
Continuous
 62
     7
370
    25
100
AcDbLine
 10
570.0286596536
 20
548.1649071275
 30
0.0
 11
570.0286596536
 21
471.4767732898
 31
0.0
  0
LINE
  5
87
330
1F
100
AcDbEntity
  8
0
  6
Continuous
 62
     7
370
    25
100
AcDbLine
 10
564.7253587947
 20
470.1041780256
 30
0.0
 11
570.0286596536
 21
471.4767732898
 31
0.0
  0
LINE
  5
88
330
1F
100
AcDbEntity
  8
0
  6
Continuous
 62
     7
370
    25
100
AcDbLine
 10
564.7253587947
 20
470.1041780256
 30
0.0
 11
564.7253587947
 21
546.7923118633
 31
0.0
  0
LWPOLYLINE
  5
89
330
1F
100
AcDbEntity
  8
0
  6
Continuous
 62
     7
370
    25
100
AcDbPolyline
 90
       11
 70
   128
 43
0.0
 10
548.1678938468
 20
661.4780996505
 10
551.5442366818
 20
661.5603976083
 10
556.1762591831
 20
661.8408742829
 10
560.5787489476
 20
662.3073288024
 10
564.6410078557
 20
662.9480324312
 10
568.2608927006
 20
663.7468750382
 10
571.3473835217
 20
664.6837701771
 10
573.8228722498
 20
665.7351601487
 10
575.6251141184
 20
666.8746083456
 10
576.7087927733
 20
668.0734639863
 10
577.047689265
 20
669.237256095
  0
LINE
  5
8A
330
1F
100
AcDbEntity
  8
0
  6
Continuous
 62
     7
370
    25
100
AcDbLine
 10
522.2989519235
 20
471.0192415351
 30
0.0
 11
527.6022527824
 21
469.6466462709
 31
0.0
  0
LINE
  5
8B
330
1F
100
AcDbEntity
  8
0
  6
Continuous
 62
     7
370
    25
100
AcDbLine
 10
522.2989519235
 20
471.0192415351
 30
0.0
 11
510.8547493772
 21
698.9457031612
 31
0.0
  0
LINE
  5
8C
330
1F
100
AcDbEntity
  8
0
  6
Continuous
 62
     7
370
    25
100
AcDbLine
 10
527.6022527824
 20
469.6466462709
 30
0.0
 11
516.1517000631
 21
697.6995800083
 31
0.0
  0
LINE
  5
8D
330
1F
100
AcDbEntity
  8
0
  6
Continuous
 62
     7
370
    25
100
AcDbLine
 10
533.1392210383
 20
566.7671738707
 30
0.0
 11
547.047689265
 21
551.3676294106
 31
0.0
  0
LINE
  5
8E
330
1F
100
AcDbEntity
  8
0
  6
Continuous
 62
     7
370
    25
100
AcDbLine
 10
547.047689265
 20
551.3676294106
 30
0.0
 11
547.047689265
 21
353.9387672868
 31
0.0
  0
LINE
  5
8F
330
1F
100
AcDbEntity
  8
0
  6
Continuous
 62
     7
370
    25
100
AcDbLine
 10
547.047689265
 20
353.9387672868
 30
0.0
 11
527.6022527824
 21
469.6466462709
 31
0.0
  0
LINE
  5
90
330
1F
100
AcDbEntity
  8
0
  6
Continuous
 62
     7
370
    25
100
AcDbLine
 10
510.1582506498
 20
572.7150866822
 30
0.0
 11
517.2854166989
 21
570.870440371
 31
0.0
  0
LINE
  5
91
330
1F
100
AcDbEntity
  8
0
  6
Continuous
 62
     7
370
    25
100
AcDbLine
 10
510.1582506498
 20
572.7150866822
 30
0.0
 11
499.460471383
 21
703.9028148901
 31
0.0
  0
LINE
  5
92
330
1F
100
AcDbEntity
  8
0
  6
Continuous
 62
     7
370
    25
100
AcDbLine
 10
554.8955571405
 20
578.9762231737
 30
0.0
 11
578.8674944184
 21
572.7718292581
 31
0.0
  0
LINE
  5
93
330
1F
100
AcDbEntity
  8
0
  6
Continuous
 62
     7
370
    25
100
AcDbLine
 10
575.5154903877
 20
557.0801535879
 30
0.0
 11
571.7964266065
 21
481.0849401392
 31
0.0
  0
LINE
  5
94
330
1F
100
AcDbEntity
  8
0
  6
Continuous
 62
     7
370
    25
100
AcDbLine
 10
571.7964266065
 20
481.0849401392
 30
0.0
 11
552.3509901239
 21
355.311362551
 31
0.0
  0
LINE
  5
95
330
1F
100
AcDbEntity
  8
0
  6
Continuous
 62
     7
370
    25
100
AcDbLine
 10
547.047689265
 20
551.3676294106
 30
0.0
 11
564.7253587947
 21
546.7923118633
 31
0.0
  0
LINE
  5
96
330
1F
100
AcDbEntity
  8
0
  6
Continuous
 62
     7
370
    25
100
AcDbLine
 10
561.4895837136
 20
560.6201731367
 30
0.0
 11
570.0286596536
 21
558.4100976559
 31
0.0
  0
LINE
  5
97
330
1F
100
AcDbEntity
  8
0
  6
Continuous
 62
     7
370
    25
100
AcDbLine
 10
547.047689265
 20
353.9387672868
 30
0.0
 11
564.7253587947
 21
470.1041780256
 31
0.0
  0
LINE
  5
98
330
1F
100
AcDbEntity
  8
0
  6
Continuous
 62
     7
370
    25
100
AcDbLine
 10
517.6068882815
 20
564.4679077328
 30
0.0
 11
510.1582506498
 21
572.7150866822
 31
0.0
  0
LINE
  5
99
330
1F
100
AcDbEntity
  8
0
  6
Continuous
 62
     7
370
    25
100
AcDbLine
 10
541.7443884061
 20
355.311362551
 30
0.0
 11
547.047689265
 21
353.9387672868
 31
0.0
  0
LINE
  5
9A
330
1F
100
AcDbEntity
  8
0
  6
Continuous
 62
     7
370
    25
100
AcDbLine
 10
541.7443884061
 20
355.311362551
 30
0.0
 11
522.2989519235
 21
471.0192415351
 31
0.0
  0
LINE
  5
9B
330
1F
100
AcDbEntity
  8
0
  6
Continuous
 62
     7
370
    25
100
AcDbLine
 10
547.047689265
 20
353.9387672868
 30
0.0
 11
552.3509901239
 21
355.311362551
 31
0.0
  0
LINE
  5
9C
330
1F
100
AcDbEntity
  8
0
  6
Continuous
 62
     7
370
    25
100
AcDbLine
 10
570.0286596536
 20
471.4767732898
 30
0.0
 11
552.3509901239
 21
355.311362551
 31
0.0
  0
LINE
  5
9D
330
1F
100
AcDbEntity
  8
0
  6
Continuous
 62
     7
370
    25
100
AcDbLine
 10
431.67167033
 20
954.2708453571
 30
0.0
 11
432.3270713818
 21
953.9302230687
 31
0.0
  0
LWPOLYLINE
  5
9E
330
1F
100
AcDbEntity
  8
0
  6
Continuous
 62
     7
370
    25
100
AcDbPolyline
 90
        3
 70
   128
 43
0.0
 10
516.0113138563
 20
1111.8679048921
 10
515.8919485287
 20
1111.933375373
 10
515.3614117762
 20
1112.2189054169
  0
LWPOLYLINE
  5
9F
330
1F
100
AcDbEntity
  8
0
  6
Continuous
 62
     7
370
    25
100
AcDbPolyline
 90
       71
 70
   128
 43
0.0
 10
498.9916509804
 20
1119.4315927903
 10
493.1994480287
 20
1120.5639012662
 10
487.1994652555
 20
1121.0192926458
 10
481.0400109943
 20
1120.7941003854
 10
474.770677549
 20
1119.8901376008
 10
468.4419419062
 20
1118.3146824687
 10
462.1047593241
 20
1116.0804196275
 10
455.8101530707
 20
1113.2053380479
 10
449.6088036142
 20
1109.7125861963
 10
443.5506405743
 20
1105.6302856568
 10
437.6844407175
 20
1100.991304713
 10
432.0574352359
 20
1095.8329937118
 10
426.7149294689
 20
1090.1968843405
 10
421.6999381316
 20
1084.1283552375
 10
417.0528389856
 20
1077.6762666311
 10
412.8110477407
 20
1070.8925669449
 10
409.0087168058
 20
1063.8318745401
 10
405.676460314
 20
1056.5510379602
 10
402.8411076351
 20
1049.1086782205
 10
400.5254873618
 20
1041.5647168253
 10
398.7482435069
 20
1033.9798933162
 10
397.523685393
 20
1026.4152762322
 10
396.861672442
 20
1018.9317714222
 10
396.7675347929
 20
1011.5896316666
 10
397.2420303866
 20
1004.4479715576
 10
398.2813388638
 20
997.5642915433
 10
399.8770923235
 20
990.9940149675
 10
402.0164426973
 20
984.7900418341
 10
404.6821651938
 20
979.0023228867
 10
407.852796983
 20
973.6774574352
 10
411.5028100019
 20
968.8583181653
 10
415.602816492
 20
964.5837059528
 10
420.1198056116
 20
960.8880374618
 10
425.0174092205
 20
957.8010680418
 10
430.256194694
 20
955.3476521557
 10
435.7939824118
 20
953.5475432655
 10
441.5861853635
 20
952.4152347896
 10
447.5861681367
 20
951.95984341
 10
453.7456223979
 20
952.1850356703
 10
460.0149558432
 20
953.088998455
 10
466.343691486
 20
954.6644535871
 10
472.6808740681
 20
956.8987164282
 10
478.9754803215
 20
959.7737980078
 10
485.176829778
 20
963.2665498595
 10
491.2349928179
 20
967.348850399
 10
497.1011926747
 20
971.9878313428
 10
502.7281981563
 20
977.1461423439
 10
508.0707039233
 20
982.7822517153
 10
513.0856952606
 20
988.8507808183
 10
517.7327944066
 20
995.3028694247
 10
521.9745856515
 20
1002.0865691109
 10
525.7769165864
 20
1009.1472615157
 10
529.1091730782
 20
1016.4280980955
 10
531.9445257571
 20
1023.8704578353
 10
534.2601460304
 20
1031.4144192305
 10
536.0373898853
 20
1038.9992427396
 10
537.2619479992
 20
1046.5638598236
 10
537.9239609502
 20
1054.0473646336
 10
538.0180985993
 20
1061.3895043892
 10
537.5436030056
 20
1068.5311644982
 10
536.5042945284
 20
1075.4148445125
 10
534.9085410687
 20
1081.9851210882
 10
532.7691906949
 20
1088.1890942217
 10
530.1034681984
 20
1093.9768131691
 10
526.9328364092
 20
1099.3016786205
 10
523.2828233903
 20
1104.1208178904
 10
519.1828169002
 20
1108.395430103
 10
514.6658277806
 20
1112.091098594
 10
509.7682241717
 20
1115.1780680139
 10
504.5294386982
 20
1117.6314839001
 10
498.9916509804
 20
1119.4315927903
  0
LWPOLYLINE
  5
A0
330
1F
100
AcDbEntity
  8
0
  6
Continuous
 62
     7
370
    25
100
AcDbPolyline
 90
       62
 70
   128
 43
0.0
 10
491.6996122994
 20
1100.2911255374
 10
486.572285337
 20
1101.2466758058
 10
481.2416512357
 20
1101.5157846221
 10
475.7642160431
 20
1101.0955993659
 10
470.1980419349
 20
1099.9905741053
 10
464.6021317413
 20
1098.2124223832
 10
459.0358035024
 20
1095.7799930501
 10
453.5580616824
 20
1092.719070462
 10
448.2269717072
 20
1089.0621011598
 10
443.0990444568
 20
1084.8478499279
 10
438.2286372357
 20
1080.1209888778
 10
433.6673775721
 20
1074.9316239124
 10
429.4636159531
 20
1069.3347635913
 10
425.6619132977
 20
1063.3897360264
 10
422.3025685997
 20
1057.1595599887
 10
419.4211917487
 20
1050.7102768942
 10
417.048326056
 20
1044.110250748
 10
415.2091244884
 20
1037.4294434691
 10
413.92308304
 20
1030.7386732767
 10
413.20383407
 20
1024.1088639994
 10
413.0590017965
 20
1017.6102932647
 10
413.4901214776
 20
1011.3118475391
 10
414.4926231375
 20
1005.2802919142
 10
416.0558800091
 20
999.57956238
 10
418.1633211807
 20
994.2700880879
 10
420.7926072516
 20
989.408150786
 10
423.9158671354
 20
985.0452882195
 10
427.4999935004
 20
981.2277478167
 10
431.5069937154
 20
977.9959964557
 10
435.8943925813
 20
975.3842915049
 10
440.6156825787
 20
973.4203176864
 10
445.6208168592
 20
972.1248936113
 10
450.8567397542
 20
971.5117510971
 10
456.2679491784
 20
971.5873896069
 10
461.7970849659
 20
972.3510073538
 10
467.3855369018
 20
973.7945097996
 10
472.9740660053
 20
975.9025954594
 10
478.5034324776
 20
978.6529181006
 10
483.9150236587
 20
982.0163236191
 10
489.1514753358
 20
985.9571590798
 10
494.1572798183
 20
990.4336506462
 10
498.8793743335
 20
995.3983463943
 10
503.2677035049
 20
1000.798619314
 10
507.2757499514
 20
1006.5772251689
 10
510.8610273837
 20
1012.6729092995
 10
513.9855309692
 20
1019.0210559374
 10
516.6161401924
 20
1025.5543731492
 10
518.7249699412
 20
1032.2036061471
 10
520.2896660957
 20
1038.8982714071
 10
521.2936424873
 20
1045.567403812
 10
521.7262567166
 20
1052.1403088994
 10
521.5829229652
 20
1058.5473122401
 10
520.8651606063
 20
1064.7204980048
 10
519.5805780997
 20
1070.5944288887
 10
517.7427923393
 20
1076.1068397632
 10
515.3712843116
 20
1081.1992977016
 10
512.4911925915
 20
1085.8178213831
 10
509.1330468677
 20
1089.9134533076
 10
505.3324443204
 20
1093.4427787578
 10
501.1296722819
 20
1096.3683860059
 10
496.5692811816
 20
1098.6592628874
 10
491.6996122994
 20
1100.2911255374
  0
LWPOLYLINE
  5
A1
330
1F
100
AcDbEntity
  8
0
  6
Continuous
 62
     7
370
    25
100
AcDbPolyline
 90
       62
 70
   128
 43
0.0
 10
491.6996122994
 20
1100.2911255374
 10
486.572285337
 20
1101.2466758058
 10
481.2416512357
 20
1101.5157846221
 10
475.7642160431
 20
1101.0955993659
 10
470.1980419349
 20
1099.9905741053
 10
464.6021317413
 20
1098.2124223832
 10
459.0358035024
 20
1095.7799930501
 10
453.5580616824
 20
1092.719070462
 10
448.2269717072
 20
1089.0621011598
 10
443.0990444568
 20
1084.8478499279
 10
438.2286372357
 20
1080.1209888778
 10
433.6673775721
 20
1074.9316239124
 10
429.4636159531
 20
1069.3347635913
 10
425.6619132977
 20
1063.3897360264
 10
422.3025685997
 20
1057.1595599887
 10
419.4211917487
 20
1050.7102768942
 10
417.048326056
 20
1044.110250748
 10
415.2091244884
 20
1037.4294434691
 10
413.92308304
 20
1030.7386732767
 10
413.20383407
 20
1024.1088639994
 10
413.0590017965
 20
1017.6102932647
 10
413.4901214776
 20
1011.3118475391
 10
414.4926231375
 20
1005.2802919142
 10
416.0558800091
 20
999.57956238
 10
418.1633211807
 20
994.2700880879
 10
420.7926072516
 20
989.408150786
 10
423.9158671354
 20
985.0452882195
 10
427.4999935004
 20
981.2277478167
 10
431.5069937154
 20
977.9959964557
 10
435.8943925813
 20
975.3842915049
 10
440.6156825787
 20
973.4203176864
 10
445.6208168592
 20
972.1248936113
 10
450.8567397542
 20
971.5117510971
 10
456.2679491784
 20
971.5873896069
 10
461.7970849659
 20
972.3510073538
 10
467.3855369018
 20
973.7945097996
 10
472.9740660053
 20
975.9025954594
 10
478.5034324776
 20
978.6529181006
 10
483.9150236587
 20
982.0163236191
 10
489.1514753358
 20
985.9571590798
 10
494.1572798183
 20
990.4336506462
 10
498.8793743335
 20
995.3983463943
 10
503.2677035049
 20
1000.798619314
 10
507.2757499514
 20
1006.5772251689
 10
510.8610273837
 20
1012.6729092995
 10
513.9855309692
 20
1019.0210559374
 10
516.6161401924
 20
1025.5543731492
 10
518.7249699412
 20
1032.2036061471
 10
520.2896660957
 20
1038.8982714071
 10
521.2936424873
 20
1045.567403812
 10
521.7262567166
 20
1052.1403088994
 10
521.5829229652
 20
1058.5473122401
 10
520.8651606063
 20
1064.7204980048
 10
519.5805780997
 20
1070.5944288887
 10
517.7427923393
 20
1076.1068397632
 10
515.3712843116
 20
1081.1992977016
 10
512.4911925915
 20
1085.8178213831
 10
509.1330468677
 20
1089.9134533076
 10
505.3324443204
 20
1093.4427787578
 10
501.1296722819
 20
1096.3683860059
 10
496.5692811816
 20
1098.6592628874
 10
491.6996122994
 20
1100.2911255374
  0
LWPOLYLINE
  5
A2
330
1F
100
AcDbEntity
  8
0
  6
Continuous
 62
     7
370
    25
100
AcDbPolyline
 90
       73
 70
   128
 43
0.0
 10
433.8052445897
 20
948.3274158329
 10
439.78775503
 20
947.1475916822
 10
445.9803566579
 20
946.6477139176
 10
452.335920036
 20
946.8315869107
 10
458.8060754892
 20
947.6978112772
 10
465.3415812278
 20
949.2397945264
 10
471.8926981069
 20
951.4458012349
 10
478.4095681714
 20
954.2990423594
 10
484.842594105
 20
957.7778030123
 10
491.1428166961
 20
961.8556077245
 10
497.2622874465
 20
966.5014219397
 10
503.1544334889
 20
971.6798882067
 10
508.774412034
 20
977.3515952703
 10
514.0794516517
 20
983.473378015
 10
519.0291777872
 20
989.9986459778
 10
523.585920036
 20
996.8777379294
 10
527.714998838
 20
1004.0582998263
 10
531.3849894103
 20
1011.4856832568
 10
534.5679609088
 20
1019.1033613481
 10
537.2396889984
 20
1026.8533589704
 10
539.379840215
 20
1034.676693962
 10
540.9721267157
 20
1042.51382602
 10
542.0044302388
 20
1050.3051098371
 10
542.4688943311
 20
1057.991249039
 10
542.3619841404
 20
1065.5137474653
 10
541.6845133178
 20
1072.8153543608
 10
540.4416378254
 20
1079.8405000882
 10
538.6428166961
 20
1086.5357190466
 10
536.3017400449
 20
1092.8500565771
 10
533.4362248786
 20
1098.7354567583
 10
530.068079498
 20
1104.1471281412
 10
526.2229375231
 20
1109.0438846388
 10
521.9300628061
 20
1113.3884589776
 10
517.2221267157
 20
1117.1477863234
 10
512.1349594883
 20
1120.2932559253
 10
506.7072775383
 20
1122.8009288601
 10
500.9803888025
 20
1124.6517202229
 10
494.9978783622
 20
1125.8315443736
 10
488.8052767342
 20
1126.3314221382
 10
482.4497133562
 20
1126.1475491451
 10
475.979557903
 20
1125.2813247786
 10
469.4440521644
 20
1123.7393415294
 10
462.8929352853
 20
1121.5333348209
 10
456.3760652208
 20
1118.6800936964
 10
449.9430392872
 20
1115.2013330435
 10
443.6428166961
 20
1111.1235283313
 10
437.5233459456
 20
1106.4777141161
 10
431.6311999033
 20
1101.2992478491
 10
426.0112213582
 20
1095.6275407855
 10
420.7061817405
 20
1089.5057580407
 10
415.756455605
 20
1082.9804900779
 10
411.1997133562
 20
1076.1013981264
 10
407.0706345542
 20
1068.9208362294
 10
403.4006439819
 20
1061.493452799
 10
400.2176724834
 20
1053.8757747077
 10
397.5459443938
 20
1046.1257770854
 10
395.4057931772
 20
1038.3024420937
 10
393.8135066765
 20
1030.4653100358
 10
392.7812031534
 20
1022.6740262187
 10
392.3167390611
 20
1014.9878870168
 10
392.4236492518
 20
1007.4653885905
 10
393.1011200744
 20
1000.163781695
 10
394.3439955668
 20
993.1386359676
 10
396.1428166961
 20
986.4434170092
 10
398.4838933473
 20
980.1290794787
 10
401.3494085136
 20
974.2436792975
 10
404.7175538942
 20
968.8320079146
 10
408.5626958691
 20
963.9352514169
 10
412.8555705861
 20
959.5906770782
 10
417.5635066765
 20
955.8313497323
 10
422.6506739038
 20
952.6858801305
 10
428.0783558539
 20
950.1782071956
 10
433.8052445897
 20
948.3274158329
  0
LWPOLYLINE
  5
A3
330
1F
100
AcDbEntity
  8
0
  6
Continuous
 62
     7
370
    25
100
AcDbPolyline
 90
       74
 70
   128
 43
0.0
 10
434.4522922025
 20
945.196186036
 10
428.6532360181
 20
947.0650687279
 10
423.1523286134
 20
949.5900134834
 10
417.9902967822
 20
952.752326495
 10
413.2053584022
 20
956.5285951036
 10
408.8329394831
 20
960.8908611376
 10
404.9054118847
 20
965.8068279054
 10
401.4518536473
 20
971.2400993091
 10
398.4978337077
 20
977.1504493082
 10
396.0652225961
 20
983.494119739
 10
394.172030514
 20
990.2241442852
 10
392.8322739933
 20
997.2906961998
 10
392.0558721225
 20
1004.6414572045
 10
391.8485731094
 20
1012.2220048369
 10
392.2119117234
 20
1019.9762153743
 10
393.1431979324
 20
1027.8466793551
 10
394.6355368193
 20
1035.7751266174
 10
396.677879629
 20
1043.7028577117
 10
399.25510557
 20
1051.5711784906
 10
402.348133763
 20
1059.3218346599
 10
405.9340645094
 20
1066.8974430732
 10
409.9863488327
 20
1074.2419165761
 10
414.4749850375
 20
1081.3008792564
 10
419.3667408317
 20
1088.0220690243
 10
424.6253993669
 20
1094.3557245421
 10
430.2120273751
 20
1100.2549536405
 10
436.0852634172
 20
1105.676080491
 10
442.2016241085
 20
1110.5789689672
 10
448.5158260542
 20
1114.9273197981
 10
454.9811211122
 20
1118.6889393157
 10
461.5496425001
 20
1121.835977805
 10
468.1727591835
 20
1124.3451356941
 10
474.8014359238
 20
1126.1978360559
 10
481.3865963175
 20
1127.3803621451
 10
487.8794861411
 20
1127.8839589522
 10
494.2320343099
 20
1127.7048980228
 10
500.3972087799
 20
1126.8445050613
 10
506.3293647562
 20
1125.3091501161
 10
511.9845826316
 20
1123.1102004181
 10
517.3209931515
 20
1120.2639362214
 10
522.2990873993
 20
1116.7914302705
 10
526.8820093071
 20
1112.7183917844
 10
531.0358285243
 20
1108.0749761151
 10
534.7297916269
 20
1102.8955614875
 10
537.9365498043
 20
1097.2184944755
 10
540.6323613411
 20
1091.085806097
 10
542.7972673918
 20
1084.5429006311
 10
544.4152397493
 20
1077.6382194607
 10
545.4742995125
 20
1070.4228824295
 10
545.9666057734
 20
1062.9503093684
 10
545.8885136687
 20
1055.2758245939
 10
545.2406013649
 20
1047.4562473063
 10
544.0276657782
 20
1039.5494709199
 10
542.2586870592
 20
1031.6140344409
 10
539.9467621075
 20
1023.7086890644
 10
537.1090076065
 20
1015.8919632018
 10
533.7664332977
 20
1008.2217291567
 10
529.9437864318
 20
1000.7547746582
 10
525.6693685489
 20
993.546382425
 10
520.9748259433
 20
986.6499208713
 10
515.8949153661
 20
980.1164489855
 10
510.4672466979
 20
973.9943383076
 10
504.7320044986
 20
968.3289148031
 10
498.7316504948
 20
963.1621232856
 10
492.5106092081
 20
958.5322168715
 10
486.1149390519
 20
954.4734737683
 10
479.5919913301
 20
951.0159434899
 10
472.9900596656
 20
948.1852243806
 10
466.3580224507
 20
946.0022740944
 10
459.7449809684
 20
944.4832544316
 10
453.1998958643
 20
943.6394116821
 10
446.7712246586
 20
943.4769933626
 10
440.5065629835
 20
943.9972019614
 10
434.4522922025
 20
945.196186036
  0
LWPOLYLINE
  5
A4
330
1F
100
AcDbEntity
  8
0
  6
Continuous
 62
     7
370
    25
100
AcDbPolyline
 90
       39
 70
   128
 43
0.0
 10
449.3006264227
 20
935.7349638384
 10
451.8887414561
 20
934.4566455934
 10
457.5439593315
 20
932.2576958954
 10
463.4761153079
 20
930.7223409502
 10
469.6412897778
 20
929.8619479887
 10
475.9938379467
 20
929.6828870592
 10
482.4867277702
 20
930.1864838664
 10
489.0718881639
 20
931.3690099556
 10
495.7005649042
 20
933.2217103174
 10
502.3236815877
 20
935.7308682065
 10
508.8922029755
 20
938.8779066958
 10
515.3574980336
 20
942.6395262133
 10
521.6716999793
 20
946.9878770443
 10
527.7880606705
 20
951.8907655205
 10
533.6612967126
 20
957.311892371
 10
539.2479247209
 20
963.2111214693
 10
544.5065832561
 20
969.5447769872
 10
549.3983390503
 20
976.265966755
 10
553.886975255
 20
983.3249294354
 10
557.9392595783
 20
990.6694029383
 10
561.5251903248
 20
998.2450113516
 10
564.6182185177
 20
1005.9956675209
 10
567.1954444587
 20
1013.8639882998
 10
569.2377872684
 20
1021.7917193941
 10
570.7301261553
 20
1029.7201666564
 10
571.6614123644
 20
1037.5906306371
 10
572.0247509783
 20
1045.3448411746
 10
571.8174519652
 20
1052.925388807
 10
571.0410500944
 20
1060.2761498117
 10
569.7012935737
 20
1067.3427017262
 10
567.8081014917
 20
1074.0727262725
 10
565.3754903801
 20
1080.4163967033
 10
562.4214704405
 20
1086.3267467024
 10
558.967912203
 20
1091.7600181061
 10
555.0403846047
 20
1096.6759848739
 10
550.6679656855
 20
1101.0382509079
 10
545.8830273055
 20
1104.8145195165
 10
540.7209954744
 20
1107.9768325281
 10
540.5985261822
 20
1108.0419384492
  0
LWPOLYLINE
  5
A5
330
1F
100
AcDbEntity
  8
0
  6
Continuous
 62
     7
370
    25
100
AcDbPolyline
 90
       71
 70
   128
 43
0.0
 10
499.2126218495
 20
1120.0116069494
 10
493.379913982
 20
1121.1518336665
 10
487.3379732874
 20
1121.6104096012
 10
481.1354459194
 20
1121.3836425698
 10
474.8222709815
 20
1120.4733583671
 10
468.4492784461
 20
1118.8868860662
 10
462.0677799019
 20
1116.6369990094
 10
455.7291554229
 20
1113.7418119642
 10
449.4844398864
 20
1110.2246352744
 10
443.3839120699
 20
1106.1137871787
 10
437.4766898365
 20
1101.4423658087
 10
431.8103346662
 20
1096.2479827026
 10
426.430468719
 20
1090.572459979
 10
421.3804075123
 20
1084.4614936096
 10
416.7008111694
 20
1077.9642855024
 10
412.4293570487
 20
1071.1331473569
 10
408.600436387
 20
1064.0230794807
 10
405.2448774022
 20
1056.6913279598
 10
402.3896970822
 20
1049.1969237463
 10
400.0578836602
 20
1041.6002073764
 10
398.2682115266
 20
1033.9623431434
 10
397.0350900692
 20
1026.3448266392
 10
396.368447657
 20
1018.8089896277
 10
396.2736517026
 20
1011.4155062375
 10
396.7514654474
 20
1004.2239044494
 10
397.798041816
 20
997.2920868126
 10
399.4049543908
 20
990.6758642468
 10
401.5592652567
 20
984.4285066859
 10
404.2436291693
 20
978.6003141794
 10
407.4364332088
 20
973.2382119066
 10
411.1119707943
 20
968.3853723621
 10
415.2406486584
 20
964.0808677565
 10
419.7892251145
 20
960.3593554298
 10
424.7210776997
 20
957.2507988112
 10
429.9964980366
 20
954.7802261706
 10
435.5730115427
 20
952.9675291063
 10
441.4057194102
 20
951.8273023893
 10
447.4476601048
 20
951.3687264546
 10
453.6501874728
 20
951.595493486
 10
459.9633624107
 20
952.5057776887
 10
466.3363549461
 20
954.0922499896
 10
472.7178534903
 20
956.3421370464
 10
479.0564779693
 20
959.2373240916
 10
485.3011935058
 20
962.7545007814
 10
491.4017213223
 20
966.8653488771
 10
497.3089435557
 20
971.5367702471
 10
502.975298726
 20
976.7311533531
 10
508.3551646732
 20
982.4066760768
 10
513.4052258799
 20
988.5176424462
 10
518.0848222228
 20
995.0148505533
 10
522.3562763435
 20
1001.8459886989
 10
526.1851970052
 20
1008.956056575
 10
529.54075599
 20
1016.287808096
 10
532.39593631
 20
1023.7822123095
 10
534.727749732
 20
1031.3789286794
 10
536.5174218656
 20
1039.0167929124
 10
537.750543323
 20
1046.6343094166
 10
538.4171857352
 20
1054.1701464281
 10
538.5119816895
 20
1061.5636298183
 10
538.0341679448
 20
1068.7552316064
 10
536.9875915762
 20
1075.6870492431
 10
535.3806790014
 20
1082.3032718089
 10
533.2263681355
 20
1088.5506293699
 10
530.5420042229
 20
1094.3788218764
 10
527.3492001834
 20
1099.7409241492
 10
523.6736625979
 20
1104.5937636937
 10
519.5449847338
 20
1108.8982682993
 10
514.9964082777
 20
1112.619780626
 10
510.0645556925
 20
1115.7283372446
 10
504.7891353556
 20
1118.1989098852
 10
499.2126218495
 20
1120.0116069494
  0
LWPOLYLINE
  5
A6
330
1F
100
AcDbEntity
  8
0
  6
Continuous
 62
     7
370
    25
100
AcDbPolyline
 90
        3
 70
   128
 43
0.0
 10
424.898043893
 20
957.8665385227
 10
425.9129494715
 20
957.1146627889
 10
428.3773219506
 20
955.4544193289
  0
LWPOLYLINE
  5
A7
330
1F
100
AcDbEntity
  8
0
  6
Continuous
 62
     7
370
    25
100
AcDbPolyline
 90
        3
 70
   128
 43
0.0
 10
512.5320357984
 20
1114.2800240861
 10
510.9128597126
 20
1114.9542172443
 10
508.5822863675
 20
1115.8042203461
  0
LWPOLYLINE
  5
A8
330
1F
100
AcDbEntity
  8
0
  6
Continuous
 62
     7
370
    25
100
AcDbPolyline
 90
       26
 70
   128
 43
0.0
 10
566.8474525445
 20
1076.7967842501
 10
566.9203618297
 20
1076.6265933725
 10
569.2614384809
 20
1070.3122558421
 10
571.0602596102
 20
1063.6170368836
 10
572.3031351026
 20
1056.5918911562
 10
572.9806059252
 20
1049.2902842607
 10
573.0875161159
 20
1041.7677858344
 10
572.6230520236
 20
1034.0816466326
 10
571.5907485005
 20
1026.2903628155
 10
569.9984619998
 20
1018.4532307575
 10
567.8583107832
 20
1010.6298957658
 10
565.1865826936
 20
1002.8798981436
 10
562.0036111951
 20
995.2622200523
 10
558.3336206228
 20
987.8348366218
 10
554.2045418208
 20
980.6542747249
 10
549.647799572
 20
973.7751827733
 10
544.6980734365
 20
967.2499148105
 10
539.3930338188
 20
961.1281320658
 10
533.7730552737
 20
955.4564250022
 10
527.8809092313
 20
950.2779587352
 10
521.7614384809
 20
945.6321445199
 10
515.4612158898
 20
941.5543398078
 10
509.0281899562
 20
938.0755791549
 10
502.5113198917
 20
935.2223380303
 10
495.9602030126
 20
933.0163313219
 10
489.8944811676
 20
931.563063429
  0
ARC
  5
A9
330
1F
100
AcDbEntity
  8
0
  6
Continuous
 62
     7
370
    25
100
AcDbCircle
 10
476.2722561761
 20
979.2510018077
 30
0.0
 40
51.07940231287133
100
AcDbArc
 50
240.1460876842
 51
255.5660163651
  0
LWPOLYLINE
  5
AA
330
1F
100
AcDbEntity
  8
0
  6
Continuous
 62
     7
370
    25
100
AcDbPolyline
 90
       36
 70
   128
 43
0.0
 10
542.1155876955
 20
1107.2045891717
 10
546.408683847
 20
1104.8516461771
 10
551.3867780949
 20
1101.3791402262
 10
555.9697000026
 20
1097.3061017401
 10
560.1235192199
 20
1092.6626860708
 10
563.8174823224
 20
1087.4832714432
 10
567.0242404999
 20
1081.8062044312
 10
569.7200520367
 20
1075.6735160527
 10
571.8849580873
 20
1069.1306105868
 10
573.5029304449
 20
1062.2259294164
 10
574.561990208
 20
1055.0105923852
 10
575.0542964689
 20
1047.5380193241
 10
574.9762043642
 20
1039.8635345496
 10
574.3282920605
 20
1032.043957262
 10
573.1153564738
 20
1024.1371808756
 10
571.3463777548
 20
1016.2017443965
 10
569.0344528031
 20
1008.2963990201
 10
566.196698302
 20
1000.4796731575
 10
562.8541239933
 20
992.8094391124
 10
559.0314771274
 20
985.3424846139
 10
554.7570592444
 20
978.1340923807
 10
550.0625166388
 20
971.237630827
 10
544.9826060617
 20
964.7041589412
 10
539.5549373935
 20
958.5820482633
 10
533.8196951941
 20
952.9166247588
 10
527.8193411903
 20
947.7498332412
 10
521.5982999037
 20
943.1199268272
 10
515.2026297474
 20
939.061183724
 10
508.6796820256
 20
935.6036534455
 10
502.0777503612
 20
932.7729343363
 10
495.4457131462
 20
930.5899840501
 10
488.832671664
 20
929.0709643873
 10
482.2875865599
 20
928.2271216378
 10
475.8589153541
 20
928.0647033183
 10
469.5942536791
 20
928.5849119171
 10
463.539982898
 20
929.7838959917
  0
LWPOLYLINE
  5
AB
330
1F
100
AcDbEntity
  8
0
  6
Continuous
 62
     7
370
    25
100
AcDbPolyline
 90
        3
 70
   128
 43
0.0
 10
466.6018450765
 20
928.1615496712
 10
460.8027888921
 20
930.0304323631
 10
455.4243507796
 20
932.4902711975
  0
LWPOLYLINE
  5
AC
330
1F
100
AcDbEntity
  8
0
  6
Continuous
 62
     7
370
    25
100
AcDbPolyline
 90
       36
 70
   128
 43
0.0
 10
546.7222505391
 20
1104.7972458083
 10
549.4705460255
 20
1103.2292998567
 10
554.4486402733
 20
1099.7567939058
 10
559.0315621811
 20
1095.6837554197
 10
563.1853813983
 20
1091.0403397503
 10
566.8793445009
 20
1085.8609251228
 10
570.0861026784
 20
1080.1838581108
 10
572.7819142151
 20
1074.0511697323
 10
574.9468202658
 20
1067.5082642664
 10
576.5647926233
 20
1060.603583096
 10
577.6238523865
 20
1053.3882460647
 10
578.1161586474
 20
1045.9156730036
 10
578.0380665427
 20
1038.2411882292
 10
577.390154239
 20
1030.4216109416
 10
576.1772186522
 20
1022.5148345552
 10
574.4082399333
 20
1014.5793980761
 10
572.0963149815
 20
1006.6740526996
 10
569.2585604805
 20
998.8573268371
 10
565.9159861717
 20
991.1870927919
 10
562.0933393059
 20
983.7201382934
 10
557.8189214229
 20
976.5117460603
 10
553.1243788173
 20
969.6152845066
 10
548.0444682401
 20
963.0818126208
 10
542.616799572
 20
956.9597019429
 10
536.8815573726
 20
951.2942784384
 10
530.8812033688
 20
946.1274869208
 10
524.6601620822
 20
941.4975805068
 10
518.2644919259
 20
937.4388374036
 10
511.7415442041
 20
933.9813071251
 10
505.1396125397
 20
931.1505880158
 10
498.5075753247
 20
928.9676377297
 10
491.8945338425
 20
927.4486180668
 10
485.3494487384
 20
926.6047753174
 10
478.9207775326
 20
926.4423569978
 10
472.6561158576
 20
926.9625655966
 10
466.6018450765
 20
928.1615496712
  0
LWPOLYLINE
  5
AD
330
1F
100
AcDbEntity
  8
0
  6
Continuous
 62
     7
370
    25
100
AcDbPolyline
 90
       22
 70
   128
 43
0.0
 10
585.3215530166
 20
1042.8727941938
 10
587.0944430933
 20
1037.7136790217
 10
588.4825745291
 20
1031.771114933
 10
589.3036664492
 20
1025.5190479824
 10
589.5492933393
 20
1019.0216328374
 10
589.2169347351
 20
1012.3455417698
 10
588.3100010857
 20
1005.559280508
 10
586.8377987576
 20
998.7324852759
 10
584.8154345389
 20
991.9352082308
 10
582.2636606232
 20
985.2371986332
 10
579.2086616638
 20
978.7071871256
 10
575.6817860844
 20
972.4121804624
 10
571.7192244008
 20
966.4167739307
 10
567.3616378583
 20
960.7824885143
 10
562.6537411914
 20
955.5671396063
 10
557.6438437908
 20
950.8242437437
 10
552.3833539832
 20
946.6024694564
 10
546.9262515128
 20
942.9451378615
 10
541.3285336354
 20
939.8897781304
 10
535.6476405114
 20
937.4677423884
 10
529.9418657918
 20
935.7038839997
 10
528.3386005299
 20
935.3285881032
  0
LWPOLYLINE
  5
AE
330
1F
100
AcDbEntity
  8
0
  6
Continuous
 62
     7
370
    25
100
AcDbPolyline
 90
       20
 70
   128
 43
0.0
 10
612.1910728329
 20
932.6240176632
 10
616.7673470631
 20
938.0459381477
 10
620.9709113646
 20
943.8646461861
 10
624.7583492814
 20
950.0200433328
 10
628.0905423134
 20
956.4485536532
 10
630.9330739508
 20
963.0837803673
 10
633.2565851449
 20
969.8571916277
 10
635.0370775423
 20
976.6988283496
 10
636.2561613519
 20
983.5380267826
 10
636.9012452834
 20
990.3041483601
 10
636.9656665964
 20
996.9273092889
 10
636.4487599162
 20
1003.3391023426
 10
635.3558641063
 20
1009.4733034054
 10
633.698267126
 20
1015.2665554661
 10
631.4930894429
 20
1020.659023001
 10
628.763107204
 20
1025.5950099835
 10
625.5365169935
 20
1030.0235351401
 10
621.8466446036
 20
1033.8988585101
 10
617.7316008304
 20
1037.1809538694
 10
614.0405652889
 20
1039.4210718174
  0
LINE
  5
AF
330
1F
100
AcDbEntity
  8
0
  6
Continuous
 62
     7
370
    25
100
AcDbLine
 10
612.1910728329
 20
932.6240176632
 30
0.0
 11
595.3508308513
 21
941.5469224257
 31
0.0
  0
SPLINE
  5
B0
330
1F
100
AcDbEntity
  8
0
  6
Continuous
 62
     7
370
    25
100
AcDbSpline
210
0.0
220
0.0
230
1.0
 70
     8
 71
     3
 72
    20
 73
    16
 74
     0
 42
0.00000001
 43
0.00000001
 40
0.0
 40
0.0
 40
0.0
 40
0.0
 40
0.0665019927043359
 40
0.133001858776503
 40
0.1995160602992286
 40
0.2660316028370278
 40
0.3322265286519799
 40
0.3984448526949627
 40
0.4670229926164179
 40
0.5356466748582227
 40
0.6334880516282204
 40
0.7314485637301411
 40
0.8313918542214477
 40
0.9313666725683043
 40
1.0
 40
1.0
 40
1.0
 40
1.0
 10
595.3508308512742
 20
941.546922425692
 30
0.0
 10
594.0135244874916
 20
942.1451926331608
 30
0.0
 10
591.3389545249419
 20
943.3417139163311
 30
0.0
 10
586.5687767274343
 20
944.161356917691
 30
0.0
 10
581.3645182017783
 20
944.2389245354847
 30
0.0
 10
575.7957347226373
 20
943.617509240211
 30
0.0
 10
569.9860488227743
 20
942.4041972200783
 30
0.0
 10
563.9931967085005
 20
940.7739666883011
 30
0.0
 10
557.912863792146
 20
938.8921852657838
 30
0.0
 10
550.9863137236655
 20
936.6763041755737
 30
0.0
 10
543.4182873803451
 20
934.4247385652362
 30
0.0
 10
535.3383030099509
 20
932.5097829619251
 30
0.0
 10
527.6279803683362
 20
931.5587813410995
 30
0.0
 10
520.9516324164692
 20
931.373971971317
 30
0.0
 10
517.172198913082
 20
932.2204810857677
 30
0.0
 10
515.6337495342187
 20
932.56505955769
 30
0.0
  0
LINE
  5
B1
330
1F
100
AcDbEntity
  8
0
  6
Continuous
 62
     7
370
    25
100
AcDbLine
 10
611.1439672493
 20
932.0651504553
 30
0.0
 11
612.1910728329
 21
932.6240176632
 31
0.0
  0
LINE
  5
B2
330
1F
100
AcDbEntity
  8
0
  6
Continuous
 62
     7
370
    25
100
AcDbLine
 10
587.9434909273
 20
938.0698755829
 30
0.0
 11
611.1439672493
 21
932.0651504553
 31
0.0
  0
LINE
  5
B3
330
1F
100
AcDbEntity
  8
0
  6
Continuous
 62
     7
370
    25
100
AcDbLine
 10
512.0386710135
 20
931.7830667489
 30
0.0
 11
510.1784231664
 21
926.900205514
 31
0.0
  0
LWPOLYLINE
  5
B4
330
1F
100
AcDbEntity
  8
0
  6
Continuous
 62
     7
370
    25
100
AcDbPolyline
 90
       14
 70
   128
 43
0.0
 10
522.8995436078
 20
875.7437078065
 10
522.4113498221
 20
875.9303890166
 10
519.0413682016
 20
877.6755536799
 10
515.9650336604
 20
880.1015992019
 10
513.2401353106
 20
883.162952185
 10
510.9178605167
 20
886.8021049463
 10
509.0418333374
 20
890.9506958024
 10
507.6472950456
 20
895.5307932476
 10
506.7604421195
 20
900.4563599013
 10
506.3979341395
 20
905.634868725
 10
506.5665808379
 20
910.9690411477
 10
507.2632141772
 20
916.3586744492
 10
508.4747478622
 20
921.7025240736
 10
510.1784231664
 20
926.900205514
  0
ARC
  5
B5
330
1F
100
AcDbEntity
  8
0
  6
Continuous
 62
     7
370
    25
100
AcDbCircle
 10
561.4639152822
 20
907.2819618121
 30
0.0
 40
54.04997019823463
100
AcDbArc
 50
152.6802999272
 51
159.1782986013
  0
ARC
  5
B6
330
1F
100
AcDbEntity
  8
0
  6
Continuous
 62
     7
370
    25
100
AcDbCircle
 10
563.6710746699
 20
906.4224210689
 30
0.0
 40
56.41851882383808
100
AcDbArc
 50
159.1591595817
 51
166.0128031567
  0
ARC
  5
B7
330
1F
100
AcDbEntity
  8
0
  6
Continuous
 62
     7
370
    25
100
AcDbCircle
 10
563.4654626335
 20
906.4513731447
 30
0.0
 40
56.21200952132812
100
AcDbArc
 50
165.9907828016
 51
172.8612149677
  0
ARC
  5
B8
330
1F
100
AcDbEntity
  8
0
  6
Continuous
 62
     7
370
    25
100
AcDbCircle
 10
560.6329583058
 20
906.78469067
 30
0.0
 40
53.3600444591465
100
AcDbArc
 50
172.8383754127
 51
179.9516786446
  0
ARC
  5
B9
330
1F
100
AcDbEntity
  8
0
  6
Continuous
 62
     7
370
    25
100
AcDbCircle
 10
555.6055802685
 20
906.7679115028
 30
0.0
 40
48.33268693123556
100
AcDbArc
 50
179.9267616592
 51
187.5255690318
  0
ARC
  5
BA
330
1F
100
AcDbEntity
  8
0
  6
Continuous
 62
     7
370
    25
100
AcDbCircle
 10
549.258801462
 20
905.909122946
 30
0.0
 40
41.9281065093265
100
AcDbArc
 50
187.4980164848
 51
195.8528896238
  0
ARC
  5
BB
330
1F
100
AcDbEntity
  8
0
  6
Continuous
 62
     7
370
    25
100
AcDbCircle
 10
542.6912965163
 20
904.0258524834
 30
0.0
 40
35.09594298345003
100
AcDbArc
 50
195.8241435635
 51
205.2320002671
  0
ARC
  5
BC
330
1F
100
AcDbEntity
  8
0
  6
Continuous
 62
     7
370
    25
100
AcDbCircle
 10
536.9488424031
 20
901.3064973054
 30
0.0
 40
28.74216484788528
100
AcDbArc
 50
205.2081199762
 51
215.9574604804
  0
ARC
  5
BD
330
1F
100
AcDbEntity
  8
0
  6
Continuous
 62
     7
370
    25
100
AcDbCircle
 10
532.7657972815
 20
898.2694517287
 30
0.0
 40
23.5728799063047
100
AcDbArc
 50
215.9522901202
 51
228.2227650102
  0
ARC
  5
BE
330
1F
100
AcDbEntity
  8
0
  6
Continuous
 62
     7
370
    25
100
AcDbCircle
 10
530.3927689154
 20
895.6305923404
 30
0.0
 40
20.02398075704994
100
AcDbArc
 50
228.2558431504
 51
241.9385627831
  0
ARC
  5
BF
330
1F
100
AcDbEntity
  8
0
  6
Continuous
 62
     7
370
    25
100
AcDbCircle
 10
506.8764127046
 20
899.0756480925
 30
0.0
 40
18.662917338863
100
AcDbArc
 50
253.9706797349
 51
255.4891440723
  0
LINE
  5
C0
330
1F
100
AcDbEntity
  8
0
  6
Continuous
 62
     7
370
    25
100
AcDbLine
 10
502.9604725565
 20
880.8180631074
 30
0.0
 11
501.7230356895
 21
881.1383353357
 31
0.0
  0
ARC
  5
C1
330
1F
100
AcDbEntity
  8
0
  6
Continuous
 62
     7
370
    25
100
AcDbCircle
 10
508.1727686528
 20
898.9384924897
 30
0.0
 40
18.85518474040647
100
AcDbArc
 50
244.6176142226
 51
253.9522514146
  0
LINE
  5
C2
330
1F
100
AcDbEntity
  8
0
  6
Continuous
 62
     7
370
    25
100
AcDbLine
 10
500.0903541059
 20
881.9034531094
 30
0.0
 11
498.3225871529
 21
882.3609848642
 31
0.0
  0
ARC
  5
C3
330
1F
100
AcDbEntity
  8
0
  6
Continuous
 62
     7
370
    25
100
AcDbCircle
 10
506.6771089058
 20
899.9787682622
 30
0.0
 40
19.49831596781549
100
AcDbArc
 50
239.5364521223
 51
244.6292437003
  0
LINE
  5
C4
330
1F
100
AcDbEntity
  8
0
  6
Continuous
 62
     7
370
    25
100
AcDbLine
 10
498.5594230166
 20
882.7146262697
 30
0.0
 11
496.7916560637
 21
883.1721580244
 31
0.0
  0
ARC
  5
C5
330
1F
100
AcDbEntity
  8
0
  6
Continuous
 62
     7
370
    25
100
AcDbCircle
 10
509.0419421454
 20
900.5034270106
 30
0.0
 40
20.64763035040191
100
AcDbArc
 50
230.704244038
 51
239.4901618955
  0
LINE
  5
C6
330
1F
100
AcDbEntity
  8
0
  6
Continuous
 62
     7
370
    25
100
AcDbLine
 10
495.9653115792
 20
884.5244917482
 30
0.0
 11
494.7278747121
 21
884.8447639765
 31
0.0
  0
ARC
  5
C7
330
1F
100
AcDbEntity
  8
0
  6
Continuous
 62
     7
370
    25
100
AcDbCircle
 10
508.8057140965
 20
902.0725444283
 30
0.0
 40
22.2481905112944
100
AcDbArc
 50
226.081799983
 51
230.7457075592
  0
LINE
  5
C8
330
1F
100
AcDbEntity
  8
0
  6
Continuous
 62
     7
370
    25
100
AcDbLine
 10
494.6111235282
 20
885.7262149724
 30
0.0
 11
493.3736866611
 21
886.0464872008
 31
0.0
  0
ARC
  5
C9
330
1F
100
AcDbEntity
  8
0
  6
Continuous
 62
     7
370
    25
100
AcDbCircle
 10
511.4973629525
 20
903.2283333914
 30
0.0
 40
24.32014044053711
100
AcDbArc
 50
218.1490248919
 51
226.0260302384
  0
LINE
  5
CA
330
1F
100
AcDbEntity
  8
0
  6
Continuous
 62
     7
370
    25
100
AcDbLine
 10
492.3718398673
 20
888.2055640807
 30
0.0
 11
491.1344030002
 21
888.525836309
 31
0.0
  0
ARC
  5
CB
330
1F
100
AcDbEntity
  8
0
  6
Continuous
 62
     7
370
    25
100
AcDbCircle
 10
512.1962653186
 20
905.1018863199
 30
0.0
 40
26.80237822062904
100
AcDbArc
 50
214.0840784993
 51
218.203357669
  0
LINE
  5
CC
330
1F
100
AcDbEntity
  8
0
  6
Continuous
 62
     7
370
    25
100
AcDbLine
 10
491.2355411731
 20
889.7613236169
 30
0.0
 11
489.998104306
 21
890.0815958453
 31
0.0
  0
ARC
  5
CD
330
1F
100
AcDbEntity
  8
0
  6
Continuous
 62
     7
370
    25
100
AcDbCircle
 10
515.8216718675
 20
906.365048979
 30
0.0
 40
29.66751621591635
100
AcDbArc
 50
207.1332851752
 51
214.0322952814
  0
LINE
  5
CE
330
1F
100
AcDbEntity
  8
0
  6
Continuous
 62
     7
370
    25
100
AcDbLine
 10
489.4191247896
 20
892.8348225869
 30
0.0
 11
487.6513578367
 21
893.2923543416
 31
0.0
  0
ARC
  5
CF
330
1F
100
AcDbEntity
  8
0
  6
Continuous
 62
     7
370
    25
100
AcDbCircle
 10
516.8646692696
 20
908.2968721375
 30
0.0
 40
32.84133248152983
100
AcDbArc
 50
203.5885720733
 51
207.1859029182
  0
LINE
  5
D0
330
1F
100
AcDbEntity
  8
0
  6
Continuous
 62
     7
370
    25
100
AcDbLine
 10
488.5352413131
 20
894.6973474688
 30
0.0
 11
486.7674743602
 21
895.1548792236
 31
0.0
  0
ARC
  5
D1
330
1F
100
AcDbEntity
  8
0
  6
Continuous
 62
     7
370
    25
100
AcDbCircle
 10
521.7559371696
 20
909.1743123956
 30
0.0
 40
36.23806212642901
100
AcDbArc
 50
197.5094620423
 51
203.5466817884
  0
LINE
  5
D2
330
1F
100
AcDbEntity
  8
0
  6
Continuous
 62
     7
370
    25
100
AcDbLine
 10
487.1968830998
 20
898.2716095895
 30
0.0
 11
485.9594462327
 21
898.5918818178
 31
0.0
  0
ARC
  5
D3
330
1F
100
AcDbEntity
  8
0
  6
Continuous
 62
     7
370
    25
100
AcDbCircle
 10
523.8785961183
 20
910.586445278
 30
0.0
 40
39.7709879264376
100
AcDbArc
 50
194.3869451436
 51
197.5531744227
  0
LINE
  5
D4
330
1F
100
AcDbEntity
  8
0
  6
Continuous
 62
     7
370
    25
100
AcDbLine
 10
486.5922711932
 20
900.3843079411
 30
0.0
 11
485.3548343261
 21
900.7045801695
 31
0.0
  0
ARC
  5
D5
330
1F
100
AcDbEntity
  8
0
  6
Continuous
 62
     7
370
    25
100
AcDbCircle
 10
528.5416963153
 20
911.1207725384
 30
0.0
 40
43.30156971890568
100
AcDbArc
 50
188.9948872747
 51
194.3560188339
  0
LINE
  5
D6
330
1F
100
AcDbEntity
  8
0
  6
Continuous
 62
     7
370
    25
100
AcDbLine
 10
485.772636487
 20
904.3507310667
 30
0.0
 11
484.5351996199
 21
904.671003295
 31
0.0
  0
ARC
  5
D7
330
1F
100
AcDbEntity
  8
0
  6
Continuous
 62
     7
370
    25
100
AcDbCircle
 10
530.6983072449
 20
912.0055404347
 30
0.0
 40
46.74214308997272
100
AcDbArc
 50
186.1848802955
 51
189.0278691491
  0
LINE
  5
D8
330
1F
100
AcDbEntity
  8
0
  6
Continuous
 62
     7
370
    25
100
AcDbLine
 10
485.4656669771
 20
906.6494096177
 30
0.0
 11
484.22823011
 21
906.969681846
 31
0.0
  0
ARC
  5
D9
330
1F
100
AcDbEntity
  8
0
  6
Continuous
 62
     7
370
    25
100
AcDbCircle
 10
535.0989170395
 20
912.0098302281
 30
0.0
 40
49.92187517392266
100
AcDbArc
 50
181.2882444682
 51
186.1640862228
  0
LINE
  5
DA
330
1F
100
AcDbEntity
  8
0
  6
Continuous
 62
     7
370
    25
100
AcDbLine
 10
485.1896599639
 20
910.8874759885
 30
0.0
 11
483.4218930109
 21
911.3450077432
 31
0.0
  0
ARC
  5
DB
330
1F
100
AcDbEntity
  8
0
  6
Continuous
 62
     7
370
    25
100
AcDbCircle
 10
536.1798834047
 20
912.5524150261
 30
0.0
 40
52.77180480841808
100
AcDbArc
 50
178.6889707704
 51
181.3110292296
  0
LINE
  5
DC
330
1F
100
AcDbEntity
  8
0
  6
Continuous
 62
     7
370
    25
100
AcDbLine
 10
485.1896599639
 20
913.3022905542
 30
0.0
 11
483.4218930109
 21
913.7598223089
 31
0.0
  0
ARC
  5
DD
330
1F
100
AcDbEntity
  8
0
  6
Continuous
 62
     7
370
    25
100
AcDbCircle
 10
540.2929611013
 20
912.0298465927
 30
0.0
 40
55.11799080040779
100
AcDbArc
 50
174.1128915749
 51
178.6771624824
  0
LINE
  5
DE
330
1F
100
AcDbEntity
  8
0
  6
Continuous
 62
     7
370
    25
100
AcDbLine
 10
485.4656669771
 20
917.6832286682
 30
0.0
 11
484.22823011
 21
918.0035008966
 31
0.0
  0
ARC
  5
DF
330
1F
100
AcDbEntity
  8
0
  6
Continuous
 62
     7
370
    25
100
AcDbCircle
 10
540.8609716895
 20
912.177615502
 30
0.0
 40
56.93161124923161
100
AcDbArc
 50
171.6338537212
 51
174.1265674197
  0
LINE
  5
E0
330
1F
100
AcDbEntity
  8
0
  6
Continuous
 62
     7
370
    25
100
AcDbLine
 10
485.772636487
 20
920.1408063301
 30
0.0
 11
484.5351996199
 21
920.4610785584
 31
0.0
  0
ARC
  5
E1
330
1F
100
AcDbEntity
  8
0
  6
Continuous
 62
     7
370
    25
100
AcDbCircle
 10
543.2196994756
 20
911.6887103341
 30
0.0
 40
58.06550587691174
100
AcDbArc
 50
167.2217874027
 51
171.6302103666
  0
LINE
  5
E2
330
1F
100
AcDbEntity
  8
0
  6
Continuous
 62
     7
370
    25
100
AcDbLine
 10
486.5922711932
 20
924.5315035996
 30
0.0
 11
485.3548343261
 21
924.8517758279
 31
0.0
  0
ARC
  5
E3
330
1F
100
AcDbEntity
  8
0
  6
Continuous
 62
     7
370
    25
100
AcDbCircle
 10
542.4438211206
 20
911.9101132377
 30
0.0
 40
58.53750117511304
100
AcDbArc
 50
165.4254185562
 51
167.2273329737
  0
LINE
  5
E4
330
1F
100
AcDbEntity
  8
0
  6
Continuous
 62
     7
370
    25
100
AcDbLine
 10
511.0417620875
 20
915.4278822886
 30
0.0
 11
507.6892062818
 21
913.4370185566
 31
0.0
  0
LINE
  5
E5
330
1F
100
AcDbEntity
  8
0
  6
Continuous
 62
     7
370
    25
100
AcDbLine
 10
508.9253783992
 20
920.0590631081
 30
0.0
 11
511.2563276145
 21
916.5707592721
 31
0.0
  0
LINE
  5
E6
330
1F
100
AcDbEntity
  8
0
  6
Continuous
 62
     7
370
    25
100
AcDbLine
 10
510.1678636422
 20
908.7179667106
 30
0.0
 11
507.2729328233
 21
906.829692752
 31
0.0
  0
LINE
  5
E7
330
1F
100
AcDbEntity
  8
0
  6
Continuous
 62
     7
370
    25
100
AcDbLine
 10
507.6892062818
 20
913.4370185566
 30
0.0
 11
510.1634596923
 21
910.1877826584
 31
0.0
  0
LINE
  5
E8
330
1F
100
AcDbEntity
  8
0
  6
Continuous
 62
     7
370
    25
100
AcDbLine
 10
512.3891577343
 20
921.8791409635
 30
0.0
 11
508.9253783992
 21
920.0590631081
 31
0.0
  0
LINE
  5
E9
330
1F
100
AcDbEntity
  8
0
  6
Continuous
 62
     7
370
    25
100
AcDbLine
 10
510.943888711
 20
926.4946189339
 30
0.0
 11
512.8996392466
 21
923.199537708
 31
0.0
  0
LINE
  5
EA
330
1F
100
AcDbEntity
  8
0
  6
Continuous
 62
     7
370
    25
100
AcDbLine
 10
514.8546731768
 20
928.2563720393
 30
0.0
 11
510.943888711
 21
926.4946189339
 31
0.0
  0
LINE
  5
EB
330
1F
100
AcDbEntity
  8
0
  6
Continuous
 62
     7
370
    25
100
AcDbLine
 10
513.8788893898
 20
932.1833466117
 30
0.0
 11
515.3276515307
 21
929.4797641969
 31
0.0
  0
LINE
  5
EC
330
1F
100
AcDbEntity
  8
0
  6
Continuous
 62
     7
370
    25
100
AcDbLine
 10
510.187467839
 20
902.1750764817
 30
0.0
 11
507.6892062818
 21
900.4378459456
 31
0.0
  0
LINE
  5
ED
330
1F
100
AcDbEntity
  8
0
  6
Continuous
 62
     7
370
    25
100
AcDbLine
 10
507.2729328233
 20
906.829692752
 30
0.0
 11
510.1834651941
 21
903.5109570739
 31
0.0
  0
LINE
  5
EE
330
1F
100
AcDbEntity
  8
0
  6
Continuous
 62
     7
370
    25
100
AcDbLine
 10
511.1411203192
 20
896.0392532925
 30
0.0
 11
509.4019119938
 21
894.7962635716
 31
0.0
  0
LINE
  5
EF
330
1F
100
AcDbEntity
  8
0
  6
Continuous
 62
     7
370
    25
100
AcDbLine
 10
507.6892062818
 20
900.4378459456
 30
0.0
 11
510.8636703467
 21
897.3290458356
 31
0.0
  0
LINE
  5
F0
330
1F
100
AcDbEntity
  8
0
  6
Continuous
 62
     7
370
    25
100
AcDbLine
 10
512.6177124061
 20
890.2321179651
 30
0.0
 11
510.943888711
 21
889.0649931652
 31
0.0
  0
LINE
  5
F1
330
1F
100
AcDbEntity
  8
0
  6
Continuous
 62
     7
370
    25
100
AcDbLine
 10
508.9253783992
 20
894.455691168
 30
0.0
 11
512.0376342428
 21
891.8715939375
 31
0.0
  0
LINE
  5
F2
330
1F
100
AcDbEntity
  8
0
  6
Continuous
 62
     7
370
    25
100
AcDbLine
 10
515.0582051746
 20
885.2878906374
 30
0.0
 11
513.683405803
 21
884.429545568
 31
0.0
  0
LINE
  5
F3
330
1F
100
AcDbEntity
  8
0
  6
Continuous
 62
     7
370
    25
100
AcDbLine
 10
510.943888711
 20
889.0649931652
 30
0.0
 11
514.3616656449
 21
886.699019497
 31
0.0
  0
LINE
  5
F4
330
1F
100
AcDbEntity
  8
0
  6
Continuous
 62
     7
370
    25
100
AcDbLine
 10
518.041216416
 20
881.1518314578
 30
0.0
 11
517.0606908344
 21
880.690194106
 31
0.0
  0
LINE
  5
F5
330
1F
100
AcDbEntity
  8
0
  6
Continuous
 62
     7
370
    25
100
AcDbLine
 10
513.683405803
 20
884.429545568
 30
0.0
 11
516.3585725469
 21
882.9209165605
 31
0.0
  0
LINE
  5
F6
330
1F
100
AcDbEntity
  8
0
  6
Continuous
 62
     7
370
    25
100
AcDbLine
 10
517.0606908344
 20
880.690194106
 30
0.0
 11
519.5182402721
 21
879.5989295346
 31
0.0
  0
LINE
  5
F7
330
1F
100
AcDbEntity
  8
0
  6
Continuous
 62
     7
370
    25
100
AcDbLine
 10
485.0499462021
 20
920.6170992072
 30
0.0
 11
484.5351996199
 21
920.4610785584
 31
0.0
  0
LINE
  5
F8
330
1F
100
AcDbEntity
  8
0
  6
Continuous
 62
     7
370
    25
100
AcDbLine
 10
485.0499462021
 20
920.6170992072
 30
0.0
 11
485.8469174483
 21
920.6314063633
 31
0.0
  0
LINE
  5
F9
330
1F
100
AcDbEntity
  8
0
  6
Continuous
 62
     7
370
    25
100
AcDbLine
 10
484.3066979203
 20
914.4463584254
 30
0.0
 11
483.4218930109
 21
913.7598223089
 31
0.0
  0
LINE
  5
FA
330
1F
100
AcDbEntity
  8
0
  6
Continuous
 62
     7
370
    25
100
AcDbLine
 10
484.3066979203
 20
914.4463584254
 30
0.0
 11
485.2389754569
 21
914.6876496072
 31
0.0
  0
LINE
  5
FB
330
1F
100
AcDbEntity
  8
0
  6
Continuous
 62
     7
370
    25
100
AcDbLine
 10
484.7429766922
 20
907.6291517406
 30
0.0
 11
484.22823011
 21
906.969681846
 31
0.0
  0
LINE
  5
FC
330
1F
100
AcDbEntity
  8
0
  6
Continuous
 62
     7
370
    25
100
AcDbLine
 10
484.7429766922
 20
907.6291517406
 30
0.0
 11
485.3438850461
 21
907.9294173406
 31
0.0
  0
LINE
  5
FD
330
1F
100
AcDbEntity
  8
0
  6
Continuous
 62
     7
370
    25
100
AcDbLine
 10
485.8217047904
 20
901.5957349106
 30
0.0
 11
485.3548343261
 21
900.7045801695
 31
0.0
  0
LINE
  5
FE
330
1F
100
AcDbEntity
  8
0
  6
Continuous
 62
     7
370
    25
100
AcDbLine
 10
485.8217047904
 20
901.5957349106
 30
0.0
 11
486.2318286646
 21
901.9057933297
 31
0.0
  0
LINE
  5
FF
330
1F
100
AcDbEntity
  8
0
  6
Continuous
 62
     7
370
    25
100
AcDbLine
 10
487.4153199572
 20
896.9881223903
 30
0.0
 11
486.7674743602
 21
895.1548792236
 31
0.0
  0
LINE
  5
100
330
1F
100
AcDbEntity
  8
0
  6
Continuous
 62
     7
370
    25
100
AcDbLine
 10
487.4153199572
 20
896.9881223903
 30
0.0
 11
487.5709239138
 21
897.1511166292
 31
0.0
  0
LINE
  5
101
330
1F
100
AcDbEntity
  8
0
  6
Continuous
 62
     7
370
    25
100
AcDbLine
 10
490.2806995568
 20
891.361056488
 30
0.0
 11
489.998104306
 21
890.0815958453
 31
0.0
  0
LINE
  5
102
330
1F
100
AcDbEntity
  8
0
  6
Continuous
 62
     7
370
    25
100
AcDbLine
 10
493.4737641474
 20
886.985506511
 30
0.0
 11
493.3736866611
 21
886.0464872008
 31
0.0
  0
LINE
  5
103
330
1F
100
AcDbEntity
  8
0
  6
Continuous
 62
     7
370
    25
100
AcDbLine
 10
496.7917962119
 20
883.9478680983
 30
0.0
 11
496.7916560637
 21
883.1721580244
 31
0.0
  0
LWPOLYLINE
  5
104
330
1F
100
AcDbEntity
  8
0
  6
Continuous
 62
     7
370
    25
100
AcDbPolyline
 90
       44
 70
   128
 43
0.0
 10
570.0286596536
 20
938.5782037758
 10
566.4252145967
 20
937.2852905072
 10
562.898570715
 20
935.2993873204
 10
559.5238923002
 20
932.662820294
 10
556.3731047637
 20
929.4317832767
 10
553.5133616716
 20
925.6751402129
 10
551.0056134829
 20
921.4729574275
 10
548.9033084964
 20
916.9147971509
 10
547.2512536931
 20
912.0978086558
 10
546.0846597529
 20
907.1246576889
 10
545.4283906001
 20
902.1013383289
 10
545.2964334725
 20
897.1349139068
 10
545.691600807
 20
892.3312351366
 10
546.6054702981
 20
887.7926840915
 10
548.0185644041
 20
883.6159921073
 10
549.9007654775
 20
879.8901781224
 10
552.2119576703
 20
876.6946513932
 10
554.9028819333
 20
874.0975190241
 10
557.9161858878
 20
872.1541343824
 10
561.1876461916
 20
870.9059173379
 10
564.647537348
 20
870.3794714698
 10
568.2221177839
 20
870.5860170577
 10
571.8352015233
 20
871.521151941
 10
575.4097819592
 20
873.1649453432
 10
578.8696731155
 20
875.4823626619
 10
582.1411334193
 20
878.4240121702
 10
585.1544373738
 20
881.927197716
 10
587.8453616369
 20
885.9172549816
 10
590.1565538296
 20
890.3091428235
 10
592.038754903
 20
895.0092557775
 10
593.451849009
 20
899.917419096
 10
594.3657185001
 20
904.9290237992
 10
594.7608858346
 20
909.9372562337
 10
594.628928707
 20
914.8353746203
 10
593.9726595543
 20
919.5189840694
 10
592.806065614
 20
923.888261577
 10
591.1540108107
 20
927.8500835788
 10
589.0517058243
 20
931.3200107172
 10
586.5439576356
 20
934.2240875195
 10
583.6842145434
 20
936.5004186306
 10
580.5334270069
 20
938.1004880048
 10
577.1587485921
 20
938.9901929415
 10
573.6321047105
 20
939.1505709246
 10
570.0286596536
 20
938.5782037758
  0
LWPOLYLINE
  5
105
330
1F
100
AcDbEntity
  8
0
  6
Continuous
 62
     7
370
    25
100
AcDbPolyline
 90
       43
 70
   128
 43
0.0
 10
578.283404984
 20
943.9523454459
 10
579.5293771911
 20
943.5831533776
 10
582.9569460792
 20
942.0441808861
 10
586.1107552989
 20
939.8193987808
 10
588.9320553516
 20
936.9502505429
 10
591.3682907555
 20
933.4901829756
 10
593.3740790545
 20
929.5036505907
 10
594.9120562077
 20
925.064914944
 10
595.9535726107
 20
920.256661282
 10
596.4792267835
 20
915.1684582729
 10
596.4792267835
 20
909.8950895115
 10
595.9535726107
 20
904.5347878803
 10
594.9120562077
 20
899.1874056565
 10
593.3740790545
 20
893.9525544534
 10
591.3682907555
 20
888.9277496441
 10
588.9320553516
 20
884.206593835
 10
586.1107552989
 20
879.877033226
 10
582.9569460792
 20
876.0197193393
 10
579.5293771911
 20
872.7065066345
 10
575.8918977577
 20
869.9991139953
 10
572.1122671385
 20
867.9479750241
 10
568.2608927006
 20
866.5912985589
 10
564.4095182627
 20
865.9543569154
 10
560.6298876435
 20
866.0490151112
 10
556.9924082101
 20
866.8735098433
 10
553.564839322
 20
868.4124823349
 10
550.4110301023
 20
870.6372644401
 10
547.5897300496
 20
873.506412678
 10
545.1534946457
 20
876.9664802453
 10
543.1477063467
 20
880.9530126302
 10
541.6097291935
 20
885.3917482769
 10
540.5682127905
 20
890.2000019389
 10
540.0425586177
 20
895.288204948
 10
540.0425586177
 20
900.5615737094
 10
540.5682127905
 20
905.9218753407
 10
541.6097291935
 20
911.2692575644
 10
543.1477063467
 20
916.5041087675
 10
545.1534946457
 20
921.5289135768
 10
547.5897300496
 20
926.2500693859
 10
550.4110301023
 20
930.579629995
 10
553.564839322
 20
934.4369438816
 10
556.9924082101
 20
937.7501565864
 10
559.3765331235
 20
939.6103772353
  0
LWPOLYLINE
  5
106
330
1F
100
AcDbEntity
  8
0
  6
Continuous
 62
     7
370
    25
100
AcDbPolyline
 90
       14
 70
   128
 43
0.0
 10
516.6593777855
 20
932.4544543627
 10
515.256185734
 20
929.643460284
 10
513.2372629618
 20
924.687213497
 10
511.674403526
 20
919.5176361423
 10
510.5961503767
 20
914.2291416933
 10
510.0221959603
 20
908.9183154406
 10
509.9630225708
 20
903.6821505268
 10
510.419710909
 20
898.6162765332
 10
511.3839203446
 20
893.8132129689
 10
512.8380412443
 20
889.3606795612
 10
514.7555165812
 20
885.3399942043
 10
517.1013269534
 20
881.8245878278
 10
519.8326301534
 20
878.8786633062
 10
522.8995436078
 20
876.5560229039
  0
SPLINE
  5
107
330
1F
100
AcDbEntity
  8
0
  6
Continuous
 62
     7
370
    25
100
AcDbSpline
210
0.0
220
0.0
230
1.0
 70
     8
 71
     3
 72
    15
 73
    11
 74
     0
 42
0.00000001
 43
0.00000001
 40
0.0
 40
0.0
 40
0.0
 40
0.0
 40
0.0012365048481811
 40
0.2159598060890415
 40
0.3357069409613416
 40
0.4593485452754232
 40
0.6378069945227439
 40
0.8165954104074369
 40
0.9927518646128578
 40
1.0
 40
1.0
 40
1.0
 40
1.0
 10
551.5827056335963
 20
868.2305494270308
 30
0.0
 10
551.5681996185306
 20
868.2330998772884
 30
0.0
 10
549.0346744121131
 20
868.6785447486976
 30
0.0
 10
544.8489347319912
 20
870.3566051197498
 30
0.0
 10
539.4332721954158
 20
872.4167502025155
 30
0.0
 10
534.6050735879393
 20
874.3392176291187
 30
0.0
 10
529.5568032565903
 20
876.0681845587906
 30
0.0
 10
525.2678604792463
 20
876.8298057515702
 30
0.0
 10
523.5076280288204
 20
876.6954604212348
 30
0.0
 10
522.9226614426307
 20
876.5613239663634
 30
0.0
 10
522.8995436077766
 20
876.5560229039014
 30
0.0
  0
LWPOLYLINE
  5
108
330
1F
100
AcDbEntity
  8
0
  6
Continuous
 62
     7
370
    25
100
AcDbPolyline
 90
       21
 70
   128
 43
0.0
 10
522.047689265
 20
717.5335474094
 10
522.0533213606
 20
717.3962090733
 10
522.5025202692
 20
716.3049151382
 10
523.6578390006
 20
715.2489667166
 10
525.4860411383
 20
714.258741522
 10
527.9345326353
 20
713.3627265304
 10
530.9328748494
 20
712.5866984616
 10
534.394810934
 20
711.9529822304
 10
538.2207472912
 20
711.4798086989
 10
542.3006186978
 20
711.1807902081
 10
546.5170546817
 20
711.0645289755
 10
550.7487560563
 20
711.1343696251
 10
554.873984478
 20
711.3883029687
 10
558.7740646356
 20
711.8190238061
 10
562.336798324
 20
712.4141410833
 10
565.4596921815
 20
713.1565343596
 10
568.0529062378
 20
714.0248463321
 10
570.0418384459
 20
714.9940972463
 10
571.3692708475
 20
716.0364035181
 10
571.997015629
 20
717.1217798939
 10
572.047689265
 20
717.5335474094
  0
SPLINE
  5
109
330
1F
100
AcDbEntity
  8
0
  6
Continuous
 62
     7
370
    25
100
AcDbSpline
210
0.0
220
0.0
230
1.0
 70
     8
 71
     3
 72
     9
 73
     5
 74
     0
 42
0.00000001
 43
0.00000001
 40
0.0
 40
0.0
 40
0.0
 40
0.0
 40
0.4139789674154139
 40
1.0
 40
1.0
 40
1.0
 40
1.0
 10
522.322040058032
 20
874.7465200176173
 30
0.0
 10
522.2366283176351
 20
874.7974646618761
 30
0.0
 10
522.030309284255
 20
874.9205256100612
 30
0.0
 10
522.5783690550041
 20
875.0519663628633
 30
0.0
 10
522.8995436077766
 20
875.128993408544
 30
0.0
  0
LINE
  5
10A
330
1F
100
AcDbEntity
  8
0
  6
Continuous
 62
     7
370
    25
100
AcDbLine
 10
522.8995436078
 20
875.1289934085
 30
0.0
 11
522.8995436078
 21
876.5560229039
 31
0.0
  0
LINE
  5
10B
330
1F
100
AcDbEntity
  8
0
  6
Continuous
 62
     7
370
    25
100
AcDbLine
 10
508.9253783992
 20
920.0590631081
 30
0.0
 11
512.2911166137
 21
921.8276242659
 31
0.0
  0
LINE
  5
10C
330
1F
100
AcDbEntity
  8
0
  6
Continuous
 62
     7
370
    25
100
AcDbLine
 10
511.2563276145
 20
916.5707592721
 30
0.0
 11
508.9253783992
 21
920.0590631081
 31
0.0
  0
LINE
  5
10D
330
1F
100
AcDbEntity
  8
0
  6
Continuous
 62
     7
370
    25
100
AcDbLine
 10
510.943888711
 20
926.4946189339
 30
0.0
 11
514.8546731768
 21
928.2563720393
 31
0.0
  0
LINE
  5
10E
330
1F
100
AcDbEntity
  8
0
  6
Continuous
 62
     7
370
    25
100
AcDbLine
 10
512.8996392466
 20
923.199537708
 30
0.0
 11
510.943888711
 21
926.4946189339
 31
0.0
  0
LINE
  5
10F
330
1F
100
AcDbEntity
  8
0
  6
Continuous
 62
     7
370
    25
100
AcDbLine
 10
507.6892062818
 20
913.4370185566
 30
0.0
 11
511.0417620875
 21
915.4278822886
 31
0.0
  0
LINE
  5
110
330
1F
100
AcDbEntity
  8
0
  6
Continuous
 62
     7
370
    25
100
AcDbLine
 10
510.1634596923
 20
910.1877826584
 30
0.0
 11
507.6892062818
 21
913.4370185566
 31
0.0
  0
LINE
  5
111
330
1F
100
AcDbEntity
  8
0
  6
Continuous
 62
     7
370
    25
100
AcDbLine
 10
515.3276515307
 20
929.4797641969
 30
0.0
 11
513.8788893898
 21
932.1833466117
 31
0.0
  0
LINE
  5
112
330
1F
100
AcDbEntity
  8
0
  6
Continuous
 62
     7
370
    25
100
AcDbLine
 10
510.1834651941
 20
903.5109570739
 30
0.0
 11
507.2729328233
 21
906.829692752
 31
0.0
  0
LINE
  5
113
330
1F
100
AcDbEntity
  8
0
  6
Continuous
 62
     7
370
    25
100
AcDbLine
 10
507.2729328233
 20
906.829692752
 30
0.0
 11
510.1678636422
 21
908.7179667106
 31
0.0
  0
LINE
  5
114
330
1F
100
AcDbEntity
  8
0
  6
Continuous
 62
     7
370
    25
100
AcDbLine
 10
510.8636703467
 20
897.3290458356
 30
0.0
 11
507.6892062818
 21
900.4378459456
 31
0.0
  0
LINE
  5
115
330
1F
100
AcDbEntity
  8
0
  6
Continuous
 62
     7
370
    25
100
AcDbLine
 10
507.6892062818
 20
900.4378459456
 30
0.0
 11
510.187467839
 21
902.1750764817
 31
0.0
  0
LINE
  5
116
330
1F
100
AcDbEntity
  8
0
  6
Continuous
 62
     7
370
    25
100
AcDbLine
 10
508.9253783992
 20
894.455691168
 30
0.0
 11
511.1411203192
 21
896.0392532925
 31
0.0
  0
LINE
  5
117
330
1F
100
AcDbEntity
  8
0
  6
Continuous
 62
     7
370
    25
100
AcDbLine
 10
512.0376342428
 20
891.8715939375
 30
0.0
 11
508.9253783992
 21
894.455691168
 31
0.0
  0
LINE
  5
118
330
1F
100
AcDbEntity
  8
0
  6
Continuous
 62
     7
370
    25
100
AcDbLine
 10
510.943888711
 20
889.0649931652
 30
0.0
 11
512.6177124061
 21
890.2321179651
 31
0.0
  0
LINE
  5
119
330
1F
100
AcDbEntity
  8
0
  6
Continuous
 62
     7
370
    25
100
AcDbLine
 10
514.3616656449
 20
886.699019497
 30
0.0
 11
510.943888711
 21
889.0649931652
 31
0.0
  0
LINE
  5
11A
330
1F
100
AcDbEntity
  8
0
  6
Continuous
 62
     7
370
    25
100
AcDbLine
 10
513.683405803
 20
884.429545568
 30
0.0
 11
515.0582051746
 21
885.2878906374
 31
0.0
  0
LINE
  5
11B
330
1F
100
AcDbEntity
  8
0
  6
Continuous
 62
     7
370
    25
100
AcDbLine
 10
516.3585725469
 20
882.9209165605
 30
0.0
 11
513.683405803
 21
884.429545568
 31
0.0
  0
LINE
  5
11C
330
1F
100
AcDbEntity
  8
0
  6
Continuous
 62
     7
370
    25
100
AcDbLine
 10
517.0606908344
 20
880.690194106
 30
0.0
 11
518.041216416
 21
881.1518314578
 31
0.0
  0
LINE
  5
11D
330
1F
100
AcDbEntity
  8
0
  6
Continuous
 62
     7
370
    25
100
AcDbLine
 10
519.5182402721
 20
879.5989295346
 30
0.0
 11
517.0606908344
 21
880.690194106
 31
0.0
  0
LINE
  5
11E
330
1F
100
AcDbEntity
  8
0
  6
Continuous
 62
     7
370
    25
100
AcDbLine
 10
595.3508308513
 20
941.5469224257
 30
0.0
 11
585.6757504862
 21
944.0510174871
 31
0.0
  0
LINE
  5
11F
330
1F
100
AcDbEntity
  8
0
  6
Continuous
 62
     7
370
    25
100
AcDbLine
 10
500.77703705
 20
929.3334632913
 30
0.0
 11
510.1784231664
 21
926.900205514
 31
0.0
  0
MTEXT
  5
121
330
1F
100
AcDbEntity
  8
0
  6
Continuous
 62
     7
370
     0
100
AcDbMText
 10
637.2511050004
 20
510.7525031096
 30
0.0
 40
13.2291666667
 41
0.0
 71
     1
 72
     1
  1
HBB-D/W109S/C
  7
SLDTEXTSTYLE0
 73
     1
 44
1.0
  0
MTEXT
  5
122
330
1F
100
AcDbEntity
  8
0
  6
Continuous
 62
     7
370
     0
100
AcDbMText
 10
637.2511050004
 20
488.1136136143
 30
0.0
 40
13.2291666667
 41
0.0
 71
     1
 72
     1
  1
HBB-D/W111S/C
  7
SLDTEXTSTYLE0
 73
     1
 44
1.0
  0
ENDSEC
  0
SECTION
  2
OBJECTS
  0
DICTIONARY
  5
C
330
0
100
AcDbDictionary
281
     1
  3
ACAD_GROUP
350
D
  3
ACAD_LAYOUT
350
1A
  3
ACAD_MLINESTYLE
350
17
  3
ACAD_PLOTSETTINGS
350
19
  3
ACAD_PLOTSTYLENAME
350
E
  3
ACAD_SCALELIST
350
47
  3
DWGPROPS
350
123
  0
DICTIONARY
  5
D
102
{ACAD_REACTORS
330
C
102
}
330
C
100
AcDbDictionary
281
     1
  0
DICTIONARY
  5
1A
102
{ACAD_REACTORS
330
C
102
}
330
C
100
AcDbDictionary
281
     1
  3
Layout1
350
1E
  3
Layout2
350
26
  3
Model
350
22
  0
DICTIONARY
  5
17
102
{ACAD_REACTORS
330
C
102
}
330
C
100
AcDbDictionary
281
     1
  3
Standard
350
18
  0
DICTIONARY
  5
19
102
{ACAD_REACTORS
330
C
102
}
330
C
100
AcDbDictionary
281
     1
  0
ACDBDICTIONARYWDFLT
  5
E
102
{ACAD_REACTORS
330
C
102
}
330
C
100
AcDbDictionary
281
     1
  3
Normal
350
F
100
AcDbDictionaryWithDefault
340
F
  0
DICTIONARY
  5
47
102
{ACAD_REACTORS
330
C
102
}
330
C
100
AcDbDictionary
281
     1
  3
A0
350
48
  3
A1
350
49
  3
A2
350
4A
  3
A3
350
4B
  3
A4
350
4C
  3
A5
350
4D
  3
A6
350
4E
  3
A7
350
4F
  3
A8
350
50
  3
A9
350
51
  3
B0
350
52
  3
B1
350
53
  3
B2
350
54
  3
B3
350
55
  3
B4
350
56
  3
B5
350
57
  3
B6
350
58
  0
XRECORD
  5
123
102
{ACAD_REACTORS
330
C
102
}
330
C
100
AcDbXrecord
280
     1
  1
DWGPROPS COOKIE
  2

  3

  4

  6

  7

  8
9128
  9

300
=
301
=
302
=
303
=
304
=
305
=
306
=
307
=
308
=
309
=
 40
0.0
 41
2460340.1834336
 42
2460340.183433947
  1

 90
        0
  0
LAYOUT
  5
1E
102
{ACAD_REACTORS
330
1A
102
}
330
1A
100
AcDbPlotSettings
  1

  2
none_device
  4

  6

 40
0.0
 41
0.0
 42
0.0
 43
0.0
 44
0.0
 45
0.0
 46
0.0
 47
0.0
 48
0.0
 49
0.0
140
0.0
141
0.0
142
1.0
143
1.0
 70
   688
 72
     1
 73
     0
 74
     5
  7

 75
    16
147
1.0
148
0.0
149
0.0
100
AcDbLayout
  1
Layout1
 70
     1
 71
     1
 10
0.0
 20
0.0
 11
420.0
 21
297.0
 12
0.0
 22
0.0
 32
0.0
 14
1.0000000000E+20
 24
1.0000000000E+20
 34
1.0000000000E+20
 15
-1.0000000000E+20
 25
-1.0000000000E+20
 35
-1.0000000000E+20
146
0.0
 13
0.0
 23
0.0
 33
0.0
 16
1.0
 26
0.0
 36
0.0
 17
0.0
 27
1.0
 37
0.0
 76
     0
330
1B
  0
LAYOUT
  5
26
102
{ACAD_REACTORS
330
1A
102
}
330
1A
100
AcDbPlotSettings
  1

  2
none_device
  4

  6

 40
0.0
 41
0.0
 42
0.0
 43
0.0
 44
0.0
 45
0.0
 46
0.0
 47
0.0
 48
0.0
 49
0.0
140
0.0
141
0.0
142
1.0
143
1.0
 70
   688
 72
     1
 73
     0
 74
     5
  7

 75
    16
147
1.0
148
0.0
149
0.0
100
AcDbLayout
  1
Layout2
 70
     1
 71
     2
 10
0.0
 20
0.0
 11
0.0
 21
0.0
 12
0.0
 22
0.0
 32
0.0
 14
0.0
 24
0.0
 34
0.0
 15
0.0
 25
0.0
 35
0.0
146
0.0
 13
0.0
 23
0.0
 33
0.0
 16
1.0
 26
0.0
 36
0.0
 17
0.0
 27
1.0
 37
0.0
 76
     0
330
23
  0
LAYOUT
  5
22
102
{ACAD_REACTORS
330
1A
102
}
330
1A
100
AcDbPlotSettings
  1

  2
none_device
  4
Letter_(8.50_x_11.00_Inches)
  6

 40
6.35
 41
6.35
 42
6.35000508
 43
6.35000508
 44
215.9
 45
279.4
 46
0.0
 47
0.0
 48
0.0
 49
0.0
140
0.0
141
0.0
142
1.0
143
1.0
 70
  1712
 72
     1
 73
     0
 74
     0
  7

 75
     0
147
1.0
148
0.0
149
0.0
100
AcDbLayout
  1
Model
 70
     1
 71
     0
 10
0.0
 20
0.0
 11
1050.0
 21
1485.0
 12
0.0
 22
0.0
 32
0.0
 14
0.0
 24
0.0
 34
0.0
 15
1050.0
 25
1485.0
 35
0.0
146
0.0
 13
0.0
 23
0.0
 33
0.0
 16
1.0
 26
0.0
 36
0.0
 17
0.0
 27
1.0
 37
0.0
 76
     0
330
1F
331
29
  0
MLINESTYLE
  5
18
102
{ACAD_REACTORS
330
17
102
}
330
17
100
AcDbMlineStyle
  2
Standard
 70
     0
  3

 62
   256
 51
90.0
 52
90.0
 71
     2
 49
0.5
 62
   256
  6
BYLAYER
 49
-0.5
 62
   256
  6
BYLAYER
  0
ACDBPLACEHOLDER
  5
F
102
{ACAD_REACTORS
330
E
102
}
330
E
  0
SCALE
  5
48
102
{ACAD_REACTORS
330
47
102
}
330
47
100
AcDbScale
 70
     0
300
1:1
140
1.0
141
1.0
290
     1
  0
SCALE
  5
49
102
{ACAD_REACTORS
330
47
102
}
330
47
100
AcDbScale
 70
     0
300
1:2
140
1.0
141
2.0
290
     0
  0
SCALE
  5
4A
102
{ACAD_REACTORS
330
47
102
}
330
47
100
AcDbScale
 70
     0
300
1:4
140
1.0
141
4.0
290
     0
  0
SCALE
  5
4B
102
{ACAD_REACTORS
330
47
102
}
330
47
100
AcDbScale
 70
     0
300
1:5
140
1.0
141
5.0
290
     0
  0
SCALE
  5
4C
102
{ACAD_REACTORS
330
47
102
}
330
47
100
AcDbScale
 70
     0
300
1:8
140
1.0
141
8.0
290
     0
  0
SCALE
  5
4D
102
{ACAD_REACTORS
330
47
102
}
330
47
100
AcDbScale
 70
     0
300
1:10
140
1.0
141
10.0
290
     0
  0
SCALE
  5
4E
102
{ACAD_REACTORS
330
47
102
}
330
47
100
AcDbScale
 70
     0
300
1:16
140
1.0
141
16.0
290
     0
  0
SCALE
  5
4F
102
{ACAD_REACTORS
330
47
102
}
330
47
100
AcDbScale
 70
     0
300
1:20
140
1.0
141
20.0
290
     0
  0
SCALE
  5
50
102
{ACAD_REACTORS
330
47
102
}
330
47
100
AcDbScale
 70
     0
300
1:30
140
1.0
141
30.0
290
     0
  0
SCALE
  5
51
102
{ACAD_REACTORS
330
47
102
}
330
47
100
AcDbScale
 70
     0
300
1:40
140
1.0
141
40.0
290
     0
  0
SCALE
  5
52
102
{ACAD_REACTORS
330
47
102
}
330
47
100
AcDbScale
 70
     0
300
1:50
140
1.0
141
50.0
290
     0
  0
SCALE
  5
53
102
{ACAD_REACTORS
330
47
102
}
330
47
100
AcDbScale
 70
     0
300
1:100
140
1.0
141
100.0
290
     0
  0
SCALE
  5
54
102
{ACAD_REACTORS
330
47
102
}
330
47
100
AcDbScale
 70
     0
300
2:1
140
2.0
141
1.0
290
     0
  0
SCALE
  5
55
102
{ACAD_REACTORS
330
47
102
}
330
47
100
AcDbScale
 70
     0
300
4:1
140
4.0
141
1.0
290
     0
  0
SCALE
  5
56
102
{ACAD_REACTORS
330
47
102
}
330
47
100
AcDbScale
 70
     0
300
8:1
140
8.0
141
1.0
290
     0
  0
SCALE
  5
57
102
{ACAD_REACTORS
330
47
102
}
330
47
100
AcDbScale
 70
     0
300
10:1
140
10.0
141
1.0
290
     0
  0
SCALE
  5
58
102
{ACAD_REACTORS
330
47
102
}
330
47
100
AcDbScale
 70
     0
300
100:1
140
100.0
141
1.0
290
     0
  0
ENDSEC
  0
EOF
