  0
SECTION
  2
HEADER
  9
$ACADVER
  1
AC1015
  9
$ACADMAINTVER
 70
     6
  9
$DWGCODEPAGE
  3
DOS932
  9
$INSBASE
 10
0.0
 20
0.0
 30
0.0
  9
$EXTMIN
 10
0.0
 20
0.0
 30
0.0
  9
$EXTMAX
 10
1050.0
 20
1485.0
 30
0.0
  9
$LIMMIN
 10
0.0
 20
0.0
  9
$LIMMAX
 10
1050.0
 20
1485.0
  9
$ORTHOMODE
 70
     0
  9
$REGENMODE
 70
     1
  9
$FILLMODE
 70
     1
  9
$QTEXTMODE
 70
     0
  9
$MIRRTEXT
 70
     1
  9
$LTSCALE
 40
5.0
  9
$ATTMODE
 70
     1
  9
$TEXTSIZE
 40
17.6388888889
  9
$TRACEWID
 40
1.0
  9
$TEXTSTYLE
  7
Standard
  9
$CLAYER
  8
0
  9
$CELTYPE
  6
ByLayer
  9
$CECOLOR
 62
   256
  9
$CELTSCALE
 40
1.0
  9
$DISPSILH
 70
     0
  9
$DIMSCALE
 40
1.0
  9
$DIMASZ
 40
7.5
  9
$DIMEXO
 40
5.0
  9
$DIMDLI
 40
3.75
  9
$DIMRND
 40
0.0
  9
$DIMDLE
 40
0.0
  9
$DIMEXE
 40
5.0
  9
$DIMTP
 40
0.0
  9
$DIMTM
 40
0.0
  9
$DIMTXT
 40
17.6388888889
  9
$DIMCEN
 40
2.5
  9
$DIMTSZ
 40
0.0
  9
$DIMTOL
 70
     0
  9
$DIMLIM
 70
     0
  9
$DIMTIH
 70
     1
  9
$DIMTOH
 70
     1
  9
$DIMSE1
 70
     0
  9
$DIMSE2
 70
     0
  9
$DIMTAD
 70
     1
  9
$DIMZIN
 70
     0
  9
$DIMBLK
  1

  9
$DIMASO
 70
     1
  9
$DIMSHO
 70
     1
  9
$DIMPOST
  1

  9
$DIMAPOST
  1

  9
$DIMALT
 70
     0
  9
$DIMALTD
 70
     3
  9
$DIMALTF
 40
0.0393700787
  9
$DIMLFAC
 40
1.0
  9
$DIMTOFL
 70
     1
  9
$DIMTVP
 40
0.0
  9
$DIMTIX
 70
     0
  9
$DIMSOXD
 70
     0
  9
$DIMSAH
 70
     0
  9
$DIMBLK1
  1

  9
$DIMBLK2
  1

  9
$DIMSTYLE
  2
ISO-25
  9
$DIMCLRD
 70
     0
  9
$DIMCLRE
 70
     0
  9
$DIMCLRT
 70
     0
  9
$DIMTFAC
 40
1.0
  9
$DIMGAP
 40
7.5
  9
$DIMJUST
 70
     0
  9
$DIMSD1
 70
     0
  9
$DIMSD2
 70
     0
  9
$DIMTOLJ
 70
     0
  9
$DIMTZIN
 70
     0
  9
$DIMALTZ
 70
     0
  9
$DIMALTTZ
 70
     0
  9
$DIMUPT
 70
     0
  9
$DIMDEC
 70
     1
  9
$DIMTDEC
 70
     1
  9
$DIMALTU
 70
     2
  9
$DIMALTTD
 70
     3
  9
$DIMTXSTY
  7
Standard
  9
$DIMAUNIT
 70
     0
  9
$DIMADEC
 70
     2
  9
$DIMALTRND
 40
0.0
  9
$DIMAZIN
 70
     0
  9
$DIMDSEP
 70
    44
  9
$DIMATFIT
 70
     3
  9
$DIMFRAC
 70
     0
  9
$DIMLDRBLK
  1

  9
$DIMLUNIT
 70
     2
  9
$DIMLWD
 70
    -2
  9
$DIMLWE
 70
    -2
  9
$DIMTMOVE
 70
     0
  9
$LUNITS
 70
     2
  9
$LUPREC
 70
     2
  9
$SKETCHINC
 40
1.0
  9
$FILLETRAD
 40
0.0
  9
$AUNITS
 70
     0
  9
$AUPREC
 70
     2
  9
$MENU
  1
.
  9
$ELEVATION
 40
0.0
  9
$PELEVATION
 40
0.0
  9
$THICKNESS
 40
0.0
  9
$LIMCHECK
 70
     0
  9
$CHAMFERA
 40
0.0
  9
$CHAMFERB
 40
0.0
  9
$CHAMFERC
 40
0.0
  9
$CHAMFERD
 40
0.0
  9
$SKPOLY
 70
     0
  9
$TDCREATE
 40
2460340.454454225
  9
$TDUCREATE
 40
2460340.079454225
  9
$TDUPDATE
 40
2460340.454463484
  9
$TDUUPDATE
 40
2460340.079463484
  9
$TDINDWG
 40
0.0000000116
  9
$TDUSRTIMER
 40
0.0000000116
  9
$USRTIMER
 70
     1
  9
$ANGBASE
 50
0.0
  9
$ANGDIR
 70
     0
  9
$PDMODE
 70
     0
  9
$PDSIZE
 40
-1.0
  9
$PLINEWID
 40
0.0
  9
$SPLFRAME
 70
     0
  9
$SPLINETYPE
 70
     6
  9
$SPLINESEGS
 70
     8
  9
$HANDSEED
  5
12C
  9
$SURFTAB1
 70
     6
  9
$SURFTAB2
 70
     6
  9
$SURFTYPE
 70
     6
  9
$SURFU
 70
     6
  9
$SURFV
 70
     6
  9
$UCSBASE
  2

  9
$UCSNAME
  2

  9
$UCSORG
 10
0.0
 20
0.0
 30
0.0
  9
$UCSXDIR
 10
1.0
 20
0.0
 30
0.0
  9
$UCSYDIR
 10
0.0
 20
1.0
 30
0.0
  9
$UCSORTHOREF
  2

  9
$UCSORTHOVIEW
 70
     0
  9
$UCSORGTOP
 10
0.0
 20
0.0
 30
0.0
  9
$UCSORGBOTTOM
 10
0.0
 20
0.0
 30
0.0
  9
$UCSORGLEFT
 10
0.0
 20
0.0
 30
0.0
  9
$UCSORGRIGHT
 10
0.0
 20
0.0
 30
0.0
  9
$UCSORGFRONT
 10
0.0
 20
0.0
 30
0.0
  9
$UCSORGBACK
 10
0.0
 20
0.0
 30
0.0
  9
$PUCSBASE
  2

  9
$PUCSNAME
  2

  9
$PUCSORG
 10
0.0
 20
0.0
 30
0.0
  9
$PUCSXDIR
 10
1.0
 20
0.0
 30
0.0
  9
$PUCSYDIR
 10
0.0
 20
1.0
 30
0.0
  9
$PUCSORTHOREF
  2

  9
$PUCSORTHOVIEW
 70
     0
  9
$PUCSORGTOP
 10
0.0
 20
0.0
 30
0.0
  9
$PUCSORGBOTTOM
 10
0.0
 20
0.0
 30
0.0
  9
$PUCSORGLEFT
 10
0.0
 20
0.0
 30
0.0
  9
$PUCSORGRIGHT
 10
0.0
 20
0.0
 30
0.0
  9
$PUCSORGFRONT
 10
0.0
 20
0.0
 30
0.0
  9
$PUCSORGBACK
 10
0.0
 20
0.0
 30
0.0
  9
$USERI1
 70
     0
  9
$USERI2
 70
     0
  9
$USERI3
 70
     0
  9
$USERI4
 70
     0
  9
$USERI5
 70
     0
  9
$USERR1
 40
0.0
  9
$USERR2
 40
0.0
  9
$USERR3
 40
0.0
  9
$USERR4
 40
0.0
  9
$USERR5
 40
0.0
  9
$WORLDVIEW
 70
     1
  9
$SHADEDGE
 70
     3
  9
$SHADEDIF
 70
    70
  9
$TILEMODE
 70
     1
  9
$MAXACTVP
 70
    64
  9
$PINSBASE
 10
0.0
 20
0.0
 30
0.0
  9
$PLIMCHECK
 70
     0
  9
$PEXTMIN
 10
1.0000000000E+20
 20
1.0000000000E+20
 30
1.0000000000E+20
  9
$PEXTMAX
 10
-1.0000000000E+20
 20
-1.0000000000E+20
 30
-1.0000000000E+20
  9
$PLIMMIN
 10
0.0
 20
0.0
  9
$PLIMMAX
 10
420.0
 20
297.0
  9
$UNITMODE
 70
     0
  9
$VISRETAIN
 70
     1
  9
$PLINEGEN
 70
     0
  9
$PSLTSCALE
 70
     1
  9
$TREEDEPTH
 70
  3020
  9
$CMLSTYLE
  2
Standard
  9
$CMLJUST
 70
     0
  9
$CMLSCALE
 40
20.0
  9
$PROXYGRAPHICS
 70
     1
  9
$MEASUREMENT
 70
     1
  9
$CELWEIGHT
370
    -1
  9
$ENDCAPS
280
     0
  9
$JOINSTYLE
280
     0
  9
$LWDISPLAY
290
     1
  9
$INSUNITS
 70
     4
  9
$HYPERLINKBASE
  1

  9
$STYLESHEET
  1

  9
$XEDIT
290
     1
  9
$CEPSNTYPE
380
     0
  9
$PSTYLEMODE
290
     1
  9
$FINGERPRINTGUID
  2
{904b16c7-8117-47ef-a945-3ab276029aa0}
  9
$VERSIONGUID
  2
{FAEB1C32-E019-11D5-929B-00C0DF256EC4}
  9
$EXTNAMES
290
     1
  9
$PSVPSCALE
 40
0.0
  9
$OLESTARTUP
290
     0
  0
ENDSEC
  0
SECTION
  2
CLASSES
  0
CLASS
  1
ACDBDICTIONARYWDFLT
  2
AcDbDictionaryWithDefault
  3
ObjectDBX Classes
 90
        0
280
     0
281
     0
  0
CLASS
  1
VISUALSTYLE
  2
AcDbVisualStyle
  3
ObjectDBX Classes
 90
     4095
280
     0
281
     0
  0
CLASS
  1
MATERIAL
  2
AcDbMaterial
  3
ObjectDBX Classes
 90
     1153
280
     0
281
     0
  0
CLASS
  1
SCALE
  2
AcDbScale
  3
ObjectDBX Classes
 90
     1153
280
     0
281
     0
  0
CLASS
  1
TABLESTYLE
  2
AcDbTableStyle
  3
ObjectDBX Classes
 90
     4095
280
     0
281
     0
  0
CLASS
  1
MLEADERSTYLE
  2
AcDbMLeaderStyle
  3
ACDB_MLEADERSTYLE_CLASS
 90
     4095
280
     0
281
     0
  0
CLASS
  1
SUN
  2
AcDbSun
  3
SCENEOE
 90
     1153
280
     0
281
     0
  0
CLASS
  1
ACDBPLACEHOLDER
  2
AcDbPlaceHolder
  3
ObjectDBX Classes
 90
        0
280
     0
281
     0
  0
CLASS
  1
LAYOUT
  2
AcDbLayout
  3
ObjectDBX Classes
 90
        0
280
     0
281
     0
  0
ENDSEC
  0
SECTION
  2
TABLES
  0
TABLE
  2
VPORT
  5
8
330
0
100
AcDbSymbolTable
 70
     1
  0
VPORT
  5
29
330
8
100
AcDbSymbolTableRecord
100
AcDbViewportTableRecord
  2
*Active
 70
     0
 10
0.0
 20
0.0
 11
1.0
 21
1.0
 12
525.0
 22
742.5
 13
0.0
 23
0.0
 14
10.0
 24
10.0
 15
10.0
 25
10.0
 16
0.0
 26
0.0
 36
1.0
 17
0.0
 27
0.0
 37
0.0
 40
1485.0
 41
0.7070707071
 42
50.0
 43
0.0
 44
0.0
 50
0.0
 51
0.0
 71
     0
 72
  2000
 73
     1
 74
     3
 75
     0
 76
     0
 77
     0
 78
     0
281
     0
 65
     1
110
0.0
120
0.0
130
0.0
111
1.0
121
0.0
131
0.0
112
0.0
122
1.0
132
0.0
 79
     0
146
0.0
  0
ENDTAB
  0
TABLE
  2
LTYPE
  5
5
330
0
100
AcDbSymbolTable
 70
     6
  0
LTYPE
  5
14
330
5
100
AcDbSymbolTableRecord
100
AcDbLinetypeTableRecord
  2
ByBlock
 70
     0
  3

 72
    65
 73
     0
 40
0.0
  0
LTYPE
  5
15
330
5
100
AcDbSymbolTableRecord
100
AcDbLinetypeTableRecord
  2
ByLayer
 70
     0
  3

 72
    65
 73
     0
 40
0.0
  0
LTYPE
  5
16
330
5
100
AcDbSymbolTableRecord
100
AcDbLinetypeTableRecord
  2
Continuous
 70
     0
  3
Solid line
 72
    65
 73
     0
 40
0.0
  0
LTYPE
  5
5E
330
5
100
AcDbSymbolTableRecord
100
AcDbLinetypeTableRecord
  2
HIDDEN
 70
     0
  3
Hidden __ __ __ __ __ __ __ __ __ __ __ __ __ __
 72
    65
 73
     2
 40
1.905
 49
1.27
 74
     0
 49
-0.635
 74
     0
  0
LTYPE
  5
5F
330
5
100
AcDbSymbolTableRecord
100
AcDbLinetypeTableRecord
  2
PHANTOM
 70
     0
  3
Phantom ______  __  __  ______  __  __  ______
 72
    65
 73
     6
 40
12.7
 49
6.35
 74
     0
 49
-1.27
 74
     0
 49
1.27
 74
     0
 49
-1.27
 74
     0
 49
1.27
 74
     0
 49
-1.27
 74
     0
  0
LTYPE
  5
60
330
5
100
AcDbSymbolTableRecord
100
AcDbLinetypeTableRecord
  2
CENTER
 70
     0
  3
Center ____ _ ____ _ ____ _ ____ _ ____ _ ____
 72
    65
 73
     4
 40
10.16
 49
6.35
 74
     0
 49
-1.27
 74
     0
 49
1.27
 74
     0
 49
-1.27
 74
     0
  0
LTYPE
  5
61
330
5
100
AcDbSymbolTableRecord
100
AcDbLinetypeTableRecord
  2
CENTERX2
 70
     0
  3
Center (2x) ________  __  ________  __  _____
 72
    65
 73
     4
 40
20.32
 49
12.7
 74
     0
 49
-2.54
 74
     0
 49
2.54
 74
     0
 49
-2.54
 74
     0
  0
LTYPE
  5
62
330
5
100
AcDbSymbolTableRecord
100
AcDbLinetypeTableRecord
  2
DOT2
 70
     0
  3
Dot (.5x) ........................................
 72
    65
 73
     2
 40
0.635
 49
0.0
 74
     0
 49
-0.635
 74
     0
  0
ENDTAB
  0
TABLE
  2
LAYER
  5
2
330
0
100
AcDbSymbolTable
 70
     2
  0
LAYER
  5
10
330
2
100
AcDbSymbolTableRecord
100
AcDbLayerTableRecord
  2
0
 70
     0
 62
     7
  6
Continuous
370
    -3
390
F
  0
LAYER
  5
63
330
2
100
AcDbSymbolTableRecord
100
AcDbLayerTableRecord
  2
FORMAT
 70
     0
 62
     7
  6
Continuous
370
    -3
390
F
  0
ENDTAB
  0
TABLE
  2
STYLE
  5
3
330
0
100
AcDbSymbolTable
 70
     2
  0
STYLE
  5
11
330
3
100
AcDbSymbolTableRecord
100
AcDbTextStyleTableRecord
  2
Standard
 70
     0
 40
0.0
 41
1.0
 50
0.0
 71
     0
 42
17.6388888889
  3
txt
  4
bigfont
  0
STYLE
  5
128
330
3
100
AcDbSymbolTableRecord
100
AcDbTextStyleTableRecord
  2
SLDTEXTSTYLE0
 70
     0
 40
0.0
 41
0.7
 50
0.0
 71
     0
 42
17.6388888889
  3
TXT
  4
bigfont
  0
ENDTAB
  0
TABLE
  2
VIEW
  5
6
330
0
100
AcDbSymbolTable
 70
     0
  0
ENDTAB
  0
TABLE
  2
UCS
  5
7
330
0
100
AcDbSymbolTable
 70
     0
  0
ENDTAB
  0
TABLE
  2
APPID
  5
9
330
0
100
AcDbSymbolTable
 70
     1
  0
APPID
  5
12
330
9
100
AcDbSymbolTableRecord
100
AcDbRegAppTableRecord
  2
ACAD
 70
     0
  0
ENDTAB
  0
TABLE
  2
DIMSTYLE
  5
A
330
0
100
AcDbSymbolTable
 70
     1
100
AcDbDimStyleTable
  0
DIMSTYLE
105
27
330
A
100
AcDbSymbolTableRecord
100
AcDbDimStyleTableRecord
  2
ISO-25
 70
     0
 41
2.5
 42
0.625
 43
3.75
 44
1.25
 73
     0
 74
     0
 77
     1
 78
     8
140
2.5
141
2.5
143
0.0393700787
147
0.625
171
     3
172
     1
178
     0
271
     2
272
     2
274
     3
278
    44
283
     0
284
     8
340
11
  0
ENDTAB
  0
TABLE
  2
BLOCK_RECORD
  5
1
330
0
100
AcDbSymbolTable
 70
     1
  0
BLOCK_RECORD
  5
1F
330
1
100
AcDbSymbolTableRecord
100
AcDbBlockTableRecord
  2
*Model_Space
340
22
  0
BLOCK_RECORD
  5
1B
330
1
100
AcDbSymbolTableRecord
100
AcDbBlockTableRecord
  2
*Paper_Space
340
1E
  0
BLOCK_RECORD
  5
23
330
1
100
AcDbSymbolTableRecord
100
AcDbBlockTableRecord
  2
*Paper_Space0
340
26
  0
ENDTAB
  0
ENDSEC
  0
SECTION
  2
BLOCKS
  0
BLOCK
  5
20
330
1F
100
AcDbEntity
  8
0
100
AcDbBlockBegin
  2
*Model_Space
 70
     0
 10
0.0
 20
0.0
 30
0.0
  3
*Model_Space
  1

  0
ENDBLK
  5
21
330
1F
100
AcDbEntity
  8
0
100
AcDbBlockEnd
  0
BLOCK
  5
1C
330
1B
100
AcDbEntity
 67
     1
  8
0
100
AcDbBlockBegin
  2
*Paper_Space
 70
     0
 10
0.0
 20
0.0
 30
0.0
  3
*Paper_Space
  1

  0
ENDBLK
  5
1D
330
1B
100
AcDbEntity
 67
     1
  8
0
100
AcDbBlockEnd
  0
BLOCK
  5
24
330
23
100
AcDbEntity
  8
0
100
AcDbBlockBegin
  2
*Paper_Space0
 70
     0
 10
0.0
 20
0.0
 30
0.0
  3
*Paper_Space0
  1

  0
ENDBLK
  5
25
330
23
100
AcDbEntity
  8
0
100
AcDbBlockEnd
  0
ENDSEC
  0
SECTION
  2
ENTITIES
  0
LINE
  5
64
330
1F
100
AcDbEntity
  8
0
  6
Continuous
 62
     7
370
    25
100
AcDbLine
 10
597.047689265
 20
707.8742891465
 30
0.0
 11
597.047689265
 21
717.5335474094
 31
0.0
  0
LINE
  5
65
330
1F
100
AcDbEntity
  8
0
  6
Continuous
 62
     7
370
    25
100
AcDbLine
 10
497.047689265
 20
717.5335474094
 30
0.0
 11
497.047689265
 21
707.8742891465
 31
0.0
  0
LINE
  5
66
330
1F
100
AcDbEntity
  8
0
  6
Continuous
 62
     7
370
    25
100
AcDbLine
 10
577.047689265
 20
669.237256095
 30
0.0
 11
577.047689265
 21
697.5215273424
 31
0.0
  0
LINE
  5
67
330
1F
100
AcDbEntity
  8
0
  6
Continuous
 62
     7
370
    25
100
AcDbLine
 10
446.0351185701
 20
916.7547818807
 30
0.0
 11
438.0801672818
 21
895.8742721503
 31
0.0
  0
LINE
  5
68
330
1F
100
AcDbEntity
  8
0
  6
Continuous
 62
     7
370
    25
100
AcDbLine
 10
456.7697816119
 20
888.753997142
 30
0.0
 11
464.7247329002
 21
909.6345068724
 31
0.0
  0
LINE
  5
69
330
1F
100
AcDbEntity
  8
0
  6
Continuous
 62
     7
370
    25
100
AcDbLine
 10
455.0592328327
 20
887.9474065717
 30
0.0
 11
456.6549174458
 21
888.6493349249
 31
0.0
  0
LINE
  5
6A
330
1F
100
AcDbEntity
  8
0
  6
Continuous
 62
     7
370
    25
100
AcDbLine
 10
464.7086255573
 20
909.7890659545
 30
0.0
 11
463.9844798178
 21
911.3747915756
 31
0.0
  0
LINE
  5
6B
330
1F
100
AcDbEntity
  8
0
  6
Continuous
 62
     7
370
    25
100
AcDbLine
 10
447.7456673493
 20
917.561372451
 30
0.0
 11
446.1499827362
 21
916.8594440978
 31
0.0
  0
LINE
  5
6C
330
1F
100
AcDbEntity
  8
0
  6
Continuous
 62
     7
370
    25
100
AcDbLine
 10
438.0962746247
 20
895.7197130683
 30
0.0
 11
438.8204203642
 21
894.1339874472
 31
0.0
  0
LINE
  5
6D
330
1F
100
AcDbEntity
  8
0
  6
Continuous
 62
     7
370
    25
100
AcDbLine
 10
460.2988648849
 20
913.5949350255
 30
0.0
 11
460.9629807962
 21
915.3381359886
 31
0.0
  0
LINE
  5
6E
330
1F
100
AcDbEntity
  8
0
  6
Continuous
 62
     7
370
    25
100
AcDbLine
 10
452.6383559369
 20
918.5096095831
 30
0.0
 11
451.9742400257
 21
916.76640862
 31
0.0
  0
LINE
  5
6F
330
1F
100
AcDbEntity
  8
0
  6
Continuous
 62
     7
370
    25
100
AcDbLine
 10
555.1131039078
 20
1108.8799247991
 30
0.0
 11
451.5153584253
 21
1163.7718211007
 31
0.0
  0
LINE
  5
70
330
1F
100
AcDbEntity
  8
0
  6
Continuous
 62
     7
370
    25
100
AcDbLine
 10
419.8473372854
 20
937.2355693409
 30
0.0
 11
448.1288298419
 21
922.2504482899
 31
0.0
  0
LINE
  5
71
330
1F
100
AcDbEntity
  8
0
  6
Continuous
 62
     7
370
    25
100
AcDbLine
 10
448.3318808342
 20
922.78342556
 30
0.0
 11
447.3609437849
 21
920.2348668358
 31
0.0
  0
LINE
  5
72
330
1F
100
AcDbEntity
  8
0
  6
Continuous
 62
     7
370
    25
100
AcDbLine
 10
425.547945973
 20
957.515537998
 30
0.0
 11
431.67167033
 21
954.2708453571
 31
0.0
  0
LINE
  5
73
330
1F
100
AcDbEntity
  8
0
  6
Continuous
 62
     7
370
    25
100
AcDbLine
 10
423.2747979056
 20
949.5249075623
 30
0.0
 11
449.3006264227
 21
935.7349638384
 31
0.0
  0
LINE
  5
74
330
1F
100
AcDbEntity
  8
0
  6
Continuous
 62
     7
370
    25
100
AcDbLine
 10
614.0405652889
 20
1039.4210718174
 30
0.0
 11
589.1391868314
 21
1052.6152188298
 31
0.0
  0
LINE
  5
75
330
1F
100
AcDbEntity
  8
0
  6
Continuous
 62
     7
370
    25
100
AcDbLine
 10
502.2001680081
 20
881.0080744
 30
0.0
 11
522.8995436078
 21
875.650681773
 31
0.0
  0
LINE
  5
76
330
1F
100
AcDbEntity
  8
0
  6
Continuous
 62
     7
370
    25
100
AcDbLine
 10
510.5560860717
 20
895.6048264846
 30
0.0
 11
511.177808224
 21
896.0377497905
 31
0.0
  0
LINE
  5
77
330
1F
100
AcDbEntity
  8
0
  6
Continuous
 62
     7
370
    25
100
AcDbLine
 10
551.5820174277
 20
868.2271112878
 30
0.0
 11
558.2383804172
 21
866.504317775
 31
0.0
  0
LINE
  5
78
330
1F
100
AcDbEntity
  8
0
  6
Continuous
 62
     7
370
    25
100
AcDbLine
 10
572.047689265
 20
717.5335474094
 30
0.0
 11
572.047689265
 21
867.9192397053
 31
0.0
  0
LINE
  5
79
330
1F
100
AcDbEntity
  8
0
  6
Continuous
 62
     7
370
    25
100
AcDbLine
 10
522.047689265
 20
874.7498613427
 30
0.0
 11
522.047689265
 21
717.5335474094
 31
0.0
  0
LWPOLYLINE
  5
7A
330
1F
100
AcDbEntity
  8
0
  6
Continuous
 62
     7
370
    25
100
AcDbPolyline
 90
       19
 70
   128
 43
0.0
 10
522.047689265
 20
717.5335474094
 10
522.2874284931
 20
716.6396100128
 10
523.3436730752
 20
715.4772856155
 10
525.2071294988
 20
714.3849847473
 10
527.8143399904
 20
713.3999044043
 10
531.0765191237
 20
712.555590316
 10
534.8825773008
 20
711.8807945862
 10
539.1029037755
 20
711.3984965741
 10
543.5937803912
 20
711.1251203599
 10
548.2022757311
 20
711.0699754429
 10
552.7714530138
 20
711.234939717
 10
557.1457143868
 20
711.6143955217
 10
561.1760996256
 20
712.1954209447
 10
564.7253587947
 20
712.9582298621
 10
567.67262613
 20
713.8768457311
 10
569.9175359772
 20
714.91998619
 10
571.383640624
 20
716.0521283416
 10
572.0210136351
 20
717.2347184428
 10
572.047689265
 20
717.5335474094
  0
LWPOLYLINE
  5
7B
330
1F
100
AcDbEntity
  8
0
  6
Continuous
 62
     7
370
    25
100
AcDbPolyline
 90
       26
 70
   128
 43
0.0
 10
497.047689265
 20
707.8742891465
 10
497.3620787703
 20
706.425362207
 10
498.4858819164
 20
704.7928109968
 10
500.4070685965
 20
703.2108575727
 10
503.0940929785
 20
701.7054775661
 10
506.5028341965
 20
700.301389275
 10
510.5773208137
 20
699.0216477905
 10
515.2506498726
 20
697.8872664324
 10
520.4460854392
 20
696.916871711
 10
526.0783186053
 20
696.1263974811
 10
532.0548682578
 20
695.5288233075
 10
538.2775996168
 20
695.1339613417
 10
544.6443356053
 20
694.9482952062
 10
551.0505345945
 20
694.9748735338
 10
557.391006974
 20
695.2132599092
 10
563.5616423628
 20
695.6595400346
 10
569.4611190982
 20
696.3063860027
 10
574.9925679354
 20
697.1431766207
 10
580.0651626374
 20
698.1561718096
 10
584.5956113394
 20
699.3287382166
 10
588.5095241991
 20
700.6416223336
 10
591.7426348754
 20
702.0732666396
 10
594.2418557804
 20
703.6001635749
 10
595.966149776
 20
705.1972415339
 10
596.8872040025
 20
706.8382765406
 10
597.047689265
 20
707.8742891465
  0
LWPOLYLINE
  5
7C
330
1F
100
AcDbEntity
  8
0
  6
Continuous
 62
     7
370
    25
100
AcDbPolyline
 90
       40
 70
   128
 43
0.0
 10
511.6923502057
 20
726.684182504
 10
507.4614766413
 20
725.4388986729
 10
503.8806075938
 20
724.0638091925
 10
501.008540834
 20
722.5814929943
 10
498.8924356185
 20
721.016289669
 10
497.5670383366
 20
719.3938998122
 10
497.054111975
 20
717.7409630203
 10
497.3620787703
 20
716.0846204699
 10
498.4858819164
 20
714.4520692597
 10
500.4070685965
 20
712.8701158356
 10
503.0940929785
 20
711.364735829
 10
506.5028341965
 20
709.9606475379
 10
510.5773208137
 20
708.6809060534
 10
515.2506498726
 20
707.5465246953
 10
520.4460854392
 20
706.5761299739
 10
526.0783186053
 20
705.785655744
 10
532.0548682578
 20
705.1880815704
 10
538.2775996168
 20
704.7932196045
 10
544.6443356053
 20
704.607553469
 10
551.0505345945
 20
704.6341317967
 10
557.391006974
 20
704.8725181721
 10
563.5616423628
 20
705.3187982975
 10
569.4611190982
 20
705.9656442656
 10
574.9925679354
 20
706.8024348836
 10
580.0651626374
 20
707.8154300725
 10
584.5956113394
 20
708.9879964795
 10
588.5095241991
 20
710.3008805964
 10
591.7426348754
 20
711.7325249025
 10
594.2418557804
 20
713.2594218378
 10
595.966149776
 20
714.8564997968
 10
596.8872040025
 20
716.4975348035
 10
596.9898947748
 20
718.1555811087
 10
596.2725359134
 20
719.8034136376
 10
594.746906431
 20
721.4139750259
 10
592.4380571214
 20
722.9608199
 10
589.3838992264
 20
724.4185491098
 10
585.6345819344
 20
725.763226782
 10
581.2516689315
 20
726.9727733465
 10
576.3071275281
 20
728.0273280821
 10
572.047689265
 20
728.7407408115
  0
ARC
  5
7D
330
1F
100
AcDbEntity
  8
0
  6
Continuous
 62
     7
370
    25
100
AcDbCircle
 10
537.4707282845
 20
623.9822046007
 30
0.0
 40
105.8877756949243
100
AcDbArc
 50
98.375186036
 51
104.0902515266
  0
LWPOLYLINE
  5
7E
330
1F
100
AcDbEntity
  8
0
  6
Continuous
 62
     7
370
    25
100
AcDbPolyline
 90
       19
 70
   128
 43
0.0
 10
522.047689265
 20
717.5335474094
 10
522.2874284931
 20
716.6396100128
 10
523.3436730752
 20
715.4772856155
 10
525.2071294988
 20
714.3849847473
 10
527.8143399904
 20
713.3999044043
 10
531.0765191237
 20
712.555590316
 10
534.8825773008
 20
711.8807945862
 10
539.1029037755
 20
711.3984965741
 10
543.5937803912
 20
711.1251203599
 10
548.2022757311
 20
711.0699754429
 10
552.7714530138
 20
711.234939717
 10
557.1457143868
 20
711.6143955217
 10
561.1760996256
 20
712.1954209447
 10
564.7253587947
 20
712.9582298621
 10
567.67262613
 20
713.8768457311
 10
569.9175359772
 20
714.91998619
 10
571.383640624
 20
716.0521283416
 10
572.0210136351
 20
717.2347184428
 10
572.047689265
 20
717.5335474094
  0
LINE
  5
7F
330
1F
100
AcDbEntity
  8
0
  6
Continuous
 62
     7
370
    25
100
AcDbLine
 10
522.5525260046
 20
696.5926671878
 30
0.0
 11
533.1392210383
 21
566.7671738707
 31
0.0
  0
LINE
  5
80
330
1F
100
AcDbEntity
  8
0
  6
Continuous
 62
     7
370
    25
100
AcDbLine
 10
550.816890568
 20
562.1918563234
 30
0.0
 11
539.9818192585
 21
695.0632079017
 31
0.0
  0
LINE
  5
81
330
1F
100
AcDbEntity
  8
0
  6
Continuous
 62
     7
370
    25
100
AcDbLine
 10
533.1392210383
 20
566.7671738707
 30
0.0
 11
550.816890568
 21
562.1918563234
 31
0.0
  0
LINE
  5
82
330
1F
100
AcDbEntity
  8
0
  6
Continuous
 62
     7
370
    25
100
AcDbLine
 10
564.7253587947
 20
546.7923118633
 30
0.0
 11
550.816890568
 21
562.1918563234
 31
0.0
  0
LINE
  5
83
330
1F
100
AcDbEntity
  8
0
  6
Continuous
 62
     7
370
    25
100
AcDbLine
 10
545.4392209744
 20
694.940034714
 30
0.0
 11
555.8865240298
 21
566.8239164466
 31
0.0
  0
LINE
  5
84
330
1F
100
AcDbEntity
  8
0
  6
Continuous
 62
     7
370
    25
100
AcDbLine
 10
555.8865240298
 20
566.8239164466
 30
0.0
 11
564.7253587947
 21
557.0375023917
 31
0.0
  0
LINE
  5
85
330
1F
100
AcDbEntity
  8
0
  6
Continuous
 62
     7
370
    25
100
AcDbLine
 10
564.7253587947
 20
557.0375023917
 30
0.0
 11
570.0286596536
 21
558.4100976559
 31
0.0
  0
LINE
  5
86
330
1F
100
AcDbEntity
  8
0
  6
Continuous
 62
     7
370
    25
100
AcDbLine
 10
570.0286596536
 20
558.4100976559
 30
0.0
 11
578.8674944184
 21
572.7718292581
 31
0.0
  0
LINE
  5
87
330
1F
100
AcDbEntity
  8
0
  6
Continuous
 62
     7
370
    25
100
AcDbLine
 10
578.8674944184
 20
572.7718292581
 30
0.0
 11
588.883804444
 21
700.7874689032
 31
0.0
  0
LINE
  5
88
330
1F
100
AcDbEntity
  8
0
  6
Continuous
 62
     7
370
    25
100
AcDbLine
 10
594.3361150048
 20
703.6705324718
 30
0.0
 11
583.9371278802
 21
570.7640045181
 31
0.0
  0
LINE
  5
89
330
1F
100
AcDbEntity
  8
0
  6
Continuous
 62
     7
370
    25
100
AcDbLine
 10
583.9371278802
 20
570.7640045181
 30
0.0
 11
570.0286596536
 21
548.1649071275
 31
0.0
  0
LINE
  5
8A
330
1F
100
AcDbEntity
  8
0
  6
Continuous
 62
     7
370
    25
100
AcDbLine
 10
570.0286596536
 20
548.1649071275
 30
0.0
 11
570.0286596536
 21
471.4767732898
 31
0.0
  0
LINE
  5
8B
330
1F
100
AcDbEntity
  8
0
  6
Continuous
 62
     7
370
    25
100
AcDbLine
 10
564.7253587947
 20
470.1041780256
 30
0.0
 11
570.0286596536
 21
471.4767732898
 31
0.0
  0
LINE
  5
8C
330
1F
100
AcDbEntity
  8
0
  6
Continuous
 62
     7
370
    25
100
AcDbLine
 10
564.7253587947
 20
470.1041780256
 30
0.0
 11
564.7253587947
 21
546.7923118633
 31
0.0
  0
LWPOLYLINE
  5
8D
330
1F
100
AcDbEntity
  8
0
  6
Continuous
 62
     7
370
    25
100
AcDbPolyline
 90
       11
 70
   128
 43
0.0
 10
548.1678938468
 20
661.4780996505
 10
552.627508366
 20
661.6081696344
 10
557.5605973944
 20
661.9650453428
 10
562.1872161414
 20
662.5339191441
 10
566.3724903048
 20
663.2982073385
 10
569.994411575
 20
664.235629543
 10
572.9473943977
 20
665.3188582055
 10
575.145353984
 20
666.5163152517
 10
576.5242158379
 20
667.7930926434
 10
577.0437836428
 20
669.1119700111
 10
577.047689265
 20
669.237256095
  0
LINE
  5
8E
330
1F
100
AcDbEntity
  8
0
  6
Continuous
 62
     7
370
    25
100
AcDbLine
 10
533.1392210383
 20
566.7671738707
 30
0.0
 11
547.047689265
 21
551.3676294106
 31
0.0
  0
LINE
  5
8F
330
1F
100
AcDbEntity
  8
0
  6
Continuous
 62
     7
370
    25
100
AcDbLine
 10
547.047689265
 20
551.3676294106
 30
0.0
 11
547.047689265
 21
353.9387672868
 31
0.0
  0
LINE
  5
90
330
1F
100
AcDbEntity
  8
0
  6
Continuous
 62
     7
370
    25
100
AcDbLine
 10
547.047689265
 20
353.9387672868
 30
0.0
 11
527.6022527824
 21
469.6466462709
 31
0.0
  0
LINE
  5
91
330
1F
100
AcDbEntity
  8
0
  6
Continuous
 62
     7
370
    25
100
AcDbLine
 10
527.6022527824
 20
469.6466462709
 30
0.0
 11
516.1517000631
 21
697.6995800083
 31
0.0
  0
LINE
  5
92
330
1F
100
AcDbEntity
  8
0
  6
Continuous
 62
     7
370
    25
100
AcDbLine
 10
522.2989519235
 20
471.0192415351
 30
0.0
 11
527.6022527824
 21
469.6466462709
 31
0.0
  0
LINE
  5
93
330
1F
100
AcDbEntity
  8
0
  6
Continuous
 62
     7
370
    25
100
AcDbLine
 10
522.2989519235
 20
471.0192415351
 30
0.0
 11
510.8547493772
 21
698.9457031612
 31
0.0
  0
LINE
  5
94
330
1F
100
AcDbEntity
  8
0
  6
Continuous
 62
     7
370
    25
100
AcDbLine
 10
510.1582506498
 20
572.7150866822
 30
0.0
 11
517.2854166989
 21
570.870440371
 31
0.0
  0
LINE
  5
95
330
1F
100
AcDbEntity
  8
0
  6
Continuous
 62
     7
370
    25
100
AcDbLine
 10
510.1582506498
 20
572.7150866822
 30
0.0
 11
499.460471383
 21
703.9028148901
 31
0.0
  0
LINE
  5
96
330
1F
100
AcDbEntity
  8
0
  6
Continuous
 62
     7
370
    25
100
AcDbLine
 10
554.8955571405
 20
578.9762231737
 30
0.0
 11
578.8674944184
 21
572.7718292581
 31
0.0
  0
LINE
  5
97
330
1F
100
AcDbEntity
  8
0
  6
Continuous
 62
     7
370
    25
100
AcDbLine
 10
575.5154903877
 20
557.0801535879
 30
0.0
 11
571.7964266065
 21
481.0849401392
 31
0.0
  0
LINE
  5
98
330
1F
100
AcDbEntity
  8
0
  6
Continuous
 62
     7
370
    25
100
AcDbLine
 10
571.7964266065
 20
481.0849401392
 30
0.0
 11
552.3509901239
 21
355.311362551
 31
0.0
  0
LINE
  5
99
330
1F
100
AcDbEntity
  8
0
  6
Continuous
 62
     7
370
    25
100
AcDbLine
 10
547.047689265
 20
551.3676294106
 30
0.0
 11
564.7253587947
 21
546.7923118633
 31
0.0
  0
LINE
  5
9A
330
1F
100
AcDbEntity
  8
0
  6
Continuous
 62
     7
370
    25
100
AcDbLine
 10
561.4895837136
 20
560.6201731367
 30
0.0
 11
570.0286596536
 21
558.4100976559
 31
0.0
  0
LINE
  5
9B
330
1F
100
AcDbEntity
  8
0
  6
Continuous
 62
     7
370
    25
100
AcDbLine
 10
547.047689265
 20
353.9387672868
 30
0.0
 11
564.7253587947
 21
470.1041780256
 31
0.0
  0
LINE
  5
9C
330
1F
100
AcDbEntity
  8
0
  6
Continuous
 62
     7
370
    25
100
AcDbLine
 10
517.6068882815
 20
564.4679077328
 30
0.0
 11
510.1582506498
 21
572.7150866822
 31
0.0
  0
LINE
  5
9D
330
1F
100
AcDbEntity
  8
0
  6
Continuous
 62
     7
370
    25
100
AcDbLine
 10
541.7443884061
 20
355.311362551
 30
0.0
 11
547.047689265
 21
353.9387672868
 31
0.0
  0
LINE
  5
9E
330
1F
100
AcDbEntity
  8
0
  6
Continuous
 62
     7
370
    25
100
AcDbLine
 10
541.7443884061
 20
355.311362551
 30
0.0
 11
522.2989519235
 21
471.0192415351
 31
0.0
  0
LINE
  5
9F
330
1F
100
AcDbEntity
  8
0
  6
Continuous
 62
     7
370
    25
100
AcDbLine
 10
547.047689265
 20
353.9387672868
 30
0.0
 11
552.3509901239
 21
355.311362551
 31
0.0
  0
LINE
  5
A0
330
1F
100
AcDbEntity
  8
0
  6
Continuous
 62
     7
370
    25
100
AcDbLine
 10
570.0286596536
 20
471.4767732898
 30
0.0
 11
552.3509901239
 21
355.311362551
 31
0.0
  0
LWPOLYLINE
  5
A1
330
1F
100
AcDbEntity
  8
0
  6
Continuous
 62
     7
370
    25
100
AcDbPolyline
 90
       10
 70
   128
 43
0.0
 10
462.450993547
 20
911.3645173577
 10
460.4393130961
 20
912.352785915
 10
458.0177511706
 20
913.4092568382
 10
455.382488316
 20
914.448341136
 10
452.7470178564
 20
915.3858583785
 10
450.3248499346
 20
916.1458564941
 10
448.3122141904
 20
916.6667649556
 10
446.8721624024
 20
916.9063828572
 10
446.1213590019
 20
916.8452977817
 10
446.0351185701
 20
916.7547818807
  0
ARC
  5
A2
330
1F
100
AcDbEntity
  8
0
  6
Continuous
 62
     7
370
    25
100
AcDbCircle
 10
461.5873845731
 20
907.8702985515
 30
0.0
 40
3.599359043676606
100
AcDbArc
 50
29.3501212603
 51
76.1173490546
  0
LWPOLYLINE
  5
A3
330
1F
100
AcDbEntity
  8
0
  6
Continuous
 62
     7
370
    25
100
AcDbPolyline
 90
        8
 70
   128
 43
0.0
 10
443.8176486165
 20
894.8244111168
 10
446.6526642922
 20
893.854107872
 10
449.5628424114
 20
892.7339320017
 10
452.2649598452
 20
891.5729007899
 10
454.4960422587
 20
890.4840076273
 10
456.0389571892
 20
889.5732253155
 10
456.7435457196
 20
888.929192627
 10
456.6549174458
 20
888.6493349249
  0
LINE
  5
A4
330
1F
100
AcDbEntity
  8
0
  6
Continuous
 62
     7
370
    25
100
AcDbLine
 10
446.9112407842
 20
902.9446093453
 30
0.0
 11
443.8176486165
 21
894.8244111168
 31
0.0
  0
ARC
  5
A5
330
1F
100
AcDbEntity
  8
0
  6
Continuous
 62
     7
370
    25
100
AcDbCircle
 10
436.781689013
 20
872.9166001543
 30
0.0
 40
31.69052153341291
100
AcDbArc
 50
71.3588574491
 51
79.6195051527
  0
LINE
  5
A6
330
1F
100
AcDbEntity
  8
0
  6
Continuous
 62
     7
370
    25
100
AcDbLine
 10
439.3982312341
 20
895.9682405036
 30
0.0
 11
442.4918234018
 21
904.0884387321
 31
0.0
  0
LWPOLYLINE
  5
A7
330
1F
100
AcDbEntity
  8
0
  6
Continuous
 62
     7
370
    25
100
AcDbPolyline
 90
        3
 70
   128
 43
0.0
 10
438.0962746247
 20
895.7197130683
 10
438.3087127118
 20
896.0136814525
 10
439.3982312341
 20
895.9682405036
  0
LWPOLYLINE
  5
A8
330
1F
100
AcDbEntity
  8
0
  6
Continuous
 62
     7
370
    25
100
AcDbPolyline
 90
        9
 70
   128
 43
0.0
 10
454.1976218304
 20
887.9303252611
 10
455.0198916901
 20
887.9326247692
 10
455.1176006704
 20
888.2253560886
 10
454.4819398443
 20
888.7821281052
 10
453.170217044
 20
889.5527451863
 10
451.300690289
 20
890.4677325543
 10
449.0419062657
 20
891.4445997668
 10
446.5975050456
 20
892.3952776209
 10
444.1878609692
 20
893.2340580078
  0
LINE
  5
A9
330
1F
100
AcDbEntity
  8
0
  6
Continuous
 62
     7
370
    25
100
AcDbLine
 10
444.1878609692
 20
893.2340580078
 30
0.0
 11
443.8176486165
 21
894.8244111168
 31
0.0
  0
LINE
  5
AA
330
1F
100
AcDbEntity
  8
0
  6
Continuous
 62
     7
370
    25
100
AcDbLine
 10
454.1976218304
 20
887.9303252611
 30
0.0
 11
444.1878609692
 21
893.2340580078
 31
0.0
  0
ARC
  5
AB
330
1F
100
AcDbEntity
  8
0
  6
Continuous
 62
     7
370
    25
100
AcDbCircle
 10
460.8159263843
 20
908.9388946131
 30
0.0
 40
3.996664218188064
100
AcDbArc
 50
37.5520948871
 51
72.6306482461
  0
ARC
  5
AC
330
1F
100
AcDbEntity
  8
0
  6
Continuous
 62
     7
370
    25
100
AcDbCircle
 10
442.9808274979
 20
879.8656070555
 30
0.0
 40
37.99571591069398
100
AcDbArc
 50
59.9471109403
 51
82.7958749968
  0
LINE
  5
AD
330
1F
100
AcDbEntity
  8
0
  6
Continuous
 62
     7
370
    25
100
AcDbLine
 10
442.4918234018
 20
904.0884387321
 30
0.0
 11
446.5315452122
 21
901.947967531
 31
0.0
  0
LINE
  5
AE
330
1F
100
AcDbEntity
  8
0
  6
Continuous
 62
     7
370
    25
100
AcDbLine
 10
449.778204448
 20
889.0741546479
 30
0.0
 11
451.0323002772
 21
889.8038581756
 31
0.0
  0
LINE
  5
AF
330
1F
100
AcDbEntity
  8
0
  6
Continuous
 62
     7
370
    25
100
AcDbLine
 10
439.7684435867
 20
894.3778873946
 30
0.0
 11
449.778204448
 21
889.0741546479
 31
0.0
  0
LINE
  5
B0
330
1F
100
AcDbEntity
  8
0
  6
Continuous
 62
     7
370
    25
100
AcDbLine
 10
439.3982312341
 20
895.9682405036
 30
0.0
 11
439.7684435867
 21
894.3778873946
 31
0.0
  0
LWPOLYLINE
  5
B1
330
1F
100
AcDbEntity
  8
0
  6
Continuous
 62
     7
370
    25
100
AcDbPolyline
 90
        9
 70
   128
 43
0.0
 10
439.7684435867
 20
894.3778873946
 10
438.946173727
 20
894.3755878865
 10
438.8484647467
 20
894.0828565671
 10
439.4841255729
 20
893.5260845505
 10
440.7958483732
 20
892.7554674694
 10
442.6653751282
 20
891.8404801014
 10
444.9241591515
 20
890.8636128888
 10
447.3685603716
 20
889.9129350348
 10
449.778204448
 20
889.0741546479
  0
SPLINE
  5
B2
330
1F
100
AcDbEntity
  8
0
  6
Continuous
 62
     7
370
    25
100
AcDbSpline
210
0.0
220
0.0
230
1.0
 70
     8
 71
     3
 72
    15
 73
    11
 74
     0
 42
0.00000001
 43
0.00000001
 40
0.0
 40
0.0
 40
0.0
 40
0.0
 40
0.0351191339657687
 40
0.1760269535585411
 40
0.3170753049418385
 40
0.4586683595114371
 40
0.6003423439809327
 40
0.7415087174270016
 40
0.8823719984407827
 40
1.0
 40
1.0
 40
1.0
 40
1.0
 10
464.8255029689811
 20
917.5972352326477
 30
0.0
 10
464.6500041060239
 20
917.6880906768464
 30
0.0
 10
463.7703545614348
 20
918.1434836564148
 30
0.0
 10
461.7648915109718
 20
919.0115133625362
 30
0.0
 10
458.6407316861948
 20
920.1355007804433
 30
0.0
 10
455.3940713819217
 20
921.1544417985806
 30
0.0
 10
452.4116074535352
 20
922.0018040051808
 30
0.0
 10
450.0819662177589
 20
922.595320442339
 30
0.0
 10
448.611947381033
 20
922.9017151726234
 30
0.0
 10
448.4695556491772
 20
922.8005789205939
 30
0.0
 10
448.4047594413901
 20
922.754556265234
 30
0.0
  0
LWPOLYLINE
  5
B3
330
1F
100
AcDbEntity
  8
0
  6
Continuous
 62
     7
370
    25
100
AcDbPolyline
 90
       35
 70
   128
 43
0.0
 10
474.0110895044
 20
912.7301962713
 10
481.0189178489
 20
912.2169561728
 10
488.206902619
 20
912.4745303431
 10
495.5205496137
 20
913.5009660375
 10
502.9044119501
 20
915.2884815489
 10
510.3025104226
 20
917.8235252028
 10
517.6587578971
 20
921.0868780966
 10
524.9173845241
 20
925.0537998041
 10
532.0233605462
 20
929.694215939
 10
538.9228134947
 20
934.9729461585
 10
545.563436612
 20
940.849970875
 10
551.8948854049
 20
947.2807346565
 10
557.8691593205
 20
954.2164840145
 10
563.4409656525
 20
961.6046370179
 10
568.5680629181
 20
969.3891819321
 10
573.2115811034
 20
977.5111018605
 10
577.3363163478
 20
985.9088221681
 10
580.910997835
 20
994.5186772974
 10
583.9085248661
 20
1003.2753934351
 10
586.3061723176
 20
1012.112583372
 10
588.0857629277
 20
1020.9632498034
 10
589.2338051028
 20
1029.7602932557
 10
589.7415952017
 20
1038.4370207865
 10
589.6052835201
 20
1046.9276516033
 10
588.8259034764
 20
1055.1678157671
 10
587.4093637773
 20
1063.0950421991
 10
585.3664036217
 20
1070.6492322925
 10
582.7125112841
 20
1077.7731155374
 10
579.4678066935
 20
1084.4126837051
 10
575.6568888981
 20
1090.5176003001
 10
571.308649573
 20
1096.041582176
 10
566.4560539837
 20
1100.9427504213
 10
561.1358910675
 20
1105.1839478554
 10
555.3884945252
 20
1108.7330207284
 10
555.1131039078
 20
1108.8799247991
  0
LINE
  5
B4
330
1F
100
AcDbEntity
  8
0
  6
Continuous
 62
     7
370
    25
100
AcDbLine
 10
474.0110895044
 20
912.7301962713
 30
0.0
 11
464.825502969
 21
917.5972352326
 31
0.0
  0
ELLIPSE
  5
B5
330
1F
100
AcDbEntity
  8
0
  6
Continuous
 62
     7
370
    25
100
AcDbEllipse
 10
435.6813478553
 20
1050.5036952208
 30
0.0
 11
-15.58277263558142
 21
119.5399327160879
 31
0.0
210
0.0
220
0.0
230
1.0
 40
0.6228902129
 41
0.0
 42
6.283185307179586
  0
ELLIPSE
  5
B6
330
1F
100
AcDbEntity
  8
0
  6
Continuous
 62
     7
370
    25
100
AcDbEllipse
 10
435.7083927092
 20
1051.5686314679
 30
0.0
 11
-15.11074200741001
 21
115.9375649594251
 31
0.0
210
0.0
220
0.0
230
1.0
 40
0.6228665619
 41
0.0
 42
6.283185307179586
  0
ARC
  5
B7
330
1F
100
AcDbEntity
  8
0
  6
Continuous
 62
     7
370
    25
100
AcDbCircle
 10
478.0405614066
 20
978.8464556266
 30
0.0
 40
59.20746309300666
100
AcDbArc
 50
212.6196900866
 51
226.5372498462
  0
LWPOLYLINE
  5
B8
330
1F
100
AcDbEntity
  8
0
  6
Continuous
 62
     7
370
    25
100
AcDbPolyline
 90
        3
 70
   128
 43
0.0
 10
435.4580717566
 20
943.0695257224
 10
438.3838093611
 20
938.8557148683
 10
441.209987718
 20
935.3987167379
  0
LWPOLYLINE
  5
B9
330
1F
100
AcDbEntity
  8
0
  6
Continuous
 62
     7
370
    25
100
AcDbPolyline
 90
       12
 70
   128
 43
0.0
 10
449.634683138
 20
918.5048563506
 10
448.195858548
 20
919.344858901
 10
447.4464548301
 20
919.9685434336
 10
447.4471842166
 20
920.3253827367
 10
448.1979876171
 20
920.3864678123
 10
449.6380394052
 20
920.1468499106
 10
451.6506751493
 20
919.6259414492
 10
454.0728430711
 20
918.8659433335
 10
456.7083135307
 20
917.9284260911
 10
459.3435763853
 20
916.8893417932
 10
461.7651383109
 20
915.8328708701
 10
463.7768187618
 20
914.8446023127
  0
LINE
  5
BA
330
1F
100
AcDbEntity
  8
0
  6
Continuous
 62
     7
370
    25
100
AcDbLine
 10
464.825502969
 20
917.5972352326
 30
0.0
 11
463.7768187618
 21
914.8446023127
 31
0.0
  0
LINE
  5
BB
330
1F
100
AcDbEntity
  8
0
  6
Continuous
 62
     7
370
    25
100
AcDbLine
 10
463.7768187618
 20
914.8446023127
 30
0.0
 11
472.9624052972
 21
909.9775633514
 31
0.0
  0
LINE
  5
BC
330
1F
100
AcDbEntity
  8
0
  6
Continuous
 62
     7
370
    25
100
AcDbLine
 10
452.1323593973
 20
917.181447375
 30
0.0
 11
449.634683138
 21
918.5048563506
 31
0.0
  0
LWPOLYLINE
  5
BD
330
1F
100
AcDbEntity
  8
0
  6
Continuous
 62
     7
370
    25
100
AcDbPolyline
 90
       13
 70
   128
 43
0.0
 10
460.7731459629
 20
914.8398490802
 10
460.8875329983
 20
914.8256971269
 10
461.3708144594
 20
914.8805096343
 10
461.14388229
 20
915.2084758259
 10
460.2412848558
 20
915.7596658222
 10
458.8004344342
 20
916.4501659427
 10
457.0406874404
 20
917.1748538035
 10
455.2299494022
 20
917.8234022471
 10
453.6438887714
 20
918.2970756521
 10
452.5239689015
 20
918.5237615364
 10
452.0406874404
 20
918.468949029
 10
452.2676196098
 20
918.1409828374
 10
452.4485211036
 20
918.0113226747
  0
LINE
  5
BE
330
1F
100
AcDbEntity
  8
0
  6
Continuous
 62
     7
370
    25
100
AcDbLine
 10
472.9624052972
 20
909.9775633514
 30
0.0
 11
461.7855341316
 21
912.8703504737
 31
0.0
  0
LINE
  5
BF
330
1F
100
AcDbEntity
  8
0
  6
Continuous
 62
     7
370
    25
100
AcDbLine
 10
474.0110895044
 20
912.7301962713
 30
0.0
 11
472.9624052972
 21
909.9775633514
 31
0.0
  0
LINE
  5
C0
330
1F
100
AcDbEntity
  8
0
  6
Continuous
 62
     7
370
    25
100
AcDbLine
 10
431.67167033
 20
954.2708453571
 30
0.0
 11
432.575547406
 21
953.8045214896
 31
0.0
  0
LWPOLYLINE
  5
C1
330
1F
100
AcDbEntity
  8
0
  6
Continuous
 62
     7
370
    25
100
AcDbPolyline
 90
       42
 70
   128
 43
0.0
 10
488.9583888034
 20
1120.9572186893
 10
486.4603814626
 20
1121.0282595787
 10
479.906835414
 20
1120.6800898864
 10
473.2399604741
 20
1119.569477791
 10
466.5201328947
 20
1117.7064811676
 10
459.8082084749
 20
1115.107971602
 10
453.1649714417
 20
1111.7974815992
 10
446.6505839783
 20
1107.8049914695
 10
440.3240413864
 20
1103.1666578215
 10
434.2426378155
 20
1097.9244861233
 10
428.4614473979
 20
1092.1259502933
 10
423.0328254894
 20
1085.82356277
 10
418.0059345305
 20
1079.0743989507
 10
413.4262988243
 20
1071.9395803082
 10
409.3353922609
 20
1064.483720865
 10
405.7702627235
 20
1056.7743420386
 10
402.7631965774
 20
1048.8812611576
 10
400.3414262793
 20
1040.8759591847
 10
398.5268837559
 20
1032.8309333743
 10
397.3360017854
 20
1024.8190407258
 10
396.7795651793
 20
1016.9128381798
 10
396.8626131136
 20
1009.1839255309
 10
397.5843934935
 20
1001.7022970088
 10
398.938369764
 20
994.5357074
 10
400.9122801064
 20
987.7490584497
 10
403.4882484828
 20
981.4038111018
 10
406.6429465249
 20
975.5574288989
 10
410.3478047986
 20
970.2628575835
 10
414.5692715337
 20
965.5680456134
 10
419.2691164737
 20
961.5155099327
 10
424.404777095
 20
958.1419509322
 10
429.9297440599
 20
955.4779200845
 10
435.7939824118
 20
953.5475432655
 10
441.9443847002
 20
952.3683022667
 10
448.3252519296
 20
951.9508764771
 10
454.8787979782
 20
952.2990461693
 10
461.5456729181
 20
953.4096582647
 10
468.2655004975
 20
955.2726548882
 10
474.9774249173
 20
957.8711644538
 10
481.6206619505
 20
961.1816544566
 10
488.1350494139
 20
965.1741445863
 10
494.10006761
 20
969.5259451862
  0
LWPOLYLINE
  5
C2
330
1F
100
AcDbEntity
  8
0
  6
Continuous
 62
     7
370
    25
100
AcDbPolyline
 90
       42
 70
   128
 43
0.0
 10
491.6996122994
 20
1100.2911255374
 10
486.3010710588
 20
1101.2774848897
 10
480.6808478238
 20
1101.5042651529
 10
474.9048345732
 20
1100.9688075359
 10
469.0407497813
 20
1099.6773897896
 10
463.1573444806
 20
1097.6451526062
 10
457.3235962192
 20
1094.8959221088
 10
451.6079003615
 20
1091.4619305112
 10
446.0772682155
 20
1087.3834382252
 10
440.7965413865
 20
1082.7082618439
 10
435.8276315683
 20
1077.4912135357
 10
431.2287946853
 20
1071.7934584221
 10
427.0539478954
 20
1065.6817974723
 10
423.35203746
 20
1059.227884323
 10
420.1664648942
 20
1052.5073852049
 10
417.5345781239
 20
1045.5990918257
 10
415.487233615
 20
1038.5839976088
 10
414.04843461
 20
1031.5443481201
 10
413.2350497117
 20
1024.5626768133
 10
413.0566151144
 20
1017.7208374012
 10
413.5152228005
 20
1011.0990441953
 10
414.6054960144
 20
1004.7749316665
 10
416.3146522993
 20
998.8226442521
 10
418.6226533606
 20
993.3119670797
 10
421.502439996
 20
988.3075078008
 10
424.9202493402
 20
983.8679391248
 10
428.8360107037
 20
980.0453109353
 10
433.2038153646
 20
976.8844400527
 10
437.9724548068
 20
974.4223847981
 10
443.0860210928
 20
972.6880105184
 10
448.4845623334
 20
971.7016511661
 10
454.1047855684
 20
971.4748709028
 10
459.880798819
 20
972.0103285199
 10
465.7448836109
 20
973.3017462662
 10
471.6282889116
 20
975.3339834496
 10
477.462037173
 20
978.083213947
 10
483.1777330307
 20
981.5172055446
 10
488.7083651767
 20
985.5956978305
 10
493.9890920057
 20
990.2708742119
 10
498.9580018239
 20
995.4879225201
 10
503.5568387069
 20
1001.1856776337
 10
506.5715772877
 20
1005.4924985369
  0
LWPOLYLINE
  5
C3
330
1F
100
AcDbEntity
  8
0
  6
Continuous
 62
     7
370
    25
100
AcDbPolyline
 90
        3
 70
   128
 43
0.0
 10
499.5811787908
 20
1097.2388218971
 10
496.8131785854
 20
1098.5567512576
 10
491.6996122994
 20
1100.2911255374
  0
LWPOLYLINE
  5
C4
330
1F
100
AcDbEntity
  8
0
  6
Continuous
 62
     7
370
    25
100
AcDbPolyline
 90
       42
 70
   128
 43
0.0
 10
491.6996122994
 20
1100.2911255374
 10
486.3010710588
 20
1101.2774848897
 10
480.6808478238
 20
1101.5042651529
 10
474.9048345732
 20
1100.9688075359
 10
469.0407497813
 20
1099.6773897896
 10
463.1573444806
 20
1097.6451526062
 10
457.3235962192
 20
1094.8959221088
 10
451.6079003615
 20
1091.4619305112
 10
446.0772682155
 20
1087.3834382252
 10
440.7965413865
 20
1082.7082618439
 10
435.8276315683
 20
1077.4912135357
 10
431.2287946853
 20
1071.7934584221
 10
427.0539478954
 20
1065.6817974723
 10
423.35203746
 20
1059.227884323
 10
420.1664648942
 20
1052.5073852049
 10
417.5345781239
 20
1045.5990918257
 10
415.487233615
 20
1038.5839976088
 10
414.04843461
 20
1031.5443481201
 10
413.2350497117
 20
1024.5626768133
 10
413.0566151144
 20
1017.7208374012
 10
413.5152228005
 20
1011.0990441953
 10
414.6054960144
 20
1004.7749316665
 10
416.3146522993
 20
998.8226442521
 10
418.6226533606
 20
993.3119670797
 10
421.502439996
 20
988.3075078008
 10
424.9202493402
 20
983.8679391248
 10
428.8360107037
 20
980.0453109353
 10
433.2038153646
 20
976.8844400527
 10
437.9724548068
 20
974.4223847981
 10
443.0860210928
 20
972.6880105184
 10
448.4845623334
 20
971.7016511661
 10
454.1047855684
 20
971.4748709028
 10
459.880798819
 20
972.0103285199
 10
465.7448836109
 20
973.3017462662
 10
471.6282889116
 20
975.3339834496
 10
477.462037173
 20
978.083213947
 10
483.1777330307
 20
981.5172055446
 10
488.7083651767
 20
985.5956978305
 10
493.9890920057
 20
990.2708742119
 10
498.9580018239
 20
995.4879225201
 10
503.5568387069
 20
1001.1856776337
 10
506.5715772877
 20
1005.4924985369
  0
LWPOLYLINE
  5
C5
330
1F
100
AcDbEntity
  8
0
  6
Continuous
 62
     7
370
    25
100
AcDbPolyline
 90
        3
 70
   128
 43
0.0
 10
499.5811787908
 20
1097.2388218971
 10
496.8131785854
 20
1098.5567512576
 10
491.6996122994
 20
1100.2911255374
  0
LWPOLYLINE
  5
C6
330
1F
100
AcDbEntity
  8
0
  6
Continuous
 62
     7
370
    25
100
AcDbPolyline
 90
       10
 70
   128
 43
0.0
 10
433.8052445897
 20
948.3274158329
 10
440.1466636042
 20
947.099303264
 10
446.7205371902
 20
946.6338369159
 10
453.4707793761
 20
946.9349879835
 10
460.3397994756
 20
948.0001871519
 10
467.2689934312
 20
949.8203465175
 10
474.1992438032
 20
952.3799371223
 10
481.0714241391
 20
955.6571214417
 10
487.8269034191
 20
959.6239396947
 10
487.8349777172
 20
959.6291404934
  0
LWPOLYLINE
  5
C7
330
1F
100
AcDbEntity
  8
0
  6
Continuous
 62
     7
370
    25
100
AcDbPolyline
 90
       33
 70
   128
 43
0.0
 10
485.8610162667
 20
1126.3308491099
 10
481.3148540161
 20
1126.0441480723
 10
474.4458339166
 20
1124.9789489039
 10
467.516639961
 20
1123.1587895383
 10
460.586389589
 20
1120.5991989335
 10
453.7142092531
 20
1117.3220146141
 10
446.958729973
 20
1113.355196361
 10
440.377587116
 20
1108.7325876691
 10
434.0269286725
 20
1103.4936270058
 10
427.9609362211
 20
1097.6830113363
 10
422.2313626706
 20
1091.3503147846
 10
416.8870907224
 20
1084.549565685
 10
411.9737158204
 20
1077.3387856309
 10
407.5331571468
 20
1069.7794944551
 10
403.6032999826
 20
1061.9361853648
 10
400.2176724834
 20
1053.8757747077
 10
397.4051596293
 20
1045.6670310653
 10
395.1897567884
 20
1037.3799885441
 10
393.5903649966
 20
1029.0853492691
 10
392.6206297006
 20
1020.8538801779
 10
392.2888243402
 20
1012.7558092624
 10
392.5977797616
 20
1004.8602264084
 10
393.5448600661
 20
997.234493945
 10
395.1219850986
 20
989.9436719326
 10
397.3156993843
 20
983.0499630941
 10
400.1072869263
 20
976.6121821227
 10
403.4729308842
 20
970.6852538956
 10
407.3839167703
 20
965.3197448747
 10
411.806877432
 20
960.5614316912
 10
416.7040777285
 20
956.4509105955
 10
422.0337364735
 20
953.0232511041
 10
427.7503828978
 20
950.3076967993
 10
433.8052445897
 20
948.3274158329
  0
LWPOLYLINE
  5
C8
330
1F
100
AcDbEntity
  8
0
  6
Continuous
 62
     7
370
    25
100
AcDbPolyline
 90
       33
 70
   128
 43
0.0
 10
434.4522922025
 20
945.196186036
 10
428.3257987371
 20
947.1936859729
 10
422.5357126633
 20
949.9243980748
 10
417.1300124579
 20
953.3656948012
 10
412.1534914551
 20
957.4890604837
 10
407.6473866754
 20
962.2603276156
 10
403.649037122
 20
967.6399599748
 10
400.1915743785
 20
973.5833802334
 10
397.3036480703
 20
980.0413393392
 10
395.009188464
 20
986.9603246093
 10
393.3272081748
 20
994.2830031527
 10
392.2716446208
 20
1001.9486969488
 10
391.8512445343
 20
1009.8938856445
 10
392.0694914827
 20
1018.0527329042
 10
392.9245770031
 20
1026.3576319499
 10
394.4094155875
 20
1034.7397657725
 10
396.5117033958
 20
1043.1296773715
 10
399.2140202092
 20
1051.4578452969
 10
402.4939737794
 20
1059.6552597266
 10
406.3243853782
 20
1067.6539943028
 10
410.6735150088
 20
1075.3877689918
 10
415.5053244134
 20
1082.7924993009
 10
420.7797756974
 20
1089.8068273027
 10
426.4531630964
 20
1096.3726300663
 10
432.4784751358
 20
1102.4355012821
 10
438.8057841822
 20
1107.9452020899
 10
445.3826601604
 20
1112.8560773736
 10
452.1546050046
 20
1117.127434074
 10
459.065504247
 20
1120.7238783842
 10
466.0580920002
 20
1123.615609034
 10
473.0744254797
 20
1125.7786642325
 10
480.0563651366
 20
1127.1951202232
 10
484.9913123802
 20
1127.7430938185
  0
ARC
  5
C9
330
1F
100
AcDbEntity
  8
0
  6
Continuous
 62
     7
370
    25
100
AcDbCircle
 10
449.1551459116
 20
1009.8688635713
 30
0.0
 40
66.32291554796254
100
AcDbArc
 50
257.191928012
 51
298.9978299791
  0
LINE
  5
CA
330
1F
100
AcDbEntity
  8
0
  6
Continuous
 62
     7
370
    25
100
AcDbLine
 10
449.3006264227
 20
935.7349638384
 30
0.0
 11
449.742187461
 21
935.5037741068
 31
0.0
  0
LWPOLYLINE
  5
CB
330
1F
100
AcDbEntity
  8
0
  6
Continuous
 62
     7
370
    25
100
AcDbPolyline
 90
       42
 70
   128
 43
0.0
 10
488.6206986233
 20
1121.5709617667
 10
486.5937210764
 20
1121.6194392399
 10
479.9943460344
 20
1121.2688347945
 10
473.2808495914
 20
1120.150456181
 10
466.5140302108
 20
1118.2744316091
 10
459.7551692566
 20
1115.6577506479
 10
453.0654760203
 20
1112.3241103655
 10
446.5055333999
 20
1108.3037007243
 10
440.1347492514
 20
1103.6329311767
 10
434.0108183828
 20
1098.3541009351
 10
428.1892000602
 20
1092.5150159035
 10
422.7226157607
 20
1086.1685557402
 10
417.6605717182
 20
1079.3721949712
 10
413.0489105874
 20
1072.187482492
 10
408.9293962858
 20
1064.6794841715
 10
405.3393357726
 20
1056.9161936051
 10
402.311241192
 20
1048.9679163543
 10
399.8725354372
 20
1040.9066332488
 10
398.0453038053
 20
1032.8053485166
 10
396.8460939888
 20
1024.7374286468
 10
396.2857662176
 20
1016.7759379711
 10
396.3693949068
 20
1008.992976982
 10
397.0962227019
 20
1001.4590293793
 10
398.4596673379
 20
994.2423237592
 10
400.4473812491
 20
987.4082157254
 10
403.0413633904
 20
981.0185960184
 10
406.218122258
 20
975.1313300239
 10
409.9488886315
 20
969.7997337343
 10
414.199876113
 20
965.0720909112
 10
418.9325871015
 20
960.9912158202
 10
424.1041614335
 20
957.5940654979
 10
429.667764531
 20
954.9114050639
 10
435.5730115427
 20
952.9675291063
 10
441.7664236373
 20
951.780041667
 10
448.1919123158
 20
951.3596968159
 10
454.7912873578
 20
951.7103012612
 10
461.5047838008
 20
952.8286798748
 10
468.2716031814
 20
954.7047044467
 10
475.0304641356
 20
957.3213854079
 10
481.7201573719
 20
960.6550256903
 10
488.2800999923
 20
964.6754353315
 10
493.4981284259
 20
968.4418293579
  0
LWPOLYLINE
  5
CC
330
1F
100
AcDbEntity
  8
0
  6
Continuous
 62
     7
370
    25
100
AcDbPolyline
 90
        3
 70
   128
 43
0.0
 10
424.898043893
 20
957.8665385227
 10
425.0563114585
 20
957.7465231793
 10
428.3773219506
 20
955.4544193289
  0
ARC
  5
CD
330
1F
100
AcDbEntity
  8
0
  6
Continuous
 62
     7
370
    25
100
AcDbCircle
 10
497.7840675733
 20
1020.1958942871
 30
0.0
 40
91.59995333266009
100
AcDbArc
 50
304.038060188
 51
4.8766765485
  0
LWPOLYLINE
  5
CE
330
1F
100
AcDbEntity
  8
0
  6
Continuous
 62
     7
370
    25
100
AcDbPolyline
 90
       19
 70
   128
 43
0.0
 10
612.1910728329
 20
932.6240176632
 10
616.9923679337
 20
938.3351774532
 10
621.3792152322
 20
944.4815233416
 10
625.3015434907
 20
950.9929012687
 10
628.7145834665
 20
957.7949907192
 10
631.579378906
 20
964.810153012
 10
633.863231189
 20
971.9583174642
 10
635.5400725491
 20
979.1578953133
 10
636.5907636097
 20
986.3267109671
 10
637.0033118398
 20
993.3829399516
 10
636.7730084363
 20
1000.2460428509
 10
635.9024820698
 20
1006.8376845796
 10
634.4016688811
 20
1013.0826284956
 10
632.2876990708
 20
1018.9095951469
 10
629.5847013759
 20
1024.2520758512
 10
626.323527666
 20
1029.0490918228
 10
622.5414008013
 20
1033.2458901809
 10
618.2814897734
 20
1036.7945688959
 10
614.0405652889
 20
1039.4210718174
  0
LINE
  5
CF
330
1F
100
AcDbEntity
  8
0
  6
Continuous
 62
     7
370
    25
100
AcDbLine
 10
612.1910728329
 20
932.6240176632
 30
0.0
 11
595.3508308513
 21
941.5469224257
 31
0.0
  0
SPLINE
  5
D0
330
1F
100
AcDbEntity
  8
0
  6
Continuous
 62
     7
370
    25
100
AcDbSpline
210
0.0
220
0.0
230
1.0
 70
     8
 71
     3
 72
    17
 73
    13
 74
     0
 42
0.00000001
 43
0.00000001
 40
0.0
 40
0.0
 40
0.0
 40
0.0
 40
0.0912791070166746
 40
0.1825552950669028
 40
0.2738511596271491
 40
0.3651488648338697
 40
0.4560064988943585
 40
0.5468962488249675
 40
0.6410250278034485
 40
0.7352163171243107
 40
0.869511142552378
 40
0.9999999999999999
 40
0.9999999999999999
 40
0.9999999999999999
 40
0.9999999999999999
 10
595.3508308512742
 20
941.546922425692
 30
0.0
 10
594.0135243970782
 20
942.1451924299001
 30
0.0
 10
591.3389542537044
 20
943.3417133065553
 30
0.0
 10
586.5687778124411
 20
944.1613593569217
 30
0.0
 10
581.3645141319843
 20
944.2389153860797
 30
0.0
 10
575.7957498858158
 20
943.6175433289299
 30
0.0
 10
569.985992526877
 20
942.4040706598715
 30
0.0
 10
563.9934100907938
 20
940.7744463983425
 30
0.0
 10
557.912035546797
 20
938.8903232668124
 30
0.0
 10
550.9899596281808
 20
936.6845006242058
 30
0.0
 10
543.4811182119405
 20
934.4045361662813
 30
0.0
 10
538.2680592835325
 20
933.286967616807
 30
0.0
 10
535.6989957521726
 20
932.7362152382748
 30
0.0
  0
LINE
  5
D1
330
1F
100
AcDbEntity
  8
0
  6
Continuous
 62
     7
370
    25
100
AcDbLine
 10
611.1439672493
 20
932.0651504553
 30
0.0
 11
612.1910728329
 21
932.6240176632
 31
0.0
  0
LINE
  5
D2
330
1F
100
AcDbEntity
  8
0
  6
Continuous
 62
     7
370
    25
100
AcDbLine
 10
587.9434909273
 20
938.0698755829
 30
0.0
 11
611.1439672493
 21
932.0651504553
 31
0.0
  0
LWPOLYLINE
  5
D3
330
1F
100
AcDbEntity
  8
0
  6
Continuous
 62
     7
370
    25
100
AcDbPolyline
 90
       12
 70
   128
 43
0.0
 10
522.8995436078
 20
875.7437078065
 10
521.6675886795
 20
876.2451905286
 10
518.1298111404
 20
878.3009916199
 10
514.9487029347
 20
881.1247506713
 10
512.1928470765
 20
884.655588928
 10
509.9216583636
 20
888.8173833805
 10
508.1841024263
 20
893.5204079367
 10
507.0176400535
 20
898.6632678691
 10
506.4474195584
 20
904.1350858315
 10
506.485734594
 20
909.8178923164
 10
507.1317591084
 20
915.589169015
 10
507.3276610344
 20
916.7147406932
  0
ARC
  5
D4
330
1F
100
AcDbEntity
  8
0
  6
Continuous
 62
     7
370
    25
100
AcDbCircle
 10
563.0993807269
 20
906.5084944377
 30
0.0
 40
55.84166794161495
100
AcDbArc
 50
169.1188062906
 51
172.8726905334
  0
ARC
  5
D5
330
1F
100
AcDbEntity
  8
0
  6
Continuous
 62
     7
370
    25
100
AcDbCircle
 10
560.6329583058
 20
906.78469067
 30
0.0
 40
53.3600444591465
100
AcDbArc
 50
172.8383754127
 51
179.9516786446
  0
ARC
  5
D6
330
1F
100
AcDbEntity
  8
0
  6
Continuous
 62
     7
370
    25
100
AcDbCircle
 10
555.6055802685
 20
906.7679115028
 30
0.0
 40
48.33268693123556
100
AcDbArc
 50
179.9267616592
 51
187.5255690318
  0
ARC
  5
D7
330
1F
100
AcDbEntity
  8
0
  6
Continuous
 62
     7
370
    25
100
AcDbCircle
 10
549.258801462
 20
905.909122946
 30
0.0
 40
41.9281065093265
100
AcDbArc
 50
187.4980164848
 51
195.8528896238
  0
ARC
  5
D8
330
1F
100
AcDbEntity
  8
0
  6
Continuous
 62
     7
370
    25
100
AcDbCircle
 10
542.6912965163
 20
904.0258524834
 30
0.0
 40
35.09594298345003
100
AcDbArc
 50
195.8241435635
 51
205.2320002671
  0
ARC
  5
D9
330
1F
100
AcDbEntity
  8
0
  6
Continuous
 62
     7
370
    25
100
AcDbCircle
 10
536.9488424031
 20
901.3064973054
 30
0.0
 40
28.74216484788528
100
AcDbArc
 50
205.2081199762
 51
215.9574604804
  0
ARC
  5
DA
330
1F
100
AcDbEntity
  8
0
  6
Continuous
 62
     7
370
    25
100
AcDbCircle
 10
532.7657972815
 20
898.2694517287
 30
0.0
 40
23.5728799063047
100
AcDbArc
 50
215.9522901202
 51
228.2227650102
  0
ARC
  5
DB
330
1F
100
AcDbEntity
  8
0
  6
Continuous
 62
     7
370
    25
100
AcDbCircle
 10
530.3927689154
 20
895.6305923404
 30
0.0
 40
20.02398075704994
100
AcDbArc
 50
228.2558431504
 51
241.9385627831
  0
ARC
  5
DC
330
1F
100
AcDbEntity
  8
0
  6
Continuous
 62
     7
370
    25
100
AcDbCircle
 10
506.8764127046
 20
899.0756480925
 30
0.0
 40
18.662917338863
100
AcDbArc
 50
253.9706797349
 51
255.4891440723
  0
LINE
  5
DD
330
1F
100
AcDbEntity
  8
0
  6
Continuous
 62
     7
370
    25
100
AcDbLine
 10
502.9604725565
 20
880.8180631074
 30
0.0
 11
501.7230356895
 21
881.1383353357
 31
0.0
  0
ARC
  5
DE
330
1F
100
AcDbEntity
  8
0
  6
Continuous
 62
     7
370
    25
100
AcDbCircle
 10
508.1727686528
 20
898.9384924897
 30
0.0
 40
18.85518474040647
100
AcDbArc
 50
244.6176142226
 51
253.9522514146
  0
LINE
  5
DF
330
1F
100
AcDbEntity
  8
0
  6
Continuous
 62
     7
370
    25
100
AcDbLine
 10
500.0903541059
 20
881.9034531094
 30
0.0
 11
498.3225871529
 21
882.3609848642
 31
0.0
  0
ARC
  5
E0
330
1F
100
AcDbEntity
  8
0
  6
Continuous
 62
     7
370
    25
100
AcDbCircle
 10
506.6771089058
 20
899.9787682622
 30
0.0
 40
19.49831596781549
100
AcDbArc
 50
239.5364521223
 51
244.6292437003
  0
LINE
  5
E1
330
1F
100
AcDbEntity
  8
0
  6
Continuous
 62
     7
370
    25
100
AcDbLine
 10
498.5594230166
 20
882.7146262697
 30
0.0
 11
496.7916560637
 21
883.1721580244
 31
0.0
  0
ARC
  5
E2
330
1F
100
AcDbEntity
  8
0
  6
Continuous
 62
     7
370
    25
100
AcDbCircle
 10
509.0419421454
 20
900.5034270106
 30
0.0
 40
20.64763035040191
100
AcDbArc
 50
230.704244038
 51
239.4901618955
  0
LINE
  5
E3
330
1F
100
AcDbEntity
  8
0
  6
Continuous
 62
     7
370
    25
100
AcDbLine
 10
495.9653115792
 20
884.5244917482
 30
0.0
 11
494.7278747121
 21
884.8447639765
 31
0.0
  0
ARC
  5
E4
330
1F
100
AcDbEntity
  8
0
  6
Continuous
 62
     7
370
    25
100
AcDbCircle
 10
508.8057140965
 20
902.0725444283
 30
0.0
 40
22.2481905112944
100
AcDbArc
 50
226.081799983
 51
230.7457075592
  0
LINE
  5
E5
330
1F
100
AcDbEntity
  8
0
  6
Continuous
 62
     7
370
    25
100
AcDbLine
 10
494.6111235282
 20
885.7262149724
 30
0.0
 11
493.3736866611
 21
886.0464872008
 31
0.0
  0
ARC
  5
E6
330
1F
100
AcDbEntity
  8
0
  6
Continuous
 62
     7
370
    25
100
AcDbCircle
 10
511.4973629525
 20
903.2283333914
 30
0.0
 40
24.32014044053711
100
AcDbArc
 50
218.1490248919
 51
226.0260302384
  0
LINE
  5
E7
330
1F
100
AcDbEntity
  8
0
  6
Continuous
 62
     7
370
    25
100
AcDbLine
 10
492.3718398673
 20
888.2055640807
 30
0.0
 11
491.1344030002
 21
888.525836309
 31
0.0
  0
ARC
  5
E8
330
1F
100
AcDbEntity
  8
0
  6
Continuous
 62
     7
370
    25
100
AcDbCircle
 10
512.1962653186
 20
905.1018863199
 30
0.0
 40
26.80237822062904
100
AcDbArc
 50
214.0840784993
 51
218.203357669
  0
LINE
  5
E9
330
1F
100
AcDbEntity
  8
0
  6
Continuous
 62
     7
370
    25
100
AcDbLine
 10
491.2355411731
 20
889.7613236169
 30
0.0
 11
489.998104306
 21
890.0815958453
 31
0.0
  0
ARC
  5
EA
330
1F
100
AcDbEntity
  8
0
  6
Continuous
 62
     7
370
    25
100
AcDbCircle
 10
515.8216718675
 20
906.365048979
 30
0.0
 40
29.66751621591635
100
AcDbArc
 50
207.1332851752
 51
214.0322952814
  0
LINE
  5
EB
330
1F
100
AcDbEntity
  8
0
  6
Continuous
 62
     7
370
    25
100
AcDbLine
 10
489.4191247896
 20
892.8348225869
 30
0.0
 11
487.6513578367
 21
893.2923543416
 31
0.0
  0
ARC
  5
EC
330
1F
100
AcDbEntity
  8
0
  6
Continuous
 62
     7
370
    25
100
AcDbCircle
 10
516.8646692696
 20
908.2968721375
 30
0.0
 40
32.84133248152983
100
AcDbArc
 50
203.5885720733
 51
207.1859029182
  0
LINE
  5
ED
330
1F
100
AcDbEntity
  8
0
  6
Continuous
 62
     7
370
    25
100
AcDbLine
 10
488.5352413131
 20
894.6973474688
 30
0.0
 11
486.7674743602
 21
895.1548792236
 31
0.0
  0
ARC
  5
EE
330
1F
100
AcDbEntity
  8
0
  6
Continuous
 62
     7
370
    25
100
AcDbCircle
 10
521.7559371696
 20
909.1743123956
 30
0.0
 40
36.23806212642901
100
AcDbArc
 50
197.5094620423
 51
203.5466817884
  0
LINE
  5
EF
330
1F
100
AcDbEntity
  8
0
  6
Continuous
 62
     7
370
    25
100
AcDbLine
 10
487.1968830998
 20
898.2716095895
 30
0.0
 11
485.9594462327
 21
898.5918818178
 31
0.0
  0
ARC
  5
F0
330
1F
100
AcDbEntity
  8
0
  6
Continuous
 62
     7
370
    25
100
AcDbCircle
 10
523.8785961183
 20
910.586445278
 30
0.0
 40
39.7709879264376
100
AcDbArc
 50
194.3869451436
 51
197.5531744227
  0
LINE
  5
F1
330
1F
100
AcDbEntity
  8
0
  6
Continuous
 62
     7
370
    25
100
AcDbLine
 10
486.5922711932
 20
900.3843079411
 30
0.0
 11
485.3548343261
 21
900.7045801695
 31
0.0
  0
ARC
  5
F2
330
1F
100
AcDbEntity
  8
0
  6
Continuous
 62
     7
370
    25
100
AcDbCircle
 10
528.5416963153
 20
911.1207725384
 30
0.0
 40
43.30156971890568
100
AcDbArc
 50
188.9948872747
 51
194.3560188339
  0
LINE
  5
F3
330
1F
100
AcDbEntity
  8
0
  6
Continuous
 62
     7
370
    25
100
AcDbLine
 10
485.772636487
 20
904.3507310667
 30
0.0
 11
484.5351996199
 21
904.671003295
 31
0.0
  0
ARC
  5
F4
330
1F
100
AcDbEntity
  8
0
  6
Continuous
 62
     7
370
    25
100
AcDbCircle
 10
530.6983072449
 20
912.0055404347
 30
0.0
 40
46.74214308997272
100
AcDbArc
 50
186.1848802955
 51
189.0278691491
  0
LINE
  5
F5
330
1F
100
AcDbEntity
  8
0
  6
Continuous
 62
     7
370
    25
100
AcDbLine
 10
485.4656669771
 20
906.6494096177
 30
0.0
 11
484.22823011
 21
906.969681846
 31
0.0
  0
ARC
  5
F6
330
1F
100
AcDbEntity
  8
0
  6
Continuous
 62
     7
370
    25
100
AcDbCircle
 10
535.0989170395
 20
912.0098302281
 30
0.0
 40
49.92187517392266
100
AcDbArc
 50
181.2882444682
 51
186.1640862228
  0
LINE
  5
F7
330
1F
100
AcDbEntity
  8
0
  6
Continuous
 62
     7
370
    25
100
AcDbLine
 10
485.1896599639
 20
910.8874759885
 30
0.0
 11
483.4218930109
 21
911.3450077432
 31
0.0
  0
ARC
  5
F8
330
1F
100
AcDbEntity
  8
0
  6
Continuous
 62
     7
370
    25
100
AcDbCircle
 10
535.5806294489
 20
912.5448915074
 30
0.0
 40
52.17253595386753
100
AcDbArc
 50
180.3597037709
 51
181.3178262515
  0
LINE
  5
F9
330
1F
100
AcDbEntity
  8
0
  6
Continuous
 62
     7
370
    25
100
AcDbLine
 10
511.0311041592
 20
915.4215532418
 30
0.0
 11
507.6892062818
 21
913.4370185566
 31
0.0
  0
LINE
  5
FA
330
1F
100
AcDbEntity
  8
0
  6
Continuous
 62
     7
370
    25
100
AcDbLine
 10
510.2001930928
 20
918.1512819531
 30
0.0
 11
511.2754284977
 21
916.5421744863
 31
0.0
  0
LINE
  5
FB
330
1F
100
AcDbEntity
  8
0
  6
Continuous
 62
     7
370
    25
100
AcDbLine
 10
510.9127334771
 20
909.2038222973
 30
0.0
 11
507.2729328233
 21
906.829692752
 31
0.0
  0
LINE
  5
FC
330
1F
100
AcDbEntity
  8
0
  6
Continuous
 62
     7
370
    25
100
AcDbLine
 10
507.6892062818
 20
913.4370185566
 30
0.0
 11
510.2706218657
 21
910.0470552861
 31
0.0
  0
LINE
  5
FD
330
1F
100
AcDbEntity
  8
0
  6
Continuous
 62
     7
370
    25
100
AcDbLine
 10
510.1456563581
 20
902.1460017913
 30
0.0
 11
507.6892062818
 21
900.4378459456
 31
0.0
  0
LINE
  5
FE
330
1F
100
AcDbEntity
  8
0
  6
Continuous
 62
     7
370
    25
100
AcDbLine
 10
507.2729328233
 20
906.829692752
 30
0.0
 11
510.1675322567
 21
903.529124612
 31
0.0
  0
LINE
  5
FF
330
1F
100
AcDbEntity
  8
0
  6
Continuous
 62
     7
370
    25
100
AcDbLine
 10
511.0159403866
 20
895.9497888119
 30
0.0
 11
508.9253783992
 21
894.455691168
 31
0.0
  0
LINE
  5
100
330
1F
100
AcDbEntity
  8
0
  6
Continuous
 62
     7
370
    25
100
AcDbLine
 10
507.6892062818
 20
900.4378459456
 30
0.0
 11
510.9222140838
 21
897.2717130787
 31
0.0
  0
LINE
  5
101
330
1F
100
AcDbEntity
  8
0
  6
Continuous
 62
     7
370
    25
100
AcDbLine
 10
512.6265909329
 20
890.2383087896
 30
0.0
 11
510.943888711
 21
889.0649931652
 31
0.0
  0
LINE
  5
102
330
1F
100
AcDbEntity
  8
0
  6
Continuous
 62
     7
370
    25
100
AcDbLine
 10
508.9253783992
 20
894.455691168
 30
0.0
 11
512.0414035638
 21
891.8684642809
 31
0.0
  0
LINE
  5
103
330
1F
100
AcDbEntity
  8
0
  6
Continuous
 62
     7
370
    25
100
AcDbLine
 10
515.7637708433
 20
885.7284049592
 30
0.0
 11
513.683405803
 21
884.429545568
 31
0.0
  0
LINE
  5
104
330
1F
100
AcDbEntity
  8
0
  6
Continuous
 62
     7
370
    25
100
AcDbLine
 10
510.943888711
 20
889.0649931652
 30
0.0
 11
514.4321195219
 21
886.6502474382
 31
0.0
  0
LINE
  5
105
330
1F
100
AcDbEntity
  8
0
  6
Continuous
 62
     7
370
    25
100
AcDbLine
 10
518.0393801408
 20
881.1509669284
 30
0.0
 11
517.0606908344
 21
880.690194106
 31
0.0
  0
LINE
  5
106
330
1F
100
AcDbEntity
  8
0
  6
Continuous
 62
     7
370
    25
100
AcDbLine
 10
513.683405803
 20
884.429545568
 30
0.0
 11
516.2889895728
 21
882.9601570652
 31
0.0
  0
LINE
  5
107
330
1F
100
AcDbEntity
  8
0
  6
Continuous
 62
     7
370
    25
100
AcDbLine
 10
517.0606908344
 20
880.690194106
 30
0.0
 11
519.6814290969
 21
879.526466218
 31
0.0
  0
LINE
  5
108
330
1F
100
AcDbEntity
  8
0
  6
Continuous
 62
     7
370
    25
100
AcDbLine
 10
484.7429766922
 20
907.6291517406
 30
0.0
 11
484.22823011
 21
906.969681846
 31
0.0
  0
LINE
  5
109
330
1F
100
AcDbEntity
  8
0
  6
Continuous
 62
     7
370
    25
100
AcDbLine
 10
484.7429766922
 20
907.6291517406
 30
0.0
 11
485.3438850461
 21
907.9294173406
 31
0.0
  0
LINE
  5
10A
330
1F
100
AcDbEntity
  8
0
  6
Continuous
 62
     7
370
    25
100
AcDbLine
 10
485.8217047904
 20
901.5957349106
 30
0.0
 11
485.3548343261
 21
900.7045801695
 31
0.0
  0
LINE
  5
10B
330
1F
100
AcDbEntity
  8
0
  6
Continuous
 62
     7
370
    25
100
AcDbLine
 10
485.8217047904
 20
901.5957349106
 30
0.0
 11
486.2318286646
 21
901.9057933297
 31
0.0
  0
LINE
  5
10C
330
1F
100
AcDbEntity
  8
0
  6
Continuous
 62
     7
370
    25
100
AcDbLine
 10
487.4153199572
 20
896.9881223903
 30
0.0
 11
486.7674743602
 21
895.1548792236
 31
0.0
  0
LINE
  5
10D
330
1F
100
AcDbEntity
  8
0
  6
Continuous
 62
     7
370
    25
100
AcDbLine
 10
487.4153199572
 20
896.9881223903
 30
0.0
 11
487.5709239138
 21
897.1511166292
 31
0.0
  0
LINE
  5
10E
330
1F
100
AcDbEntity
  8
0
  6
Continuous
 62
     7
370
    25
100
AcDbLine
 10
490.2806995568
 20
891.361056488
 30
0.0
 11
489.998104306
 21
890.0815958453
 31
0.0
  0
LINE
  5
10F
330
1F
100
AcDbEntity
  8
0
  6
Continuous
 62
     7
370
    25
100
AcDbLine
 10
493.4737641474
 20
886.985506511
 30
0.0
 11
493.3736866611
 21
886.0464872008
 31
0.0
  0
LINE
  5
110
330
1F
100
AcDbEntity
  8
0
  6
Continuous
 62
     7
370
    25
100
AcDbLine
 10
496.7917962119
 20
883.9478680983
 30
0.0
 11
496.7916560637
 21
883.1721580244
 31
0.0
  0
LWPOLYLINE
  5
111
330
1F
100
AcDbEntity
  8
0
  6
Continuous
 62
     7
370
    25
100
AcDbPolyline
 90
       42
 70
   128
 43
0.0
 10
570.0286596536
 20
938.5782037758
 10
566.2507826131
 20
937.2042088007
 10
562.5614558084
 20
935.0700022091
 10
559.047153933
 20
932.2256079948
 10
555.7902492441
 20
928.7376963473
 10
552.8670808274
 20
924.6880209595
 10
550.3461652728
 20
920.1715027901
 10
548.2865907045
 20
915.2940051969
 10
546.7366318045
 20
910.1698525895
 10
545.732618296
 20
904.9191507621
 10
545.2980834045
 20
899.6649717152
 10
545.4432122596
 20
894.5304689524
 10
546.1646031639
 20
889.6359908667
 10
547.4453473262
 20
885.096259876
 10
549.2554251887
 20
881.0176834271
 10
551.5524100604
 20
877.495859895
 10
554.2824625629
 20
874.6133378385
 10
557.3815925793
 20
872.4376811314
 10
560.7771591288
 20
871.0198853228
 10
564.3895730094
 20
870.393182345
 10
568.1341623014
 20
870.5722615845
 10
571.9231570057
 20
871.5529255758
 10
575.6677462978
 20
873.312188386
 10
579.2801601783
 20
875.808814386
 10
582.6757267278
 20
878.9842847784
 10
585.7748567442
 20
882.7641692285
 10
588.5049092467
 20
887.0598704486
 10
590.8018941185
 20
891.7707008429
 10
592.6119719809
 20
896.7862425396
 10
593.8927161432
 20
901.9889354925
 10
594.6141070476
 20
907.2568329883
 10
594.7592359027
 20
912.4664599745
 10
594.3247010112
 20
917.49570721
 10
593.3206875026
 20
922.2266934023
 10
591.7707286027
 20
926.5485282448
 10
589.7111540343
 20
930.3599115918
 10
587.1902384798
 20
933.571507848
 10
584.267070063
 20
936.1080399192
 10
581.0101653742
 20
937.9100536436
 10
577.4958634987
 20
938.9353113467
 10
573.8065366941
 20
939.159781857
 10
570.0286596536
 20
938.5782037758
  0
LWPOLYLINE
  5
112
330
1F
100
AcDbEntity
  8
0
  6
Continuous
 62
     7
370
    25
100
AcDbPolyline
 90
       41
 70
   128
 43
0.0
 10
578.283404984
 20
943.9523454459
 10
580.0106036086
 20
943.4148620372
 10
583.552524229
 20
941.6896376334
 10
586.7831513288
 20
939.2221661848
 10
589.6367186568
 20
936.0626782943
 10
592.0551358111
 20
932.2754920243
 10
593.9891707926
 20
927.9377035658
 10
595.3994522263
 20
923.1376177828
 10
596.2572708493
 20
917.9729505793
 10
596.5451639481
 20
912.5488396861
 10
596.2572708493
 20
906.9757043591
 10
595.3994522263
 20
901.366997562
 10
593.9891707926
 20
895.8368963909
 10
592.0551358111
 20
890.4979777582
 10
589.6367186568
 20
885.4589266511
 10
586.7831513288
 20
880.8223236187
 10
583.552524229
 20
876.6825565279
 10
580.0106036086
 20
873.1238990986
 10
576.2294927575
 20
870.2187953337
 10
572.2861641889
 20
868.0263847682
 10
568.2608927006
 20
866.5912985589
 10
564.2356212123
 20
865.9427509225
 10
560.2922926437
 20
866.0939444186
 10
556.5111817926
 20
867.0418011837
 10
552.9692611722
 20
868.7670255875
 10
549.7386340724
 20
871.2344970361
 10
546.8850667444
 20
874.3939849266
 10
544.4666495901
 20
878.1811711966
 10
542.5326146086
 20
882.5189596551
 10
541.1223331749
 20
887.3190454382
 10
540.2645145519
 20
892.4837126416
 10
539.9766214531
 20
897.9078235348
 10
540.2645145519
 20
903.4809588618
 10
541.1223331749
 20
909.0896656589
 10
542.5326146086
 20
914.61976683
 10
544.4666495901
 20
919.9586854627
 10
546.8850667444
 20
924.9977365698
 10
549.7386340724
 20
929.6343396022
 10
552.9692611722
 20
933.774106693
 10
556.5111817926
 20
937.3327641223
 10
558.9141478399
 20
939.2756565538
  0
LWPOLYLINE
  5
113
330
1F
100
AcDbEntity
  8
0
  6
Continuous
 62
     7
370
    25
100
AcDbPolyline
 90
       11
 70
   128
 43
0.0
 10
511.3693788889
 20
918.2505799923
 10
511.0732579308
 20
916.8822473199
 10
510.2141407001
 20
911.2752191518
 10
509.9245861698
 20
905.7034119108
 10
510.210485433
 20
900.2801860549
 10
511.0660217644
 20
895.1158790994
 10
512.4737889641
 20
890.3155607599
 10
514.4051454933
 20
885.9768952703
 10
516.8207971961
 20
882.1881543683
 10
519.6715967545
 20
879.0264213744
 10
522.8995436078
 20
876.5560229039
  0
SPLINE
  5
114
330
1F
100
AcDbEntity
  8
0
  6
Continuous
 62
     7
370
    25
100
AcDbSpline
210
0.0
220
0.0
230
1.0
 70
     8
 71
     3
 72
    15
 73
    11
 74
     0
 42
0.00000001
 43
0.00000001
 40
0.0
 40
0.0
 40
0.0
 40
0.0
 40
0.0012365048481811
 40
0.2159598060890415
 40
0.3357069409613416
 40
0.4593485452754232
 40
0.6378069945227439
 40
0.8165954104074369
 40
0.9927518646128578
 40
1.0
 40
1.0
 40
1.0
 40
1.0
 10
551.5827056335963
 20
868.2305494270308
 30
0.0
 10
551.5681996185306
 20
868.2330998772884
 30
0.0
 10
549.0346744121131
 20
868.6785447486976
 30
0.0
 10
544.8489347319912
 20
870.3566051197498
 30
0.0
 10
539.4332721954158
 20
872.4167502025155
 30
0.0
 10
534.6050735879393
 20
874.3392176291187
 30
0.0
 10
529.5568032565903
 20
876.0681845587906
 30
0.0
 10
525.2678604792463
 20
876.8298057515702
 30
0.0
 10
523.5076280288204
 20
876.6954604212348
 30
0.0
 10
522.9226614426307
 20
876.5613239663634
 30
0.0
 10
522.8995436077766
 20
876.5560229039014
 30
0.0
  0
LWPOLYLINE
  5
115
330
1F
100
AcDbEntity
  8
0
  6
Continuous
 62
     7
370
    25
100
AcDbPolyline
 90
       19
 70
   128
 43
0.0
 10
522.047689265
 20
717.5335474094
 10
522.0743648949
 20
717.2347184428
 10
522.711737906
 20
716.0521283416
 10
524.1778425528
 20
714.91998619
 10
526.4227524
 20
713.8768457311
 10
529.3700197353
 20
712.9582298621
 10
532.9192789044
 20
712.1954209447
 10
536.9496641432
 20
711.6143955217
 10
541.3239255163
 20
711.234939717
 10
545.8931027989
 20
711.0699754429
 10
550.5015981388
 20
711.1251203599
 10
554.9924747546
 20
711.3984965741
 10
559.2128012292
 20
711.8807945862
 10
563.0188594063
 20
712.555590316
 10
566.2810385396
 20
713.3999044043
 10
568.8882490312
 20
714.3849847473
 10
570.7517054548
 20
715.4772856155
 10
571.8079500369
 20
716.6396100128
 10
572.047689265
 20
717.5335474094
  0
SPLINE
  5
116
330
1F
100
AcDbEntity
  8
0
  6
Continuous
 62
     7
370
    25
100
AcDbSpline
210
0.0
220
0.0
230
1.0
 70
     8
 71
     3
 72
     9
 73
     5
 74
     0
 42
0.00000001
 43
0.00000001
 40
0.0
 40
0.0
 40
0.0
 40
0.0
 40
0.4139789674154139
 40
1.0
 40
1.0
 40
1.0
 40
1.0
 10
522.322040058032
 20
874.7465200176173
 30
0.0
 10
522.2366283176351
 20
874.7974646618761
 30
0.0
 10
522.030309284255
 20
874.9205256100612
 30
0.0
 10
522.5783690550041
 20
875.0519663628633
 30
0.0
 10
522.8995436077766
 20
875.128993408544
 30
0.0
  0
LINE
  5
117
330
1F
100
AcDbEntity
  8
0
  6
Continuous
 62
     7
370
    25
100
AcDbLine
 10
522.8995436078
 20
875.1289934085
 30
0.0
 11
522.8995436078
 21
876.5560229039
 31
0.0
  0
LINE
  5
118
330
1F
100
AcDbEntity
  8
0
  6
Continuous
 62
     7
370
    25
100
AcDbLine
 10
511.2754284977
 20
916.5421744863
 30
0.0
 11
510.2001930928
 21
918.1512819531
 31
0.0
  0
LINE
  5
119
330
1F
100
AcDbEntity
  8
0
  6
Continuous
 62
     7
370
    25
100
AcDbLine
 10
507.6892062818
 20
913.4370185566
 30
0.0
 11
511.0311041592
 21
915.4215532418
 31
0.0
  0
LINE
  5
11A
330
1F
100
AcDbEntity
  8
0
  6
Continuous
 62
     7
370
    25
100
AcDbLine
 10
510.2706218657
 20
910.0470552861
 30
0.0
 11
507.6892062818
 21
913.4370185566
 31
0.0
  0
LINE
  5
11B
330
1F
100
AcDbEntity
  8
0
  6
Continuous
 62
     7
370
    25
100
AcDbLine
 10
510.1675322567
 20
903.529124612
 30
0.0
 11
507.2729328233
 21
906.829692752
 31
0.0
  0
LINE
  5
11C
330
1F
100
AcDbEntity
  8
0
  6
Continuous
 62
     7
370
    25
100
AcDbLine
 10
507.2729328233
 20
906.829692752
 30
0.0
 11
510.9127334771
 21
909.2038222973
 31
0.0
  0
LINE
  5
11D
330
1F
100
AcDbEntity
  8
0
  6
Continuous
 62
     7
370
    25
100
AcDbLine
 10
510.9222140838
 20
897.2717130787
 30
0.0
 11
507.6892062818
 21
900.4378459456
 31
0.0
  0
LINE
  5
11E
330
1F
100
AcDbEntity
  8
0
  6
Continuous
 62
     7
370
    25
100
AcDbLine
 10
507.6892062818
 20
900.4378459456
 30
0.0
 11
510.1456563581
 21
902.1460017913
 31
0.0
  0
LINE
  5
11F
330
1F
100
AcDbEntity
  8
0
  6
Continuous
 62
     7
370
    25
100
AcDbLine
 10
508.9253783992
 20
894.455691168
 30
0.0
 11
510.3606017793
 21
895.4814267758
 31
0.0
  0
LINE
  5
120
330
1F
100
AcDbEntity
  8
0
  6
Continuous
 62
     7
370
    25
100
AcDbLine
 10
512.0414035638
 20
891.8684642809
 30
0.0
 11
508.9253783992
 21
894.455691168
 31
0.0
  0
LINE
  5
121
330
1F
100
AcDbEntity
  8
0
  6
Continuous
 62
     7
370
    25
100
AcDbLine
 10
510.943888711
 20
889.0649931652
 30
0.0
 11
512.6265909329
 21
890.2383087896
 31
0.0
  0
LINE
  5
122
330
1F
100
AcDbEntity
  8
0
  6
Continuous
 62
     7
370
    25
100
AcDbLine
 10
514.4321195219
 20
886.6502474382
 30
0.0
 11
510.943888711
 21
889.0649931652
 31
0.0
  0
LINE
  5
123
330
1F
100
AcDbEntity
  8
0
  6
Continuous
 62
     7
370
    25
100
AcDbLine
 10
513.683405803
 20
884.429545568
 30
0.0
 11
515.7637708433
 21
885.7284049592
 31
0.0
  0
LINE
  5
124
330
1F
100
AcDbEntity
  8
0
  6
Continuous
 62
     7
370
    25
100
AcDbLine
 10
515.9794461872
 20
883.1347204383
 30
0.0
 11
513.683405803
 21
884.429545568
 31
0.0
  0
LINE
  5
125
330
1F
100
AcDbEntity
  8
0
  6
Continuous
 62
     7
370
    25
100
AcDbLine
 10
517.0606908344
 20
880.690194106
 30
0.0
 11
518.0393801408
 21
881.1509669284
 31
0.0
  0
LINE
  5
126
330
1F
100
AcDbEntity
  8
0
  6
Continuous
 62
     7
370
    25
100
AcDbLine
 10
519.6814290969
 20
879.526466218
 30
0.0
 11
517.0606908344
 21
880.690194106
 31
0.0
  0
LINE
  5
127
330
1F
100
AcDbEntity
  8
0
  6
Continuous
 62
     7
370
    25
100
AcDbLine
 10
595.3508308513
 20
941.5469224257
 30
0.0
 11
585.6757504862
 21
944.0510174871
 31
0.0
  0
MTEXT
  5
129
330
1F
100
AcDbEntity
  8
0
  6
Continuous
 62
     7
370
     0
100
AcDbMText
 10
637.2511050004
 20
510.7525031096
 30
0.0
 40
13.2291666667
 41
0.0
 71
     1
 72
     1
  1
HBB-D/W110S/C
  7
SLDTEXTSTYLE0
 73
     1
 44
1.0
  0
MTEXT
  5
12A
330
1F
100
AcDbEntity
  8
0
  6
Continuous
 62
     7
370
     0
100
AcDbMText
 10
637.2511050004
 20
488.1136136143
 30
0.0
 40
13.2291666667
 41
0.0
 71
     1
 72
     1
  1
HBB-D/W112S/C
  7
SLDTEXTSTYLE0
 73
     1
 44
1.0
  0
ENDSEC
  0
SECTION
  2
OBJECTS
  0
DICTIONARY
  5
C
330
0
100
AcDbDictionary
281
     1
  3
ACAD_GROUP
350
D
  3
ACAD_LAYOUT
350
1A
  3
ACAD_MLINESTYLE
350
17
  3
ACAD_PLOTSETTINGS
350
19
  3
ACAD_PLOTSTYLENAME
350
E
  3
ACAD_SCALELIST
350
47
  3
DWGPROPS
350
12B
  0
DICTIONARY
  5
D
102
{ACAD_REACTORS
330
C
102
}
330
C
100
AcDbDictionary
281
     1
  0
DICTIONARY
  5
1A
102
{ACAD_REACTORS
330
C
102
}
330
C
100
AcDbDictionary
281
     1
  3
Layout1
350
1E
  3
Layout2
350
26
  3
Model
350
22
  0
DICTIONARY
  5
17
102
{ACAD_REACTORS
330
C
102
}
330
C
100
AcDbDictionary
281
     1
  3
Standard
350
18
  0
DICTIONARY
  5
19
102
{ACAD_REACTORS
330
C
102
}
330
C
100
AcDbDictionary
281
     1
  0
ACDBDICTIONARYWDFLT
  5
E
102
{ACAD_REACTORS
330
C
102
}
330
C
100
AcDbDictionary
281
     1
  3
Normal
350
F
100
AcDbDictionaryWithDefault
340
F
  0
DICTIONARY
  5
47
102
{ACAD_REACTORS
330
C
102
}
330
C
100
AcDbDictionary
281
     1
  3
A0
350
48
  3
A1
350
49
  3
A2
350
4A
  3
A3
350
4B
  3
A4
350
4C
  3
A5
350
4D
  3
A6
350
4E
  3
A7
350
4F
  3
A8
350
50
  3
A9
350
51
  3
B0
350
52
  3
B1
350
53
  3
B2
350
54
  3
B3
350
55
  3
B4
350
56
  3
B5
350
57
  3
B6
350
58
  0
XRECORD
  5
12B
102
{ACAD_REACTORS
330
C
102
}
330
C
100
AcDbXrecord
280
     1
  1
DWGPROPS COOKIE
  2

  3

  4

  6

  7

  8
9128
  9

300
=
301
=
302
=
303
=
304
=
305
=
306
=
307
=
308
=
309
=
 40
0.0
 41
2460340.079454225
 42
2460340.079463484
  1

 90
        0
  0
LAYOUT
  5
1E
102
{ACAD_REACTORS
330
1A
102
}
330
1A
100
AcDbPlotSettings
  1

  2
none_device
  4

  6

 40
0.0
 41
0.0
 42
0.0
 43
0.0
 44
0.0
 45
0.0
 46
0.0
 47
0.0
 48
0.0
 49
0.0
140
0.0
141
0.0
142
1.0
143
1.0
 70
   688
 72
     1
 73
     0
 74
     5
  7

 75
    16
147
1.0
148
0.0
149
0.0
100
AcDbLayout
  1
Layout1
 70
     1
 71
     1
 10
0.0
 20
0.0
 11
420.0
 21
297.0
 12
0.0
 22
0.0
 32
0.0
 14
1.0000000000E+20
 24
1.0000000000E+20
 34
1.0000000000E+20
 15
-1.0000000000E+20
 25
-1.0000000000E+20
 35
-1.0000000000E+20
146
0.0
 13
0.0
 23
0.0
 33
0.0
 16
1.0
 26
0.0
 36
0.0
 17
0.0
 27
1.0
 37
0.0
 76
     0
330
1B
  0
LAYOUT
  5
26
102
{ACAD_REACTORS
330
1A
102
}
330
1A
100
AcDbPlotSettings
  1

  2
none_device
  4

  6

 40
0.0
 41
0.0
 42
0.0
 43
0.0
 44
0.0
 45
0.0
 46
0.0
 47
0.0
 48
0.0
 49
0.0
140
0.0
141
0.0
142
1.0
143
1.0
 70
   688
 72
     1
 73
     0
 74
     5
  7

 75
    16
147
1.0
148
0.0
149
0.0
100
AcDbLayout
  1
Layout2
 70
     1
 71
     2
 10
0.0
 20
0.0
 11
0.0
 21
0.0
 12
0.0
 22
0.0
 32
0.0
 14
0.0
 24
0.0
 34
0.0
 15
0.0
 25
0.0
 35
0.0
146
0.0
 13
0.0
 23
0.0
 33
0.0
 16
1.0
 26
0.0
 36
0.0
 17
0.0
 27
1.0
 37
0.0
 76
     0
330
23
  0
LAYOUT
  5
22
102
{ACAD_REACTORS
330
1A
102
}
330
1A
100
AcDbPlotSettings
  1

  2
none_device
  4
Letter_(8.50_x_11.00_Inches)
  6

 40
6.35
 41
6.35
 42
6.35000508
 43
6.35000508
 44
215.9
 45
279.4
 46
0.0
 47
0.0
 48
0.0
 49
0.0
140
0.0
141
0.0
142
1.0
143
1.0
 70
  1712
 72
     1
 73
     0
 74
     0
  7

 75
     0
147
1.0
148
0.0
149
0.0
100
AcDbLayout
  1
Model
 70
     1
 71
     0
 10
0.0
 20
0.0
 11
1050.0
 21
1485.0
 12
0.0
 22
0.0
 32
0.0
 14
0.0
 24
0.0
 34
0.0
 15
1050.0
 25
1485.0
 35
0.0
146
0.0
 13
0.0
 23
0.0
 33
0.0
 16
1.0
 26
0.0
 36
0.0
 17
0.0
 27
1.0
 37
0.0
 76
     0
330
1F
331
29
  0
MLINESTYLE
  5
18
102
{ACAD_REACTORS
330
17
102
}
330
17
100
AcDbMlineStyle
  2
Standard
 70
     0
  3

 62
   256
 51
90.0
 52
90.0
 71
     2
 49
0.5
 62
   256
  6
BYLAYER
 49
-0.5
 62
   256
  6
BYLAYER
  0
ACDBPLACEHOLDER
  5
F
102
{ACAD_REACTORS
330
E
102
}
330
E
  0
SCALE
  5
48
102
{ACAD_REACTORS
330
47
102
}
330
47
100
AcDbScale
 70
     0
300
1:1
140
1.0
141
1.0
290
     1
  0
SCALE
  5
49
102
{ACAD_REACTORS
330
47
102
}
330
47
100
AcDbScale
 70
     0
300
1:2
140
1.0
141
2.0
290
     0
  0
SCALE
  5
4A
102
{ACAD_REACTORS
330
47
102
}
330
47
100
AcDbScale
 70
     0
300
1:4
140
1.0
141
4.0
290
     0
  0
SCALE
  5
4B
102
{ACAD_REACTORS
330
47
102
}
330
47
100
AcDbScale
 70
     0
300
1:5
140
1.0
141
5.0
290
     0
  0
SCALE
  5
4C
102
{ACAD_REACTORS
330
47
102
}
330
47
100
AcDbScale
 70
     0
300
1:8
140
1.0
141
8.0
290
     0
  0
SCALE
  5
4D
102
{ACAD_REACTORS
330
47
102
}
330
47
100
AcDbScale
 70
     0
300
1:10
140
1.0
141
10.0
290
     0
  0
SCALE
  5
4E
102
{ACAD_REACTORS
330
47
102
}
330
47
100
AcDbScale
 70
     0
300
1:16
140
1.0
141
16.0
290
     0
  0
SCALE
  5
4F
102
{ACAD_REACTORS
330
47
102
}
330
47
100
AcDbScale
 70
     0
300
1:20
140
1.0
141
20.0
290
     0
  0
SCALE
  5
50
102
{ACAD_REACTORS
330
47
102
}
330
47
100
AcDbScale
 70
     0
300
1:30
140
1.0
141
30.0
290
     0
  0
SCALE
  5
51
102
{ACAD_REACTORS
330
47
102
}
330
47
100
AcDbScale
 70
     0
300
1:40
140
1.0
141
40.0
290
     0
  0
SCALE
  5
52
102
{ACAD_REACTORS
330
47
102
}
330
47
100
AcDbScale
 70
     0
300
1:50
140
1.0
141
50.0
290
     0
  0
SCALE
  5
53
102
{ACAD_REACTORS
330
47
102
}
330
47
100
AcDbScale
 70
     0
300
1:100
140
1.0
141
100.0
290
     0
  0
SCALE
  5
54
102
{ACAD_REACTORS
330
47
102
}
330
47
100
AcDbScale
 70
     0
300
2:1
140
2.0
141
1.0
290
     0
  0
SCALE
  5
55
102
{ACAD_REACTORS
330
47
102
}
330
47
100
AcDbScale
 70
     0
300
4:1
140
4.0
141
1.0
290
     0
  0
SCALE
  5
56
102
{ACAD_REACTORS
330
47
102
}
330
47
100
AcDbScale
 70
     0
300
8:1
140
8.0
141
1.0
290
     0
  0
SCALE
  5
57
102
{ACAD_REACTORS
330
47
102
}
330
47
100
AcDbScale
 70
     0
300
10:1
140
10.0
141
1.0
290
     0
  0
SCALE
  5
58
102
{ACAD_REACTORS
330
47
102
}
330
47
100
AcDbScale
 70
     0
300
100:1
140
100.0
141
1.0
290
     0
  0
ENDSEC
  0
EOF
