  0
SECTION
  2
HEADER
  9
$ACADVER
  1
AC1015
  9
$ACADMAINTVER
 70
     6
  9
$DWGCODEPAGE
  3
DOS932
  9
$INSBASE
 10
0.0
 20
0.0
 30
0.0
  9
$EXTMIN
 10
0.0
 20
0.0
 30
0.0
  9
$EXTMAX
 10
2100.0
 20
2970.0
 30
0.0
  9
$LIMMIN
 10
0.0
 20
0.0
  9
$LIMMAX
 10
2100.0
 20
2970.0
  9
$ORTHOMODE
 70
     0
  9
$REGENMODE
 70
     1
  9
$FILLMODE
 70
     1
  9
$QTEXTMODE
 70
     0
  9
$MIRRTEXT
 70
     1
  9
$LTSCALE
 40
10.0
  9
$ATTMODE
 70
     1
  9
$TEXTSIZE
 40
35.0
  9
$TRACEWID
 40
1.0
  9
$TEXTSTYLE
  7
STANDARD
  9
$CLAYER
  8
0
  9
$CELTYPE
  6
ByLayer
  9
$CECOLOR
 62
   256
  9
$CELTSCALE
 40
1.0
  9
$DISPSILH
 70
     0
  9
$DIMSCALE
 40
1.0
  9
$DIMASZ
 40
33.02
  9
$DIMEXO
 40
10.0
  9
$DIMDLI
 40
3.75
  9
$DIMRND
 40
0.0
  9
$DIMDLE
 40
0.0
  9
$DIMEXE
 40
10.0
  9
$DIMTP
 40
0.0
  9
$DIMTM
 40
0.0
  9
$DIMTXT
 40
35.0
  9
$DIMCEN
 40
2.5
  9
$DIMTSZ
 40
0.0
  9
$DIMTOL
 70
     0
  9
$DIMLIM
 70
     0
  9
$DIMTIH
 70
     1
  9
$DIMTOH
 70
     1
  9
$DIMSE1
 70
     0
  9
$DIMSE2
 70
     0
  9
$DIMTAD
 70
     1
  9
$DIMZIN
 70
     1
  9
$DIMBLK
  1

  9
$DIMASO
 70
     1
  9
$DIMSHO
 70
     1
  9
$DIMPOST
  1

  9
$DIMAPOST
  1

  9
$DIMALT
 70
     0
  9
$DIMALTD
 70
     3
  9
$DIMALTF
 40
0.0393700787
  9
$DIMLFAC
 40
1.0
  9
$DIMTOFL
 70
     1
  9
$DIMTVP
 40
0.0
  9
$DIMTIX
 70
     0
  9
$DIMSOXD
 70
     0
  9
$DIMSAH
 70
     0
  9
$DIMBLK1
  1

  9
$DIMBLK2
  1

  9
$DIMSTYLE
  2
ISO-25
  9
$DIMCLRD
 70
     0
  9
$DIMCLRE
 70
     0
  9
$DIMCLRT
 70
     0
  9
$DIMTFAC
 40
1.0
  9
$DIMGAP
 40
15.24
  9
$DIMJUST
 70
     0
  9
$DIMSD1
 70
     0
  9
$DIMSD2
 70
     0
  9
$DIMTOLJ
 70
     0
  9
$DIMTZIN
 70
     1
  9
$DIMALTZ
 70
     0
  9
$DIMALTTZ
 70
     0
  9
$DIMUPT
 70
     0
  9
$DIMDEC
 70
     2
  9
$DIMTDEC
 70
     2
  9
$DIMALTU
 70
     2
  9
$DIMALTTD
 70
     3
  9
$DIMTXSTY
  7
STANDARD
  9
$DIMAUNIT
 70
     0
  9
$DIMADEC
 70
     2
  9
$DIMALTRND
 40
0.0
  9
$DIMAZIN
 70
     0
  9
$DIMDSEP
 70
    44
  9
$DIMATFIT
 70
     3
  9
$DIMFRAC
 70
     0
  9
$DIMLDRBLK
  1

  9
$DIMLUNIT
 70
     2
  9
$DIMLWD
 70
    -2
  9
$DIMLWE
 70
    -2
  9
$DIMTMOVE
 70
     0
  9
$LUNITS
 70
     2
  9
$LUPREC
 70
     2
  9
$SKETCHINC
 40
1.0
  9
$FILLETRAD
 40
10.0
  9
$AUNITS
 70
     0
  9
$AUPREC
 70
     2
  9
$MENU
  1
.
  9
$ELEVATION
 40
0.0
  9
$PELEVATION
 40
0.0
  9
$THICKNESS
 40
0.0
  9
$LIMCHECK
 70
     0
  9
$CHAMFERA
 40
0.0
  9
$CHAMFERB
 40
0.0
  9
$CHAMFERC
 40
0.0
  9
$CHAMFERD
 40
0.0
  9
$SKPOLY
 70
     0
  9
$TDCREATE
 40
2458876.398977871
  9
$TDUCREATE
 40
2458876.023977871
  9
$TDUPDATE
 40
2458876.398978148
  9
$TDUUPDATE
 40
2458876.023978148
  9
$TDINDWG
 40
0.0000000116
  9
$TDUSRTIMER
 40
0.0000000116
  9
$USRTIMER
 70
     1
  9
$ANGBASE
 50
0.0
  9
$ANGDIR
 70
     0
  9
$PDMODE
 70
     0
  9
$PDSIZE
 40
-1.0
  9
$PLINEWID
 40
0.0
  9
$SPLFRAME
 70
     0
  9
$SPLINETYPE
 70
     6
  9
$SPLINESEGS
 70
     8
  9
$HANDSEED
  5
D7
  9
$SURFTAB1
 70
     6
  9
$SURFTAB2
 70
     6
  9
$SURFTYPE
 70
     6
  9
$SURFU
 70
     6
  9
$SURFV
 70
     6
  9
$UCSBASE
  2

  9
$UCSNAME
  2

  9
$UCSORG
 10
0.0
 20
0.0
 30
0.0
  9
$UCSXDIR
 10
1.0
 20
0.0
 30
0.0
  9
$UCSYDIR
 10
0.0
 20
1.0
 30
0.0
  9
$UCSORTHOREF
  2

  9
$UCSORTHOVIEW
 70
     0
  9
$UCSORGTOP
 10
0.0
 20
0.0
 30
0.0
  9
$UCSORGBOTTOM
 10
0.0
 20
0.0
 30
0.0
  9
$UCSORGLEFT
 10
0.0
 20
0.0
 30
0.0
  9
$UCSORGRIGHT
 10
0.0
 20
0.0
 30
0.0
  9
$UCSORGFRONT
 10
0.0
 20
0.0
 30
0.0
  9
$UCSORGBACK
 10
0.0
 20
0.0
 30
0.0
  9
$PUCSBASE
  2

  9
$PUCSNAME
  2

  9
$PUCSORG
 10
0.0
 20
0.0
 30
0.0
  9
$PUCSXDIR
 10
1.0
 20
0.0
 30
0.0
  9
$PUCSYDIR
 10
0.0
 20
1.0
 30
0.0
  9
$PUCSORTHOREF
  2

  9
$PUCSORTHOVIEW
 70
     0
  9
$PUCSORGTOP
 10
0.0
 20
0.0
 30
0.0
  9
$PUCSORGBOTTOM
 10
0.0
 20
0.0
 30
0.0
  9
$PUCSORGLEFT
 10
0.0
 20
0.0
 30
0.0
  9
$PUCSORGRIGHT
 10
0.0
 20
0.0
 30
0.0
  9
$PUCSORGFRONT
 10
0.0
 20
0.0
 30
0.0
  9
$PUCSORGBACK
 10
0.0
 20
0.0
 30
0.0
  9
$USERI1
 70
     0
  9
$USERI2
 70
     0
  9
$USERI3
 70
     0
  9
$USERI4
 70
     0
  9
$USERI5
 70
     0
  9
$USERR1
 40
0.0
  9
$USERR2
 40
0.0
  9
$USERR3
 40
0.0
  9
$USERR4
 40
0.0
  9
$USERR5
 40
0.0
  9
$WORLDVIEW
 70
     1
  9
$SHADEDGE
 70
     3
  9
$SHADEDIF
 70
    70
  9
$TILEMODE
 70
     1
  9
$MAXACTVP
 70
    64
  9
$PINSBASE
 10
0.0
 20
0.0
 30
0.0
  9
$PLIMCHECK
 70
     0
  9
$PEXTMIN
 10
1.0000000000E+20
 20
1.0000000000E+20
 30
1.0000000000E+20
  9
$PEXTMAX
 10
-1.0000000000E+20
 20
-1.0000000000E+20
 30
-1.0000000000E+20
  9
$PLIMMIN
 10
0.0
 20
0.0
  9
$PLIMMAX
 10
420.0
 20
297.0
  9
$UNITMODE
 70
     0
  9
$VISRETAIN
 70
     1
  9
$PLINEGEN
 70
     0
  9
$PSLTSCALE
 70
     1
  9
$TREEDEPTH
 70
  3020
  9
$CMLSTYLE
  2
Standard
  9
$CMLJUST
 70
     0
  9
$CMLSCALE
 40
20.0
  9
$PROXYGRAPHICS
 70
     1
  9
$MEASUREMENT
 70
     1
  9
$CELWEIGHT
370
    -1
  9
$ENDCAPS
280
     0
  9
$JOINSTYLE
280
     0
  9
$LWDISPLAY
290
     1
  9
$INSUNITS
 70
     4
  9
$HYPERLINKBASE
  1

  9
$STYLESHEET
  1

  9
$XEDIT
290
     1
  9
$CEPSNTYPE
380
     0
  9
$PSTYLEMODE
290
     1
  9
$FINGERPRINTGUID
  2
{C32C9D31-FE1C-4153-AE21-9A0A67FF816A}
  9
$VERSIONGUID
  2
{FAEB1C32-E019-11D5-929B-00C0DF256EC4}
  9
$EXTNAMES
290
     1
  9
$PSVPSCALE
 40
0.0
  9
$OLESTARTUP
290
     0
  0
ENDSEC
  0
SECTION
  2
CLASSES
  0
CLASS
  1
ACDBDICTIONARYWDFLT
  2
AcDbDictionaryWithDefault
  3
ObjectDBX Classes
 90
        0
280
     0
281
     0
  0
CLASS
  1
VISUALSTYLE
  2
AcDbVisualStyle
  3
ObjectDBX Classes
 90
     4095
280
     0
281
     0
  0
CLASS
  1
MATERIAL
  2
AcDbMaterial
  3
ObjectDBX Classes
 90
     1153
280
     0
281
     0
  0
CLASS
  1
SCALE
  2
AcDbScale
  3
ObjectDBX Classes
 90
     1153
280
     0
281
     0
  0
CLASS
  1
TABLESTYLE
  2
AcDbTableStyle
  3
ObjectDBX Classes
 90
     4095
280
     0
281
     0
  0
CLASS
  1
MLEADERSTYLE
  2
AcDbMLeaderStyle
  3
ACDB_MLEADERSTYLE_CLASS
 90
     4095
280
     0
281
     0
  0
CLASS
  1
SUN
  2
AcDbSun
  3
SCENEOE
 90
     1153
280
     0
281
     0
  0
CLASS
  1
ACDBPLACEHOLDER
  2
AcDbPlaceHolder
  3
ObjectDBX Classes
 90
        0
280
     0
281
     0
  0
CLASS
  1
LAYOUT
  2
AcDbLayout
  3
ObjectDBX Classes
 90
        0
280
     0
281
     0
  0
ENDSEC
  0
SECTION
  2
TABLES
  0
TABLE
  2
VPORT
  5
8
330
0
100
AcDbSymbolTable
 70
     1
  0
VPORT
  5
29
330
8
100
AcDbSymbolTableRecord
100
AcDbViewportTableRecord
  2
*Active
 70
     0
 10
0.0
 20
0.0
 11
1.0
 21
1.0
 12
1050.0
 22
1485.0
 13
0.0
 23
0.0
 14
10.0
 24
10.0
 15
10.0
 25
10.0
 16
0.0
 26
0.0
 36
1.0
 17
0.0
 27
0.0
 37
0.0
 40
2970.0
 41
0.7070707071
 42
50.0
 43
0.0
 44
0.0
 50
0.0
 51
0.0
 71
     0
 72
  2000
 73
     1
 74
     3
 75
     0
 76
     0
 77
     0
 78
     0
281
     0
 65
     1
110
0.0
120
0.0
130
0.0
111
1.0
121
0.0
131
0.0
112
0.0
122
1.0
132
0.0
 79
     0
146
0.0
  0
ENDTAB
  0
TABLE
  2
LTYPE
  5
5
330
0
100
AcDbSymbolTable
 70
     8
  0
LTYPE
  5
14
330
5
100
AcDbSymbolTableRecord
100
AcDbLinetypeTableRecord
  2
ByBlock
 70
     0
  3

 72
    65
 73
     0
 40
0.0
  0
LTYPE
  5
15
330
5
100
AcDbSymbolTableRecord
100
AcDbLinetypeTableRecord
  2
ByLayer
 70
     0
  3

 72
    65
 73
     0
 40
0.0
  0
LTYPE
  5
16
330
5
100
AcDbSymbolTableRecord
100
AcDbLinetypeTableRecord
  2
Continuous
 70
     0
  3
Solid line
 72
    65
 73
     0
 40
0.0
  0
LTYPE
  5
6E
330
5
100
AcDbSymbolTableRecord
100
AcDbLinetypeTableRecord
  2
SLD-実線
 70
     0
  3
SolidWorks Line Style
 72
    65
 73
     0
 40
0.0
  0
LTYPE
  5
6F
330
5
100
AcDbSymbolTableRecord
100
AcDbLinetypeTableRecord
  2
SLD-破線
 70
     0
  3
SolidWorks Line Style
 72
    65
 73
     2
 40
1.905
 49
1.27
 74
     0
 49
-0.635
 74
     0
  0
LTYPE
  5
70
330
5
100
AcDbSymbolTableRecord
100
AcDbLinetypeTableRecord
  2
SLD-2点鎖線
 70
     0
  3
SolidWorks Line Style
 72
    65
 73
     6
 40
12.7
 49
6.35
 74
     0
 49
-1.27
 74
     0
 49
1.27
 74
     0
 49
-1.27
 74
     0
 49
1.27
 74
     0
 49
-1.27
 74
     0
  0
LTYPE
  5
71
330
5
100
AcDbSymbolTableRecord
100
AcDbLinetypeTableRecord
  2
SLD-鎖線
 70
     0
  3
SolidWorks Line Style
 72
    65
 73
     4
 40
10.16
 49
6.35
 74
     0
 49
-1.27
 74
     0
 49
1.27
 74
     0
 49
-1.27
 74
     0
  0
LTYPE
  5
72
330
5
100
AcDbSymbolTableRecord
100
AcDbLinetypeTableRecord
  2
SLD-1点鎖線(中心線)
 70
     0
  3
SolidWorks Line Style
 72
    65
 73
     4
 40
34.29
 49
30.48
 74
     0
 49
-1.27
 74
     0
 49
1.27
 74
     0
 49
-1.27
 74
     0
  0
LTYPE
  5
73
330
5
100
AcDbSymbolTableRecord
100
AcDbLinetypeTableRecord
  2
SLD-点線
 70
     0
  3
SolidWorks Line Style
 72
    65
 73
     2
 40
0.635
 49
0.0
 74
     0
 49
-0.635
 74
     0
  0
LTYPE
  5
74
330
5
100
AcDbSymbolTableRecord
100
AcDbLinetypeTableRecord
  2
SLD-細-太鎖線(切断面)
 70
     0
  3
SolidWorks Line Style
 72
    65
 73
     4
 40
10.16
 49
6.35
 74
     0
 49
-1.27
 74
     0
 49
1.27
 74
     0
 49
-1.27
 74
     0
  0
ENDTAB
  0
TABLE
  2
LAYER
  5
2
330
0
100
AcDbSymbolTable
 70
     1
  0
LAYER
  5
10
330
2
100
AcDbSymbolTableRecord
100
AcDbLayerTableRecord
  2
0
 70
     0
 62
     7
  6
Continuous
370
    -3
390
F
  0
ENDTAB
  0
TABLE
  2
STYLE
  5
3
330
0
100
AcDbSymbolTable
 70
     2
  0
STYLE
  5
11
330
3
100
AcDbSymbolTableRecord
100
AcDbTextStyleTableRecord
  2
STANDARD
 70
     0
 40
0.0
 41
1.0
 50
0.0
 71
     0
 42
35.0
  3
MSGOTHIC.TTC
  4

1001
ACAD
1000
ＭＳ Ｐゴシック
1071
    32818
  0
STYLE
  5
78
330
3
100
AcDbSymbolTableRecord
100
AcDbTextStyleTableRecord
  2
SLDTEXTSTYLE0
 70
     0
 40
0.0
 41
1.0
 50
0.0
 71
     0
 42
35.0
  3
MSGOTHIC.TTC
  4

1001
ACAD
1000
ＭＳ Ｐゴシック
1071
      306
  0
ENDTAB
  0
TABLE
  2
VIEW
  5
6
330
0
100
AcDbSymbolTable
 70
     0
  0
ENDTAB
  0
TABLE
  2
UCS
  5
7
330
0
100
AcDbSymbolTable
 70
     0
  0
ENDTAB
  0
TABLE
  2
APPID
  5
9
330
0
100
AcDbSymbolTable
 70
     1
  0
APPID
  5
12
330
9
100
AcDbSymbolTableRecord
100
AcDbRegAppTableRecord
  2
ACAD
 70
     0
  0
ENDTAB
  0
TABLE
  2
DIMSTYLE
  5
A
330
0
100
AcDbSymbolTable
 70
     1
100
AcDbDimStyleTable
  0
DIMSTYLE
105
27
330
A
100
AcDbSymbolTableRecord
100
AcDbDimStyleTableRecord
  2
ISO-25
 70
     0
 41
2.5
 42
0.625
 43
3.75
 44
1.25
 73
     0
 74
     0
 77
     1
 78
     8
140
2.5
141
2.5
143
0.0393700787
147
0.625
171
     3
172
     1
178
     0
271
     2
272
     2
274
     3
278
    44
283
     0
284
     8
340
11
  0
ENDTAB
  0
TABLE
  2
BLOCK_RECORD
  5
1
330
0
100
AcDbSymbolTable
 70
     2
  0
BLOCK_RECORD
  5
1F
330
1
100
AcDbSymbolTableRecord
100
AcDbBlockTableRecord
  2
*Model_Space
340
22
  0
BLOCK_RECORD
  5
1B
330
1
100
AcDbSymbolTableRecord
100
AcDbBlockTableRecord
  2
*Paper_Space
340
1E
  0
BLOCK_RECORD
  5
23
330
1
100
AcDbSymbolTableRecord
100
AcDbBlockTableRecord
  2
*Paper_Space0
340
26
  0
BLOCK_RECORD
  5
75
330
1
100
AcDbSymbolTableRecord
100
AcDbBlockTableRecord
  2
SW_NOTE_0
340
0
102
{BLKREFS
331
7F
102
}
  0
ENDTAB
  0
ENDSEC
  0
SECTION
  2
BLOCKS
  0
BLOCK
  5
20
330
1F
100
AcDbEntity
  8
0
100
AcDbBlockBegin
  2
*Model_Space
 70
     0
 10
0.0
 20
0.0
 30
0.0
  3
*Model_Space
  1

  0
ENDBLK
  5
21
330
1F
100
AcDbEntity
  8
0
100
AcDbBlockEnd
  0
BLOCK
  5
1C
330
1B
100
AcDbEntity
 67
     1
  8
0
100
AcDbBlockBegin
  2
*Paper_Space
 70
     0
 10
0.0
 20
0.0
 30
0.0
  3
*Paper_Space
  1

  0
ENDBLK
  5
1D
330
1B
100
AcDbEntity
 67
     1
  8
0
100
AcDbBlockEnd
  0
BLOCK
  5
24
330
23
100
AcDbEntity
  8
0
100
AcDbBlockBegin
  2
*Paper_Space0
 70
     0
 10
0.0
 20
0.0
 30
0.0
  3
*Paper_Space0
  1

  0
ENDBLK
  5
25
330
23
100
AcDbEntity
  8
0
100
AcDbBlockEnd
  0
BLOCK
  5
76
330
75
100
AcDbEntity
  8
0
100
AcDbBlockBegin
  2
SW_NOTE_0
 70
     0
 10
0.0
 20
0.0
 30
0.0
  3
SW_NOTE_0
  1

  0
MTEXT
  5
79
330
75
100
AcDbEntity
  8
0
  6
Continuous
 62
     0
370
     0
100
AcDbMText
 10
0.0
 20
40.7272727273
 30
0.0
 40
35.0
 41
0.0
 71
     1
 72
     1
  1
HBC-C73P
  7
SLDTEXTSTYLE0
 73
     1
 44
1.0
  0
MTEXT
  5
7A
330
75
100
AcDbEntity
  8
0
  6
Continuous
 62
     0
370
     0
100
AcDbMText
 10
0.0
 20
-4.2727253356
 30
0.0
 40
35.0
 41
0.0
 71
     1
 72
     1
  1
HBC-C73N
  7
SLDTEXTSTYLE0
 73
     1
 44
1.0
  0
MTEXT
  5
7B
330
75
100
AcDbEntity
  8
0
  6
Continuous
 62
     0
370
     0
100
AcDbMText
 10
0.0
 20
-49.2727233984
 30
0.0
 40
35.0
 41
0.0
 71
     1
 72
     1
  1
HBC-C73K
  7
SLDTEXTSTYLE0
 73
     1
 44
1.0
  0
MTEXT
  5
7C
330
75
100
AcDbEntity
  8
0
  6
Continuous
 62
     0
370
     0
100
AcDbMText
 10
0.0
 20
-94.2727214613
 30
0.0
 40
35.0
 41
0.0
 71
     1
 72
     1
  1
HBC-C73R
  7
SLDTEXTSTYLE0
 73
     1
 44
1.0
  0
MTEXT
  5
7D
330
75
100
AcDbEntity
  8
0
  6
Continuous
 62
     0
370
     0
100
AcDbMText
 10
0.0
 20
-139.2727195241
 30
0.0
 40
35.0
 41
0.0
 71
     1
 72
     1
  1
HBC-C73S
  7
SLDTEXTSTYLE0
 73
     1
 44
1.0
  0
MTEXT
  5
7E
330
75
100
AcDbEntity
  8
0
  6
Continuous
 62
     0
370
     0
100
AcDbMText
 10
0.0
 20
-184.272717587
 30
0.0
 40
35.0
 41
0.0
 71
     1
 72
     1
  1
HBC-C73G
  7
SLDTEXTSTYLE0
 73
     1
 44
1.0
  0
ENDBLK
  5
77
330
75
100
AcDbEntity
  8
0
100
AcDbBlockEnd
  0
ENDSEC
  0
SECTION
  2
ENTITIES
  0
INSERT
  5
7F
330
1F
100
AcDbEntity
  8
0
  6
Continuous
 62
     7
370
     0
100
AcDbBlockReference
  2
SW_NOTE_0
 10
1436.233833007
 20
805.4803825576
 30
0.0
  0
LINE
  5
80
330
1F
100
AcDbEntity
  8
0
  6
SLD-実線
 62
     7
370
    25
100
AcDbLine
 10
1193.099085111
 20
1138.8208675378
 30
0.0
 11
1093.2839997983
 21
1081.1988453059
 31
0.0
  0
LINE
  5
81
330
1F
100
AcDbEntity
  8
0
  6
SLD-実線
 62
     7
370
    25
100
AcDbLine
 10
931.6759974276
 20
987.9045313626
 30
0.0
 11
768.8349995404
 21
893.8984242586
 31
0.0
  0
LINE
  5
82
330
1F
100
AcDbEntity
  8
0
  6
SLD-実線
 62
     7
370
    25
100
AcDbLine
 10
781.8339424119
 20
871.3811750336
 30
0.0
 11
944.6749402991
 21
965.3872821376
 31
0.0
  0
LINE
  5
83
330
1F
100
AcDbEntity
  8
0
  6
SLD-実線
 62
     7
370
    25
100
AcDbLine
 10
1093.2840011154
 20
1051.1774668514
 30
0.0
 11
1206.0980279826
 21
1116.3036183128
 31
0.0
  0
LINE
  5
84
330
1F
100
AcDbEntity
  8
0
  6
SLD-実線
 62
     7
370
    25
100
AcDbLine
 10
1093.2840057252
 20
980.6048689602
 30
0.0
 11
1093.2840057252
 21
2285.293835866
 31
0.0
  0
LINE
  5
85
330
1F
100
AcDbEntity
  8
0
  6
SLD-実線
 62
     7
370
    25
100
AcDbLine
 10
881.6490217978
 20
2285.293835866
 30
0.0
 11
881.6490217978
 21
980.6048689602
 31
0.0
  0
LINE
  5
86
330
1F
100
AcDbEntity
  8
0
  6
SLD-実線
 62
     7
370
    25
100
AcDbLine
 10
882.643381858
 20
2291.6723188526
 30
0.0
 11
984.4667539655
 21
2232.8909373318
 31
0.0
  0
LINE
  5
87
330
1F
100
AcDbEntity
  8
0
  6
SLD-実線
 62
     7
370
    25
100
AcDbLine
 10
1092.289645665
 20
2406.5821368214
 30
0.0
 11
990.4662735574
 21
2465.3635183422
 31
0.0
  0
ARC
  5
88
330
1F
100
AcDbEntity
  8
0
  6
SLD-実線
 62
     7
370
    25
100
AcDbCircle
 10
987.4665137615
 20
2238.0872300608
 30
0.0
 40
6.000000000000099
100
AcDbArc
 50
240.0026882664
 51
299.9973117337
  0
LINE
  5
89
330
1F
100
AcDbEntity
  8
0
  6
SLD-実線
 62
     7
370
    25
100
AcDbLine
 10
990.4662735574
 20
2232.8909373318
 30
0.0
 11
1092.289645665
 21
2291.6723188526
 31
0.0
  0
ARC
  5
8A
330
1F
100
AcDbEntity
  8
0
  6
SLD-実線
 62
     7
370
    25
100
AcDbCircle
 10
1089.2898902523
 20
2401.3858380334
 30
0.0
 40
5.999999999999985
100
AcDbArc
 50
0.0
 51
60.0026882664
  0
ARC
  5
8B
330
1F
100
AcDbEntity
  8
0
  6
SLD-実線
 62
     7
370
    25
100
AcDbCircle
 10
885.6431372706
 20
2401.3858380334
 30
0.0
 40
6.000000000000493
100
AcDbArc
 50
119.9973117336
 51
180.0
  0
LINE
  5
8C
330
1F
100
AcDbEntity
  8
0
  6
SLD-実線
 62
     7
370
    25
100
AcDbLine
 10
984.4667539655
 20
2465.3635183422
 30
0.0
 11
882.643381858
 21
2406.5821368214
 31
0.0
  0
LINE
  5
8D
330
1F
100
AcDbEntity
  8
0
  6
SLD-実線
 62
     7
370
    25
100
AcDbLine
 10
879.6431373733
 20
2401.3858407589
 30
0.0
 11
879.6431373733
 21
2296.8686141546
 31
0.0
  0
LINE
  5
8E
330
1F
100
AcDbEntity
  8
0
  6
SLD-実線
 62
     7
370
    25
100
AcDbLine
 10
1095.2898901496
 20
2296.8686141546
 30
0.0
 11
1095.2898901496
 21
2401.3858407589
 31
0.0
  0
ARC
  5
8F
330
1F
100
AcDbEntity
  8
0
  6
SLD-実線
 62
     7
370
    25
100
AcDbCircle
 10
1089.2898902523
 20
2296.868614112
 30
0.0
 40
6.0
100
AcDbArc
 50
299.9973117336
 51
0.0
  0
ARC
  5
90
330
1F
100
AcDbEntity
  8
0
  6
SLD-実線
 62
     7
370
    25
100
AcDbCircle
 10
885.6431372706
 20
2296.868614112
 30
0.0
 40
6.000000000000114
100
AcDbArc
 50
180.0
 51
240.0026882664
  0
ARC
  5
91
330
1F
100
AcDbEntity
  8
0
  6
SLD-実線
 62
     7
370
    25
100
AcDbCircle
 10
987.4665137615
 20
2460.1672220846
 30
0.0
 40
6.000000000000234
100
AcDbArc
 50
60.0026882663
 51
98.7930389329
  0
ARC
  5
92
330
1F
100
AcDbEntity
  8
0
  6
SLD-実線
 62
     7
370
    25
100
AcDbCircle
 10
987.4665137615
 20
2460.1672220846
 30
0.0
 40
6.000000000000234
100
AcDbArc
 50
98.7930389329
 51
119.9973117337
  0
LWPOLYLINE
  5
93
330
1F
100
AcDbEntity
  8
0
  6
SLD-実線
 62
     7
370
    25
100
AcDbPolyline
 90
       23
 70
   128
 43
0.0
 10
768.9705102194
 20
886.3136846608
 10
769.2282948329
 20
884.094462922
 10
769.9807662269
 20
881.7573801113
 10
771.1669629365
 20
879.4918139056
 10
772.690786031
 20
877.4812421503
 10
774.4287849217
 20
875.8886249272
 10
776.2401570305
 20
874.8429420667
 10
777.9781559212
 20
874.4289084835
 10
779.5019790158
 20
874.680111543
 10
780.6881757253
 20
875.5761241796
 10
781.4406471194
 20
877.0444220113
 10
781.6984317329
 20
878.9660119707
 10
781.4406471194
 20
881.1852337095
 10
780.6881757253
 20
883.5223165202
 10
779.5019790158
 20
885.7878827259
 10
777.9781559212
 20
887.7984544812
 10
776.2401570305
 20
889.3910717043
 10
774.4287849217
 20
890.4367545647
 10
772.690786031
 20
890.850788148
 10
771.1669629365
 20
890.5995850885
 10
769.9807662269
 20
889.7035724519
 10
769.2282948329
 20
888.2352746201
 10
768.9705102194
 20
886.3136846608
  0
LWPOLYLINE
  5
94
330
1F
100
AcDbEntity
  8
0
  6
SLD-実線
 62
     7
370
    25
100
AcDbPolyline
 90
       28
 70
   128
 43
0.0
 10
766.142082631
 20
887.9465011521
 10
766.389864612
 20
885.3554748591
 10
767.119852638
 20
882.6179716254
 10
768.2926934064
 20
879.8817905655
 10
769.8451574248
 20
877.294205355
 10
771.693551918
 20
874.994835021
 10
773.738229553
 20
873.1075901131
 10
775.8689608042
 20
871.7341644287
 10
777.9708776873
 20
870.9487543228
 10
779.9306651487
 20
870.7936084421
 10
781.6426707937
 20
871.2770580813
 10
783.0145994451
 20
872.3731499627
 10
783.972489969
 20
874.0226667452
 10
784.4647032564
 20
876.1367625059
 10
784.4647032564
 20
878.6013923178
 10
783.972489969
 20
881.2837854437
 10
783.0145994451
 20
884.0392590841
 10
781.6426707937
 20
886.7192487308
 10
779.9306651487
 20
889.1794353531
 10
777.9708776873
 20
891.2869145726
 10
775.8689608042
 20
892.9283260436
 10
773.738229553
 20
894.0150876365
 10
771.693551918
 20
894.4885772764
 10
769.8451574248
 20
894.3233177985
 10
768.2926934064
 20
893.5281693904
 10
767.119852638
 20
892.1460241189
 10
766.389864612
 20
890.2514444593
 10
766.142082631
 20
887.9465011521
  0
LWPOLYLINE
  5
95
330
1F
100
AcDbEntity
  8
0
  6
SLD-実線
 62
     7
370
    25
100
AcDbPolyline
 90
       15
 70
   128
 43
0.0
 10
1206.0980279826
 20
1116.3036183128
 10
1207.2786850157
 20
1117.2955932419
 10
1208.2365755396
 20
1118.9451100243
 10
1208.728788827
 20
1121.0592057851
 10
1208.728788827
 20
1123.523835597
 10
1208.2365755396
 20
1126.2062287228
 10
1207.2786850157
 20
1128.9617023632
 10
1205.9067563644
 20
1131.6416920099
 10
1204.1947507193
 20
1134.1018786322
 10
1202.234963258
 20
1136.2093578517
 10
1200.1330463748
 20
1137.8507693227
 10
1198.0023151237
 20
1138.9375309157
 10
1195.9576374886
 20
1139.4110205555
 10
1194.1092429954
 20
1139.2457610776
 10
1193.099085111
 20
1138.8208675378
  0
ARC
  5
96
330
1F
100
AcDbEntity
  8
0
  6
SLD-実線
 62
     7
370
    25
100
AcDbCircle
 10
987.4665137615
 20
920.4380087527
 30
0.0
 40
0.922214400798365
100
AcDbArc
 50
242.6095787792
 51
297.3904212207
  0
LINE
  5
97
330
1F
100
AcDbEntity
  8
0
  6
SLD-実線
 62
     7
370
    25
100
AcDbLine
 10
1093.108269172
 20
980.359945422
 30
0.0
 11
987.8907797436
 21
919.6191816785
 31
0.0
  0
LINE
  5
98
330
1F
100
AcDbEntity
  8
0
  6
SLD-実線
 62
     7
370
    25
100
AcDbLine
 10
987.0422477793
 20
919.6191816785
 30
0.0
 11
926.2179081055
 21
954.7323255679
 31
0.0
  0
LINE
  5
99
330
1F
100
AcDbEntity
  8
0
  6
SLD-実線
 62
     7
370
    25
100
AcDbLine
 10
900.2157938482
 20
969.7430266169
 30
0.0
 11
881.824758351
 21
980.359945422
 31
0.0
  0
LWPOLYLINE
  5
9A
330
1F
100
AcDbEntity
  8
0
  6
SLD-実線
 62
     7
370
    25
100
AcDbPolyline
 90
        8
 70
   128
 43
0.0
 10
934.4335030651
 20
986.733865043
 10
932.1533972502
 20
987.7637700385
 10
929.9799064984
 20
988.1728161372
 10
928.0146611847
 20
987.941853108
 10
926.3495537868
 20
987.0817844399
 10
925.0624423754
 20
985.6326407909
 10
924.2135119916
 20
983.662370985
 10
924.1920697824
 20
983.5842238063
  0
LWPOLYLINE
  5
9B
330
1F
100
AcDbEntity
  8
0
  6
SLD-実線
 62
     7
370
    25
100
AcDbPolyline
 90
       15
 70
   128
 43
0.0
 10
937.1910133125
 20
961.0668768619
 10
937.8202071503
 20
960.923637696
 10
939.9017774366
 20
960.83407368
 10
941.7276572808
 20
961.3828037739
 10
943.212470339
 20
962.5442608087
 10
944.2867888977
 20
964.2641054776
 10
944.900379182
 20
966.4618304655
 10
945.024549066
 20
969.0347588025
 10
944.6534941386
 20
971.8626204563
 10
943.8045637549
 20
974.8130444202
 10
942.5174523434
 20
977.748255273
 10
940.8523449455
 20
980.5308160212
 10
938.8870996319
 20
983.030802992
 10
936.7136088801
 20
985.1312159001
 10
934.4335030651
 20
986.733865043
  0
LWPOLYLINE
  5
9C
330
1F
100
AcDbEntity
  8
0
  6
SLD-実線
 62
     7
370
    25
100
AcDbPolyline
 90
       24
 70
   128
 43
0.0
 10
934.4335030651
 20
1529.7334737985
 10
932.5257518152
 20
1530.5320214154
 10
930.7594898405
 20
1530.6657295652
 10
929.2657123453
 20
1530.1247289894
 10
928.1552064366
 20
1528.9490706414
 10
927.5103333126
 20
1527.2260719442
 10
927.3789194389
 20
1525.083379371
 10
927.7707119328
 20
1522.6800153722
 10
928.6566538351
 20
1520.1941426499
 10
929.9710375502
 20
1517.8102376326
 10
931.6163820274
 20
1515.7049835853
 10
933.4706594634
 20
1514.0345815389
 10
935.3963466669
 20
1512.922905979
 10
937.2506241028
 20
1512.4524048683
 10
938.8959685801
 20
1512.6579846178
 10
940.2103522952
 20
1513.5243344997
 10
941.0962941974
 20
1514.9873204744
 10
941.4880866914
 20
1516.9383304884
 10
941.3566728177
 20
1519.2327502905
 10
940.7117996937
 20
1521.7003036483
 10
939.601293785
 20
1524.158124827
 10
938.1075162897
 20
1526.423804188
 10
936.3412543151
 20
1528.3293787068
 10
934.4335030651
 20
1529.7334737985
  0
LINE
  5
9D
330
1F
100
AcDbEntity
  8
0
  6
SLD-実線
 62
     7
370
    25
100
AcDbLine
 10
955.6467060266
 20
1068.3899447934
 30
0.0
 11
955.6467060266
 21
1133.7131474471
 31
0.0
  0
LWPOLYLINE
  5
9E
330
1F
100
AcDbEntity
  8
0
  6
SLD-実線
 62
     7
370
    25
100
AcDbPolyline
 90
       21
 70
   128
 43
0.0
 10
955.6467060266
 20
1133.7131474471
 10
955.3855364943
 20
1137.6959690058
 10
954.6084579262
 20
1141.8822967781
 10
953.3346063084
 20
1146.1690008637
 10
951.5953454818
 20
1150.450467317
 10
949.4335032299
 20
1154.621472625
 10
946.9023110223
 20
1158.5790611908
 10
944.0640961455
 20
1162.2260258495
 10
940.9887433426
 20
1165.4723799801
 10
937.7519793051
 20
1168.238197293
 10
934.4335030651
 20
1170.4555671851
 10
931.1150268251
 20
1172.0696284054
 10
927.8782627877
 20
1173.0408993039
 10
924.8029099848
 20
1173.3452719402
 10
921.964695108
 20
1172.9752404269
 10
919.4335029004
 20
1171.9401041778
 10
917.2716606484
 20
1170.2651088049
 10
915.5323998218
 20
1167.9917501582
 10
914.2585482041
 20
1165.1758038444
 10
913.4814696359
 20
1161.8866718895
 10
913.2203001037
 20
1158.2053902544
  0
LINE
  5
9F
330
1F
100
AcDbEntity
  8
0
  6
SLD-実線
 62
     7
370
    25
100
AcDbLine
 10
913.2203001037
 20
1158.2053902544
 30
0.0
 11
913.2203001037
 21
1092.8821876006
 31
0.0
  0
LWPOLYLINE
  5
A0
330
1F
100
AcDbEntity
  8
0
  6
SLD-実線
 62
     7
370
    25
100
AcDbPolyline
 90
       21
 70
   128
 43
0.0
 10
913.2203001037
 20
1092.8821876006
 10
913.4814696359
 20
1088.899366042
 10
914.2585482041
 20
1084.7130382696
 10
915.5323998218
 20
1080.426334184
 10
917.2716606484
 20
1076.1448677307
 10
919.4335029004
 20
1071.973959762
 10
921.964695108
 20
1068.0162738569
 10
924.8029099848
 20
1064.3694065375
 10
927.8782627877
 20
1061.1230524069
 10
931.1150268251
 20
1058.3571377548
 10
934.4335030651
 20
1056.1398652018
 10
937.7519793051
 20
1054.5257066424
 10
940.9887433426
 20
1053.5545330831
 10
944.0640961455
 20
1053.2501604468
 10
946.9023110223
 20
1053.6200946209
 10
949.4335032299
 20
1054.6553282092
 10
951.5953454818
 20
1056.3302262429
 10
953.3346063084
 20
1058.6035848896
 10
954.6084579262
 20
1061.4195312033
 10
955.3855364943
 20
1064.7086631582
 10
955.6467060266
 20
1068.3899447934
  0
ARC
  5
A1
330
1F
100
AcDbEntity
  8
0
  6
SLD-実線
 62
     7
370
    25
100
AcDbCircle
 10
1092.9837146117
 20
980.6348239717
 30
0.0
 40
0.3017814698854244
100
AcDbArc
 50
294.3765062222
 51
354.3034055266
  0
ARC
  5
A2
330
1F
100
AcDbEntity
  8
0
  6
SLD-実線
 62
     7
370
    25
100
AcDbCircle
 10
881.9493129113
 20
980.6348239717
 30
0.0
 40
0.3017814698852266
100
AcDbArc
 50
185.6965944733
 51
245.6234937778
  0
LWPOLYLINE
  5
A3
330
1F
100
AcDbEntity
  8
0
  6
SLD-実線
 62
     7
370
    25
100
AcDbPolyline
 90
        9
 70
   128
 43
0.0
 10
929.4837600539
 20
1526.8747285841
 10
929.7459740377
 20
1524.5203737656
 10
930.513170487
 20
1522.0378827063
 10
931.7284481927
 20
1519.6113202998
 10
933.301676778
 20
1517.4207674887
 10
935.1161764793
 20
1515.6285851749
 10
937.0373744261
 20
1514.3677493169
 10
938.9227841832
 20
1513.7317582662
 10
940.3799943483
 20
1513.7169876467
  0
ARC
  5
A4
330
1F
100
AcDbEntity
  8
0
  6
SLD-実線
 62
     7
370
    25
100
AcDbCircle
 10
935.0000516768
 20
1527.2811345349
 30
0.0
 40
5.531242090713388
100
AcDbArc
 50
142.5592819635
 51
184.2135830437
  0
LINE
  5
A5
330
1F
100
AcDbEntity
  8
0
  6
SLD-実線
 62
     7
370
    25
100
AcDbLine
 10
915.3416247462
 20
1159.4300049038
 30
0.0
 11
913.2203001037
 21
1158.2053902544
 31
0.0
  0
ARC
  5
A6
330
1F
100
AcDbEntity
  8
0
  6
SLD-実線
 62
     7
370
    25
100
AcDbCircle
 10
931.1330799484
 20
1160.7129806732
 30
0.0
 40
15.84348712329186
100
AcDbArc
 50
131.9941280427
 51
184.6447901904
  0
LINE
  5
A7
330
1F
100
AcDbEntity
  8
0
  6
SLD-実線
 62
     7
370
    25
100
AcDbLine
 10
915.3416247462
 20
1094.1068022501
 30
0.0
 11
913.2203001037
 21
1092.8821876006
 31
0.0
  0
LINE
  5
A8
330
1F
100
AcDbEntity
  8
0
  6
SLD-実線
 62
     7
370
    25
100
AcDbLine
 10
915.3416247462
 20
1159.4300049038
 30
0.0
 11
915.3416247462
 21
1094.1068022501
 31
0.0
  0
LWPOLYLINE
  5
A9
330
1F
100
AcDbEntity
  8
0
  6
SLD-実線
 62
     7
370
    25
100
AcDbPolyline
 90
       16
 70
   128
 43
0.0
 10
915.3416247462
 20
1094.1068022501
 10
915.6027942785
 20
1090.1239806914
 10
916.3798728466
 20
1085.9376529191
 10
917.6537244644
 20
1081.6509488335
 10
919.392985291
 20
1077.3694823802
 10
921.5548275429
 20
1073.1985744114
 10
924.0860197505
 20
1069.2408885064
 10
926.9242346274
 20
1065.594021187
 10
929.9995874302
 20
1062.3476670564
 10
933.2363514677
 20
1059.5817524042
 10
936.5548277077
 20
1057.3644798513
 10
939.8733039477
 20
1055.7503212919
 10
943.1100679851
 20
1054.7791477326
 10
946.185420788
 20
1054.4747750962
 10
949.0236356648
 20
1054.8447092704
 10
950.4554102069
 20
1055.331951279
  0
ARC
  5
AA
330
1F
100
AcDbEntity
  8
0
  6
SLD-実線
 62
     7
370
    25
100
AcDbCircle
 10
941.210335673
 20
968.6539387051
 30
0.0
 40
6.639512755438966
100
AcDbArc
 50
253.3894986739
 51
284.9055866879
  0
LWPOLYLINE
  5
AB
330
1F
100
AcDbEntity
  8
0
  6
SLD-実線
 62
     7
370
    25
100
AcDbPolyline
 90
        3
 70
   128
 43
0.0
 10
928.0701376326
 20
987.9582812714
 10
926.9285368986
 20
986.4103405303
 10
926.313394425
 20
984.8088384558
  0
LINE
  5
AC
330
1F
100
AcDbEntity
  8
0
  6
SLD-実線
 62
     7
370
    25
100
AcDbLine
 10
983.2238697447
 20
2340.1552329805
 30
0.0
 11
881.4004976372
 21
2398.9366145013
 31
0.0
  0
ARC
  5
AD
330
1F
100
AcDbEntity
  8
0
  6
SLD-実線
 62
     7
370
    25
100
AcDbCircle
 10
890.6118014987
 20
2398.517442614
 30
0.0
 40
9.220836399212674
100
AcDbArc
 50
122.6054772586
 51
177.3944815164
  0
LINE
  5
AE
330
1F
100
AcDbEntity
  8
0
  6
SLD-実線
 62
     7
370
    25
100
AcDbLine
 10
885.6431416539
 20
2406.2850833914
 30
0.0
 11
987.4665137615
 21
2347.5037018706
 31
0.0
  0
ARC
  5
AF
330
1F
100
AcDbEntity
  8
0
  6
SLD-実線
 62
     7
370
    25
100
AcDbCircle
 10
992.4351736063
 20
2339.7360610931
 30
0.0
 40
9.220836399211786
100
AcDbArc
 50
122.6054772586
 51
177.3944815164
  0
LINE
  5
B0
330
1F
100
AcDbEntity
  8
0
  6
SLD-実線
 62
     7
370
    25
100
AcDbLine
 10
983.2238697447
 20
2235.6380063762
 30
0.0
 11
983.2238697447
 21
2340.1552329805
 31
0.0
  0
LINE
  5
B1
330
1F
100
AcDbEntity
  8
0
  6
SLD-実線
 62
     7
370
    25
100
AcDbLine
 10
881.4004976372
 20
2294.419387897
 30
0.0
 11
983.2238697447
 21
2235.6380063762
 31
0.0
  0
LINE
  5
B2
330
1F
100
AcDbEntity
  8
0
  6
SLD-実線
 62
     7
370
    25
100
AcDbLine
 10
881.4004976372
 20
2398.9366145013
 30
0.0
 11
881.4004976372
 21
2294.419387897
 31
0.0
  0
LINE
  5
B3
330
1F
100
AcDbEntity
  8
0
  6
SLD-実線
 62
     7
370
    25
100
AcDbLine
 10
987.4665137615
 20
2465.0664649122
 30
0.0
 11
885.6431416539
 21
2406.2850833914
 31
0.0
  0
LINE
  5
B4
330
1F
100
AcDbEntity
  8
0
  6
SLD-実線
 62
     7
370
    25
100
AcDbLine
 10
1089.2898858691
 20
2406.2850833914
 30
0.0
 11
987.4665137615
 21
2465.0664649122
 31
0.0
  0
LINE
  5
B5
330
1F
100
AcDbEntity
  8
0
  6
SLD-実線
 62
     7
370
    25
100
AcDbLine
 10
987.4665137615
 20
2347.5037018706
 30
0.0
 11
1089.2898858691
 21
2406.2850833914
 31
0.0
  0
ARC
  5
B6
330
1F
100
AcDbEntity
  8
0
  6
SLD-実線
 62
     7
370
    25
100
AcDbCircle
 10
982.4978539166
 20
2339.7360610931
 30
0.0
 40
9.220836399211311
100
AcDbArc
 50
2.6055184836
 51
57.3945227414
  0
ARC
  5
B7
330
1F
100
AcDbEntity
  8
0
  6
SLD-実線
 62
     7
370
    25
100
AcDbCircle
 10
987.4665137615
 20
2348.3435247103
 30
0.0
 40
9.22215537198391
100
AcDbArc
 50
242.6097259538
 51
297.3902740462
  0
LINE
  5
B8
330
1F
100
AcDbEntity
  8
0
  6
SLD-実線
 62
     7
370
    25
100
AcDbLine
 10
1093.5325298858
 20
2398.9366145013
 30
0.0
 11
991.7091577782
 21
2340.1552329805
 31
0.0
  0
ARC
  5
B9
330
1F
100
AcDbEntity
  8
0
  6
SLD-実線
 62
     7
370
    25
100
AcDbCircle
 10
1084.3212260242
 20
2398.517442614
 30
0.0
 40
9.220836399211812
100
AcDbArc
 50
2.6055184836
 51
57.3945227414
  0
LINE
  5
BA
330
1F
100
AcDbEntity
  8
0
  6
SLD-実線
 62
     7
370
    25
100
AcDbLine
 10
991.7091577782
 20
2340.1552329805
 30
0.0
 11
991.7091577782
 21
2235.6380063762
 31
0.0
  0
ARC
  5
BB
330
1F
100
AcDbEntity
  8
0
  6
SLD-実線
 62
     7
370
    25
100
AcDbCircle
 10
987.4665137615
 20
2243.826298106
 30
0.0
 40
9.222155371983103
100
AcDbArc
 50
242.6097259538
 51
297.3902740462
  0
LINE
  5
BC
330
1F
100
AcDbEntity
  8
0
  6
SLD-実線
 62
     7
370
    25
100
AcDbLine
 10
1093.5325298858
 20
2294.419387897
 30
0.0
 11
1093.5325298858
 21
2398.9366145013
 31
0.0
  0
LINE
  5
BD
330
1F
100
AcDbEntity
  8
0
  6
SLD-実線
 62
     7
370
    25
100
AcDbLine
 10
991.7091577782
 20
2235.6380063762
 30
0.0
 11
1093.5325298858
 21
2294.419387897
 31
0.0
  0
LINE
  5
BE
330
1F
100
AcDbEntity
  8
0
  6
SLD-実線
 62
     7
370
    25
100
AcDbLine
 10
987.4665137615
 20
2224.2067000571
 30
0.0
 11
987.4665137615
 21
2229.105944971
 31
0.0
  0
LINE
  5
BF
330
1F
100
AcDbEntity
  8
0
  6
SLD-実線
 62
     7
370
    25
100
AcDbLine
 10
878.5720700488
 20
2287.0701243268
 30
0.0
 11
987.4665137615
 21
2224.2067000571
 31
0.0
  0
LINE
  5
C0
330
1F
100
AcDbEntity
  8
0
  6
SLD-実線
 62
     7
370
    25
100
AcDbLine
 10
878.5720700488
 20
2287.0701243268
 30
0.0
 11
878.5720700488
 21
2291.9693692407
 31
0.0
  0
LINE
  5
C1
330
1F
100
AcDbEntity
  8
0
  6
SLD-実線
 62
     7
370
    25
100
AcDbLine
 10
878.5720700488
 20
2291.9693692407
 30
0.0
 11
987.4665137615
 21
2229.105944971
 31
0.0
  0
LINE
  5
C2
330
1F
100
AcDbEntity
  8
0
  6
SLD-実線
 62
     7
370
    25
100
AcDbLine
 10
880.8369626624
 20
2293.2768639157
 30
0.0
 11
878.5720700488
 21
2291.9693692407
 31
0.0
  0
LINE
  5
C3
330
1F
100
AcDbEntity
  8
0
  6
SLD-実線
 62
     7
370
    25
100
AcDbLine
 10
1096.3609574741
 20
2291.9693692407
 30
0.0
 11
1094.0960648605
 21
2293.2768639157
 31
0.0
  0
LINE
  5
C4
330
1F
100
AcDbEntity
  8
0
  6
SLD-実線
 62
     7
370
    25
100
AcDbLine
 10
987.4665137615
 20
2229.105944971
 30
0.0
 11
1096.3609574741
 21
2291.9693692407
 31
0.0
  0
LINE
  5
C5
330
1F
100
AcDbEntity
  8
0
  6
SLD-実線
 62
     7
370
    25
100
AcDbLine
 10
1096.3609574741
 20
2287.0701243268
 30
0.0
 11
1096.3609574741
 21
2291.9693692407
 31
0.0
  0
LINE
  5
C6
330
1F
100
AcDbEntity
  8
0
  6
SLD-実線
 62
     7
370
    25
100
AcDbLine
 10
987.4665137615
 20
2224.2067000571
 30
0.0
 11
1096.3609574741
 21
2287.0701243268
 31
0.0
  0
LINE
  5
C7
330
1F
100
AcDbEntity
  8
0
  6
SLD-実線
 62
     8
370
    25
100
AcDbLine
 10
987.0422477793
 20
2224.4516205553
 30
0.0
 11
987.0422477793
 21
919.6191816785
 31
0.0
  0
LINE
  5
C8
330
1F
100
AcDbEntity
  8
0
  6
SLD-実線
 62
     8
370
    25
100
AcDbLine
 10
987.8907797436
 20
2224.4516205553
 30
0.0
 11
987.8907797436
 21
919.6191816785
 31
0.0
  0
LINE
  5
C9
330
1F
100
AcDbEntity
  8
0
  6
SLD-実線
 62
     8
370
    25
100
AcDbLine
 10
1093.108269172
 20
2285.1923842987
 30
0.0
 11
1093.108269172
 21
980.359945422
 31
0.0
  0
LINE
  5
CA
330
1F
100
AcDbEntity
  8
0
  6
SLD-実線
 62
     8
370
    25
100
AcDbLine
 10
881.824758351
 20
2285.1923842987
 30
0.0
 11
881.824758351
 21
980.359945422
 31
0.0
  0
ARC
  5
CB
330
1F
100
AcDbEntity
  8
0
  6
SLD-実線
 62
     8
370
    25
100
AcDbCircle
 10
986.0852572746
 20
2235.2779130061
 30
0.0
 40
2.883956627838254
100
AcDbArc
 50
172.8272779962
 51
235.8605290959
  0
ARC
  5
CC
330
1F
100
AcDbEntity
  8
0
  6
SLD-実線
 62
     8
370
    25
100
AcDbCircle
 10
884.2618851651
 20
2294.0592945261
 30
0.0
 40
2.88395662604764
100
AcDbArc
 50
172.8272779744
 51
235.8605291177
  0
ARC
  5
CD
330
1F
100
AcDbEntity
  8
0
  6
SLD-実線
 62
     8
370
    25
100
AcDbCircle
 10
989.2240406117
 20
2462.6131736004
 30
0.0
 40
3.017869925986008
100
AcDbArc
 50
65.6929976781
 51
125.617641223
  0
ARC
  5
CE
330
1F
100
AcDbEntity
  8
0
  6
SLD-実線
 62
     8
370
    25
100
AcDbCircle
 10
1091.0474127193
 20
2403.8317920795
 30
0.0
 40
3.017869925987299
100
AcDbArc
 50
65.6929976781
 51
125.617641223
  0
ARC
  5
CF
330
1F
100
AcDbEntity
  8
0
  6
SLD-実線
 62
     8
370
    25
100
AcDbCircle
 10
988.8477702486
 20
2235.277913006
 30
0.0
 40
2.883956627577689
100
AcDbArc
 50
304.1394709009
 51
7.172722007
  0
ARC
  5
D0
330
1F
100
AcDbEntity
  8
0
  6
SLD-実線
 62
     8
370
    25
100
AcDbCircle
 10
1090.5852415535
 20
2294.0981594954
 30
0.0
 40
2.964742180953647
100
AcDbArc
 50
305.0920113642
 51
6.2201815437
  0
ARC
  5
D1
330
1F
100
AcDbEntity
  8
0
  6
SLD-実線
 62
     8
370
    25
100
AcDbCircle
 10
1092.2871382659
 20
2401.6852841694
 30
0.0
 40
3.017645643752163
100
AcDbArc
 50
294.3747508866
 51
354.3051213804
  0
ARC
  5
D2
330
1F
100
AcDbEntity
  8
0
  6
SLD-実線
 62
     8
370
    25
100
AcDbCircle
 10
882.645889257
 20
2401.6852841694
 30
0.0
 40
3.017645643750866
100
AcDbArc
 50
185.6948786195
 51
245.6252491134
  0
ARC
  5
D3
330
1F
100
AcDbEntity
  8
0
  6
SLD-実線
 62
     8
370
    25
100
AcDbCircle
 10
883.8856148036
 20
2403.8317920795
 30
0.0
 40
3.017869925988039
100
AcDbArc
 50
54.382358777
 51
114.3070023219
  0
ARC
  5
D4
330
1F
100
AcDbEntity
  8
0
  6
SLD-実線
 62
     8
370
    25
100
AcDbCircle
 10
985.7089869112
 20
2462.6131736004
 30
0.0
 40
3.017869925986102
100
AcDbArc
 50
54.382358777
 51
114.3070023219
  0
ARC
  5
D5
330
1F
100
AcDbEntity
  8
0
  6
SLD-実線
 62
     8
370
    25
100
AcDbCircle
 10
882.645889257
 20
2297.1680575651
 30
0.0
 40
3.017645643750098
100
AcDbArc
 50
185.6948786195
 51
245.6252491134
  0
ARC
  5
D6
330
1F
100
AcDbEntity
  8
0
  6
SLD-実線
 62
     8
370
    25
100
AcDbCircle
 10
1092.2871382659
 20
2297.1680575651
 30
0.0
 40
3.017645643749871
100
AcDbArc
 50
294.3747508866
 51
354.3051213805
  0
ENDSEC
  0
SECTION
  2
OBJECTS
  0
DICTIONARY
  5
C
330
0
100
AcDbDictionary
281
     1
  3
ACAD_GROUP
350
D
  3
ACAD_LAYOUT
350
1A
  3
ACAD_MLINESTYLE
350
17
  3
ACAD_PLOTSETTINGS
350
19
  3
ACAD_PLOTSTYLENAME
350
E
  3
ACAD_SCALELIST
350
47
  0
DICTIONARY
  5
D
102
{ACAD_REACTORS
330
C
102
}
330
C
100
AcDbDictionary
281
     1
  0
DICTIONARY
  5
1A
102
{ACAD_REACTORS
330
C
102
}
330
C
100
AcDbDictionary
281
     1
  3
Layout1
350
1E
  3
Layout2
350
26
  3
Model
350
22
  0
DICTIONARY
  5
17
102
{ACAD_REACTORS
330
C
102
}
330
C
100
AcDbDictionary
281
     1
  3
Standard
350
18
  0
DICTIONARY
  5
19
102
{ACAD_REACTORS
330
C
102
}
330
C
100
AcDbDictionary
281
     1
  0
ACDBDICTIONARYWDFLT
  5
E
102
{ACAD_REACTORS
330
C
102
}
330
C
100
AcDbDictionary
281
     1
  3
Normal
350
F
100
AcDbDictionaryWithDefault
340
F
  0
DICTIONARY
  5
47
102
{ACAD_REACTORS
330
C
102
}
330
C
100
AcDbDictionary
281
     1
  3
A0
350
48
  3
A1
350
49
  3
A2
350
4A
  3
A3
350
4B
  3
A4
350
4C
  3
A5
350
4D
  3
A6
350
4E
  3
A7
350
4F
  3
A8
350
50
  3
A9
350
51
  3
B0
350
52
  3
B1
350
53
  3
B2
350
54
  3
B3
350
55
  3
B4
350
56
  3
B5
350
57
  3
B6
350
58
  3
B7
350
59
  3
B8
350
5A
  3
B9
350
5B
  3
C0
350
5C
  3
C1
350
5D
  3
C2
350
5E
  3
C3
350
5F
  3
C4
350
60
  3
C5
350
61
  3
C6
350
62
  3
C7
350
63
  3
C8
350
64
  3
C9
350
65
  3
D0
350
66
  3
D1
350
67
  3
D2
350
68
  0
LAYOUT
  5
1E
102
{ACAD_REACTORS
330
1A
102
}
330
1A
100
AcDbPlotSettings
  1

  2
none_device
  4

  6

 40
0.0
 41
0.0
 42
0.0
 43
0.0
 44
0.0
 45
0.0
 46
0.0
 47
0.0
 48
0.0
 49
0.0
140
0.0
141
0.0
142
1.0
143
1.0
 70
   688
 72
     1
 73
     0
 74
     5
  7

 75
    16
147
1.0
148
0.0
149
0.0
100
AcDbLayout
  1
Layout1
 70
     1
 71
     1
 10
0.0
 20
0.0
 11
420.0
 21
297.0
 12
0.0
 22
0.0
 32
0.0
 14
1.0000000000E+20
 24
1.0000000000E+20
 34
1.0000000000E+20
 15
-1.0000000000E+20
 25
-1.0000000000E+20
 35
-1.0000000000E+20
146
0.0
 13
0.0
 23
0.0
 33
0.0
 16
1.0
 26
0.0
 36
0.0
 17
0.0
 27
1.0
 37
0.0
 76
     0
330
1B
  0
LAYOUT
  5
26
102
{ACAD_REACTORS
330
1A
102
}
330
1A
100
AcDbPlotSettings
  1

  2
none_device
  4

  6

 40
0.0
 41
0.0
 42
0.0
 43
0.0
 44
0.0
 45
0.0
 46
0.0
 47
0.0
 48
0.0
 49
0.0
140
0.0
141
0.0
142
1.0
143
1.0
 70
   688
 72
     1
 73
     0
 74
     5
  7

 75
    16
147
1.0
148
0.0
149
0.0
100
AcDbLayout
  1
Layout2
 70
     1
 71
     2
 10
0.0
 20
0.0
 11
0.0
 21
0.0
 12
0.0
 22
0.0
 32
0.0
 14
0.0
 24
0.0
 34
0.0
 15
0.0
 25
0.0
 35
0.0
146
0.0
 13
0.0
 23
0.0
 33
0.0
 16
1.0
 26
0.0
 36
0.0
 17
0.0
 27
1.0
 37
0.0
 76
     0
330
23
  0
LAYOUT
  5
22
102
{ACAD_REACTORS
330
1A
102
}
330
1A
100
AcDbPlotSettings
  1

  2
none_device
  4
Letter_(8.50_x_11.00_Inches)
  6

 40
6.35
 41
6.35
 42
6.35000508
 43
6.35000508
 44
215.9
 45
279.4
 46
0.0
 47
0.0
 48
0.0
 49
0.0
140
0.0
141
0.0
142
1.0
143
1.0
 70
  1712
 72
     1
 73
     0
 74
     0
  7

 75
     0
147
1.0
148
0.0
149
0.0
100
AcDbLayout
  1
Model
 70
     1
 71
     0
 10
0.0
 20
0.0
 11
2100.0
 21
2970.0
 12
0.0
 22
0.0
 32
0.0
 14
0.0
 24
0.0
 34
0.0
 15
2100.0
 25
2970.0
 35
0.0
146
0.0
 13
0.0
 23
0.0
 33
0.0
 16
1.0
 26
0.0
 36
0.0
 17
0.0
 27
1.0
 37
0.0
 76
     0
330
1F
331
29
  0
MLINESTYLE
  5
18
102
{ACAD_REACTORS
330
17
102
}
330
17
100
AcDbMlineStyle
  2
Standard
 70
     0
  3

 62
   256
 51
90.0
 52
90.0
 71
     2
 49
0.5
 62
   256
  6
BYLAYER
 49
-0.5
 62
   256
  6
BYLAYER
  0
ACDBPLACEHOLDER
  5
F
102
{ACAD_REACTORS
330
E
102
}
330
E
  0
SCALE
  5
48
102
{ACAD_REACTORS
330
47
102
}
330
47
100
AcDbScale
 70
     0
300
1:1
140
1.0
141
1.0
290
     1
  0
SCALE
  5
49
102
{ACAD_REACTORS
330
47
102
}
330
47
100
AcDbScale
 70
     0
300
1:2
140
1.0
141
2.0
290
     0
  0
SCALE
  5
4A
102
{ACAD_REACTORS
330
47
102
}
330
47
100
AcDbScale
 70
     0
300
1:4
140
1.0
141
4.0
290
     0
  0
SCALE
  5
4B
102
{ACAD_REACTORS
330
47
102
}
330
47
100
AcDbScale
 70
     0
300
1:5
140
1.0
141
5.0
290
     0
  0
SCALE
  5
4C
102
{ACAD_REACTORS
330
47
102
}
330
47
100
AcDbScale
 70
     0
300
1:8
140
1.0
141
8.0
290
     0
  0
SCALE
  5
4D
102
{ACAD_REACTORS
330
47
102
}
330
47
100
AcDbScale
 70
     0
300
1:10
140
1.0
141
10.0
290
     0
  0
SCALE
  5
4E
102
{ACAD_REACTORS
330
47
102
}
330
47
100
AcDbScale
 70
     0
300
1:16
140
1.0
141
16.0
290
     0
  0
SCALE
  5
4F
102
{ACAD_REACTORS
330
47
102
}
330
47
100
AcDbScale
 70
     0
300
1:20
140
1.0
141
20.0
290
     0
  0
SCALE
  5
50
102
{ACAD_REACTORS
330
47
102
}
330
47
100
AcDbScale
 70
     0
300
1:30
140
1.0
141
30.0
290
     0
  0
SCALE
  5
51
102
{ACAD_REACTORS
330
47
102
}
330
47
100
AcDbScale
 70
     0
300
1:40
140
1.0
141
40.0
290
     0
  0
SCALE
  5
52
102
{ACAD_REACTORS
330
47
102
}
330
47
100
AcDbScale
 70
     0
300
1:50
140
1.0
141
50.0
290
     0
  0
SCALE
  5
53
102
{ACAD_REACTORS
330
47
102
}
330
47
100
AcDbScale
 70
     0
300
1:100
140
1.0
141
100.0
290
     0
  0
SCALE
  5
54
102
{ACAD_REACTORS
330
47
102
}
330
47
100
AcDbScale
 70
     0
300
2:1
140
2.0
141
1.0
290
     0
  0
SCALE
  5
55
102
{ACAD_REACTORS
330
47
102
}
330
47
100
AcDbScale
 70
     0
300
4:1
140
4.0
141
1.0
290
     0
  0
SCALE
  5
56
102
{ACAD_REACTORS
330
47
102
}
330
47
100
AcDbScale
 70
     0
300
8:1
140
8.0
141
1.0
290
     0
  0
SCALE
  5
57
102
{ACAD_REACTORS
330
47
102
}
330
47
100
AcDbScale
 70
     0
300
10:1
140
10.0
141
1.0
290
     0
  0
SCALE
  5
58
102
{ACAD_REACTORS
330
47
102
}
330
47
100
AcDbScale
 70
     0
300
100:1
140
100.0
141
1.0
290
     0
  0
SCALE
  5
59
102
{ACAD_REACTORS
330
47
102
}
330
47
100
AcDbScale
 70
     0
300
1/128" = 1'-0"
140
0.0078125
141
12.0
290
     0
  0
SCALE
  5
5A
102
{ACAD_REACTORS
330
47
102
}
330
47
100
AcDbScale
 70
     0
300
1/64" = 1'-0"
140
0.015625
141
12.0
290
     0
  0
SCALE
  5
5B
102
{ACAD_REACTORS
330
47
102
}
330
47
100
AcDbScale
 70
     0
300
1/32" = 1'-0"
140
0.03125
141
12.0
290
     0
  0
SCALE
  5
5C
102
{ACAD_REACTORS
330
47
102
}
330
47
100
AcDbScale
 70
     0
300
1/16" = 1'-0"
140
0.0625
141
12.0
290
     0
  0
SCALE
  5
5D
102
{ACAD_REACTORS
330
47
102
}
330
47
100
AcDbScale
 70
     0
300
3/32" = 1'-0"
140
0.09375
141
12.0
290
     0
  0
SCALE
  5
5E
102
{ACAD_REACTORS
330
47
102
}
330
47
100
AcDbScale
 70
     0
300
1/8" = 1'-0"
140
0.125
141
12.0
290
     0
  0
SCALE
  5
5F
102
{ACAD_REACTORS
330
47
102
}
330
47
100
AcDbScale
 70
     0
300
3/16" = 1'-0"
140
0.1875
141
12.0
290
     0
  0
SCALE
  5
60
102
{ACAD_REACTORS
330
47
102
}
330
47
100
AcDbScale
 70
     0
300
1/4" = 1'-0"
140
0.25
141
12.0
290
     0
  0
SCALE
  5
61
102
{ACAD_REACTORS
330
47
102
}
330
47
100
AcDbScale
 70
     0
300
3/8" = 1'-0"
140
0.375
141
12.0
290
     0
  0
SCALE
  5
62
102
{ACAD_REACTORS
330
47
102
}
330
47
100
AcDbScale
 70
     0
300
1/2" = 1'-0"
140
0.5
141
12.0
290
     0
  0
SCALE
  5
63
102
{ACAD_REACTORS
330
47
102
}
330
47
100
AcDbScale
 70
     0
300
3/4" = 1'-0"
140
0.75
141
12.0
290
     0
  0
SCALE
  5
64
102
{ACAD_REACTORS
330
47
102
}
330
47
100
AcDbScale
 70
     0
300
1" = 1'-0"
140
1.0
141
12.0
290
     0
  0
SCALE
  5
65
102
{ACAD_REACTORS
330
47
102
}
330
47
100
AcDbScale
 70
     0
300
1-1/2" = 1'-0"
140
1.5
141
12.0
290
     0
  0
SCALE
  5
66
102
{ACAD_REACTORS
330
47
102
}
330
47
100
AcDbScale
 70
     0
300
3" = 1'-0"
140
3.0
141
12.0
290
     0
  0
SCALE
  5
67
102
{ACAD_REACTORS
330
47
102
}
330
47
100
AcDbScale
 70
     0
300
6" = 1'-0"
140
6.0
141
12.0
290
     0
  0
SCALE
  5
68
102
{ACAD_REACTORS
330
47
102
}
330
47
100
AcDbScale
 70
     0
300
1'-0" = 1'-0"
140
12.0
141
12.0
290
     0
  0
ENDSEC
  0
EOF
