  0
SECTION
  2
HEADER
  9
$ACADVER
  1
AC1015
  9
$ACADMAINTVER
 70
     6
  9
$DWGCODEPAGE
  3
ANSI_932
  9
$INSBASE
 10
0.0
 20
0.0
 30
0.0
  9
$EXTMIN
 10
1.000000000000000E+20
 20
1.000000000000000E+20
 30
1.000000000000000E+20
  9
$EXTMAX
 10
-1.000000000000000E+20
 20
-1.000000000000000E+20
 30
-1.000000000000000E+20
  9
$LIMMIN
 10
0.0
 20
0.0
  9
$LIMMAX
 10
12.0
 20
9.0
  9
$ORTHOMODE
 70
     0
  9
$REGENMODE
 70
     1
  9
$FILLMODE
 70
     1
  9
$QTEXTMODE
 70
     0
  9
$MIRRTEXT
 70
     1
  9
$LTSCALE
 40
1.0
  9
$ATTMODE
 70
     1
  9
$TEXTSIZE
 40
0.2
  9
$TRACEWID
 40
0.05
  9
$TEXTSTYLE
  7
Standard
  9
$CLAYER
  8
0
  9
$CELTYPE
  6
ByLayer
  9
$CECOLOR
 62
   256
  9
$CELTSCALE
 40
1.0
  9
$DISPSILH
 70
     0
  9
$DIMSCALE
 40
1.0
  9
$DIMASZ
 40
0.18
  9
$DIMEXO
 40
0.0625
  9
$DIMDLI
 40
0.38
  9
$DIMRND
 40
0.0
  9
$DIMDLE
 40
0.0
  9
$DIMEXE
 40
0.18
  9
$DIMTP
 40
0.0
  9
$DIMTM
 40
0.0
  9
$DIMTXT
 40
0.18
  9
$DIMCEN
 40
0.09
  9
$DIMTSZ
 40
0.0
  9
$DIMTOL
 70
     0
  9
$DIMLIM
 70
     0
  9
$DIMTIH
 70
     1
  9
$DIMTOH
 70
     1
  9
$DIMSE1
 70
     0
  9
$DIMSE2
 70
     0
  9
$DIMTAD
 70
     0
  9
$DIMZIN
 70
     0
  9
$DIMBLK
  1

  9
$DIMASO
 70
     1
  9
$DIMSHO
 70
     1
  9
$DIMPOST
  1

  9
$DIMAPOST
  1

  9
$DIMALT
 70
     0
  9
$DIMALTD
 70
     2
  9
$DIMALTF
 40
25.4
  9
$DIMLFAC
 40
1.0
  9
$DIMTOFL
 70
     0
  9
$DIMTVP
 40
0.0
  9
$DIMTIX
 70
     0
  9
$DIMSOXD
 70
     0
  9
$DIMSAH
 70
     0
  9
$DIMBLK1
  1

  9
$DIMBLK2
  1

  9
$DIMSTYLE
  2
Standard
  9
$DIMCLRD
 70
     0
  9
$DIMCLRE
 70
     0
  9
$DIMCLRT
 70
     0
  9
$DIMTFAC
 40
1.0
  9
$DIMGAP
 40
0.09
  9
$DIMJUST
 70
     0
  9
$DIMSD1
 70
     0
  9
$DIMSD2
 70
     0
  9
$DIMTOLJ
 70
     1
  9
$DIMTZIN
 70
     0
  9
$DIMALTZ
 70
     0
  9
$DIMALTTZ
 70
     0
  9
$DIMUPT
 70
     0
  9
$DIMDEC
 70
     4
  9
$DIMTDEC
 70
     4
  9
$DIMALTU
 70
     2
  9
$DIMALTTD
 70
     2
  9
$DIMTXSTY
  7
Standard
  9
$DIMAUNIT
 70
     0
  9
$DIMADEC
 70
     0
  9
$DIMALTRND
 40
0.0
  9
$DIMAZIN
 70
     0
  9
$DIMDSEP
 70
    46
  9
$DIMATFIT
 70
     3
  9
$DIMFRAC
 70
     0
  9
$DIMLDRBLK
  1

  9
$DIMLUNIT
 70
     2
  9
$DIMLWD
 70
    -2
  9
$DIMLWE
 70
    -2
  9
$DIMTMOVE
 70
     0
  9
$LUNITS
 70
     2
  9
$LUPREC
 70
     4
  9
$SKETCHINC
 40
0.1
  9
$FILLETRAD
 40
0.5
  9
$AUNITS
 70
     0
  9
$AUPREC
 70
     0
  9
$MENU
  1
.
  9
$ELEVATION
 40
0.0
  9
$PELEVATION
 40
0.0
  9
$THICKNESS
 40
0.0
  9
$LIMCHECK
 70
     0
  9
$CHAMFERA
 40
0.5
  9
$CHAMFERB
 40
0.5
  9
$CHAMFERC
 40
1.0
  9
$CHAMFERD
 40
0.0
  9
$SKPOLY
 70
     0
  9
$TDCREATE
 40
2456666.508851666
  9
$TDUCREATE
 40
2456666.133851666
  9
$TDUPDATE
 40
2456666.508851678
  9
$TDUUPDATE
 40
2456666.133851678
  9
$TDINDWG
 40
0.0000000116
  9
$TDUSRTIMER
 40
0.0000000116
  9
$USRTIMER
 70
     1
  9
$ANGBASE
 50
0.0
  9
$ANGDIR
 70
     0
  9
$PDMODE
 70
     0
  9
$PDSIZE
 40
0.0
  9
$PLINEWID
 40
0.0
  9
$SPLFRAME
 70
     0
  9
$SPLINETYPE
 70
     6
  9
$SPLINESEGS
 70
     8
  9
$HANDSEED
  5
163
  9
$SURFTAB1
 70
     6
  9
$SURFTAB2
 70
     6
  9
$SURFTYPE
 70
     6
  9
$SURFU
 70
     6
  9
$SURFV
 70
     6
  9
$UCSBASE
  2

  9
$UCSNAME
  2

  9
$UCSORG
 10
0.0
 20
0.0
 30
0.0
  9
$UCSXDIR
 10
1.0
 20
0.0
 30
0.0
  9
$UCSYDIR
 10
0.0
 20
1.0
 30
0.0
  9
$UCSORTHOREF
  2

  9
$UCSORTHOVIEW
 70
     0
  9
$UCSORGTOP
 10
0.0
 20
0.0
 30
0.0
  9
$UCSORGBOTTOM
 10
0.0
 20
0.0
 30
0.0
  9
$UCSORGLEFT
 10
0.0
 20
0.0
 30
0.0
  9
$UCSORGRIGHT
 10
0.0
 20
0.0
 30
0.0
  9
$UCSORGFRONT
 10
0.0
 20
0.0
 30
0.0
  9
$UCSORGBACK
 10
0.0
 20
0.0
 30
0.0
  9
$PUCSBASE
  2

  9
$PUCSNAME
  2

  9
$PUCSORG
 10
0.0
 20
0.0
 30
0.0
  9
$PUCSXDIR
 10
1.0
 20
0.0
 30
0.0
  9
$PUCSYDIR
 10
0.0
 20
1.0
 30
0.0
  9
$PUCSORTHOREF
  2

  9
$PUCSORTHOVIEW
 70
     0
  9
$PUCSORGTOP
 10
0.0
 20
0.0
 30
0.0
  9
$PUCSORGBOTTOM
 10
0.0
 20
0.0
 30
0.0
  9
$PUCSORGLEFT
 10
0.0
 20
0.0
 30
0.0
  9
$PUCSORGRIGHT
 10
0.0
 20
0.0
 30
0.0
  9
$PUCSORGFRONT
 10
0.0
 20
0.0
 30
0.0
  9
$PUCSORGBACK
 10
0.0
 20
0.0
 30
0.0
  9
$USERI1
 70
     0
  9
$USERI2
 70
     0
  9
$USERI3
 70
     0
  9
$USERI4
 70
     0
  9
$USERI5
 70
     0
  9
$USERR1
 40
0.0
  9
$USERR2
 40
0.0
  9
$USERR3
 40
0.0
  9
$USERR4
 40
0.0
  9
$USERR5
 40
0.0
  9
$WORLDVIEW
 70
     1
  9
$SHADEDGE
 70
     3
  9
$SHADEDIF
 70
    70
  9
$TILEMODE
 70
     1
  9
$MAXACTVP
 70
    64
  9
$PINSBASE
 10
0.0
 20
0.0
 30
0.0
  9
$PLIMCHECK
 70
     0
  9
$PEXTMIN
 10
1.000000000000000E+20
 20
1.000000000000000E+20
 30
1.000000000000000E+20
  9
$PEXTMAX
 10
-1.000000000000000E+20
 20
-1.000000000000000E+20
 30
-1.000000000000000E+20
  9
$PLIMMIN
 10
0.0
 20
0.0
  9
$PLIMMAX
 10
12.0
 20
9.0
  9
$UNITMODE
 70
     0
  9
$VISRETAIN
 70
     1
  9
$PLINEGEN
 70
     0
  9
$PSLTSCALE
 70
     1
  9
$TREEDEPTH
 70
  3020
  9
$CMLSTYLE
  2
Standard
  9
$CMLJUST
 70
     0
  9
$CMLSCALE
 40
1.0
  9
$PROXYGRAPHICS
 70
     1
  9
$MEASUREMENT
 70
     0
  9
$CELWEIGHT
370
    -1
  9
$ENDCAPS
280
     0
  9
$JOINSTYLE
280
     0
  9
$LWDISPLAY
290
     1
  9
$INSUNITS
 70
     1
  9
$HYPERLINKBASE
  1

  9
$STYLESHEET
  1

  9
$XEDIT
290
     1
  9
$CEPSNTYPE
380
     0
  9
$PSTYLEMODE
290
     1
  9
$FINGERPRINTGUID
  2
{F457AECE-1299-497B-9635-640A8885EAC6}
  9
$VERSIONGUID
  2
{FAEB1C32-E019-11D5-929B-00C0DF256EC4}
  9
$EXTNAMES
290
     1
  9
$PSVPSCALE
 40
0.0
  9
$OLESTARTUP
290
     0
  0
ENDSEC
  0
SECTION
  2
CLASSES
  0
CLASS
  1
ACDBDICTIONARYWDFLT
  2
AcDbDictionaryWithDefault
  3
ObjectDBX Classes
 90
        0
280
     0
281
     0
  0
CLASS
  1
VISUALSTYLE
  2
AcDbVisualStyle
  3
ObjectDBX Classes
 90
     4095
280
     0
281
     0
  0
CLASS
  1
ACDBPLACEHOLDER
  2
AcDbPlaceHolder
  3
ObjectDBX Classes
 90
        0
280
     0
281
     0
  0
CLASS
  1
LAYOUT
  2
AcDbLayout
  3
ObjectDBX Classes
 90
        0
280
     0
281
     0
  0
ENDSEC
  0
SECTION
  2
TABLES
  0
TABLE
  2
VPORT
  5
8
330
0
100
AcDbSymbolTable
 70
     1
  0
VPORT
  5
29
330
8
100
AcDbSymbolTableRecord
100
AcDbViewportTableRecord
  2
*Active
 70
     0
 10
0.0
 20
0.0
 11
1.0
 21
1.0
 12
0.0
 22
0.0
 13
0.0
 23
0.0
 14
0.5
 24
0.5
 15
0.5
 25
0.5
 16
0.0
 26
0.0
 36
1.0
 17
104.9999647089931
 27
148.4996351082744
 37
0.0
 40
296.9999592356459
 41
0.7070705664688927
 42
50.0
 43
0.0
 44
0.0
 50
0.0
 51
0.0
 71
     0
 72
   100
 73
     1
 74
     3
 75
     0
 76
     0
 77
     0
 78
     0
281
     0
 65
     1
110
0.0
120
0.0
130
0.0
111
1.0
121
0.0
131
0.0
112
0.0
122
1.0
132
0.0
 79
     0
146
0.0
  0
ENDTAB
  0
TABLE
  2
LTYPE
  5
5
330
0
100
AcDbSymbolTable
 70
     1
  0
LTYPE
  5
14
330
5
100
AcDbSymbolTableRecord
100
AcDbLinetypeTableRecord
  2
ByBlock
 70
     0
  3

 72
    65
 73
     0
 40
0.0
  0
LTYPE
  5
15
330
5
100
AcDbSymbolTableRecord
100
AcDbLinetypeTableRecord
  2
ByLayer
 70
     0
  3

 72
    65
 73
     0
 40
0.0
  0
LTYPE
  5
16
330
5
100
AcDbSymbolTableRecord
100
AcDbLinetypeTableRecord
  2
Continuous
 70
     0
  3
Solid line
 72
    65
 73
     0
 40
0.0
  0
ENDTAB
  0
TABLE
  2
LAYER
  5
2
330
0
100
AcDbSymbolTable
 70
     2
  0
LAYER
  5
10
330
2
100
AcDbSymbolTableRecord
100
AcDbLayerTableRecord
  2
0
 70
     0
 62
     7
  6
Continuous
370
    -3
390
F
  0
LAYER
  5
3B
330
2
100
AcDbSymbolTableRecord
100
AcDbLayerTableRecord
  2
\U+30EC\U+30A4\U+30E4\U+30FC 1
 70
     0
 62
     7
  6
Continuous
370
    -3
390
F
  0
ENDTAB
  0
TABLE
  2
STYLE
  5
3
330
0
100
AcDbSymbolTable
 70
     1
  0
STYLE
  5
11
330
3
100
AcDbSymbolTableRecord
100
AcDbTextStyleTableRecord
  2
Standard
 70
     0
 40
0.0
 41
1.0
 50
0.0
 71
     0
 42
0.2
  3
txt
  4

  0
ENDTAB
  0
TABLE
  2
VIEW
  5
6
330
0
100
AcDbSymbolTable
 70
     0
  0
ENDTAB
  0
TABLE
  2
UCS
  5
7
330
0
100
AcDbSymbolTable
 70
     0
  0
ENDTAB
  0
TABLE
  2
APPID
  5
9
330
0
100
AcDbSymbolTable
 70
     1
  0
APPID
  5
12
330
9
100
AcDbSymbolTableRecord
100
AcDbRegAppTableRecord
  2
ACAD
 70
     0
  0
ENDTAB
  0
TABLE
  2
DIMSTYLE
  5
A
330
0
100
AcDbSymbolTable
 70
     1
100
AcDbDimStyleTable
  0
DIMSTYLE
105
27
330
A
100
AcDbSymbolTableRecord
100
AcDbDimStyleTableRecord
  2
Standard
 70
     0
340
11
  0
ENDTAB
  0
TABLE
  2
BLOCK_RECORD
  5
1
330
0
100
AcDbSymbolTable
 70
     6
  0
BLOCK_RECORD
  5
1F
330
1
100
AcDbSymbolTableRecord
100
AcDbBlockTableRecord
  2
*Model_Space
340
22
  0
BLOCK_RECORD
  5
1B
330
1
100
AcDbSymbolTableRecord
100
AcDbBlockTableRecord
  2
*Paper_Space
340
1E
  0
BLOCK_RECORD
  5
23
330
1
100
AcDbSymbolTableRecord
100
AcDbBlockTableRecord
  2
*Paper_Space0
340
26
  0
BLOCK_RECORD
  5
4F
330
1
100
AcDbSymbolTableRecord
100
AcDbBlockTableRecord
  2
block 2
340
0
102
{BLKREFS
331
50
102
}
  0
BLOCK_RECORD
  5
79
330
1
100
AcDbSymbolTableRecord
100
AcDbBlockTableRecord
  2
block 3
340
0
102
{BLKREFS
331
7A
102
}
  0
BLOCK_RECORD
  5
D4
330
1
100
AcDbSymbolTableRecord
100
AcDbBlockTableRecord
  2
block 4
340
0
102
{BLKREFS
331
D5
102
}
  0
BLOCK_RECORD
  5
140
330
1
100
AcDbSymbolTableRecord
100
AcDbBlockTableRecord
  2
block 5
340
0
102
{BLKREFS
331
141
102
}
  0
BLOCK_RECORD
  5
144
330
1
100
AcDbSymbolTableRecord
100
AcDbBlockTableRecord
  2
block 6
340
0
102
{BLKREFS
331
145
102
}
  0
ENDTAB
  0
ENDSEC
  0
SECTION
  2
BLOCKS
  0
BLOCK
  5
20
330
1F
100
AcDbEntity
  8
0
100
AcDbBlockBegin
  2
*Model_Space
 70
     0
 71
     0
 10
0.0
 20
0.0
 30
0.0
  3
*Model_Space
  1

  0
ENDBLK
  5
21
330
1F
100
AcDbEntity
  8
0
100
AcDbBlockEnd
  0
BLOCK
  5
1C
330
1B
100
AcDbEntity
 67
     1
  8
0
100
AcDbBlockBegin
  2
*Paper_Space
 70
     0
 71
     0
 10
0.0
 20
0.0
 30
0.0
  3
*Paper_Space
  1

  0
ENDBLK
  5
1D
330
1B
100
AcDbEntity
 67
     1
  8
0
100
AcDbBlockEnd
  0
BLOCK
  5
24
330
23
100
AcDbEntity
  8
0
100
AcDbBlockBegin
  2
*Paper_Space0
 70
     0
 71
     0
 10
0.0
 20
0.0
 30
0.0
  3
*Paper_Space0
  1

  0
ENDBLK
  5
25
330
23
100
AcDbEntity
  8
0
100
AcDbBlockEnd
  0
BLOCK
  5
51
330
4F
100
AcDbEntity
  8
0
100
AcDbBlockBegin
  2
block 2
 70
     0
 71
     0
 10
0.0
 20
0.0
 30
0.0
  3
block 2
  1

  0
POLYLINE
  5
53
330
4F
100
AcDbEntity
  8
\U+30EC\U+30A4\U+30E4\U+30FC 1
 62
    29
370
    35
100
AcDb2dPolyline
 66
     1
 10
0.0
 20
0.0
 30
0.0
  0
VERTEX
  5
54
330
53
100
AcDbEntity
  8
\U+30EC\U+30A4\U+30E4\U+30FC 1
 62
    29
370
    35
100
AcDbVertex
100
AcDb2dVertex
 10
199.9998507529514
 20
10.0000786650347
 30
0.0
  0
VERTEX
  5
55
330
53
100
AcDbEntity
  8
\U+30EC\U+30A4\U+30E4\U+30FC 1
 62
    29
370
    35
100
AcDbVertex
100
AcDb2dVertex
 10
10.00025091980897
 20
10.0000786650347
 30
0.0
  0
VERTEX
  5
56
330
53
100
AcDbEntity
  8
\U+30EC\U+30A4\U+30E4\U+30FC 1
 62
    29
370
    35
100
AcDbVertex
100
AcDb2dVertex
 10
10.00025091980897
 20
286.9998805706111
 30
0.0
  0
VERTEX
  5
57
330
53
100
AcDbEntity
  8
\U+30EC\U+30A4\U+30E4\U+30FC 1
 62
    29
370
    35
100
AcDbVertex
100
AcDb2dVertex
 10
199.9998507529514
 20
286.9998805706111
 30
0.0
  0
VERTEX
  5
58
330
53
100
AcDbEntity
  8
\U+30EC\U+30A4\U+30E4\U+30FC 1
 62
    29
370
    35
100
AcDbVertex
100
AcDb2dVertex
 10
199.9998507529514
 20
10.0000786650347
 30
0.0
  0
SEQEND
  5
59
330
53
100
AcDbEntity
  8
\U+30EC\U+30A4\U+30E4\U+30FC 1
370
    35
  0
POLYLINE
  5
5A
330
4F
100
AcDbEntity
  8
\U+30EC\U+30A4\U+30E4\U+30FC 1
 62
    29
370
    35
100
AcDb2dPolyline
 66
     1
 10
0.0
 20
0.0
 30
0.0
  0
VERTEX
  5
5B
330
5A
100
AcDbEntity
  8
\U+30EC\U+30A4\U+30E4\U+30FC 1
 62
    29
370
    35
100
AcDbVertex
100
AcDb2dVertex
 10
10.0000786650347
 20
10.0000786650347
 30
0.0
  0
VERTEX
  5
5C
330
5A
100
AcDbEntity
  8
\U+30EC\U+30A4\U+30E4\U+30FC 1
 62
    29
370
    35
100
AcDbVertex
100
AcDb2dVertex
 10
10.0000786650347
 20
34.9766764235475
 30
0.0
  0
VERTEX
  5
5D
330
5A
100
AcDbEntity
  8
\U+30EC\U+30A4\U+30E4\U+30FC 1
 62
    29
370
    35
100
AcDbVertex
100
AcDb2dVertex
 10
199.9168239517569
 20
34.9766764235475
 30
0.0
  0
SEQEND
  5
5E
330
5A
100
AcDbEntity
  8
\U+30EC\U+30A4\U+30E4\U+30FC 1
370
    35
  0
POLYLINE
  5
5F
330
4F
100
AcDbEntity
  8
\U+30EC\U+30A4\U+30E4\U+30FC 1
 62
    29
370
    35
100
AcDb2dPolyline
 66
     1
 10
0.0
 20
0.0
 30
0.0
  0
VERTEX
  5
60
330
5F
100
AcDbEntity
  8
\U+30EC\U+30A4\U+30E4\U+30FC 1
 62
    29
370
    35
100
AcDbVertex
100
AcDb2dVertex
 10
199.9998507529514
 20
10.0000786650347
 30
0.0
  0
VERTEX
  5
61
330
5F
100
AcDbEntity
  8
\U+30EC\U+30A4\U+30E4\U+30FC 1
 62
    29
370
    35
100
AcDbVertex
100
AcDb2dVertex
 10
10.70063883196026
 20
10.0000786650347
 30
0.0
  0
SEQEND
  5
62
330
5F
100
AcDbEntity
  8
\U+30EC\U+30A4\U+30E4\U+30FC 1
370
    35
  0
MTEXT
  5
63
330
4F
100
AcDbEntity
  8
\U+30EC\U+30A4\U+30E4\U+30FC 1
 62
    29
100
AcDbMText
 10
14.79634059959953
 20
14.33159721863932
 30
0.0
 40
2.187786638666616
 41
0.0
 71
     7
 72
     1
  1
\fMS Gothic|b0|i0|c0|p34;\W1;　
 73
     1
 44
1.0
  0
MTEXT
  5
64
330
4F
100
AcDbEntity
  8
\U+30EC\U+30A4\U+30E4\U+30FC 1
 62
    29
100
AcDbMText
 10
11.20586208487215
 20
19.56952039441317
 30
0.0
 40
2.187786638666616
 41
0.0
 71
     7
 72
     1
  1
\fMS Gothic|b0|i0|c0|p34;\W1;品
 73
     1
 44
1.0
  0
MTEXT
  5
65
330
4F
100
AcDbEntity
  8
\U+30EC\U+30A4\U+30E4\U+30FC 1
 62
    29
100
AcDbMText
 10
11.20586208487215
 20
11.18829209789737
 30
0.0
 40
2.187786638666616
 41
0.0
 71
     7
 72
     1
  1
\fMS Gothic|b0|i0|c0|p34;\W1;名
 73
     1
 44
1.0
  0
MTEXT
  5
66
330
4F
100
AcDbEntity
  8
\U+30EC\U+30A4\U+30E4\U+30FC 1
 62
    29
100
AcDbMText
 10
11.20586208487215
 20
31.23220214062945
 30
0.0
 40
2.187786638666616
 41
0.0
 71
     7
 72
     1
  1
\fMS Gothic|b0|i0|c0|p34;\W1;品
 73
     1
 44
1.0
  0
MTEXT
  5
67
330
4F
100
AcDbEntity
  8
\U+30EC\U+30A4\U+30E4\U+30FC 1
 62
    29
100
AcDbMText
 10
11.20586208487215
 20
26.15861001950201
 30
0.0
 40
2.187786638666616
 41
0.0
 71
     7
 72
     1
  1
\fMS Gothic|b0|i0|c0|p34;\W1;番
 73
     1
 44
1.0
  0
POLYLINE
  5
68
330
4F
100
AcDbEntity
  8
\U+30EC\U+30A4\U+30E4\U+30FC 1
 62
    29
370
    35
100
AcDb2dPolyline
 66
     1
 10
0.0
 20
0.0
 30
0.0
  0
VERTEX
  5
69
330
68
100
AcDbEntity
  8
\U+30EC\U+30A4\U+30E4\U+30FC 1
 62
    29
370
    35
100
AcDbVertex
100
AcDb2dVertex
 10
10.0000786650347
 20
24.56732041486512
 30
0.0
  0
VERTEX
  5
6A
330
68
100
AcDbEntity
  8
\U+30EC\U+30A4\U+30E4\U+30FC 1
 62
    29
370
    35
100
AcDbVertex
100
AcDb2dVertex
 10
75.72474905875978
 20
24.56732041486512
 30
0.0
  0
SEQEND
  5
6B
330
68
100
AcDbEntity
  8
\U+30EC\U+30A4\U+30E4\U+30FC 1
370
    35
  0
POLYLINE
  5
6C
330
4F
100
AcDbEntity
  8
\U+30EC\U+30A4\U+30E4\U+30FC 1
 62
    29
370
    35
100
AcDb2dPolyline
 66
     1
 10
0.0
 20
0.0
 30
0.0
  0
VERTEX
  5
6D
330
6C
100
AcDbEntity
  8
\U+30EC\U+30A4\U+30E4\U+30FC 1
 62
    29
370
    35
100
AcDbVertex
100
AcDb2dVertex
 10
15.69619954034678
 20
34.9766764235475
 30
0.0
  0
VERTEX
  5
6E
330
6C
100
AcDbEntity
  8
\U+30EC\U+30A4\U+30E4\U+30FC 1
 62
    29
370
    35
100
AcDbVertex
100
AcDb2dVertex
 10
15.69619954034678
 20
10.0000786650347
 30
0.0
  0
SEQEND
  5
6F
330
6C
100
AcDbEntity
  8
\U+30EC\U+30A4\U+30E4\U+30FC 1
370
    35
  0
MTEXT
  5
70
330
4F
100
AcDbEntity
  8
\U+30EC\U+30A4\U+30E4\U+30FC 1
 62
    29
100
AcDbMText
 10
14.79634059959953
 20
14.33159721863932
 30
0.0
 40
2.187786638666616
 41
0.0
 71
     7
 72
     1
  1
\fMS Gothic|b0|i0|c0|p34;\W1;　
 73
     1
 44
1.0
  0
POLYLINE
  5
71
330
4F
100
AcDbEntity
  8
\U+30EC\U+30A4\U+30E4\U+30FC 1
 62
    29
370
    35
100
AcDb2dPolyline
 66
     1
 10
0.0
 20
0.0
 30
0.0
  0
VERTEX
  5
72
330
71
100
AcDbEntity
  8
\U+30EC\U+30A4\U+30E4\U+30FC 1
 62
    29
370
    35
100
AcDbVertex
100
AcDb2dVertex
 10
15.69619954034678
 20
34.9766764235475
 30
0.0
  0
VERTEX
  5
73
330
71
100
AcDbEntity
  8
\U+30EC\U+30A4\U+30E4\U+30FC 1
 62
    29
370
    35
100
AcDbVertex
100
AcDb2dVertex
 10
15.69619954034678
 20
10.0000786650347
 30
0.0
  0
SEQEND
  5
74
330
71
100
AcDbEntity
  8
\U+30EC\U+30A4\U+30E4\U+30FC 1
370
    35
  0
POLYLINE
  5
75
330
4F
100
AcDbEntity
  8
\U+30EC\U+30A4\U+30E4\U+30FC 1
 62
    29
370
    35
100
AcDb2dPolyline
 66
     1
 10
0.0
 20
0.0
 30
0.0
  0
VERTEX
  5
76
330
75
100
AcDbEntity
  8
\U+30EC\U+30A4\U+30E4\U+30FC 1
 62
    29
370
    35
100
AcDbVertex
100
AcDb2dVertex
 10
75.72457680398553
 20
34.9766764235475
 30
0.0
  0
VERTEX
  5
77
330
75
100
AcDbEntity
  8
\U+30EC\U+30A4\U+30E4\U+30FC 1
 62
    29
370
    35
100
AcDbVertex
100
AcDb2dVertex
 10
75.72457680398553
 20
10.0000786650347
 30
0.0
  0
SEQEND
  5
78
330
75
100
AcDbEntity
  8
\U+30EC\U+30A4\U+30E4\U+30FC 1
370
    35
  0
INSERT
  5
7A
330
4F
100
AcDbEntity
  8
\U+30EC\U+30A4\U+30E4\U+30FC 1
100
AcDbBlockReference
  2
block 3
 10
0.0
 20
0.0
 30
0.0
  0
MTEXT
  5
9D
330
4F
100
AcDbEntity
  8
\U+30EC\U+30A4\U+30E4\U+30FC 1
 62
    29
100
AcDbMText
 10
142.9277099252056
 20
22.18228081042665
 30
0.0
 40
2.604209742848704
 41
0.0
 71
     7
 72
     1
  1
\fHGPGothicE|b0|i0|c0|p34;\W1;和
 73
     1
 44
1.0
  0
MTEXT
  5
9E
330
4F
100
AcDbEntity
  8
\U+30EC\U+30A4\U+30E4\U+30FC 1
 62
    29
100
AcDbMText
 10
146.7572780666093
 20
22.18228081042665
 30
0.0
 40
2.604209742848704
 41
0.0
 71
     7
 72
     1
  1
\fHGPGothicE|b0|i0|c0|p34;\W1;歌
 73
     1
 44
1.0
  0
MTEXT
  5
9F
330
4F
100
AcDbEntity
  8
\U+30EC\U+30A4\U+30E4\U+30FC 1
 62
    29
100
AcDbMText
 10
150.5871907175616
 20
22.18228081042665
 30
0.0
 40
2.604209742848704
 41
0.0
 71
     7
 72
     1
  1
\fHGPGothicE|b0|i0|c0|p34;\W1;山
 73
     1
 44
1.0
  0
MTEXT
  5
A0
330
4F
100
AcDbEntity
  8
\U+30EC\U+30A4\U+30E4\U+30FC 1
 62
    29
100
AcDbMText
 10
154.4167588589653
 20
22.18228081042665
 30
0.0
 40
2.604209742848704
 41
0.0
 71
     7
 72
     1
  1
\fHGPGothicE|b0|i0|c0|p34;\W1;県
 73
     1
 44
1.0
  0
MTEXT
  5
A1
330
4F
100
AcDbEntity
  8
\U+30EC\U+30A4\U+30E4\U+30FC 1
 62
    29
100
AcDbMText
 10
158.2466715099175
 20
22.18228081042665
 30
0.0
 40
2.604209742848704
 41
0.0
 71
     7
 72
     1
  1
\fHGPGothicE|b0|i0|c0|p34;\W1;海
 73
     1
 44
1.0
  0
MTEXT
  5
A2
330
4F
100
AcDbEntity
  8
\U+30EC\U+30A4\U+30E4\U+30FC 1
 62
    29
100
AcDbMText
 10
162.0762396513212
 20
22.18228081042665
 30
0.0
 40
2.604209742848704
 41
0.0
 71
     7
 72
     1
  1
\fHGPGothicE|b0|i0|c0|p34;\W1;南
 73
     1
 44
1.0
  0
MTEXT
  5
A3
330
4F
100
AcDbEntity
  8
\U+30EC\U+30A4\U+30E4\U+30FC 1
 62
    29
100
AcDbMText
 10
165.9061523022735
 20
22.18228081042665
 30
0.0
 40
2.604209742848704
 41
0.0
 71
     7
 72
     1
  1
\fHGPGothicE|b0|i0|c0|p34;\W1;市
 73
     1
 44
1.0
  0
MTEXT
  5
A4
330
4F
100
AcDbEntity
  8
\U+30EC\U+30A4\U+30E4\U+30FC 1
 62
    29
100
AcDbMText
 10
169.7357204436772
 20
22.18228081042665
 30
0.0
 40
2.604209742848704
 41
0.0
 71
     7
 72
     1
  1
\fHGPGothicE|b0|i0|c0|p34;\W1;南
 73
     1
 44
1.0
  0
MTEXT
  5
A5
330
4F
100
AcDbEntity
  8
\U+30EC\U+30A4\U+30E4\U+30FC 1
 62
    29
100
AcDbMText
 10
173.5652885850809
 20
22.18228081042665
 30
0.0
 40
2.604209742848704
 41
0.0
 71
     7
 72
     1
  1
\fHGPGothicE|b0|i0|c0|p34;\W1;赤
 73
     1
 44
1.0
  0
MTEXT
  5
A6
330
4F
100
AcDbEntity
  8
\U+30EC\U+30A4\U+30E4\U+30FC 1
 62
    29
100
AcDbMText
 10
177.3952012360332
 20
22.18228081042665
 30
0.0
 40
2.604209742848704
 41
0.0
 71
     7
 72
     1
  1
\fHGPGothicE|b0|i0|c0|p34;\W1;坂
 73
     1
 44
1.0
  0
MTEXT
  5
A7
330
4F
100
AcDbEntity
  8
\U+30EC\U+30A4\U+30E4\U+30FC 1
 62
    29
100
AcDbMText
 10
181.2247693774369
 20
22.18228081042665
 30
0.0
 40
2.604209742848704
 41
0.0
 71
     7
 72
     1
  1
\fHGPGothicE|b0|i0|c0|p34;\W1;２
 73
     1
 44
1.0
  0
MTEXT
  5
A8
330
4F
100
AcDbEntity
  8
\U+30EC\U+30A4\U+30E4\U+30FC 1
 62
    29
100
AcDbMText
 10
183.6952473499095
 20
22.18228081042665
 30
0.0
 40
2.604209742848704
 41
0.0
 71
     7
 72
     1
  1
\fHGPGothicE|b0|i0|c0|p34;\W1;０
 73
     1
 44
1.0
  0
MTEXT
  5
A9
330
4F
100
AcDbEntity
  8
\U+30EC\U+30A4\U+30E4\U+30FC 1
 62
    29
100
AcDbMText
 10
186.1612466982514
 20
22.18228081042665
 30
0.0
 40
2.604209742848704
 41
0.0
 71
     7
 72
     1
  1
\fHGPGothicE|b0|i0|c0|p34;\W1;-
 73
     1
 44
1.0
  0
MTEXT
  5
AA
330
4F
100
AcDbEntity
  8
\U+30EC\U+30A4\U+30E4\U+30FC 1
 62
    29
100
AcDbMText
 10
187.4328314418571
 20
22.18228081042665
 30
0.0
 40
2.604209742848704
 41
0.0
 71
     7
 72
     1
  1
\fHGPGothicE|b0|i0|c0|p34;\W1;１
 73
     1
 44
1.0
  0
MTEXT
  5
AB
330
4F
100
AcDbEntity
  8
\U+30EC\U+30A4\U+30E4\U+30FC 1
 62
    29
100
AcDbMText
 10
142.9277099252056
 20
17.64405652770704
 30
0.0
 40
2.604209742848704
 41
0.0
 71
     7
 72
     1
  1
\fHGPGothicE|b0|i0|c0|p34;\W1;Ｔ
 73
     1
 44
1.0
  0
MTEXT
  5
AC
330
4F
100
AcDbEntity
  8
\U+30EC\U+30A4\U+30E4\U+30FC 1
 62
    29
100
AcDbMText
 10
145.6658718168821
 20
17.64405652770704
 30
0.0
 40
2.604209742848704
 41
0.0
 71
     7
 72
     1
  1
\fHGPGothicE|b0|i0|c0|p34;\W1;Ｅ
 73
     1
 44
1.0
  0
MTEXT
  5
AD
330
4F
100
AcDbEntity
  8
\U+30EC\U+30A4\U+30E4\U+30FC 1
 62
    29
100
AcDbMText
 10
148.4346950583775
 20
17.64405652770704
 30
0.0
 40
2.604209742848704
 41
0.0
 71
     7
 72
     1
  1
\fHGPGothicE|b0|i0|c0|p34;\W1;Ｌ
 73
     1
 44
1.0
  0
MTEXT
  5
AE
330
4F
100
AcDbEntity
  8
\U+30EC\U+30A4\U+30E4\U+30FC 1
 62
    29
100
AcDbMText
 10
151.035053130644
 20
17.64405652770704
 30
0.0
 40
2.604209742848704
 41
0.0
 71
     7
 72
     1
  1
\fHGPGothicE|b0|i0|c0|p34;\W1;.
 73
     1
 44
1.0
  0
MTEXT
  5
AF
330
4F
100
AcDbEntity
  8
\U+30EC\U+30A4\U+30E4\U+30FC 1
 62
    29
100
AcDbMText
 10
151.889436810986
 20
17.64405652770704
 30
0.0
 40
2.604209742848704
 41
0.0
 71
     7
 72
     1
  1
\fHGPGothicE|b0|i0|c0|p34;\W1; 
 73
     1
 44
1.0
  0
MTEXT
  5
B0
330
4F
100
AcDbEntity
  8
\U+30EC\U+30A4\U+30E4\U+30FC 1
 62
    29
100
AcDbMText
 10
153.1606770450432
 20
17.64405652770704
 30
0.0
 40
2.604209742848704
 41
0.0
 71
     7
 72
     1
  1
\fHGPGothicE|b0|i0|c0|p34;\W1; 
 73
     1
 44
1.0
  0
MTEXT
  5
B1
330
4F
100
AcDbEntity
  8
\U+30EC\U+30A4\U+30E4\U+30FC 1
 62
    29
100
AcDbMText
 10
142.9277099252056
 20
13.10962185002121
 30
0.0
 40
2.604209742848704
 41
0.0
 71
     7
 72
     1
  1
\fHGPGothicE|b0|i0|c0|p34;\W1;Ｆ
 73
     1
 44
1.0
  0
MTEXT
  5
B2
330
4F
100
AcDbEntity
  8
\U+30EC\U+30A4\U+30E4\U+30FC 1
 62
    29
100
AcDbMText
 10
145.4860378325521
 20
13.10962185002121
 30
0.0
 40
2.604209742848704
 41
0.0
 71
     7
 72
     1
  1
\fHGPGothicE|b0|i0|c0|p34;\W1;Ａ
 73
     1
 44
1.0
  0
MTEXT
  5
B3
330
4F
100
AcDbEntity
  8
\U+30EC\U+30A4\U+30E4\U+30FC 1
 62
    29
100
AcDbMText
 10
148.7909179315523
 20
13.10962185002121
 30
0.0
 40
2.604209742848704
 41
0.0
 71
     7
 72
     1
  1
\fHGPGothicE|b0|i0|c0|p34;\W1;Ｘ
 73
     1
 44
1.0
  0
MTEXT
  5
B4
330
4F
100
AcDbEntity
  8
\U+30EC\U+30A4\U+30E4\U+30FC 1
 62
    29
100
AcDbMText
 10
151.9466253960411
 20
13.10962185002121
 30
0.0
 40
2.604209742848704
 41
0.0
 71
     7
 72
     1
  1
\fHGPGothicE|b0|i0|c0|p34;\W1;.
 73
     1
 44
1.0
  0
MTEXT
  5
B5
330
4F
100
AcDbEntity
  8
\U+30EC\U+30A4\U+30E4\U+30FC 1
 62
    29
100
AcDbMText
 10
152.8006645668346
 20
13.10962185002121
 30
0.0
 40
2.604209742848704
 41
0.0
 71
     7
 72
     1
  1
\fHGPGothicE|b0|i0|c0|p34;\W1; 
 73
     1
 44
1.0
  0
MTEXT
  5
B6
330
4F
100
AcDbEntity
  8
\U+30EC\U+30A4\U+30E4\U+30FC 1
 62
    29
100
AcDbMText
 10
156.5003526084444
 20
17.16932236983962
 30
0.0
 40
2.604209742848704
 41
0.0
 71
     7
 72
     1
  1
\fHGPGothicE|b0|i0|c0|p34;\W1;０
 73
     1
 44
1.0
  0
MTEXT
  5
B7
330
4F
100
AcDbEntity
  8
\U+30EC\U+30A4\U+30E4\U+30FC 1
 62
    29
100
AcDbMText
 10
159.073838935926
 20
17.16932236983962
 30
0.0
 40
2.604209742848704
 41
0.0
 71
     7
 72
     1
  1
\fHGPGothicE|b0|i0|c0|p34;\W1;７
 73
     1
 44
1.0
  0
MTEXT
  5
B8
330
4F
100
AcDbEntity
  8
\U+30EC\U+30A4\U+30E4\U+30FC 1
 62
    29
100
AcDbMText
 10
161.6473252634076
 20
17.16932236983962
 30
0.0
 40
2.604209742848704
 41
0.0
 71
     7
 72
     1
  1
\fHGPGothicE|b0|i0|c0|p34;\W1;３
 73
     1
 44
1.0
  0
MTEXT
  5
B9
330
4F
100
AcDbEntity
  8
\U+30EC\U+30A4\U+30E4\U+30FC 1
 62
    29
100
AcDbMText
 10
164.2363145205729
 20
17.16932236983962
 30
0.0
 40
2.604209742848704
 41
0.0
 71
     7
 72
     1
  1
\fHGPGothicE|b0|i0|c0|p34;\W1;-
 73
     1
 44
1.0
  0
MTEXT
  5
BA
330
4F
100
AcDbEntity
  8
\U+30EC\U+30A4\U+30E4\U+30FC 1
 62
    29
100
AcDbMText
 10
165.6188313388036
 20
17.16932236983962
 30
0.0
 40
2.604209742848704
 41
0.0
 71
     7
 72
     1
  1
\fHGPGothicE|b0|i0|c0|p34;\W1;４
 73
     1
 44
1.0
  0
MTEXT
  5
BB
330
4F
100
AcDbEntity
  8
\U+30EC\U+30A4\U+30E4\U+30FC 1
 62
    29
100
AcDbMText
 10
168.1961072713191
 20
17.16932236983962
 30
0.0
 40
2.604209742848704
 41
0.0
 71
     7
 72
     1
  1
\fHGPGothicE|b0|i0|c0|p34;\W1;８
 73
     1
 44
1.0
  0
MTEXT
  5
BC
330
4F
100
AcDbEntity
  8
\U+30EC\U+30A4\U+30E4\U+30FC 1
 62
    29
100
AcDbMText
 10
170.773727713383
 20
17.16932236983962
 30
0.0
 40
2.604209742848704
 41
0.0
 71
     7
 72
     1
  1
\fHGPGothicE|b0|i0|c0|p34;\W1;２
 73
     1
 44
1.0
  0
MTEXT
  5
BD
330
4F
100
AcDbEntity
  8
\U+30EC\U+30A4\U+30E4\U+30FC 1
 62
    29
100
AcDbMText
 10
173.3623724609997
 20
17.16932236983962
 30
0.0
 40
2.604209742848704
 41
0.0
 71
     7
 72
     1
  1
\fHGPGothicE|b0|i0|c0|p34;\W1;-
 73
     1
 44
1.0
  0
MTEXT
  5
BE
330
4F
100
AcDbEntity
  8
\U+30EC\U+30A4\U+30E4\U+30FC 1
 62
    29
100
AcDbMText
 10
174.7448892792304
 20
17.16932236983962
 30
0.0
 40
2.604209742848704
 41
0.0
 71
     7
 72
     1
  1
\fHGPGothicE|b0|i0|c0|p34;\W1;４
 73
     1
 44
1.0
  0
MTEXT
  5
BF
330
4F
100
AcDbEntity
  8
\U+30EC\U+30A4\U+30E4\U+30FC 1
 62
    29
100
AcDbMText
 10
177.3149305112268
 20
17.16932236983962
 30
0.0
 40
2.604209742848704
 41
0.0
 71
     7
 72
     1
  1
\fHGPGothicE|b0|i0|c0|p34;\W1;１
 73
     1
 44
1.0
  0
MTEXT
  5
C0
330
4F
100
AcDbEntity
  8
\U+30EC\U+30A4\U+30E4\U+30FC 1
 62
    29
100
AcDbMText
 10
179.8922064437422
 20
17.16932236983962
 30
0.0
 40
2.604209742848704
 41
0.0
 71
     7
 72
     1
  1
\fHGPGothicE|b0|i0|c0|p34;\W1;２
 73
     1
 44
1.0
  0
MTEXT
  5
C1
330
4F
100
AcDbEntity
  8
\U+30EC\U+30A4\U+30E4\U+30FC 1
 62
    29
100
AcDbMText
 10
182.4694823762576
 20
17.16932236983962
 30
0.0
 40
2.604209742848704
 41
0.0
 71
     7
 72
     1
  1
\fHGPGothicE|b0|i0|c0|p34;\W1;８
 73
     1
 44
1.0
  0
MTEXT
  5
C2
330
4F
100
AcDbEntity
  8
\U+30EC\U+30A4\U+30E4\U+30FC 1
 62
    29
100
AcDbMText
 10
186.9618868890234
 20
17.16932236983962
 30
0.0
 40
2.604209742848704
 41
0.0
 71
     7
 72
     1
  1
\fHGPGothicE|b0|i0|c0|p34;\W1;（
 73
     1
 44
1.0
  0
MTEXT
  5
C3
330
4F
100
AcDbEntity
  8
\U+30EC\U+30A4\U+30E4\U+30FC 1
 62
    29
100
AcDbMText
 10
188.9838134293166
 20
17.16932236983962
 30
0.0
 40
2.604209742848704
 41
0.0
 71
     7
 72
     1
  1
\fHGPGothicE|b0|i0|c0|p34;\W1;代
 73
     1
 44
1.0
  0
MTEXT
  5
C4
330
4F
100
AcDbEntity
  8
\U+30EC\U+30A4\U+30E4\U+30FC 1
 62
    29
100
AcDbMText
 10
192.9208685498601
 20
17.16932236983962
 30
0.0
 40
2.604209742848704
 41
0.0
 71
     7
 72
     1
  1
\fHGPGothicE|b0|i0|c0|p34;\W1;）
 73
     1
 44
1.0
  0
MTEXT
  5
C5
330
4F
100
AcDbEntity
  8
\U+30EC\U+30A4\U+30E4\U+30FC 1
 62
    29
100
AcDbMText
 10
156.5041422134781
 20
12.63109808712
 30
0.0
 40
2.604209742848704
 41
0.0
 71
     7
 72
     1
  1
\fHGPGothicE|b0|i0|c0|p34;\W1;０
 73
     1
 44
1.0
  0
MTEXT
  5
C6
330
4F
100
AcDbEntity
  8
\U+30EC\U+30A4\U+30E4\U+30FC 1
 62
    29
100
AcDbMText
 10
159.0776285409598
 20
12.63109808712
 30
0.0
 40
2.604209742848704
 41
0.0
 71
     7
 72
     1
  1
\fHGPGothicE|b0|i0|c0|p34;\W1;７
 73
     1
 44
1.0
  0
MTEXT
  5
C7
330
4F
100
AcDbEntity
  8
\U+30EC\U+30A4\U+30E4\U+30FC 1
 62
    29
100
AcDbMText
 10
161.6511148684414
 20
12.63109808712
 30
0.0
 40
2.604209742848704
 41
0.0
 71
     7
 72
     1
  1
\fHGPGothicE|b0|i0|c0|p34;\W1;３
 73
     1
 44
1.0
  0
MTEXT
  5
C8
330
4F
100
AcDbEntity
  8
\U+30EC\U+30A4\U+30E4\U+30FC 1
 62
    29
100
AcDbMText
 10
164.2401041256066
 20
12.63109808712
 30
0.0
 40
2.604209742848704
 41
0.0
 71
     7
 72
     1
  1
\fHGPGothicE|b0|i0|c0|p34;\W1;-
 73
     1
 44
1.0
  0
MTEXT
  5
C9
330
4F
100
AcDbEntity
  8
\U+30EC\U+30A4\U+30E4\U+30FC 1
 62
    29
100
AcDbMText
 10
165.6226209438374
 20
12.63109808712
 30
0.0
 40
2.604209742848704
 41
0.0
 71
     7
 72
     1
  1
\fHGPGothicE|b0|i0|c0|p34;\W1;４
 73
     1
 44
1.0
  0
MTEXT
  5
CA
330
4F
100
AcDbEntity
  8
\U+30EC\U+30A4\U+30E4\U+30FC 1
 62
    29
100
AcDbMText
 10
168.1998968763528
 20
12.63109808712
 30
0.0
 40
2.604209742848704
 41
0.0
 71
     7
 72
     1
  1
\fHGPGothicE|b0|i0|c0|p34;\W1;８
 73
     1
 44
1.0
  0
MTEXT
  5
CB
330
4F
100
AcDbEntity
  8
\U+30EC\U+30A4\U+30E4\U+30FC 1
 62
    29
100
AcDbMText
 10
170.7775173184167
 20
12.63109808712
 30
0.0
 40
2.604209742848704
 41
0.0
 71
     7
 72
     1
  1
\fHGPGothicE|b0|i0|c0|p34;\W1;６
 73
     1
 44
1.0
  0
MTEXT
  5
CC
330
4F
100
AcDbEntity
  8
\U+30EC\U+30A4\U+30E4\U+30FC 1
 62
    29
100
AcDbMText
 10
173.3661620660335
 20
12.63109808712
 30
0.0
 40
2.604209742848704
 41
0.0
 71
     7
 72
     1
  1
\fHGPGothicE|b0|i0|c0|p34;\W1;-
 73
     1
 44
1.0
  0
MTEXT
  5
CD
330
4F
100
AcDbEntity
  8
\U+30EC\U+30A4\U+30E4\U+30FC 1
 62
    29
100
AcDbMText
 10
174.7490233938128
 20
12.63109808712
 30
0.0
 40
2.604209742848704
 41
0.0
 71
     7
 72
     1
  1
\fHGPGothicE|b0|i0|c0|p34;\W1;２
 73
     1
 44
1.0
  0
MTEXT
  5
CE
330
4F
100
AcDbEntity
  8
\U+30EC\U+30A4\U+30E4\U+30FC 1
 62
    29
100
AcDbMText
 10
177.3187201162606
 20
12.63109808712
 30
0.0
 40
2.604209742848704
 41
0.0
 71
     7
 72
     1
  1
\fHGPGothicE|b0|i0|c0|p34;\W1;５
 73
     1
 44
1.0
  0
MTEXT
  5
CF
330
4F
100
AcDbEntity
  8
\U+30EC\U+30A4\U+30E4\U+30FC 1
 62
    29
100
AcDbMText
 10
179.895996048776
 20
12.63109808712
 30
0.0
 40
2.604209742848704
 41
0.0
 71
     7
 72
     1
  1
\fHGPGothicE|b0|i0|c0|p34;\W1;６
 73
     1
 44
1.0
  0
MTEXT
  5
D0
330
4F
100
AcDbEntity
  8
\U+30EC\U+30A4\U+30E4\U+30FC 1
 62
    29
100
AcDbMText
 10
182.4732719812914
 20
12.63109808712
 30
0.0
 40
2.604209742848704
 41
0.0
 71
     7
 72
     1
  1
\fHGPGothicE|b0|i0|c0|p34;\W1;０
 73
     1
 44
1.0
  0
MTEXT
  5
D1
330
4F
100
AcDbEntity
  8
\U+30EC\U+30A4\U+30E4\U+30FC 1
 62
    29
100
AcDbMText
 10
186.9656764940572
 20
12.63109808712
 30
0.0
 40
2.604209742848704
 41
0.0
 71
     7
 72
     1
  1
\fHGPGothicE|b0|i0|c0|p34;\W1;（
 73
     1
 44
1.0
  0
MTEXT
  5
D2
330
4F
100
AcDbEntity
  8
\U+30EC\U+30A4\U+30E4\U+30FC 1
 62
    29
100
AcDbMText
 10
188.9876030343503
 20
12.63109808712
 30
0.0
 40
2.604209742848704
 41
0.0
 71
     7
 72
     1
  1
\fHGPGothicE|b0|i0|c0|p34;\W1;代
 73
     1
 44
1.0
  0
MTEXT
  5
D3
330
4F
100
AcDbEntity
  8
\U+30EC\U+30A4\U+30E4\U+30FC 1
 62
    29
100
AcDbMText
 10
192.9246581548938
 20
12.63109808712
 30
0.0
 40
2.604209742848704
 41
0.0
 71
     7
 72
     1
  1
\fHGPGothicE|b0|i0|c0|p34;\W1;）
 73
     1
 44
1.0
  0
INSERT
  5
D5
330
4F
100
AcDbEntity
  8
\U+30EC\U+30A4\U+30E4\U+30FC 1
100
AcDbBlockReference
  2
block 4
 10
0.0
 20
0.0
 30
0.0
  0
MTEXT
  5
11C
330
4F
100
AcDbEntity
  8
\U+30EC\U+30A4\U+30E4\U+30FC 1
 62
    29
100
AcDbMText
 10
29.66485594961504
 20
20.0401204376983
 30
0.0
 40
2.15899999946025
 41
0.0
 71
     7
 72
     1
  1
\fMS Gothic|b0|i0|c0|p34;\W1;ARTWOODｽﾘﾑﾎﾟｰﾙﾗｲﾄ1型
 73
     1
 44
1.0
  0
MTEXT
  5
11D
330
4F
100
AcDbEntity
  8
\U+30EC\U+30A4\U+30E4\U+30FC 1
 62
    29
100
AcDbMText
 10
39.18985594723379
 20
12.16118706293193
 30
0.0
 40
2.15899999946025
 41
0.0
 71
     7
 72
     1
  1
\fMS Gothic|b0|i0|c0|p34;\W1;(電球色)
 73
     1
 44
1.0
  0
MTEXT
  5
11E
330
4F
100
AcDbEntity
  8
\U+30EC\U+30A4\U+30E4\U+30FC 1
 62
    29
100
AcDbMText
 10
26.48158772124419
 20
16.23018934056051
 30
0.0
 40
2.15899999946025
 41
0.0
 71
     7
 72
     1
  1
\fMS Gothic|b0|i0|c0|p34;\W0.80032;ﾀﾞｰｸﾊﾟｲﾝ/ﾌﾞﾗｳﾝｴﾎﾞﾆｰ/ﾌﾞﾗｯｸｴﾎﾞﾆｰ
 73
     1
 44
1.0
  0
MTEXT
  5
11F
330
4F
100
AcDbEntity
  8
\U+30EC\U+30A4\U+30E4\U+30FC 1
 62
    29
100
AcDbMText
 10
36.01485594802754
 20
27.94627006679816
 30
0.0
 40
2.15899999946025
 41
0.0
 71
     7
 72
     1
  1
\fMS Gothic|b0|i0|c0|p34;\W1;HBC-D13P/B/E
 73
     1
 44
1.0
  0
MTEXT
  5
120
330
4F
100
AcDbEntity
  8
\U+30EC\U+30A4\U+30E4\U+30FC 1
 62
    29
100
AcDbMText
 10
55.44777830645056
 20
274.173101059929
 30
0.0
 40
2.15899999946025
 41
0.0
 71
     7
 72
     1
  1
\fMS Gothic|b0|i0|c0|p34;\W1;〔両側配光タイプ〕
 73
     1
 44
1.0
  0
MTEXT
  5
121
330
4F
100
AcDbEntity
  8
\U+30EC\U+30A4\U+30E4\U+30FC 1
 62
    29
100
AcDbMText
 10
127.5908338439704
 20
240.3064344017289
 30
0.0
 40
2.15899999946025
 41
0.0
 71
     7
 72
     1
  1
\fMS Gothic|b0|i0|c0|p34;\W1;【背面】
 73
     1
 44
1.0
  0
SPLINE
  5
122
330
4F
100
AcDbEntity
  8
\U+30EC\U+30A4\U+30E4\U+30FC 1
 62
    18
370
   140
100
AcDbSpline
210
0.0
220
0.0
230
1.0
 70
     8
 71
     3
 72
    14
 73
    10
 74
     0
 42
0.0000000001
 43
0.0000000001
 40
0.0
 40
0.0
 40
0.0
 40
0.0
 40
1.0
 40
1.0
 40
1.0
 40
2.0
 40
2.0
 40
2.0
 40
3.0
 40
3.0
 40
3.0
 40
3.0
 10
108.0922824165533
 20
132.2789197802983
 30
0.0
 10
108.0922824165533
 20
132.2789197802983
 30
0.0
 10
110.1862114524882
 20
129.2713514216752
 30
0.0
 10
110.1862114524882
 20
124.9942653767375
 30
0.0
 10
110.1862114524882
 20
120.6717040713946
 30
0.0
 10
110.6127142735621
 20
115.2408555484467
 30
0.0
 10
114.513940401059
 20
113.3463975411078
 30
0.0
 10
117.7702446537172
 20
111.7640651847326
 30
0.0
 10
122.5933783330669
 20
111.5160183097946
 30
0.0
 10
125.3956190007692
 20
111.5160183097946
 30
0.0
  0
SPLINE
  5
123
330
4F
100
AcDbEntity
  8
\U+30EC\U+30A4\U+30E4\U+30FC 1
 62
    29
370
   106
100
AcDbSpline
210
0.0
220
0.0
230
1.0
 70
     8
 71
     3
 72
    17
 73
    13
 74
     0
 42
0.0000000001
 43
0.0000000001
 40
0.0
 40
0.0
 40
0.0
 40
0.0
 40
1.0
 40
1.0
 40
1.0
 40
2.0
 40
2.0
 40
2.0
 40
3.0
 40
3.0
 40
3.0
 40
4.0
 40
4.0
 40
4.0
 40
4.0
 10
126.0219373599876
 20
109.0000650769167
 30
0.0
 10
126.1900580196678
 20
109.3046115178127
 30
0.0
 10
126.3416422210188
 20
109.680815944802
 30
0.0
 10
126.3416422210188
 20
110.2843966738178
 30
0.0
 10
126.3416422210188
 20
111.045073756961
 30
0.0
 10
126.0922173078867
 20
111.4467718905411
 30
0.0
 10
125.8737982541218
 20
111.8005831968762
 30
0.0
 10
125.6636474295216
 20
112.1388915735278
 30
0.0
 10
125.4645209104741
 20
112.4582519250104
 30
0.0
 10
125.4645209104741
 20
113.1117865385623
 30
0.0
 10
125.4645209104741
 20
113.7629095852746
 30
0.0
 10
125.6636474295216
 20
114.079513860369
 30
0.0
 10
125.8717311968307
 20
114.4154106701809
 30
0.0
  0
SPLINE
  5
124
330
4F
100
AcDbEntity
  8
\U+30EC\U+30A4\U+30E4\U+30FC 1
 62
    29
370
   106
100
AcDbSpline
210
0.0
220
0.0
230
1.0
 70
     8
 71
     3
 72
    17
 73
    13
 74
     0
 42
0.0000000001
 43
0.0000000001
 40
0.0
 40
0.0
 40
0.0
 40
0.0
 40
1.0
 40
1.0
 40
1.0
 40
2.0
 40
2.0
 40
2.0
 40
3.0
 40
3.0
 40
3.0
 40
4.0
 40
4.0
 40
4.0
 40
4.0
 10
124.8947021172138
 20
114.4043863646281
 30
0.0
 10
124.7231363620484
 20
114.0988063950864
 30
0.0
 10
124.5708631416003
 20
113.7195013821604
 30
0.0
 10
124.5708631416003
 20
113.1117865385623
 30
0.0
 10
124.5708631416003
 20
112.328027315668
 30
0.0
 10
124.8230441311206
 20
111.921850557957
 30
0.0
 10
125.0455972994678
 20
111.562182589297
 30
0.0
 10
125.2619492959415
 20
111.2156059834808
 30
0.0
 10
125.447984452145
 20
110.91450463807
 30
0.0
 10
125.447984452145
 20
110.2843966738178
 30
0.0
 10
125.447984452145
 20
109.6442979326584
 30
0.0
 10
125.2543700858739
 20
109.329071695758
 30
0.0
 10
125.0497314140501
 20
108.9962754718829
 30
0.0
  0
SPLINE
  5
125
330
4F
100
AcDbEntity
  8
\U+30EC\U+30A4\U+30E4\U+30FC 1
370
     0
100
AcDbSpline
210
0.0
220
0.0
230
1.0
 70
    11
 71
     3
 72
    35
 73
    31
 74
     0
 42
0.0000000001
 43
0.0000000001
 40
0.0
 40
0.0
 40
0.0
 40
0.0
 40
1.0
 40
1.0
 40
1.0
 40
2.0
 40
2.0
 40
2.0
 40
3.0
 40
3.0
 40
3.0
 40
4.0
 40
4.0
 40
4.0
 40
5.0
 40
5.0
 40
5.0
 40
6.0
 40
6.0
 40
6.0
 40
7.0
 40
7.0
 40
7.0
 40
8.0
 40
8.0
 40
8.0
 40
9.0
 40
9.0
 40
9.0
 40
10.0
 40
10.0
 40
10.0
 40
10.0
 10
125.8986029416156
 20
108.5742512749398
 30
0.0
 10
126.1900580196678
 20
109.0393391654485
 30
0.0
 10
126.3416422210188
 20
109.4475829804506
 30
0.0
 10
126.3416422210188
 20
110.1024956321966
 30
0.0
 10
126.3416422210188
 20
110.9286295295595
 30
0.0
 10
126.0922173078867
 20
111.3644341084436
 30
0.0
 10
125.8737982541218
 20
111.748562255049
 30
0.0
 10
125.6636474295216
 20
112.1158094337766
 30
0.0
 10
125.4645209104741
 20
112.4627305491413
 30
0.0
 10
125.4645209104741
 20
113.1720757095542
 30
0.0
 10
125.4645209104741
 20
113.8786647935789
 30
0.0
 10
125.6636474295216
 20
114.2228298325554
 30
0.0
 10
125.9971326724938
 20
114.7230576970137
 30
0.0
 10
125.9971326724938
 20
114.7230576970137
 30
0.0
 10
125.0201035928769
 20
114.7113443723638
 30
0.0
 10
125.0201035928769
 20
114.7113443723638
 30
0.0
 10
124.7231363620484
 20
114.2435004054669
 30
0.0
 10
124.5708631416003
 20
113.831466985431
 30
0.0
 10
124.5708631416003
 20
113.1720757095542
 30
0.0
 10
124.5708631416003
 20
112.320792615149
 30
0.0
 10
124.8230441311206
 20
111.8801649025855
 30
0.0
 10
125.0455972994678
 20
111.4898355841067
 30
0.0
 10
125.2619492959415
 20
111.1136311571174
 30
0.0
 10
125.447984452145
 20
110.7866915955672
 30
0.0
 10
125.447984452145
 20
110.1024956321966
 30
0.0
 10
125.447984452145
 20
109.4079643823702
 30
0.0
 10
125.2543700858739
 20
109.0655218911364
 30
0.0
 10
124.9263969956781
 20
108.5708061794545
 30
0.0
 10
124.9263969956781
 20
108.5708061794545
 30
0.0
 10
125.8986029416156
 20
108.5742512749398
 30
0.0
 10
125.8986029416156
 20
108.5742512749398
 30
0.0
  0
POLYLINE
  5
126
330
4F
100
AcDbEntity
  8
\U+30EC\U+30A4\U+30E4\U+30FC 1
 62
    29
370
    35
100
AcDb2dPolyline
 66
     1
 10
0.0
 20
0.0
 30
0.0
  0
VERTEX
  5
127
330
126
100
AcDbEntity
  8
\U+30EC\U+30A4\U+30E4\U+30FC 1
 62
    29
370
    35
100
AcDbVertex
100
AcDb2dVertex
 10
90.67026229287063
 20
261.1268689668364
 30
0.0
  0
VERTEX
  5
128
330
126
100
AcDbEntity
  8
\U+30EC\U+30A4\U+30E4\U+30FC 1
 62
    29
370
    35
100
AcDbVertex
100
AcDb2dVertex
 10
90.72745087792578
 20
43.13259547532797
 30
0.0
  0
VERTEX
  5
129
330
126
100
AcDbEntity
  8
\U+30EC\U+30A4\U+30E4\U+30FC 1
 62
    29
370
    35
100
AcDbVertex
100
AcDb2dVertex
 10
96.32728133442512
 20
40.61595322335296
 30
0.0
  0
VERTEX
  5
12A
330
126
100
AcDbEntity
  8
\U+30EC\U+30A4\U+30E4\U+30FC 1
 62
    29
370
    35
100
AcDbVertex
100
AcDb2dVertex
 10
108.3196587185798
 20
44.5905598846857
 30
0.0
  0
VERTEX
  5
12B
330
126
100
AcDbEntity
  8
\U+30EC\U+30A4\U+30E4\U+30FC 1
 62
    29
370
    35
100
AcDbVertex
100
AcDb2dVertex
 10
108.4361029459813
 20
276.1419731297493
 30
0.0
  0
SEQEND
  5
12C
330
126
100
AcDbEntity
  8
\U+30EC\U+30A4\U+30E4\U+30FC 1
370
    35
  0
SPLINE
  5
12D
330
4F
100
AcDbEntity
  8
\U+30EC\U+30A4\U+30E4\U+30FC 1
 62
    29
370
    18
100
AcDbSpline
210
0.0
220
0.0
230
1.0
 70
    11
 71
     3
 72
    17
 73
    13
 74
     0
 42
0.0000000001
 43
0.0000000001
 40
0.0
 40
0.0
 40
0.0
 40
0.0
 40
1.0
 40
1.0
 40
1.0
 40
2.0
 40
2.0
 40
2.0
 40
3.0
 40
3.0
 40
3.0
 40
4.0
 40
4.0
 40
4.0
 40
4.0
 10
93.64561900870666
 20
259.2031276478729
 30
0.0
 10
93.64561900870666
 20
258.9116725698207
 30
0.0
 10
93.49885794103501
 20
258.7015217452205
 30
0.0
 10
93.31833493760791
 20
258.733388878459
 30
0.0
 10
93.1374674246323
 20
258.7652560116976
 30
0.0
 10
92.99070635696066
 20
259.0270832685766
 30
0.0
 10
92.99070635696066
 20
259.318710601403
 30
0.0
 10
92.99070635696066
 20
259.6103379342294
 30
0.0
 10
93.1374674246323
 20
259.8204887588296
 30
0.0
 10
93.31833493760791
 20
259.7887938803653
 30
0.0
 10
93.49885794103501
 20
259.7569267471267
 30
0.0
 10
93.64561900870666
 20
259.494582725925
 30
0.0
 10
93.64561900870666
 20
259.2031276478729
 30
0.0
  0
SPLINE
  5
12E
330
4F
100
AcDbEntity
  8
\U+30EC\U+30A4\U+30E4\U+30FC 1
 62
    29
370
    25
100
AcDbSpline
210
0.0
220
0.0
230
1.0
 70
    11
 71
     3
 72
    17
 73
    13
 74
     0
 42
0.0000000001
 43
0.0000000001
 40
0.0
 40
0.0
 40
0.0
 40
0.0
 40
1.0
 40
1.0
 40
1.0
 40
2.0
 40
2.0
 40
2.0
 40
3.0
 40
3.0
 40
3.0
 40
4.0
 40
4.0
 40
4.0
 40
4.0
 10
93.58326278042364
 20
259.2616942711221
 30
0.0
 10
93.58326278042364
 20
259.052921484716
 30
0.0
 10
93.47818736812351
 20
258.9027153215591
 30
0.0
 10
93.34865177787812
 20
258.9252806969874
 30
0.0
 10
93.21911618763272
 20
258.9481905819644
 30
0.0
 10
93.11438528488112
 20
259.135603776362
 30
0.0
 10
93.11438528488112
 20
259.3443765627681
 30
0.0
 10
93.11438528488112
 20
259.5528048396257
 30
0.0
 10
93.21911618763272
 20
259.7033555123311
 30
0.0
 10
93.34865177787812
 20
259.6806178821284
 30
0.0
 10
93.47818736812351
 20
259.6577079971515
 30
0.0
 10
93.58326278042364
 20
259.4701225479797
 30
0.0
 10
93.58326278042364
 20
259.2616942711221
 30
0.0
  0
POLYLINE
  5
12F
330
4F
100
AcDbEntity
  8
\U+30EC\U+30A4\U+30E4\U+30FC 1
 62
    29
370
    25
100
AcDb2dPolyline
 66
     1
 10
0.0
 20
0.0
 30
0.0
  0
VERTEX
  5
130
330
12F
100
AcDbEntity
  8
\U+30EC\U+30A4\U+30E4\U+30FC 1
 62
    29
370
    25
100
AcDbVertex
100
AcDb2dVertex
 10
96.3062662519651
 20
260.2998737956021
 30
0.0
  0
VERTEX
  5
131
330
12F
100
AcDbEntity
  8
\U+30EC\U+30A4\U+30E4\U+30FC 1
 62
    29
370
    25
100
AcDbVertex
100
AcDb2dVertex
 10
96.32865937261923
 20
40.63076713393954
 30
0.0
  0
SEQEND
  5
132
330
12F
100
AcDbEntity
  8
\U+30EC\U+30A4\U+30E4\U+30FC 1
370
    25
  0
SPLINE
  5
133
330
4F
100
AcDbEntity
  8
\U+30EC\U+30A4\U+30E4\U+30FC 1
 62
    29
370
    35
100
AcDbSpline
210
0.0
220
0.0
230
1.0
 70
    11
 71
     3
 72
    23
 73
    19
 74
     0
 42
0.0000000001
 43
0.0000000001
 40
0.0
 40
0.0
 40
0.0
 40
0.0
 40
1.0
 40
1.0
 40
1.0
 40
2.0
 40
2.0
 40
2.0
 40
3.0
 40
3.0
 40
3.0
 40
4.0
 40
4.0
 40
4.0
 40
5.0
 40
5.0
 40
5.0
 40
6.0
 40
6.0
 40
6.0
 40
6.0
 10
102.7258571791797
 20
57.39908038929607
 30
0.0
 10
102.6765923137406
 20
57.41699488581936
 30
0.0
 10
102.6266384292045
 20
57.42319605769281
 30
0.0
 10
102.5766845446683
 20
57.42250703859577
 30
0.0
 10
102.9618462199193
 20
57.12002765499083
 30
0.0
 10
103.13685707057
 20
56.21396754237012
 30
0.0
 10
102.9680473917927
 20
55.25657550701919
 30
0.0
 10
102.7992377130155
 20
54.29918347166826
 30
0.0
 10
102.3451741280595
 20
53.62187769926815
 30
0.0
 10
101.9062689632387
 20
53.61912162287994
 30
0.0
 10
101.9496771663529
 20
53.58535968712449
 30
0.0
 10
101.9958414458552
 20
53.5564208850484
 30
0.0
 10
102.0451063112943
 20
53.5385063885251
 30
0.0
 10
102.5260416410352
 20
53.36349553787441
 30
0.0
 10
103.067955160865
 20
54.08524304203425
 30
0.0
 10
103.2560573743596
 20
55.15150009471907
 30
0.0
 10
103.4441595878542
 20
56.21775714740389
 30
0.0
 10
103.206447999372
 20
57.22406953864537
 30
0.0
 10
102.7258571791797
 20
57.39908038929607
 30
0.0
  0
SPLINE
  5
134
330
4F
100
AcDbEntity
  8
\U+30EC\U+30A4\U+30E4\U+30FC 1
 62
    29
370
    35
100
AcDbSpline
210
0.0
220
0.0
230
1.0
 70
    11
 71
     3
 72
    17
 73
    13
 74
     0
 42
0.0000000001
 43
0.0000000001
 40
0.0
 40
0.0
 40
0.0
 40
0.0
 40
1.0
 40
1.0
 40
1.0
 40
2.0
 40
2.0
 40
2.0
 40
3.0
 40
3.0
 40
3.0
 40
4.0
 40
4.0
 40
4.0
 40
4.0
 10
102.9680473917927
 20
55.25657550701919
 30
0.0
 10
103.13685707057
 20
56.21396754237012
 30
0.0
 10
102.9618462199193
 20
57.12002765499083
 30
0.0
 10
102.5766845446683
 20
57.42250703859577
 30
0.0
 10
102.1370903607504
 20
57.42009547175609
 30
0.0
 10
101.6830267757945
 20
56.74278969935597
 30
0.0
 10
101.5149061161143
 20
55.78608668310209
 30
0.0
 10
101.3460964373371
 20
54.82869464775116
 30
0.0
 10
101.5207627784393
 20
53.92160100648488
 30
0.0
 10
101.9062689632387
 20
53.61912162287994
 30
0.0
 10
102.3451741280595
 20
53.62187769926815
 30
0.0
 10
102.7992377130155
 20
54.29918347166826
 30
0.0
 10
102.9680473917927
 20
55.25657550701919
 30
0.0
  0
SPLINE
  5
135
330
4F
100
AcDbEntity
  8
\U+30EC\U+30A4\U+30E4\U+30FC 1
 62
    29
370
    25
100
AcDbSpline
210
0.0
220
0.0
230
1.0
 70
     8
 71
     3
 72
    44
 73
    40
 74
     0
 42
0.0000000001
 43
0.0000000001
 40
0.0
 40
0.0
 40
0.0
 40
0.0
 40
1.0
 40
1.0
 40
1.0
 40
2.0
 40
2.0
 40
2.0
 40
3.0
 40
3.0
 40
3.0
 40
4.0
 40
4.0
 40
4.0
 40
5.0
 40
5.0
 40
5.0
 40
6.0
 40
6.0
 40
6.0
 40
7.0
 40
7.0
 40
7.0
 40
8.0
 40
8.0
 40
8.0
 40
9.0
 40
9.0
 40
9.0
 40
10.0
 40
10.0
 40
10.0
 40
11.0
 40
11.0
 40
11.0
 40
12.0
 40
12.0
 40
12.0
 40
13.0
 40
13.0
 40
13.0
 40
13.0
 10
101.8780191802597
 20
276.6862982164187
 30
0.0
 10
101.8780191802597
 20
276.6862982164187
 30
0.0
 10
90.78136662226994
 20
275.6567314306518
 30
0.0
 10
90.78136662226994
 20
275.6567314306518
 30
0.0
 10
90.78136662226994
 20
275.6567314306518
 30
0.0
 10
90.62702634453075
 20
275.618146361217
 30
0.0
 10
90.52229544177915
 20
275.4968790001362
 30
0.0
 10
90.42204316315838
 20
275.3809515370576
 30
0.0
 10
90.42962237322593
 20
275.1492688656745
 30
0.0
 10
90.42962237322593
 20
275.1492688656745
 30
0.0
 10
90.42962237322593
 20
275.1492688656745
 30
0.0
 10
90.42962237322593
 20
268.5782659918832
 30
0.0
 10
90.42962237322593
 20
268.5782659918832
 30
0.0
 10
90.42962237322593
 20
268.5782659918832
 30
0.0
 10
90.42962237322593
 20
261.2810369898013
 30
0.0
 10
90.42962237322593
 20
261.2810369898013
 30
0.0
 10
90.42962237322593
 20
261.2574380857273
 30
0.0
 10
90.43410099735675
 20
261.2093790037081
 30
0.0
 10
90.47819821956796
 20
261.1928425453789
 30
0.0
 10
90.47819821956796
 20
261.1928425453789
 30
0.0
 10
96.31556800977528
 20
260.2998737956021
 30
0.0
 10
96.31556800977528
 20
260.2998737956021
 30
0.0
 10
96.3365830922353
 20
260.2998737956021
 30
0.0
 10
96.4385579185987
 20
260.2723130317201
 30
0.0
 10
96.4385579185987
 20
260.4156290039065
 30
0.0
 10
96.4385579185987
 20
260.4156290039065
 30
0.0
 10
96.4385579185987
 20
268.5782659918832
 30
0.0
 10
96.4385579185987
 20
268.5782659918832
 30
0.0
 10
96.4385579185987
 20
268.5782659918832
 30
0.0
 10
96.4385579185987
 20
274.4440578198439
 30
0.0
 10
96.4385579185987
 20
274.4440578198439
 30
0.0
 10
96.4385579185987
 20
274.4440578198439
 30
0.0
 10
96.44854869550592
 20
274.6798746058092
 30
0.0
 10
96.58084036213951
 20
274.828702730772
 30
0.0
 10
96.70761987599671
 20
274.9713296838614
 30
0.0
 10
96.87332896883723
 20
275.0061251482624
 30
0.0
 10
96.87332896883723
 20
275.0061251482624
 30
0.0
 10
96.87332896883723
 20
275.0061251482624
 30
0.0
 10
108.1067518175914
 20
276.2398138415303
 30
0.0
 10
108.1067518175914
 20
276.2398138415303
 30
0.0
  0
SPLINE
  5
136
330
4F
100
AcDbEntity
  8
\U+30EC\U+30A4\U+30E4\U+30FC 1
 62
    29
370
    25
100
AcDbSpline
210
0.0
220
0.0
230
1.0
 70
    11
 71
     3
 72
    17
 73
    13
 74
     0
 42
0.0000000001
 43
0.0000000001
 40
0.0
 40
0.0
 40
0.0
 40
0.0
 40
1.0
 40
1.0
 40
1.0
 40
2.0
 40
2.0
 40
2.0
 40
3.0
 40
3.0
 40
3.0
 40
4.0
 40
4.0
 40
4.0
 40
4.0
 10
95.00643172538034
 20
262.9787800449324
 30
0.0
 10
94.70601939906655
 20
262.9787800449324
 30
0.0
 10
91.88517521574398
 20
263.4638494892556
 30
0.0
 10
91.6261040352532
 20
263.4638494892556
 30
0.0
 10
91.6261040352532
 20
263.4638494892556
 30
0.0
 10
91.6261040352532
 20
272.9220146344605
 30
0.0
 10
91.6261040352532
 20
272.9220146344605
 30
0.0
 10
91.94822046312406
 20
272.8896307368991
 30
0.0
 10
94.64366317078353
 20
272.5440876597286
 30
0.0
 10
95.00643172538034
 20
272.5110147430702
 30
0.0
 10
95.00643172538034
 20
272.5110147430702
 30
0.0
 10
95.00643172538034
 20
262.9787800449324
 30
0.0
 10
95.00643172538034
 20
262.9787800449324
 30
0.0
  0
SPLINE
  5
137
330
4F
100
AcDbEntity
  8
\U+30EC\U+30A4\U+30E4\U+30FC 1
 62
    29
370
    25
100
AcDbSpline
210
0.0
220
0.0
230
1.0
 70
     8
 71
     3
 72
    20
 73
    16
 74
     0
 42
0.0000000001
 43
0.0000000001
 40
0.0
 40
0.0
 40
0.0
 40
0.0
 40
1.0
 40
1.0
 40
1.0
 40
2.0
 40
2.0
 40
2.0
 40
3.0
 40
3.0
 40
3.0
 40
4.0
 40
4.0
 40
4.0
 40
5.0
 40
5.0
 40
5.0
 40
5.0
 10
96.55810273193687
 20
260.3770439344717
 30
0.0
 10
96.55810273193687
 20
260.3770439344717
 30
0.0
 10
96.60219995414806
 20
274.4220092087382
 30
0.0
 10
96.60219995414806
 20
274.4220092087382
 30
0.0
 10
96.60219995414806
 20
274.4220092087382
 30
0.0
 10
96.61942543157431
 20
274.80114196689
 30
0.0
 10
97.04317217626004
 20
274.8629814308503
 30
0.0
 10
97.26159123002489
 20
274.8948485640888
 30
0.0
 10
108.0350938314982
 20
276.1685003649857
 30
0.0
 10
108.3761582845379
 20
276.2079467082918
 30
0.0
 10
108.652454942455
 20
276.2398138415303
 30
0.0
 10
108.6627902289107
 20
276.0095092083414
 30
0.0
 10
108.6627902289107
 20
276.0095092083414
 30
0.0
 10
108.6627902289107
 20
276.0095092083414
 30
0.0
 10
108.6407416178051
 20
262.449613378398
 30
0.0
 10
108.6407416178051
 20
262.449613378398
 30
0.0
  0
POLYLINE
  5
138
330
4F
100
AcDbEntity
  8
\U+30EC\U+30A4\U+30E4\U+30FC 1
 62
    29
370
    25
100
AcDb2dPolyline
 66
     1
 10
0.0
 20
0.0
 30
0.0
  0
VERTEX
  5
139
330
138
100
AcDbEntity
  8
\U+30EC\U+30A4\U+30E4\U+30FC 1
 62
    29
370
    25
100
AcDbVertex
100
AcDb2dVertex
 10
101.8780191802597
 20
276.6862982164187
 30
0.0
  0
VERTEX
  5
13A
330
138
100
AcDbEntity
  8
\U+30EC\U+30A4\U+30E4\U+30FC 1
 62
    29
370
    25
100
AcDbVertex
100
AcDb2dVertex
 10
108.3823594564114
 20
276.2232773832012
 30
0.0
  0
SEQEND
  5
13B
330
138
100
AcDbEntity
  8
\U+30EC\U+30A4\U+30E4\U+30FC 1
370
    25
  0
POLYLINE
  5
13C
330
4F
100
AcDbEntity
  8
\U+30EC\U+30A4\U+30E4\U+30FC 1
 62
    29
370
     9
100
AcDb2dPolyline
 66
     1
 10
0.0
 20
0.0
 30
0.0
  0
VERTEX
  5
13D
330
13C
100
AcDbEntity
  8
\U+30EC\U+30A4\U+30E4\U+30FC 1
 62
    29
370
     9
100
AcDbVertex
100
AcDb2dVertex
 10
91.51620548927373
 20
275.5097981082059
 30
0.0
  0
VERTEX
  5
13E
330
13C
100
AcDbEntity
  8
\U+30EC\U+30A4\U+30E4\U+30FC 1
 62
    29
370
     9
100
AcDbVertex
100
AcDb2dVertex
 10
96.2787054880831
 20
275.0908744971995
 30
0.0
  0
SEQEND
  5
13F
330
13C
100
AcDbEntity
  8
\U+30EC\U+30A4\U+30E4\U+30FC 1
370
     9
  0
INSERT
  5
141
330
4F
100
AcDbEntity
  8
\U+30EC\U+30A4\U+30E4\U+30FC 1
100
AcDbBlockReference
  2
block 5
 10
0.0
 20
0.0
 30
0.0
  0
ENDBLK
  5
52
330
4F
100
AcDbEntity
  8
0
100
AcDbBlockEnd
  0
BLOCK
  5
7B
330
79
100
AcDbEntity
  8
0
100
AcDbBlockBegin
  2
block 3
 70
     0
 71
     0
 10
0.0
 20
0.0
 30
0.0
  3
block 3
  1

  0
SPLINE
  5
7D
330
79
100
AcDbEntity
  8
\U+30EC\U+30A4\U+30E4\U+30FC 1
370
     0
100
AcDbSpline
210
0.0
220
0.0
230
1.0
 70
    11
 71
     3
 72
    68
 73
    64
 74
     0
 42
0.0000000001
 43
0.0000000001
 40
0.0
 40
0.0
 40
0.0
 40
0.0
 40
1.0
 40
1.0
 40
1.0
 40
2.0
 40
2.0
 40
2.0
 40
3.0
 40
3.0
 40
3.0
 40
4.0
 40
4.0
 40
4.0
 40
5.0
 40
5.0
 40
5.0
 40
6.0
 40
6.0
 40
6.0
 40
7.0
 40
7.0
 40
7.0
 40
8.0
 40
8.0
 40
8.0
 40
9.0
 40
9.0
 40
9.0
 40
10.0
 40
10.0
 40
10.0
 40
11.0
 40
11.0
 40
11.0
 40
12.0
 40
12.0
 40
12.0
 40
13.0
 40
13.0
 40
13.0
 40
14.0
 40
14.0
 40
14.0
 40
15.0
 40
15.0
 40
15.0
 40
16.0
 40
16.0
 40
16.0
 40
17.0
 40
17.0
 40
17.0
 40
18.0
 40
18.0
 40
18.0
 40
19.0
 40
19.0
 40
19.0
 40
20.0
 40
20.0
 40
20.0
 40
21.0
 40
21.0
 40
21.0
 40
21.0
 10
109.10203990328
 20
20.32399630568289
 30
0.0
 10
109.10203990328
 20
20.26198458694839
 30
0.0
 10
109.0531195473895
 20
20.21375325015489
 30
0.0
 10
108.9938639050432
 20
20.21375325015489
 30
0.0
 10
108.9938639050432
 20
20.21375325015489
 30
0.0
 10
105.9938747564876
 20
20.21375325015489
 30
0.0
 10
105.9938747564876
 20
20.21375325015489
 30
0.0
 10
105.0683498543753
 20
20.21375325015489
 30
0.0
 10
104.3173190385908
 20
20.96443955639084
 30
0.0
 10
104.3173190385908
 20
21.89048122282599
 30
0.0
 10
104.3173190385908
 20
22.81548936061557
 30
0.0
 10
105.0683498543753
 20
23.56652017640004
 30
0.0
 10
105.9938747564876
 20
23.56652017640004
 30
0.0
 10
105.9938747564876
 20
23.56652017640004
 30
0.0
 10
107.1631401641814
 20
23.56652017640004
 30
0.0
 10
107.1631401641814
 20
23.56652017640004
 30
0.0
 10
107.2244628638189
 20
23.56652017640004
 30
0.0
 10
107.2726942006124
 20
23.51759982050949
 30
0.0
 10
107.2726942006124
 20
23.45627712087204
 30
0.0
 10
107.2726942006124
 20
23.45627712087204
 30
0.0
 10
107.2726942006124
 20
22.39208712547837
 30
0.0
 10
107.2726942006124
 20
22.39208712547837
 30
0.0
 10
107.2726942006124
 20
22.33214246403502
 30
0.0
 10
107.2244628638189
 20
22.28322210814448
 30
0.0
 10
107.1631401641814
 20
22.28322210814448
 30
0.0
 10
107.1631401641814
 20
22.28322210814448
 30
0.0
 10
106.0786241054248
 20
22.2821885794989
 30
0.0
 10
106.0786241054248
 20
22.2821885794989
 30
0.0
 10
105.8643391662423
 20
22.2821885794989
 30
0.0
 10
105.6893283155916
 20
22.10752223839673
 30
0.0
 10
105.6893283155916
 20
21.89289278966567
 30
0.0
 10
105.6893283155916
 20
21.67722981228903
 30
0.0
 10
105.8643391662423
 20
21.50152994254129
 30
0.0
 10
106.0786241054248
 20
21.50152994254129
 30
0.0
 10
106.0786241054248
 20
21.50152994254129
 30
0.0
 10
107.5972221953229
 20
21.50359699983244
 30
0.0
 10
107.5972221953229
 20
21.50359699983244
 30
0.0
 10
107.5972221953229
 20
21.50359699983244
 30
0.0
 10
107.5972221953229
 20
23.75152180395795
 30
0.0
 10
107.5972221953229
 20
23.75152180395795
 30
0.0
 10
107.5972221953229
 20
24.08052842279931
 30
0.0
 10
107.3312608238616
 20
24.34683430380912
 30
0.0
 10
107.0005316572776
 20
24.34683430380912
 30
0.0
 10
107.0005316572776
 20
24.34683430380912
 30
0.0
 10
104.8673285328109
 20
24.34683430380912
 30
0.0
 10
104.8673285328109
 20
24.34683430380912
 30
0.0
 10
104.8051445593022
 20
24.34683430380912
 30
0.0
 10
104.7572577320572
 20
24.39541015015115
 30
0.0
 10
104.7572577320572
 20
24.45638834024007
 30
0.0
 10
104.7572577320572
 20
24.45638834024007
 30
0.0
 10
104.7572577320572
 20
25.52505695976457
 30
0.0
 10
104.7572577320572
 20
25.52505695976457
 30
0.0
 10
104.7572577320572
 20
25.58500162120792
 30
0.0
 10
104.8051445593022
 20
25.63495550574404
 30
0.0
 10
104.8673285328109
 20
25.63495550574404
 30
0.0
 10
104.8673285328109
 20
25.63495550574404
 30
0.0
 10
107.4215223255752
 20
25.63495550574404
 30
0.0
 10
107.4215223255752
 20
25.63495550574404
 30
0.0
 10
108.3530761447867
 20
25.63495550574404
 30
0.0
 10
109.10203990328
 20
24.8815131231199
 30
0.0
 10
109.10203990328
 20
23.95030381345687
 30
0.0
 10
109.10203990328
 20
23.95030381345687
 30
0.0
 10
109.10203990328
 20
20.32399630568289
 30
0.0
 10
109.10203990328
 20
20.32399630568289
 30
0.0
  0
HATCH
  5
7E
330
79
100
AcDbEntity
  8
\U+30EC\U+30A4\U+30E4\U+30FC 1
 62
    29
100
AcDbHatch
 10
0.0
 20
0.0
 30
0.0
210
0.0
220
0.0
230
1.0
  2
SOLID
 70
     1
 71
     0
 91
        1
 92
        1
 93
        1
 72
     4
 94
        3
 73
     0
 74
     1
 95
       68
 96
       64
 40
0.0
 40
0.0
 40
0.0
 40
0.0
 40
1.0
 40
1.0
 40
1.0
 40
2.0
 40
2.0
 40
2.0
 40
3.0
 40
3.0
 40
3.0
 40
4.0
 40
4.0
 40
4.0
 40
5.0
 40
5.0
 40
5.0
 40
6.0
 40
6.0
 40
6.0
 40
7.0
 40
7.0
 40
7.0
 40
8.0
 40
8.0
 40
8.0
 40
9.0
 40
9.0
 40
9.0
 40
10.0
 40
10.0
 40
10.0
 40
11.0
 40
11.0
 40
11.0
 40
12.0
 40
12.0
 40
12.0
 40
13.0
 40
13.0
 40
13.0
 40
14.0
 40
14.0
 40
14.0
 40
15.0
 40
15.0
 40
15.0
 40
16.0
 40
16.0
 40
16.0
 40
17.0
 40
17.0
 40
17.0
 40
18.0
 40
18.0
 40
18.0
 40
19.0
 40
19.0
 40
19.0
 40
20.0
 40
20.0
 40
20.0
 40
21.0
 40
21.0
 40
21.0
 40
21.0
 10
109.10203990328
 20
20.32399630568289
 10
109.10203990328
 20
20.26198458694839
 10
109.0531195473895
 20
20.21375325015489
 10
108.9938639050432
 20
20.21375325015489
 10
108.9938639050432
 20
20.21375325015489
 10
105.9938747564876
 20
20.21375325015489
 10
105.9938747564876
 20
20.21375325015489
 10
105.0683498543753
 20
20.21375325015489
 10
104.3173190385908
 20
20.96443955639084
 10
104.3173190385908
 20
21.89048122282599
 10
104.3173190385908
 20
22.81548936061557
 10
105.0683498543753
 20
23.56652017640004
 10
105.9938747564876
 20
23.56652017640004
 10
105.9938747564876
 20
23.56652017640004
 10
107.1631401641814
 20
23.56652017640004
 10
107.1631401641814
 20
23.56652017640004
 10
107.2244628638189
 20
23.56652017640004
 10
107.2726942006124
 20
23.51759982050949
 10
107.2726942006124
 20
23.45627712087204
 10
107.2726942006124
 20
23.45627712087204
 10
107.2726942006124
 20
22.39208712547837
 10
107.2726942006124
 20
22.39208712547837
 10
107.2726942006124
 20
22.33214246403502
 10
107.2244628638189
 20
22.28322210814448
 10
107.1631401641814
 20
22.28322210814448
 10
107.1631401641814
 20
22.28322210814448
 10
106.0786241054248
 20
22.2821885794989
 10
106.0786241054248
 20
22.2821885794989
 10
105.8643391662423
 20
22.2821885794989
 10
105.6893283155916
 20
22.10752223839673
 10
105.6893283155916
 20
21.89289278966567
 10
105.6893283155916
 20
21.67722981228903
 10
105.8643391662423
 20
21.50152994254129
 10
106.0786241054248
 20
21.50152994254129
 10
106.0786241054248
 20
21.50152994254129
 10
107.5972221953229
 20
21.50359699983244
 10
107.5972221953229
 20
21.50359699983244
 10
107.5972221953229
 20
21.50359699983244
 10
107.5972221953229
 20
23.75152180395795
 10
107.5972221953229
 20
23.75152180395795
 10
107.5972221953229
 20
24.08052842279931
 10
107.3312608238616
 20
24.34683430380912
 10
107.0005316572776
 20
24.34683430380912
 10
107.0005316572776
 20
24.34683430380912
 10
104.8673285328109
 20
24.34683430380912
 10
104.8673285328109
 20
24.34683430380912
 10
104.8051445593022
 20
24.34683430380912
 10
104.7572577320572
 20
24.39541015015115
 10
104.7572577320572
 20
24.45638834024007
 10
104.7572577320572
 20
24.45638834024007
 10
104.7572577320572
 20
25.52505695976457
 10
104.7572577320572
 20
25.52505695976457
 10
104.7572577320572
 20
25.58500162120792
 10
104.8051445593022
 20
25.63495550574404
 10
104.8673285328109
 20
25.63495550574404
 10
104.8673285328109
 20
25.63495550574404
 10
107.4215223255752
 20
25.63495550574404
 10
107.4215223255752
 20
25.63495550574404
 10
108.3530761447867
 20
25.63495550574404
 10
109.10203990328
 20
24.8815131231199
 10
109.10203990328
 20
23.95030381345687
 10
109.10203990328
 20
23.95030381345687
 10
109.10203990328
 20
20.32399630568289
 10
109.10203990328
 20
20.32399630568289
 97
        0
 75
     2
 76
     1
 98
        0
  0
SPLINE
  5
7F
330
79
100
AcDbEntity
  8
\U+30EC\U+30A4\U+30E4\U+30FC 1
370
     0
100
AcDbSpline
210
0.0
220
0.0
230
1.0
 70
    11
 71
     3
 72
    68
 73
    64
 74
     0
 42
0.0000000001
 43
0.0000000001
 40
0.0
 40
0.0
 40
0.0
 40
0.0
 40
1.0
 40
1.0
 40
1.0
 40
2.0
 40
2.0
 40
2.0
 40
3.0
 40
3.0
 40
3.0
 40
4.0
 40
4.0
 40
4.0
 40
5.0
 40
5.0
 40
5.0
 40
6.0
 40
6.0
 40
6.0
 40
7.0
 40
7.0
 40
7.0
 40
8.0
 40
8.0
 40
8.0
 40
9.0
 40
9.0
 40
9.0
 40
10.0
 40
10.0
 40
10.0
 40
11.0
 40
11.0
 40
11.0
 40
12.0
 40
12.0
 40
12.0
 40
13.0
 40
13.0
 40
13.0
 40
14.0
 40
14.0
 40
14.0
 40
15.0
 40
15.0
 40
15.0
 40
16.0
 40
16.0
 40
16.0
 40
17.0
 40
17.0
 40
17.0
 40
18.0
 40
18.0
 40
18.0
 40
19.0
 40
19.0
 40
19.0
 40
20.0
 40
20.0
 40
20.0
 40
21.0
 40
21.0
 40
21.0
 40
21.0
 10
119.1961696750621
 20
20.32399630568289
 30
0.0
 10
119.1961696750621
 20
20.26198458694839
 30
0.0
 10
119.1472493191715
 20
20.21375325015489
 30
0.0
 10
119.0859266195341
 20
20.21375325015489
 30
0.0
 10
119.0859266195341
 20
20.21375325015489
 30
0.0
 10
116.0859374709785
 20
20.21375325015489
 30
0.0
 10
116.0859374709785
 20
20.21375325015489
 30
0.0
 10
115.1612738427375
 20
20.21375325015489
 30
0.0
 10
114.410243026953
 20
20.96443955639084
 30
0.0
 10
114.410243026953
 20
21.89048122282599
 30
0.0
 10
114.410243026953
 20
22.81548936061557
 30
0.0
 10
115.1612738427375
 20
23.56652017640004
 30
0.0
 10
116.0859374709785
 20
23.56652017640004
 30
0.0
 10
116.0859374709785
 20
23.56652017640004
 30
0.0
 10
117.2552028786723
 20
23.56652017640004
 30
0.0
 10
117.2552028786723
 20
23.56652017640004
 30
0.0
 10
117.3158365592127
 20
23.56652017640004
 30
0.0
 10
117.3654459342003
 20
23.51759982050949
 30
0.0
 10
117.3654459342003
 20
23.45627712087204
 30
0.0
 10
117.3654459342003
 20
23.45627712087204
 30
0.0
 10
117.3654459342003
 20
22.39208712547837
 30
0.0
 10
117.3654459342003
 20
22.39208712547837
 30
0.0
 10
117.3654459342003
 20
22.33214246403502
 30
0.0
 10
117.3158365592127
 20
22.28322210814448
 30
0.0
 10
117.2552028786723
 20
22.28322210814448
 30
0.0
 10
117.2552028786723
 20
22.28322210814448
 30
0.0
 10
116.1713758390127
 20
22.2821885794989
 30
0.0
 10
116.1713758390127
 20
22.2821885794989
 30
0.0
 10
115.9564018807331
 20
22.2821885794989
 30
0.0
 10
115.7820800491795
 20
22.10752223839673
 30
0.0
 10
115.7820800491795
 20
21.89289278966567
 30
0.0
 10
115.7820800491795
 20
21.67722981228903
 30
0.0
 10
115.9564018807331
 20
21.50152994254129
 30
0.0
 10
116.1713758390127
 20
21.50152994254129
 30
0.0
 10
116.1713758390127
 20
21.50152994254129
 30
0.0
 10
117.6899739289108
 20
21.50359699983244
 30
0.0
 10
117.6899739289108
 20
21.50359699983244
 30
0.0
 10
117.6899739289108
 20
21.50359699983244
 30
0.0
 10
117.6899739289108
 20
23.75152180395795
 30
0.0
 10
117.6899739289108
 20
23.75152180395795
 30
0.0
 10
117.6899739289108
 20
24.08052842279931
 30
0.0
 10
117.4233235383525
 20
24.34683430380912
 30
0.0
 10
117.0939724099626
 20
24.34683430380912
 30
0.0
 10
117.0939724099626
 20
24.34683430380912
 30
0.0
 10
114.9580132091077
 20
24.34683430380912
 30
0.0
 10
114.9580132091077
 20
24.34683430380912
 30
0.0
 10
114.8980685476644
 20
24.34683430380912
 30
0.0
 10
114.8491481917738
 20
24.39541015015115
 30
0.0
 10
114.8491481917738
 20
24.45638834024007
 30
0.0
 10
114.8491481917738
 20
24.45638834024007
 30
0.0
 10
114.8491481917738
 20
25.52505695976457
 30
0.0
 10
114.8491481917738
 20
25.52505695976457
 30
0.0
 10
114.8491481917738
 20
25.58500162120792
 30
0.0
 10
114.8980685476644
 20
25.63495550574404
 30
0.0
 10
114.9580132091077
 20
25.63495550574404
 30
0.0
 10
114.9580132091077
 20
25.63495550574404
 30
0.0
 10
117.513585040066
 20
25.63495550574404
 30
0.0
 10
117.513585040066
 20
25.63495550574404
 30
0.0
 10
118.4444498401806
 20
25.63495550574404
 30
0.0
 10
119.1961696750621
 20
24.8815131231199
 30
0.0
 10
119.1961696750621
 20
23.95030381345687
 30
0.0
 10
119.1961696750621
 20
23.95030381345687
 30
0.0
 10
119.1961696750621
 20
20.32399630568289
 30
0.0
 10
119.1961696750621
 20
20.32399630568289
 30
0.0
  0
HATCH
  5
80
330
79
100
AcDbEntity
  8
\U+30EC\U+30A4\U+30E4\U+30FC 1
 62
    29
100
AcDbHatch
 10
0.0
 20
0.0
 30
0.0
210
0.0
220
0.0
230
1.0
  2
SOLID
 70
     1
 71
     0
 91
        1
 92
        1
 93
        1
 72
     4
 94
        3
 73
     0
 74
     1
 95
       68
 96
       64
 40
0.0
 40
0.0
 40
0.0
 40
0.0
 40
1.0
 40
1.0
 40
1.0
 40
2.0
 40
2.0
 40
2.0
 40
3.0
 40
3.0
 40
3.0
 40
4.0
 40
4.0
 40
4.0
 40
5.0
 40
5.0
 40
5.0
 40
6.0
 40
6.0
 40
6.0
 40
7.0
 40
7.0
 40
7.0
 40
8.0
 40
8.0
 40
8.0
 40
9.0
 40
9.0
 40
9.0
 40
10.0
 40
10.0
 40
10.0
 40
11.0
 40
11.0
 40
11.0
 40
12.0
 40
12.0
 40
12.0
 40
13.0
 40
13.0
 40
13.0
 40
14.0
 40
14.0
 40
14.0
 40
15.0
 40
15.0
 40
15.0
 40
16.0
 40
16.0
 40
16.0
 40
17.0
 40
17.0
 40
17.0
 40
18.0
 40
18.0
 40
18.0
 40
19.0
 40
19.0
 40
19.0
 40
20.0
 40
20.0
 40
20.0
 40
21.0
 40
21.0
 40
21.0
 40
21.0
 10
119.1961696750621
 20
20.32399630568289
 10
119.1961696750621
 20
20.26198458694839
 10
119.1472493191715
 20
20.21375325015489
 10
119.0859266195341
 20
20.21375325015489
 10
119.0859266195341
 20
20.21375325015489
 10
116.0859374709785
 20
20.21375325015489
 10
116.0859374709785
 20
20.21375325015489
 10
115.1612738427375
 20
20.21375325015489
 10
114.410243026953
 20
20.96443955639084
 10
114.410243026953
 20
21.89048122282599
 10
114.410243026953
 20
22.81548936061557
 10
115.1612738427375
 20
23.56652017640004
 10
116.0859374709785
 20
23.56652017640004
 10
116.0859374709785
 20
23.56652017640004
 10
117.2552028786723
 20
23.56652017640004
 10
117.2552028786723
 20
23.56652017640004
 10
117.3158365592127
 20
23.56652017640004
 10
117.3654459342003
 20
23.51759982050949
 10
117.3654459342003
 20
23.45627712087204
 10
117.3654459342003
 20
23.45627712087204
 10
117.3654459342003
 20
22.39208712547837
 10
117.3654459342003
 20
22.39208712547837
 10
117.3654459342003
 20
22.33214246403502
 10
117.3158365592127
 20
22.28322210814448
 10
117.2552028786723
 20
22.28322210814448
 10
117.2552028786723
 20
22.28322210814448
 10
116.1713758390127
 20
22.2821885794989
 10
116.1713758390127
 20
22.2821885794989
 10
115.9564018807331
 20
22.2821885794989
 10
115.7820800491795
 20
22.10752223839673
 10
115.7820800491795
 20
21.89289278966567
 10
115.7820800491795
 20
21.67722981228903
 10
115.9564018807331
 20
21.50152994254129
 10
116.1713758390127
 20
21.50152994254129
 10
116.1713758390127
 20
21.50152994254129
 10
117.6899739289108
 20
21.50359699983244
 10
117.6899739289108
 20
21.50359699983244
 10
117.6899739289108
 20
21.50359699983244
 10
117.6899739289108
 20
23.75152180395795
 10
117.6899739289108
 20
23.75152180395795
 10
117.6899739289108
 20
24.08052842279931
 10
117.4233235383525
 20
24.34683430380912
 10
117.0939724099626
 20
24.34683430380912
 10
117.0939724099626
 20
24.34683430380912
 10
114.9580132091077
 20
24.34683430380912
 10
114.9580132091077
 20
24.34683430380912
 10
114.8980685476644
 20
24.34683430380912
 10
114.8491481917738
 20
24.39541015015115
 10
114.8491481917738
 20
24.45638834024007
 10
114.8491481917738
 20
24.45638834024007
 10
114.8491481917738
 20
25.52505695976457
 10
114.8491481917738
 20
25.52505695976457
 10
114.8491481917738
 20
25.58500162120792
 10
114.8980685476644
 20
25.63495550574404
 10
114.9580132091077
 20
25.63495550574404
 10
114.9580132091077
 20
25.63495550574404
 10
117.513585040066
 20
25.63495550574404
 10
117.513585040066
 20
25.63495550574404
 10
118.4444498401806
 20
25.63495550574404
 10
119.1961696750621
 20
24.8815131231199
 10
119.1961696750621
 20
23.95030381345687
 10
119.1961696750621
 20
23.95030381345687
 10
119.1961696750621
 20
20.32399630568289
 10
119.1961696750621
 20
20.32399630568289
 97
        0
 75
     2
 76
     1
 98
        0
  0
SPLINE
  5
81
330
79
100
AcDbEntity
  8
\U+30EC\U+30A4\U+30E4\U+30FC 1
370
     0
100
AcDbSpline
210
0.0
220
0.0
230
1.0
 70
    11
 71
     3
 72
    65
 73
    61
 74
     0
 42
0.0000000001
 43
0.0000000001
 40
0.0
 40
0.0
 40
0.0
 40
0.0
 40
1.0
 40
1.0
 40
1.0
 40
2.0
 40
2.0
 40
2.0
 40
3.0
 40
3.0
 40
3.0
 40
4.0
 40
4.0
 40
4.0
 40
5.0
 40
5.0
 40
5.0
 40
6.0
 40
6.0
 40
6.0
 40
7.0
 40
7.0
 40
7.0
 40
8.0
 40
8.0
 40
8.0
 40
9.0
 40
9.0
 40
9.0
 40
10.0
 40
10.0
 40
10.0
 40
11.0
 40
11.0
 40
11.0
 40
12.0
 40
12.0
 40
12.0
 40
13.0
 40
13.0
 40
13.0
 40
14.0
 40
14.0
 40
14.0
 40
15.0
 40
15.0
 40
15.0
 40
16.0
 40
16.0
 40
16.0
 40
17.0
 40
17.0
 40
17.0
 40
18.0
 40
18.0
 40
18.0
 40
19.0
 40
19.0
 40
19.0
 40
20.0
 40
20.0
 40
20.0
 40
20.0
 10
119.8328233207362
 20
20.20858560692702
 30
0.0
 10
119.7728786592929
 20
20.20858560692702
 30
0.0
 10
119.7246473224994
 20
20.25578341507494
 30
0.0
 10
119.7246473224994
 20
20.31538356696977
 30
0.0
 10
119.7246473224994
 20
20.31538356696977
 30
0.0
 10
119.7246473224994
 20
21.38577473423689
 30
0.0
 10
119.7246473224994
 20
21.38577473423689
 30
0.0
 10
119.7246473224994
 20
21.44571939568024
 30
0.0
 10
119.7728786592929
 20
21.49705131841046
 30
0.0
 10
119.8328233207362
 20
21.49705131841046
 30
0.0
 10
119.8328233207362
 20
21.49705131841046
 30
0.0
 10
122.3821939798211
 20
21.49705131841046
 30
0.0
 10
122.3821939798211
 20
21.49705131841046
 30
0.0
 10
122.5971679381007
 20
21.49705131841046
 30
0.0
 10
122.7714897696544
 20
21.67447373590083
 30
0.0
 10
122.7714897696544
 20
21.89185926102009
 30
0.0
 10
122.7714897696544
 20
22.10511067155706
 30
0.0
 10
122.5971679381007
 20
22.2821885794989
 30
0.0
 10
122.3821939798211
 20
22.2821885794989
 30
0.0
 10
122.3821939798211
 20
22.2821885794989
 30
0.0
 10
121.2515136415621
 20
22.31319443886615
 30
0.0
 10
121.2515136415621
 20
22.31319443886615
 30
0.0
 10
120.3309841279034
 20
22.31319443886615
 30
0.0
 10
119.5840874267012
 20
23.05492349684044
 30
0.0
 10
119.5840874267012
 20
23.96994085772279
 30
0.0
 10
119.5840874267012
 20
24.88461370905663
 30
0.0
 10
120.3309841279034
 20
25.62772080522501
 30
0.0
 10
121.2515136415621
 20
25.62772080522501
 30
0.0
 10
121.2515136415621
 20
25.62772080522501
 30
0.0
 10
123.8187987971703
 20
25.62772080522501
 30
0.0
 10
123.8187987971703
 20
25.62772080522501
 30
0.0
 10
123.8794324777107
 20
25.62772080522501
 30
0.0
 10
123.9276638145042
 20
25.57983397798004
 30
0.0
 10
123.9276638145042
 20
25.52057833563375
 30
0.0
 10
123.9276638145042
 20
25.52057833563375
 30
0.0
 10
123.9276638145042
 20
24.46224500256499
 30
0.0
 10
123.9276638145042
 20
24.46224500256499
 30
0.0
 10
123.9276638145042
 20
24.40092230292755
 30
0.0
 10
123.8794324777107
 20
24.34959038019733
 30
0.0
 10
123.8187987971703
 20
24.34959038019733
 30
0.0
 10
123.8187987971703
 20
24.34959038019733
 30
0.0
 10
121.4099880338836
 20
24.34959038019733
 30
0.0
 10
121.4099880338836
 20
24.34959038019733
 30
0.0
 10
121.1957030947011
 20
24.34959038019733
 30
0.0
 10
121.0200032249533
 20
24.17182345315844
 30
0.0
 10
121.0200032249533
 20
23.95753851397589
 30
0.0
 10
121.0200032249533
 20
23.74153102705073
 30
0.0
 10
121.1957030947011
 20
23.56755370504561
 30
0.0
 10
121.4099880338836
 20
23.56755370504561
 30
0.0
 10
121.4099880338836
 20
23.56755370504561
 30
0.0
 10
122.5544487540836
 20
23.53275824064459
 30
0.0
 10
122.5544487540836
 20
23.53275824064459
 30
0.0
 10
123.4756672868394
 20
23.53275824064459
 30
0.0
 10
124.2239420262357
 20
22.78999565402473
 30
0.0
 10
124.2239420262357
 20
21.87463378359384
 30
0.0
 10
124.2239420262357
 20
20.95754936542033
 30
0.0
 10
123.4756672868394
 20
20.20858560692702
 30
0.0
 10
122.5544487540836
 20
20.20858560692702
 30
0.0
 10
122.5544487540836
 20
20.20858560692702
 30
0.0
 10
119.8328233207362
 20
20.20858560692702
 30
0.0
 10
119.8328233207362
 20
20.20858560692702
 30
0.0
  0
HATCH
  5
82
330
79
100
AcDbEntity
  8
\U+30EC\U+30A4\U+30E4\U+30FC 1
 62
    29
100
AcDbHatch
 10
0.0
 20
0.0
 30
0.0
210
0.0
220
0.0
230
1.0
  2
SOLID
 70
     1
 71
     0
 91
        1
 92
        1
 93
        1
 72
     4
 94
        3
 73
     0
 74
     1
 95
       65
 96
       61
 40
0.0
 40
0.0
 40
0.0
 40
0.0
 40
1.0
 40
1.0
 40
1.0
 40
2.0
 40
2.0
 40
2.0
 40
3.0
 40
3.0
 40
3.0
 40
4.0
 40
4.0
 40
4.0
 40
5.0
 40
5.0
 40
5.0
 40
6.0
 40
6.0
 40
6.0
 40
7.0
 40
7.0
 40
7.0
 40
8.0
 40
8.0
 40
8.0
 40
9.0
 40
9.0
 40
9.0
 40
10.0
 40
10.0
 40
10.0
 40
11.0
 40
11.0
 40
11.0
 40
12.0
 40
12.0
 40
12.0
 40
13.0
 40
13.0
 40
13.0
 40
14.0
 40
14.0
 40
14.0
 40
15.0
 40
15.0
 40
15.0
 40
16.0
 40
16.0
 40
16.0
 40
17.0
 40
17.0
 40
17.0
 40
18.0
 40
18.0
 40
18.0
 40
19.0
 40
19.0
 40
19.0
 40
20.0
 40
20.0
 40
20.0
 40
20.0
 10
119.8328233207362
 20
20.20858560692702
 10
119.7728786592929
 20
20.20858560692702
 10
119.7246473224994
 20
20.25578341507494
 10
119.7246473224994
 20
20.31538356696977
 10
119.7246473224994
 20
20.31538356696977
 10
119.7246473224994
 20
21.38577473423689
 10
119.7246473224994
 20
21.38577473423689
 10
119.7246473224994
 20
21.44571939568024
 10
119.7728786592929
 20
21.49705131841046
 10
119.8328233207362
 20
21.49705131841046
 10
119.8328233207362
 20
21.49705131841046
 10
122.3821939798211
 20
21.49705131841046
 10
122.3821939798211
 20
21.49705131841046
 10
122.5971679381007
 20
21.49705131841046
 10
122.7714897696544
 20
21.67447373590083
 10
122.7714897696544
 20
21.89185926102009
 10
122.7714897696544
 20
22.10511067155706
 10
122.5971679381007
 20
22.2821885794989
 10
122.3821939798211
 20
22.2821885794989
 10
122.3821939798211
 20
22.2821885794989
 10
121.2515136415621
 20
22.31319443886615
 10
121.2515136415621
 20
22.31319443886615
 10
120.3309841279034
 20
22.31319443886615
 10
119.5840874267012
 20
23.05492349684044
 10
119.5840874267012
 20
23.96994085772279
 10
119.5840874267012
 20
24.88461370905663
 10
120.3309841279034
 20
25.62772080522501
 10
121.2515136415621
 20
25.62772080522501
 10
121.2515136415621
 20
25.62772080522501
 10
123.8187987971703
 20
25.62772080522501
 10
123.8187987971703
 20
25.62772080522501
 10
123.8794324777107
 20
25.62772080522501
 10
123.9276638145042
 20
25.57983397798004
 10
123.9276638145042
 20
25.52057833563375
 10
123.9276638145042
 20
25.52057833563375
 10
123.9276638145042
 20
24.46224500256499
 10
123.9276638145042
 20
24.46224500256499
 10
123.9276638145042
 20
24.40092230292755
 10
123.8794324777107
 20
24.34959038019733
 10
123.8187987971703
 20
24.34959038019733
 10
123.8187987971703
 20
24.34959038019733
 10
121.4099880338836
 20
24.34959038019733
 10
121.4099880338836
 20
24.34959038019733
 10
121.1957030947011
 20
24.34959038019733
 10
121.0200032249533
 20
24.17182345315844
 10
121.0200032249533
 20
23.95753851397589
 10
121.0200032249533
 20
23.74153102705073
 10
121.1957030947011
 20
23.56755370504561
 10
121.4099880338836
 20
23.56755370504561
 10
121.4099880338836
 20
23.56755370504561
 10
122.5544487540836
 20
23.53275824064459
 10
122.5544487540836
 20
23.53275824064459
 10
123.4756672868394
 20
23.53275824064459
 10
124.2239420262357
 20
22.78999565402473
 10
124.2239420262357
 20
21.87463378359384
 10
124.2239420262357
 20
20.95754936542033
 10
123.4756672868394
 20
20.20858560692702
 10
122.5544487540836
 20
20.20858560692702
 10
122.5544487540836
 20
20.20858560692702
 10
119.8328233207362
 20
20.20858560692702
 10
119.8328233207362
 20
20.20858560692702
 97
        0
 75
     2
 76
     1
 98
        0
  0
SPLINE
  5
83
330
79
100
AcDbEntity
  8
\U+30EC\U+30A4\U+30E4\U+30FC 1
370
     0
100
AcDbSpline
210
0.0
220
0.0
230
1.0
 70
    11
 71
     3
 72
    65
 73
    61
 74
     0
 42
0.0000000001
 43
0.0000000001
 40
0.0
 40
0.0
 40
0.0
 40
0.0
 40
1.0
 40
1.0
 40
1.0
 40
2.0
 40
2.0
 40
2.0
 40
3.0
 40
3.0
 40
3.0
 40
4.0
 40
4.0
 40
4.0
 40
5.0
 40
5.0
 40
5.0
 40
6.0
 40
6.0
 40
6.0
 40
7.0
 40
7.0
 40
7.0
 40
8.0
 40
8.0
 40
8.0
 40
9.0
 40
9.0
 40
9.0
 40
10.0
 40
10.0
 40
10.0
 40
11.0
 40
11.0
 40
11.0
 40
12.0
 40
12.0
 40
12.0
 40
13.0
 40
13.0
 40
13.0
 40
14.0
 40
14.0
 40
14.0
 40
15.0
 40
15.0
 40
15.0
 40
16.0
 40
16.0
 40
16.0
 40
17.0
 40
17.0
 40
17.0
 40
18.0
 40
18.0
 40
18.0
 40
19.0
 40
19.0
 40
19.0
 40
20.0
 40
20.0
 40
20.0
 40
20.0
 10
128.97128360491
 20
25.63323295800141
 30
0.0
 10
128.97128360491
 20
25.63323295800141
 30
0.0
 10
127.7668782232666
 20
25.63323295800141
 30
0.0
 10
127.7668782232666
 20
25.63323295800141
 30
0.0
 10
127.7062445427262
 20
25.63323295800141
 30
0.0
 10
127.5801540479661
 20
25.58396809256234
 30
0.0
 10
127.5801540479661
 20
25.52436794066752
 30
0.0
 10
127.5801540479661
 20
25.52436794066752
 30
0.0
 10
127.5801540479661
 20
23.57306585782201
 30
0.0
 10
127.5801540479661
 20
23.57306585782201
 30
0.0
 10
127.5801540479661
 20
23.57306585782201
 30
0.0
 10
126.0705132063296
 20
23.57306585782201
 30
0.0
 10
126.0705132063296
 20
23.57306585782201
 30
0.0
 10
126.0705132063296
 20
23.57306585782201
 30
0.0
 10
126.0705132063296
 20
25.52436794066752
 30
0.0
 10
126.0705132063296
 20
25.52436794066752
 30
0.0
 10
126.0705132063296
 20
25.58396809256234
 30
0.0
 10
126.020903831342
 20
25.63323295800141
 30
0.0
 10
125.9616481889957
 20
25.63323295800141
 30
0.0
 10
125.9616481889957
 20
25.63323295800141
 30
0.0
 10
124.6786946302887
 20
25.63323295800141
 30
0.0
 10
124.6786946302887
 20
25.63323295800141
 30
0.0
 10
124.6187499688453
 20
25.63323295800141
 30
0.0
 10
124.5698296129548
 20
25.58396809256234
 30
0.0
 10
124.5698296129548
 20
25.52436794066752
 30
0.0
 10
124.5698296129548
 20
25.52436794066752
 30
0.0
 10
124.5698296129548
 20
20.32399630568289
 30
0.0
 10
124.5698296129548
 20
20.32399630568289
 30
0.0
 10
124.5698296129548
 20
20.26198458694839
 30
0.0
 10
124.6187499688453
 20
20.21409775970342
 30
0.0
 10
124.6786946302887
 20
20.21409775970342
 30
0.0
 10
124.6786946302887
 20
20.21409775970342
 30
0.0
 10
125.9616481889957
 20
20.21409775970342
 30
0.0
 10
125.9616481889957
 20
20.21409775970342
 30
0.0
 10
126.020903831342
 20
20.21409775970342
 30
0.0
 10
126.0705132063296
 20
20.26198458694839
 30
0.0
 10
126.0705132063296
 20
20.32399630568289
 30
0.0
 10
126.0705132063296
 20
20.32399630568289
 30
0.0
 10
126.0705132063296
 20
22.2863226940812
 30
0.0
 10
126.0705132063296
 20
22.2863226940812
 30
0.0
 10
126.0705132063296
 20
22.2863226940812
 30
0.0
 10
127.5801540479661
 20
22.2863226940812
 30
0.0
 10
127.5801540479661
 20
22.2863226940812
 30
0.0
 10
127.5801540479661
 20
22.2863226940812
 30
0.0
 10
127.5801540479661
 20
20.32399630568289
 30
0.0
 10
127.5801540479661
 20
20.32399630568289
 30
0.0
 10
127.5801540479661
 20
20.26198458694839
 30
0.0
 10
127.6290744038566
 20
20.21409775970342
 30
0.0
 10
127.6890190653
 20
20.21409775970342
 30
0.0
 10
127.6890190653
 20
20.21409775970342
 30
0.0
 10
128.97128360491
 20
20.21409775970342
 30
0.0
 10
128.97128360491
 20
20.21409775970342
 30
0.0
 10
129.0312282663533
 20
20.21409775970342
 30
0.0
 10
129.0801486222439
 20
20.26198458694839
 30
0.0
 10
129.0801486222439
 20
20.32399630568289
 30
0.0
 10
129.0801486222439
 20
20.32399630568289
 30
0.0
 10
129.0801486222439
 20
25.52436794066752
 30
0.0
 10
129.0801486222439
 20
25.52436794066752
 30
0.0
 10
129.0801486222439
 20
25.58396809256234
 30
0.0
 10
129.0312282663533
 20
25.63323295800141
 30
0.0
 10
128.97128360491
 20
25.63323295800141
 30
0.0
  0
HATCH
  5
84
330
79
100
AcDbEntity
  8
\U+30EC\U+30A4\U+30E4\U+30FC 1
 62
    29
100
AcDbHatch
 10
0.0
 20
0.0
 30
0.0
210
0.0
220
0.0
230
1.0
  2
SOLID
 70
     1
 71
     0
 91
        1
 92
        1
 93
        2
 72
     4
 94
        3
 73
     0
 74
     0
 95
       65
 96
       61
 40
0.0
 40
0.0
 40
0.0
 40
0.0
 40
0.3527777776895833
 40
0.3527777776895833
 40
0.3527777776895833
 40
0.7055555553791667
 40
0.7055555553791667
 40
0.7055555553791667
 40
1.05833333306875
 40
1.05833333306875
 40
1.05833333306875
 40
1.411111110758333
 40
1.411111110758333
 40
1.411111110758333
 40
1.763888888447917
 40
1.763888888447917
 40
1.763888888447917
 40
2.1166666661375
 40
2.1166666661375
 40
2.1166666661375
 40
2.469444443827083
 40
2.469444443827083
 40
2.469444443827083
 40
2.822222221516667
 40
2.822222221516667
 40
2.822222221516667
 40
3.17499999920625
 40
3.17499999920625
 40
3.17499999920625
 40
3.527777776895833
 40
3.527777776895833
 40
3.527777776895833
 40
3.880555554585417
 40
3.880555554585417
 40
3.880555554585417
 40
4.233333332275
 40
4.233333332275
 40
4.233333332275
 40
4.586111109964584
 40
4.586111109964584
 40
4.586111109964584
 40
4.938888887654167
 40
4.938888887654167
 40
4.938888887654167
 40
5.29166666534375
 40
5.29166666534375
 40
5.29166666534375
 40
5.644444443033334
 40
5.644444443033334
 40
5.644444443033334
 40
5.997222220722917
 40
5.997222220722917
 40
5.997222220722917
 40
6.349999998412501
 40
6.349999998412501
 40
6.349999998412501
 40
6.702777776102083
 40
6.702777776102083
 40
6.702777776102083
 40
7.055555553791667
 40
7.055555553791667
 40
7.055555553791667
 40
7.055555553791667
 10
128.97128360491
 20
25.63323295800141
 10
128.97128360491
 20
25.63323295800141
 10
127.7668782232666
 20
25.63323295800141
 10
127.7668782232666
 20
25.63323295800141
 10
127.7062445427262
 20
25.63323295800141
 10
127.5801540479661
 20
25.58396809256234
 10
127.5801540479661
 20
25.52436794066752
 10
127.5801540479661
 20
25.52436794066752
 10
127.5801540479661
 20
23.57306585782201
 10
127.5801540479661
 20
23.57306585782201
 10
127.5801540479661
 20
23.57306585782201
 10
126.0705132063296
 20
23.57306585782201
 10
126.0705132063296
 20
23.57306585782201
 10
126.0705132063296
 20
23.57306585782201
 10
126.0705132063296
 20
25.52436794066752
 10
126.0705132063296
 20
25.52436794066752
 10
126.0705132063296
 20
25.58396809256234
 10
126.020903831342
 20
25.63323295800141
 10
125.9616481889957
 20
25.63323295800141
 10
125.9616481889957
 20
25.63323295800141
 10
124.6786946302887
 20
25.63323295800141
 10
124.6786946302887
 20
25.63323295800141
 10
124.6187499688453
 20
25.63323295800141
 10
124.5698296129548
 20
25.58396809256234
 10
124.5698296129548
 20
25.52436794066752
 10
124.5698296129548
 20
25.52436794066752
 10
124.5698296129548
 20
20.32399630568289
 10
124.5698296129548
 20
20.32399630568289
 10
124.5698296129548
 20
20.26198458694839
 10
124.6187499688453
 20
20.21409775970342
 10
124.6786946302887
 20
20.21409775970342
 10
124.6786946302887
 20
20.21409775970342
 10
125.9616481889957
 20
20.21409775970342
 10
125.9616481889957
 20
20.21409775970342
 10
126.020903831342
 20
20.21409775970342
 10
126.0705132063296
 20
20.26198458694839
 10
126.0705132063296
 20
20.32399630568289
 10
126.0705132063296
 20
20.32399630568289
 10
126.0705132063296
 20
22.2863226940812
 10
126.0705132063296
 20
22.2863226940812
 10
126.0705132063296
 20
22.2863226940812
 10
127.5801540479661
 20
22.2863226940812
 10
127.5801540479661
 20
22.2863226940812
 10
127.5801540479661
 20
22.2863226940812
 10
127.5801540479661
 20
20.32399630568289
 10
127.5801540479661
 20
20.32399630568289
 10
127.5801540479661
 20
20.26198458694839
 10
127.6290744038566
 20
20.21409775970342
 10
127.6890190653
 20
20.21409775970342
 10
127.6890190653
 20
20.21409775970342
 10
128.97128360491
 20
20.21409775970342
 10
128.97128360491
 20
20.21409775970342
 10
129.0312282663533
 20
20.21409775970342
 10
129.0801486222439
 20
20.26198458694839
 10
129.0801486222439
 20
20.32399630568289
 10
129.0801486222439
 20
20.32399630568289
 10
129.0801486222439
 20
25.52436794066752
 10
129.0801486222439
 20
25.52436794066752
 10
129.0801486222439
 20
25.58396809256234
 10
129.0312282663533
 20
25.63323295800141
 10
128.97128360491
 20
25.63323295800141
 72
     1
 10
128.97128360491
 20
25.63323295800141
 11
128.97128360491
 21
25.63323295800141
 97
        0
 75
     2
 76
     1
 98
        0
  0
SPLINE
  5
85
330
79
100
AcDbEntity
  8
\U+30EC\U+30A4\U+30E4\U+30FC 1
370
     0
100
AcDbSpline
210
0.0
220
0.0
230
1.0
 70
    11
 71
     3
 72
    29
 73
    25
 74
     0
 42
0.0000000001
 43
0.0000000001
 40
0.0
 40
0.0
 40
0.0
 40
0.0
 40
1.0
 40
1.0
 40
1.0
 40
2.0
 40
2.0
 40
2.0
 40
3.0
 40
3.0
 40
3.0
 40
4.0
 40
4.0
 40
4.0
 40
5.0
 40
5.0
 40
5.0
 40
6.0
 40
6.0
 40
6.0
 40
7.0
 40
7.0
 40
7.0
 40
8.0
 40
8.0
 40
8.0
 40
8.0
 10
133.0633680222897
 20
25.63392197709846
 30
0.0
 10
133.0633680222897
 20
25.63392197709846
 30
0.0
 10
131.0514322589038
 20
25.63392197709846
 30
0.0
 10
131.0514322589038
 20
25.63392197709846
 30
0.0
 10
130.2025607313383
 20
25.63392197709846
 30
0.0
 10
129.5121635960942
 20
24.9449028800485
 30
0.0
 10
129.5121635960942
 20
24.09499782383736
 30
0.0
 10
129.5121635960942
 20
24.09499782383736
 30
0.0
 10
129.5121635960942
 20
21.75784504664387
 30
0.0
 10
129.5121635960942
 20
21.75784504664387
 30
0.0
 10
129.5121635960942
 20
20.90828449998126
 30
0.0
 10
130.2025607313383
 20
20.21960991247982
 30
0.0
 10
131.0514322589038
 20
20.21960991247982
 30
0.0
 10
131.0514322589038
 20
20.21960991247982
 30
0.0
 10
133.0633680222897
 20
20.21960991247982
 30
0.0
 10
133.0633680222897
 20
20.21960991247982
 30
0.0
 10
133.9129285689523
 20
20.21960991247982
 30
0.0
 10
134.6012586469053
 20
20.90828449998126
 30
0.0
 10
134.6012586469053
 20
21.75784504664387
 30
0.0
 10
134.6012586469053
 20
21.75784504664387
 30
0.0
 10
134.6012586469053
 20
24.09499782383736
 30
0.0
 10
134.6012586469053
 20
24.09499782383736
 30
0.0
 10
134.6012586469053
 20
24.9449028800485
 30
0.0
 10
133.9129285689523
 20
25.63392197709846
 30
0.0
 10
133.0633680222897
 20
25.63392197709846
 30
0.0
  0
SPLINE
  5
86
330
79
100
AcDbEntity
  8
\U+30EC\U+30A4\U+30E4\U+30FC 1
370
     0
100
AcDbSpline
210
0.0
220
0.0
230
1.0
 70
    11
 71
     3
 72
    29
 73
    25
 74
     0
 42
0.0000000001
 43
0.0000000001
 40
0.0
 40
0.0
 40
0.0
 40
0.0
 40
1.0
 40
1.0
 40
1.0
 40
2.0
 40
2.0
 40
2.0
 40
3.0
 40
3.0
 40
3.0
 40
4.0
 40
4.0
 40
4.0
 40
5.0
 40
5.0
 40
5.0
 40
6.0
 40
6.0
 40
6.0
 40
7.0
 40
7.0
 40
7.0
 40
8.0
 40
8.0
 40
8.0
 40
8.0
 10
133.0985079962393
 20
22.06066893979733
 30
0.0
 10
133.0985079962393
 20
21.75784504664387
 30
0.0
 10
132.8525281785924
 20
21.51220973854556
 30
0.0
 10
132.5500487949875
 20
21.51220973854556
 30
0.0
 10
132.5500487949875
 20
21.51220973854556
 30
0.0
 10
131.564751486206
 20
21.51220973854556
 30
0.0
 10
131.564751486206
 20
21.51220973854556
 30
0.0
 10
131.260894064407
 20
21.51220973854556
 30
0.0
 10
131.0156032658572
 20
21.75784504664387
 30
0.0
 10
131.0156032658572
 20
22.06066893979733
 30
0.0
 10
131.0156032658572
 20
22.06066893979733
 30
0.0
 10
131.0156032658572
 20
23.79251844023243
 30
0.0
 10
131.0156032658572
 20
23.79251844023243
 30
0.0
 10
131.0156032658572
 20
24.09499782383736
 30
0.0
 10
131.260894064407
 20
24.34028862238715
 30
0.0
 10
131.564751486206
 20
24.34028862238715
 30
0.0
 10
131.564751486206
 20
24.34028862238715
 30
0.0
 10
132.5500487949875
 20
24.34028862238715
 30
0.0
 10
132.5500487949875
 20
24.34028862238715
 30
0.0
 10
132.8525281785924
 20
24.34028862238715
 30
0.0
 10
133.0985079962393
 20
24.09499782383736
 30
0.0
 10
133.0985079962393
 20
23.79251844023243
 30
0.0
 10
133.0985079962393
 20
23.79251844023243
 30
0.0
 10
133.0985079962393
 20
22.06066893979733
 30
0.0
 10
133.0985079962393
 20
22.06066893979733
 30
0.0
  0
HATCH
  5
87
330
79
100
AcDbEntity
  8
\U+30EC\U+30A4\U+30E4\U+30FC 1
 62
    29
100
AcDbHatch
 10
0.0
 20
0.0
 30
0.0
210
0.0
220
0.0
230
1.0
  2
SOLID
 70
     1
 71
     0
 91
        2
 92
        1
 93
        1
 72
     4
 94
        3
 73
     0
 74
     1
 95
       29
 96
       25
 40
0.0
 40
0.0
 40
0.0
 40
0.0
 40
1.0
 40
1.0
 40
1.0
 40
2.0
 40
2.0
 40
2.0
 40
3.0
 40
3.0
 40
3.0
 40
4.0
 40
4.0
 40
4.0
 40
5.0
 40
5.0
 40
5.0
 40
6.0
 40
6.0
 40
6.0
 40
7.0
 40
7.0
 40
7.0
 40
8.0
 40
8.0
 40
8.0
 40
8.0
 10
133.0985079962393
 20
22.06066893979733
 10
133.0985079962393
 20
21.75784504664387
 10
132.8525281785924
 20
21.51220973854556
 10
132.5500487949875
 20
21.51220973854556
 10
132.5500487949875
 20
21.51220973854556
 10
131.564751486206
 20
21.51220973854556
 10
131.564751486206
 20
21.51220973854556
 10
131.260894064407
 20
21.51220973854556
 10
131.0156032658572
 20
21.75784504664387
 10
131.0156032658572
 20
22.06066893979733
 10
131.0156032658572
 20
22.06066893979733
 10
131.0156032658572
 20
23.79251844023243
 10
131.0156032658572
 20
23.79251844023243
 10
131.0156032658572
 20
24.09499782383736
 10
131.260894064407
 20
24.34028862238715
 10
131.564751486206
 20
24.34028862238715
 10
131.564751486206
 20
24.34028862238715
 10
132.5500487949875
 20
24.34028862238715
 10
132.5500487949875
 20
24.34028862238715
 10
132.8525281785924
 20
24.34028862238715
 10
133.0985079962393
 20
24.09499782383736
 10
133.0985079962393
 20
23.79251844023243
 10
133.0985079962393
 20
23.79251844023243
 10
133.0985079962393
 20
22.06066893979733
 10
133.0985079962393
 20
22.06066893979733
 97
        0
 92
        1
 93
        2
 72
     4
 94
        3
 73
     0
 74
     0
 95
       29
 96
       25
 40
0.0
 40
0.0
 40
0.0
 40
0.0
 40
0.3527777776895833
 40
0.3527777776895833
 40
0.3527777776895833
 40
0.7055555553791667
 40
0.7055555553791667
 40
0.7055555553791667
 40
1.05833333306875
 40
1.05833333306875
 40
1.05833333306875
 40
1.411111110758333
 40
1.411111110758333
 40
1.411111110758333
 40
1.763888888447917
 40
1.763888888447917
 40
1.763888888447917
 40
2.1166666661375
 40
2.1166666661375
 40
2.1166666661375
 40
2.469444443827083
 40
2.469444443827083
 40
2.469444443827083
 40
2.822222221516667
 40
2.822222221516667
 40
2.822222221516667
 40
2.822222221516667
 10
133.0633680222897
 20
25.63392197709846
 10
133.0633680222897
 20
25.63392197709846
 10
131.0514322589038
 20
25.63392197709846
 10
131.0514322589038
 20
25.63392197709846
 10
130.2025607313383
 20
25.63392197709846
 10
129.5121635960942
 20
24.9449028800485
 10
129.5121635960942
 20
24.09499782383736
 10
129.5121635960942
 20
24.09499782383736
 10
129.5121635960942
 20
21.75784504664387
 10
129.5121635960942
 20
21.75784504664387
 10
129.5121635960942
 20
20.90828449998126
 10
130.2025607313383
 20
20.21960991247982
 10
131.0514322589038
 20
20.21960991247982
 10
131.0514322589038
 20
20.21960991247982
 10
133.0633680222897
 20
20.21960991247982
 10
133.0633680222897
 20
20.21960991247982
 10
133.9129285689523
 20
20.21960991247982
 10
134.6012586469053
 20
20.90828449998126
 10
134.6012586469053
 20
21.75784504664387
 10
134.6012586469053
 20
21.75784504664387
 10
134.6012586469053
 20
24.09499782383736
 10
134.6012586469053
 20
24.09499782383736
 10
134.6012586469053
 20
24.9449028800485
 10
133.9129285689523
 20
25.63392197709846
 10
133.0633680222897
 20
25.63392197709846
 72
     1
 10
133.0633680222897
 20
25.63392197709846
 11
133.0633680222897
 21
25.63392197709846
 97
        0
 75
     2
 76
     1
 98
        0
  0
SPLINE
  5
88
330
79
100
AcDbEntity
  8
\U+30EC\U+30A4\U+30E4\U+30FC 1
370
     0
100
AcDbSpline
210
0.0
220
0.0
230
1.0
 70
    11
 71
     3
 72
    47
 73
    43
 74
     0
 42
0.0000000001
 43
0.0000000001
 40
0.0
 40
0.0
 40
0.0
 40
0.0
 40
1.0
 40
1.0
 40
1.0
 40
2.0
 40
2.0
 40
2.0
 40
3.0
 40
3.0
 40
3.0
 40
4.0
 40
4.0
 40
4.0
 40
5.0
 40
5.0
 40
5.0
 40
6.0
 40
6.0
 40
6.0
 40
7.0
 40
7.0
 40
7.0
 40
8.0
 40
8.0
 40
8.0
 40
9.0
 40
9.0
 40
9.0
 40
10.0
 40
10.0
 40
10.0
 40
11.0
 40
11.0
 40
11.0
 40
12.0
 40
12.0
 40
12.0
 40
13.0
 40
13.0
 40
13.0
 40
14.0
 40
14.0
 40
14.0
 40
14.0
 10
105.791992161052
 20
27.72061631251429
 30
0.0
 10
105.791992161052
 20
27.72061631251429
 30
0.0
 10
99.92775062605973
 20
27.72061631251429
 30
0.0
 10
99.92775062605973
 20
27.72061631251429
 30
0.0
 10
99.8741793912641
 20
27.72061631251429
 30
0.0
 10
99.8300821690529
 20
27.67651909030309
 30
0.0
 10
99.8300821690529
 20
27.62208658163615
 30
0.0
 10
99.8300821690529
 20
27.62208658163615
 30
0.0
 10
99.8300821690529
 20
26.32673067918221
 30
0.0
 10
99.8300821690529
 20
26.32673067918221
 30
0.0
 10
99.8300821690529
 20
26.27195366096673
 30
0.0
 10
99.8741793912641
 20
26.22785643875554
 30
0.0
 10
99.92775062605973
 20
26.22785643875554
 30
0.0
 10
99.92775062605973
 20
26.22785643875554
 30
0.0
 10
101.9922240955957
 20
26.22785643875554
 30
0.0
 10
101.9922240955957
 20
26.22785643875554
 30
0.0
 10
101.9922240955957
 20
26.22785643875554
 30
0.0
 10
101.9922240955957
 20
20.32399630568289
 30
0.0
 10
101.9922240955957
 20
20.32399630568289
 30
0.0
 10
101.9922240955957
 20
20.26198458694839
 30
0.0
 10
102.0402831776149
 20
20.21409775970342
 30
0.0
 10
102.1009168581553
 20
20.21409775970342
 30
0.0
 10
102.1009168581553
 20
20.21409775970342
 30
0.0
 10
103.6181369098594
 20
20.21409775970342
 30
0.0
 10
103.6181369098594
 20
20.21409775970342
 30
0.0
 10
103.6796318642711
 20
20.21409775970342
 30
0.0
 10
103.7264851628705
 20
20.26198458694839
 30
0.0
 10
103.7264851628705
 20
20.32399630568289
 30
0.0
 10
103.7264851628705
 20
20.32399630568289
 30
0.0
 10
103.7264851628705
 20
26.22785643875554
 30
0.0
 10
103.7264851628705
 20
26.22785643875554
 30
0.0
 10
103.7264851628705
 20
26.22785643875554
 30
0.0
 10
105.791992161052
 20
26.22785643875554
 30
0.0
 10
105.791992161052
 20
26.22785643875554
 30
0.0
 10
105.846424669719
 20
26.22785643875554
 30
0.0
 10
105.8891438537361
 20
26.27195366096673
 30
0.0
 10
105.8891438537361
 20
26.32673067918221
 30
0.0
 10
105.8891438537361
 20
26.32673067918221
 30
0.0
 10
105.8891438537361
 20
27.62208658163615
 30
0.0
 10
105.8891438537361
 20
27.62208658163615
 30
0.0
 10
105.8891438537361
 20
27.67651909030309
 30
0.0
 10
105.846424669719
 20
27.72061631251429
 30
0.0
 10
105.791992161052
 20
27.72061631251429
 30
0.0
  0
HATCH
  5
89
330
79
100
AcDbEntity
  8
\U+30EC\U+30A4\U+30E4\U+30FC 1
 62
    29
100
AcDbHatch
 10
0.0
 20
0.0
 30
0.0
210
0.0
220
0.0
230
1.0
  2
SOLID
 70
     1
 71
     0
 91
        1
 92
        1
 93
        2
 72
     4
 94
        3
 73
     0
 74
     0
 95
       47
 96
       43
 40
0.0
 40
0.0
 40
0.0
 40
0.0
 40
0.3527777776895833
 40
0.3527777776895833
 40
0.3527777776895833
 40
0.7055555553791667
 40
0.7055555553791667
 40
0.7055555553791667
 40
1.05833333306875
 40
1.05833333306875
 40
1.05833333306875
 40
1.411111110758333
 40
1.411111110758333
 40
1.411111110758333
 40
1.763888888447917
 40
1.763888888447917
 40
1.763888888447917
 40
2.1166666661375
 40
2.1166666661375
 40
2.1166666661375
 40
2.469444443827083
 40
2.469444443827083
 40
2.469444443827083
 40
2.822222221516667
 40
2.822222221516667
 40
2.822222221516667
 40
3.17499999920625
 40
3.17499999920625
 40
3.17499999920625
 40
3.527777776895833
 40
3.527777776895833
 40
3.527777776895833
 40
3.880555554585417
 40
3.880555554585417
 40
3.880555554585417
 40
4.233333332275
 40
4.233333332275
 40
4.233333332275
 40
4.586111109964584
 40
4.586111109964584
 40
4.586111109964584
 40
4.938888887654167
 40
4.938888887654167
 40
4.938888887654167
 40
4.938888887654167
 10
105.791992161052
 20
27.72061631251429
 10
105.791992161052
 20
27.72061631251429
 10
99.92775062605973
 20
27.72061631251429
 10
99.92775062605973
 20
27.72061631251429
 10
99.8741793912641
 20
27.72061631251429
 10
99.8300821690529
 20
27.67651909030309
 10
99.8300821690529
 20
27.62208658163615
 10
99.8300821690529
 20
27.62208658163615
 10
99.8300821690529
 20
26.32673067918221
 10
99.8300821690529
 20
26.32673067918221
 10
99.8300821690529
 20
26.27195366096673
 10
99.8741793912641
 20
26.22785643875554
 10
99.92775062605973
 20
26.22785643875554
 10
99.92775062605973
 20
26.22785643875554
 10
101.9922240955957
 20
26.22785643875554
 10
101.9922240955957
 20
26.22785643875554
 10
101.9922240955957
 20
26.22785643875554
 10
101.9922240955957
 20
20.32399630568289
 10
101.9922240955957
 20
20.32399630568289
 10
101.9922240955957
 20
20.26198458694839
 10
102.0402831776149
 20
20.21409775970342
 10
102.1009168581553
 20
20.21409775970342
 10
102.1009168581553
 20
20.21409775970342
 10
103.6181369098594
 20
20.21409775970342
 10
103.6181369098594
 20
20.21409775970342
 10
103.6796318642711
 20
20.21409775970342
 10
103.7264851628705
 20
20.26198458694839
 10
103.7264851628705
 20
20.32399630568289
 10
103.7264851628705
 20
20.32399630568289
 10
103.7264851628705
 20
26.22785643875554
 10
103.7264851628705
 20
26.22785643875554
 10
103.7264851628705
 20
26.22785643875554
 10
105.791992161052
 20
26.22785643875554
 10
105.791992161052
 20
26.22785643875554
 10
105.846424669719
 20
26.22785643875554
 10
105.8891438537361
 20
26.27195366096673
 10
105.8891438537361
 20
26.32673067918221
 10
105.8891438537361
 20
26.32673067918221
 10
105.8891438537361
 20
27.62208658163615
 10
105.8891438537361
 20
27.62208658163615
 10
105.8891438537361
 20
27.67651909030309
 10
105.846424669719
 20
27.72061631251429
 10
105.791992161052
 20
27.72061631251429
 72
     1
 10
105.791992161052
 20
27.72061631251429
 11
105.791992161052
 21
27.72061631251429
 97
        0
 75
     2
 76
     1
 98
        0
  0
SPLINE
  5
8A
330
79
100
AcDbEntity
  8
\U+30EC\U+30A4\U+30E4\U+30FC 1
370
     0
100
AcDbSpline
210
0.0
220
0.0
230
1.0
 70
    11
 71
     3
 72
    29
 73
    25
 74
     0
 42
0.0000000001
 43
0.0000000001
 40
0.0
 40
0.0
 40
0.0
 40
0.0
 40
1.0
 40
1.0
 40
1.0
 40
2.0
 40
2.0
 40
2.0
 40
3.0
 40
3.0
 40
3.0
 40
4.0
 40
4.0
 40
4.0
 40
5.0
 40
5.0
 40
5.0
 40
6.0
 40
6.0
 40
6.0
 40
7.0
 40
7.0
 40
7.0
 40
8.0
 40
8.0
 40
8.0
 40
8.0
 10
110.949300102471
 20
20.21409775970342
 30
0.0
 10
111.0092447639144
 20
20.21409775970342
 30
0.0
 10
111.059543157999
 20
20.26198458694839
 30
0.0
 10
111.059543157999
 20
20.32502983432846
 30
0.0
 10
111.059543157999
 20
20.32502983432846
 30
0.0
 10
111.059543157999
 20
25.53229166028359
 30
0.0
 10
111.059543157999
 20
25.53229166028359
 30
0.0
 10
111.059543157999
 20
25.59258083127547
 30
0.0
 10
111.0092447639144
 20
25.64115667761749
 30
0.0
 10
110.949300102471
 20
25.64115667761749
 30
0.0
 10
110.949300102471
 20
25.64115667761749
 30
0.0
 10
109.6622124291817
 20
25.64115667761749
 30
0.0
 10
109.6622124291817
 20
25.64115667761749
 30
0.0
 10
109.6008897295442
 20
25.64115667761749
 30
0.0
 10
109.5519693736537
 20
25.59258083127547
 30
0.0
 10
109.5519693736537
 20
25.53229166028359
 30
0.0
 10
109.5519693736537
 20
25.53229166028359
 30
0.0
 10
109.5519693736537
 20
20.32502983432846
 30
0.0
 10
109.5519693736537
 20
20.32502983432846
 30
0.0
 10
109.5519693736537
 20
20.26198458694839
 30
0.0
 10
109.6008897295442
 20
20.21409775970342
 30
0.0
 10
109.6622124291817
 20
20.21409775970342
 30
0.0
 10
109.6622124291817
 20
20.21409775970342
 30
0.0
 10
110.949300102471
 20
20.21409775970342
 30
0.0
 10
110.949300102471
 20
20.21409775970342
 30
0.0
  0
HATCH
  5
8B
330
79
100
AcDbEntity
  8
\U+30EC\U+30A4\U+30E4\U+30FC 1
 62
    29
100
AcDbHatch
 10
0.0
 20
0.0
 30
0.0
210
0.0
220
0.0
230
1.0
  2
SOLID
 70
     1
 71
     0
 91
        1
 92
        1
 93
        1
 72
     4
 94
        3
 73
     0
 74
     1
 95
       29
 96
       25
 40
0.0
 40
0.0
 40
0.0
 40
0.0
 40
1.0
 40
1.0
 40
1.0
 40
2.0
 40
2.0
 40
2.0
 40
3.0
 40
3.0
 40
3.0
 40
4.0
 40
4.0
 40
4.0
 40
5.0
 40
5.0
 40
5.0
 40
6.0
 40
6.0
 40
6.0
 40
7.0
 40
7.0
 40
7.0
 40
8.0
 40
8.0
 40
8.0
 40
8.0
 10
110.949300102471
 20
20.21409775970342
 10
111.0092447639144
 20
20.21409775970342
 10
111.059543157999
 20
20.26198458694839
 10
111.059543157999
 20
20.32502983432846
 10
111.059543157999
 20
20.32502983432846
 10
111.059543157999
 20
25.53229166028359
 10
111.059543157999
 20
25.53229166028359
 10
111.059543157999
 20
25.59258083127547
 10
111.0092447639144
 20
25.64115667761749
 10
110.949300102471
 20
25.64115667761749
 10
110.949300102471
 20
25.64115667761749
 10
109.6622124291817
 20
25.64115667761749
 10
109.6622124291817
 20
25.64115667761749
 10
109.6008897295442
 20
25.64115667761749
 10
109.5519693736537
 20
25.59258083127547
 10
109.5519693736537
 20
25.53229166028359
 10
109.5519693736537
 20
25.53229166028359
 10
109.5519693736537
 20
20.32502983432846
 10
109.5519693736537
 20
20.32502983432846
 10
109.5519693736537
 20
20.26198458694839
 10
109.6008897295442
 20
20.21409775970342
 10
109.6622124291817
 20
20.21409775970342
 10
109.6622124291817
 20
20.21409775970342
 10
110.949300102471
 20
20.21409775970342
 10
110.949300102471
 20
20.21409775970342
 97
        0
 75
     2
 76
     1
 98
        0
  0
SPLINE
  5
8C
330
79
100
AcDbEntity
  8
\U+30EC\U+30A4\U+30E4\U+30FC 1
370
     0
100
AcDbSpline
210
0.0
220
0.0
230
1.0
 70
    11
 71
     3
 72
    29
 73
    25
 74
     0
 42
0.0000000001
 43
0.0000000001
 40
0.0
 40
0.0
 40
0.0
 40
0.0
 40
1.0
 40
1.0
 40
1.0
 40
2.0
 40
2.0
 40
2.0
 40
3.0
 40
3.0
 40
3.0
 40
4.0
 40
4.0
 40
4.0
 40
5.0
 40
5.0
 40
5.0
 40
6.0
 40
6.0
 40
6.0
 40
7.0
 40
7.0
 40
7.0
 40
8.0
 40
8.0
 40
8.0
 40
8.0
 10
113.0735459786761
 20
25.63771158213224
 30
0.0
 10
112.9708821332156
 20
25.63771158213224
 30
0.0
 10
112.879242593308
 20
25.58603514985349
 30
0.0
 10
112.824121065544
 20
25.50817599188685
 30
0.0
 10
112.824121065544
 20
25.50817599188685
 30
0.0
 10
111.059543157999
 20
22.92400986840094
 30
0.0
 10
111.059543157999
 20
22.92400986840094
 30
0.0
 10
111.059543157999
 20
22.92400986840094
 30
0.0
 10
112.8124077408941
 20
20.21960991247982
 30
0.0
 10
112.8124077408941
 20
20.21960991247982
 30
0.0
 10
112.8124077408941
 20
20.21960991247982
 30
0.0
 10
114.6562228445998
 20
20.21960991247982
 30
0.0
 10
114.6562228445998
 20
20.21960991247982
 30
0.0
 10
114.6562228445998
 20
20.21960991247982
 30
0.0
 10
112.6491102148933
 20
22.92400986840094
 30
0.0
 10
112.6491102148933
 20
22.92400986840094
 30
0.0
 10
112.6491102148933
 20
22.92400986840094
 30
0.0
 10
114.6548448064057
 20
25.63598903438961
 30
0.0
 10
114.6548448064057
 20
25.63598903438961
 30
0.0
 10
114.6548448064057
 20
25.63598903438961
 30
0.0
 10
113.072856959579
 20
25.63598903438961
 30
0.0
 10
113.072856959579
 20
25.63598903438961
 30
0.0
 10
113.072856959579
 20
25.63598903438961
 30
0.0
 10
113.0735459786761
 20
25.63771158213224
 30
0.0
 10
113.0735459786761
 20
25.63771158213224
 30
0.0
  0
HATCH
  5
8D
330
79
100
AcDbEntity
  8
\U+30EC\U+30A4\U+30E4\U+30FC 1
 62
    29
100
AcDbHatch
 10
0.0
 20
0.0
 30
0.0
210
0.0
220
0.0
230
1.0
  2
SOLID
 70
     1
 71
     0
 91
        1
 92
        1
 93
        1
 72
     4
 94
        3
 73
     0
 74
     1
 95
       29
 96
       25
 40
0.0
 40
0.0
 40
0.0
 40
0.0
 40
1.0
 40
1.0
 40
1.0
 40
2.0
 40
2.0
 40
2.0
 40
3.0
 40
3.0
 40
3.0
 40
4.0
 40
4.0
 40
4.0
 40
5.0
 40
5.0
 40
5.0
 40
6.0
 40
6.0
 40
6.0
 40
7.0
 40
7.0
 40
7.0
 40
8.0
 40
8.0
 40
8.0
 40
8.0
 10
113.0735459786761
 20
25.63771158213224
 10
112.9708821332156
 20
25.63771158213224
 10
112.879242593308
 20
25.58603514985349
 10
112.824121065544
 20
25.50817599188685
 10
112.824121065544
 20
25.50817599188685
 10
111.059543157999
 20
22.92400986840094
 10
111.059543157999
 20
22.92400986840094
 10
111.059543157999
 20
22.92400986840094
 10
112.8124077408941
 20
20.21960991247982
 10
112.8124077408941
 20
20.21960991247982
 10
112.8124077408941
 20
20.21960991247982
 10
114.6562228445998
 20
20.21960991247982
 10
114.6562228445998
 20
20.21960991247982
 10
114.6562228445998
 20
20.21960991247982
 10
112.6491102148933
 20
22.92400986840094
 10
112.6491102148933
 20
22.92400986840094
 10
112.6491102148933
 20
22.92400986840094
 10
114.6548448064057
 20
25.63598903438961
 10
114.6548448064057
 20
25.63598903438961
 10
114.6548448064057
 20
25.63598903438961
 10
113.072856959579
 20
25.63598903438961
 10
113.072856959579
 20
25.63598903438961
 10
113.072856959579
 20
25.63598903438961
 10
113.0735459786761
 20
25.63771158213224
 10
113.0735459786761
 20
25.63771158213224
 97
        0
 75
     2
 76
     1
 98
        0
  0
SPLINE
  5
8E
330
79
100
AcDbEntity
  8
\U+30EC\U+30A4\U+30E4\U+30FC 1
370
     0
100
AcDbSpline
210
0.0
220
0.0
230
1.0
 70
    11
 71
     3
 72
    29
 73
    25
 74
     0
 42
0.0000000001
 43
0.0000000001
 40
0.0
 40
0.0
 40
0.0
 40
0.0
 40
1.0
 40
1.0
 40
1.0
 40
2.0
 40
2.0
 40
2.0
 40
3.0
 40
3.0
 40
3.0
 40
4.0
 40
4.0
 40
4.0
 40
5.0
 40
5.0
 40
5.0
 40
6.0
 40
6.0
 40
6.0
 40
7.0
 40
7.0
 40
7.0
 40
8.0
 40
8.0
 40
8.0
 40
8.0
 10
90.0926920347685
 20
23.97028536727132
 30
0.0
 10
90.23066810895276
 20
23.97028536727132
 30
0.0
 10
90.34142792880354
 20
24.08259548009046
 30
0.0
 10
90.34142792880354
 20
24.21971028040341
 30
0.0
 10
90.34142792880354
 20
24.21971028040341
 30
0.0
 10
90.34142792880354
 20
27.468435322994
 30
0.0
 10
90.34142792880354
 20
27.468435322994
 30
0.0
 10
90.34142792880354
 20
27.60692816150105
 30
0.0
 10
90.23066810895276
 20
27.71786023612609
 30
0.0
 10
90.0926920347685
 20
27.71786023612609
 30
0.0
 10
90.0926920347685
 20
27.71786023612609
 30
0.0
 10
86.8439669921779
 20
27.71786023612609
 30
0.0
 10
86.8439669921779
 20
27.71786023612609
 30
0.0
 10
86.70461287979954
 20
27.71786023612609
 30
0.0
 10
86.59385305994876
 20
27.60692816150105
 30
0.0
 10
86.59385305994876
 20
27.468435322994
 30
0.0
 10
86.59385305994876
 20
27.468435322994
 30
0.0
 10
86.59385305994876
 20
24.21971028040341
 30
0.0
 10
86.59385305994876
 20
24.21971028040341
 30
0.0
 10
86.59385305994876
 20
24.08259548009046
 30
0.0
 10
86.70461287979954
 20
23.97028536727132
 30
0.0
 10
86.8439669921779
 20
23.97028536727132
 30
0.0
 10
86.8439669921779
 20
23.97028536727132
 30
0.0
 10
90.0926920347685
 20
23.97028536727132
 30
0.0
 10
90.0926920347685
 20
23.97028536727132
 30
0.0
  0
HATCH
  5
8F
330
79
100
AcDbEntity
  8
\U+30EC\U+30A4\U+30E4\U+30FC 1
 62
    29
100
AcDbHatch
 10
0.0
 20
0.0
 30
0.0
210
0.0
220
0.0
230
1.0
  2
SOLID
 70
     1
 71
     0
 91
        1
 92
        1
 93
        1
 72
     4
 94
        3
 73
     0
 74
     1
 95
       29
 96
       25
 40
0.0
 40
0.0
 40
0.0
 40
0.0
 40
1.0
 40
1.0
 40
1.0
 40
2.0
 40
2.0
 40
2.0
 40
3.0
 40
3.0
 40
3.0
 40
4.0
 40
4.0
 40
4.0
 40
5.0
 40
5.0
 40
5.0
 40
6.0
 40
6.0
 40
6.0
 40
7.0
 40
7.0
 40
7.0
 40
8.0
 40
8.0
 40
8.0
 40
8.0
 10
90.0926920347685
 20
23.97028536727132
 10
90.23066810895276
 20
23.97028536727132
 10
90.34142792880354
 20
24.08259548009046
 10
90.34142792880354
 20
24.21971028040341
 10
90.34142792880354
 20
24.21971028040341
 10
90.34142792880354
 20
27.468435322994
 10
90.34142792880354
 20
27.468435322994
 10
90.34142792880354
 20
27.60692816150105
 10
90.23066810895276
 20
27.71786023612609
 10
90.0926920347685
 20
27.71786023612609
 10
90.0926920347685
 20
27.71786023612609
 10
86.8439669921779
 20
27.71786023612609
 10
86.8439669921779
 20
27.71786023612609
 10
86.70461287979954
 20
27.71786023612609
 10
86.59385305994876
 20
27.60692816150105
 10
86.59385305994876
 20
27.468435322994
 10
86.59385305994876
 20
27.468435322994
 10
86.59385305994876
 20
24.21971028040341
 10
86.59385305994876
 20
24.21971028040341
 10
86.59385305994876
 20
24.08259548009046
 10
86.70461287979954
 20
23.97028536727132
 10
86.8439669921779
 20
23.97028536727132
 10
86.8439669921779
 20
23.97028536727132
 10
90.0926920347685
 20
23.97028536727132
 10
90.0926920347685
 20
23.97028536727132
 97
        0
 75
     2
 76
     1
 98
        0
  0
SPLINE
  5
90
330
79
100
AcDbEntity
  8
\U+30EC\U+30A4\U+30E4\U+30FC 1
370
     0
100
AcDbSpline
210
0.0
220
0.0
230
1.0
 70
    11
 71
     3
 72
    29
 73
    25
 74
     0
 42
0.0000000001
 43
0.0000000001
 40
0.0
 40
0.0
 40
0.0
 40
0.0
 40
1.0
 40
1.0
 40
1.0
 40
2.0
 40
2.0
 40
2.0
 40
3.0
 40
3.0
 40
3.0
 40
4.0
 40
4.0
 40
4.0
 40
5.0
 40
5.0
 40
5.0
 40
6.0
 40
6.0
 40
6.0
 40
7.0
 40
7.0
 40
7.0
 40
8.0
 40
8.0
 40
8.0
 40
8.0
 10
93.84302298001147
 20
20.22098795067392
 30
0.0
 10
93.98031003509868
 20
20.22098795067392
 30
0.0
 10
94.09106985494945
 20
20.33260904439602
 30
0.0
 10
94.09106985494945
 20
20.47144639245158
 30
0.0
 10
94.09106985494945
 20
20.47144639245158
 30
0.0
 10
94.09106985494945
 20
23.7191379063966
 30
0.0
 10
94.09106985494945
 20
23.7191379063966
 30
0.0
 10
94.09106985494945
 20
23.85659721625807
 30
0.0
 10
93.98031003509868
 20
23.96787380043164
 30
0.0
 10
93.84302298001147
 20
23.96787380043164
 30
0.0
 10
93.84302298001147
 20
23.96787380043164
 30
0.0
 10
90.59360891832382
 20
23.96787380043164
 30
0.0
 10
90.59360891832382
 20
23.96787380043164
 30
0.0
 10
90.45563284413957
 20
23.96787380043164
 30
0.0
 10
90.34211694790059
 20
23.85659721625807
 30
0.0
 10
90.34211694790059
 20
23.7191379063966
 30
0.0
 10
90.34211694790059
 20
23.7191379063966
 30
0.0
 10
90.34211694790059
 20
20.47144639245158
 30
0.0
 10
90.34211694790059
 20
20.47144639245158
 30
0.0
 10
90.34211694790059
 20
20.33260904439602
 30
0.0
 10
90.45563284413957
 20
20.22098795067392
 30
0.0
 10
90.59360891832382
 20
20.22098795067392
 30
0.0
 10
90.59360891832382
 20
20.22098795067392
 30
0.0
 10
93.84302298001147
 20
20.22098795067392
 30
0.0
 10
93.84302298001147
 20
20.22098795067392
 30
0.0
  0
HATCH
  5
91
330
79
100
AcDbEntity
  8
\U+30EC\U+30A4\U+30E4\U+30FC 1
 62
    29
100
AcDbHatch
 10
0.0
 20
0.0
 30
0.0
210
0.0
220
0.0
230
1.0
  2
SOLID
 70
     1
 71
     0
 91
        1
 92
        1
 93
        1
 72
     4
 94
        3
 73
     0
 74
     1
 95
       29
 96
       25
 40
0.0
 40
0.0
 40
0.0
 40
0.0
 40
1.0
 40
1.0
 40
1.0
 40
2.0
 40
2.0
 40
2.0
 40
3.0
 40
3.0
 40
3.0
 40
4.0
 40
4.0
 40
4.0
 40
5.0
 40
5.0
 40
5.0
 40
6.0
 40
6.0
 40
6.0
 40
7.0
 40
7.0
 40
7.0
 40
8.0
 40
8.0
 40
8.0
 40
8.0
 10
93.84302298001147
 20
20.22098795067392
 10
93.98031003509868
 20
20.22098795067392
 10
94.09106985494945
 20
20.33260904439602
 10
94.09106985494945
 20
20.47144639245158
 10
94.09106985494945
 20
20.47144639245158
 10
94.09106985494945
 20
23.7191379063966
 10
94.09106985494945
 20
23.7191379063966
 10
94.09106985494945
 20
23.85659721625807
 10
93.98031003509868
 20
23.96787380043164
 10
93.84302298001147
 20
23.96787380043164
 10
93.84302298001147
 20
23.96787380043164
 10
90.59360891832382
 20
23.96787380043164
 10
90.59360891832382
 20
23.96787380043164
 10
90.45563284413957
 20
23.96787380043164
 10
90.34211694790059
 20
23.85659721625807
 10
90.34211694790059
 20
23.7191379063966
 10
90.34211694790059
 20
23.7191379063966
 10
90.34211694790059
 20
20.47144639245158
 10
90.34211694790059
 20
20.47144639245158
 10
90.34211694790059
 20
20.33260904439602
 10
90.45563284413957
 20
20.22098795067392
 10
90.59360891832382
 20
20.22098795067392
 10
90.59360891832382
 20
20.22098795067392
 10
93.84302298001147
 20
20.22098795067392
 10
93.84302298001147
 20
20.22098795067392
 97
        0
 75
     2
 76
     1
 98
        0
  0
SPLINE
  5
92
330
79
100
AcDbEntity
  8
\U+30EC\U+30A4\U+30E4\U+30FC 1
370
     0
100
AcDbSpline
210
0.0
220
0.0
230
1.0
 70
    11
 71
     3
 72
    29
 73
    25
 74
     0
 42
0.0000000001
 43
0.0000000001
 40
0.0
 40
0.0
 40
0.0
 40
0.0
 40
1.0
 40
1.0
 40
1.0
 40
2.0
 40
2.0
 40
2.0
 40
3.0
 40
3.0
 40
3.0
 40
4.0
 40
4.0
 40
4.0
 40
5.0
 40
5.0
 40
5.0
 40
6.0
 40
6.0
 40
6.0
 40
7.0
 40
7.0
 40
7.0
 40
8.0
 40
8.0
 40
8.0
 40
8.0
 10
97.5926649061574
 20
23.97028536727132
 30
0.0
 10
97.7299519612446
 20
23.97028536727132
 30
0.0
 10
97.84208981928948
 20
24.08259548009046
 30
0.0
 10
97.84208981928948
 20
24.21971028040341
 30
0.0
 10
97.84208981928948
 20
24.21971028040341
 30
0.0
 10
97.84208981928948
 20
27.468435322994
 30
0.0
 10
97.84208981928948
 20
27.468435322994
 30
0.0
 10
97.84208981928948
 20
27.60692816150105
 30
0.0
 10
97.7299519612446
 20
27.71786023612609
 30
0.0
 10
97.5926649061574
 20
27.71786023612609
 30
0.0
 10
97.5926649061574
 20
27.71786023612609
 30
0.0
 10
94.34325084446975
 20
27.71786023612609
 30
0.0
 10
94.34325084446975
 20
27.71786023612609
 30
0.0
 10
94.20527477028548
 20
27.71786023612609
 30
0.0
 10
94.09451495043471
 20
27.60692816150105
 30
0.0
 10
94.09451495043471
 20
27.468435322994
 30
0.0
 10
94.09451495043471
 20
27.468435322994
 30
0.0
 10
94.09451495043471
 20
24.21971028040341
 30
0.0
 10
94.09451495043471
 20
24.21971028040341
 30
0.0
 10
94.09451495043471
 20
24.08259548009046
 30
0.0
 10
94.20527477028548
 20
23.97028536727132
 30
0.0
 10
94.34325084446975
 20
23.97028536727132
 30
0.0
 10
94.34325084446975
 20
23.97028536727132
 30
0.0
 10
97.5926649061574
 20
23.97028536727132
 30
0.0
 10
97.5926649061574
 20
23.97028536727132
 30
0.0
  0
HATCH
  5
93
330
79
100
AcDbEntity
  8
\U+30EC\U+30A4\U+30E4\U+30FC 1
 62
    29
100
AcDbHatch
 10
0.0
 20
0.0
 30
0.0
210
0.0
220
0.0
230
1.0
  2
SOLID
 70
     1
 71
     0
 91
        1
 92
        1
 93
        1
 72
     4
 94
        3
 73
     0
 74
     1
 95
       29
 96
       25
 40
0.0
 40
0.0
 40
0.0
 40
0.0
 40
1.0
 40
1.0
 40
1.0
 40
2.0
 40
2.0
 40
2.0
 40
3.0
 40
3.0
 40
3.0
 40
4.0
 40
4.0
 40
4.0
 40
5.0
 40
5.0
 40
5.0
 40
6.0
 40
6.0
 40
6.0
 40
7.0
 40
7.0
 40
7.0
 40
8.0
 40
8.0
 40
8.0
 40
8.0
 10
97.5926649061574
 20
23.97028536727132
 10
97.7299519612446
 20
23.97028536727132
 10
97.84208981928948
 20
24.08259548009046
 10
97.84208981928948
 20
24.21971028040341
 10
97.84208981928948
 20
24.21971028040341
 10
97.84208981928948
 20
27.468435322994
 10
97.84208981928948
 20
27.468435322994
 10
97.84208981928948
 20
27.60692816150105
 10
97.7299519612446
 20
27.71786023612609
 10
97.5926649061574
 20
27.71786023612609
 10
97.5926649061574
 20
27.71786023612609
 10
94.34325084446975
 20
27.71786023612609
 10
94.34325084446975
 20
27.71786023612609
 10
94.20527477028548
 20
27.71786023612609
 10
94.09451495043471
 20
27.60692816150105
 10
94.09451495043471
 20
27.468435322994
 10
94.09451495043471
 20
27.468435322994
 10
94.09451495043471
 20
24.21971028040341
 10
94.09451495043471
 20
24.21971028040341
 10
94.09451495043471
 20
24.08259548009046
 10
94.20527477028548
 20
23.97028536727132
 10
94.34325084446975
 20
23.97028536727132
 10
94.34325084446975
 20
23.97028536727132
 10
97.5926649061574
 20
23.97028536727132
 10
97.5926649061574
 20
23.97028536727132
 97
        0
 75
     2
 76
     1
 98
        0
  0
SPLINE
  5
94
330
79
100
AcDbEntity
  8
\U+30EC\U+30A4\U+30E4\U+30FC 1
370
     0
100
AcDbSpline
210
0.0
220
0.0
230
1.0
 70
    11
 71
     3
 72
    29
 73
    25
 74
     0
 42
0.0000000001
 43
0.0000000001
 40
0.0
 40
0.0
 40
0.0
 40
0.0
 40
1.0
 40
1.0
 40
1.0
 40
2.0
 40
2.0
 40
2.0
 40
3.0
 40
3.0
 40
3.0
 40
4.0
 40
4.0
 40
4.0
 40
5.0
 40
5.0
 40
5.0
 40
6.0
 40
6.0
 40
6.0
 40
7.0
 40
7.0
 40
7.0
 40
8.0
 40
8.0
 40
8.0
 40
8.0
 10
90.0926920347685
 20
16.47100151497947
 30
0.0
 10
90.23066810895276
 20
16.47100151497947
 30
0.0
 10
90.34142792880354
 20
16.58296711825009
 30
0.0
 10
90.34142792880354
 20
16.72111544720861
 30
0.0
 10
90.34142792880354
 20
16.72111544720861
 30
0.0
 10
90.34142792880354
 20
19.96949598025068
 30
0.0
 10
90.34142792880354
 20
19.96949598025068
 30
0.0
 10
90.34142792880354
 20
20.10661078056362
 30
0.0
 10
90.23066810895276
 20
20.21857638383425
 30
0.0
 10
90.0926920347685
 20
20.21857638383425
 30
0.0
 10
90.0926920347685
 20
20.21857638383425
 30
0.0
 10
86.8439669921779
 20
20.21857638383425
 30
0.0
 10
86.8439669921779
 20
20.21857638383425
 30
0.0
 10
86.70461287979954
 20
20.21857638383425
 30
0.0
 10
86.59385305994876
 20
20.10661078056362
 30
0.0
 10
86.59385305994876
 20
19.96949598025068
 30
0.0
 10
86.59385305994876
 20
19.96949598025068
 30
0.0
 10
86.59385305994876
 20
16.72111544720861
 30
0.0
 10
86.59385305994876
 20
16.72111544720861
 30
0.0
 10
86.59385305994876
 20
16.58296711825009
 30
0.0
 10
86.70461287979954
 20
16.47100151497947
 30
0.0
 10
86.8439669921779
 20
16.47100151497947
 30
0.0
 10
86.8439669921779
 20
16.47100151497947
 30
0.0
 10
90.0926920347685
 20
16.47100151497947
 30
0.0
 10
90.0926920347685
 20
16.47100151497947
 30
0.0
  0
HATCH
  5
95
330
79
100
AcDbEntity
  8
\U+30EC\U+30A4\U+30E4\U+30FC 1
 62
    29
100
AcDbHatch
 10
0.0
 20
0.0
 30
0.0
210
0.0
220
0.0
230
1.0
  2
SOLID
 70
     1
 71
     0
 91
        1
 92
        1
 93
        1
 72
     4
 94
        3
 73
     0
 74
     1
 95
       29
 96
       25
 40
0.0
 40
0.0
 40
0.0
 40
0.0
 40
1.0
 40
1.0
 40
1.0
 40
2.0
 40
2.0
 40
2.0
 40
3.0
 40
3.0
 40
3.0
 40
4.0
 40
4.0
 40
4.0
 40
5.0
 40
5.0
 40
5.0
 40
6.0
 40
6.0
 40
6.0
 40
7.0
 40
7.0
 40
7.0
 40
8.0
 40
8.0
 40
8.0
 40
8.0
 10
90.0926920347685
 20
16.47100151497947
 10
90.23066810895276
 20
16.47100151497947
 10
90.34142792880354
 20
16.58296711825009
 10
90.34142792880354
 20
16.72111544720861
 10
90.34142792880354
 20
16.72111544720861
 10
90.34142792880354
 20
19.96949598025068
 10
90.34142792880354
 20
19.96949598025068
 10
90.34142792880354
 20
20.10661078056362
 10
90.23066810895276
 20
20.21857638383425
 10
90.0926920347685
 20
20.21857638383425
 10
90.0926920347685
 20
20.21857638383425
 10
86.8439669921779
 20
20.21857638383425
 10
86.8439669921779
 20
20.21857638383425
 10
86.70461287979954
 20
20.21857638383425
 10
86.59385305994876
 20
20.10661078056362
 10
86.59385305994876
 20
19.96949598025068
 10
86.59385305994876
 20
19.96949598025068
 10
86.59385305994876
 20
16.72111544720861
 10
86.59385305994876
 20
16.72111544720861
 10
86.59385305994876
 20
16.58296711825009
 10
86.70461287979954
 20
16.47100151497947
 10
86.8439669921779
 20
16.47100151497947
 10
86.8439669921779
 20
16.47100151497947
 10
90.0926920347685
 20
16.47100151497947
 10
90.0926920347685
 20
16.47100151497947
 97
        0
 75
     2
 76
     1
 98
        0
  0
POLYLINE
  5
96
330
79
100
AcDbEntity
  8
\U+30EC\U+30A4\U+30E4\U+30FC 1
370
     0
100
AcDb2dPolyline
 66
     1
 10
0.0
 20
0.0
 30
0.0
  0
VERTEX
  5
97
330
96
100
AcDbEntity
  8
\U+30EC\U+30A4\U+30E4\U+30FC 1
370
     0
100
AcDbVertex
100
AcDb2dVertex
 10
0.0
 20
297.0001314904201
 30
0.0
  0
VERTEX
  5
98
330
96
100
AcDbEntity
  8
\U+30EC\U+30A4\U+30E4\U+30FC 1
370
     0
100
AcDbVertex
100
AcDb2dVertex
 10
209.9999294179862
 20
297.0001314904201
 30
0.0
  0
VERTEX
  5
99
330
96
100
AcDbEntity
  8
\U+30EC\U+30A4\U+30E4\U+30FC 1
370
     0
100
AcDbVertex
100
AcDb2dVertex
 10
209.9999294179862
 20
0.0
 30
0.0
  0
VERTEX
  5
9A
330
96
100
AcDbEntity
  8
\U+30EC\U+30A4\U+30E4\U+30FC 1
370
     0
100
AcDbVertex
100
AcDb2dVertex
 10
0.0
 20
0.0
 30
0.0
  0
VERTEX
  5
9B
330
96
100
AcDbEntity
  8
\U+30EC\U+30A4\U+30E4\U+30FC 1
370
     0
100
AcDbVertex
100
AcDb2dVertex
 10
0.0
 20
297.0001314904201
 30
0.0
  0
SEQEND
  5
9C
330
96
100
AcDbEntity
  8
\U+30EC\U+30A4\U+30E4\U+30FC 1
370
     0
  0
ENDBLK
  5
7C
330
79
100
AcDbEntity
  8
0
100
AcDbBlockEnd
  0
BLOCK
  5
D6
330
D4
100
AcDbEntity
  8
0
100
AcDbBlockBegin
  2
block 4
 70
     0
 71
     0
 10
0.0
 20
0.0
 30
0.0
  3
block 4
  1

  0
SPLINE
  5
D8
330
D4
100
AcDbEntity
  8
\U+30EC\U+30A4\U+30E4\U+30FC 1
370
     0
100
AcDbSpline
210
0.0
220
0.0
230
1.0
 70
    11
 71
     3
 72
    23
 73
    19
 74
     0
 42
0.0000000001
 43
0.0000000001
 40
0.0
 40
0.0
 40
0.0
 40
0.0
 40
1.0
 40
1.0
 40
1.0
 40
2.0
 40
2.0
 40
2.0
 40
3.0
 40
3.0
 40
3.0
 40
4.0
 40
4.0
 40
4.0
 40
5.0
 40
5.0
 40
5.0
 40
6.0
 40
6.0
 40
6.0
 40
6.0
 10
145.1480739654491
 20
29.83418239271507
 30
0.0
 10
145.1480739654491
 20
29.83418239271507
 30
0.0
 10
145.1480739654491
 20
29.00873751444921
 30
0.0
 10
145.1480739654491
 20
29.00873751444921
 30
0.0
 10
145.0474771772798
 20
29.13896212379165
 30
0.0
 10
144.7381076027044
 20
29.54892848653638
 30
0.0
 10
144.5837673249652
 20
29.92857800901091
 30
0.0
 10
144.5837673249652
 20
29.92857800901091
 30
0.0
 10
144.5837673249652
 20
30.18971624679285
 30
0.0
 10
144.5837673249652
 20
30.18971624679285
 30
0.0
 10
144.5837673249652
 20
30.18971624679285
 30
0.0
 10
145.1294704498287
 20
30.18971624679285
 30
0.0
 10
145.1294704498287
 20
30.18971624679285
 30
0.0
 10
145.1294704498287
 20
30.18971624679285
 30
0.0
 10
145.5869791302699
 20
29.83418239271507
 30
0.0
 10
145.5869791302699
 20
29.83418239271507
 30
0.0
 10
145.5869791302699
 20
29.83418239271507
 30
0.0
 10
145.1480739654491
 20
29.83418239271507
 30
0.0
 10
145.1480739654491
 20
29.83418239271507
 30
0.0
  0
SPLINE
  5
D9
330
D4
100
AcDbEntity
  8
\U+30EC\U+30A4\U+30E4\U+30FC 1
370
     0
100
AcDbSpline
210
0.0
220
0.0
230
1.0
 70
    11
 71
     3
 72
   128
 73
   124
 74
     0
 42
0.0000000001
 43
0.0000000001
 40
0.0
 40
0.0
 40
0.0
 40
0.0
 40
1.0
 40
1.0
 40
1.0
 40
2.0
 40
2.0
 40
2.0
 40
3.0
 40
3.0
 40
3.0
 40
4.0
 40
4.0
 40
4.0
 40
5.0
 40
5.0
 40
5.0
 40
6.0
 40
6.0
 40
6.0
 40
7.0
 40
7.0
 40
7.0
 40
8.0
 40
8.0
 40
8.0
 40
9.0
 40
9.0
 40
9.0
 40
10.0
 40
10.0
 40
10.0
 40
11.0
 40
11.0
 40
11.0
 40
12.0
 40
12.0
 40
12.0
 40
13.0
 40
13.0
 40
13.0
 40
14.0
 40
14.0
 40
14.0
 40
15.0
 40
15.0
 40
15.0
 40
16.0
 40
16.0
 40
16.0
 40
17.0
 40
17.0
 40
17.0
 40
18.0
 40
18.0
 40
18.0
 40
19.0
 40
19.0
 40
19.0
 40
20.0
 40
20.0
 40
20.0
 40
21.0
 40
21.0
 40
21.0
 40
22.0
 40
22.0
 40
22.0
 40
23.0
 40
23.0
 40
23.0
 40
24.0
 40
24.0
 40
24.0
 40
25.0
 40
25.0
 40
25.0
 40
26.0
 40
26.0
 40
26.0
 40
27.0
 40
27.0
 40
27.0
 40
28.0
 40
28.0
 40
28.0
 40
29.0
 40
29.0
 40
29.0
 40
30.0
 40
30.0
 40
30.0
 40
31.0
 40
31.0
 40
31.0
 40
32.0
 40
32.0
 40
32.0
 40
33.0
 40
33.0
 40
33.0
 40
34.0
 40
34.0
 40
34.0
 40
35.0
 40
35.0
 40
35.0
 40
36.0
 40
36.0
 40
36.0
 40
37.0
 40
37.0
 40
37.0
 40
38.0
 40
38.0
 40
38.0
 40
39.0
 40
39.0
 40
39.0
 40
40.0
 40
40.0
 40
40.0
 40
41.0
 40
41.0
 40
41.0
 40
41.0
 10
146.2098523940031
 20
31.24047036979405
 30
0.0
 10
146.2704860745435
 20
31.50780977944944
 30
0.0
 10
146.2994248766196
 20
31.65525986621813
 30
0.0
 10
146.3290526977927
 20
31.80477701027797
 30
0.0
 10
146.3290526977927
 20
31.80477701027797
 30
0.0
 10
145.5277234879236
 20
31.87574597727412
 30
0.0
 10
145.5277234879236
 20
31.87574597727412
 30
0.0
 10
145.4450411962776
 20
31.26389701909375
 30
0.0
 10
145.2603840782682
 20
30.85461967544607
 30
0.0
 10
145.1480739654491
 20
30.64033473626353
 30
0.0
 10
145.1480739654491
 20
30.64033473626353
 30
0.0
 10
145.1480739654491
 20
31.00895995318526
 30
0.0
 10
145.1480739654491
 20
31.00895995318526
 30
0.0
 10
145.1480739654491
 20
31.00895995318526
 30
0.0
 10
144.5837673249652
 20
31.00895995318526
 30
0.0
 10
144.5837673249652
 20
31.00895995318526
 30
0.0
 10
144.5837673249652
 20
31.00895995318526
 30
0.0
 10
144.5837673249652
 20
31.98771158054474
 30
0.0
 10
144.5837673249652
 20
31.98771158054474
 30
0.0
 10
144.5837673249652
 20
31.98771158054474
 30
0.0
 10
143.7652126376698
 20
31.98771158054474
 30
0.0
 10
143.7652126376698
 20
31.98771158054474
 30
0.0
 10
143.7652126376698
 20
31.98771158054474
 30
0.0
 10
143.7652126376698
 20
31.00895995318526
 30
0.0
 10
143.7652126376698
 20
31.00895995318526
 30
0.0
 10
143.7652126376698
 20
31.00895995318526
 30
0.0
 10
143.0403645475733
 20
31.00895995318526
 30
0.0
 10
143.0403645475733
 20
31.00895995318526
 30
0.0
 10
143.0403645475733
 20
31.00895995318526
 30
0.0
 10
143.0403645475733
 20
30.18971624679285
 30
0.0
 10
143.0403645475733
 20
30.18971624679285
 30
0.0
 10
143.0403645475733
 20
30.18971624679285
 30
0.0
 10
143.6997558234501
 20
30.18971624679285
 30
0.0
 10
143.6997558234501
 20
30.18971624679285
 30
0.0
 10
143.4324164137947
 20
29.25816242758129
 30
0.0
 10
143.1712781760127
 20
28.86679958045691
 30
0.0
 10
142.9280544347541
 20
28.56363117775493
 30
0.0
 10
142.9280544347541
 20
28.56363117775493
 30
0.0
 10
143.2071071690593
 20
27.39505478915818
 30
0.0
 10
143.2071071690593
 20
27.39505478915818
 30
0.0
 10
143.3497341221487
 20
27.60176051827317
 30
0.0
 10
143.5688421950106
 20
27.94006889492471
 30
0.0
 10
143.7652126376698
 20
28.61668564822778
 30
0.0
 10
143.7652126376698
 20
28.61668564822778
 30
0.0
 10
143.7652126376698
 20
26.36703829635963
 30
0.0
 10
143.7652126376698
 20
26.36703829635963
 30
0.0
 10
143.7652126376698
 20
26.36703829635963
 30
0.0
 10
144.5837673249652
 20
26.36703829635963
 30
0.0
 10
144.5837673249652
 20
26.36703829635963
 30
0.0
 10
144.5837673249652
 20
26.36703829635963
 30
0.0
 10
144.5837673249652
 20
28.84268391206016
 30
0.0
 10
144.5837673249652
 20
28.84268391206016
 30
0.0
 10
144.6430229673115
 20
28.60014918989857
 30
0.0
 10
144.6733398075817
 20
28.47440320468696
 30
0.0
 10
144.9220757016167
 20
28.0117268810179
 30
0.0
 10
144.9220757016167
 20
28.0117268810179
 30
0.0
 10
145.4333278716278
 20
28.68834363432097
 30
0.0
 10
145.4333278716278
 20
28.68834363432097
 30
0.0
 10
145.3437553890113
 20
28.77102592596697
 30
0.0
 10
145.2789875938886
 20
28.83717175928376
 30
0.0
 10
145.159787290099
 20
28.98462184605246
 30
0.0
 10
145.159787290099
 20
28.98462184605246
 30
0.0
 10
146.2098523940031
 20
28.98462184605246
 30
0.0
 10
146.2098523940031
 20
28.98462184605246
 30
0.0
 10
145.7240939305829
 20
28.0999213254403
 30
0.0
 10
145.118446144276
 20
27.69064398179262
 30
0.0
 10
144.8745333839203
 20
27.53630370405342
 30
0.0
 10
144.8745333839203
 20
27.53630370405342
 30
0.0
 10
145.3968098594841
 20
26.69983452023477
 30
0.0
 10
145.3968098594841
 20
26.69983452023477
 30
0.0
 10
145.8715440173516
 20
27.13322753227919
 30
0.0
 10
146.2463704061468
 20
27.63758951131977
 30
0.0
 10
146.5185329494815
 20
28.22532280110339
 30
0.0
 10
146.5185329494815
 20
28.22532280110339
 30
0.0
 10
146.5185329494815
 20
26.36703829635963
 30
0.0
 10
146.5185329494815
 20
26.36703829635963
 30
0.0
 10
146.5185329494815
 20
26.36703829635963
 30
0.0
 10
147.367404477047
 20
26.36703829635963
 30
0.0
 10
147.367404477047
 20
26.36703829635963
 30
0.0
 10
147.367404477047
 20
26.36703829635963
 30
0.0
 10
147.367404477047
 20
28.08958603898455
 30
0.0
 10
147.367404477047
 20
28.08958603898455
 30
0.0
 10
147.6168293901791
 20
27.56110839154723
 30
0.0
 10
147.9558267859277
 20
27.07328287083585
 30
0.0
 10
148.4188476191453
 20
26.71051431623904
 30
0.0
 10
148.4188476191453
 20
26.71051431623904
 30
0.0
 10
148.7681803013496
 20
27.71475965018937
 30
0.0
 10
148.7681803013496
 20
27.71475965018937
 30
0.0
 10
148.5070420635677
 20
27.89252657722826
 30
0.0
 10
148.0440212303501
 20
28.22532280110339
 30
0.0
 10
147.6113172374027
 20
28.98462184605246
 30
0.0
 10
147.6113172374027
 20
28.98462184605246
 30
0.0
 10
148.6613823413069
 20
28.98462184605246
 30
0.0
 10
148.6613823413069
 20
28.98462184605246
 30
0.0
 10
148.6613823413069
 20
28.98462184605246
 30
0.0
 10
148.6613823413069
 20
29.83418239271507
 30
0.0
 10
148.6613823413069
 20
29.83418239271507
 30
0.0
 10
148.6613823413069
 20
29.83418239271507
 30
0.0
 10
147.367404477047
 20
29.83418239271507
 30
0.0
 10
147.367404477047
 20
29.83418239271507
 30
0.0
 10
147.367404477047
 20
29.83418239271507
 30
0.0
 10
147.367404477047
 20
30.39780001410194
 30
0.0
 10
147.367404477047
 20
30.39780001410194
 30
0.0
 10
147.367404477047
 20
30.39780001410194
 30
0.0
 10
148.5724988777874
 20
30.39780001410194
 30
0.0
 10
148.5724988777874
 20
30.39780001410194
 30
0.0
 10
148.5724988777874
 20
30.39780001410194
 30
0.0
 10
148.5724988777874
 20
31.24047036979405
 30
0.0
 10
148.5724988777874
 20
31.24047036979405
 30
0.0
 10
148.5724988777874
 20
31.24047036979405
 30
0.0
 10
147.367404477047
 20
31.24047036979405
 30
0.0
 10
147.367404477047
 20
31.24047036979405
 30
0.0
 10
147.367404477047
 20
31.24047036979405
 30
0.0
 10
147.367404477047
 20
31.98771158054474
 30
0.0
 10
147.367404477047
 20
31.98771158054474
 30
0.0
 10
147.367404477047
 20
31.98771158054474
 30
0.0
 10
146.5185329494815
 20
31.98771158054474
 30
0.0
 10
146.5185329494815
 20
31.98771158054474
 30
0.0
 10
146.5185329494815
 20
31.98771158054474
 30
0.0
 10
146.5185329494815
 20
31.24047036979405
 30
0.0
 10
146.5185329494815
 20
31.24047036979405
 30
0.0
 10
146.5185329494815
 20
31.24047036979405
 30
0.0
 10
146.2098523940031
 20
31.24047036979405
 30
0.0
 10
146.2098523940031
 20
31.24047036979405
 30
0.0
  0
SPLINE
  5
DA
330
D4
100
AcDbEntity
  8
\U+30EC\U+30A4\U+30E4\U+30FC 1
370
     0
100
AcDbSpline
210
0.0
220
0.0
230
1.0
 70
    11
 71
     3
 72
    17
 73
    13
 74
     0
 42
0.0000000001
 43
0.0000000001
 40
0.0
 40
0.0
 40
0.0
 40
0.0
 40
1.0
 40
1.0
 40
1.0
 40
2.0
 40
2.0
 40
2.0
 40
3.0
 40
3.0
 40
3.0
 40
4.0
 40
4.0
 40
4.0
 40
4.0
 10
145.6579480972661
 20
29.83418239271507
 30
0.0
 10
145.7475205798826
 20
29.96440700205751
 30
0.0
 10
145.8543185399253
 20
30.1545762728433
 30
0.0
 10
145.9556043471917
 20
30.39780001410194
 30
0.0
 10
145.9556043471917
 20
30.39780001410194
 30
0.0
 10
146.5185329494815
 20
30.39780001410194
 30
0.0
 10
146.5185329494815
 20
30.39780001410194
 30
0.0
 10
146.5185329494815
 20
30.39780001410194
 30
0.0
 10
146.5185329494815
 20
29.83418239271507
 30
0.0
 10
146.5185329494815
 20
29.83418239271507
 30
0.0
 10
146.5185329494815
 20
29.83418239271507
 30
0.0
 10
145.6579480972661
 20
29.83418239271507
 30
0.0
 10
145.6579480972661
 20
29.83418239271507
 30
0.0
  0
HATCH
  5
DB
330
D4
100
AcDbEntity
  8
\U+30EC\U+30A4\U+30E4\U+30FC 1
 62
    29
100
AcDbHatch
 10
0.0
 20
0.0
 30
0.0
210
0.0
220
0.0
230
1.0
  2
SOLID
 70
     1
 71
     0
 91
        3
 92
        1
 93
        1
 72
     4
 94
        3
 73
     0
 74
     1
 95
       17
 96
       13
 40
0.0
 40
0.0
 40
0.0
 40
0.0
 40
1.0
 40
1.0
 40
1.0
 40
2.0
 40
2.0
 40
2.0
 40
3.0
 40
3.0
 40
3.0
 40
4.0
 40
4.0
 40
4.0
 40
4.0
 10
145.6579480972661
 20
29.83418239271507
 10
145.7475205798826
 20
29.96440700205751
 10
145.8543185399253
 20
30.1545762728433
 10
145.9556043471917
 20
30.39780001410194
 10
145.9556043471917
 20
30.39780001410194
 10
146.5185329494815
 20
30.39780001410194
 10
146.5185329494815
 20
30.39780001410194
 10
146.5185329494815
 20
30.39780001410194
 10
146.5185329494815
 20
29.83418239271507
 10
146.5185329494815
 20
29.83418239271507
 10
146.5185329494815
 20
29.83418239271507
 10
145.6579480972661
 20
29.83418239271507
 10
145.6579480972661
 20
29.83418239271507
 97
        0
 92
        1
 93
        2
 72
     4
 94
        3
 73
     0
 74
     0
 95
       23
 96
       19
 40
0.0
 40
0.0
 40
0.0
 40
0.0
 40
0.3527777776895833
 40
0.3527777776895833
 40
0.3527777776895833
 40
0.7055555553791667
 40
0.7055555553791667
 40
0.7055555553791667
 40
1.05833333306875
 40
1.05833333306875
 40
1.05833333306875
 40
1.411111110758333
 40
1.411111110758333
 40
1.411111110758333
 40
1.763888888447917
 40
1.763888888447917
 40
1.763888888447917
 40
2.1166666661375
 40
2.1166666661375
 40
2.1166666661375
 40
2.1166666661375
 10
145.1480739654491
 20
29.83418239271507
 10
145.1480739654491
 20
29.83418239271507
 10
145.1480739654491
 20
29.00873751444921
 10
145.1480739654491
 20
29.00873751444921
 10
145.0474771772798
 20
29.13896212379165
 10
144.7381076027044
 20
29.54892848653638
 10
144.5837673249652
 20
29.92857800901091
 10
144.5837673249652
 20
29.92857800901091
 10
144.5837673249652
 20
30.18971624679285
 10
144.5837673249652
 20
30.18971624679285
 10
144.5837673249652
 20
30.18971624679285
 10
145.1294704498287
 20
30.18971624679285
 10
145.1294704498287
 20
30.18971624679285
 10
145.1294704498287
 20
30.18971624679285
 10
145.5869791302699
 20
29.83418239271507
 10
145.5869791302699
 20
29.83418239271507
 10
145.5869791302699
 20
29.83418239271507
 10
145.1480739654491
 20
29.83418239271507
 10
145.1480739654491
 20
29.83418239271507
 72
     1
 10
145.1480739654491
 20
29.83418239271507
 11
145.1480739654491
 21
29.83418239271507
 97
        0
 92
        1
 93
        2
 72
     4
 94
        3
 73
     0
 74
     0
 95
      128
 96
      124
 40
0.0
 40
0.0
 40
0.0
 40
0.0
 40
0.3527777776895833
 40
0.3527777776895833
 40
0.3527777776895833
 40
0.7055555553791667
 40
0.7055555553791667
 40
0.7055555553791667
 40
1.05833333306875
 40
1.05833333306875
 40
1.05833333306875
 40
1.411111110758333
 40
1.411111110758333
 40
1.411111110758333
 40
1.763888888447917
 40
1.763888888447917
 40
1.763888888447917
 40
2.1166666661375
 40
2.1166666661375
 40
2.1166666661375
 40
2.469444443827083
 40
2.469444443827083
 40
2.469444443827083
 40
2.822222221516667
 40
2.822222221516667
 40
2.822222221516667
 40
3.17499999920625
 40
3.17499999920625
 40
3.17499999920625
 40
3.527777776895833
 40
3.527777776895833
 40
3.527777776895833
 40
3.880555554585417
 40
3.880555554585417
 40
3.880555554585417
 40
4.233333332275
 40
4.233333332275
 40
4.233333332275
 40
4.586111109964584
 40
4.586111109964584
 40
4.586111109964584
 40
4.938888887654167
 40
4.938888887654167
 40
4.938888887654167
 40
5.29166666534375
 40
5.29166666534375
 40
5.29166666534375
 40
5.644444443033334
 40
5.644444443033334
 40
5.644444443033334
 40
5.997222220722917
 40
5.997222220722917
 40
5.997222220722917
 40
6.349999998412501
 40
6.349999998412501
 40
6.349999998412501
 40
6.702777776102083
 40
6.702777776102083
 40
6.702777776102083
 40
7.055555553791667
 40
7.055555553791667
 40
7.055555553791667
 40
7.40833333148125
 40
7.40833333148125
 40
7.40833333148125
 40
7.761111109170834
 40
7.761111109170834
 40
7.761111109170834
 40
8.113888886860417
 40
8.113888886860417
 40
8.113888886860417
 40
8.46666666455
 40
8.46666666455
 40
8.46666666455
 40
8.819444442239584
 40
8.819444442239584
 40
8.819444442239584
 40
9.172222219929168
 40
9.172222219929168
 40
9.172222219929168
 40
9.52499999761875
 40
9.52499999761875
 40
9.52499999761875
 40
9.877777775308333
 40
9.877777775308333
 40
9.877777775308333
 40
10.23055555299792
 40
10.23055555299792
 40
10.23055555299792
 40
10.5833333306875
 40
10.5833333306875
 40
10.5833333306875
 40
10.93611110837708
 40
10.93611110837708
 40
10.93611110837708
 40
11.28888888606667
 40
11.28888888606667
 40
11.28888888606667
 40
11.64166666375625
 40
11.64166666375625
 40
11.64166666375625
 40
11.99444444144583
 40
11.99444444144583
 40
11.99444444144583
 40
12.34722221913542
 40
12.34722221913542
 40
12.34722221913542
 40
12.699999996825
 40
12.699999996825
 40
12.699999996825
 40
13.05277777451458
 40
13.05277777451458
 40
13.05277777451458
 40
13.40555555220417
 40
13.40555555220417
 40
13.40555555220417
 40
13.75833332989375
 40
13.75833332989375
 40
13.75833332989375
 40
14.11111110758333
 40
14.11111110758333
 40
14.11111110758333
 40
14.46388888527292
 40
14.46388888527292
 40
14.46388888527292
 40
14.46388888527292
 10
146.2098523940031
 20
31.24047036979405
 10
146.2704860745435
 20
31.50780977944944
 10
146.2994248766196
 20
31.65525986621813
 10
146.3290526977927
 20
31.80477701027797
 10
146.3290526977927
 20
31.80477701027797
 10
145.5277234879236
 20
31.87574597727412
 10
145.5277234879236
 20
31.87574597727412
 10
145.4450411962776
 20
31.26389701909375
 10
145.2603840782682
 20
30.85461967544607
 10
145.1480739654491
 20
30.64033473626353
 10
145.1480739654491
 20
30.64033473626353
 10
145.1480739654491
 20
31.00895995318526
 10
145.1480739654491
 20
31.00895995318526
 10
145.1480739654491
 20
31.00895995318526
 10
144.5837673249652
 20
31.00895995318526
 10
144.5837673249652
 20
31.00895995318526
 10
144.5837673249652
 20
31.00895995318526
 10
144.5837673249652
 20
31.98771158054474
 10
144.5837673249652
 20
31.98771158054474
 10
144.5837673249652
 20
31.98771158054474
 10
143.7652126376698
 20
31.98771158054474
 10
143.7652126376698
 20
31.98771158054474
 10
143.7652126376698
 20
31.98771158054474
 10
143.7652126376698
 20
31.00895995318526
 10
143.7652126376698
 20
31.00895995318526
 10
143.7652126376698
 20
31.00895995318526
 10
143.0403645475733
 20
31.00895995318526
 10
143.0403645475733
 20
31.00895995318526
 10
143.0403645475733
 20
31.00895995318526
 10
143.0403645475733
 20
30.18971624679285
 10
143.0403645475733
 20
30.18971624679285
 10
143.0403645475733
 20
30.18971624679285
 10
143.6997558234501
 20
30.18971624679285
 10
143.6997558234501
 20
30.18971624679285
 10
143.4324164137947
 20
29.25816242758129
 10
143.1712781760127
 20
28.86679958045691
 10
142.9280544347541
 20
28.56363117775493
 10
142.9280544347541
 20
28.56363117775493
 10
143.2071071690593
 20
27.39505478915818
 10
143.2071071690593
 20
27.39505478915818
 10
143.3497341221487
 20
27.60176051827317
 10
143.5688421950106
 20
27.94006889492471
 10
143.7652126376698
 20
28.61668564822778
 10
143.7652126376698
 20
28.61668564822778
 10
143.7652126376698
 20
26.36703829635963
 10
143.7652126376698
 20
26.36703829635963
 10
143.7652126376698
 20
26.36703829635963
 10
144.5837673249652
 20
26.36703829635963
 10
144.5837673249652
 20
26.36703829635963
 10
144.5837673249652
 20
26.36703829635963
 10
144.5837673249652
 20
28.84268391206016
 10
144.5837673249652
 20
28.84268391206016
 10
144.6430229673115
 20
28.60014918989857
 10
144.6733398075817
 20
28.47440320468696
 10
144.9220757016167
 20
28.0117268810179
 10
144.9220757016167
 20
28.0117268810179
 10
145.4333278716278
 20
28.68834363432097
 10
145.4333278716278
 20
28.68834363432097
 10
145.3437553890113
 20
28.77102592596697
 10
145.2789875938886
 20
28.83717175928376
 10
145.159787290099
 20
28.98462184605246
 10
145.159787290099
 20
28.98462184605246
 10
146.2098523940031
 20
28.98462184605246
 10
146.2098523940031
 20
28.98462184605246
 10
145.7240939305829
 20
28.0999213254403
 10
145.118446144276
 20
27.69064398179262
 10
144.8745333839203
 20
27.53630370405342
 10
144.8745333839203
 20
27.53630370405342
 10
145.3968098594841
 20
26.69983452023477
 10
145.3968098594841
 20
26.69983452023477
 10
145.8715440173516
 20
27.13322753227919
 10
146.2463704061468
 20
27.63758951131977
 10
146.5185329494815
 20
28.22532280110339
 10
146.5185329494815
 20
28.22532280110339
 10
146.5185329494815
 20
26.36703829635963
 10
146.5185329494815
 20
26.36703829635963
 10
146.5185329494815
 20
26.36703829635963
 10
147.367404477047
 20
26.36703829635963
 10
147.367404477047
 20
26.36703829635963
 10
147.367404477047
 20
26.36703829635963
 10
147.367404477047
 20
28.08958603898455
 10
147.367404477047
 20
28.08958603898455
 10
147.6168293901791
 20
27.56110839154723
 10
147.9558267859277
 20
27.07328287083585
 10
148.4188476191453
 20
26.71051431623904
 10
148.4188476191453
 20
26.71051431623904
 10
148.7681803013496
 20
27.71475965018937
 10
148.7681803013496
 20
27.71475965018937
 10
148.5070420635677
 20
27.89252657722826
 10
148.0440212303501
 20
28.22532280110339
 10
147.6113172374027
 20
28.98462184605246
 10
147.6113172374027
 20
28.98462184605246
 10
148.6613823413069
 20
28.98462184605246
 10
148.6613823413069
 20
28.98462184605246
 10
148.6613823413069
 20
28.98462184605246
 10
148.6613823413069
 20
29.83418239271507
 10
148.6613823413069
 20
29.83418239271507
 10
148.6613823413069
 20
29.83418239271507
 10
147.367404477047
 20
29.83418239271507
 10
147.367404477047
 20
29.83418239271507
 10
147.367404477047
 20
29.83418239271507
 10
147.367404477047
 20
30.39780001410194
 10
147.367404477047
 20
30.39780001410194
 10
147.367404477047
 20
30.39780001410194
 10
148.5724988777874
 20
30.39780001410194
 10
148.5724988777874
 20
30.39780001410194
 10
148.5724988777874
 20
30.39780001410194
 10
148.5724988777874
 20
31.24047036979405
 10
148.5724988777874
 20
31.24047036979405
 10
148.5724988777874
 20
31.24047036979405
 10
147.367404477047
 20
31.24047036979405
 10
147.367404477047
 20
31.24047036979405
 10
147.367404477047
 20
31.24047036979405
 10
147.367404477047
 20
31.98771158054474
 10
147.367404477047
 20
31.98771158054474
 10
147.367404477047
 20
31.98771158054474
 10
146.5185329494815
 20
31.98771158054474
 10
146.5185329494815
 20
31.98771158054474
 10
146.5185329494815
 20
31.98771158054474
 10
146.5185329494815
 20
31.24047036979405
 10
146.5185329494815
 20
31.24047036979405
 10
146.5185329494815
 20
31.24047036979405
 10
146.2098523940031
 20
31.24047036979405
 10
146.2098523940031
 20
31.24047036979405
 72
     1
 10
146.2098523940031
 20
31.24047036979405
 11
146.2098523940031
 21
31.24047036979405
 97
        0
 75
     2
 76
     1
 98
        0
  0
SPLINE
  5
DC
330
D4
100
AcDbEntity
  8
\U+30EC\U+30A4\U+30E4\U+30FC 1
370
     0
100
AcDbSpline
210
0.0
220
0.0
230
1.0
 70
    11
 71
     3
 72
    71
 73
    67
 74
     0
 42
0.0000000001
 43
0.0000000001
 40
0.0
 40
0.0
 40
0.0
 40
0.0
 40
1.0
 40
1.0
 40
1.0
 40
2.0
 40
2.0
 40
2.0
 40
3.0
 40
3.0
 40
3.0
 40
4.0
 40
4.0
 40
4.0
 40
5.0
 40
5.0
 40
5.0
 40
6.0
 40
6.0
 40
6.0
 40
7.0
 40
7.0
 40
7.0
 40
8.0
 40
8.0
 40
8.0
 40
9.0
 40
9.0
 40
9.0
 40
10.0
 40
10.0
 40
10.0
 40
11.0
 40
11.0
 40
11.0
 40
12.0
 40
12.0
 40
12.0
 40
13.0
 40
13.0
 40
13.0
 40
14.0
 40
14.0
 40
14.0
 40
15.0
 40
15.0
 40
15.0
 40
16.0
 40
16.0
 40
16.0
 40
17.0
 40
17.0
 40
17.0
 40
18.0
 40
18.0
 40
18.0
 40
19.0
 40
19.0
 40
19.0
 40
20.0
 40
20.0
 40
20.0
 40
21.0
 40
21.0
 40
21.0
 40
22.0
 40
22.0
 40
22.0
 40
22.0
 10
154.0336642410055
 20
31.17570257467136
 30
0.0
 10
154.0336642410055
 20
31.17570257467136
 30
0.0
 10
154.5910806905189
 20
31.17570257467136
 30
0.0
 10
154.5910806905189
 20
31.17570257467136
 30
0.0
 10
154.5910806905189
 20
31.17570257467136
 30
0.0
 10
154.5910806905189
 20
30.3144287033589
 30
0.0
 10
154.5910806905189
 20
30.3144287033589
 30
0.0
 10
154.5910806905189
 20
30.3144287033589
 30
0.0
 10
152.9408799530842
 20
30.3144287033589
 30
0.0
 10
152.9408799530842
 20
30.3144287033589
 30
0.0
 10
152.9773979652279
 20
29.56615396396263
 30
0.0
 10
153.0600802568739
 20
28.81856824366341
 30
0.0
 10
153.2971028262591
 20
28.1068115164108
 30
0.0
 10
153.3570474877024
 20
27.92904458937191
 30
0.0
 10
153.5162108991209
 20
27.50736490197733
 30
0.0
 10
153.6891546924805
 20
27.50736490197733
 30
0.0
 10
153.8552082948695
 20
27.50736490197733
 30
0.0
 10
154.1749131559007
 20
27.91664224562501
 30
0.0
 10
154.3127169753107
 20
28.31420626462284
 30
0.0
 10
154.3127169753107
 20
28.31420626462284
 30
0.0
 10
154.6923664977853
 20
27.36473794888798
 30
0.0
 10
154.6923664977853
 20
27.36473794888798
 30
0.0
 10
154.5676540412192
 20
27.020228400363
 30
0.0
 10
154.2644856385172
 20
26.35601399080683
 30
0.0
 10
153.7132703608772
 20
26.35601399080683
 30
0.0
 10
153.434217626572
 20
26.35601399080683
 30
0.0
 10
153.1489637203933
 20
26.50966524944898
 30
0.0
 10
152.9884222707807
 20
26.68881021468196
 30
0.0
 10
152.1278374185653
 20
27.63758951131977
 30
0.0
 10
152.068581776219
 20
29.35944823484764
 30
0.0
 10
152.0334418022694
 20
30.3144287033589
 30
0.0
 10
152.0334418022694
 20
30.3144287033589
 30
0.0
 10
148.994178565182
 20
30.3144287033589
 30
0.0
 10
148.994178565182
 20
30.3144287033589
 30
0.0
 10
148.994178565182
 20
30.3144287033589
 30
0.0
 10
148.994178565182
 20
31.17570257467136
 30
0.0
 10
148.994178565182
 20
31.17570257467136
 30
0.0
 10
148.994178565182
 20
31.17570257467136
 30
0.0
 10
152.0038139810963
 20
31.17570257467136
 30
0.0
 10
152.0038139810963
 20
31.17570257467136
 30
0.0
 10
151.9976128092228
 20
31.26389701909375
 30
0.0
 10
151.985899484573
 20
31.69797905023523
 30
0.0
 10
151.9796983126995
 20
31.79237466653107
 30
0.0
 10
151.9796983126995
 20
31.84611815610097
 30
0.0
 10
151.9796983126995
 20
31.89297145470037
 30
0.0
 10
151.9734971408261
 20
31.99976941474311
 30
0.0
 10
151.9734971408261
 20
31.99976941474311
 30
0.0
 10
152.923654475658
 20
31.99976941474311
 30
0.0
 10
152.923654475658
 20
31.99976941474311
 30
0.0
 10
152.9174533037845
 20
31.53192544784619
 30
0.0
 10
152.9174533037845
 20
31.39481064753324
 30
0.0
 10
152.923654475658
 20
31.17570257467136
 30
0.0
 10
152.923654475658
 20
31.17570257467136
 30
0.0
 10
153.5051865935682
 20
31.17570257467136
 30
0.0
 10
153.5051865935682
 20
31.17570257467136
 30
0.0
 10
153.350846315829
 20
31.40101181940669
 30
0.0
 10
153.2199326873895
 20
31.59118109019249
 30
0.0
 10
153.0717935815237
 20
31.72691785231133
 30
0.0
 10
153.0717935815237
 20
31.72691785231133
 30
0.0
 10
153.8379828174433
 20
32.03628742688677
 30
0.0
 10
153.8379828174433
 20
32.03628742688677
 30
0.0
 10
153.9261772618657
 20
31.97014159356997
 30
0.0
 10
154.0033474007353
 20
31.91639810400007
 30
0.0
 10
154.4140027825771
 20
31.3417561770604
 30
0.0
 10
154.4140027825771
 20
31.3417561770604
 30
0.0
 10
154.0336642410055
 20
31.17570257467136
 30
0.0
 10
154.0336642410055
 20
31.17570257467136
 30
0.0
  0
SPLINE
  5
DD
330
D4
100
AcDbEntity
  8
\U+30EC\U+30A4\U+30E4\U+30FC 1
370
     0
100
AcDbSpline
210
0.0
220
0.0
230
1.0
 70
    11
 71
     3
 72
    44
 73
    40
 74
     0
 42
0.0000000001
 43
0.0000000001
 40
0.0
 40
0.0
 40
0.0
 40
0.0
 40
1.0
 40
1.0
 40
1.0
 40
2.0
 40
2.0
 40
2.0
 40
3.0
 40
3.0
 40
3.0
 40
4.0
 40
4.0
 40
4.0
 40
5.0
 40
5.0
 40
5.0
 40
6.0
 40
6.0
 40
6.0
 40
7.0
 40
7.0
 40
7.0
 40
8.0
 40
8.0
 40
8.0
 40
9.0
 40
9.0
 40
9.0
 40
10.0
 40
10.0
 40
10.0
 40
11.0
 40
11.0
 40
11.0
 40
12.0
 40
12.0
 40
12.0
 40
13.0
 40
13.0
 40
13.0
 40
13.0
 10
148.9411240947092
 20
27.42950574401068
 30
0.0
 10
149.0534342075283
 20
27.43570691588413
 30
0.0
 10
149.1126898498746
 20
27.43570691588413
 30
0.0
 10
149.1898599887442
 20
27.44190808775758
 30
0.0
 10
149.3145724453103
 20
27.44810925963103
 30
0.0
 10
149.9140190597437
 20
27.50116373010388
 30
0.0
 10
150.0511338600567
 20
27.50736490197733
 30
0.0
 10
150.0511338600567
 20
27.50736490197733
 30
0.0
 10
150.0511338600567
 20
28.93707952835601
 30
0.0
 10
150.0511338600567
 20
28.93707952835601
 30
0.0
 10
150.0511338600567
 20
28.93707952835601
 30
0.0
 10
149.1064886780012
 20
28.93707952835601
 30
0.0
 10
149.1064886780012
 20
28.93707952835601
 30
0.0
 10
149.1064886780012
 20
28.93707952835601
 30
0.0
 10
149.1064886780012
 20
29.79766438057142
 30
0.0
 10
149.1064886780012
 20
29.79766438057142
 30
0.0
 10
149.1064886780012
 20
29.79766438057142
 30
0.0
 10
151.8846136773066
 20
29.79766438057142
 30
0.0
 10
151.8846136773066
 20
29.79766438057142
 30
0.0
 10
151.8846136773066
 20
29.79766438057142
 30
0.0
 10
151.8846136773066
 20
28.93707952835601
 30
0.0
 10
151.8846136773066
 20
28.93707952835601
 30
0.0
 10
151.8846136773066
 20
28.93707952835601
 30
0.0
 10
150.9585720108715
 20
28.93707952835601
 30
0.0
 10
150.9585720108715
 20
28.93707952835601
 30
0.0
 10
150.9585720108715
 20
28.93707952835601
 30
0.0
 10
150.9585720108715
 20
27.58453504084692
 30
0.0
 10
150.9585720108715
 20
27.58453504084692
 30
0.0
 10
151.6289875923011
 20
27.64930283596962
 30
0.0
 10
151.8729003526568
 20
27.69684515366607
 30
0.0
 10
152.0926974446157
 20
27.73818629948907
 30
0.0
 10
152.0926974446157
 20
27.73818629948907
 30
0.0
 10
152.1037217501685
 20
26.89551594379695
 30
0.0
 10
152.1037217501685
 20
26.89551594379695
 30
0.0
 10
151.4277940159625
 20
26.75288899070761
 30
0.0
 10
151.0536566462644
 20
26.71085882578756
 30
0.0
 10
149.0417208828785
 20
26.49795192479912
 30
0.0
 10
149.0417208828785
 20
26.49795192479912
 30
0.0
 10
148.9411240947092
 20
27.42950574401068
 30
0.0
 10
148.9411240947092
 20
27.42950574401068
 30
0.0
  0
HATCH
  5
DE
330
D4
100
AcDbEntity
  8
\U+30EC\U+30A4\U+30E4\U+30FC 1
 62
    29
100
AcDbHatch
 10
0.0
 20
0.0
 30
0.0
210
0.0
220
0.0
230
1.0
  2
SOLID
 70
     1
 71
     0
 91
        2
 92
        1
 93
        1
 72
     4
 94
        3
 73
     0
 74
     1
 95
       44
 96
       40
 40
0.0
 40
0.0
 40
0.0
 40
0.0
 40
1.0
 40
1.0
 40
1.0
 40
2.0
 40
2.0
 40
2.0
 40
3.0
 40
3.0
 40
3.0
 40
4.0
 40
4.0
 40
4.0
 40
5.0
 40
5.0
 40
5.0
 40
6.0
 40
6.0
 40
6.0
 40
7.0
 40
7.0
 40
7.0
 40
8.0
 40
8.0
 40
8.0
 40
9.0
 40
9.0
 40
9.0
 40
10.0
 40
10.0
 40
10.0
 40
11.0
 40
11.0
 40
11.0
 40
12.0
 40
12.0
 40
12.0
 40
13.0
 40
13.0
 40
13.0
 40
13.0
 10
148.9411240947092
 20
27.42950574401068
 10
149.0534342075283
 20
27.43570691588413
 10
149.1126898498746
 20
27.43570691588413
 10
149.1898599887442
 20
27.44190808775758
 10
149.3145724453103
 20
27.44810925963103
 10
149.9140190597437
 20
27.50116373010388
 10
150.0511338600567
 20
27.50736490197733
 10
150.0511338600567
 20
27.50736490197733
 10
150.0511338600567
 20
28.93707952835601
 10
150.0511338600567
 20
28.93707952835601
 10
150.0511338600567
 20
28.93707952835601
 10
149.1064886780012
 20
28.93707952835601
 10
149.1064886780012
 20
28.93707952835601
 10
149.1064886780012
 20
28.93707952835601
 10
149.1064886780012
 20
29.79766438057142
 10
149.1064886780012
 20
29.79766438057142
 10
149.1064886780012
 20
29.79766438057142
 10
151.8846136773066
 20
29.79766438057142
 10
151.8846136773066
 20
29.79766438057142
 10
151.8846136773066
 20
29.79766438057142
 10
151.8846136773066
 20
28.93707952835601
 10
151.8846136773066
 20
28.93707952835601
 10
151.8846136773066
 20
28.93707952835601
 10
150.9585720108715
 20
28.93707952835601
 10
150.9585720108715
 20
28.93707952835601
 10
150.9585720108715
 20
28.93707952835601
 10
150.9585720108715
 20
27.58453504084692
 10
150.9585720108715
 20
27.58453504084692
 10
151.6289875923011
 20
27.64930283596962
 10
151.8729003526568
 20
27.69684515366607
 10
152.0926974446157
 20
27.73818629948907
 10
152.0926974446157
 20
27.73818629948907
 10
152.1037217501685
 20
26.89551594379695
 10
152.1037217501685
 20
26.89551594379695
 10
151.4277940159625
 20
26.75288899070761
 10
151.0536566462644
 20
26.71085882578756
 10
149.0417208828785
 20
26.49795192479912
 10
149.0417208828785
 20
26.49795192479912
 10
148.9411240947092
 20
27.42950574401068
 10
148.9411240947092
 20
27.42950574401068
 97
        0
 92
        1
 93
        2
 72
     4
 94
        3
 73
     0
 74
     0
 95
       71
 96
       67
 40
0.0
 40
0.0
 40
0.0
 40
0.0
 40
0.3527777776895833
 40
0.3527777776895833
 40
0.3527777776895833
 40
0.7055555553791667
 40
0.7055555553791667
 40
0.7055555553791667
 40
1.05833333306875
 40
1.05833333306875
 40
1.05833333306875
 40
1.411111110758333
 40
1.411111110758333
 40
1.411111110758333
 40
1.763888888447917
 40
1.763888888447917
 40
1.763888888447917
 40
2.1166666661375
 40
2.1166666661375
 40
2.1166666661375
 40
2.469444443827083
 40
2.469444443827083
 40
2.469444443827083
 40
2.822222221516667
 40
2.822222221516667
 40
2.822222221516667
 40
3.17499999920625
 40
3.17499999920625
 40
3.17499999920625
 40
3.527777776895833
 40
3.527777776895833
 40
3.527777776895833
 40
3.880555554585417
 40
3.880555554585417
 40
3.880555554585417
 40
4.233333332275
 40
4.233333332275
 40
4.233333332275
 40
4.586111109964584
 40
4.586111109964584
 40
4.586111109964584
 40
4.938888887654167
 40
4.938888887654167
 40
4.938888887654167
 40
5.29166666534375
 40
5.29166666534375
 40
5.29166666534375
 40
5.644444443033334
 40
5.644444443033334
 40
5.644444443033334
 40
5.997222220722917
 40
5.997222220722917
 40
5.997222220722917
 40
6.349999998412501
 40
6.349999998412501
 40
6.349999998412501
 40
6.702777776102083
 40
6.702777776102083
 40
6.702777776102083
 40
7.055555553791667
 40
7.055555553791667
 40
7.055555553791667
 40
7.40833333148125
 40
7.40833333148125
 40
7.40833333148125
 40
7.761111109170834
 40
7.761111109170834
 40
7.761111109170834
 40
7.761111109170834
 10
154.0336642410055
 20
31.17570257467136
 10
154.0336642410055
 20
31.17570257467136
 10
154.5910806905189
 20
31.17570257467136
 10
154.5910806905189
 20
31.17570257467136
 10
154.5910806905189
 20
31.17570257467136
 10
154.5910806905189
 20
30.3144287033589
 10
154.5910806905189
 20
30.3144287033589
 10
154.5910806905189
 20
30.3144287033589
 10
152.9408799530842
 20
30.3144287033589
 10
152.9408799530842
 20
30.3144287033589
 10
152.9773979652279
 20
29.56615396396263
 10
153.0600802568739
 20
28.81856824366341
 10
153.2971028262591
 20
28.1068115164108
 10
153.3570474877024
 20
27.92904458937191
 10
153.5162108991209
 20
27.50736490197733
 10
153.6891546924805
 20
27.50736490197733
 10
153.8552082948695
 20
27.50736490197733
 10
154.1749131559007
 20
27.91664224562501
 10
154.3127169753107
 20
28.31420626462284
 10
154.3127169753107
 20
28.31420626462284
 10
154.6923664977853
 20
27.36473794888798
 10
154.6923664977853
 20
27.36473794888798
 10
154.5676540412192
 20
27.020228400363
 10
154.2644856385172
 20
26.35601399080683
 10
153.7132703608772
 20
26.35601399080683
 10
153.434217626572
 20
26.35601399080683
 10
153.1489637203933
 20
26.50966524944898
 10
152.9884222707807
 20
26.68881021468196
 10
152.1278374185653
 20
27.63758951131977
 10
152.068581776219
 20
29.35944823484764
 10
152.0334418022694
 20
30.3144287033589
 10
152.0334418022694
 20
30.3144287033589
 10
148.994178565182
 20
30.3144287033589
 10
148.994178565182
 20
30.3144287033589
 10
148.994178565182
 20
30.3144287033589
 10
148.994178565182
 20
31.17570257467136
 10
148.994178565182
 20
31.17570257467136
 10
148.994178565182
 20
31.17570257467136
 10
152.0038139810963
 20
31.17570257467136
 10
152.0038139810963
 20
31.17570257467136
 10
151.9976128092228
 20
31.26389701909375
 10
151.985899484573
 20
31.69797905023523
 10
151.9796983126995
 20
31.79237466653107
 10
151.9796983126995
 20
31.84611815610097
 10
151.9796983126995
 20
31.89297145470037
 10
151.9734971408261
 20
31.99976941474311
 10
151.9734971408261
 20
31.99976941474311
 10
152.923654475658
 20
31.99976941474311
 10
152.923654475658
 20
31.99976941474311
 10
152.9174533037845
 20
31.53192544784619
 10
152.9174533037845
 20
31.39481064753324
 10
152.923654475658
 20
31.17570257467136
 10
152.923654475658
 20
31.17570257467136
 10
153.5051865935682
 20
31.17570257467136
 10
153.5051865935682
 20
31.17570257467136
 10
153.350846315829
 20
31.40101181940669
 10
153.2199326873895
 20
31.59118109019249
 10
153.0717935815237
 20
31.72691785231133
 10
153.0717935815237
 20
31.72691785231133
 10
153.8379828174433
 20
32.03628742688677
 10
153.8379828174433
 20
32.03628742688677
 10
153.9261772618657
 20
31.97014159356997
 10
154.0033474007353
 20
31.91639810400007
 10
154.4140027825771
 20
31.3417561770604
 10
154.4140027825771
 20
31.3417561770604
 10
154.0336642410055
 20
31.17570257467136
 10
154.0336642410055
 20
31.17570257467136
 72
     1
 10
154.0336642410055
 20
31.17570257467136
 11
154.0336642410055
 21
31.17570257467136
 97
        0
 75
     2
 76
     1
 98
        0
  0
SPLINE
  5
DF
330
D4
100
AcDbEntity
  8
\U+30EC\U+30A4\U+30E4\U+30FC 1
370
     0
100
AcDbSpline
210
0.0
220
0.0
230
1.0
 70
    11
 71
     3
 72
    23
 73
    19
 74
     0
 42
0.0000000001
 43
0.0000000001
 40
0.0
 40
0.0
 40
0.0
 40
0.0
 40
1.0
 40
1.0
 40
1.0
 40
2.0
 40
2.0
 40
2.0
 40
3.0
 40
3.0
 40
3.0
 40
4.0
 40
4.0
 40
4.0
 40
5.0
 40
5.0
 40
5.0
 40
6.0
 40
6.0
 40
6.0
 40
6.0
 10
158.3303873302091
 20
28.0833848671111
 30
0.0
 10
158.4730142832984
 20
27.91044107375156
 30
0.0
 10
158.5805012624382
 20
27.78021646440911
 30
0.0
 10
158.8175238318234
 20
27.46533473705728
 30
0.0
 10
158.6266655419406
 20
27.45982258428088
 30
0.0
 10
157.6902885890497
 20
27.41779241936083
 30
0.0
 10
157.4815158026435
 20
27.40607909471098
 30
0.0
 10
157.3754068616978
 20
27.40091145148311
 30
0.0
 10
157.3278645440014
 20
27.40091145148311
 30
0.0
 10
156.8999836847333
 20
27.40091145148311
 30
0.0
 10
157.0777506117722
 20
27.75610079601237
 30
0.0
 10
157.1969509155619
 20
28.0241292247648
 30
0.0
 10
157.3630045179509
 20
28.41514756234066
 30
0.0
 10
157.3630045179509
 20
28.41514756234066
 30
0.0
 10
159.0311197519089
 20
28.41514756234066
 30
0.0
 10
159.0311197519089
 20
28.41514756234066
 30
0.0
 10
159.0311197519089
 20
28.41514756234066
 30
0.0
 10
158.3303873302091
 20
28.0833848671111
 30
0.0
 10
158.3303873302091
 20
28.0833848671111
 30
0.0
  0
SPLINE
  5
E0
330
D4
100
AcDbEntity
  8
\U+30EC\U+30A4\U+30E4\U+30FC 1
370
     0
100
AcDbSpline
210
0.0
220
0.0
230
1.0
 70
    11
 71
     3
 72
    44
 73
    40
 74
     0
 42
0.0000000001
 43
0.0000000001
 40
0.0
 40
0.0
 40
0.0
 40
0.0
 40
1.0
 40
1.0
 40
1.0
 40
2.0
 40
2.0
 40
2.0
 40
3.0
 40
3.0
 40
3.0
 40
4.0
 40
4.0
 40
4.0
 40
5.0
 40
5.0
 40
5.0
 40
6.0
 40
6.0
 40
6.0
 40
7.0
 40
7.0
 40
7.0
 40
8.0
 40
8.0
 40
8.0
 40
9.0
 40
9.0
 40
9.0
 40
10.0
 40
10.0
 40
10.0
 40
11.0
 40
11.0
 40
11.0
 40
12.0
 40
12.0
 40
12.0
 40
13.0
 40
13.0
 40
13.0
 40
13.0
 10
160.4201822515616
 20
26.76460231535746
 30
0.0
 10
160.0639593783868
 20
27.32890895584138
 30
0.0
 10
159.6898220086887
 20
27.85738660327871
 30
0.0
 10
159.1730576859012
 20
28.41514756234066
 30
0.0
 10
159.1730576859012
 20
28.41514756234066
 30
0.0
 10
160.4015787359413
 20
28.41514756234066
 30
0.0
 10
160.4015787359413
 20
28.41514756234066
 30
0.0
 10
160.4015787359413
 20
28.41514756234066
 30
0.0
 10
160.4015787359413
 20
29.26987575223114
 30
0.0
 10
160.4015787359413
 20
29.26987575223114
 30
0.0
 10
160.4015787359413
 20
29.26987575223114
 30
0.0
 10
155.0485893709601
 20
29.26987575223114
 30
0.0
 10
155.0485893709601
 20
29.26987575223114
 30
0.0
 10
155.0485893709601
 20
29.26987575223114
 30
0.0
 10
155.0485893709601
 20
28.41514756234066
 30
0.0
 10
155.0485893709601
 20
28.41514756234066
 30
0.0
 10
155.0485893709601
 20
28.41514756234066
 30
0.0
 10
156.371506037296
 20
28.41514756234066
 30
0.0
 10
156.371506037296
 20
28.41514756234066
 30
0.0
 10
156.247482599827
 20
28.0296413775412
 30
0.0
 10
156.1103677995141
 20
27.70959200696149
 30
0.0
 10
155.9629177127454
 20
27.39505478915818
 30
0.0
 10
155.8561197527027
 20
27.39505478915818
 30
0.0
 10
155.392409900388
 20
27.38816459818768
 30
0.0
 10
155.2973252649951
 20
27.38816459818768
 30
0.0
 10
155.2504719663957
 20
27.38816459818768
 30
0.0
 10
155.2084418014757
 20
27.38816459818768
 30
0.0
 10
155.089241497686
 20
27.39505478915818
 30
0.0
 10
155.089241497686
 20
27.39505478915818
 30
0.0
 10
155.2325574698724
 20
26.47486978504795
 30
0.0
 10
155.2325574698724
 20
26.47486978504795
 30
0.0
 10
156.5795898046051
 20
26.51586642132242
 30
0.0
 10
156.7876735719142
 20
26.53378091784572
 30
0.0
 10
159.321885810864
 20
26.73566351328136
 30
0.0
 10
159.4341959236831
 20
26.55100639527197
 30
0.0
 10
159.487939413253
 20
26.46212293175252
 30
0.0
 10
159.5651095521226
 20
26.31398382588678
 30
0.0
 10
159.5651095521226
 20
26.31398382588678
 30
0.0
 10
160.4201822515616
 20
26.76460231535746
 30
0.0
 10
160.4201822515616
 20
26.76460231535746
 30
0.0
  0
SPLINE
  5
E1
330
D4
100
AcDbEntity
  8
\U+30EC\U+30A4\U+30E4\U+30FC 1
370
     0
100
AcDbSpline
210
0.0
220
0.0
230
1.0
 70
    11
 71
     3
 72
    35
 73
    31
 74
     0
 42
0.0000000001
 43
0.0000000001
 40
0.0
 40
0.0
 40
0.0
 40
0.0
 40
1.0
 40
1.0
 40
1.0
 40
2.0
 40
2.0
 40
2.0
 40
3.0
 40
3.0
 40
3.0
 40
4.0
 40
4.0
 40
4.0
 40
5.0
 40
5.0
 40
5.0
 40
6.0
 40
6.0
 40
6.0
 40
7.0
 40
7.0
 40
7.0
 40
8.0
 40
8.0
 40
8.0
 40
9.0
 40
9.0
 40
9.0
 40
10.0
 40
10.0
 40
10.0
 40
10.0
 10
156.1523979644341
 20
29.68604328684932
 30
0.0
 10
156.1523979644341
 20
29.68604328684932
 30
0.0
 10
159.3101724862141
 20
29.68604328684932
 30
0.0
 10
159.3101724862141
 20
29.68604328684932
 30
0.0
 10
159.3101724862141
 20
29.68604328684932
 30
0.0
 10
159.3101724862141
 20
30.04777831280056
 30
0.0
 10
159.3101724862141
 20
30.04777831280056
 30
0.0
 10
159.7318521736087
 20
29.79284124689207
 30
0.0
 10
159.9867892395172
 20
29.67984211497587
 30
0.0
 10
160.1941839877292
 20
29.58958061326233
 30
0.0
 10
160.1941839877292
 20
29.58958061326233
 30
0.0
 10
160.6578938400439
 20
30.48668347762139
 30
0.0
 10
160.6578938400439
 20
30.48668347762139
 30
0.0
 10
159.7559678420054
 20
30.82602538291849
 30
0.0
 10
158.9008951425664
 20
31.30523816491675
 30
0.0
 10
158.2718207069598
 20
32.03628742688677
 30
0.0
 10
158.2718207069598
 20
32.03628742688677
 30
0.0
 10
157.2148654120852
 20
32.03628742688677
 30
0.0
 10
157.2148654120852
 20
32.03628742688677
 30
0.0
 10
156.8352158896107
 20
31.50091958847894
 30
0.0
 10
156.1765136328309
 20
31.01516112505871
 30
0.0
 10
154.799164457828
 20
30.47428113387449
 30
0.0
 10
154.799164457828
 20
30.47428113387449
 30
0.0
 10
155.2504719663957
 20
29.57304415493313
 30
0.0
 10
155.2504719663957
 20
29.57304415493313
 30
0.0
 10
155.4282388934346
 20
29.64332410283222
 30
0.0
 10
155.6886881121195
 20
29.74460991009857
 30
0.0
 10
156.1523979644341
 20
30.02366264440381
 30
0.0
 10
156.1523979644341
 20
30.02366264440381
 30
0.0
 10
156.1523979644341
 20
29.68604328684932
 30
0.0
 10
156.1523979644341
 20
29.68604328684932
 30
0.0
  0
SPLINE
  5
E2
330
D4
100
AcDbEntity
  8
\U+30EC\U+30A4\U+30E4\U+30FC 1
370
     0
100
AcDbSpline
210
0.0
220
0.0
230
1.0
 70
    11
 71
     3
 72
    14
 73
    10
 74
     0
 42
0.0000000001
 43
0.0000000001
 40
0.0
 40
0.0
 40
0.0
 40
0.0
 40
1.0
 40
1.0
 40
1.0
 40
2.0
 40
2.0
 40
2.0
 40
3.0
 40
3.0
 40
3.0
 40
3.0
 10
156.8228135458637
 20
30.48048230574794
 30
0.0
 10
157.3864311672506
 20
30.90836316501597
 30
0.0
 10
157.5890027817833
 20
31.13367240975131
 30
0.0
 10
157.7378309067461
 20
31.3169514895666
 30
0.0
 10
157.9149088146879
 20
31.12195908510146
 30
0.0
 10
158.1464192312967
 20
30.87253417196937
 30
0.0
 10
158.6631835540842
 20
30.48048230574794
 30
0.0
 10
158.6631835540842
 20
30.48048230574794
 30
0.0
 10
156.8228135458637
 20
30.48048230574794
 30
0.0
 10
156.8228135458637
 20
30.48048230574794
 30
0.0
  0
HATCH
  5
E3
330
D4
100
AcDbEntity
  8
\U+30EC\U+30A4\U+30E4\U+30FC 1
 62
    29
100
AcDbHatch
 10
0.0
 20
0.0
 30
0.0
210
0.0
220
0.0
230
1.0
  2
SOLID
 70
     1
 71
     0
 91
        4
 92
        1
 93
        1
 72
     4
 94
        3
 73
     0
 74
     1
 95
       14
 96
       10
 40
0.0
 40
0.0
 40
0.0
 40
0.0
 40
1.0
 40
1.0
 40
1.0
 40
2.0
 40
2.0
 40
2.0
 40
3.0
 40
3.0
 40
3.0
 40
3.0
 10
156.8228135458637
 20
30.48048230574794
 10
157.3864311672506
 20
30.90836316501597
 10
157.5890027817833
 20
31.13367240975131
 10
157.7378309067461
 20
31.3169514895666
 10
157.9149088146879
 20
31.12195908510146
 10
158.1464192312967
 20
30.87253417196937
 10
158.6631835540842
 20
30.48048230574794
 10
158.6631835540842
 20
30.48048230574794
 10
156.8228135458637
 20
30.48048230574794
 10
156.8228135458637
 20
30.48048230574794
 97
        0
 92
        1
 93
        2
 72
     4
 94
        3
 73
     0
 74
     0
 95
       23
 96
       19
 40
0.0
 40
0.0
 40
0.0
 40
0.0
 40
0.3527777776895833
 40
0.3527777776895833
 40
0.3527777776895833
 40
0.7055555553791667
 40
0.7055555553791667
 40
0.7055555553791667
 40
1.05833333306875
 40
1.05833333306875
 40
1.05833333306875
 40
1.411111110758333
 40
1.411111110758333
 40
1.411111110758333
 40
1.763888888447917
 40
1.763888888447917
 40
1.763888888447917
 40
2.1166666661375
 40
2.1166666661375
 40
2.1166666661375
 40
2.1166666661375
 10
158.3303873302091
 20
28.0833848671111
 10
158.4730142832984
 20
27.91044107375156
 10
158.5805012624382
 20
27.78021646440911
 10
158.8175238318234
 20
27.46533473705728
 10
158.6266655419406
 20
27.45982258428088
 10
157.6902885890497
 20
27.41779241936083
 10
157.4815158026435
 20
27.40607909471098
 10
157.3754068616978
 20
27.40091145148311
 10
157.3278645440014
 20
27.40091145148311
 10
156.8999836847333
 20
27.40091145148311
 10
157.0777506117722
 20
27.75610079601237
 10
157.1969509155619
 20
28.0241292247648
 10
157.3630045179509
 20
28.41514756234066
 10
157.3630045179509
 20
28.41514756234066
 10
159.0311197519089
 20
28.41514756234066
 10
159.0311197519089
 20
28.41514756234066
 10
159.0311197519089
 20
28.41514756234066
 10
158.3303873302091
 20
28.0833848671111
 10
158.3303873302091
 20
28.0833848671111
 72
     1
 10
158.3303873302091
 20
28.0833848671111
 11
158.3303873302091
 21
28.0833848671111
 97
        0
 92
        1
 93
        2
 72
     4
 94
        3
 73
     0
 74
     0
 95
       44
 96
       40
 40
0.0
 40
0.0
 40
0.0
 40
0.0
 40
0.3527777776895833
 40
0.3527777776895833
 40
0.3527777776895833
 40
0.7055555553791667
 40
0.7055555553791667
 40
0.7055555553791667
 40
1.05833333306875
 40
1.05833333306875
 40
1.05833333306875
 40
1.411111110758333
 40
1.411111110758333
 40
1.411111110758333
 40
1.763888888447917
 40
1.763888888447917
 40
1.763888888447917
 40
2.1166666661375
 40
2.1166666661375
 40
2.1166666661375
 40
2.469444443827083
 40
2.469444443827083
 40
2.469444443827083
 40
2.822222221516667
 40
2.822222221516667
 40
2.822222221516667
 40
3.17499999920625
 40
3.17499999920625
 40
3.17499999920625
 40
3.527777776895833
 40
3.527777776895833
 40
3.527777776895833
 40
3.880555554585417
 40
3.880555554585417
 40
3.880555554585417
 40
4.233333332275
 40
4.233333332275
 40
4.233333332275
 40
4.586111109964584
 40
4.586111109964584
 40
4.586111109964584
 40
4.586111109964584
 10
160.4201822515616
 20
26.76460231535746
 10
160.0639593783868
 20
27.32890895584138
 10
159.6898220086887
 20
27.85738660327871
 10
159.1730576859012
 20
28.41514756234066
 10
159.1730576859012
 20
28.41514756234066
 10
160.4015787359413
 20
28.41514756234066
 10
160.4015787359413
 20
28.41514756234066
 10
160.4015787359413
 20
28.41514756234066
 10
160.4015787359413
 20
29.26987575223114
 10
160.4015787359413
 20
29.26987575223114
 10
160.4015787359413
 20
29.26987575223114
 10
155.0485893709601
 20
29.26987575223114
 10
155.0485893709601
 20
29.26987575223114
 10
155.0485893709601
 20
29.26987575223114
 10
155.0485893709601
 20
28.41514756234066
 10
155.0485893709601
 20
28.41514756234066
 10
155.0485893709601
 20
28.41514756234066
 10
156.371506037296
 20
28.41514756234066
 10
156.371506037296
 20
28.41514756234066
 10
156.247482599827
 20
28.0296413775412
 10
156.1103677995141
 20
27.70959200696149
 10
155.9629177127454
 20
27.39505478915818
 10
155.8561197527027
 20
27.39505478915818
 10
155.392409900388
 20
27.38816459818768
 10
155.2973252649951
 20
27.38816459818768
 10
155.2504719663957
 20
27.38816459818768
 10
155.2084418014757
 20
27.38816459818768
 10
155.089241497686
 20
27.39505478915818
 10
155.089241497686
 20
27.39505478915818
 10
155.2325574698724
 20
26.47486978504795
 10
155.2325574698724
 20
26.47486978504795
 10
156.5795898046051
 20
26.51586642132242
 10
156.7876735719142
 20
26.53378091784572
 10
159.321885810864
 20
26.73566351328136
 10
159.4341959236831
 20
26.55100639527197
 10
159.487939413253
 20
26.46212293175252
 10
159.5651095521226
 20
26.31398382588678
 10
159.5651095521226
 20
26.31398382588678
 10
160.4201822515616
 20
26.76460231535746
 10
160.4201822515616
 20
26.76460231535746
 72
     1
 10
160.4201822515616
 20
26.76460231535746
 11
160.4201822515616
 21
26.76460231535746
 97
        0
 92
        1
 93
        2
 72
     4
 94
        3
 73
     0
 74
     0
 95
       35
 96
       31
 40
0.0
 40
0.0
 40
0.0
 40
0.0
 40
0.3527777776895833
 40
0.3527777776895833
 40
0.3527777776895833
 40
0.7055555553791667
 40
0.7055555553791667
 40
0.7055555553791667
 40
1.05833333306875
 40
1.05833333306875
 40
1.05833333306875
 40
1.411111110758333
 40
1.411111110758333
 40
1.411111110758333
 40
1.763888888447917
 40
1.763888888447917
 40
1.763888888447917
 40
2.1166666661375
 40
2.1166666661375
 40
2.1166666661375
 40
2.469444443827083
 40
2.469444443827083
 40
2.469444443827083
 40
2.822222221516667
 40
2.822222221516667
 40
2.822222221516667
 40
3.17499999920625
 40
3.17499999920625
 40
3.17499999920625
 40
3.527777776895833
 40
3.527777776895833
 40
3.527777776895833
 40
3.527777776895833
 10
156.1523979644341
 20
29.68604328684932
 10
156.1523979644341
 20
29.68604328684932
 10
159.3101724862141
 20
29.68604328684932
 10
159.3101724862141
 20
29.68604328684932
 10
159.3101724862141
 20
29.68604328684932
 10
159.3101724862141
 20
30.04777831280056
 10
159.3101724862141
 20
30.04777831280056
 10
159.7318521736087
 20
29.79284124689207
 10
159.9867892395172
 20
29.67984211497587
 10
160.1941839877292
 20
29.58958061326233
 10
160.1941839877292
 20
29.58958061326233
 10
160.6578938400439
 20
30.48668347762139
 10
160.6578938400439
 20
30.48668347762139
 10
159.7559678420054
 20
30.82602538291849
 10
158.9008951425664
 20
31.30523816491675
 10
158.2718207069598
 20
32.03628742688677
 10
158.2718207069598
 20
32.03628742688677
 10
157.2148654120852
 20
32.03628742688677
 10
157.2148654120852
 20
32.03628742688677
 10
156.8352158896107
 20
31.50091958847894
 10
156.1765136328309
 20
31.01516112505871
 10
154.799164457828
 20
30.47428113387449
 10
154.799164457828
 20
30.47428113387449
 10
155.2504719663957
 20
29.57304415493313
 10
155.2504719663957
 20
29.57304415493313
 10
155.4282388934346
 20
29.64332410283222
 10
155.6886881121195
 20
29.74460991009857
 10
156.1523979644341
 20
30.02366264440381
 10
156.1523979644341
 20
30.02366264440381
 10
156.1523979644341
 20
29.68604328684932
 10
156.1523979644341
 20
29.68604328684932
 72
     1
 10
156.1523979644341
 20
29.68604328684932
 11
156.1523979644341
 21
29.68604328684932
 97
        0
 75
     2
 76
     1
 98
        0
  0
SPLINE
  5
E4
330
D4
100
AcDbEntity
  8
\U+30EC\U+30A4\U+30E4\U+30FC 1
370
     0
100
AcDbSpline
210
0.0
220
0.0
230
1.0
 70
    11
 71
     3
 72
    59
 73
    55
 74
     0
 42
0.0000000001
 43
0.0000000001
 40
0.0
 40
0.0
 40
0.0
 40
0.0
 40
1.0
 40
1.0
 40
1.0
 40
2.0
 40
2.0
 40
2.0
 40
3.0
 40
3.0
 40
3.0
 40
4.0
 40
4.0
 40
4.0
 40
5.0
 40
5.0
 40
5.0
 40
6.0
 40
6.0
 40
6.0
 40
7.0
 40
7.0
 40
7.0
 40
8.0
 40
8.0
 40
8.0
 40
9.0
 40
9.0
 40
9.0
 40
10.0
 40
10.0
 40
10.0
 40
11.0
 40
11.0
 40
11.0
 40
12.0
 40
12.0
 40
12.0
 40
13.0
 40
13.0
 40
13.0
 40
14.0
 40
14.0
 40
14.0
 40
15.0
 40
15.0
 40
15.0
 40
16.0
 40
16.0
 40
16.0
 40
17.0
 40
17.0
 40
17.0
 40
18.0
 40
18.0
 40
18.0
 40
18.0
 10
162.5148003065935
 20
26.36152614358323
 30
0.0
 10
162.5148003065935
 20
26.36152614358323
 30
0.0
 10
161.6135633276522
 20
26.36152614358323
 30
0.0
 10
161.6135633276522
 20
26.36152614358323
 30
0.0
 10
161.6135633276522
 20
26.36152614358323
 30
0.0
 10
161.6135633276522
 20
28.34452310489304
 30
0.0
 10
161.6135633276522
 20
28.34452310489304
 30
0.0
 10
161.3696505672965
 20
28.13643933758395
 30
0.0
 10
161.2035969649074
 20
28.0172390337943
 30
0.0
 10
160.9831108538515
 20
27.86978894702561
 30
0.0
 10
160.9831108538515
 20
27.86978894702561
 30
0.0
 10
160.7584906282132
 20
28.91985405092976
 30
0.0
 10
160.7584906282132
 20
28.91985405092976
 30
0.0
 10
161.4227050377693
 20
29.31741806992759
 30
0.0
 10
161.9690971817299
 20
29.95200465831061
 30
0.0
 10
162.1647786052922
 20
30.34405652453204
 30
0.0
 10
162.1647786052922
 20
30.34405652453204
 30
0.0
 10
160.8652885882559
 20
30.34405652453204
 30
0.0
 10
160.8652885882559
 20
30.34405652453204
 30
0.0
 10
160.8652885882559
 20
30.34405652453204
 30
0.0
 10
160.8652885882559
 20
31.17570257467136
 30
0.0
 10
160.8652885882559
 20
31.17570257467136
 30
0.0
 10
160.8652885882559
 20
31.17570257467136
 30
0.0
 10
161.6135633276522
 20
31.17570257467136
 30
0.0
 10
161.6135633276522
 20
31.17570257467136
 30
0.0
 10
161.6135633276522
 20
31.17570257467136
 30
0.0
 10
161.6135633276522
 20
31.99425726196672
 30
0.0
 10
161.6135633276522
 20
31.99425726196672
 30
0.0
 10
161.6135633276522
 20
31.99425726196672
 30
0.0
 10
162.5148003065935
 20
31.99425726196672
 30
0.0
 10
162.5148003065935
 20
31.99425726196672
 30
0.0
 10
162.5148003065935
 20
31.99425726196672
 30
0.0
 10
162.5148003065935
 20
31.17570257467136
 30
0.0
 10
162.5148003065935
 20
31.17570257467136
 30
0.0
 10
162.5148003065935
 20
31.17570257467136
 30
0.0
 10
163.1204480929005
 20
31.17570257467136
 30
0.0
 10
163.1204480929005
 20
31.17570257467136
 30
0.0
 10
163.1204480929005
 20
31.17570257467136
 30
0.0
 10
163.1204480929005
 20
30.33854437175564
 30
0.0
 10
163.1204480929005
 20
30.33854437175564
 30
0.0
 10
163.032253648478
 20
30.12494845167015
 30
0.0
 10
162.9182209879163
 20
29.86932236666462
 30
0.0
 10
162.6519151069065
 20
29.48347167231663
 30
0.0
 10
162.9785101589082
 20
29.1217366463654
 30
0.0
 10
163.2692762178633
 20
28.94948187210291
 30
0.0
 10
163.458756469552
 20
28.84268391206016
 30
0.0
 10
163.458756469552
 20
28.84268391206016
 30
0.0
 10
163.0136501328577
 20
28.00001355636805
 30
0.0
 10
163.0136501328577
 20
28.00001355636805
 30
0.0
 10
162.8413953585952
 20
28.15986598688364
 30
0.0
 10
162.7049695773793
 20
28.30249293997299
 30
0.0
 10
162.5148003065935
 20
28.56914333053133
 30
0.0
 10
162.5148003065935
 20
28.56914333053133
 30
0.0
 10
162.5148003065935
 20
26.36152614358323
 30
0.0
 10
162.5148003065935
 20
26.36152614358323
 30
0.0
  0
POLYLINE
  5
E5
330
D4
100
AcDbEntity
  8
\U+30EC\U+30A4\U+30E4\U+30FC 1
370
     0
100
AcDb2dPolyline
 66
     1
 10
0.0
 20
0.0
 30
0.0
  0
VERTEX
  5
E6
330
E5
100
AcDbEntity
  8
\U+30EC\U+30A4\U+30E4\U+30FC 1
370
     0
100
AcDbVertex
100
AcDb2dVertex
 10
164.2780001759444
 20
31.98805609009327
 30
0.0
  0
VERTEX
  5
E7
330
E5
100
AcDbEntity
  8
\U+30EC\U+30A4\U+30E4\U+30FC 1
370
     0
100
AcDbVertex
100
AcDb2dVertex
 10
165.2047308614766
 20
31.98805609009327
 30
0.0
  0
VERTEX
  5
E8
330
E5
100
AcDbEntity
  8
\U+30EC\U+30A4\U+30E4\U+30FC 1
370
     0
100
AcDbVertex
100
AcDb2dVertex
 10
165.2047308614766
 20
30.51700031789159
 30
0.0
  0
VERTEX
  5
E9
330
E5
100
AcDbEntity
  8
\U+30EC\U+30A4\U+30E4\U+30FC 1
370
     0
100
AcDbVertex
100
AcDb2dVertex
 10
166.35539275355
 20
30.51700031789159
 30
0.0
  0
VERTEX
  5
EA
330
E5
100
AcDbEntity
  8
\U+30EC\U+30A4\U+30E4\U+30FC 1
370
     0
100
AcDbVertex
100
AcDb2dVertex
 10
166.35539275355
 20
29.60198295700923
 30
0.0
  0
VERTEX
  5
EB
330
E5
100
AcDbEntity
  8
\U+30EC\U+30A4\U+30E4\U+30FC 1
370
     0
100
AcDbVertex
100
AcDb2dVertex
 10
165.2047308614766
 20
29.60198295700923
 30
0.0
  0
VERTEX
  5
EC
330
E5
100
AcDbEntity
  8
\U+30EC\U+30A4\U+30E4\U+30FC 1
370
     0
100
AcDbVertex
100
AcDb2dVertex
 10
165.2047308614766
 20
27.42950574401068
 30
0.0
  0
VERTEX
  5
ED
330
E5
100
AcDbEntity
  8
\U+30EC\U+30A4\U+30E4\U+30FC 1
370
     0
100
AcDbVertex
100
AcDb2dVertex
 10
166.4442762170695
 20
27.42950574401068
 30
0.0
  0
VERTEX
  5
EE
330
E5
100
AcDbEntity
  8
\U+30EC\U+30A4\U+30E4\U+30FC 1
370
     0
100
AcDbVertex
100
AcDb2dVertex
 10
166.4442762170695
 20
26.52757974597227
 30
0.0
  0
VERTEX
  5
EF
330
E5
100
AcDbEntity
  8
\U+30EC\U+30A4\U+30E4\U+30FC 1
370
     0
100
AcDbVertex
100
AcDb2dVertex
 10
162.9182209879163
 20
26.52757974597227
 30
0.0
  0
VERTEX
  5
F0
330
E5
100
AcDbEntity
  8
\U+30EC\U+30A4\U+30E4\U+30FC 1
370
     0
100
AcDbVertex
100
AcDb2dVertex
 10
162.9182209879163
 20
27.42950574401068
 30
0.0
  0
VERTEX
  5
F1
330
E5
100
AcDbEntity
  8
\U+30EC\U+30A4\U+30E4\U+30FC 1
370
     0
100
AcDbVertex
100
AcDb2dVertex
 10
164.2780001759444
 20
27.42950574401068
 30
0.0
  0
VERTEX
  5
F2
330
E5
100
AcDbEntity
  8
\U+30EC\U+30A4\U+30E4\U+30FC 1
370
     0
100
AcDbVertex
100
AcDb2dVertex
 10
164.2780001759444
 20
29.60198295700923
 30
0.0
  0
VERTEX
  5
F3
330
E5
100
AcDbEntity
  8
\U+30EC\U+30A4\U+30E4\U+30FC 1
370
     0
100
AcDbVertex
100
AcDb2dVertex
 10
163.2086425373228
 20
29.60198295700923
 30
0.0
  0
VERTEX
  5
F4
330
E5
100
AcDbEntity
  8
\U+30EC\U+30A4\U+30E4\U+30FC 1
370
     0
100
AcDbVertex
100
AcDb2dVertex
 10
163.2086425373228
 20
30.51700031789159
 30
0.0
  0
VERTEX
  5
F5
330
E5
100
AcDbEntity
  8
\U+30EC\U+30A4\U+30E4\U+30FC 1
370
     0
100
AcDbVertex
100
AcDb2dVertex
 10
164.2780001759444
 20
30.51700031789159
 30
0.0
  0
VERTEX
  5
F6
330
E5
100
AcDbEntity
  8
\U+30EC\U+30A4\U+30E4\U+30FC 1
370
     0
100
AcDbVertex
100
AcDb2dVertex
 10
164.2780001759444
 20
31.98805609009327
 30
0.0
  0
SEQEND
  5
F7
330
E5
100
AcDbEntity
  8
\U+30EC\U+30A4\U+30E4\U+30FC 1
370
     0
  0
HATCH
  5
F8
330
D4
100
AcDbEntity
  8
\U+30EC\U+30A4\U+30E4\U+30FC 1
 62
    29
100
AcDbHatch
 10
0.0
 20
0.0
 30
0.0
210
0.0
220
0.0
230
1.0
  2
SOLID
 70
     1
 71
     0
 91
        2
 92
        1
 93
       16
 72
     1
 10
164.2780001759444
 20
31.98805609009327
 11
165.2047308614766
 21
31.98805609009327
 72
     1
 10
165.2047308614766
 20
31.98805609009327
 11
165.2047308614766
 21
30.51700031789159
 72
     1
 10
165.2047308614766
 20
30.51700031789159
 11
166.35539275355
 21
30.51700031789159
 72
     1
 10
166.35539275355
 20
30.51700031789159
 11
166.35539275355
 21
29.60198295700923
 72
     1
 10
166.35539275355
 20
29.60198295700923
 11
165.2047308614766
 21
29.60198295700923
 72
     1
 10
165.2047308614766
 20
29.60198295700923
 11
165.2047308614766
 21
27.42950574401068
 72
     1
 10
165.2047308614766
 20
27.42950574401068
 11
166.4442762170695
 21
27.42950574401068
 72
     1
 10
166.4442762170695
 20
27.42950574401068
 11
166.4442762170695
 21
26.52757974597227
 72
     1
 10
166.4442762170695
 20
26.52757974597227
 11
162.9182209879163
 21
26.52757974597227
 72
     1
 10
162.9182209879163
 20
26.52757974597227
 11
162.9182209879163
 21
27.42950574401068
 72
     1
 10
162.9182209879163
 20
27.42950574401068
 11
164.2780001759444
 21
27.42950574401068
 72
     1
 10
164.2780001759444
 20
27.42950574401068
 11
164.2780001759444
 21
29.60198295700923
 72
     1
 10
164.2780001759444
 20
29.60198295700923
 11
163.2086425373228
 21
29.60198295700923
 72
     1
 10
163.2086425373228
 20
29.60198295700923
 11
163.2086425373228
 21
30.51700031789159
 72
     1
 10
163.2086425373228
 20
30.51700031789159
 11
164.2780001759444
 21
30.51700031789159
 72
     1
 10
164.2780001759444
 20
30.51700031789159
 11
164.2780001759444
 21
31.98805609009327
 97
        0
 92
        1
 93
        2
 72
     4
 94
        3
 73
     0
 74
     0
 95
       59
 96
       55
 40
0.0
 40
0.0
 40
0.0
 40
0.0
 40
0.3527777776895833
 40
0.3527777776895833
 40
0.3527777776895833
 40
0.7055555553791667
 40
0.7055555553791667
 40
0.7055555553791667
 40
1.05833333306875
 40
1.05833333306875
 40
1.05833333306875
 40
1.411111110758333
 40
1.411111110758333
 40
1.411111110758333
 40
1.763888888447917
 40
1.763888888447917
 40
1.763888888447917
 40
2.1166666661375
 40
2.1166666661375
 40
2.1166666661375
 40
2.469444443827083
 40
2.469444443827083
 40
2.469444443827083
 40
2.822222221516667
 40
2.822222221516667
 40
2.822222221516667
 40
3.17499999920625
 40
3.17499999920625
 40
3.17499999920625
 40
3.527777776895833
 40
3.527777776895833
 40
3.527777776895833
 40
3.880555554585417
 40
3.880555554585417
 40
3.880555554585417
 40
4.233333332275
 40
4.233333332275
 40
4.233333332275
 40
4.586111109964584
 40
4.586111109964584
 40
4.586111109964584
 40
4.938888887654167
 40
4.938888887654167
 40
4.938888887654167
 40
5.29166666534375
 40
5.29166666534375
 40
5.29166666534375
 40
5.644444443033334
 40
5.644444443033334
 40
5.644444443033334
 40
5.997222220722917
 40
5.997222220722917
 40
5.997222220722917
 40
6.349999998412501
 40
6.349999998412501
 40
6.349999998412501
 40
6.349999998412501
 10
162.5148003065935
 20
26.36152614358323
 10
162.5148003065935
 20
26.36152614358323
 10
161.6135633276522
 20
26.36152614358323
 10
161.6135633276522
 20
26.36152614358323
 10
161.6135633276522
 20
26.36152614358323
 10
161.6135633276522
 20
28.34452310489304
 10
161.6135633276522
 20
28.34452310489304
 10
161.3696505672965
 20
28.13643933758395
 10
161.2035969649074
 20
28.0172390337943
 10
160.9831108538515
 20
27.86978894702561
 10
160.9831108538515
 20
27.86978894702561
 10
160.7584906282132
 20
28.91985405092976
 10
160.7584906282132
 20
28.91985405092976
 10
161.4227050377693
 20
29.31741806992759
 10
161.9690971817299
 20
29.95200465831061
 10
162.1647786052922
 20
30.34405652453204
 10
162.1647786052922
 20
30.34405652453204
 10
160.8652885882559
 20
30.34405652453204
 10
160.8652885882559
 20
30.34405652453204
 10
160.8652885882559
 20
30.34405652453204
 10
160.8652885882559
 20
31.17570257467136
 10
160.8652885882559
 20
31.17570257467136
 10
160.8652885882559
 20
31.17570257467136
 10
161.6135633276522
 20
31.17570257467136
 10
161.6135633276522
 20
31.17570257467136
 10
161.6135633276522
 20
31.17570257467136
 10
161.6135633276522
 20
31.99425726196672
 10
161.6135633276522
 20
31.99425726196672
 10
161.6135633276522
 20
31.99425726196672
 10
162.5148003065935
 20
31.99425726196672
 10
162.5148003065935
 20
31.99425726196672
 10
162.5148003065935
 20
31.99425726196672
 10
162.5148003065935
 20
31.17570257467136
 10
162.5148003065935
 20
31.17570257467136
 10
162.5148003065935
 20
31.17570257467136
 10
163.1204480929005
 20
31.17570257467136
 10
163.1204480929005
 20
31.17570257467136
 10
163.1204480929005
 20
31.17570257467136
 10
163.1204480929005
 20
30.33854437175564
 10
163.1204480929005
 20
30.33854437175564
 10
163.032253648478
 20
30.12494845167015
 10
162.9182209879163
 20
29.86932236666462
 10
162.6519151069065
 20
29.48347167231663
 10
162.9785101589082
 20
29.1217366463654
 10
163.2692762178633
 20
28.94948187210291
 10
163.458756469552
 20
28.84268391206016
 10
163.458756469552
 20
28.84268391206016
 10
163.0136501328577
 20
28.00001355636805
 10
163.0136501328577
 20
28.00001355636805
 10
162.8413953585952
 20
28.15986598688364
 10
162.7049695773793
 20
28.30249293997299
 10
162.5148003065935
 20
28.56914333053133
 10
162.5148003065935
 20
28.56914333053133
 10
162.5148003065935
 20
26.36152614358323
 10
162.5148003065935
 20
26.36152614358323
 72
     1
 10
162.5148003065935
 20
26.36152614358323
 11
162.5148003065935
 21
26.36152614358323
 97
        0
 75
     2
 76
     1
 98
        0
  0
SPLINE
  5
F9
330
D4
100
AcDbEntity
  8
\U+30EC\U+30A4\U+30E4\U+30FC 1
370
     0
100
AcDbSpline
210
0.0
220
0.0
230
1.0
 70
    11
 71
     3
 72
    47
 73
    43
 74
     0
 42
0.0000000001
 43
0.0000000001
 40
0.0
 40
0.0
 40
0.0
 40
0.0
 40
1.0
 40
1.0
 40
1.0
 40
2.0
 40
2.0
 40
2.0
 40
3.0
 40
3.0
 40
3.0
 40
4.0
 40
4.0
 40
4.0
 40
5.0
 40
5.0
 40
5.0
 40
6.0
 40
6.0
 40
6.0
 40
7.0
 40
7.0
 40
7.0
 40
8.0
 40
8.0
 40
8.0
 40
9.0
 40
9.0
 40
9.0
 40
10.0
 40
10.0
 40
10.0
 40
11.0
 40
11.0
 40
11.0
 40
12.0
 40
12.0
 40
12.0
 40
13.0
 40
13.0
 40
13.0
 40
14.0
 40
14.0
 40
14.0
 40
14.0
 10
168.9550618067196
 20
29.77423773127172
 30
0.0
 10
169.4187716590342
 20
29.58475747958298
 30
0.0
 10
169.7625921884622
 20
29.41250270532049
 30
0.0
 10
170.1890950095361
 20
29.0914198060952
 30
0.0
 10
170.4392089417652
 20
29.44213052649364
 30
0.0
 10
170.5997503913779
 20
29.78043890314517
 30
0.0
 10
170.7472004781465
 20
30.30271537870905
 30
0.0
 10
170.7472004781465
 20
30.30271537870905
 30
0.0
 10
169.0322319455892
 20
30.30271537870905
 30
0.0
 10
169.0322319455892
 20
30.30271537870905
 30
0.0
 10
168.5581868068188
 20
29.70326876427557
 30
0.0
 10
168.0407334649343
 20
29.25196125570784
 30
0.0
 10
167.430262544948
 20
28.90193955440646
 30
0.0
 10
167.430262544948
 20
28.90193955440646
 30
0.0
 10
166.8246147586411
 20
29.58958061326233
 30
0.0
 10
166.8246147586411
 20
29.58958061326233
 30
0.0
 10
167.9229111993387
 20
30.178002922143
 30
0.0
 10
168.451388846776
 20
30.90147297404546
 30
0.0
 10
168.836550522027
 20
31.89297145470037
 30
0.0
 10
168.836550522027
 20
31.89297145470037
 30
0.0
 10
169.8514756519816
 20
31.76205782626088
 30
0.0
 10
169.8514756519816
 20
31.76205782626088
 30
0.0
 10
169.7798176658884
 20
31.54915092527244
 30
0.0
 10
169.732964367289
 20
31.43615179335624
 30
0.0
 10
169.6020507388495
 20
31.16950140279791
 30
0.0
 10
169.6020507388495
 20
31.16950140279791
 30
0.0
 10
171.9168103953889
 20
31.16950140279791
 30
0.0
 10
171.9168103953889
 20
31.16950140279791
 30
0.0
 10
171.5133897140661
 20
28.61048447635433
 30
0.0
 10
170.1718695321098
 20
27.12702636040574
 30
0.0
 10
167.6969129355063
 20
26.54480522339852
 30
0.0
 10
167.6969129355063
 20
26.54480522339852
 30
0.0
 10
167.1925509564658
 20
27.39505478915818
 30
0.0
 10
167.1925509564658
 20
27.39505478915818
 30
0.0
 10
167.5722004789403
 20
27.45982258428088
 30
0.0
 10
168.5044433172489
 20
27.61416286202007
 30
0.0
 10
169.5014539506802
 20
28.38483072207046
 30
0.0
 10
168.9846896278927
 20
28.80134276623717
 30
0.0
 10
168.5692111123716
 20
29.00873751444921
 30
0.0
 10
168.3259873711129
 20
29.1327609519182
 30
0.0
 10
168.3259873711129
 20
29.1327609519182
 30
0.0
 10
168.9550618067196
 20
29.77423773127172
 30
0.0
 10
168.9550618067196
 20
29.77423773127172
 30
0.0
  0
HATCH
  5
FA
330
D4
100
AcDbEntity
  8
\U+30EC\U+30A4\U+30E4\U+30FC 1
 62
    29
100
AcDbHatch
 10
0.0
 20
0.0
 30
0.0
210
0.0
220
0.0
230
1.0
  2
SOLID
 70
     1
 71
     0
 91
        1
 92
        1
 93
        1
 72
     4
 94
        3
 73
     0
 74
     1
 95
       47
 96
       43
 40
0.0
 40
0.0
 40
0.0
 40
0.0
 40
1.0
 40
1.0
 40
1.0
 40
2.0
 40
2.0
 40
2.0
 40
3.0
 40
3.0
 40
3.0
 40
4.0
 40
4.0
 40
4.0
 40
5.0
 40
5.0
 40
5.0
 40
6.0
 40
6.0
 40
6.0
 40
7.0
 40
7.0
 40
7.0
 40
8.0
 40
8.0
 40
8.0
 40
9.0
 40
9.0
 40
9.0
 40
10.0
 40
10.0
 40
10.0
 40
11.0
 40
11.0
 40
11.0
 40
12.0
 40
12.0
 40
12.0
 40
13.0
 40
13.0
 40
13.0
 40
14.0
 40
14.0
 40
14.0
 40
14.0
 10
168.9550618067196
 20
29.77423773127172
 10
169.4187716590342
 20
29.58475747958298
 10
169.7625921884622
 20
29.41250270532049
 10
170.1890950095361
 20
29.0914198060952
 10
170.4392089417652
 20
29.44213052649364
 10
170.5997503913779
 20
29.78043890314517
 10
170.7472004781465
 20
30.30271537870905
 10
170.7472004781465
 20
30.30271537870905
 10
169.0322319455892
 20
30.30271537870905
 10
169.0322319455892
 20
30.30271537870905
 10
168.5581868068188
 20
29.70326876427557
 10
168.0407334649343
 20
29.25196125570784
 10
167.430262544948
 20
28.90193955440646
 10
167.430262544948
 20
28.90193955440646
 10
166.8246147586411
 20
29.58958061326233
 10
166.8246147586411
 20
29.58958061326233
 10
167.9229111993387
 20
30.178002922143
 10
168.451388846776
 20
30.90147297404546
 10
168.836550522027
 20
31.89297145470037
 10
168.836550522027
 20
31.89297145470037
 10
169.8514756519816
 20
31.76205782626088
 10
169.8514756519816
 20
31.76205782626088
 10
169.7798176658884
 20
31.54915092527244
 10
169.732964367289
 20
31.43615179335624
 10
169.6020507388495
 20
31.16950140279791
 10
169.6020507388495
 20
31.16950140279791
 10
171.9168103953889
 20
31.16950140279791
 10
171.9168103953889
 20
31.16950140279791
 10
171.5133897140661
 20
28.61048447635433
 10
170.1718695321098
 20
27.12702636040574
 10
167.6969129355063
 20
26.54480522339852
 10
167.6969129355063
 20
26.54480522339852
 10
167.1925509564658
 20
27.39505478915818
 10
167.1925509564658
 20
27.39505478915818
 10
167.5722004789403
 20
27.45982258428088
 10
168.5044433172489
 20
27.61416286202007
 10
169.5014539506802
 20
28.38483072207046
 10
168.9846896278927
 20
28.80134276623717
 10
168.5692111123716
 20
29.00873751444921
 10
168.3259873711129
 20
29.1327609519182
 10
168.3259873711129
 20
29.1327609519182
 10
168.9550618067196
 20
29.77423773127172
 10
168.9550618067196
 20
29.77423773127172
 97
        0
 75
     2
 76
     1
 98
        0
  0
SPLINE
  5
FB
330
D4
100
AcDbEntity
  8
\U+30EC\U+30A4\U+30E4\U+30FC 1
370
     0
100
AcDbSpline
210
0.0
220
0.0
230
1.0
 70
    11
 71
     3
 72
    68
 73
    64
 74
     0
 42
0.0000000001
 43
0.0000000001
 40
0.0
 40
0.0
 40
0.0
 40
0.0
 40
1.0
 40
1.0
 40
1.0
 40
2.0
 40
2.0
 40
2.0
 40
3.0
 40
3.0
 40
3.0
 40
4.0
 40
4.0
 40
4.0
 40
5.0
 40
5.0
 40
5.0
 40
6.0
 40
6.0
 40
6.0
 40
7.0
 40
7.0
 40
7.0
 40
8.0
 40
8.0
 40
8.0
 40
9.0
 40
9.0
 40
9.0
 40
10.0
 40
10.0
 40
10.0
 40
11.0
 40
11.0
 40
11.0
 40
12.0
 40
12.0
 40
12.0
 40
13.0
 40
13.0
 40
13.0
 40
14.0
 40
14.0
 40
14.0
 40
15.0
 40
15.0
 40
15.0
 40
16.0
 40
16.0
 40
16.0
 40
17.0
 40
17.0
 40
17.0
 40
18.0
 40
18.0
 40
18.0
 40
19.0
 40
19.0
 40
19.0
 40
20.0
 40
20.0
 40
20.0
 40
21.0
 40
21.0
 40
21.0
 40
21.0
 10
177.455490407025
 20
30.77813855567352
 30
0.0
 10
177.455490407025
 20
30.77813855567352
 30
0.0
 10
177.455490407025
 20
29.86932236666462
 30
0.0
 10
177.455490407025
 20
29.86932236666462
 30
0.0
 10
177.455490407025
 20
29.24024793105799
 30
0.0
 10
177.4017469174551
 20
28.0296413775412
 30
0.0
 10
177.2942599383153
 20
27.55490721967378
 30
0.0
 10
177.0992675338502
 20
26.69432236745837
 30
0.0
 10
176.600417707586
 20
26.61715222858877
 30
0.0
 10
176.0719400601487
 20
26.61715222858877
 30
0.0
 10
175.4904079422385
 20
26.61715222858877
 30
0.0
 10
175.1989528641864
 20
26.68192002371147
 30
0.0
 10
175.0453016055442
 20
26.71774901675806
 30
0.0
 10
175.0453016055442
 20
26.71774901675806
 30
0.0
 10
174.9922471350714
 20
27.64930283596962
 30
0.0
 10
174.9922471350714
 20
27.64930283596962
 30
0.0
 10
175.2113552079333
 20
27.60865070924367
 30
0.0
 10
175.5441514318084
 20
27.54870604780033
 30
0.0
 10
175.8996852858862
 20
27.54870604780033
 30
0.0
 10
176.1839056634193
 20
27.54870604780033
 30
0.0
 10
176.297249304884
 20
27.61416286202007
 30
0.0
 10
176.3571939663274
 20
27.77401529253567
 30
0.0
 10
176.4571017353996
 20
28.0944091726639
 30
0.0
 10
176.5046440530961
 20
29.43524033552314
 30
0.0
 10
176.5046440530961
 20
29.57855630770953
 30
0.0
 10
176.5046440530961
 20
29.57855630770953
 30
0.0
 10
176.5046440530961
 20
29.88792588228496
 30
0.0
 10
176.5046440530961
 20
29.88792588228496
 30
0.0
 10
176.5046440530961
 20
29.88792588228496
 30
0.0
 10
175.2113552079333
 20
29.88792588228496
 30
0.0
 10
175.2113552079333
 20
29.88792588228496
 30
0.0
 10
175.0866427513672
 20
29.1630777921884
 30
0.0
 10
174.8909613278051
 20
28.64080131662452
 30
0.0
 10
174.6649630639727
 20
28.22532280110339
 30
0.0
 10
174.1192599391091
 20
27.21590982392519
 30
0.0
 10
173.3951008681096
 20
26.76460231535746
 30
0.0
 10
173.098133637281
 20
26.58063421644512
 30
0.0
 10
173.098133637281
 20
26.58063421644512
 30
0.0
 10
172.4449435332777
 20
27.29928113466824
 30
0.0
 10
172.4449435332777
 20
27.29928113466824
 30
0.0
 10
173.6445257812416
 20
27.96315103467588
 30
0.0
 10
174.0117729599693
 20
28.71245930271772
 30
0.0
 10
174.2253688800548
 20
29.88792588228496
 30
0.0
 10
174.2253688800548
 20
29.88792588228496
 30
0.0
 10
172.7239962675829
 20
29.88792588228496
 30
0.0
 10
172.7239962675829
 20
29.88792588228496
 30
0.0
 10
172.7239962675829
 20
29.88792588228496
 30
0.0
 10
172.7239962675829
 20
30.77813855567352
 30
0.0
 10
172.7239962675829
 20
30.77813855567352
 30
0.0
 10
172.7239962675829
 20
30.77813855567352
 30
0.0
 10
174.3328558591946
 20
30.77813855567352
 30
0.0
 10
174.3328558591946
 20
30.77813855567352
 30
0.0
 10
174.3617946612707
 20
31.17570257467136
 30
0.0
 10
174.3686848522412
 20
31.42443846870639
 30
0.0
 10
174.3686848522412
 20
31.80477701027797
 30
0.0
 10
174.3686848522412
 20
31.80477701027797
 30
0.0
 10
175.3712076384489
 20
31.79237466653107
 30
0.0
 10
175.3712076384489
 20
31.79237466653107
 30
0.0
 10
175.3532931419256
 20
31.28181151561705
 30
0.0
 10
175.3360676644993
 20
31.07441676740501
 30
0.0
 10
175.3126410151996
 20
30.77813855567352
 30
0.0
 10
175.3126410151996
 20
30.77813855567352
 30
0.0
 10
177.455490407025
 20
30.77813855567352
 30
0.0
 10
177.455490407025
 20
30.77813855567352
 30
0.0
  0
HATCH
  5
FC
330
D4
100
AcDbEntity
  8
\U+30EC\U+30A4\U+30E4\U+30FC 1
 62
    29
100
AcDbHatch
 10
0.0
 20
0.0
 30
0.0
210
0.0
220
0.0
230
1.0
  2
SOLID
 70
     1
 71
     0
 91
        1
 92
        1
 93
        1
 72
     4
 94
        3
 73
     0
 74
     1
 95
       68
 96
       64
 40
0.0
 40
0.0
 40
0.0
 40
0.0
 40
1.0
 40
1.0
 40
1.0
 40
2.0
 40
2.0
 40
2.0
 40
3.0
 40
3.0
 40
3.0
 40
4.0
 40
4.0
 40
4.0
 40
5.0
 40
5.0
 40
5.0
 40
6.0
 40
6.0
 40
6.0
 40
7.0
 40
7.0
 40
7.0
 40
8.0
 40
8.0
 40
8.0
 40
9.0
 40
9.0
 40
9.0
 40
10.0
 40
10.0
 40
10.0
 40
11.0
 40
11.0
 40
11.0
 40
12.0
 40
12.0
 40
12.0
 40
13.0
 40
13.0
 40
13.0
 40
14.0
 40
14.0
 40
14.0
 40
15.0
 40
15.0
 40
15.0
 40
16.0
 40
16.0
 40
16.0
 40
17.0
 40
17.0
 40
17.0
 40
18.0
 40
18.0
 40
18.0
 40
19.0
 40
19.0
 40
19.0
 40
20.0
 40
20.0
 40
20.0
 40
21.0
 40
21.0
 40
21.0
 40
21.0
 10
177.455490407025
 20
30.77813855567352
 10
177.455490407025
 20
30.77813855567352
 10
177.455490407025
 20
29.86932236666462
 10
177.455490407025
 20
29.86932236666462
 10
177.455490407025
 20
29.24024793105799
 10
177.4017469174551
 20
28.0296413775412
 10
177.2942599383153
 20
27.55490721967378
 10
177.0992675338502
 20
26.69432236745837
 10
176.600417707586
 20
26.61715222858877
 10
176.0719400601487
 20
26.61715222858877
 10
175.4904079422385
 20
26.61715222858877
 10
175.1989528641864
 20
26.68192002371147
 10
175.0453016055442
 20
26.71774901675806
 10
175.0453016055442
 20
26.71774901675806
 10
174.9922471350714
 20
27.64930283596962
 10
174.9922471350714
 20
27.64930283596962
 10
175.2113552079333
 20
27.60865070924367
 10
175.5441514318084
 20
27.54870604780033
 10
175.8996852858862
 20
27.54870604780033
 10
176.1839056634193
 20
27.54870604780033
 10
176.297249304884
 20
27.61416286202007
 10
176.3571939663274
 20
27.77401529253567
 10
176.4571017353996
 20
28.0944091726639
 10
176.5046440530961
 20
29.43524033552314
 10
176.5046440530961
 20
29.57855630770953
 10
176.5046440530961
 20
29.57855630770953
 10
176.5046440530961
 20
29.88792588228496
 10
176.5046440530961
 20
29.88792588228496
 10
176.5046440530961
 20
29.88792588228496
 10
175.2113552079333
 20
29.88792588228496
 10
175.2113552079333
 20
29.88792588228496
 10
175.0866427513672
 20
29.1630777921884
 10
174.8909613278051
 20
28.64080131662452
 10
174.6649630639727
 20
28.22532280110339
 10
174.1192599391091
 20
27.21590982392519
 10
173.3951008681096
 20
26.76460231535746
 10
173.098133637281
 20
26.58063421644512
 10
173.098133637281
 20
26.58063421644512
 10
172.4449435332777
 20
27.29928113466824
 10
172.4449435332777
 20
27.29928113466824
 10
173.6445257812416
 20
27.96315103467588
 10
174.0117729599693
 20
28.71245930271772
 10
174.2253688800548
 20
29.88792588228496
 10
174.2253688800548
 20
29.88792588228496
 10
172.7239962675829
 20
29.88792588228496
 10
172.7239962675829
 20
29.88792588228496
 10
172.7239962675829
 20
29.88792588228496
 10
172.7239962675829
 20
30.77813855567352
 10
172.7239962675829
 20
30.77813855567352
 10
172.7239962675829
 20
30.77813855567352
 10
174.3328558591946
 20
30.77813855567352
 10
174.3328558591946
 20
30.77813855567352
 10
174.3617946612707
 20
31.17570257467136
 10
174.3686848522412
 20
31.42443846870639
 10
174.3686848522412
 20
31.80477701027797
 10
174.3686848522412
 20
31.80477701027797
 10
175.3712076384489
 20
31.79237466653107
 10
175.3712076384489
 20
31.79237466653107
 10
175.3532931419256
 20
31.28181151561705
 10
175.3360676644993
 20
31.07441676740501
 10
175.3126410151996
 20
30.77813855567352
 10
175.3126410151996
 20
30.77813855567352
 10
177.455490407025
 20
30.77813855567352
 10
177.455490407025
 20
30.77813855567352
 97
        0
 75
     2
 76
     1
 98
        0
  0
SPLINE
  5
FD
330
D4
100
AcDbEntity
  8
\U+30EC\U+30A4\U+30E4\U+30FC 1
370
     0
100
AcDbSpline
210
0.0
220
0.0
230
1.0
 70
    11
 71
     3
 72
    17
 73
    13
 74
     0
 42
0.0000000001
 43
0.0000000001
 40
0.0
 40
0.0
 40
0.0
 40
0.0
 40
1.0
 40
1.0
 40
1.0
 40
2.0
 40
2.0
 40
2.0
 40
3.0
 40
3.0
 40
3.0
 40
4.0
 40
4.0
 40
4.0
 40
4.0
 10
180.5354057708384
 20
30.21314289609255
 30
0.0
 10
179.9593858057046
 20
30.51079914601814
 30
0.0
 10
179.3427137138449
 20
30.71199272235673
 30
0.0
 10
178.7191514310147
 20
30.86633300009592
 30
0.0
 10
178.7191514310147
 20
30.86633300009592
 30
0.0
 10
179.0574598076662
 20
31.65525986621813
 30
0.0
 10
179.0574598076662
 20
31.65525986621813
 30
0.0
 10
179.6210774290531
 20
31.54915092527244
 30
0.0
 10
180.3335231754027
 20
31.33555500518695
 30
0.0
 10
180.9095431405365
 20
31.05650227088171
 30
0.0
 10
180.9095431405365
 20
31.05650227088171
 30
0.0
 10
180.5354057708384
 20
30.21314289609255
 30
0.0
 10
180.5354057708384
 20
30.21314289609255
 30
0.0
  0
SPLINE
  5
FE
330
D4
100
AcDbEntity
  8
\U+30EC\U+30A4\U+30E4\U+30FC 1
370
     0
100
AcDbSpline
210
0.0
220
0.0
230
1.0
 70
    11
 71
     3
 72
    17
 73
    13
 74
     0
 42
0.0000000001
 43
0.0000000001
 40
0.0
 40
0.0
 40
0.0
 40
0.0
 40
1.0
 40
1.0
 40
1.0
 40
2.0
 40
2.0
 40
2.0
 40
3.0
 40
3.0
 40
3.0
 40
4.0
 40
4.0
 40
4.0
 40
4.0
 10
180.0131292952745
 20
28.78342826971387
 30
0.0
 10
179.5025661443605
 20
29.0679931567955
 30
0.0
 10
178.8907171861801
 20
29.30501572618069
 30
0.0
 10
178.2623317696705
 20
29.47795951954024
 30
0.0
 10
178.2623317696705
 20
29.47795951954024
 30
0.0
 10
178.5944389744486
 20
30.27239853843885
 30
0.0
 10
178.5944389744486
 20
30.27239853843885
 30
0.0
 10
179.0574598076662
 20
30.178002922143
 30
0.0
 10
179.8112466998389
 20
29.94098035275781
 30
0.0
 10
180.3755533403228
 20
29.63229979727943
 30
0.0
 10
180.3755533403228
 20
29.63229979727943
 30
0.0
 10
180.0131292952745
 20
28.78342826971387
 30
0.0
 10
180.0131292952745
 20
28.78342826971387
 30
0.0
  0
SPLINE
  5
FF
330
D4
100
AcDbEntity
  8
\U+30EC\U+30A4\U+30E4\U+30FC 1
370
     0
100
AcDbSpline
210
0.0
220
0.0
230
1.0
 70
    11
 71
     3
 72
    17
 73
    13
 74
     0
 42
0.0000000001
 43
0.0000000001
 40
0.0
 40
0.0
 40
0.0
 40
0.0
 40
1.0
 40
1.0
 40
1.0
 40
2.0
 40
2.0
 40
2.0
 40
3.0
 40
3.0
 40
3.0
 40
4.0
 40
4.0
 40
4.0
 40
4.0
 10
178.5765244779253
 20
27.65481498874602
 30
0.0
 10
180.4458332882219
 20
27.82224662932916
 30
0.0
 10
181.7522134962286
 20
28.16537813966005
 30
0.0
 10
182.5597438779712
 20
30.87253417196937
 30
0.0
 10
182.5597438779712
 20
30.87253417196937
 30
0.0
 10
183.4554687041361
 20
30.44534233179839
 30
0.0
 10
183.4554687041361
 20
30.44534233179839
 30
0.0
 10
182.4942870637514
 20
27.59004719362332
 30
0.0
 10
181.0335665780055
 20
26.9017171156704
 30
0.0
 10
178.8369736966102
 20
26.63437770601502
 30
0.0
 10
178.8369736966102
 20
26.63437770601502
 30
0.0
 10
178.5765244779253
 20
27.65481498874602
 30
0.0
 10
178.5765244779253
 20
27.65481498874602
 30
0.0
  0
HATCH
  5
100
330
D4
100
AcDbEntity
  8
\U+30EC\U+30A4\U+30E4\U+30FC 1
 62
    29
100
AcDbHatch
 10
0.0
 20
0.0
 30
0.0
210
0.0
220
0.0
230
1.0
  2
SOLID
 70
     1
 71
     0
 91
        3
 92
        1
 93
        1
 72
     4
 94
        3
 73
     0
 74
     1
 95
       17
 96
       13
 40
0.0
 40
0.0
 40
0.0
 40
0.0
 40
1.0
 40
1.0
 40
1.0
 40
2.0
 40
2.0
 40
2.0
 40
3.0
 40
3.0
 40
3.0
 40
4.0
 40
4.0
 40
4.0
 40
4.0
 10
178.5765244779253
 20
27.65481498874602
 10
180.4458332882219
 20
27.82224662932916
 10
181.7522134962286
 20
28.16537813966005
 10
182.5597438779712
 20
30.87253417196937
 10
182.5597438779712
 20
30.87253417196937
 10
183.4554687041361
 20
30.44534233179839
 10
183.4554687041361
 20
30.44534233179839
 10
182.4942870637514
 20
27.59004719362332
 10
181.0335665780055
 20
26.9017171156704
 10
178.8369736966102
 20
26.63437770601502
 10
178.8369736966102
 20
26.63437770601502
 10
178.5765244779253
 20
27.65481498874602
 10
178.5765244779253
 20
27.65481498874602
 97
        0
 92
        1
 93
        2
 72
     4
 94
        3
 73
     0
 74
     0
 95
       17
 96
       13
 40
0.0
 40
0.0
 40
0.0
 40
0.0
 40
0.3527777776895833
 40
0.3527777776895833
 40
0.3527777776895833
 40
0.7055555553791667
 40
0.7055555553791667
 40
0.7055555553791667
 40
1.05833333306875
 40
1.05833333306875
 40
1.05833333306875
 40
1.411111110758333
 40
1.411111110758333
 40
1.411111110758333
 40
1.411111110758333
 10
180.5354057708384
 20
30.21314289609255
 10
179.9593858057046
 20
30.51079914601814
 10
179.3427137138449
 20
30.71199272235673
 10
178.7191514310147
 20
30.86633300009592
 10
178.7191514310147
 20
30.86633300009592
 10
179.0574598076662
 20
31.65525986621813
 10
179.0574598076662
 20
31.65525986621813
 10
179.6210774290531
 20
31.54915092527244
 10
180.3335231754027
 20
31.33555500518695
 10
180.9095431405365
 20
31.05650227088171
 10
180.9095431405365
 20
31.05650227088171
 10
180.5354057708384
 20
30.21314289609255
 10
180.5354057708384
 20
30.21314289609255
 72
     1
 10
180.5354057708384
 20
30.21314289609255
 11
180.5354057708384
 21
30.21314289609255
 97
        0
 92
        1
 93
        2
 72
     4
 94
        3
 73
     0
 74
     0
 95
       17
 96
       13
 40
0.0
 40
0.0
 40
0.0
 40
0.0
 40
0.3527777776895833
 40
0.3527777776895833
 40
0.3527777776895833
 40
0.7055555553791667
 40
0.7055555553791667
 40
0.7055555553791667
 40
1.05833333306875
 40
1.05833333306875
 40
1.05833333306875
 40
1.411111110758333
 40
1.411111110758333
 40
1.411111110758333
 40
1.411111110758333
 10
180.0131292952745
 20
28.78342826971387
 10
179.5025661443605
 20
29.0679931567955
 10
178.8907171861801
 20
29.30501572618069
 10
178.2623317696705
 20
29.47795951954024
 10
178.2623317696705
 20
29.47795951954024
 10
178.5944389744486
 20
30.27239853843885
 10
178.5944389744486
 20
30.27239853843885
 10
179.0574598076662
 20
30.178002922143
 10
179.8112466998389
 20
29.94098035275781
 10
180.3755533403228
 20
29.63229979727943
 10
180.3755533403228
 20
29.63229979727943
 10
180.0131292952745
 20
28.78342826971387
 10
180.0131292952745
 20
28.78342826971387
 72
     1
 10
180.0131292952745
 20
28.78342826971387
 11
180.0131292952745
 21
28.78342826971387
 97
        0
 75
     2
 76
     1
 98
        0
  0
POLYLINE
  5
101
330
D4
100
AcDbEntity
  8
\U+30EC\U+30A4\U+30E4\U+30FC 1
370
     0
100
AcDb2dPolyline
 66
     1
 10
0.0
 20
0.0
 30
0.0
  0
VERTEX
  5
102
330
101
100
AcDbEntity
  8
\U+30EC\U+30A4\U+30E4\U+30FC 1
370
     0
100
AcDbVertex
100
AcDb2dVertex
 10
187.6943141891875
 20
30.59348143766413
 30
0.0
  0
VERTEX
  5
103
330
101
100
AcDbEntity
  8
\U+30EC\U+30A4\U+30E4\U+30FC 1
370
     0
100
AcDbVertex
100
AcDb2dVertex
 10
187.6943141891875
 20
26.73566351328136
 30
0.0
  0
VERTEX
  5
104
330
101
100
AcDbEntity
  8
\U+30EC\U+30A4\U+30E4\U+30FC 1
370
     0
100
AcDbVertex
100
AcDb2dVertex
 10
184.0611164904431
 20
26.73566351328136
 30
0.0
  0
VERTEX
  5
105
330
101
100
AcDbEntity
  8
\U+30EC\U+30A4\U+30E4\U+30FC 1
370
     0
100
AcDbVertex
100
AcDb2dVertex
 10
184.0611164904431
 20
27.55490721967378
 30
0.0
  0
VERTEX
  5
106
330
101
100
AcDbEntity
  8
\U+30EC\U+30A4\U+30E4\U+30FC 1
370
     0
100
AcDbVertex
100
AcDb2dVertex
 10
186.791010152955
 20
27.55490721967378
 30
0.0
  0
VERTEX
  5
107
330
101
100
AcDbEntity
  8
\U+30EC\U+30A4\U+30E4\U+30FC 1
370
     0
100
AcDbVertex
100
AcDb2dVertex
 10
186.791010152955
 20
28.30249293997299
 30
0.0
  0
VERTEX
  5
108
330
101
100
AcDbEntity
  8
\U+30EC\U+30A4\U+30E4\U+30FC 1
370
     0
100
AcDbVertex
100
AcDb2dVertex
 10
184.2154567681823
 20
28.30249293997299
 30
0.0
  0
VERTEX
  5
109
330
101
100
AcDbEntity
  8
\U+30EC\U+30A4\U+30E4\U+30FC 1
370
     0
100
AcDbVertex
100
AcDb2dVertex
 10
184.2154567681823
 20
29.0859076533188
 30
0.0
  0
VERTEX
  5
10A
330
101
100
AcDbEntity
  8
\U+30EC\U+30A4\U+30E4\U+30FC 1
370
     0
100
AcDbVertex
100
AcDb2dVertex
 10
186.791010152955
 20
29.0859076533188
 30
0.0
  0
VERTEX
  5
10B
330
101
100
AcDbEntity
  8
\U+30EC\U+30A4\U+30E4\U+30FC 1
370
     0
100
AcDbVertex
100
AcDb2dVertex
 10
186.791010152955
 20
29.79284124689207
 30
0.0
  0
VERTEX
  5
10C
330
101
100
AcDbEntity
  8
\U+30EC\U+30A4\U+30E4\U+30FC 1
370
     0
100
AcDbVertex
100
AcDb2dVertex
 10
184.1203721327894
 20
29.79284124689207
 30
0.0
  0
VERTEX
  5
10D
330
101
100
AcDbEntity
  8
\U+30EC\U+30A4\U+30E4\U+30FC 1
370
     0
100
AcDbVertex
100
AcDb2dVertex
 10
184.1203721327894
 20
30.59348143766413
 30
0.0
  0
VERTEX
  5
10E
330
101
100
AcDbEntity
  8
\U+30EC\U+30A4\U+30E4\U+30FC 1
370
     0
100
AcDbVertex
100
AcDb2dVertex
 10
187.6943141891875
 20
30.59348143766413
 30
0.0
  0
SEQEND
  5
10F
330
101
100
AcDbEntity
  8
\U+30EC\U+30A4\U+30E4\U+30FC 1
370
     0
  0
HATCH
  5
110
330
D4
100
AcDbEntity
  8
\U+30EC\U+30A4\U+30E4\U+30FC 1
 62
    29
100
AcDbHatch
 10
0.0
 20
0.0
 30
0.0
210
0.0
220
0.0
230
1.0
  2
SOLID
 70
     1
 71
     0
 91
        1
 92
        1
 93
       12
 72
     1
 10
187.6943141891875
 20
30.59348143766413
 11
187.6943141891875
 21
26.73566351328136
 72
     1
 10
187.6943141891875
 20
26.73566351328136
 11
184.0611164904431
 21
26.73566351328136
 72
     1
 10
184.0611164904431
 20
26.73566351328136
 11
184.0611164904431
 21
27.55490721967378
 72
     1
 10
184.0611164904431
 20
27.55490721967378
 11
186.791010152955
 21
27.55490721967378
 72
     1
 10
186.791010152955
 20
27.55490721967378
 11
186.791010152955
 21
28.30249293997299
 72
     1
 10
186.791010152955
 20
28.30249293997299
 11
184.2154567681823
 21
28.30249293997299
 72
     1
 10
184.2154567681823
 20
28.30249293997299
 11
184.2154567681823
 21
29.0859076533188
 72
     1
 10
184.2154567681823
 20
29.0859076533188
 11
186.791010152955
 21
29.0859076533188
 72
     1
 10
186.791010152955
 20
29.0859076533188
 11
186.791010152955
 21
29.79284124689207
 72
     1
 10
186.791010152955
 20
29.79284124689207
 11
184.1203721327894
 21
29.79284124689207
 72
     1
 10
184.1203721327894
 20
29.79284124689207
 11
184.1203721327894
 21
30.59348143766413
 72
     1
 10
184.1203721327894
 20
30.59348143766413
 11
187.6943141891875
 21
30.59348143766413
 97
        0
 75
     2
 76
     1
 98
        0
  0
POLYLINE
  5
111
330
D4
100
AcDbEntity
  8
\U+30EC\U+30A4\U+30E4\U+30FC 1
 62
    29
370
    70
100
AcDb2dPolyline
 66
     1
 10
0.0
 20
0.0
 30
0.0
  0
VERTEX
  5
112
330
111
100
AcDbEntity
  8
\U+30EC\U+30A4\U+30E4\U+30FC 1
 62
    29
370
    70
100
AcDbVertex
100
AcDb2dVertex
 10
188.5421521881075
 20
29.18684895103662
 30
0.0
  0
VERTEX
  5
113
330
111
100
AcDbEntity
  8
\U+30EC\U+30A4\U+30E4\U+30FC 1
 62
    29
370
    70
100
AcDbVertex
100
AcDb2dVertex
 10
192.9460177469024
 20
29.18684895103662
 30
0.0
  0
SEQEND
  5
114
330
111
100
AcDbEntity
  8
\U+30EC\U+30A4\U+30E4\U+30FC 1
370
    70
  0
POLYLINE
  5
115
330
D4
100
AcDbEntity
  8
\U+30EC\U+30A4\U+30E4\U+30FC 1
370
     0
100
AcDb2dPolyline
 66
     1
 10
0.0
 20
0.0
 30
0.0
  0
VERTEX
  5
116
330
115
100
AcDbEntity
  8
\U+30EC\U+30A4\U+30E4\U+30FC 1
370
     0
100
AcDbVertex
100
AcDb2dVertex
 10
0.0
 20
297.0001314904201
 30
0.0
  0
VERTEX
  5
117
330
115
100
AcDbEntity
  8
\U+30EC\U+30A4\U+30E4\U+30FC 1
370
     0
100
AcDbVertex
100
AcDb2dVertex
 10
209.9999294179862
 20
297.0001314904201
 30
0.0
  0
VERTEX
  5
118
330
115
100
AcDbEntity
  8
\U+30EC\U+30A4\U+30E4\U+30FC 1
370
     0
100
AcDbVertex
100
AcDb2dVertex
 10
209.9999294179862
 20
0.0
 30
0.0
  0
VERTEX
  5
119
330
115
100
AcDbEntity
  8
\U+30EC\U+30A4\U+30E4\U+30FC 1
370
     0
100
AcDbVertex
100
AcDb2dVertex
 10
0.0
 20
0.0
 30
0.0
  0
VERTEX
  5
11A
330
115
100
AcDbEntity
  8
\U+30EC\U+30A4\U+30E4\U+30FC 1
370
     0
100
AcDbVertex
100
AcDb2dVertex
 10
0.0
 20
297.0001314904201
 30
0.0
  0
SEQEND
  5
11B
330
115
100
AcDbEntity
  8
\U+30EC\U+30A4\U+30E4\U+30FC 1
370
     0
  0
ENDBLK
  5
D7
330
D4
100
AcDbEntity
  8
0
100
AcDbBlockEnd
  0
BLOCK
  5
142
330
140
100
AcDbEntity
  8
0
100
AcDbBlockBegin
  2
block 5
 70
     0
 71
     0
 10
0.0
 20
0.0
 30
0.0
  3
block 5
  1

  0
INSERT
  5
145
330
140
100
AcDbEntity
  8
\U+30EC\U+30A4\U+30E4\U+30FC 1
100
AcDbBlockReference
  2
block 6
 10
0.0
 20
0.0
 30
0.0
  0
SPLINE
  5
161
330
140
100
AcDbEntity
  8
\U+30EC\U+30A4\U+30E4\U+30FC 1
 62
    29
370
    25
100
AcDbSpline
210
0.0
220
0.0
230
1.0
 70
    11
 71
     3
 72
    17
 73
    13
 74
     0
 42
0.0000000001
 43
0.0000000001
 40
0.0
 40
0.0
 40
0.0
 40
0.0
 40
1.0
 40
1.0
 40
1.0
 40
2.0
 40
2.0
 40
2.0
 40
3.0
 40
3.0
 40
3.0
 40
4.0
 40
4.0
 40
4.0
 40
4.0
 10
147.4611110742458
 20
258.1944036897917
 30
0.0
 10
147.4611110742458
 20
250.5959010875247
 30
0.0
 10
141.3012803466191
 20
244.4360703598979
 30
0.0
 10
133.7027777443521
 20
244.4360703598979
 30
0.0
 10
126.104275142085
 20
244.4360703598979
 30
0.0
 10
119.9444444144583
 20
250.5959010875247
 30
0.0
 10
119.9444444144583
 20
258.1944036897917
 30
0.0
 10
119.9444444144583
 20
265.7929062920587
 30
0.0
 10
126.104275142085
 20
271.9527370196855
 30
0.0
 10
133.7027777443521
 20
271.9527370196855
 30
0.0
 10
141.3012803466191
 20
271.9527370196855
 30
0.0
 10
147.4611110742458
 20
265.7929062920587
 30
0.0
 10
147.4611110742458
 20
258.1944036897917
 30
0.0
  0
ENDBLK
  5
143
330
140
100
AcDbEntity
  8
0
100
AcDbBlockEnd
  0
BLOCK
  5
146
330
144
100
AcDbEntity
  8
0
100
AcDbBlockBegin
  2
block 6
 70
     0
 71
     0
 10
0.0
 20
0.0
 30
0.0
  3
block 6
  1

  0
POLYLINE
  5
148
330
144
100
AcDbEntity
  8
\U+30EC\U+30A4\U+30E4\U+30FC 1
 62
    29
370
    35
100
AcDb2dPolyline
 66
     1
 10
0.0
 20
0.0
 30
0.0
  0
VERTEX
  5
149
330
148
100
AcDbEntity
  8
\U+30EC\U+30A4\U+30E4\U+30FC 1
 62
    29
370
    35
100
AcDbVertex
100
AcDb2dVertex
 10
126.9696831279798
 20
246.1207220521851
 30
0.0
  0
VERTEX
  5
14A
330
148
100
AcDbEntity
  8
\U+30EC\U+30A4\U+30E4\U+30FC 1
 62
    29
370
    35
100
AcDbVertex
100
AcDb2dVertex
 10
126.9576252937814
 20
267.9867430970658
 30
0.0
  0
SEQEND
  5
14B
330
148
100
AcDbEntity
  8
\U+30EC\U+30A4\U+30E4\U+30FC 1
370
    35
  0
POLYLINE
  5
14C
330
144
100
AcDbEntity
  8
\U+30EC\U+30A4\U+30E4\U+30FC 1
 62
    29
370
    35
100
AcDb2dPolyline
 66
     1
 10
0.0
 20
0.0
 30
0.0
  0
VERTEX
  5
14D
330
14C
100
AcDbEntity
  8
\U+30EC\U+30A4\U+30E4\U+30FC 1
 62
    29
370
    35
100
AcDbVertex
100
AcDb2dVertex
 10
141.0980197129894
 20
256.0358791135084
 30
0.0
  0
VERTEX
  5
14E
330
14C
100
AcDbEntity
  8
\U+30EC\U+30A4\U+30E4\U+30FC 1
 62
    29
370
    35
100
AcDbVertex
100
AcDb2dVertex
 10
141.0949191270527
 20
246.5887382738563
 30
0.0
  0
SEQEND
  5
14F
330
14C
100
AcDbEntity
  8
\U+30EC\U+30A4\U+30E4\U+30FC 1
370
    35
  0
SPLINE
  5
150
330
144
100
AcDbEntity
  8
\U+30EC\U+30A4\U+30E4\U+30FC 1
 62
    29
370
    18
100
AcDbSpline
210
0.0
220
0.0
230
1.0
 70
    11
 71
     3
 72
    17
 73
    13
 74
     0
 42
0.0000000001
 43
0.0000000001
 40
0.0
 40
0.0
 40
0.0
 40
0.0
 40
1.0
 40
1.0
 40
1.0
 40
2.0
 40
2.0
 40
2.0
 40
3.0
 40
3.0
 40
3.0
 40
4.0
 40
4.0
 40
4.0
 40
4.0
 10
138.7298610764286
 20
254.5047064250891
 30
0.0
 10
138.7298610764286
 20
254.2728514989318
 30
0.0
 10
138.8466498133786
 20
254.1054198583487
 30
0.0
 10
138.9903102951135
 20
254.1309135649395
 30
0.0
 10
139.134315286397
 20
254.1562350167561
 30
0.0
 10
139.251104023347
 20
254.3646632936137
 30
0.0
 10
139.251104023347
 20
254.5966904745453
 30
0.0
 10
139.251104023347
 20
254.8288899102511
 30
0.0
 10
139.134315286397
 20
254.99614929606
 30
0.0
 10
138.9903102951135
 20
254.9708278442434
 30
0.0
 10
138.8466498133786
 20
254.9455063924268
 30
0.0
 10
138.7298610764286
 20
254.7367336060207
 30
0.0
 10
138.7298610764286
 20
254.5047064250891
 30
0.0
  0
SPLINE
  5
151
330
144
100
AcDbEntity
  8
\U+30EC\U+30A4\U+30E4\U+30FC 1
 62
    29
370
    25
100
AcDbSpline
210
0.0
220
0.0
230
1.0
 70
    11
 71
     3
 72
    17
 73
    13
 74
     0
 42
0.0000000001
 43
0.0000000001
 40
0.0
 40
0.0
 40
0.0
 40
0.0
 40
1.0
 40
1.0
 40
1.0
 40
2.0
 40
2.0
 40
2.0
 40
3.0
 40
3.0
 40
3.0
 40
4.0
 40
4.0
 40
4.0
 40
4.0
 10
138.7794704514162
 20
254.5513874689142
 30
0.0
 10
138.7794704514162
 20
254.3851616117509
 30
0.0
 10
138.8628417621593
 20
254.2656167984128
 30
0.0
 10
138.9661946267168
 20
254.2835312949361
 30
0.0
 10
139.0692029817258
 20
254.3017903010079
 30
0.0
 10
139.1525742924688
 20
254.4509629355192
 30
0.0
 10
139.1525742924688
 20
254.6171887926825
 30
0.0
 10
139.1525742924688
 20
254.7830701402973
 30
0.0
 10
139.0692029817258
 20
254.902959463184
 30
0.0
 10
138.9661946267168
 20
254.8847004571122
 30
0.0
 10
138.8628417621593
 20
254.8666137058146
 30
0.0
 10
138.7794704514162
 20
254.717268816529
 30
0.0
 10
138.7794704514162
 20
254.5513874689142
 30
0.0
  0
POLYLINE
  5
152
330
144
100
AcDbEntity
  8
\U+30EC\U+30A4\U+30E4\U+30FC 1
 62
    29
370
    25
100
AcDb2dPolyline
 66
     1
 10
0.0
 20
0.0
 30
0.0
  0
VERTEX
  5
153
330
152
100
AcDbEntity
  8
\U+30EC\U+30A4\U+30E4\U+30FC 1
 62
    29
370
    25
100
AcDbVertex
100
AcDb2dVertex
 10
136.6121608816456
 20
255.3776936210514
 30
0.0
  0
VERTEX
  5
154
330
152
100
AcDbEntity
  8
\U+30EC\U+30A4\U+30E4\U+30FC 1
 62
    29
370
    25
100
AcDbVertex
100
AcDb2dVertex
 10
136.6094048052574
 20
244.7635266857709
 30
0.0
  0
SEQEND
  5
155
330
152
100
AcDbEntity
  8
\U+30EC\U+30A4\U+30E4\U+30FC 1
370
    25
  0
SPLINE
  5
156
330
144
100
AcDbEntity
  8
\U+30EC\U+30A4\U+30E4\U+30FC 1
 62
    29
370
    25
100
AcDbSpline
210
0.0
220
0.0
230
1.0
 70
     8
 71
     3
 72
    44
 73
    40
 74
     0
 42
0.0000000001
 43
0.0000000001
 40
0.0
 40
0.0
 40
0.0
 40
0.0
 40
1.0
 40
1.0
 40
1.0
 40
2.0
 40
2.0
 40
2.0
 40
3.0
 40
3.0
 40
3.0
 40
4.0
 40
4.0
 40
4.0
 40
5.0
 40
5.0
 40
5.0
 40
6.0
 40
6.0
 40
6.0
 40
7.0
 40
7.0
 40
7.0
 40
8.0
 40
8.0
 40
8.0
 40
9.0
 40
9.0
 40
9.0
 40
10.0
 40
10.0
 40
10.0
 40
11.0
 40
11.0
 40
11.0
 40
12.0
 40
12.0
 40
12.0
 40
13.0
 40
13.0
 40
13.0
 40
13.0
 10
132.1772894634835
 20
268.419963854336
 30
0.0
 10
132.1772894634835
 20
268.419963854336
 30
0.0
 10
141.0094807590185
 20
267.6005478931693
 30
0.0
 10
141.0094807590185
 20
267.6005478931693
 30
0.0
 10
141.0094807590185
 20
267.6005478931693
 30
0.0
 10
141.1321261582934
 20
267.5697142885763
 30
0.0
 10
141.2154974690364
 20
267.4732516149894
 30
0.0
 10
141.2954236842942
 20
267.3809230559846
 30
0.0
 10
141.2892225124208
 20
267.1966104475238
 30
0.0
 10
141.2892225124208
 20
267.1966104475238
 30
0.0
 10
141.2892225124208
 20
267.1966104475238
 30
0.0
 10
141.2892225124208
 20
261.966610991366
 30
0.0
 10
141.2892225124208
 20
261.966610991366
 30
0.0
 10
141.2892225124208
 20
261.966610991366
 30
0.0
 10
141.2892225124208
 20
256.1585245127833
 30
0.0
 10
141.2892225124208
 20
256.1585245127833
 30
0.0
 10
141.2892225124208
 20
256.1397487423887
 30
0.0
 10
141.2857774169355
 20
256.1015081825024
 30
0.0
 10
141.2506374429859
 20
256.0884168196584
 30
0.0
 10
141.2506374429859
 20
256.0884168196584
 30
0.0
 10
136.604581671578
 20
255.3776936210514
 30
0.0
 10
136.604581671578
 20
255.3776936210514
 30
0.0
 10
136.5880452132488
 20
255.3776936210514
 30
0.0
 10
136.5067409597969
 20
255.3556450099458
 30
0.0
 10
136.5067409597969
 20
255.4698499252819
 30
0.0
 10
136.5067409597969
 20
255.4698499252819
 30
0.0
 10
136.5067409597969
 20
261.966610991366
 30
0.0
 10
136.5067409597969
 20
261.966610991366
 30
0.0
 10
136.5067409597969
 20
261.966610991366
 30
0.0
 10
136.5067409597969
 20
266.6352321382023
 30
0.0
 10
136.5067409597969
 20
266.6352321382023
 30
0.0
 10
136.5067409597969
 20
266.6352321382023
 30
0.0
 10
136.4988172401809
 20
266.8229898421484
 30
0.0
 10
136.3933973183322
 20
266.941501126841
 30
0.0
 10
136.2924560206144
 20
267.05501702308
 30
0.0
 10
136.1608533730779
 20
267.082577786962
 30
0.0
 10
136.1608533730779
 20
267.082577786962
 30
0.0
 10
136.1608533730779
 20
267.082577786962
 30
0.0
 10
127.2197970602089
 20
268.0646022550325
 30
0.0
 10
127.2197970602089
 20
268.0646022550325
 30
0.0
  0
SPLINE
  5
157
330
144
100
AcDbEntity
  8
\U+30EC\U+30A4\U+30E4\U+30FC 1
 62
    29
370
    25
100
AcDbSpline
210
0.0
220
0.0
230
1.0
 70
    11
 71
     3
 72
    17
 73
    13
 74
     0
 42
0.0000000001
 43
0.0000000001
 40
0.0
 40
0.0
 40
0.0
 40
0.0
 40
1.0
 40
1.0
 40
1.0
 40
2.0
 40
2.0
 40
2.0
 40
3.0
 40
3.0
 40
3.0
 40
4.0
 40
4.0
 40
4.0
 40
4.0
 10
137.6467230558661
 20
257.5098632168725
 30
0.0
 10
137.8858126825425
 20
257.5098632168725
 30
0.0
 10
140.1309814102798
 20
257.8958861659948
 30
0.0
 10
140.3369981202977
 20
257.8958861659948
 30
0.0
 10
140.3369981202977
 20
257.8958861659948
 30
0.0
 10
140.3369981202977
 20
265.4239365655885
 30
0.0
 10
140.3369981202977
 20
265.4239365655885
 30
0.0
 10
140.0806830161951
 20
265.3980983494491
 30
0.0
 10
137.93542205753
 20
265.1230074749519
 30
0.0
 10
137.6467230558661
 20
265.0966524944897
 30
0.0
 10
137.6467230558661
 20
265.0966524944897
 30
0.0
 10
137.6467230558661
 20
257.5098632168725
 30
0.0
 10
137.6467230558661
 20
257.5098632168725
 30
0.0
  0
SPLINE
  5
158
330
144
100
AcDbEntity
  8
\U+30EC\U+30A4\U+30E4\U+30FC 1
 62
    29
370
    25
100
AcDbSpline
210
0.0
220
0.0
230
1.0
 70
     8
 71
     3
 72
    20
 73
    16
 74
     0
 42
0.0000000001
 43
0.0000000001
 40
0.0
 40
0.0
 40
0.0
 40
0.0
 40
1.0
 40
1.0
 40
1.0
 40
2.0
 40
2.0
 40
2.0
 40
3.0
 40
3.0
 40
3.0
 40
4.0
 40
4.0
 40
4.0
 40
5.0
 40
5.0
 40
5.0
 40
5.0
 10
136.411656324404
 20
255.4390163206889
 30
0.0
 10
136.411656324404
 20
255.4390163206889
 30
0.0
 10
136.3765163504545
 20
266.6176621512275
 30
0.0
 10
136.3765163504545
 20
266.6176621512275
 30
0.0
 10
136.3765163504545
 20
266.6176621512275
 30
0.0
 10
136.3627359685135
 20
266.9194525157354
 30
0.0
 10
136.0254611205075
 20
266.9687173811745
 30
0.0
 10
135.8518283080509
 20
266.9940388329911
 30
0.0
 10
127.2769856452641
 20
268.0077581795259
 30
0.0
 10
127.0055121210264
 20
268.0391085484416
 30
0.0
 10
126.7853705195189
 20
268.0646022550325
 30
0.0
 10
126.7774467999029
 20
267.8813231752172
 30
0.0
 10
126.7774467999029
 20
267.8813231752172
 30
0.0
 10
126.7774467999029
 20
267.8813231752172
 30
0.0
 10
126.7946722773291
 20
257.0887002938007
 30
0.0
 10
126.7946722773291
 20
257.0887002938007
 30
0.0
  0
POLYLINE
  5
159
330
144
100
AcDbEntity
  8
\U+30EC\U+30A4\U+30E4\U+30FC 1
 62
    29
370
    25
100
AcDb2dPolyline
 66
     1
 10
0.0
 20
0.0
 30
0.0
  0
VERTEX
  5
15A
330
159
100
AcDbEntity
  8
\U+30EC\U+30A4\U+30E4\U+30FC 1
 62
    29
370
    25
100
AcDbVertex
100
AcDb2dVertex
 10
132.1772894634835
 20
268.419963854336
 30
0.0
  0
VERTEX
  5
15B
330
159
100
AcDbEntity
  8
\U+30EC\U+30A4\U+30E4\U+30FC 1
 62
    29
370
    25
100
AcDbVertex
100
AcDb2dVertex
 10
127.0003444777985
 20
268.0513386374142
 30
0.0
  0
SEQEND
  5
15C
330
159
100
AcDbEntity
  8
\U+30EC\U+30A4\U+30E4\U+30FC 1
370
    25
  0
POLYLINE
  5
15D
330
144
100
AcDbEntity
  8
\U+30EC\U+30A4\U+30E4\U+30FC 1
 62
    29
370
     9
100
AcDb2dPolyline
 66
     1
 10
0.0
 20
0.0
 30
0.0
  0
VERTEX
  5
15E
330
15D
100
AcDbEntity
  8
\U+30EC\U+30A4\U+30E4\U+30FC 1
 62
    29
370
     9
100
AcDbVertex
100
AcDb2dVertex
 10
140.4245035456231
 20
267.4835869014451
 30
0.0
  0
VERTEX
  5
15F
330
15D
100
AcDbEntity
  8
\U+30EC\U+30A4\U+30E4\U+30FC 1
 62
    29
370
     9
100
AcDbVertex
100
AcDb2dVertex
 10
136.6338649832026
 20
267.1501016584729
 30
0.0
  0
SEQEND
  5
160
330
15D
100
AcDbEntity
  8
\U+30EC\U+30A4\U+30E4\U+30FC 1
370
     9
  0
ENDBLK
  5
147
330
144
100
AcDbEntity
  8
0
100
AcDbBlockEnd
  0
ENDSEC
  0
SECTION
  2
ENTITIES
  0
POLYLINE
  5
3C
330
1F
100
AcDbEntity
  8
\U+30EC\U+30A4\U+30E4\U+30FC 1
 62
    29
370
    35
100
AcDb2dPolyline
 66
     1
 10
0.0
 20
0.0
 30
0.0
  0
VERTEX
  5
3D
330
3C
100
AcDbEntity
  8
\U+30EC\U+30A4\U+30E4\U+30FC 1
 62
    29
370
    35
100
AcDbVertex
100
AcDb2dVertex
 10
-215.5155272898711
 20
288.4156425602746
 30
0.0
  0
VERTEX
  5
3E
330
3C
100
AcDbEntity
  8
\U+30EC\U+30A4\U+30E4\U+30FC 1
 62
    29
370
    35
100
AcDbVertex
100
AcDb2dVertex
 10
-235.9153156962295
 20
284.8689167582099
 30
0.0
  0
VERTEX
  5
3F
330
3C
100
AcDbEntity
  8
\U+30EC\U+30A4\U+30E4\U+30FC 1
 62
    29
370
    35
100
AcDbVertex
100
AcDb2dVertex
 10
-235.89068326351
 20
309.8689411660224
 30
0.0
  0
VERTEX
  5
40
330
3C
100
AcDbEntity
  8
\U+30EC\U+30A4\U+30E4\U+30FC 1
 62
    29
370
    35
100
AcDbVertex
100
AcDb2dVertex
 10
-215.7503105471909
 20
312.1694036762979
 30
0.0
  0
VERTEX
  5
41
330
3C
100
AcDbEntity
  8
\U+30EC\U+30A4\U+30E4\U+30FC 1
 62
    29
370
    35
100
AcDbVertex
100
AcDb2dVertex
 10
-215.5155272898711
 20
288.4156425602746
 30
0.0
  0
SEQEND
  5
42
330
3C
100
AcDbEntity
  8
\U+30EC\U+30A4\U+30E4\U+30FC 1
370
    35
  0
POLYLINE
  5
43
330
1F
100
AcDbEntity
  8
\U+30EC\U+30A4\U+30E4\U+30FC 1
 62
    29
370
    35
100
AcDb2dPolyline
 66
     1
 10
0.0
 20
0.0
 30
0.0
  0
VERTEX
  5
44
330
43
100
AcDbEntity
  8
\U+30EC\U+30A4\U+30E4\U+30FC 1
 62
    29
370
    35
100
AcDbVertex
100
AcDb2dVertex
 10
-235.9029133524826
 20
284.8797688089884
 30
0.0
  0
VERTEX
  5
45
330
43
100
AcDbEntity
  8
\U+30EC\U+30A4\U+30E4\U+30FC 1
 62
    29
370
    35
100
AcDbVertex
100
AcDb2dVertex
 10
-245.5031886864541
 20
286.2989758941371
 30
0.0
  0
VERTEX
  5
46
330
43
100
AcDbEntity
  8
\U+30EC\U+30A4\U+30E4\U+30FC 1
 62
    29
370
    35
100
AcDbVertex
100
AcDb2dVertex
 10
-245.3926011213776
 20
310.6406425547183
 30
0.0
  0
VERTEX
  5
47
330
43
100
AcDbEntity
  8
\U+30EC\U+30A4\U+30E4\U+30FC 1
 62
    29
370
    35
100
AcDbVertex
100
AcDb2dVertex
 10
-235.89068326351
 20
309.8794487072524
 30
0.0
  0
VERTEX
  5
48
330
43
100
AcDbEntity
  8
\U+30EC\U+30A4\U+30E4\U+30FC 1
 62
    29
370
    35
100
AcDbVertex
100
AcDb2dVertex
 10
-235.9029133524826
 20
284.8797688089884
 30
0.0
  0
SEQEND
  5
49
330
43
100
AcDbEntity
  8
\U+30EC\U+30A4\U+30E4\U+30FC 1
370
    35
  0
POLYLINE
  5
4A
330
1F
100
AcDbEntity
  8
\U+30EC\U+30A4\U+30E4\U+30FC 1
 62
    29
370
    35
100
AcDb2dPolyline
 66
     1
 10
0.0
 20
0.0
 30
0.0
  0
VERTEX
  5
4B
330
4A
100
AcDbEntity
  8
\U+30EC\U+30A4\U+30E4\U+30FC 1
 62
    29
370
    35
100
AcDbVertex
100
AcDb2dVertex
 10
-245.3423027272929
 20
310.6406425547183
 30
0.0
  0
VERTEX
  5
4C
330
4A
100
AcDbEntity
  8
\U+30EC\U+30A4\U+30E4\U+30FC 1
 62
    29
370
    35
100
AcDbVertex
100
AcDb2dVertex
 10
-224.5651041105254
 20
312.6985703428323
 30
0.0
  0
VERTEX
  5
4D
330
4A
100
AcDbEntity
  8
\U+30EC\U+30A4\U+30E4\U+30FC 1
 62
    29
370
    35
100
AcDbVertex
100
AcDb2dVertex
 10
-215.7503105471909
 20
312.1694036762979
 30
0.0
  0
SEQEND
  5
4E
330
4A
100
AcDbEntity
  8
\U+30EC\U+30A4\U+30E4\U+30FC 1
370
    35
  0
INSERT
  5
50
330
1F
100
AcDbEntity
  8
\U+30EC\U+30A4\U+30E4\U+30FC 1
100
AcDbBlockReference
  2
block 2
 10
0.0
 20
0.0
 30
0.0
  0
ENDSEC
  0
SECTION
  2
OBJECTS
  0
DICTIONARY
  5
C
330
0
100
AcDbDictionary
281
     1
  3
ACAD_GROUP
350
D
  3
ACAD_LAYOUT
350
1A
  3
ACAD_MLINESTYLE
350
17
  3
ACAD_PLOTSETTINGS
350
19
  3
ACAD_PLOTSTYLENAME
350
E
  3
ACAD_TABLESTYLE
350
162
  3
ACAD_VISUALSTYLE
350
2A
  0
DICTIONARY
  5
D
102
{ACAD_REACTORS
330
C
102
}
330
C
100
AcDbDictionary
281
     1
  0
DICTIONARY
  5
1A
102
{ACAD_REACTORS
330
C
102
}
330
C
100
AcDbDictionary
281
     1
  3
Layout1
350
1E
  3
Layout2
350
26
  3
Model
350
22
  0
DICTIONARY
  5
17
102
{ACAD_REACTORS
330
C
102
}
330
C
100
AcDbDictionary
281
     1
  3
Standard
350
18
  0
DICTIONARY
  5
19
102
{ACAD_REACTORS
330
C
102
}
330
C
100
AcDbDictionary
281
     1
  0
ACDBDICTIONARYWDFLT
  5
E
102
{ACAD_REACTORS
330
C
102
}
330
C
100
AcDbDictionary
281
     1
  3
Normal
350
F
100
AcDbDictionaryWithDefault
340
F
  0
DICTIONARY
  5
162
102
{ACAD_REACTORS
330
C
102
}
330
C
100
AcDbDictionary
281
     1
  0
DICTIONARY
  5
2A
102
{ACAD_REACTORS
330
C
102
}
330
C
100
AcDbDictionary
281
     1
  3
2dWireframe
350
2F
  3
3D Hidden
350
31
  3
3dWireframe
350
30
  3
Basic
350
32
  3
Brighten
350
36
  3
ColorChange
350
3A
  3
Conceptual
350
34
  3
Dim
350
35
  3
Facepattern
350
39
  3
Flat
350
2B
  3
FlatWithEdges
350
2C
  3
Gouraud
350
2D
  3
GouraudWithEdges
350
2E
  3
Linepattern
350
38
  3
Realistic
350
33
  3
Thicken
350
37
  0
LAYOUT
  5
1E
102
{ACAD_REACTORS
330
1A
102
}
330
1A
100
AcDbPlotSettings
  1

  2
none_device
  4

  6

 40
0.0
 41
0.0
 42
0.0
 43
0.0
 44
0.0
 45
0.0
 46
0.0
 47
0.0
 48
0.0
 49
0.0
140
0.0
141
0.0
142
1.0
143
1.0
 70
   688
 72
     0
 73
     0
 74
     5
  7

 75
    16
147
1.0
148
0.0
149
0.0
100
AcDbLayout
  1
Layout1
 70
     1
 71
     1
 10
0.0
 20
0.0
 11
12.0
 21
9.0
 12
0.0
 22
0.0
 32
0.0
 14
1.000000000000000E+20
 24
1.000000000000000E+20
 34
1.000000000000000E+20
 15
-1.000000000000000E+20
 25
-1.000000000000000E+20
 35
-1.000000000000000E+20
146
0.0
 13
0.0
 23
0.0
 33
0.0
 16
1.0
 26
0.0
 36
0.0
 17
0.0
 27
1.0
 37
0.0
 76
     0
330
1B
  0
LAYOUT
  5
26
102
{ACAD_REACTORS
330
1A
102
}
330
1A
100
AcDbPlotSettings
  1

  2
none_device
  4

  6

 40
0.0
 41
0.0
 42
0.0
 43
0.0
 44
0.0
 45
0.0
 46
0.0
 47
0.0
 48
0.0
 49
0.0
140
0.0
141
0.0
142
1.0
143
1.0
 70
   688
 72
     0
 73
     0
 74
     5
  7

 75
    16
147
1.0
148
0.0
149
0.0
100
AcDbLayout
  1
Layout2
 70
     1
 71
     2
 10
0.0
 20
0.0
 11
0.0
 21
0.0
 12
0.0
 22
0.0
 32
0.0
 14
0.0
 24
0.0
 34
0.0
 15
0.0
 25
0.0
 35
0.0
146
0.0
 13
0.0
 23
0.0
 33
0.0
 16
1.0
 26
0.0
 36
0.0
 17
0.0
 27
1.0
 37
0.0
 76
     0
330
23
  0
LAYOUT
  5
22
102
{ACAD_REACTORS
330
1A
102
}
330
1A
100
AcDbPlotSettings
  1

  2
none_device
  4

  6

 40
0.0
 41
0.0
 42
0.0
 43
0.0
 44
0.0
 45
0.0
 46
0.0
 47
0.0
 48
0.0
 49
0.0
140
0.0
141
0.0
142
1.0
143
1.0
 70
  1712
 72
     0
 73
     0
 74
     0
  7

 75
     0
147
1.0
148
0.0
149
0.0
100
AcDbLayout
  1
Model
 70
     1
 71
     0
 10
0.0
 20
0.0
 11
12.0
 21
9.0
 12
0.0
 22
0.0
 32
0.0
 14
1.000000000000000E+20
 24
1.000000000000000E+20
 34
1.000000000000000E+20
 15
-1.000000000000000E+20
 25
-1.000000000000000E+20
 35
-1.000000000000000E+20
146
0.0
 13
0.0
 23
0.0
 33
0.0
 16
1.0
 26
0.0
 36
0.0
 17
0.0
 27
1.0
 37
0.0
 76
     0
330
1F
331
29
  0
MLINESTYLE
  5
18
102
{ACAD_REACTORS
330
17
102
}
330
17
100
AcDbMlineStyle
  2
Standard
 70
     0
  3

 62
   256
 51
90.0
 52
90.0
 71
     2
 49
0.5
 62
   256
  6
BYLAYER
 49
-0.5
 62
   256
  6
BYLAYER
  0
ACDBPLACEHOLDER
  5
F
102
{ACAD_REACTORS
330
E
102
}
330
E
  0
VISUALSTYLE
  5
2F
102
{ACAD_REACTORS
330
2A
102
}
330
2A
100
AcDbVisualStyle
  2
2dWireframe
 70
     4
 71
     0
 72
     2
 73
     0
 90
        0
 40
-0.6
 41
-30.0
 62
     5
 63
     7
 74
     1
 91
        4
 64
     7
 65
   257
 75
     1
175
     1
 42
1.0
 92
        0
 66
   257
 43
1.0
 76
     1
 77
     6
 78
     2
 67
     7
 79
     5
170
     0
171
     0
290
     0
174
     0
 93
        1
 44
0.0
173
     0
291
     0
 45
0.0
1001
ACAD
1000
AcDbSavedByObjectVersion
1070
     0
  0
VISUALSTYLE
  5
31
102
{ACAD_REACTORS
330
2A
102
}
330
2A
100
AcDbVisualStyle
  2
3D Hidden
 70
     6
 71
     1
 72
     2
 73
     2
 90
        0
 40
-0.6
 41
-30.0
 62
     5
 63
     7
 74
     2
 91
        2
 64
     7
 65
   257
 75
     2
175
     1
 42
40.0
 92
        0
 66
   257
 43
1.0
 76
     1
 77
     6
 78
     2
 67
     7
 79
     3
170
     0
171
     0
290
     0
174
     0
 93
        1
 44
0.0
173
     0
291
     0
 45
0.0
1001
ACAD
1000
AcDbSavedByObjectVersion
1070
     0
  0
VISUALSTYLE
  5
30
102
{ACAD_REACTORS
330
2A
102
}
330
2A
100
AcDbVisualStyle
  2
3dWireframe
 70
     5
 71
     0
 72
     2
 73
     0
 90
        0
 40
-0.6
 41
-30.0
 62
     5
 63
     7
 74
     1
 91
        4
 64
     7
 65
   257
 75
     1
175
     1
 42
1.0
 92
        0
 66
   257
 43
1.0
 76
     1
 77
     6
 78
     2
 67
     7
 79
     5
170
     0
171
     0
290
     0
174
     0
 93
        1
 44
0.0
173
     0
291
     0
 45
0.0
1001
ACAD
1000
AcDbSavedByObjectVersion
1070
     0
  0
VISUALSTYLE
  5
32
102
{ACAD_REACTORS
330
2A
102
}
330
2A
100
AcDbVisualStyle
  2
Basic
 70
     7
 71
     1
 72
     0
 73
     1
 90
        0
 40
-0.6
 41
-30.0
 62
     5
 63
     7
 74
     0
 91
        4
 64
     7
 65
   257
 75
     1
175
     1
 42
1.0
 92
        8
 66
     7
 43
1.0
 76
     1
 77
     6
 78
     2
 67
     7
 79
     5
170
     0
171
     0
290
     0
174
     0
 93
        1
 44
0.0
173
     0
291
     1
 45
0.0
1001
ACAD
1000
AcDbSavedByObjectVersion
1070
     0
  0
VISUALSTYLE
  5
36
102
{ACAD_REACTORS
330
2A
102
}
330
2A
100
AcDbVisualStyle
  2
Brighten
 70
    12
 71
     2
 72
     2
 73
     0
 90
        0
 40
-0.6
 41
-30.0
 62
     5
 63
     7
 74
     1
 91
        4
 64
     7
 65
   257
 75
     1
175
     1
 42
1.0
 92
        8
 66
     7
 43
1.0
 76
     1
 77
     6
 78
     2
 67
     7
 79
     5
170
     0
171
     0
290
     0
174
     0
 93
        1
 44
50.0
173
     0
291
     1
 45
0.0
1001
ACAD
1000
AcDbSavedByObjectVersion
1070
     0
  0
VISUALSTYLE
  5
3A
102
{ACAD_REACTORS
330
2A
102
}
330
2A
100
AcDbVisualStyle
  2
ColorChange
 70
    16
 71
     2
 72
     2
 73
     3
 90
        0
 40
-0.6
 41
-30.0
 62
     5
 63
     8
 74
     1
 91
        4
 64
     7
 65
   257
 75
     1
175
     1
 42
1.0
 92
        8
 66
     8
 43
1.0
 76
     1
 77
     6
 78
     2
 67
     7
 79
     5
170
     0
171
     0
290
     0
174
     0
 93
        1
 44
0.0
173
     0
291
     1
 45
0.0
1001
ACAD
1000
AcDbSavedByObjectVersion
1070
     0
  0
VISUALSTYLE
  5
34
102
{ACAD_REACTORS
330
2A
102
}
330
2A
100
AcDbVisualStyle
  2
Conceptual
 70
     9
 71
     3
 72
     2
 73
     0
 90
        0
 40
-0.6
 41
-30.0
 62
     5
 63
     7
 74
     2
 91
        2
 64
     7
 65
   257
 75
     1
175
     1
 42
40.0
 92
        8
 66
     7
 43
1.0
 76
     1
 77
     6
 78
     2
 67
     7
 79
     3
170
     0
171
     0
290
     0
174
     0
 93
        1
 44
0.0
173
     0
291
     0
 45
0.0
1001
ACAD
1000
AcDbSavedByObjectVersion
1070
     0
  0
VISUALSTYLE
  5
35
102
{ACAD_REACTORS
330
2A
102
}
330
2A
100
AcDbVisualStyle
  2
Dim
 70
    11
 71
     2
 72
     2
 73
     0
 90
        0
 40
-0.6
 41
-30.0
 62
     5
 63
     7
 74
     1
 91
        4
 64
     7
 65
   257
 75
     1
175
     1
 42
1.0
 92
        8
 66
     7
 43
1.0
 76
     1
 77
     6
 78
     2
 67
     7
 79
     5
170
     0
171
     0
290
     0
174
     0
 93
        1
 44
-50.0
173
     0
291
     1
 45
0.0
1001
ACAD
1000
AcDbSavedByObjectVersion
1070
     0
  0
VISUALSTYLE
  5
39
102
{ACAD_REACTORS
330
2A
102
}
330
2A
100
AcDbVisualStyle
  2
Facepattern
 70
    15
 71
     2
 72
     2
 73
     0
 90
        0
 40
-0.6
 41
-30.0
 62
     5
 63
     7
 74
     1
 91
        4
 64
     7
 65
   257
 75
     1
175
     1
 42
1.0
 92
        8
 66
     7
 43
1.0
 76
     1
 77
     6
 78
     2
 67
     7
 79
     5
170
     0
171
     0
290
     0
174
     0
 93
        1
 44
0.0
173
     0
291
     1
 45
0.0
1001
ACAD
1000
AcDbSavedByObjectVersion
1070
     0
  0
VISUALSTYLE
  5
2B
102
{ACAD_REACTORS
330
2A
102
}
330
2A
100
AcDbVisualStyle
  2
Flat
 70
     0
 71
     2
 72
     1
 73
     1
 90
        2
 40
-0.6
 41
30.0
 62
     5
 63
     7
 74
     0
 91
        4
 64
     7
 65
   257
 75
     1
175
     1
 42
1.0
 92
        8
 66
     7
 43
1.0
 76
     1
 77
     6
 78
     2
 67
     7
 79
     5
170
     0
171
     0
290
     0
174
     0
 93
       13
 44
0.0
173
     0
291
     1
 45
0.0
1001
ACAD
1000
AcDbSavedByObjectVersion
1070
     0
  0
VISUALSTYLE
  5
2C
102
{ACAD_REACTORS
330
2A
102
}
330
2A
100
AcDbVisualStyle
  2
FlatWithEdges
 70
     1
 71
     2
 72
     1
 73
     1
 90
        2
 40
-0.6
 41
30.0
 62
     5
 63
     7
 74
     1
 91
        4
 64
     7
 65
   257
 75
     1
175
     1
 42
1.0
 92
        0
 66
   257
 43
1.0
 76
     1
 77
     6
 78
     2
 67
     7
 79
     5
170
     0
171
     0
290
     0
174
     0
 93
       13
 44
0.0
173
     0
291
     1
 45
0.0
1001
ACAD
1000
AcDbSavedByObjectVersion
1070
     0
  0
VISUALSTYLE
  5
2D
102
{ACAD_REACTORS
330
2A
102
}
330
2A
100
AcDbVisualStyle
  2
Gouraud
 70
     2
 71
     2
 72
     2
 73
     1
 90
        2
 40
-0.6
 41
30.0
 62
     5
 63
     7
 74
     0
 91
        4
 64
     7
 65
   257
 75
     1
175
     1
 42
1.0
 92
        0
 66
     7
 43
1.0
 76
     1
 77
     6
 78
     2
 67
     7
 79
     5
170
     0
171
     0
290
     0
174
     0
 93
       13
 44
0.0
173
     0
291
     1
 45
0.0
1001
ACAD
1000
AcDbSavedByObjectVersion
1070
     0
  0
VISUALSTYLE
  5
2E
102
{ACAD_REACTORS
330
2A
102
}
330
2A
100
AcDbVisualStyle
  2
GouraudWithEdges
 70
     3
 71
     2
 72
     2
 73
     1
 90
        2
 40
-0.6
 41
30.0
 62
     5
 63
     7
 74
     1
 91
        4
 64
     7
 65
   257
 75
     1
175
     1
 42
1.0
 92
        0
 66
   257
 43
1.0
 76
     1
 77
     6
 78
     2
 67
     7
 79
     5
170
     0
171
     0
290
     0
174
     0
 93
       13
 44
0.0
173
     0
291
     1
 45
0.0
1001
ACAD
1000
AcDbSavedByObjectVersion
1070
     0
  0
VISUALSTYLE
  5
38
102
{ACAD_REACTORS
330
2A
102
}
330
2A
100
AcDbVisualStyle
  2
Linepattern
 70
    14
 71
     2
 72
     2
 73
     0
 90
        0
 40
-0.6
 41
-30.0
 62
     5
 63
     7
 74
     1
 91
        4
 64
     7
 65
   257
 75
     7
175
     7
 42
1.0
 92
        8
 66
     7
 43
1.0
 76
     1
 77
     6
 78
     2
 67
     7
 79
     5
170
     0
171
     0
290
     0
174
     0
 93
        1
 44
0.0
173
     0
291
     1
 45
0.0
1001
ACAD
1000
AcDbSavedByObjectVersion
1070
     0
  0
VISUALSTYLE
  5
33
102
{ACAD_REACTORS
330
2A
102
}
330
2A
100
AcDbVisualStyle
  2
Realistic
 70
     8
 71
     2
 72
     2
 73
     0
 90
        0
 40
-0.6
 41
-30.0
 62
     5
 63
     7
 74
     1
 91
        0
 64
     7
 65
   257
 75
     1
175
     1
 42
1.0
 92
        8
 66
     8
 43
1.0
 76
     1
 77
     6
 78
     2
 67
     7
 79
     5
170
     0
171
     0
290
     0
174
     0
 93
       13
 44
0.0
173
     0
291
     0
 45
0.0
1001
ACAD
1000
AcDbSavedByObjectVersion
1070
     0
  0
VISUALSTYLE
  5
37
102
{ACAD_REACTORS
330
2A
102
}
330
2A
100
AcDbVisualStyle
  2
Thicken
 70
    13
 71
     2
 72
     2
 73
     0
 90
        0
 40
-0.6
 41
-30.0
 62
     5
 63
     7
 74
     1
 91
        4
 64
     7
 65
   257
 75
     1
175
     1
 42
1.0
 92
       12
 66
     7
 43
1.0
 76
     1
 77
     6
 78
     2
 67
     7
 79
     5
170
     0
171
     0
290
     0
174
     0
 93
        1
 44
0.0
173
     0
291
     1
 45
0.0
1001
ACAD
1000
AcDbSavedByObjectVersion
1070
     0
  0
ENDSEC
  0
EOF
