  0
SECTION
  2
HEADER
  9
$ACADVER
  1
AC1015
  9
$ACADMAINTVER
 70
               6
  9
$DWGCODEPAGE
  3
ANSI_932
  9
$INSBASE
 10
0.0
 20
0.0
 30
0.0
  9
$EXTMIN
 10
200.60920809513101
 20
47.453874134445812
 30
0.0
  9
$EXTMAX
 10
294.02120907690545
 20
244.24279514883671
 30
0.0
  9
$LIMMIN
 10
0.0
 20
0.0
  9
$LIMMAX
 10
0.0
 20
0.0
  9
$ORTHOMODE
 70
               0
  9
$REGENMODE
 70
               1
  9
$FILLMODE
 70
               1
  9
$QTEXTMODE
 70
               0
  9
$MIRRTEXT
 70
               1
  9
$LTSCALE
 40
5.0800000000000001
  9
$ATTMODE
 70
               1
  9
$TEXTSIZE
 40
0.2
  9
$TRACEWID
 40
1.0
  9
$TEXTSTYLE
  7
Standard
  9
$CLAYER
  8
0
  9
$CELTYPE
  6
Continuous
  9
$CECOLOR
 62
             256
  9
$CELTSCALE
 40
1.0
  9
$DISPSILH
 70
               0
  9
$DIMSCALE
 40
1.0
  9
$DIMASZ
 40
0.18
  9
$DIMEXO
 40
0.0625
  9
$DIMDLI
 40
0.38
  9
$DIMRND
 40
0.0
  9
$DIMDLE
 40
0.0
  9
$DIMEXE
 40
0.18
  9
$DIMTP
 40
0.0
  9
$DIMTM
 40
0.0
  9
$DIMTXT
 40
0.18
  9
$DIMCEN
 40
0.09
  9
$DIMTSZ
 40
0.0
  9
$DIMTOL
 70
               0
  9
$DIMLIM
 70
               0
  9
$DIMTIH
 70
               1
  9
$DIMTOH
 70
               1
  9
$DIMSE1
 70
               0
  9
$DIMSE2
 70
               0
  9
$DIMTAD
 70
               0
  9
$DIMZIN
 70
               0
  9
$DIMBLK
  1

  9
$DIMASO
 70
               1
  9
$DIMSHO
 70
               1
  9
$DIMPOST
  1

  9
$DIMAPOST
  1

  9
$DIMALT
 70
               0
  9
$DIMALTD
 70
               2
  9
$DIMALTF
 40
25.399999999999999
  9
$DIMLFAC
 40
1.0
  9
$DIMTOFL
 70
               0
  9
$DIMTVP
 40
0.0
  9
$DIMTIX
 70
               0
  9
$DIMSOXD
 70
               0
  9
$DIMSAH
 70
               0
  9
$DIMBLK1
  1

  9
$DIMBLK2
  1

  9
$DIMSTYLE
  2
Standard
  9
$DIMCLRD
 70
               0
  9
$DIMCLRE
 70
               0
  9
$DIMCLRT
 70
               0
  9
$DIMTFAC
 40
1.0
  9
$DIMGAP
 40
0.09
  9
$DIMJUST
 70
               0
  9
$DIMSD1
 70
               0
  9
$DIMSD2
 70
               0
  9
$DIMTOLJ
 70
               1
  9
$DIMTZIN
 70
               0
  9
$DIMALTZ
 70
               0
  9
$DIMALTTZ
 70
               0
  9
$DIMUPT
 70
               0
  9
$DIMDEC
 70
               4
  9
$DIMTDEC
 70
               4
  9
$DIMALTU
 70
               2
  9
$DIMALTTD
 70
               2
  9
$DIMTXSTY
  7
Standard
  9
$DIMAUNIT
 70
               0
  9
$DIMADEC
 70
               0
  9
$DIMALTRND
 40
0.0
  9
$DIMAZIN
 70
               0
  9
$DIMDSEP
 70
               0
  9
$DIMATFIT
 70
               3
  9
$DIMFRAC
 70
               0
  9
$DIMLDRBLK
  1

  9
$DIMLUNIT
 70
               2
  9
$DIMLWD
 70
               0
  9
$DIMLWE
 70
               0
  9
$DIMTMOVE
 70
               0
  9
$LUNITS
 70
               2
  9
$LUPREC
 70
               4
  9
$SKETCHINC
 40
0.1
  9
$FILLETRAD
 40
0.0
  9
$AUNITS
 70
               0
  9
$AUPREC
 70
               0
  9
$MENU
  1
acad
  9
$ELEVATION
 40
0.0
  9
$PELEVATION
 40
0.0
  9
$THICKNESS
 40
0.0
  9
$LIMCHECK
 70
               0
  9
$CHAMFERA
 40
0.0
  9
$CHAMFERB
 40
0.0
  9
$CHAMFERC
 40
0.0
  9
$CHAMFERD
 40
0.0
  9
$SKPOLY
 70
               0
  9
$TDCREATE
 40
2458068.658449074
  9
$TDUCREATE
 40
0.000000000
  9
$TDUPDATE
 40
2458068.658449074
  9
$TDUUPDATE
 40
0.000000000
  9
$TDINDWG
 40
0.0000000000
  9
$TDUSRTIMER
 40
0.0000000000
  9
$USRTIMER
 70
               1
  9
$ANGBASE
 50
0.0
  9
$ANGDIR
 70
               0
  9
$PDMODE
 70
               1
  9
$PDSIZE
 40
-2.0
  9
$PLINEWID
 40
0.0
  9
$SPLFRAME
 70
               0
  9
$SPLINETYPE
 70
               6
  9
$SPLINESEGS
 70
               8
  9
$HANDSEED
  5
1C5
  9
$SURFTAB1
 70
               6
  9
$SURFTAB2
 70
               6
  9
$SURFTYPE
 70
               6
  9
$SURFU
 70
               6
  9
$SURFV
 70
               6
  9
$UCSBASE
  2

  9
$UCSNAME
  2

  9
$UCSORG
 10
0.0
 20
0.0
 30
0.0
  9
$UCSXDIR
 10
1.0
 20
0.0
 30
0.0
  9
$UCSYDIR
 10
0.0
 20
1.0
 30
0.0
  9
$UCSORTHOREF
  2

  9
$UCSORTHOVIEW
 70
               0
  9
$UCSORGTOP
 10
0.0
 20
0.0
 30
0.0
  9
$UCSORGBOTTOM
 10
0.0
 20
0.0
 30
0.0
  9
$UCSORGLEFT
 10
0.0
 20
0.0
 30
0.0
  9
$UCSORGRIGHT
 10
0.0
 20
0.0
 30
0.0
  9
$UCSORGFRONT
 10
0.0
 20
0.0
 30
0.0
  9
$UCSORGBACK
 10
0.0
 20
0.0
 30
0.0
  9
$PUCSBASE
  2

  9
$PUCSNAME
  2

  9
$PUCSORG
 10
0.0
 20
0.0
 30
0.0
  9
$PUCSXDIR
 10
1.0
 20
0.0
 30
0.0
  9
$PUCSYDIR
 10
0.0
 20
1.0
 30
0.0
  9
$PUCSORTHOREF
  2

  9
$PUCSORTHOVIEW
 70
               0
  9
$PUCSORGTOP
 10
0.0
 20
0.0
 30
0.0
  9
$PUCSORGBOTTOM
 10
0.0
 20
0.0
 30
0.0
  9
$PUCSORGLEFT
 10
0.0
 20
0.0
 30
0.0
  9
$PUCSORGRIGHT
 10
0.0
 20
0.0
 30
0.0
  9
$PUCSORGFRONT
 10
0.0
 20
0.0
 30
0.0
  9
$PUCSORGBACK
 10
0.0
 20
0.0
 30
0.0
  9
$USERI1
 70
               0
  9
$USERI2
 70
               0
  9
$USERI3
 70
               0
  9
$USERI4
 70
               0
  9
$USERI5
 70
               0
  9
$USERR1
 40
0.0
  9
$USERR2
 40
0.0
  9
$USERR3
 40
0.0
  9
$USERR4
 40
0.0
  9
$USERR5
 40
0.0
  9
$WORLDVIEW
 70
               1
  9
$SHADEDGE
 70
               3
  9
$SHADEDIF
 70
              70
  9
$TILEMODE
 70
               1
  9
$MAXACTVP
 70
              16
  9
$PINSBASE
 10
0.0
 20
0.0
 30
0.0
  9
$PLIMCHECK
 70
               0
  9
$PEXTMIN
 10
1.0000000000000000E+20
 20
1.0000000000000000E+20
 30
1.0000000000000000E+20
  9
$PEXTMAX
 10
-1.0000000000000000E+20
 20
-1.0000000000000000E+20
 30
-1.0000000000000000E+20
  9
$PLIMMIN
 10
0.0
 20
0.0
  9
$PLIMMAX
 10
12.0
 20
9.0
  9
$UNITMODE
 70
               0
  9
$VISRETAIN
 70
               0
  9
$PLINEGEN
 70
               1
  9
$PSLTSCALE
 70
               0
  9
$TREEDEPTH
 70
            3020
  9
$CMLSTYLE
  2
Standard
  9
$CMLJUST
 70
               0
  9
$CMLSCALE
 40
1.0
  9
$PROXYGRAPHICS
 70
               0
  9
$MEASUREMENT
 70
               1
  9
$CELWEIGHT
370
               0
  9
$ENDCAPS
280
               0
  9
$JOINSTYLE
280
               0
  9
$LWDISPLAY
290
               1
  9
$INSUNITS
 70
               4
  9
$HYPERLINKBASE
  1

  9
$STYLESHEET
  1

  9
$XEDIT
290
               1
  9
$CEPSNTYPE
380
               0
  9
$PSTYLEMODE
290
               1
  9
$FINGERPRINTGUID
  2

  9
$VERSIONGUID
  2

  9
$EXTNAMES
290
               1
  9
$PSVPSCALE
 40
0.0
  0
ENDSEC
  0
SECTION
  2
CLASSES
  0
CLASS
  1
LWPOLYLINE
  2
AcDbPolyline
  3
AutoCAD 2000
 90
    32768
280
               0
281
               1
  0
CLASS
  1
IMAGE
  2
AcDbRasterImage
  3
ISM
 90
    32895
280
               0
281
               1
  0
CLASS
  1
OLE2FRAME
  2
AcDbOle2Frame
  3
AutoCAD 2000
 90
    32768
280
               0
281
               1
  0
CLASS
  1
HATCH
  2
AcDbHatch
  3
AutoCAD 2000
 90
    32768
280
               0
281
               1
  0
CLASS
  1
DICTIONARYVAR
  2
AcDbDictionaryVar
  3
AutoCAD 2000
 90
    32768
280
               0
281
               0
  0
CLASS
  1
RASTERVARIABLES
  2
AcDbRasterVariables
  3
ISM
 90
    32768
280
               0
281
               0
  0
CLASS
  1
IMAGEDEF
  2
AcDbRasterImageDef
  3
ISM
 90
    32768
280
               0
281
               0
  0
CLASS
  1
IMAGEDEF_REACTOR
  2
AcDbRasterImageDefReactor
  3
ISM
 90
    32769
280
               0
281
               0
  0
CLASS
  1
IDBUFFER
  2
AcDbIdBuffer
  3
AutoCAD 2000
 90
    32768
280
               0
281
               0
  0
CLASS
  1
SPATIAL_FILTER
  2
AcDbSpatialFilter
  3
AutoCAD 2000
 90
    32768
280
               0
281
               0
  0
CLASS
  1
XRECORD
  2
AcDbXrecord
  3
AutoCAD 2000
 90
    32768
280
               0
281
               0
  0
CLASS
  1
SORTENTSTABLE
  2
AcDbSortentsTable
  3
AutoCAD 2000
 90
    32768
280
               0
281
               0
  0
CLASS
  1
LAYER_INDEX
  2
AcDbLayerIndex
  3
AutoCAD 2000
 90
    32768
280
               0
281
               0
  0
CLASS
  1
SPATIAL_INDEX
  2
AcDbSpatialIndex
  3
AutoCAD 2000
 90
    32768
280
               0
281
               0
  0
CLASS
  1
OBJECT_PTR
  2
CAseDLPNTableRecord
  3
"ASE-LPNTableRecord"
 90
    32769
280
               0
281
               0
  0
CLASS
  1
LAYOUT
  2
AcDbLayout
  3
AutoCAD 2000
 90
        0
280
               0
281
               0
  0
CLASS
  1
PLOTSETTINGS
  2
AcDbPlotSettings
  3
AutoCAD 2000
 90
    32768
280
               0
281
               0
  0
CLASS
  1
ACDBDICTIONARYWDFLT
  2
AcDbDictionaryWithDefault
  3
AutoCAD 2000
 90
        0
280
               0
281
               0
  0
CLASS
  1
ACDBPLACEHOLDER
  2
AcDbPlaceHolder
  3
AutoCAD 2000
 90
        0
280
               0
281
               0
  0
CLASS
  1
VBA_PROJECT
  2
AcDbVbaProject
  3
acadvba
 90
    32768
280
               0
281
               0
  0
CLASS
  1
WIPEOUT
  2
AcDbWipeout
  3
WipeOut|AutoCAD Express Tool|expresstools@autodesk.com
 90
    32895
280
               0
281
               1
  0
CLASS
  1
WIPEOUTVARIABLES
  2
AcDbWipeoutVariables
  3
WipeOut|AutoCAD Express Tool|expresstools@autodesk.com
 90
        0
280
               0
281
               0
  0
CLASS
  1
RTEXT
  2
RText
  3
RText|AutoCAD Express Tool|expresstools@autodesk.com
 90
    32768
280
               0
281
               1
  0
CLASS
  1
ARCALIGNEDTEXT
  2
AcDbArcAlignedText
  3
ATEXT|AutoCAD Express Tool|expresstools@autodesk.com
 90
    32768
280
               0
281
               1
  0
ENDSEC
  0
SECTION
  2
TABLES
  0
TABLE
  2
VPORT
  5
7
100
AcDbSymbolTable
 70
               1
  0
VPORT
  5
15
100
AcDbSymbolTableRecord
100
AcDbViewportTableRecord
  2
*ACTIVE
 70
               0
 10
0.0
 20
0.0
 11
1.0
 21
1.0
 12
247.31520858601823
 22
145.84833464164126
 13
0.0
 23
0.0
 14
1.0
 24
1.0
 15
0.0
 25
0.0
 16
0.0
 26
0.0
 36
1.0
 17
0.0
 27
0.0
 37
0.0
 40
196.78892101439089
 41
0.688564
 42
50.0
 43
0.0
 44
0.0
 50
0.0
 51
0.0
 71
               0
 72
             100
 73
               1
 74
               1
 75
               0
 76
               0
 77
               0
 78
               0
281
               0
 65
               0
110
0.0
120
0.0
130
0.0
111
1.0
121
0.0
131
0.0
112
0.0
122
1.0
132
0.0
345
0
346
0
 79
               0
146
0.0
  0
ENDTAB
  0
TABLE
  2
LTYPE
  5
4
100
AcDbSymbolTable
 70
              14
  0
LTYPE
  5
11
100
AcDbSymbolTableRecord
100
AcDbLinetypeTableRecord
  2
ByBlock
 70
              64
  3

 72
              65
 73
               0
 40
0.0
  0
LTYPE
  5
12
100
AcDbSymbolTableRecord
100
AcDbLinetypeTableRecord
  2
ByLayer
 70
              64
  3

 72
              65
 73
               0
 40
0.0
  0
LTYPE
  5
13
100
AcDbSymbolTableRecord
100
AcDbLinetypeTableRecord
  2
Continuous
 70
              64
  3
Solid line
 72
              65
 73
               0
 40
0.0
  0
LTYPE
  5
25
100
AcDbSymbolTableRecord
100
AcDbLinetypeTableRecord
  2
STYLE_01
 70
               0
  3

 72
              65
 73
               2
 40
0.075
 49
0.05
 74
               0
 49
-0.025
 74
               0
  0
LTYPE
  5
26
100
AcDbSymbolTableRecord
100
AcDbLinetypeTableRecord
  2
STYLE_02
 70
               0
  3

 72
              65
 73
               6
 40
0.4999999999999999
 49
0.25
 74
               0
 49
-0.05
 74
               0
 49
0.05
 74
               0
 49
-0.05
 74
               0
 49
0.05
 74
               0
 49
-0.05
 74
               0
  0
LTYPE
  5
27
100
AcDbSymbolTableRecord
100
AcDbLinetypeTableRecord
  2
STYLE_03
 70
               0
  3

 72
              65
 73
               4
 40
0.3999999999999999
 49
0.25
 74
               0
 49
-0.05
 74
               0
 49
0.05
 74
               0
 49
-0.05
 74
               0
  0
LTYPE
  5
28
100
AcDbSymbolTableRecord
100
AcDbLinetypeTableRecord
  2
STYLE_04
 70
               0
  3

 72
              65
 73
               4
 40
0.7999999999999998
 49
0.4999999999999999
 74
               0
 49
-0.1
 74
               0
 49
0.1
 74
               0
 49
-0.1
 74
               0
  0
LTYPE
  5
29
100
AcDbSymbolTableRecord
100
AcDbLinetypeTableRecord
  2
STYLE_05
 70
               0
  3

 72
              65
 73
               2
 40
0.025
 49
0.0005
 74
               0
 49
-0.0245
 74
               0
  0
LTYPE
  5
2A
100
AcDbSymbolTableRecord
100
AcDbLinetypeTableRecord
  2
STYLE_06
 70
               0
  3

 72
              65
 73
               4
 40
1.0416400000000001
 49
0.625
 74
               0
 49
-0.20828
 74
               0
 49
0.06943
 74
               0
 49
-0.13893
 74
               0
  0
LTYPE
  5
2B
100
AcDbSymbolTableRecord
100
AcDbLinetypeTableRecord
  2
STYLE_07
 70
               0
  3

 72
              65
 73
               6
 40
1.875
 49
0.625
 74
               0
 49
-0.20828
 74
               0
 49
0.6250000000000001
 74
               0
 49
-0.2083599999999999
 74
               0
 49
0.06943
 74
               0
 49
-0.1389299999999999
 74
               0
  0
LTYPE
  5
2C
100
AcDbSymbolTableRecord
100
AcDbLinetypeTableRecord
  2
STYLE_08
 70
               0
  3

 72
              65
 73
               6
 40
1.25
 49
0.625
 74
               0
 49
-0.20828
 74
               0
 49
0.06943
 74
               0
 49
-0.13893
 74
               0
 49
0.0694299999999999
 74
               0
 49
-0.13893
 74
               0
  0
LTYPE
  5
2D
100
AcDbSymbolTableRecord
100
AcDbLinetypeTableRecord
  2
STYLE_09
 70
               0
  3

 72
              65
 73
               4
 40
5.0
 49
3.75
 74
               0
 49
-0.2777849999999998
 74
               0
 49
0.6944300000000003
 74
               0
 49
-0.2777849999999998
 74
               0
  0
LTYPE
  5
2E
100
AcDbSymbolTableRecord
100
AcDbLinetypeTableRecord
  2
STYLE_10
 70
               0
  3

 72
              65
 73
               6
 40
5.9375
 49
3.75
 74
               0
 49
-0.2777849999999998
 74
               0
 49
0.6944300000000003
 74
               0
 49
-0.2777849999999998
 74
               0
 49
0.625
 74
               0
 49
-0.3125
 74
               0
  0
LTYPE
  5
2F
100
AcDbSymbolTableRecord
100
AcDbLinetypeTableRecord
  2
STYLE_11
 70
               0
  3

 72
              65
 73
               2
 40
0.1875
 49
0.125
 74
               0
 49
-0.0625
 74
               0
  0
ENDTAB
  0
TABLE
  2
LAYER
  5
2
100
AcDbSymbolTable
 70
               6
  0
LAYER
  5
14
100
AcDbSymbolTableRecord
100
AcDbLayerTableRecord
  2
0
 70
               0
 62
               7
  6
Continuous
290
               1
370
              15
390
1D
  0
LAYER
  5
30
100
AcDbSymbolTableRecord
100
AcDbLayerTableRecord
  2
Defpoints
 70
               0
 62
               7
  6
Continuous
290
               0
370
              -3
390
1D
  0
LAYER
  5
31
100
AcDbSymbolTableRecord
100
AcDbLayerTableRecord
  2
一般
 70
               0
 62
               7
  6
Continuous
290
               1
370
               5
390
1D
  0
LAYER
  5
32
100
AcDbSymbolTableRecord
100
AcDbLayerTableRecord
  2
寸法
 70
               0
 62
               7
  6
Continuous
290
               1
370
               5
390
1D
  0
LAYER
  5
33
100
AcDbSymbolTableRecord
100
AcDbLayerTableRecord
  2
レイヤー_1
 70
               0
 62
              19
  6
Continuous
290
               1
370
              15
390
1D
  0
LAYER
  5
34
100
AcDbSymbolTableRecord
100
AcDbLayerTableRecord
  2
FORMAT
 70
               0
 62
               7
  6
Continuous
290
               1
370
              15
390
1D
  0
ENDTAB
  0
TABLE
  2
STYLE
  5
3
100
AcDbSymbolTable
 70
               2
  0
STYLE
  5
17
100
AcDbSymbolTableRecord
100
AcDbTextStyleTableRecord
  2
Standard
 70
               0
 40
0.0
 41
1.0
 50
0.0
 71
               0
 42
0.0
  3
txt
  4
BIGFONT.SHX
  0
STYLE
  5
24
100
AcDbSymbolTableRecord
100
AcDbTextStyleTableRecord
  2
Arial
 70
               0
 40
0.0
 41
1.0
 50
0.0
 71
               0
 42
0.0
  3
Arial
  4

1001
ACAD
1000
Arial
1071
        0
  0
ENDTAB
  0
TABLE
  2
VIEW
  5
5
100
AcDbSymbolTable
 70
               0
  0
ENDTAB
  0
TABLE
  2
UCS
  5
6
100
AcDbSymbolTable
 70
               0
  0
ENDTAB
  0
TABLE
  2
APPID
  5
8
100
AcDbSymbolTable
 70
               1
  0
APPID
  5
16
100
AcDbSymbolTableRecord
100
AcDbRegAppTableRecord
  2
ACAD
 70
               0
  0
ENDTAB
  0
TABLE
  2
DIMSTYLE
  5
9
100
AcDbSymbolTable
 70
               1
100
AcDbDimStyleTable
 71
               0
  0
DIMSTYLE
105
18
100
AcDbSymbolTableRecord
100
AcDbDimStyleTableRecord
  2
Standard
 70
               0
  3

  4

 40
1.0
 41
0.18
 42
0.0625
 43
0.38
 44
0.18
 45
0.0
 46
0.0
 47
0.0
 48
0.0
 71
               0
 72
               0
 73
               1
 74
               1
 75
               0
 76
               0
 77
               0
 78
               0
 79
               0
140
0.18
141
0.09
142
0.0
143
25.399999999999999
144
1.0
145
0.0
146
1.0
147
0.09
148
0.0
170
               0
171
               2
172
               0
173
               0
174
               0
175
               0
176
               0
177
               0
178
               0
179
               0
271
               4
272
               4
273
               2
274
               2
275
               0
276
               0
277
               2
278
              46
279
               0
280
               0
281
               0
282
               0
283
               1
284
               0
285
               0
286
               0
288
               0
340
17
341
0
342
0
343
0
344
0
371
              -2
372
              -2
  0
ENDTAB
  0
TABLE
  2
BLOCK_RECORD
  5
1
100
AcDbSymbolTable
 70
               0
  0
BLOCK_RECORD
  5
A
100
AcDbSymbolTableRecord
100
AcDbBlockTableRecord
  2
*MODEL_SPACE
340
20
  0
BLOCK_RECORD
  5
B
100
AcDbSymbolTableRecord
100
AcDbBlockTableRecord
  2
*PAPER_SPACE
340
21
  0
ENDTAB
  0
ENDSEC
  0
SECTION
  2
BLOCKS
  0
BLOCK
  5
D
100
AcDbEntity
  8
0
100
AcDbBlockBegin
  2
*MODEL_SPACE
 70
               0
 10
0.0
 20
0.0
 30
0.0
  3
*MODEL_SPACE
  1

  0
ENDBLK
  5
E
100
AcDbEntity
  8
0
100
AcDbBlockEnd
  0
BLOCK
  5
F
100
AcDbEntity
 67
               1
  8
0
100
AcDbBlockBegin
  2
*PAPER_SPACE
 70
               0
 10
0.0
 20
0.0
 30
0.0
  3
*PAPER_SPACE
  1

  0
ENDBLK
  5
10
100
AcDbEntity
 67
               1
  8
0
100
AcDbBlockEnd
  0
ENDSEC
  0
SECTION
  2
ENTITIES
  0
MTEXT
  5
35
100
AcDbEntity
  8
0
 62
               7
100
AcDbMText
 10
261.04670212314932
 20
65.521684027777781
 30
0.0
 40
3.0316840277777772
 41
0.0
 71
               1
 72
               1
  1
HBC-D61P^I\PHBC-D61B^I\PHBC-D61E^I
  7
Arial
 73
               1
 44
0.9673603504928806
  0
ARC
  5
36
100
AcDbEntity
  8
0
370
              15
  6
Continuous
 62
               7
100
AcDbCircle
 10
211.31833121317101
 20
238.17789341271674
 30
0.0
 40
0.7517110490394905
100
AcDbArc
 50
119.66627882439883
 51
184.89945428639876
  0
LINE
  5
37
100
AcDbEntity
  8
0
370
              15
  6
Continuous
 62
               7
100
AcDbLine
 10
210.90303782385101
 20
225.80268717319672
 30
0.0
 11
210.56936683381102
 21
238.11369170131672
 31
0.0
  0
ARC
  5
38
100
AcDbEntity
  8
0
370
              15
  6
Continuous
 62
               7
100
AcDbCircle
 10
210.70362328061103
 20
238.16186969551671
 30
0.0
 40
0.7118367444533428
100
AcDbArc
 50
359.27075458899981
 51
70.069534294300865
  0
ARC
  5
39
100
AcDbEntity
  8
0
370
              15
  6
Continuous
 62
               7
100
AcDbCircle
 10
210.91673456485103
 20
239.7693860743567
 30
0.0
 40
1.6917411733012331
100
AcDbArc
 50
258.15109532390051
 51
287.14350713680045
  0
LINE
  5
3A
100
AcDbEntity
  8
0
370
              15
  6
Continuous
 62
               7
100
AcDbLine
 10
211.415402368771
 20
238.15280987175669
 30
0.0
 11
211.74907335881099
 21
225.84180534363674
 31
0.0
  0
ARC
  5
3B
100
AcDbEntity
  8
0
370
              15
  6
Continuous
 62
               7
100
AcDbCircle
 10
211.25040555485103
 20
227.45838154623669
 30
0.0
 40
1.6917411733008896
100
AcDbArc
 50
258.15109532389965
 51
287.14350713679943
  0
ARC
  5
3C
100
AcDbEntity
  8
0
370
              15
  6
Continuous
 62
               7
100
AcDbCircle
 10
212.71504528069102
 20
232.87120898783672
 30
0.0
 40
6.6310643337931232
100
AcDbArc
 50
285.11402805829999
 51
295.38656251949993
  0
ARC
  5
3D
100
AcDbEntity
  8
0
370
              15
  6
Continuous
 62
               7
100
AcDbCircle
 10
209.03535570753101
 20
235.07705035531671
 30
0.0
 40
9.0526385989564151
100
AcDbArc
 50
249.48451039609995
 51
264.20851377049974
  0
SPLINE
  5
3E
100
AcDbEntity
  8
0
370
              15
  6
Continuous
 62
               7
100
AcDbSpline
210
0.0
220
0.0
230
1.0
 70
               8
 71
               2
 72
              11
 73
               8
 74
               0
 42
0.000001
 43
0.000001
 40
0.0
 40
0.0
 40
0.0
 40
1.0
 40
1.0
 40
2.0
 40
3.0
 40
3.0
 40
4.0
 40
4.0
 40
4.0
 10
209.62617978932778
 20
237.37182062689669
 30
0.0
 10
209.62846594051018
 20
237.3442026660847
 30
0.0
 10
209.63075209169256
 20
237.31658470527273
 30
0.0
 10
209.95409119918924
 20
233.22631376772347
 30
0.0
 10
210.73834749349837
 20
227.76016464249909
 30
0.0
 10
210.97158795507221
 20
226.25510860729423
 30
0.0
 10
210.97160917578182
 20
226.25497072257411
 30
0.0
 10
210.97163039649141
 20
226.254832837854
 30
0.0
  0
SPLINE
  5
3F
100
AcDbEntity
  8
0
370
              15
  6
Continuous
 62
               7
100
AcDbSpline
210
0.0
220
0.0
230
1.0
 70
               8
 71
               2
 72
              17
 73
              14
 74
               0
 42
0.000001
 43
0.000001
 40
0.0
 40
0.0
 40
0.0
 40
1.0
 40
1.0
 40
2.0
 40
3.0
 40
4.0
 40
5.0
 40
6.0
 40
7.0
 40
8.0
 40
9.0
 40
9.0
 40
10.0
 40
10.0
 40
10.0
 10
214.85645224922621
 20
227.68804169187175
 30
0.0
 10
214.85668131159977
 20
227.68600149586518
 30
0.0
 10
214.85691037397334
 20
227.68396129985859
 30
0.0
 10
214.86564054770895
 20
227.62280846781897
 30
0.0
 10
214.8591517933902
 20
227.45293768369572
 30
0.0
 10
214.64960511284423
 20
227.15516621419957
 30
0.0
 10
214.03159946131319
 20
226.80342442661413
 30
0.0
 10
213.30898217864308
 20
226.58246502330661
 30
0.0
 10
212.6942277901916
 20
226.44250126950953
 30
0.0
 10
211.8628226096786
 20
226.31511467948849
 30
0.0
 10
211.19045165227055
 20
226.26717398004308
 30
0.0
 10
210.98529644061574
 20
226.25562037487964
 30
0.0
 10
210.978462893266
 20
226.25522658207905
 30
0.0
 10
210.97162934591626
 20
226.25483278927851
 30
0.0
  0
SPLINE
  5
40
100
AcDbEntity
  8
0
370
              15
  6
Continuous
 62
               7
100
AcDbSpline
210
0.0
220
0.0
230
1.0
 70
               8
 71
               2
 72
              11
 73
               8
 74
               0
 42
0.000001
 43
0.000001
 40
0.0
 40
0.0
 40
0.0
 40
1.0
 40
1.0
 40
2.0
 40
3.0
 40
3.0
 40
4.0
 40
4.0
 40
4.0
 10
213.47087729848147
 20
238.16537744029176
 30
0.0
 10
213.47592221070195
 20
238.13958524268151
 30
0.0
 10
213.48096712292246
 20
238.11379304507128
 30
0.0
 10
213.99579455845901
 20
235.54520919692402
 30
0.0
 10
214.74118779535939
 20
230.36137174867338
 30
0.0
 10
214.85644127509269
 20
227.68830711649267
 30
0.0
 10
214.85644672417243
 20
227.68817455967201
 30
0.0
 10
214.85645217325214
 20
227.68804200285132
 30
0.0
  0
SPLINE
  5
41
100
AcDbEntity
  8
0
370
              15
  6
Continuous
 62
               7
100
AcDbSpline
210
0.0
220
0.0
230
1.0
 70
               8
 71
               2
 72
              11
 73
               8
 74
               0
 42
0.000001
 43
0.000001
 40
0.0
 40
0.0
 40
0.0
 40
1.0
 40
1.0
 40
2.0
 40
3.0
 40
3.0
 40
4.0
 40
4.0
 40
4.0
 10
211.56256697294404
 20
237.46135341927214
 30
0.0
 10
211.57184766745613
 20
237.46488232120709
 30
0.0
 10
211.58112836196821
 20
237.46841122314203
 30
0.0
 10
212.26976445405208
 20
237.73214965319369
 30
0.0
 10
213.18077621601762
 20
238.06180147658011
 30
0.0
 10
213.45274037902951
 20
238.1588962755348
 30
0.0
 10
213.46180883875547
 20
238.16213685791325
 30
0.0
 10
213.47087729848147
 20
238.16537744029176
 30
0.0
  0
SPLINE
  5
42
100
AcDbEntity
  8
0
370
              15
  6
Continuous
 62
               7
100
AcDbSpline
210
0.0
220
0.0
230
1.0
 70
               8
 71
               2
 72
              12
 73
               9
 74
               0
 42
0.000001
 43
0.000001
 40
0.0
 40
0.0
 40
0.0
 40
1.0
 40
1.0
 40
2.0
 40
3.0
 40
4.0
 40
4.0
 40
5.0
 40
5.0
 40
5.0
 10
210.97163039649141
 20
226.254832837854
 30
0.0
 10
210.97164371860612
 20
226.25497231973173
 30
0.0
 10
210.97165704072083
 20
226.25511180160947
 30
0.0
 10
211.08398649747733
 20
227.42040399918602
 30
0.0
 10
211.49550630144032
 20
232.27402278867311
 30
0.0
 10
211.55689855198645
 20
236.68475455168624
 30
0.0
 10
211.562132064243
 20
237.40588597907973
 30
0.0
 10
211.56234951859352
 20
237.43361969917595
 30
0.0
 10
211.56256697294404
 20
237.46135341927214
 30
0.0
  0
SPLINE
  5
43
100
AcDbEntity
  8
0
370
              15
  6
Continuous
 62
               7
100
AcDbSpline
210
0.0
220
0.0
230
1.0
 70
               8
 71
               2
 72
              16
 73
              13
 74
               0
 42
0.000001
 43
0.000001
 40
0.0
 40
0.0
 40
0.0
 40
1.0
 40
1.0
 40
2.0
 40
3.0
 40
4.0
 40
5.0
 40
6.0
 40
7.0
 40
8.0
 40
8.0
 40
9.0
 40
9.0
 40
9.0
 10
211.25588454875708
 20
237.88108731198849
 30
0.0
 10
211.2536651667844
 20
237.88042299807287
 30
0.0
 10
211.25144578481172
 20
237.87975868415725
 30
0.0
 10
211.19400869050105
 20
237.86237181271173
 30
0.0
 10
211.01201686217948
 20
237.8106694542688
 30
0.0
 10
210.8076491516249
 20
237.78332274432319
 30
0.0
 10
210.57125774088399
 20
237.76016455500599
 30
0.0
 10
210.28425301297693
 20
237.76419505002684
 30
0.0
 10
210.06481303883757
 20
237.78084128961737
 30
0.0
 10
209.91644562296278
 20
237.80844311524453
 30
0.0
 10
209.87548730685276
 20
237.81659481447423
 30
0.0
 10
209.87411908589354
 20
237.81686506638812
 30
0.0
 10
209.87275086493429
 20
237.81713531830195
 30
0.0
  0
SPLINE
  5
44
100
AcDbEntity
  8
0
370
              15
  6
Continuous
 62
               7
100
AcDbSpline
210
0.0
220
0.0
230
1.0
 70
               8
 71
               2
 72
              16
 73
              13
 74
               0
 42
0.000001
 43
0.000001
 40
0.0
 40
0.0
 40
0.0
 40
1.0
 40
1.0
 40
2.0
 40
3.0
 40
4.0
 40
5.0
 40
6.0
 40
7.0
 40
8.0
 40
8.0
 40
9.0
 40
9.0
 40
9.0
 10
209.62617978932778
 20
237.37182062689669
 30
0.0
 10
209.62824097952512
 20
237.37147050930366
 30
0.0
 10
209.63030216972248
 20
237.37112039171063
 30
0.0
 10
209.69189827886862
 20
237.36050865210123
 30
0.0
 10
209.93928119720633
 20
237.32172383454707
 30
0.0
 10
210.30283717897871
 20
237.30660919228322
 30
0.0
 10
210.59148507502312
 20
237.31049307376622
 30
0.0
 10
210.87987991548258
 20
237.32957897098544
 30
0.0
 10
211.20382961283747
 20
237.37092712775177
 30
0.0
 10
211.4558646765293
 20
237.43219327370713
 30
0.0
 10
211.55586590994909
 20
237.45954312244334
 30
0.0
 10
211.55921644144655
 20
237.46044827085774
 30
0.0
 10
211.56256697294404
 20
237.46135341927214
 30
0.0
  0
ARC
  5
45
100
AcDbEntity
  8
0
370
              15
  6
Continuous
 62
               7
100
AcDbCircle
 10
210.12070386793098
 20
237.38892291663672
 30
0.0
 40
0.4948197172854851
100
AcDbArc
 50
120.07264728099928
 51
181.98068950349744
  0
SPLINE
  5
46
100
AcDbEntity
  8
0
370
              15
  6
Continuous
 62
               7
100
AcDbSpline
210
0.0
220
0.0
230
1.0
 70
               8
 71
               2
 72
              10
 73
               7
 74
               0
 42
0.000001
 43
0.000001
 40
0.0
 40
0.0
 40
0.0
 40
1.0
 40
1.0
 40
2.0
 40
2.0
 40
3.0
 40
3.0
 40
3.0
 10
209.87275086493429
 20
237.81713531830195
 30
0.0
 10
209.8611957207878
 20
237.81975741045781
 30
0.0
 10
209.84964057664129
 20
237.82237950261367
 30
0.0
 10
208.76156037177671
 20
238.06823102885596
 30
0.0
 10
207.69870378808864
 20
238.32339144697099
 30
0.0
 10
207.68737664446732
 20
238.3260992759395
 30
0.0
 10
207.67604950084598
 20
238.32880710490798
 30
0.0
  0
SPLINE
  5
47
100
AcDbEntity
  8
0
370
              15
  6
Continuous
 62
               7
100
AcDbSpline
210
0.0
220
0.0
230
1.0
 70
               8
 71
               2
 72
              10
 73
               7
 74
               0
 42
0.000001
 43
0.000001
 40
0.0
 40
0.0
 40
0.0
 40
1.0
 40
1.0
 40
2.0
 40
2.0
 40
3.0
 40
3.0
 40
3.0
 10
207.42034872975179
 20
237.88561896910906
 30
0.0
 10
207.43173106464937
 20
237.88308813186876
 30
0.0
 10
207.44311339954695
 20
237.88055729462849
 30
0.0
 10
208.51127458351615
 20
237.64492158682901
 30
0.0
 10
209.60298967920713
 20
237.37746303885393
 30
0.0
 10
209.61458473426745
 20
237.37464183287528
 30
0.0
 10
209.62617978932778
 20
237.37182062689669
 30
0.0
  0
ARC
  5
48
100
AcDbEntity
  8
0
370
              15
  6
Continuous
 62
               7
100
AcDbCircle
 10
211.09231937277102
 20
237.43966980223666
 30
0.0
 40
0.4707472620317522
100
AcDbArc
 50
2.6400992446011329
 51
69.668050824503382
  0
SPLINE
  5
49
100
AcDbEntity
  8
0
370
              15
  6
Continuous
 62
               7
100
AcDbSpline
210
0.0
220
0.0
230
1.0
 70
               8
 71
               2
 72
              10
 73
               7
 74
               0
 42
0.000001
 43
0.000001
 40
0.0
 40
0.0
 40
0.0
 40
1.0
 40
1.0
 40
2.0
 40
2.0
 40
3.0
 40
3.0
 40
3.0
 10
213.15629658485278
 20
238.58219745395095
 30
0.0
 10
213.14728412953352
 20
238.57879846378114
 30
0.0
 10
213.13827167421425
 20
238.5753994736113
 30
0.0
 10
212.220598938281
 20
238.22826558339344
 30
0.0
 10
211.27440606207048
 20
237.88777220999341
 30
0.0
 10
211.26514530541377
 20
237.88442976099094
 30
0.0
 10
211.25588454875708
 20
237.88108731198849
 30
0.0
  0
POLYLINE
  5
4A
100
AcDbEntity
  8
0
370
              15
  6
Continuous
 62
               7
100
AcDb2dPolyline
 66
               1
 10
0.0
 20
0.0
 30
0.0
 75
               5
  0
VERTEX
  5
4B
100
AcDbEntity
  8
0
370
              15
  6
Continuous
 62
               7
100
AcDbVertex
100
AcDb2dVertex
 10
206.48113397857097
 20
227.30079247839672
 30
0.0
  0
VERTEX
  5
4C
100
AcDbEntity
  8
0
370
              15
  6
Continuous
 62
               7
100
AcDbVertex
100
AcDb2dVertex
 10
206.47743191741102
 20
227.4642468593967
 30
0.0
  0
VERTEX
  5
4D
100
AcDbEntity
  8
0
370
              15
  6
Continuous
 62
               7
100
AcDbVertex
100
AcDb2dVertex
 10
206.60602873313101
 20
227.70951914159667
 30
0.0
  0
VERTEX
  5
4E
100
AcDbEntity
  8
0
370
              15
  6
Continuous
 62
               7
100
AcDbVertex
100
AcDb2dVertex
 10
206.89075545265095
 20
227.94652509655671
 30
0.0
  0
VERTEX
  5
4F
100
AcDbEntity
  8
0
370
              15
  6
Continuous
 62
               7
100
AcDbVertex
100
AcDb2dVertex
 10
207.32066992081101
 20
228.16615683019668
 30
0.0
  0
VERTEX
  5
50
100
AcDbEntity
  8
0
370
              15
  6
Continuous
 62
               7
100
AcDbVertex
100
AcDb2dVertex
 10
207.87925090141098
 20
228.3599739803567
 30
0.0
  0
VERTEX
  5
51
100
AcDbEntity
  8
0
370
              15
  6
Continuous
 62
               7
100
AcDbVertex
100
AcDb2dVertex
 10
208.54503244965099
 20
228.52052826835671
 30
0.0
  0
VERTEX
  5
52
100
AcDbEntity
  8
0
370
              15
  6
Continuous
 62
               7
100
AcDbVertex
100
AcDb2dVertex
 10
209.29242880437096
 20
228.64164968543668
 30
0.0
  0
VERTEX
  5
53
100
AcDbEntity
  8
0
370
              15
  6
Continuous
 62
               7
100
AcDbVertex
100
AcDb2dVertex
 10
209.82194801873104
 20
228.69812340403669
 30
0.0
  0
VERTEX
  5
54
100
AcDbEntity
  8
0
370
              15
  6
Continuous
 62
               7
100
AcDbVertex
100
AcDb2dVertex
 10
210.36595688189101
 20
228.73400138099669
 30
0.0
  0
SEQEND
  5
55
100
AcDbEntity
  8
0
370
              15
  6
Continuous
 62
               7
  0
POLYLINE
  5
56
100
AcDbEntity
  8
0
370
              15
  6
Continuous
 62
               7
100
AcDb2dPolyline
 66
               1
 10
0.0
 20
0.0
 30
0.0
 75
               5
  0
VERTEX
  5
57
100
AcDbEntity
  8
0
370
              15
  6
Continuous
 62
               7
100
AcDbVertex
100
AcDb2dVertex
 10
210.36595688189101
 20
228.73400138099669
 30
0.0
  0
VERTEX
  5
58
100
AcDbEntity
  8
0
370
              15
  6
Continuous
 62
               7
100
AcDbVertex
100
AcDb2dVertex
 10
210.915145806851
 20
228.74866962299672
 30
0.0
  0
VERTEX
  5
59
100
AcDbEntity
  8
0
370
              15
  6
Continuous
 62
               7
100
AcDbVertex
100
AcDb2dVertex
 10
211.728106346251
 20
228.73045544659672
 30
0.0
  0
VERTEX
  5
5A
100
AcDbEntity
  8
0
370
              15
  6
Continuous
 62
               7
100
AcDbVertex
100
AcDb2dVertex
 10
212.50035780545096
 20
228.66474095871666
 30
0.0
  0
VERTEX
  5
5B
100
AcDbEntity
  8
0
370
              15
  6
Continuous
 62
               7
100
AcDbVertex
100
AcDb2dVertex
 10
213.20222339153099
 20
228.5540516196767
 30
0.0
  0
VERTEX
  5
5C
100
AcDbEntity
  8
0
370
              15
  6
Continuous
 62
               7
100
AcDbVertex
100
AcDb2dVertex
 10
213.80673066557102
 20
228.40264111483671
 30
0.0
  0
VERTEX
  5
5D
100
AcDbEntity
  8
0
370
              15
  6
Continuous
 62
               7
100
AcDbVertex
100
AcDb2dVertex
 10
214.29064877025098
 20
228.2163280627567
 30
0.0
  0
VERTEX
  5
5E
100
AcDbEntity
  8
0
370
              15
  6
Continuous
 62
               7
100
AcDbVertex
100
AcDb2dVertex
 10
214.63538102501099
 20
228.00227241463671
 30
0.0
  0
VERTEX
  5
5F
100
AcDbEntity
  8
0
370
              15
  6
Continuous
 62
               7
100
AcDbVertex
100
AcDb2dVertex
 10
214.78109795869096
 20
227.84818355831672
 30
0.0
  0
VERTEX
  5
60
100
AcDbEntity
  8
0
370
              15
  6
Continuous
 62
               7
100
AcDbVertex
100
AcDb2dVertex
 10
214.856452249211
 20
227.68804169187672
 30
0.0
  0
SEQEND
  5
61
100
AcDbEntity
  8
0
370
              15
  6
Continuous
 62
               7
  0
POLYLINE
  5
62
100
AcDbEntity
  8
0
370
              15
  6
Continuous
 62
               7
100
AcDb2dPolyline
 66
               1
 10
0.0
 20
0.0
 30
0.0
 75
               5
  0
VERTEX
  5
63
100
AcDbEntity
  8
0
370
              15
  6
Continuous
 62
               7
100
AcDbVertex
100
AcDb2dVertex
 10
210.97162934593098
 20
226.25483278927669
 30
0.0
  0
VERTEX
  5
64
100
AcDbEntity
  8
0
370
              15
  6
Continuous
 62
               7
100
AcDbVertex
100
AcDb2dVertex
 10
210.42244042097101
 20
226.24016454727672
 30
0.0
  0
VERTEX
  5
65
100
AcDbEntity
  8
0
370
              15
  6
Continuous
 62
               7
100
AcDbVertex
100
AcDb2dVertex
 10
209.609479881531
 20
226.25837872367669
 30
0.0
  0
VERTEX
  5
66
100
AcDbEntity
  8
0
370
              15
  6
Continuous
 62
               7
100
AcDbVertex
100
AcDb2dVertex
 10
208.837228422371
 20
226.32409321155671
 30
0.0
  0
VERTEX
  5
67
100
AcDbEntity
  8
0
370
              15
  6
Continuous
 62
               7
100
AcDbVertex
100
AcDb2dVertex
 10
208.13536283629102
 20
226.43478255059671
 30
0.0
  0
VERTEX
  5
68
100
AcDbEntity
  8
0
370
              15
  6
Continuous
 62
               7
100
AcDbVertex
100
AcDb2dVertex
 10
207.53085556225096
 20
226.58619305543669
 30
0.0
  0
VERTEX
  5
69
100
AcDbEntity
  8
0
370
              15
  6
Continuous
 62
               7
100
AcDbVertex
100
AcDb2dVertex
 10
207.04693745757095
 20
226.77250610751673
 30
0.0
  0
VERTEX
  5
6A
100
AcDbEntity
  8
0
370
              15
  6
Continuous
 62
               7
100
AcDbVertex
100
AcDb2dVertex
 10
206.702205202811
 20
226.9865617556367
 30
0.0
  0
VERTEX
  5
6B
100
AcDbEntity
  8
0
370
              15
  6
Continuous
 62
               7
100
AcDbVertex
100
AcDb2dVertex
 10
206.55648826913099
 20
227.14065061191667
 30
0.0
  0
VERTEX
  5
6C
100
AcDbEntity
  8
0
370
              15
  6
Continuous
 62
               7
100
AcDbVertex
100
AcDb2dVertex
 10
206.48113397857097
 20
227.30079247839672
 30
0.0
  0
SEQEND
  5
6D
100
AcDbEntity
  8
0
370
              15
  6
Continuous
 62
               7
  0
SPLINE
  5
6E
100
AcDbEntity
  8
0
370
              15
  6
Continuous
 62
               7
100
AcDbSpline
210
0.0
220
0.0
230
1.0
 70
               8
 71
               2
 72
              18
 73
              15
 74
               0
 42
0.000001
 43
0.000001
 40
0.0
 40
0.0
 40
0.0
 40
1.0
 40
1.0
 40
2.0
 40
3.0
 40
4.0
 40
5.0
 40
6.0
 40
7.0
 40
8.0
 40
9.0
 40
10.0
 40
10.0
 40
11.0
 40
11.0
 40
11.0
 10
207.28031578427817
 20
238.45880676100563
 30
0.0
 10
207.2791428231296
 20
238.45835034946299
 30
0.0
 10
207.27796986198101
 20
238.45789393792035
 30
0.0
 10
207.24260885082623
 20
238.44423478904059
 30
0.0
 10
207.17399570502158
 20
238.41652156867809
 30
0.0
 10
207.03975480531136
 20
238.35129889186703
 30
0.0
 10
206.95562873144436
 20
238.24650937547008
 30
0.0
 10
206.95513564248924
 20
238.14839000143689
 30
0.0
 10
207.01793047194244
 20
238.0675183576906
 30
0.0
 10
207.09830492208567
 20
238.01011344746817
 30
0.0
 10
207.2095723549032
 20
237.95800515544244
 30
0.0
 10
207.34470745632521
 20
237.9103695181218
 30
0.0
 10
207.41564324792071
 20
237.88716994897078
 30
0.0
 10
207.41799598883625
 20
237.88639445903993
 30
0.0
 10
207.42034872975179
 20
237.88561896910906
 30
0.0
  0
SPLINE
  5
6F
100
AcDbEntity
  8
0
370
              15
  6
Continuous
 62
               7
100
AcDbSpline
210
0.0
220
0.0
230
1.0
 70
               8
 71
               2
 72
              11
 73
               8
 74
               0
 42
0.000001
 43
0.000001
 40
0.0
 40
0.0
 40
0.0
 40
1.0
 40
1.0
 40
2.0
 40
3.0
 40
3.0
 40
4.0
 40
4.0
 40
4.0
 10
207.28031578427817
 20
238.45880676100563
 30
0.0
 10
207.27670004063859
 20
238.43186459536486
 30
0.0
 10
207.27308429699897
 20
238.40492242972405
 30
0.0
 10
206.90047171730748
 20
235.72703724469272
 30
0.0
 10
206.44590183214592
 20
230.19371855494228
 30
0.0
 10
206.48113001235751
 20
227.30107827887747
 30
0.0
 10
206.48113203345869
 20
227.30093522314536
 30
0.0
 10
206.48113405455987
 20
227.30079216741331
 30
0.0
  0
SPLINE
  5
70
100
AcDbEntity
  8
0
370
              15
  6
Continuous
 62
               7
100
AcDbSpline
210
0.0
220
0.0
230
1.0
 70
               8
 71
               2
 72
              11
 73
               8
 74
               0
 42
0.000001
 43
0.000001
 40
0.0
 40
0.0
 40
0.0
 40
1.0
 40
1.0
 40
2.0
 40
3.0
 40
3.0
 40
4.0
 40
4.0
 40
4.0
 10
206.48113405455987
 20
227.30079216741331
 30
0.0
 10
206.48113453147843
 20
227.30092499816283
 30
0.0
 10
206.48113500839699
 20
227.30105782891235
 30
0.0
 10
206.50261314342833
 20
229.97908016849067
 30
0.0
 10
207.02712443606433
 20
235.22414985361172
 30
0.0
 10
207.41275513797191
 20
237.83321681674227
 30
0.0
 10
207.41655193386185
 20
237.85941789292565
 30
0.0
 10
207.42034872975179
 20
237.88561896910906
 30
0.0
  0
ARC
  5
71
100
AcDbEntity
  8
0
370
              15
  6
Continuous
 62
               7
100
AcDbCircle
 10
207.53516819933103
 20
238.48528166675669
 30
0.0
 40
0.256223874933686
100
AcDbArc
 50
80.824375394708895
 51
185.93080022469786
  0
ARC
  5
72
100
AcDbEntity
  8
0
370
              15
  6
Continuous
 62
               7
100
AcDbCircle
 10
207.908136700011
 20
237.89954430555673
 30
0.0
 40
0.4879866995403182
100
AcDbArc
 50
118.39851990900017
 51
181.63523172460114
  0
SPLINE
  5
73
100
AcDbEntity
  8
0
370
              15
  6
Continuous
 62
               7
100
AcDbSpline
210
0.0
220
0.0
230
1.0
 70
               8
 71
               2
 72
              18
 73
              15
 74
               0
 42
0.000001
 43
0.000001
 40
0.0
 40
0.0
 40
0.0
 40
1.0
 40
1.0
 40
2.0
 40
3.0
 40
4.0
 40
5.0
 40
6.0
 40
7.0
 40
8.0
 40
9.0
 40
10.0
 40
10.0
 40
11.0
 40
11.0
 40
11.0
 10
207.67604950084598
 20
238.32880710490798
 30
0.0
 10
207.67461682394602
 20
238.32923436056439
 30
0.0
 10
207.6731841470461
 20
238.32966161622079
 30
0.0
 10
207.62995972531854
 20
238.34242570682073
 30
0.0
 10
207.54655975344204
 20
238.3686246748876
 30
0.0
 10
207.43960085180331
 20
238.41063137375602
 30
0.0
 10
207.35514870242491
 20
238.48017141134224
 30
0.0
 10
207.3366316498834
 20
238.55734686558378
 30
0.0
 10
207.37003087151334
 20
238.61495439858578
 30
0.0
 10
207.42656404420364
 20
238.66921713677004
 30
0.0
 10
207.51104545257405
 20
238.71023790451778
 30
0.0
 10
207.55310738645503
 20
238.7285429519369
 30
0.0
 10
207.57459656920022
 20
238.73762121288985
 30
0.0
 10
207.57531126946085
 20
238.73792408179966
 30
0.0
 10
207.57602596972148
 20
238.73822695070947
 30
0.0
  0
SPLINE
  5
74
100
AcDbEntity
  8
0
370
              15
  6
Continuous
 62
               7
100
AcDbSpline
210
0.0
220
0.0
230
1.0
 70
               8
 71
               2
 72
              11
 73
               8
 74
               0
 42
0.000001
 43
0.000001
 40
0.0
 40
0.0
 40
0.0
 40
1.0
 40
1.0
 40
2.0
 40
3.0
 40
3.0
 40
4.0
 40
4.0
 40
4.0
 10
214.85645217325214
 20
227.68804200285132
 30
0.0
 10
214.85644422617983
 20
227.68818478454227
 30
0.0
 10
214.8564362791075
 20
227.6883275662332
 30
0.0
 10
214.68651907407977
 20
230.57702828332776
 30
0.0
 10
213.86960416210815
 20
236.04812421987754
 30
0.0
 10
213.34129633385203
 20
238.68549844652961
 30
0.0
 10
213.33607034342992
 20
238.71203183935899
 30
0.0
 10
213.33084435300782
 20
238.73856523218834
 30
0.0
  0
SPLINE
  5
75
100
AcDbEntity
  8
0
370
              15
  6
Continuous
 62
               7
100
AcDbSpline
210
0.0
220
0.0
230
1.0
 70
               8
 71
               2
 72
              18
 73
              15
 74
               0
 42
0.000001
 43
0.000001
 40
0.0
 40
0.0
 40
0.0
 40
1.0
 40
1.0
 40
2.0
 40
3.0
 40
4.0
 40
5.0
 40
6.0
 40
7.0
 40
8.0
 40
9.0
 40
10.0
 40
10.0
 40
11.0
 40
11.0
 40
11.0
 10
213.47087729848147
 20
238.16537744029176
 30
0.0
 10
213.47204796877793
 20
238.16591837428831
 30
0.0
 10
213.47321863907439
 20
238.16645930828486
 30
0.0
 10
213.50851062999533
 20
238.18266500282505
 30
0.0
 10
213.57698934810196
 20
238.21533801737533
 30
0.0
 10
213.71096275445117
 20
238.29043003879784
 30
0.0
 10
213.79489410344004
 20
238.40240483060688
 30
0.0
 10
213.7953438052632
 20
238.50212450070626
 30
0.0
 10
213.73262523710343
 20
238.58018217205171
 30
0.0
 10
213.65236863983006
 20
238.63323880775184
 30
0.0
 10
213.54127660918877
 20
238.67887552410775
 30
0.0
 10
213.40636158096868
 20
238.71839141994991
 30
0.0
 10
213.33554212331975
 20
238.737298773757
 30
0.0
 10
213.33319323816377
 20
238.73793200297268
 30
0.0
 10
213.33084435300782
 20
238.73856523218834
 30
0.0
  0
SPLINE
  5
76
100
AcDbEntity
  8
0
370
              15
  6
Continuous
 62
               7
100
AcDbSpline
210
0.0
220
0.0
230
1.0
 70
               8
 71
               2
 72
              11
 73
               8
 74
               0
 42
0.000001
 43
0.000001
 40
0.0
 40
0.0
 40
0.0
 40
1.0
 40
1.0
 40
2.0
 40
3.0
 40
3.0
 40
4.0
 40
4.0
 40
4.0
 10
211.12501329343186
 20
239.25236357440065
 30
0.0
 10
211.12415642828205
 20
239.22724711314254
 30
0.0
 10
211.12329956313226
 20
239.20213065188443
 30
0.0
 10
211.00868801698826
 20
235.50165675535601
 30
0.0
 10
210.51779052433659
 20
230.23736579392676
 30
0.0
 10
210.36598333262819
 20
228.734276787944
 30
0.0
 10
210.36596958197444
 20
228.73413906017734
 30
0.0
 10
210.36595583132066
 20
228.73400133241068
 30
0.0
  0
SPLINE
  5
77
100
AcDbEntity
  8
0
370
              15
  6
Continuous
 62
               7
100
AcDbSpline
210
0.0
220
0.0
230
1.0
 70
               8
 71
               2
 72
              11
 73
               8
 74
               0
 42
0.000001
 43
0.000001
 40
0.0
 40
0.0
 40
0.0
 40
1.0
 40
1.0
 40
2.0
 40
3.0
 40
3.0
 40
4.0
 40
4.0
 40
4.0
 10
213.33084435300782
 20
238.73856523218834
 30
0.0
 10
213.31945207556811
 20
238.74146290587873
 30
0.0
 10
213.3080597981284
 20
238.7443605795691
 30
0.0
 10
212.60346751160841
 20
238.92783522710636
 30
0.0
 10
211.54224880324975
 20
239.16439217368281
 30
0.0
 10
211.1481835215902
 20
239.247454720154
 30
0.0
 10
211.13659840751103
 20
239.24990914727732
 30
0.0
 10
211.12501329343186
 20
239.25236357440065
 30
0.0
  0
POLYLINE
  5
78
100
AcDbEntity
  8
0
370
              15
  6
Continuous
 62
               7
100
AcDb2dPolyline
 66
               1
 10
0.0
 20
0.0
 30
0.0
 75
               5
  0
VERTEX
  5
79
100
AcDbEntity
  8
0
370
              15
  6
Continuous
 62
               7
100
AcDbVertex
100
AcDb2dVertex
 10
213.330844353011
 20
238.73856523219672
 30
0.0
  0
VERTEX
  5
7A
100
AcDbEntity
  8
0
370
              15
  6
Continuous
 62
               7
100
AcDbVertex
100
AcDb2dVertex
 10
213.320101508211
 20
238.80488134263669
 30
0.0
  0
VERTEX
  5
7B
100
AcDbEntity
  8
0
370
              15
  6
Continuous
 62
               7
100
AcDbVertex
100
AcDb2dVertex
 10
213.30067736845101
 20
238.86451935391671
 30
0.0
  0
VERTEX
  5
7C
100
AcDbEntity
  8
0
370
              15
  6
Continuous
 62
               7
100
AcDbVertex
100
AcDb2dVertex
 10
213.273237182771
 20
238.91543681811669
 30
0.0
  0
VERTEX
  5
7D
100
AcDbEntity
  8
0
370
              15
  6
Continuous
 62
               7
100
AcDbVertex
100
AcDb2dVertex
 10
213.238720782451
 20
238.9558886756767
 30
0.0
  0
VERTEX
  5
7E
100
AcDbEntity
  8
0
370
              15
  6
Continuous
 62
               7
100
AcDbVertex
100
AcDb2dVertex
 10
213.198310217451
 20
238.98449101839668
 30
0.0
  0
VERTEX
  5
7F
100
AcDbEntity
  8
0
370
              15
  6
Continuous
 62
               7
100
AcDbVertex
100
AcDb2dVertex
 10
213.15338941717101
 20
239.0002639131967
 30
0.0
  0
VERTEX
  5
80
100
AcDbEntity
  8
0
370
              15
  6
Continuous
 62
               7
100
AcDbVertex
100
AcDb2dVertex
 10
213.105496966651
 20
239.00266636507666
 30
0.0
  0
VERTEX
  5
81
100
AcDbEntity
  8
0
370
              15
  6
Continuous
 62
               7
100
AcDbVertex
100
AcDb2dVertex
 10
213.05627305373102
 20
238.99161729975674
 30
0.0
  0
SEQEND
  5
82
100
AcDbEntity
  8
0
370
              15
  6
Continuous
 62
               7
  0
ARC
  5
83
100
AcDbEntity
  8
0
370
              15
  6
Continuous
 62
               7
100
AcDbCircle
 10
213.00498962129097
 20
238.1408841265567
 30
0.0
 40
0.4665310816728734
100
AcDbArc
 50
3.0094650776004226
 51
71.075409371097294
  0
SPLINE
  5
84
100
AcDbEntity
  8
0
370
              15
  6
Continuous
 62
               7
100
AcDbSpline
210
0.0
220
0.0
230
1.0
 70
               8
 71
               2
 72
              18
 73
              15
 74
               0
 42
0.000001
 43
0.000001
 40
0.0
 40
0.0
 40
0.0
 40
1.0
 40
1.0
 40
2.0
 40
3.0
 40
4.0
 40
5.0
 40
6.0
 40
7.0
 40
8.0
 40
9.0
 40
10.0
 40
10.0
 40
11.0
 40
11.0
 40
11.0
 10
213.05627305372829
 20
238.99161729975245
 30
0.0
 10
213.05770573062819
 20
238.99119004409604
 30
0.0
 10
213.05913840752811
 20
238.99076278843964
 30
0.0
 10
213.10236282925564
 20
238.97799869783958
 30
0.0
 10
213.18576280113223
 20
238.95179972977317
 30
0.0
 10
213.2927217027709
 20
238.90979303090432
 30
0.0
 10
213.3771738521493
 20
238.84025299331836
 30
0.0
 10
213.39569090469087
 20
238.76307753907662
 30
0.0
 10
213.36229168306082
 20
238.70547000607462
 30
0.0
 10
213.30575851037048
 20
238.65120726789053
 30
0.0
 10
213.22127710200013
 20
238.61018650014273
 30
0.0
 10
213.17921516811921
 20
238.5918814527235
 30
0.0
 10
213.15772598537399
 20
238.58280319177061
 30
0.0
 10
213.15701128511338
 20
238.58250032286077
 30
0.0
 10
213.15629658485278
 20
238.58219745395095
 30
0.0
  0
SPLINE
  5
85
100
AcDbEntity
  8
0
370
              15
  6
Continuous
 62
               7
100
AcDbSpline
210
0.0
220
0.0
230
1.0
 70
               8
 71
               2
 72
              11
 73
               8
 74
               0
 42
0.000001
 43
0.000001
 40
0.0
 40
0.0
 40
0.0
 40
1.0
 40
1.0
 40
2.0
 40
3.0
 40
3.0
 40
4.0
 40
4.0
 40
4.0
 10
209.1886261098156
 20
239.1628307820252
 30
0.0
 10
209.1793362375723
 20
239.15964049835191
 30
0.0
 10
209.17004636532897
 20
239.15645021467861
 30
0.0
 10
208.4805640502957
 20
238.92393372142703
 30
0.0
 10
207.57011539464722
 20
238.57350573041856
 30
0.0
 10
207.29843435114955
 20
238.46596505595704
 30
0.0
 10
207.28937506771385
 20
238.46238590848134
 30
0.0
 10
207.28031578427817
 20
238.45880676100563
 30
0.0
  0
SPLINE
  5
86
100
AcDbEntity
  8
0
370
              15
  6
Continuous
 62
               7
100
AcDbSpline
210
0.0
220
0.0
230
1.0
 70
               8
 71
               2
 72
              11
 73
               8
 74
               0
 42
0.000001
 43
0.000001
 40
0.0
 40
0.0
 40
0.0
 40
1.0
 40
1.0
 40
2.0
 40
3.0
 40
3.0
 40
4.0
 40
4.0
 40
4.0
 10
210.36595583132066
 20
228.73400133241068
 30
0.0
 10
210.36593503915012
 20
228.73413746301975
 30
0.0
 10
210.36591424697954
 20
228.73427359362881
 30
0.0
 10
210.07965340192843
 20
230.56813142180528
 30
0.0
 10
209.40209194433493
 20
235.75758563433797
 30
0.0
 10
209.19191959058185
 20
239.11282937807744
 30
0.0
 10
209.19027285019874
 20
239.13783008005134
 30
0.0
 10
209.1886261098156
 20
239.1628307820252
 30
0.0
  0
POLYLINE
  5
87
100
AcDbEntity
  8
0
370
              15
  6
Continuous
 62
               7
100
AcDb2dPolyline
 66
               1
 10
0.0
 20
0.0
 30
0.0
 75
               5
  0
VERTEX
  5
88
100
AcDbEntity
  8
0
370
              15
  6
Continuous
 62
               7
100
AcDbVertex
100
AcDb2dVertex
 10
211.12501329345096
 20
239.2523635743967
 30
0.0
  0
VERTEX
  5
89
100
AcDbEntity
  8
0
370
              15
  6
Continuous
 62
               7
100
AcDbVertex
100
AcDb2dVertex
 10
211.11457546185102
 20
239.31860863891669
 30
0.0
  0
VERTEX
  5
8A
100
AcDbEntity
  8
0
370
              15
  6
Continuous
 62
               7
100
AcDbVertex
100
AcDb2dVertex
 10
211.09575867289095
 20
239.37810518163667
 30
0.0
  0
VERTEX
  5
8B
100
AcDbEntity
  8
0
370
              15
  6
Continuous
 62
               7
100
AcDbVertex
100
AcDb2dVertex
 10
211.069207193691
 20
239.42881564175667
 30
0.0
  0
VERTEX
  5
8C
100
AcDbEntity
  8
0
370
              15
  6
Continuous
 62
               7
100
AcDbVertex
100
AcDb2dVertex
 10
211.03583043873095
 20
239.4690020447967
 30
0.0
  0
VERTEX
  5
8D
100
AcDbEntity
  8
0
370
              15
  6
Continuous
 62
               7
100
AcDbVertex
100
AcDb2dVertex
 10
210.996771591971
 20
239.4972895353967
 30
0.0
  0
VERTEX
  5
8E
100
AcDbEntity
  8
0
370
              15
  6
Continuous
 62
               7
100
AcDbVertex
100
AcDb2dVertex
 10
210.95336811261097
 20
239.51270900467671
 30
0.0
  0
VERTEX
  5
8F
100
AcDbEntity
  8
0
370
              15
  6
Continuous
 62
               7
100
AcDbVertex
100
AcDb2dVertex
 10
210.907106764491
 20
239.51473152819671
 30
0.0
  0
VERTEX
  5
90
100
AcDbEntity
  8
0
370
              15
  6
Continuous
 62
               7
100
AcDbVertex
100
AcDb2dVertex
 10
210.85957168965098
 20
239.50328908635669
 30
0.0
  0
SEQEND
  5
91
100
AcDbEntity
  8
0
370
              15
  6
Continuous
 62
               7
  0
SPLINE
  5
92
100
AcDbEntity
  8
0
370
              15
  6
Continuous
 62
               7
100
AcDbSpline
210
0.0
220
0.0
230
1.0
 70
               8
 71
               2
 72
              10
 73
               7
 74
               0
 42
0.000001
 43
0.000001
 40
0.0
 40
0.0
 40
0.0
 40
1.0
 40
1.0
 40
2.0
 40
2.0
 40
3.0
 40
3.0
 40
3.0
 10
210.85957168963998
 20
239.50328908635845
 30
0.0
 10
210.87112683378643
 20
239.50066699420262
 30
0.0
 10
210.88268197793292
 20
239.49804490204679
 30
0.0
 10
211.97076218279756
 20
239.25219337580461
 30
0.0
 10
213.03361876648552
 20
238.99703295768944
 30
0.0
 10
213.04494591010689
 20
238.99432512872096
 30
0.0
 10
213.05627305372829
 20
238.99161729975245
 30
0.0
  0
ARC
  5
93
100
AcDbEntity
  8
0
370
              15
  6
Continuous
 62
               7
100
AcDbCircle
 10
209.436235929731
 20
239.19313989827668
 30
0.0
 40
0.2494579432463198
100
AcDbArc
 50
80.725898560400864
 51
186.97867422760501
  0
SPLINE
  5
94
100
AcDbEntity
  8
0
370
              15
  6
Continuous
 62
               7
100
AcDbSpline
210
0.0
220
0.0
230
1.0
 70
               8
 71
               2
 72
              10
 73
               7
 74
               0
 42
0.000001
 43
0.000001
 40
0.0
 40
0.0
 40
0.0
 40
1.0
 40
1.0
 40
2.0
 40
2.0
 40
3.0
 40
3.0
 40
3.0
 10
207.57602596972148
 20
238.73822695070947
 30
0.0
 10
207.58503842504075
 20
238.74162594087932
 30
0.0
 10
207.59405088036002
 20
238.74502493104916
 30
0.0
 10
208.51172361629315
 20
239.09215882126699
 30
0.0
 10
209.45791649250378
 20
239.43265219466701
 30
0.0
 10
209.4671772491605
 20
239.43599464366946
 30
0.0
 10
209.47643800581719
 20
239.43933709267191
 30
0.0
  0
SPLINE
  5
95
100
AcDbEntity
  8
0
370
              15
  6
Continuous
 62
               7
100
AcDbSpline
210
0.0
220
0.0
230
1.0
 70
               8
 71
               2
 72
              16
 73
              13
 74
               0
 42
0.000001
 43
0.000001
 40
0.0
 40
0.0
 40
0.0
 40
1.0
 40
1.0
 40
2.0
 40
3.0
 40
4.0
 40
5.0
 40
6.0
 40
7.0
 40
8.0
 40
8.0
 40
9.0
 40
9.0
 40
9.0
 10
211.12501329343186
 20
239.25236357440065
 30
0.0
 10
211.12294910750481
 20
239.25282422135649
 30
0.0
 10
211.12088492157773
 20
239.25328486831233
 30
0.0
 10
211.05919828216562
 20
239.26723677997182
 30
0.0
 10
210.81147780704453
 20
239.31847597088273
 30
0.0
 10
210.44770822643505
 20
239.34147147881816
 30
0.0
 10
210.1589970933361
 20
239.3399207688995
 30
0.0
 10
209.87064062443807
 20
239.31941912838445
 30
0.0
 10
209.54686734827584
 20
239.27156179891324
 30
0.0
 10
209.2951655778154
 20
239.19799858607149
 30
0.0
 10
209.19531708851625
 20
239.16501314533991
 30
0.0
 10
209.19197159916592
 20
239.16392196368258
 30
0.0
 10
209.1886261098156
 20
239.1628307820252
 30
0.0
  0
SPLINE
  5
96
100
AcDbEntity
  8
0
370
              15
  6
Continuous
 62
               7
100
AcDbSpline
210
0.0
220
0.0
230
1.0
 70
               8
 71
               2
 72
              16
 73
              13
 74
               0
 42
0.000001
 43
0.000001
 40
0.0
 40
0.0
 40
0.0
 40
1.0
 40
1.0
 40
2.0
 40
3.0
 40
4.0
 40
5.0
 40
6.0
 40
7.0
 40
8.0
 40
8.0
 40
9.0
 40
9.0
 40
9.0
 10
209.47643800581719
 20
239.43933709267191
 30
0.0
 10
209.47865738778984
 20
239.44000140658756
 30
0.0
 10
209.48087676976249
 20
239.44066572050318
 30
0.0
 10
209.53831386407319
 20
239.4580525919489
 30
0.0
 10
209.72030569239473
 20
239.50975495039145
 30
0.0
 10
209.92467340294934
 20
239.53710166033733
 30
0.0
 10
210.16106481369025
 20
239.56025984965419
 30
0.0
 10
210.44806954159731
 20
239.55622935463364
 30
0.0
 10
210.6675095157367
 20
239.53958311504294
 30
0.0
 10
210.81587693161137
 20
239.51198128941593
 30
0.0
 10
210.85683524772151
 20
239.50382959018617
 30
0.0
 10
210.85820346868073
 20
239.50355933827234
 30
0.0
 10
210.85957168963998
 20
239.50328908635845
 30
0.0
  0
LINE
  5
97
100
AcDbEntity
  8
0
370
              15
  6
Continuous
 62
               7
100
AcDbLine
 10
214.83003833805097
 20
227.43081891047669
 30
0.0
 11
214.81465207353099
 21
228.4559204230367
 31
0.0
  0
SPLINE
  5
98
100
AcDbEntity
  8
0
370
              15
  6
Continuous
 62
               7
100
AcDbSpline
210
0.0
220
0.0
230
1.0
 70
               8
 71
               2
 72
              11
 73
               8
 74
               0
 42
0.000001
 43
0.000001
 40
0.0
 40
0.0
 40
0.0
 40
1.0
 40
1.0
 40
2.0
 40
3.0
 40
3.0
 40
4.0
 40
4.0
 40
4.0
 10
206.96416551187721
 20
238.2098805116982
 30
0.0
 10
206.96197250583052
 20
238.18863541784452
 30
0.0
 10
206.95977949978379
 20
238.16739032399087
 30
0.0
 10
206.83368665917251
 20
236.98919780048291
 30
0.0
 10
206.47702156180432
 20
232.06200686573953
 30
0.0
 10
206.48119007906288
 20
228.21392653215031
 30
0.0
 10
206.48116416978786
 20
228.18526711369395
 30
0.0
 10
206.48113826051281
 20
228.15660769523757
 30
0.0
  0
SPLINE
  5
99
100
AcDbEntity
  8
0
370
              15
  6
Continuous
 62
               7
100
AcDbSpline
210
0.0
220
0.0
230
1.0
 70
               8
 71
               2
 72
              17
 73
              14
 74
               0
 42
0.000001
 43
0.000001
 40
0.0
 40
0.0
 40
0.0
 40
1.0
 40
1.0
 40
2.0
 40
3.0
 40
4.0
 40
5.0
 40
6.0
 40
7.0
 40
8.0
 40
9.0
 40
9.0
 40
10.0
 40
10.0
 40
10.0
 10
207.44769228881478
 20
238.72878507117048
 30
0.0
 10
207.44739060446378
 20
238.72868960960096
 30
0.0
 10
207.44708892011278
 20
238.72859414803148
 30
0.0
 10
207.38249305652016
 20
238.70912971242421
 30
0.0
 10
207.28291649860657
 20
238.66002963554789
 30
0.0
 10
207.20139761917881
 20
238.60596845603436
 30
0.0
 10
207.11594313213956
 20
238.53648987308921
 30
0.0
 10
207.05159914038168
 20
238.46108756706684
 30
0.0
 10
207.00806014566811
 20
238.39353119580358
 30
0.0
 10
206.98035918683746
 20
238.31806942237108
 30
0.0
 10
206.96450350294472
 20
238.25259667061886
 30
0.0
 10
206.95753040657789
 20
238.21934377812909
 30
0.0
 10
206.9572946278852
 20
238.21823715335205
 30
0.0
 10
206.95705884919252
 20
238.21713052857504
 30
0.0
  0
SPLINE
  5
9A
100
AcDbEntity
  8
0
370
              15
  6
Continuous
 62
               7
100
AcDbSpline
210
0.0
220
0.0
230
1.0
 70
               8
 71
               2
 72
              11
 73
               8
 74
               0
 42
0.000001
 43
0.000001
 40
0.0
 40
0.0
 40
0.0
 40
1.0
 40
1.0
 40
2.0
 40
3.0
 40
3.0
 40
4.0
 40
4.0
 40
4.0
 10
214.82541459249489
 20
228.29552499992519
 30
0.0
 10
214.82461171533515
 20
228.31066965647318
 30
0.0
 10
214.82380883817541
 20
228.3258143130212
 30
0.0
 10
214.62982798532573
 20
232.07533717477205
 30
0.0
 10
214.00868796206797
 20
237.07210938164195
 30
0.0
 10
213.79300538098124
 20
238.42046615546263
 30
0.0
 10
213.78893471005955
 20
238.44636258881093
 30
0.0
 10
213.78486403913786
 20
238.47225902215919
 30
0.0
  0
SPLINE
  5
9B
100
AcDbEntity
  8
0
370
              15
  6
Continuous
 62
               7
100
AcDbSpline
210
0.0
220
0.0
230
1.0
 70
               8
 71
               2
 72
              17
 73
              14
 74
               0
 42
0.000001
 43
0.000001
 40
0.0
 40
0.0
 40
0.0
 40
1.0
 40
1.0
 40
2.0
 40
3.0
 40
4.0
 40
5.0
 40
6.0
 40
7.0
 40
8.0
 40
9.0
 40
9.0
 40
10.0
 40
10.0
 40
10.0
 10
213.78665807689387
 20
238.47289519346413
 30
0.0
 10
213.78664082462976
 20
238.47330527580186
 30
0.0
 10
213.78662357236564
 20
238.47371535813954
 30
0.0
 10
213.78614912338071
 20
238.48602776603957
 30
0.0
 10
213.78317213415278
 20
238.53984066778355
 30
0.0
 10
213.75373240476404
 20
238.61476138128188
 30
0.0
 10
213.66775197930957
 20
238.74972446444019
 30
0.0
 10
213.51658906871782
 20
238.86433580159738
 30
0.0
 10
213.38348280688388
 20
238.93145838071973
 30
0.0
 10
213.27435666055382
 20
238.96622132183271
 30
0.0
 10
213.19770847831251
 20
238.98595708332579
 30
0.0
 10
213.15883542921449
 20
238.99534695428906
 30
0.0
 10
213.1575415854625
 20
238.99566162376451
 30
0.0
 10
213.15624774171053
 20
238.99597629323995
 30
0.0
  0
LINE
  5
9C
100
AcDbEntity
  8
0
370
              15
  6
Continuous
 62
               7
100
AcDbLine
 10
206.47987097337099
 20
228.32453791755671
 30
0.0
 11
206.51291453469099
 21
227.5696348525567
 31
0.0
  0
SPLINE
  5
9D
100
AcDbEntity
  8
0
370
              15
  6
Continuous
 62
               7
100
AcDbSpline
210
0.0
220
0.0
230
1.0
 70
               8
 71
               2
 72
              10
 73
               7
 74
               0
 42
0.000001
 43
0.000001
 40
0.0
 40
0.0
 40
0.0
 40
1.0
 40
1.0
 40
2.0
 40
2.0
 40
3.0
 40
3.0
 40
3.0
 10
213.15579853579823
 20
238.99719685099637
 30
0.0
 10
213.14476770717889
 20
238.999872343476
 30
0.0
 10
213.13373687855957
 20
239.00254783595565
 30
0.0
 10
212.07530464597659
 20
239.26066214184505
 30
0.0
 10
210.97908344633188
 20
239.50545923036469
 30
0.0
 10
210.9671871223951
 20
239.50813189971336
 30
0.0
 10
210.95529079845829
 20
239.510804569062
 30
0.0
  0
SPLINE
  5
9E
100
AcDbEntity
  8
0
370
              15
  6
Continuous
 62
               7
100
AcDbSpline
210
0.0
220
0.0
230
1.0
 70
               8
 71
               2
 72
              11
 73
               8
 74
               0
 42
0.000001
 43
0.000001
 40
0.0
 40
0.0
 40
0.0
 40
1.0
 40
1.0
 40
2.0
 40
3.0
 40
3.0
 40
4.0
 40
4.0
 40
4.0
 10
209.35643813459558
 20
239.432894344533
 30
0.0
 10
209.34746927246294
 20
239.4296968112651
 30
0.0
 10
209.33850041033031
 20
239.42649927799724
 30
0.0
 10
208.65454006326573
 20
239.18450121844677
 30
0.0
 10
207.74741946491105
 20
238.84391499290646
 30
0.0
 10
207.46631315862007
 20
238.73690638454991
 30
0.0
 10
207.45693741529058
 20
238.73334075998801
 30
0.0
 10
207.4475616719611
 20
238.72977513542611
 30
0.0
  0
SPLINE
  5
9F
100
AcDbEntity
  8
0
370
              15
  6
Continuous
 62
               7
100
AcDbSpline
210
0.0
220
0.0
230
1.0
 70
               8
 71
               2
 72
              15
 73
              12
 74
               0
 42
0.000001
 43
0.000001
 40
0.0
 40
0.0
 40
0.0
 40
1.0
 40
1.0
 40
2.0
 40
3.0
 40
4.0
 40
5.0
 40
6.0
 40
7.0
 40
7.0
 40
8.0
 40
8.0
 40
8.0
 10
210.95551212116763
 20
239.5101203867714
 30
0.0
 10
210.95518463641702
 20
239.51021269645781
 30
0.0
 10
210.95485715166637
 20
239.51030500614428
 30
0.0
 10
210.87380956735279
 20
239.53372762339473
 30
0.0
 10
210.65313337965665
 20
239.56190681555302
 30
0.0
 10
210.35311235142262
 20
239.58019993588778
 30
0.0
 10
209.96814867123041
 20
239.56589975840623
 30
0.0
 10
209.60323739185711
 20
239.51114424844607
 30
0.0
 10
209.4116795279042
 20
239.45210616391131
 30
0.0
 10
209.35775959478843
 20
239.43425087051995
 30
0.0
 10
209.35595779503302
 20
239.43365861611238
 30
0.0
 10
209.35415599527761
 20
239.43306636170485
 30
0.0
  0
LINE
  5
A0
100
AcDbEntity
  8
0
370
              15
  6
Continuous
 62
               7
100
AcDbLine
 10
200.83465071853098
 20
226.61090141551671
 30
0.0
 11
205.62373569749099
 21
49.914548937916692
 31
0.0
  0
LINE
  5
A1
100
AcDbEntity
  8
0
370
              15
  6
Continuous
 62
               7
100
AcDbLine
 10
225.31529822917102
 20
50.8227331407967
 30
0.0
 11
220.52632423681098
 21
227.51499069579671
 31
0.0
  0
LINE
  5
A2
100
AcDbEntity
  8
0
370
              15
  6
Continuous
 62
               7
100
AcDbLine
 10
201.40676659705102
 20
227.6347495966767
 30
0.0
 11
211.15935141201101
 21
225.36310604151674
 31
0.0
  0
ARC
  5
A3
100
AcDbEntity
  8
0
370
              15
  6
Continuous
 62
               7
100
AcDbCircle
 10
211.29546441693103
 20
225.94746315143669
 30
0.0
 40
0.6000000000000243
100
AcDbArc
 50
256.88804076829996
 51
290.2502952889007
  0
LINE
  5
A4
100
AcDbEntity
  8
0
370
              15
  6
Continuous
 62
               7
100
AcDbLine
 10
211.50313799317101
 20
225.38454945011671
 30
0.0
 11
219.94030194653101
 21
228.49723296547671
 31
0.0
  0
LINE
  5
A5
100
AcDbEntity
  8
0
370
              15
  6
Continuous
 62
               7
100
AcDbLine
 10
219.53507029781099
 20
241.95550925675667
 30
0.0
 11
209.78248548285103
 21
244.22715281191671
 31
0.0
  0
ARC
  5
A6
100
AcDbEntity
  8
0
370
              15
  6
Continuous
 62
               7
100
AcDbCircle
 10
201.209208095131
 20
240.5301114695167
 30
0.0
 40
0.600000000000006
100
AcDbArc
 50
110.25029528890084
 51
181.55253457639799
  0
LINE
  5
A7
100
AcDbEntity
  8
0
370
              15
  6
Continuous
 62
               7
100
AcDbLine
 10
200.60942852465101
 20
240.51385529123672
 30
0.0
 11
200.94309951465104
 21
228.20285076311671
 31
0.0
  0
LINE
  5
A8
100
AcDbEntity
  8
0
370
              15
  6
Continuous
 62
               7
100
AcDbLine
 10
209.43869890773101
 20
244.20570918111667
 30
0.0
 11
201.00153495433096
 21
241.09302566579669
 31
0.0
  0
ARC
  5
A9
100
AcDbEntity
  8
0
370
              15
  6
Continuous
 62
               7
100
AcDbCircle
 10
219.39895782161099
 20
241.37115147403668
 30
0.0
 40
0.6000000000000099
100
AcDbArc
 50
1.5525345763980067
 51
76.888040768300229
  0
LINE
  5
AA
100
AcDbEntity
  8
0
370
              15
  6
Continuous
 62
               7
100
AcDbLine
 10
220.33240838949101
 20
229.07640285115673
 30
0.0
 11
219.99873739949101
 21
241.38740737927668
 31
0.0
  0
ARC
  5
AB
100
AcDbEntity
  8
0
370
              15
  6
Continuous
 62
               7
100
AcDbCircle
 10
201.542879088251
 20
228.21910682623673
 30
0.0
 40
0.5999999999999645
100
AcDbArc
 50
181.5525345763981
 51
256.8880407682995
  0
ARC
  5
AC
100
AcDbEntity
  8
0
370
              15
  6
Continuous
 62
               7
100
AcDbCircle
 10
219.73262881473102
 20
229.06014683071672
 30
0.0
 40
0.600000000000006
100
AcDbArc
 50
290.25029528890087
 51
1.5525345763980456
  0
ARC
  5
AD
100
AcDbEntity
  8
0
370
              15
  6
Continuous
 62
               7
100
AcDbCircle
 10
209.64637249293102
 20
243.64279514883668
 30
0.0
 40
0.6000000000000243
100
AcDbArc
 50
76.888040768299973
 51
110.25029528890073
  0
SPLINE
  5
AE
100
AcDbEntity
  8
0
370
              15
  6
Continuous
 62
               7
100
AcDbSpline
210
0.0
220
0.0
230
1.0
 70
               8
 71
               2
 72
              16
 73
              13
 74
               0
 42
0.000001
 43
0.000001
 40
0.0
 40
0.0
 40
0.0
 40
1.0
 40
1.0
 40
2.0
 40
3.0
 40
4.0
 40
5.0
 40
6.0
 40
7.0
 40
8.0
 40
8.0
 40
9.0
 40
9.0
 40
9.0
 10
200.82326777977642
 20
227.24494828120925
 30
0.0
 10
200.82313652921439
 20
227.24487333466186
 30
0.0
 10
200.82300527865237
 20
227.24479838811445
 30
0.0
 10
200.81482268141227
 20
227.24018590276739
 30
0.0
 10
200.79395913495929
 20
227.22766670846977
 30
0.0
 10
200.77145609482614
 20
227.20650473729188
 30
0.0
 10
200.75772008430118
 20
227.18597681328612
 30
0.0
 10
200.75021145577247
 20
227.16918949436382
 30
0.0
 10
200.7476071432051
 20
227.15600096125416
 30
0.0
 10
200.74618528405253
 20
227.14366213075428
 30
0.0
 10
200.7457073358768
 20
227.13529542304551
 30
0.0
 10
200.74569867603677
 20
227.13516057794527
 30
0.0
 10
200.7456900161967
 20
227.13502573284507
 30
0.0
  0
LINE
  5
AF
100
AcDbEntity
  8
0
370
              15
  6
Continuous
 62
               7
100
AcDbLine
 10
200.745582872851
 20
227.13678633911672
 30
0.0
 11
200.74980571717097
 21
226.65772701927671
 31
0.0
  0
LINE
  5
B0
100
AcDbEntity
  8
0
370
              15
  6
Continuous
 62
               7
100
AcDbLine
 10
201.69465313249103
 20
227.5676929275167
 30
0.0
 11
200.83320172533101
 21
227.24988168083672
 31
0.0
  0
SPLINE
  5
B1
100
AcDbEntity
  8
0
370
              15
  6
Continuous
 62
               7
100
AcDbSpline
210
0.0
220
0.0
230
1.0
 70
               8
 71
               2
 72
              16
 73
              13
 74
               0
 42
0.000001
 43
0.000001
 40
0.0
 40
0.0
 40
0.0
 40
1.0
 40
1.0
 40
2.0
 40
3.0
 40
4.0
 40
5.0
 40
6.0
 40
7.0
 40
8.0
 40
8.0
 40
9.0
 40
9.0
 40
9.0
 10
220.58659066580364
 20
228.04834964097591
 30
0.0
 10
220.58656312828717
 20
228.0484942406427
 30
0.0
 10
220.58653559077072
 20
228.04863884030948
 30
0.0
 10
220.58493291404366
 20
228.05762305125137
 30
0.0
 10
220.58161383224103
 20
228.0707833090818
 30
0.0
 10
220.57556286201017
 20
228.08804236956252
 30
0.0
 10
220.56058749191536
 20
228.10793396949242
 30
0.0
 10
220.54567586675154
 20
228.12277766677454
 30
0.0
 10
220.52355442562441
 20
228.13930160454703
 30
0.0
 10
220.49836373242093
 20
228.15088273923192
 30
0.0
 10
220.48878769719943
 20
228.15492675068305
 30
0.0
 10
220.48863375563641
 20
228.15499251010209
 30
0.0
 10
220.4884798140734
 20
228.15505826952119
 30
0.0
  0
LINE
  5
B2
100
AcDbEntity
  8
0
370
              15
  6
Continuous
 62
               7
100
AcDbLine
 10
220.60845537861101
 20
227.56828134391674
 30
0.0
 11
220.586723067251
 21
228.04686616963673
 31
0.0
  0
LINE
  5
B3
100
AcDbEntity
  8
0
370
              15
  6
Continuous
 62
               7
100
AcDbLine
 10
220.47797890133103
 20
228.1591224319167
 30
0.0
 11
219.58660896189099
 21
228.36674685319673
 31
0.0
  0
ARC
  5
B4
100
AcDbEntity
  8
0
370
              15
  6
Continuous
 62
               7
100
AcDbCircle
 10
216.17268712029102
 20
47.623048580436716
 30
0.0
 40
0.1691744459909068
100
AcDbArc
 50
258.1510689178952
 51
287.14353354279837
  0
LINE
  5
B5
100
AcDbEntity
  8
0
370
              15
  6
Continuous
 62
               7
100
AcDbLine
 10
216.13795020341101
 20
47.457478837516689
 30
0.0
 11
205.644471159571
 21
49.901696908196698
 31
0.0
  0
POLYLINE
  5
B6
100
AcDbEntity
  8
0
370
              15
  6
Continuous
 62
               7
100
AcDb2dPolyline
 66
               1
 10
0.0
 20
0.0
 30
0.0
 75
               5
  0
VERTEX
  5
B7
100
AcDbEntity
  8
0
370
              15
  6
Continuous
 62
               7
100
AcDbVertex
100
AcDb2dVertex
 10
210.19282958241104
 20
74.44680507347671
 30
0.0
  0
VERTEX
  5
B8
100
AcDbEntity
  8
0
370
              15
  6
Continuous
 62
               7
100
AcDbVertex
100
AcDb2dVertex
 10
210.53813510749097
 20
74.399723181076709
 30
0.0
  0
VERTEX
  5
B9
100
AcDbEntity
  8
0
370
              15
  6
Continuous
 62
               7
100
AcDbVertex
100
AcDb2dVertex
 10
210.87352832525104
 20
74.420845898396706
 30
0.0
  0
VERTEX
  5
BA
100
AcDbEntity
  8
0
370
              15
  6
Continuous
 62
               7
100
AcDbVertex
100
AcDb2dVertex
 10
211.19114786873098
 20
74.509675560836712
 30
0.0
  0
VERTEX
  5
BB
100
AcDbEntity
  8
0
370
              15
  6
Continuous
 62
               7
100
AcDbVertex
100
AcDb2dVertex
 10
211.48354872341099
 20
74.664147898196703
 30
0.0
  0
VERTEX
  5
BC
100
AcDbEntity
  8
0
370
              15
  6
Continuous
 62
               7
100
AcDbVertex
100
AcDb2dVertex
 10
211.74387712277104
 20
74.880636515876702
 30
0.0
  0
VERTEX
  5
BD
100
AcDbEntity
  8
0
370
              15
  6
Continuous
 62
               7
100
AcDbVertex
100
AcDb2dVertex
 10
211.96603185241102
 20
75.154050980356715
 30
0.0
  0
VERTEX
  5
BE
100
AcDbEntity
  8
0
370
              15
  6
Continuous
 62
               7
100
AcDbVertex
100
AcDb2dVertex
 10
212.14480508073103
 20
75.478007502876693
 30
0.0
  0
VERTEX
  5
BF
100
AcDbEntity
  8
0
370
              15
  6
Continuous
 62
               7
100
AcDbVertex
100
AcDb2dVertex
 10
212.27600705145102
 20
75.844890333236705
 30
0.0
  0
VERTEX
  5
C0
100
AcDbEntity
  8
0
370
              15
  6
Continuous
 62
               7
100
AcDbVertex
100
AcDb2dVertex
 10
212.356562299171
 20
76.246111969276711
 30
0.0
  0
VERTEX
  5
C1
100
AcDbEntity
  8
0
370
              15
  6
Continuous
 62
               7
100
AcDbVertex
100
AcDb2dVertex
 10
212.38458230677099
 20
76.672277109836699
 30
0.0
  0
VERTEX
  5
C2
100
AcDbEntity
  8
0
370
              15
  6
Continuous
 62
               7
100
AcDbVertex
100
AcDb2dVertex
 10
212.359411072451
 20
77.113375527676695
 30
0.0
  0
VERTEX
  5
C3
100
AcDbEntity
  8
0
370
              15
  6
Continuous
 62
               7
100
AcDbVertex
100
AcDb2dVertex
 10
212.28163790717099
 20
77.559084318436703
 30
0.0
  0
VERTEX
  5
C4
100
AcDbEntity
  8
0
370
              15
  6
Continuous
 62
               7
100
AcDbVertex
100
AcDb2dVertex
 10
212.15308619093105
 20
77.998940092076708
 30
0.0
  0
VERTEX
  5
C5
100
AcDbEntity
  8
0
370
              15
  6
Continuous
 62
               7
100
AcDbVertex
100
AcDb2dVertex
 10
211.97676871617102
 20
78.422654604356708
 30
0.0
  0
VERTEX
  5
C6
100
AcDbEntity
  8
0
370
              15
  6
Continuous
 62
               7
100
AcDbVertex
100
AcDb2dVertex
 10
211.75681862125103
 20
78.820277807036703
 30
0.0
  0
VERTEX
  5
C7
100
AcDbEntity
  8
0
370
              15
  6
Continuous
 62
               7
100
AcDbVertex
100
AcDb2dVertex
 10
211.498390994251
 20
79.182503387396693
 30
0.0
  0
VERTEX
  5
C8
100
AcDbEntity
  8
0
370
              15
  6
Continuous
 62
               7
100
AcDbVertex
100
AcDb2dVertex
 10
211.20754297109099
 20
79.500843659196718
 30
0.0
  0
VERTEX
  5
C9
100
AcDbEntity
  8
0
370
              15
  6
Continuous
 62
               7
100
AcDbVertex
100
AcDb2dVertex
 10
210.89109263973103
 20
79.767809390316714
 30
0.0
  0
VERTEX
  5
CA
100
AcDbEntity
  8
0
370
              15
  6
Continuous
 62
               7
100
AcDbVertex
100
AcDb2dVertex
 10
210.55645645929098
 20
79.97717376871671
 30
0.0
  0
VERTEX
  5
CB
100
AcDbEntity
  8
0
370
              15
  6
Continuous
 62
               7
100
AcDbVertex
100
AcDb2dVertex
 10
210.21147817345101
 20
80.124023557756701
 30
0.0
  0
VERTEX
  5
CC
100
AcDbEntity
  8
0
370
              15
  6
Continuous
 62
               7
100
AcDbVertex
100
AcDb2dVertex
 10
209.86424416845102
 20
80.204903847916711
 30
0.0
  0
VERTEX
  5
CD
100
AcDbEntity
  8
0
370
              15
  6
Continuous
 62
               7
100
AcDbVertex
100
AcDb2dVertex
 10
209.52289326933098
 20
80.217918884356706
 30
0.0
  0
VERTEX
  5
CE
100
AcDbEntity
  8
0
370
              15
  6
Continuous
 62
               7
100
AcDbVertex
100
AcDb2dVertex
 10
209.195426142011
 20
80.162776462556707
 30
0.0
  0
VERTEX
  5
CF
100
AcDbEntity
  8
0
370
              15
  6
Continuous
 62
               7
100
AcDbVertex
100
AcDb2dVertex
 10
208.88951817317101
 20
80.040774989476716
 30
0.0
  0
VERTEX
  5
D0
100
AcDbEntity
  8
0
370
              15
  6
Continuous
 62
               7
100
AcDbVertex
100
AcDb2dVertex
 10
208.61234037805099
 20
79.854743455676697
 30
0.0
  0
VERTEX
  5
D1
100
AcDbEntity
  8
0
370
              15
  6
Continuous
 62
               7
100
AcDbVertex
100
AcDb2dVertex
 10
208.370388931131
 20
79.609069837716717
 30
0.0
  0
VERTEX
  5
D2
100
AcDbEntity
  8
0
370
              15
  6
Continuous
 62
               7
100
AcDbVertex
100
AcDb2dVertex
 10
208.169334918571
 20
79.30950999827671
 30
0.0
  0
VERTEX
  5
D3
100
AcDbEntity
  8
0
370
              15
  6
Continuous
 62
               7
100
AcDbVertex
100
AcDb2dVertex
 10
208.01389125985096
 20
78.963071721476709
 30
0.0
  0
VERTEX
  5
D4
100
AcDbEntity
  8
0
370
              15
  6
Continuous
 62
               7
100
AcDbVertex
100
AcDb2dVertex
 10
207.90770082253104
 20
78.577893811236706
 30
0.0
  0
VERTEX
  5
D5
100
AcDbEntity
  8
0
370
              15
  6
Continuous
 62
               7
100
AcDbVertex
100
AcDb2dVertex
 10
207.85325344361101
 20
78.162982798996694
 30
0.0
  0
VERTEX
  5
D6
100
AcDbEntity
  8
0
370
              15
  6
Continuous
 62
               7
100
AcDbVertex
100
AcDb2dVertex
 10
207.85182488001101
 20
77.728080201116697
 30
0.0
  0
VERTEX
  5
D7
100
AcDbEntity
  8
0
370
              15
  6
Continuous
 62
               7
100
AcDbVertex
100
AcDb2dVertex
 10
207.90344880241102
 20
77.283363812476708
 30
0.0
  0
VERTEX
  5
D8
100
AcDbEntity
  8
0
370
              15
  6
Continuous
 62
               7
100
AcDbVertex
100
AcDb2dVertex
 10
208.00691480229099
 20
76.839278598276692
 30
0.0
  0
VERTEX
  5
D9
100
AcDbEntity
  8
0
370
              15
  6
Continuous
 62
               7
100
AcDbVertex
100
AcDb2dVertex
 10
208.159797839851
 20
76.406224605076702
 30
0.0
  0
VERTEX
  5
DA
100
AcDbEntity
  8
0
370
              15
  6
Continuous
 62
               7
100
AcDbVertex
100
AcDb2dVertex
 10
208.35851491149097
 20
75.994340274356702
 30
0.0
  0
VERTEX
  5
DB
100
AcDbEntity
  8
0
370
              15
  6
Continuous
 62
               7
100
AcDbVertex
100
AcDb2dVertex
 10
208.59840757453102
 20
75.613302343716711
 30
0.0
  0
VERTEX
  5
DC
100
AcDbEntity
  8
0
370
              15
  6
Continuous
 62
               7
100
AcDbVertex
100
AcDb2dVertex
 10
208.87385357985099
 20
75.272017223756706
 30
0.0
  0
VERTEX
  5
DD
100
AcDbEntity
  8
0
370
              15
  6
Continuous
 62
               7
100
AcDbVertex
100
AcDb2dVertex
 10
209.17839649797099
 20
74.978500366356698
 30
0.0
  0
VERTEX
  5
DE
100
AcDbEntity
  8
0
370
              15
  6
Continuous
 62
               7
100
AcDbVertex
100
AcDb2dVertex
 10
209.50489765037102
 20
74.739637389156698
 30
0.0
  0
VERTEX
  5
DF
100
AcDbEntity
  8
0
370
              15
  6
Continuous
 62
               7
100
AcDbVertex
100
AcDb2dVertex
 10
209.84570481373103
 20
74.561009121596697
 30
0.0
  0
VERTEX
  5
E0
100
AcDbEntity
  8
0
370
              15
  6
Continuous
 62
               7
100
AcDbVertex
100
AcDb2dVertex
 10
210.19282958241104
 20
74.44680507347671
 30
0.0
  0
SEQEND
  5
E1
100
AcDbEntity
  8
0
370
              15
  6
Continuous
 62
               7
  0
POLYLINE
  5
E2
100
AcDbEntity
  8
0
370
              15
  6
Continuous
 62
               7
100
AcDb2dPolyline
 66
               1
 10
0.0
 20
0.0
 30
0.0
 75
               5
  0
VERTEX
  5
E3
100
AcDbEntity
  8
0
370
              15
  6
Continuous
 62
               7
100
AcDbVertex
100
AcDb2dVertex
 10
210.66617672381099
 20
56.982359629436701
 30
0.0
  0
VERTEX
  5
E4
100
AcDbEntity
  8
0
370
              15
  6
Continuous
 62
               7
100
AcDbVertex
100
AcDb2dVertex
 10
210.891923768651
 20
56.963013126636696
 30
0.0
  0
VERTEX
  5
E5
100
AcDbEntity
  8
0
370
              15
  6
Continuous
 62
               7
100
AcDbVertex
100
AcDb2dVertex
 10
211.103688132451
 20
57.01158711007669
 30
0.0
  0
VERTEX
  5
E6
100
AcDbEntity
  8
0
370
              15
  6
Continuous
 62
               7
100
AcDbVertex
100
AcDb2dVertex
 10
211.29005322641098
 20
57.125472771836712
 30
0.0
  0
VERTEX
  5
E7
100
AcDbEntity
  8
0
370
              15
  6
Continuous
 62
               7
100
AcDbVertex
100
AcDb2dVertex
 10
211.44097242385098
 20
57.298520330316705
 30
0.0
  0
VERTEX
  5
E8
100
AcDbEntity
  8
0
370
              15
  6
Continuous
 62
               7
100
AcDbVertex
100
AcDb2dVertex
 10
211.54830924477102
 20
57.521410618356697
 30
0.0
  0
VERTEX
  5
E9
100
AcDbEntity
  8
0
370
              15
  6
Continuous
 62
               7
100
AcDbVertex
100
AcDb2dVertex
 10
211.60627757469103
 20
57.782117784916693
 30
0.0
  0
VERTEX
  5
EA
100
AcDbEntity
  8
0
370
              15
  6
Continuous
 62
               7
100
AcDbVertex
100
AcDb2dVertex
 10
211.61175162109103
 20
58.066605824996714
 30
0.0
  0
VERTEX
  5
EB
100
AcDbEntity
  8
0
370
              15
  6
Continuous
 62
               7
100
AcDbVertex
100
AcDb2dVertex
 10
211.56443675049101
 20
58.359523600156706
 30
0.0
  0
VERTEX
  5
EC
100
AcDbEntity
  8
0
370
              15
  6
Continuous
 62
               7
100
AcDbVertex
100
AcDb2dVertex
 10
211.46688397809103
 20
58.645071934036693
 30
0.0
  0
VERTEX
  5
ED
100
AcDbEntity
  8
0
370
              15
  6
Continuous
 62
               7
100
AcDbVertex
100
AcDb2dVertex
 10
211.32435196049101
 20
58.907872314356695
 30
0.0
  0
VERTEX
  5
EE
100
AcDbEntity
  8
0
370
              15
  6
Continuous
 62
               7
100
AcDbVertex
100
AcDb2dVertex
 10
211.144524564211
 20
59.133756186956703
 30
0.0
  0
VERTEX
  5
EF
100
AcDbEntity
  8
0
370
              15
  6
Continuous
 62
               7
100
AcDbVertex
100
AcDb2dVertex
 10
210.937096937771
 20
59.310528354956702
 30
0.0
  0
VERTEX
  5
F0
100
AcDbEntity
  8
0
370
              15
  6
Continuous
 62
               7
100
AcDbVertex
100
AcDb2dVertex
 10
210.71325068205098
 20
59.428688381316704
 30
0.0
  0
VERTEX
  5
F1
100
AcDbEntity
  8
0
370
              15
  6
Continuous
 62
               7
100
AcDbVertex
100
AcDb2dVertex
 10
210.485054113731
 20
59.481841598996695
 30
0.0
  0
VERTEX
  5
F2
100
AcDbEntity
  8
0
370
              15
  6
Continuous
 62
               7
100
AcDbVertex
100
AcDb2dVertex
 10
210.264809343651
 20
59.467122510196702
 30
0.0
  0
VERTEX
  5
F3
100
AcDbEntity
  8
0
370
              15
  6
Continuous
 62
               7
100
AcDbVertex
100
AcDb2dVertex
 10
210.064389196891
 20
59.385349235596706
 30
0.0
  0
VERTEX
  5
F4
100
AcDbEntity
  8
0
370
              15
  6
Continuous
 62
               7
100
AcDbVertex
100
AcDb2dVertex
 10
209.89459909173104
 20
59.240900834636705
 30
0.0
  0
VERTEX
  5
F5
100
AcDbEntity
  8
0
370
              15
  6
Continuous
 62
               7
100
AcDbVertex
100
AcDb2dVertex
 10
209.76459210373102
 20
59.0415822375967
 30
0.0
  0
VERTEX
  5
F6
100
AcDbEntity
  8
0
370
              15
  6
Continuous
 62
               7
100
AcDbVertex
100
AcDb2dVertex
 10
209.681376820971
 20
58.798139724396691
 30
0.0
  0
VERTEX
  5
F7
100
AcDbEntity
  8
0
370
              15
  6
Continuous
 62
               7
100
AcDbVertex
100
AcDb2dVertex
 10
209.64943980069103
 20
58.523681880676705
 30
0.0
  0
VERTEX
  5
F8
100
AcDbEntity
  8
0
370
              15
  6
Continuous
 62
               7
100
AcDbVertex
100
AcDb2dVertex
 10
209.67050260629105
 20
58.233012682476712
 30
0.0
  0
VERTEX
  5
F9
100
AcDbEntity
  8
0
370
              15
  6
Continuous
 62
               7
100
AcDbVertex
100
AcDb2dVertex
 10
209.74342943541097
 20
57.941816455836715
 30
0.0
  0
VERTEX
  5
FA
100
AcDbEntity
  8
0
370
              15
  6
Continuous
 62
               7
100
AcDbVertex
100
AcDb2dVertex
 10
209.86428909481103
 20
57.665772970596706
 30
0.0
  0
VERTEX
  5
FB
100
AcDbEntity
  8
0
370
              15
  6
Continuous
 62
               7
100
AcDbVertex
100
AcDb2dVertex
 10
210.026565922571
 20
57.419773497756694
 30
0.0
  0
VERTEX
  5
FC
100
AcDbEntity
  8
0
370
              15
  6
Continuous
 62
               7
100
AcDbVertex
100
AcDb2dVertex
 10
210.22151167937102
 20
57.217070117116705
 30
0.0
  0
VERTEX
  5
FD
100
AcDbEntity
  8
0
370
              15
  6
Continuous
 62
               7
100
AcDbVertex
100
AcDb2dVertex
 10
210.43861660229101
 20
57.068600755196712
 30
0.0
  0
VERTEX
  5
FE
100
AcDbEntity
  8
0
370
              15
  6
Continuous
 62
               7
100
AcDbVertex
100
AcDb2dVertex
 10
210.66617672381099
 20
56.982359629436701
 30
0.0
  0
SEQEND
  5
FF
100
AcDbEntity
  8
0
370
              15
  6
Continuous
 62
               7
  0
LINE
  5
100
100
AcDbEntity
  8
0
370
              15
  6
Continuous
 62
               7
100
AcDbLine
 10
225.300681031571
 20
50.810541674516699
 30
0.0
 11
216.22255407205103
 21
47.461390669116682
 31
0.0
  0
POLYLINE
  5
101
100
AcDbEntity
  8
0
370
              15
  6
Continuous
 62
               7
100
AcDb2dPolyline
 66
               1
 10
0.0
 20
0.0
 30
0.0
 75
               5
  0
VERTEX
  5
102
100
AcDbEntity
  8
0
370
              15
  6
Continuous
 62
               7
100
AcDbVertex
100
AcDb2dVertex
 10
205.644471159571
 20
49.901696908196698
 30
0.0
  0
VERTEX
  5
103
100
AcDbEntity
  8
0
370
              15
  6
Continuous
 62
               7
100
AcDbVertex
100
AcDb2dVertex
 10
205.636375406371
 20
49.904036339436686
 30
0.0
  0
VERTEX
  5
104
100
AcDbEntity
  8
0
370
              15
  6
Continuous
 62
               7
100
AcDbVertex
100
AcDb2dVertex
 10
205.63009931553097
 20
49.906842329156689
 30
0.0
  0
VERTEX
  5
105
100
AcDbEntity
  8
0
370
              15
  6
Continuous
 62
               7
100
AcDbVertex
100
AcDb2dVertex
 10
205.62588333417099
 20
49.910006959636704
 30
0.0
  0
VERTEX
  5
106
100
AcDbEntity
  8
0
370
              15
  6
Continuous
 62
               7
100
AcDbVertex
100
AcDb2dVertex
 10
205.623890009451
 20
49.913408490156684
 30
0.0
  0
VERTEX
  5
107
100
AcDbEntity
  8
0
370
              15
  6
Continuous
 62
               7
100
AcDbVertex
100
AcDb2dVertex
 10
205.62373569749099
 20
49.914548937916692
 30
0.0
  0
SEQEND
  5
108
100
AcDbEntity
  8
0
370
              15
  6
Continuous
 62
               7
  0
POLYLINE
  5
109
100
AcDbEntity
  8
0
370
              15
  6
Continuous
 62
               7
100
AcDb2dPolyline
 66
               1
 10
0.0
 20
0.0
 30
0.0
 75
               5
  0
VERTEX
  5
10A
100
AcDbEntity
  8
0
370
              15
  6
Continuous
 62
               7
100
AcDbVertex
100
AcDb2dVertex
 10
225.31529822917102
 20
50.8227331407967
 30
0.0
  0
VERTEX
  5
10B
100
AcDbEntity
  8
0
370
              15
  6
Continuous
 62
               7
100
AcDbVertex
100
AcDb2dVertex
 10
225.314838583491
 20
50.820365774916709
 30
0.0
  0
VERTEX
  5
10C
100
AcDbEntity
  8
0
370
              15
  6
Continuous
 62
               7
100
AcDbVertex
100
AcDb2dVertex
 10
225.31224578725102
 20
50.816886326796691
 30
0.0
  0
VERTEX
  5
10D
100
AcDbEntity
  8
0
370
              15
  6
Continuous
 62
               7
100
AcDbVertex
100
AcDb2dVertex
 10
225.30746562501099
 20
50.813569128756711
 30
0.0
  0
VERTEX
  5
10E
100
AcDbEntity
  8
0
370
              15
  6
Continuous
 62
               7
100
AcDbVertex
100
AcDb2dVertex
 10
225.300681031571
 20
50.810541674516699
 30
0.0
  0
SEQEND
  5
10F
100
AcDbEntity
  8
0
370
              15
  6
Continuous
 62
               7
  0
LINE
  5
110
100
AcDbEntity
  8
0
370
              15
  6
Continuous
 62
               7
100
AcDbLine
 10
208.19047864365103
 20
77.247415842076705
 30
0.0
 11
208.21085705025098
 21
77.131148277556704
 31
0.0
  0
SPLINE
  5
111
100
AcDbEntity
  8
0
370
              15
  6
Continuous
 62
               7
100
AcDbSpline
210
0.0
220
0.0
230
1.0
 70
               8
 71
               2
 72
              10
 73
               7
 74
               0
 42
0.000001
 43
0.000001
 40
0.0
 40
0.0
 40
0.0
 40
1.0
 40
1.0
 40
2.0
 40
2.0
 40
3.0
 40
3.0
 40
3.0
 10
208.2108569421444
 20
77.131152111211136
 30
0.0
 10
208.2114451006866
 20
77.126544041964166
 30
0.0
 10
208.2120332592288
 20
77.121935972717182
 30
0.0
 10
208.2542278120734
 20
76.797209417425009
 30
0.0
 10
208.31914985421028
 20
76.477580971239604
 30
0.0
 10
208.32008236001184
 20
76.473041553342853
 30
0.0
 10
208.32101486581342
 20
76.468502135446101
 30
0.0
  0
LINE
  5
112
100
AcDbEntity
  8
0
370
              15
  6
Continuous
 62
               7
100
AcDbLine
 10
208.32101499757101
 20
76.468503335156697
 30
0.0
 11
208.33983347989098
 21
76.409790175036704
 31
0.0
  0
POLYLINE
  5
113
100
AcDbEntity
  8
0
370
              15
  6
Continuous
 62
               7
100
AcDb2dPolyline
 66
               1
 10
0.0
 20
0.0
 30
0.0
 75
               5
  0
VERTEX
  5
114
100
AcDbEntity
  8
0
370
              15
  6
Continuous
 62
               7
100
AcDbVertex
100
AcDb2dVertex
 10
208.33983347989098
 20
76.409790175036704
 30
0.0
  0
VERTEX
  5
115
100
AcDbEntity
  8
0
370
              15
  6
Continuous
 62
               7
100
AcDbVertex
100
AcDb2dVertex
 10
208.55707436625099
 20
75.978883578276708
 30
0.0
  0
VERTEX
  5
116
100
AcDbEntity
  8
0
370
              15
  6
Continuous
 62
               7
100
AcDbVertex
100
AcDb2dVertex
 10
208.81923206413103
 20
75.584350473996707
 30
0.0
  0
VERTEX
  5
117
100
AcDbEntity
  8
0
370
              15
  6
Continuous
 62
               7
100
AcDbVertex
100
AcDb2dVertex
 10
209.11944073285099
 20
75.23652872555671
 30
0.0
  0
VERTEX
  5
118
100
AcDbEntity
  8
0
370
              15
  6
Continuous
 62
               7
100
AcDbVertex
100
AcDb2dVertex
 10
209.44983875481103
 20
74.944518514116695
 30
0.0
  0
VERTEX
  5
119
100
AcDbEntity
  8
0
370
              15
  6
Continuous
 62
               7
100
AcDbVertex
100
AcDb2dVertex
 10
209.80177349913103
 20
74.715965071476717
 30
0.0
  0
VERTEX
  5
11A
100
AcDbEntity
  8
0
370
              15
  6
Continuous
 62
               7
100
AcDbVertex
100
AcDb2dVertex
 10
210.16602805249101
 20
74.556858905476702
 30
0.0
  0
VERTEX
  5
11B
100
AcDbEntity
  8
0
370
              15
  6
Continuous
 62
               7
100
AcDbVertex
100
AcDb2dVertex
 10
210.533063166251
 20
74.471366395916689
 30
0.0
  0
VERTEX
  5
11C
100
AcDbEntity
  8
0
370
              15
  6
Continuous
 62
               7
100
AcDbVertex
100
AcDb2dVertex
 10
210.89326666501103
 20
74.461726481116713
 30
0.0
  0
VERTEX
  5
11D
100
AcDbEntity
  8
0
370
              15
  6
Continuous
 62
               7
100
AcDbVertex
100
AcDb2dVertex
 10
211.23129712141099
 20
74.526346298756692
 30
0.0
  0
SEQEND
  5
11E
100
AcDbEntity
  8
0
370
              15
  6
Continuous
 62
               7
  0
ARC
  5
11F
100
AcDbEntity
  8
0
370
              15
  6
Continuous
 62
               7
100
AcDbCircle
 10
211.724498949051
 20
78.016144284236702
 30
0.0
 40
3.6166618499476337
100
AcDbArc
 50
170.8331254572
 51
192.27194369559993
  0
LINE
  5
120
100
AcDbEntity
  8
0
370
              15
  6
Continuous
 62
               7
100
AcDbLine
 10
208.16849488389099
 20
78.694127492356714
 30
0.0
 11
208.15402716889102
 21
78.592316310516708
 31
0.0
  0
SPLINE
  5
121
100
AcDbEntity
  8
0
370
              15
  6
Continuous
 62
               7
100
AcDbSpline
210
0.0
220
0.0
230
1.0
 70
               8
 71
               2
 72
              11
 73
               8
 74
               0
 42
0.000001
 43
0.000001
 40
0.0
 40
0.0
 40
0.0
 40
1.0
 40
1.0
 40
2.0
 40
3.0
 40
3.0
 40
4.0
 40
4.0
 40
4.0
 10
208.24699457044335
 20
79.199528264191102
 30
0.0
 10
208.24634309881222
 20
79.196685344659357
 30
0.0
 10
208.24569162718109
 20
79.193842425127627
 30
0.0
 10
208.22636026667655
 20
79.107964183514312
 30
0.0
 10
208.18578289524754
 20
78.872463094904191
 30
0.0
 10
208.16914245190233
 20
78.701001251600374
 30
0.0
 10
208.16881864582544
 20
78.697565109229927
 30
0.0
 10
208.16849483974852
 20
78.694128966859481
 30
0.0
  0
LINE
  5
122
100
AcDbEntity
  8
0
370
              15
  6
Continuous
 62
               7
100
AcDbLine
 10
208.263022240091
 20
79.243789980436716
 30
0.0
 11
208.24699460081101
 21
79.199533202956715
 31
0.0
  0
ARC
  5
123
100
AcDbEntity
  8
0
370
              15
  6
Continuous
 62
               7
100
AcDbCircle
 10
209.89440883653097
 20
78.531380911796717
 30
0.0
 40
1.7801541809715169
100
AcDbArc
 50
114.50190329339986
 51
156.40962121739926
  0
POLYLINE
  5
124
100
AcDbEntity
  8
0
370
              15
  6
Continuous
 62
               7
100
AcDb2dPolyline
 66
               1
 10
0.0
 20
0.0
 30
0.0
 75
               5
  0
VERTEX
  5
125
100
AcDbEntity
  8
0
370
              15
  6
Continuous
 62
               7
100
AcDbVertex
100
AcDb2dVertex
 10
210.82314744489099
 20
57.040270104836708
 30
0.0
  0
VERTEX
  5
126
100
AcDbEntity
  8
0
370
              15
  6
Continuous
 62
               7
100
AcDbVertex
100
AcDb2dVertex
 10
211.048894489731
 20
57.020923602076707
 30
0.0
  0
VERTEX
  5
127
100
AcDbEntity
  8
0
370
              15
  6
Continuous
 62
               7
100
AcDbVertex
100
AcDb2dVertex
 10
211.15917876253098
 20
57.037232765756698
 30
0.0
  0
SEQEND
  5
128
100
AcDbEntity
  8
0
370
              15
  6
Continuous
 62
               7
  0
POLYLINE
  5
129
100
AcDbEntity
  8
0
370
              15
  6
Continuous
 62
               7
100
AcDb2dPolyline
 66
               1
 10
0.0
 20
0.0
 30
0.0
 75
               5
  0
VERTEX
  5
12A
100
AcDbEntity
  8
0
370
              15
  6
Continuous
 62
               7
100
AcDbVertex
100
AcDb2dVertex
 10
210.26289408233097
 20
59.466685765156711
 30
0.0
  0
VERTEX
  5
12B
100
AcDbEntity
  8
0
370
              15
  6
Continuous
 62
               7
100
AcDbVertex
100
AcDb2dVertex
 10
210.221359917971
 20
59.443259711036717
 30
0.0
  0
VERTEX
  5
12C
100
AcDbEntity
  8
0
370
              15
  6
Continuous
 62
               7
100
AcDbVertex
100
AcDb2dVertex
 10
210.05156981281098
 20
59.298811310076701
 30
0.0
  0
VERTEX
  5
12D
100
AcDbEntity
  8
0
370
              15
  6
Continuous
 62
               7
100
AcDbVertex
100
AcDb2dVertex
 10
209.92156282481102
 20
59.09949271303671
 30
0.0
  0
VERTEX
  5
12E
100
AcDbEntity
  8
0
370
              15
  6
Continuous
 62
               7
100
AcDbVertex
100
AcDb2dVertex
 10
209.838347542051
 20
58.856050199836702
 30
0.0
  0
VERTEX
  5
12F
100
AcDbEntity
  8
0
370
              15
  6
Continuous
 62
               7
100
AcDbVertex
100
AcDb2dVertex
 10
209.806410521771
 20
58.581592356116687
 30
0.0
  0
VERTEX
  5
130
100
AcDbEntity
  8
0
370
              15
  6
Continuous
 62
               7
100
AcDbVertex
100
AcDb2dVertex
 10
209.82747332733098
 20
58.290923157916694
 30
0.0
  0
VERTEX
  5
131
100
AcDbEntity
  8
0
370
              15
  6
Continuous
 62
               7
100
AcDbVertex
100
AcDb2dVertex
 10
209.90040015649103
 20
57.999726931276697
 30
0.0
  0
VERTEX
  5
132
100
AcDbEntity
  8
0
370
              15
  6
Continuous
 62
               7
100
AcDbVertex
100
AcDb2dVertex
 10
210.02125981589097
 20
57.723683446036716
 30
0.0
  0
VERTEX
  5
133
100
AcDbEntity
  8
0
370
              15
  6
Continuous
 62
               7
100
AcDbVertex
100
AcDb2dVertex
 10
210.18353664361103
 20
57.477683973196704
 30
0.0
  0
VERTEX
  5
134
100
AcDbEntity
  8
0
370
              15
  6
Continuous
 62
               7
100
AcDbVertex
100
AcDb2dVertex
 10
210.378482400411
 20
57.274980592556687
 30
0.0
  0
VERTEX
  5
135
100
AcDbEntity
  8
0
370
              15
  6
Continuous
 62
               7
100
AcDbVertex
100
AcDb2dVertex
 10
210.59558732337101
 20
57.126511230636694
 30
0.0
  0
VERTEX
  5
136
100
AcDbEntity
  8
0
370
              15
  6
Continuous
 62
               7
100
AcDbVertex
100
AcDb2dVertex
 10
210.82314744489099
 20
57.040270104836708
 30
0.0
  0
SEQEND
  5
137
100
AcDbEntity
  8
0
370
              15
  6
Continuous
 62
               7
  0
LINE
  5
138
100
AcDbEntity
  8
0
370
              15
  6
Continuous
 62
               7
100
AcDbLine
 10
201.19368900393101
 20
241.10271596063671
 30
0.0
 11
210.946273818891
 21
238.8310724054767
 31
0.0
  0
LINE
  5
139
100
AcDbEntity
  8
0
370
              15
  6
Continuous
 62
               7
100
AcDbLine
 10
210.56936683381102
 20
238.11369170131672
 30
0.0
 11
200.81678201885097
 21
240.38533525643669
 31
0.0
  0
ARC
  5
13A
100
AcDbEntity
  8
0
370
              15
  6
Continuous
 62
               7
100
AcDbCircle
 10
201.565746398171
 20
240.44953696783671
 30
0.0
 40
0.751711049039513
100
AcDbArc
 50
119.66627882440184
 51
184.89945428639862
  0
LINE
  5
13B
100
AcDbEntity
  8
0
370
              15
  6
Continuous
 62
               7
100
AcDbLine
 10
201.150453008851
 20
228.0743307283567
 30
0.0
 11
210.90303782385101
 21
225.80268717319672
 31
0.0
  0
LINE
  5
13C
100
AcDbEntity
  8
0
370
              15
  6
Continuous
 62
               7
100
AcDbLine
 10
200.81678201885097
 20
240.38533525643669
 30
0.0
 11
201.150453008851
 21
228.0743307283567
 31
0.0
  0
LINE
  5
13D
100
AcDbEntity
  8
0
370
              15
  6
Continuous
 62
               7
100
AcDbLine
 10
219.383437772251
 20
241.94375592083668
 30
0.0
 11
209.63085295729098
 21
244.2153994759567
 31
0.0
  0
LINE
  5
13E
100
AcDbEntity
  8
0
370
              15
  6
Continuous
 62
               7
100
AcDbLine
 10
210.946273818891
 20
238.8310724054767
 30
0.0
 11
219.383437772251
 21
241.94375592083668
 31
0.0
  0
LINE
  5
13F
100
AcDbEntity
  8
0
370
              15
  6
Continuous
 62
               7
100
AcDbLine
 10
209.63085295729098
 20
244.2153994759567
 30
0.0
 11
201.19368900393101
 21
241.10271596063671
 31
0.0
  0
ARC
  5
140
100
AcDbEntity
  8
0
370
              15
  6
Continuous
 62
               7
100
AcDbCircle
 10
219.14078723401099
 20
241.2745532108367
 30
0.0
 40
0.7118367444532973
100
AcDbArc
 50
359.27075458899981
 51
70.069534294299785
  0
LINE
  5
141
100
AcDbEntity
  8
0
370
              15
  6
Continuous
 62
               7
100
AcDbLine
 10
219.85256632217101
 20
241.26549338711669
 30
0.0
 11
211.415402368771
 21
238.15280987175669
 31
0.0
  0
LINE
  5
142
100
AcDbEntity
  8
0
370
              15
  6
Continuous
 62
               7
100
AcDbLine
 10
220.18623731217099
 20
228.95448885899674
 30
0.0
 11
219.85256632217101
 21
241.26549338711669
 31
0.0
  0
LINE
  5
143
100
AcDbEntity
  8
0
370
              15
  6
Continuous
 62
               7
100
AcDbLine
 10
211.74907335881099
 20
225.84180534363674
 30
0.0
 11
220.18623731217099
 21
228.95448885899674
 31
0.0
  0
ARC
  5
144
100
AcDbEntity
  8
0
370
              15
  6
Continuous
 62
               7
100
AcDbCircle
 10
211.35539661809099
 20
225.19311469119671
 30
0.0
 40
0.5392217484349141
100
AcDbArc
 50
258.15113736820263
 51
287.14346509250288
  0
ARC
  5
145
100
AcDbEntity
  8
0
370
              15
  6
Continuous
 62
               7
100
AcDbCircle
 10
211.36916271097098
 20
224.67471724851671
 30
0.0
 40
0.1248344230753625
100
AcDbArc
 50
119.58476778820251
 51
184.28848665070774
  0
ARC
  5
146
100
AcDbEntity
  8
0
370
              15
  6
Continuous
 62
               7
100
AcDbCircle
 10
211.36036371717103
 20
225.03510450427672
 30
0.0
 40
0.2573104389141446
100
AcDbArc
 50
258.15128632689959
 51
287.14331613369552
  0
ARC
  5
147
100
AcDbEntity
  8
0
370
              15
  6
Continuous
 62
               7
100
AcDbCircle
 10
211.39596806761102
 20
224.67790384883671
 30
0.0
 40
0.1183724302042706
100
AcDbArc
 50
359.97429305030761
 51
70.125917451709043
  0
ARC
  5
148
100
AcDbEntity
  8
0
370
              15
  6
Continuous
 62
               7
100
AcDbCircle
 10
211.36771690545103
 20
224.73633574059673
 30
0.0
 40
0.5639184536410379
100
AcDbArc
 50
258.15120116119522
 51
287.1434012994971
  0
LINE
  5
149
100
AcDbEntity
  8
0
370
              15
  6
Continuous
 62
               7
100
AcDbLine
 10
211.25192771021102
 20
224.18443277395673
 30
0.0
 11
211.24467780181101
 21
224.6653823369567
 31
0.0
  0
LINE
  5
14A
100
AcDbEntity
  8
0
370
              15
  6
Continuous
 62
               7
100
AcDbLine
 10
211.51434048593103
 20
224.67785073855671
 30
0.0
 11
211.53393990537097
 21
224.19747218027669
 31
0.0
  0
LINE
  5
14B
100
AcDbEntity
  8
0
370
              15
  6
Continuous
 62
               7
100
AcDbLine
 10
211.24467780181101
 20
224.6653823369567
 30
0.0
 11
200.81167980457099
 21
227.09551271887671
 31
0.0
  0
ARC
  5
14C
100
AcDbEntity
  8
0
370
              15
  6
Continuous
 62
               7
100
AcDbCircle
 10
200.93616471377101
 20
227.10484763043672
 30
0.0
 40
0.1248344230751594
100
AcDbArc
 50
119.58476778820742
 51
184.28848665069384
  0
LINE
  5
14D
100
AcDbEntity
  8
0
370
              15
  6
Continuous
 62
               7
100
AcDbLine
 10
200.87453262437103
 20
227.21340691719672
 30
0.0
 11
211.307530621571
 21
224.78327653527674
 31
0.0
  0
POLYLINE
  5
14E
100
AcDbEntity
  8
0
370
              15
  6
Continuous
 62
               7
100
AcDb2dPolyline
 66
               1
 10
0.0
 20
0.0
 30
0.0
 75
               5
  0
VERTEX
  5
14F
100
AcDbEntity
  8
0
370
              15
  6
Continuous
 62
               7
100
AcDbVertex
100
AcDb2dVertex
 10
220.46201281845103
 20
228.1190738273167
 30
0.0
  0
VERTEX
  5
150
100
AcDbEntity
  8
0
370
              15
  6
Continuous
 62
               7
100
AcDbVertex
100
AcDb2dVertex
 10
220.47233140441099
 20
228.12367864063674
 30
0.0
  0
VERTEX
  5
151
100
AcDbEntity
  8
0
370
              15
  6
Continuous
 62
               7
100
AcDbVertex
100
AcDb2dVertex
 10
220.47960208565101
 20
228.12872386711672
 30
0.0
  0
VERTEX
  5
152
100
AcDbEntity
  8
0
370
              15
  6
Continuous
 62
               7
100
AcDbVertex
100
AcDb2dVertex
 10
220.48354497005099
 20
228.13401573215668
 30
0.0
  0
VERTEX
  5
153
100
AcDbEntity
  8
0
370
              15
  6
Continuous
 62
               7
100
AcDbVertex
100
AcDb2dVertex
 10
220.48400995721101
 20
228.13935105239671
 30
0.0
  0
VERTEX
  5
154
100
AcDbEntity
  8
0
370
              15
  6
Continuous
 62
               7
100
AcDbVertex
100
AcDb2dVertex
 10
220.480977579691
 20
228.14452466487674
 30
0.0
  0
VERTEX
  5
155
100
AcDbEntity
  8
0
370
              15
  6
Continuous
 62
               7
100
AcDbVertex
100
AcDb2dVertex
 10
220.474565995251
 20
228.14933777007673
 30
0.0
  0
VERTEX
  5
156
100
AcDbEntity
  8
0
370
              15
  6
Continuous
 62
               7
100
AcDbVertex
100
AcDb2dVertex
 10
220.465020119771
 20
228.1536054488767
 30
0.0
  0
VERTEX
  5
157
100
AcDbEntity
  8
0
370
              15
  6
Continuous
 62
               7
100
AcDbVertex
100
AcDb2dVertex
 10
220.45270721553103
 20
228.1571638493167
 30
0.0
  0
SEQEND
  5
158
100
AcDbEntity
  8
0
370
              15
  6
Continuous
 62
               7
  0
LINE
  5
159
100
AcDbEntity
  8
0
370
              15
  6
Continuous
 62
               7
100
AcDbLine
 10
211.43620927017102
 20
224.78922625379676
 30
0.0
 11
220.46201281845103
 21
228.1190738273167
 31
0.0
  0
POLYLINE
  5
15A
100
AcDbEntity
  8
0
370
              15
  6
Continuous
 62
               7
100
AcDb2dPolyline
 66
               1
 10
0.0
 20
0.0
 30
0.0
 75
               5
  0
VERTEX
  5
15B
100
AcDbEntity
  8
0
370
              15
  6
Continuous
 62
               7
100
AcDbVertex
100
AcDb2dVertex
 10
200.86522702145103
 20
227.25149693919673
 30
0.0
  0
VERTEX
  5
15C
100
AcDbEntity
  8
0
370
              15
  6
Continuous
 62
               7
100
AcDbVertex
100
AcDb2dVertex
 10
200.85490843549101
 20
227.24689212587674
 30
0.0
  0
VERTEX
  5
15D
100
AcDbEntity
  8
0
370
              15
  6
Continuous
 62
               7
100
AcDbVertex
100
AcDb2dVertex
 10
200.847637754251
 20
227.24184689939671
 30
0.0
  0
VERTEX
  5
15E
100
AcDbEntity
  8
0
370
              15
  6
Continuous
 62
               7
100
AcDbVertex
100
AcDb2dVertex
 10
200.84369486989098
 20
227.23655503435671
 30
0.0
  0
VERTEX
  5
15F
100
AcDbEntity
  8
0
370
              15
  6
Continuous
 62
               7
100
AcDbVertex
100
AcDb2dVertex
 10
200.84322988269102
 20
227.23121971411672
 30
0.0
  0
VERTEX
  5
160
100
AcDbEntity
  8
0
370
              15
  6
Continuous
 62
               7
100
AcDbVertex
100
AcDb2dVertex
 10
200.84626226021101
 20
227.22604610163671
 30
0.0
  0
VERTEX
  5
161
100
AcDbEntity
  8
0
370
              15
  6
Continuous
 62
               7
100
AcDbVertex
100
AcDb2dVertex
 10
200.852673844691
 20
227.22123299647672
 30
0.0
  0
VERTEX
  5
162
100
AcDbEntity
  8
0
370
              15
  6
Continuous
 62
               7
100
AcDbVertex
100
AcDb2dVertex
 10
200.86221972013101
 20
227.21696531763672
 30
0.0
  0
VERTEX
  5
163
100
AcDbEntity
  8
0
370
              15
  6
Continuous
 62
               7
100
AcDbVertex
100
AcDb2dVertex
 10
200.87453262437103
 20
227.21340691719672
 30
0.0
  0
SEQEND
  5
164
100
AcDbEntity
  8
0
370
              15
  6
Continuous
 62
               7
  0
LINE
  5
165
100
AcDbEntity
  8
0
370
              15
  6
Continuous
 62
               7
100
AcDbLine
 10
220.54014403417102
 20
228.00769831207674
 30
0.0
 11
211.51434048593103
 21
224.67785073855671
 31
0.0
  0
ARC
  5
166
100
AcDbEntity
  8
0
370
              15
  6
Continuous
 62
               7
100
AcDbCircle
 10
220.42177161589098
 20
228.00775142231674
 30
0.0
 40
0.1183724302043615
100
AcDbArc
 50
359.97429305030761
 51
70.125917451704652
  0
LINE
  5
167
100
AcDbEntity
  8
0
370
              15
  6
Continuous
 62
               7
100
AcDbLine
 10
200.81892971297103
 20
226.61456315587671
 30
0.0
 11
211.25192771021102
 21
224.18443277395673
 31
0.0
  0
LINE
  5
168
100
AcDbEntity
  8
0
370
              15
  6
Continuous
 62
               7
100
AcDbLine
 10
200.81167980457099
 20
227.09551271887671
 30
0.0
 11
200.81892971297103
 21
226.61456315587671
 31
0.0
  0
LINE
  5
169
100
AcDbEntity
  8
0
370
              15
  6
Continuous
 62
               7
100
AcDbLine
 10
211.53393990537097
 20
224.19747218027669
 30
0.0
 11
220.55974345365098
 21
227.52731975379669
 31
0.0
  0
LINE
  5
16A
100
AcDbEntity
  8
0
370
              15
  6
Continuous
 62
               7
100
AcDbLine
 10
220.55974345365098
 20
227.52731975379669
 30
0.0
 11
220.54014403417102
 21
228.00769831207674
 31
0.0
  0
LINE
  5
16B
100
AcDbEntity
  8
0
370
              15
  6
Continuous
 62
               7
100
AcDbLine
 10
200.74569147277097
 20
227.13501542195672
 30
0.0
 11
200.745582872851
 21
227.13678633911672
 31
0.0
  0
POLYLINE
  5
16C
100
AcDbEntity
  8
0
370
              15
  6
Continuous
 62
               7
100
AcDb2dPolyline
 66
               1
 10
0.0
 20
0.0
 30
0.0
 75
               5
  0
VERTEX
  5
16D
100
AcDbEntity
  8
0
370
              15
  6
Continuous
 62
               7
100
AcDbVertex
100
AcDb2dVertex
 10
200.83320172533101
 20
227.24988168083672
 30
0.0
  0
VERTEX
  5
16E
100
AcDbEntity
  8
0
370
              15
  6
Continuous
 62
               7
100
AcDbVertex
100
AcDb2dVertex
 10
200.824064202491
 20
227.2454460045567
 30
0.0
  0
VERTEX
  5
16F
100
AcDbEntity
  8
0
370
              15
  6
Continuous
 62
               7
100
AcDbVertex
100
AcDb2dVertex
 10
200.82315113577098
 20
227.2448738868367
 30
0.0
  0
SEQEND
  5
170
100
AcDbEntity
  8
0
370
              15
  6
Continuous
 62
               7
  0
POLYLINE
  5
171
100
AcDbEntity
  8
0
370
              15
  6
Continuous
 62
               7
100
AcDb2dPolyline
 66
               1
 10
0.0
 20
0.0
 30
0.0
 75
               5
  0
VERTEX
  5
172
100
AcDbEntity
  8
0
370
              15
  6
Continuous
 62
               7
100
AcDbVertex
100
AcDb2dVertex
 10
200.81892971297103
 20
226.61456315587671
 30
0.0
  0
VERTEX
  5
173
100
AcDbEntity
  8
0
370
              15
  6
Continuous
 62
               7
100
AcDbVertex
100
AcDb2dVertex
 10
200.791945081931
 20
226.62236136843671
 30
0.0
  0
VERTEX
  5
174
100
AcDbEntity
  8
0
370
              15
  6
Continuous
 62
               7
100
AcDbVertex
100
AcDb2dVertex
 10
200.77102426653101
 20
226.63171459147671
 30
0.0
  0
VERTEX
  5
175
100
AcDbEntity
  8
0
370
              15
  6
Continuous
 62
               7
100
AcDbVertex
100
AcDb2dVertex
 10
200.756971233651
 20
226.64226310859672
 30
0.0
  0
VERTEX
  5
176
100
AcDbEntity
  8
0
370
              15
  6
Continuous
 62
               7
100
AcDbVertex
100
AcDb2dVertex
 10
200.75032590449101
 20
226.65360165863672
 30
0.0
  0
VERTEX
  5
177
100
AcDbEntity
  8
0
370
              15
  6
Continuous
 62
               7
100
AcDbVertex
100
AcDb2dVertex
 10
200.74980571717097
 20
226.65772701927671
 30
0.0
  0
SEQEND
  5
178
100
AcDbEntity
  8
0
370
              15
  6
Continuous
 62
               7
  0
LINE
  5
179
100
AcDbEntity
  8
0
370
              15
  6
Continuous
 62
               7
100
AcDbLine
 10
220.47797890133103
 20
228.1591224319167
 30
0.0
 11
220.48855777489098
 21
228.15501466643673
 31
0.0
  0
LINE
  5
17A
100
AcDbEntity
  8
0
370
              15
  6
Continuous
 62
               7
100
AcDbLine
 10
220.58657302197099
 20
228.04847839603673
 30
0.0
 11
220.586723067251
 21
228.04686616963673
 31
0.0
  0
POLYLINE
  5
17B
100
AcDbEntity
  8
0
370
              15
  6
Continuous
 62
               7
100
AcDb2dPolyline
 66
               1
 10
0.0
 20
0.0
 30
0.0
 75
               5
  0
VERTEX
  5
17C
100
AcDbEntity
  8
0
370
              15
  6
Continuous
 62
               7
100
AcDbVertex
100
AcDb2dVertex
 10
220.60845537861101
 20
227.56828134391674
 30
0.0
  0
VERTEX
  5
17D
100
AcDbEntity
  8
0
370
              15
  6
Continuous
 62
               7
100
AcDbVertex
100
AcDb2dVertex
 10
220.60693448117101
 20
227.56006645555672
 30
0.0
  0
VERTEX
  5
17E
100
AcDbEntity
  8
0
370
              15
  6
Continuous
 62
               7
100
AcDbVertex
100
AcDb2dVertex
 10
220.59829193873102
 20
227.54846856239669
 30
0.0
  0
VERTEX
  5
17F
100
AcDbEntity
  8
0
370
              15
  6
Continuous
 62
               7
100
AcDbVertex
100
AcDb2dVertex
 10
220.58235752673102
 20
227.53741126311672
 30
0.0
  0
VERTEX
  5
180
100
AcDbEntity
  8
0
370
              15
  6
Continuous
 62
               7
100
AcDbVertex
100
AcDb2dVertex
 10
220.55974345365098
 20
227.52731975379669
 30
0.0
  0
SEQEND
  5
181
100
AcDbEntity
  8
0
370
              15
  6
Continuous
 62
               7
  0
LINE
  5
182
100
AcDbEntity
  8
0
370
              15
  6
Continuous
 62
               7
100
AcDbLine
 10
211.348340524891
 20
224.17319043979674
 30
0.0
 11
216.13795020341101
 21
47.457478837516689
 31
0.0
  0
LINE
  5
183
100
AcDbEntity
  8
0
370
              15
  6
Continuous
 62
               7
100
AcDbLine
 10
211.432966064531
 20
224.1763027071967
 30
0.0
 11
216.22255407205103
 21
47.461390669116682
 31
0.0
  0
LINE
  5
184
100
AcDbEntity
  8
0
370
              15
  6
Continuous
 62
               7
100
AcDbLine
 10
200.85516737153102
 20
226.60612248707673
 30
0.0
 11
205.644471159571
 21
49.901696908196698
 31
0.0
  0
LINE
  5
185
100
AcDbEntity
  8
0
370
              15
  6
Continuous
 62
               7
100
AcDbLine
 10
220.51152459333099
 20
227.5095306876367
 30
0.0
 11
225.300681031571
 21
50.810541674516699
 31
0.0
  0
LINE
  5
186
100
AcDbEntity
  8
0
370
              15
  6
Continuous
 62
               7
100
AcDbLine
 10
211.32682643365098
 20
79.37983177363671
 30
0.0
 11
211.45514292641101
 21
74.645512725956692
 31
0.0
  0
LINE
  5
187
100
AcDbEntity
  8
0
370
              15
  6
Continuous
 62
               7
100
AcDbLine
 10
211.35346163877102
 20
79.351092799796717
 30
0.0
 11
211.48054844621103
 21
74.662143778756715
 31
0.0
  0
LINE
  5
188
100
AcDbEntity
  8
0
370
              15
  6
Continuous
 62
               7
100
AcDbLine
 10
211.63573751497097
 20
79.001197633396714
 30
0.0
 11
211.74732405865097
 21
74.884140755956693
 31
0.0
  0
LINE
  5
189
100
AcDbEntity
  8
0
370
              15
  6
Continuous
 62
               7
100
AcDbLine
 10
211.66263234777099
 20
78.962879531596712
 30
0.0
 11
211.77247025913104
 21
74.910339560116697
 31
0.0
  0
LINE
  5
18A
100
AcDbEntity
  8
0
370
              15
  6
Continuous
 62
               7
100
AcDbLine
 10
212.35009733581103
 20
77.187402727756719
 30
0.0
 11
212.371815712531
 21
76.386089331156697
 31
0.0
  0
LINE
  5
18B
100
AcDbEntity
  8
0
370
              15
  6
Continuous
 62
               7
100
AcDbLine
 10
212.36812961337102
 20
77.030458686796706
 30
0.0
 11
212.38151554609101
 21
76.536576140156711
 31
0.0
  0
ARC
  5
18C
100
AcDbEntity
  8
0
370
              15
  6
Continuous
 62
               7
100
AcDbCircle
 10
201.57457402509098
 20
228.02711274643673
 30
0.0
 40
0.4267413434543264
100
AcDbArc
 50
173.64734147019945
 51
246.84438095529978
  0
ARC
  5
18D
100
AcDbEntity
  8
0
370
              15
  6
Continuous
 62
               7
100
AcDbCircle
 10
211.32715884005103
 20
225.75546919131671
 30
0.0
 40
0.4267413434545976
100
AcDbArc
 50
173.64734147020351
 51
246.84438095529754
  0
ARC
  5
18E
100
AcDbEntity
  8
0
370
              15
  6
Continuous
 62
               7
100
AcDbCircle
 10
211.306845130651
 20
225.78489187899675
 30
0.0
 40
0.4458754851012865
100
AcDbArc
 50
296.11928652490008
 51
7.3334866052985035
  0
ARC
  5
18F
100
AcDbEntity
  8
0
370
              15
  6
Continuous
 62
               7
100
AcDbCircle
 10
219.74400908405102
 20
228.89757539431673
 30
0.0
 40
0.4458754851012865
100
AcDbArc
 50
296.11928652490008
 51
7.3334866052985035
  0
ARC
  5
190
100
AcDbEntity
  8
0
370
              15
  6
Continuous
 62
               7
100
AcDbCircle
 10
219.47833199845101
 20
241.70350333771671
 30
0.0
 40
0.2583141843753847
100
AcDbArc
 50
77.311616842697333
 51
111.5528761878943
  0
ARC
  5
191
100
AcDbEntity
  8
0
370
              15
  6
Continuous
 62
               7
100
AcDbCircle
 10
209.72574718345101
 20
243.97514689291668
 30
0.0
 40
0.2583141843118459
100
AcDbArc
 50
77.311616838293915
 51
111.55287619220152
  0
POLYLINE
  5
192
100
AcDbEntity
  8
0
370
              15
  6
Continuous
 62
               7
100
AcDb2dPolyline
 66
               1
 10
0.0
 20
0.0
 30
0.0
 75
               5
  0
VERTEX
  5
193
100
AcDbEntity
  8
0
370
              15
  6
Continuous
 62
               7
100
AcDbVertex
100
AcDb2dVertex
 10
200.60942852465101
 20
240.51385529123672
 30
0.0
  0
VERTEX
  5
194
100
AcDbEntity
  8
0
370
              15
  6
Continuous
 62
               7
100
AcDbVertex
100
AcDb2dVertex
 10
200.61097115669099
 20
240.50245063355669
 30
0.0
  0
VERTEX
  5
195
100
AcDbEntity
  8
0
370
              15
  6
Continuous
 62
               7
100
AcDbVertex
100
AcDb2dVertex
 10
200.63090609365099
 20
240.46843493487671
 30
0.0
  0
VERTEX
  5
196
100
AcDbEntity
  8
0
370
              15
  6
Continuous
 62
               7
100
AcDbVertex
100
AcDb2dVertex
 10
200.67306470493099
 20
240.43678920367668
 30
0.0
  0
VERTEX
  5
197
100
AcDbEntity
  8
0
370
              15
  6
Continuous
 62
               7
100
AcDbVertex
100
AcDb2dVertex
 10
200.73582756245102
 20
240.4087300253567
 30
0.0
  0
VERTEX
  5
198
100
AcDbEntity
  8
0
370
              15
  6
Continuous
 62
               7
100
AcDbVertex
100
AcDb2dVertex
 10
200.81678201885097
 20
240.38533525643669
 30
0.0
  0
SEQEND
  5
199
100
AcDbEntity
  8
0
370
              15
  6
Continuous
 62
               7
  0
ARC
  5
19A
100
AcDbEntity
  8
0
370
              15
  6
Continuous
 62
               7
100
AcDbCircle
 10
201.113460884891
 20
240.78359436743671
 30
0.0
 40
0.3290518839264103
100
AcDbArc
 50
75.888125310902268
 51
109.88581542629896
  0
POLYLINE
  5
19B
100
AcDbEntity
  8
0
370
              15
  6
Continuous
 62
               7
100
AcDb2dPolyline
 66
               1
 10
0.0
 20
0.0
 30
0.0
 75
               5
  0
VERTEX
  5
19C
100
AcDbEntity
  8
0
370
              15
  6
Continuous
 62
               7
100
AcDbVertex
100
AcDb2dVertex
 10
200.94309951465104
 20
228.20285076311671
 30
0.0
  0
VERTEX
  5
19D
100
AcDbEntity
  8
0
370
              15
  6
Continuous
 62
               7
100
AcDbVertex
100
AcDb2dVertex
 10
200.94464214669097
 20
228.19144610543674
 30
0.0
  0
VERTEX
  5
19E
100
AcDbEntity
  8
0
370
              15
  6
Continuous
 62
               7
100
AcDbVertex
100
AcDb2dVertex
 10
200.96457708365097
 20
228.1574304067567
 30
0.0
  0
VERTEX
  5
19F
100
AcDbEntity
  8
0
370
              15
  6
Continuous
 62
               7
100
AcDbVertex
100
AcDb2dVertex
 10
201.00673569497098
 20
228.12578467555673
 30
0.0
  0
VERTEX
  5
1A0
100
AcDbEntity
  8
0
370
              15
  6
Continuous
 62
               7
100
AcDbVertex
100
AcDb2dVertex
 10
201.06949855249101
 20
228.09772549723669
 30
0.0
  0
VERTEX
  5
1A1
100
AcDbEntity
  8
0
370
              15
  6
Continuous
 62
               7
100
AcDbVertex
100
AcDb2dVertex
 10
201.150453008851
 20
228.0743307283567
 30
0.0
  0
SEQEND
  5
1A2
100
AcDbEntity
  8
0
370
              15
  6
Continuous
 62
               7
  0
ARC
  5
1A3
100
AcDbEntity
  8
0
370
              15
  6
Continuous
 62
               7
100
AcDbCircle
 10
209.550624838251
 20
243.89627788279671
 30
0.0
 40
0.3290518839285161
100
AcDbArc
 50
75.888125311002611
 51
109.88581542619946
  0
POLYLINE
  5
1A4
100
AcDbEntity
  8
0
370
              15
  6
Continuous
 62
               7
100
AcDb2dPolyline
 66
               1
 10
0.0
 20
0.0
 30
0.0
 75
               5
  0
VERTEX
  5
1A5
100
AcDbEntity
  8
0
370
              15
  6
Continuous
 62
               7
100
AcDbVertex
100
AcDb2dVertex
 10
219.99873739949101
 20
241.38740737927668
 30
0.0
  0
VERTEX
  5
1A6
100
AcDbEntity
  8
0
370
              15
  6
Continuous
 62
               7
100
AcDbVertex
100
AcDb2dVertex
 10
219.99413996805103
 20
241.36373336119669
 30
0.0
  0
VERTEX
  5
1A7
100
AcDbEntity
  8
0
370
              15
  6
Continuous
 62
               7
100
AcDbVertex
100
AcDb2dVertex
 10
219.96821290401101
 20
241.3289395505567
 30
0.0
  0
VERTEX
  5
1A8
100
AcDbEntity
  8
0
370
              15
  6
Continuous
 62
               7
100
AcDbVertex
100
AcDb2dVertex
 10
219.92040902877099
 20
241.29576809487668
 30
0.0
  0
VERTEX
  5
1A9
100
AcDbEntity
  8
0
370
              15
  6
Continuous
 62
               7
100
AcDbVertex
100
AcDb2dVertex
 10
219.85256632217101
 20
241.26549338711669
 30
0.0
  0
SEQEND
  5
1AA
100
AcDbEntity
  8
0
370
              15
  6
Continuous
 62
               7
  0
POLYLINE
  5
1AB
100
AcDbEntity
  8
0
370
              15
  6
Continuous
 62
               7
100
AcDb2dPolyline
 66
               1
 10
0.0
 20
0.0
 30
0.0
 75
               5
  0
VERTEX
  5
1AC
100
AcDbEntity
  8
0
370
              15
  6
Continuous
 62
               7
100
AcDbVertex
100
AcDb2dVertex
 10
220.18623731217099
 20
228.95448885899674
 30
0.0
  0
VERTEX
  5
1AD
100
AcDbEntity
  8
0
370
              15
  6
Continuous
 62
               7
100
AcDbVertex
100
AcDb2dVertex
 10
220.25408001881101
 20
228.9847635667567
 30
0.0
  0
VERTEX
  5
1AE
100
AcDbEntity
  8
0
370
              15
  6
Continuous
 62
               7
100
AcDbVertex
100
AcDb2dVertex
 10
220.30188389401101
 20
229.01793502243675
 30
0.0
  0
VERTEX
  5
1AF
100
AcDbEntity
  8
0
370
              15
  6
Continuous
 62
               7
100
AcDbVertex
100
AcDb2dVertex
 10
220.327810958051
 20
229.05272883307671
 30
0.0
  0
VERTEX
  5
1B0
100
AcDbEntity
  8
0
370
              15
  6
Continuous
 62
               7
100
AcDbVertex
100
AcDb2dVertex
 10
220.33240838949101
 20
229.07640285115673
 30
0.0
  0
SEQEND
  5
1B1
100
AcDbEntity
  8
0
370
              15
  6
Continuous
 62
               7
  0
LINE
  5
1B2
100
AcDbEntity
  8
0
370
              15
  6
Continuous
 62
               7
100
AcDbLine
 10
220.45270721553103
 20
228.1571638493167
 30
0.0
 11
219.57357413509101
 21
228.3619379716767
 31
0.0
  0
LINE
  5
1B3
100
AcDbEntity
  8
0
370
              15
  6
Continuous
 62
               7
100
AcDbLine
 10
201.71160037441101
 20
227.56374550971674
 30
0.0
 11
200.86522702145103
 21
227.25149693919673
 31
0.0
  0
POLYLINE
  5
1B4
100
AcDbEntity
  8
0
370
              15
  6
Continuous
 62
               7
100
AcDb2dPolyline
 66
               1
 10
0.0
 20
0.0
 30
0.0
 75
               5
  0
VERTEX
  5
1B5
100
AcDbEntity
  8
0
370
              15
  6
Continuous
 62
               7
100
AcDbVertex
100
AcDb2dVertex
 10
200.81167980457099
 20
227.09551271887671
 30
0.0
  0
VERTEX
  5
1B6
100
AcDbEntity
  8
0
370
              15
  6
Continuous
 62
               7
100
AcDbVertex
100
AcDb2dVertex
 10
200.78587663225099
 20
227.1029694553967
 30
0.0
  0
VERTEX
  5
1B7
100
AcDbEntity
  8
0
370
              15
  6
Continuous
 62
               7
100
AcDbVertex
100
AcDb2dVertex
 10
200.76587183329102
 20
227.11191310675673
 30
0.0
  0
VERTEX
  5
1B8
100
AcDbEntity
  8
0
370
              15
  6
Continuous
 62
               7
100
AcDbVertex
100
AcDb2dVertex
 10
200.75243472925101
 20
227.12199965175674
 30
0.0
  0
VERTEX
  5
1B9
100
AcDbEntity
  8
0
370
              15
  6
Continuous
 62
               7
100
AcDbVertex
100
AcDb2dVertex
 10
200.746080158691
 20
227.13284169619669
 30
0.0
  0
VERTEX
  5
1BA
100
AcDbEntity
  8
0
370
              15
  6
Continuous
 62
               7
100
AcDbVertex
100
AcDb2dVertex
 10
200.74569147277097
 20
227.13501542195672
 30
0.0
  0
SEQEND
  5
1BB
100
AcDbEntity
  8
0
370
              15
  6
Continuous
 62
               7
  0
ARC
  5
1BC
100
AcDbEntity
  8
0
370
              15
  6
Continuous
 62
               7
100
AcDbCircle
 10
200.85185731417101
 20
227.19828842883672
 30
0.0
 40
0.0548625067687658
100
AcDbArc
 50
75.895286783189206
 51
109.87946884179696
  0
ARC
  5
1BD
100
AcDbEntity
  8
0
370
              15
  6
Continuous
 62
               7
100
AcDbCircle
 10
220.46850954149102
 20
228.11728585679671
 30
0.0
 40
0.0428948457579483
100
AcDbArc
 50
77.24647022749663
 51
111.61678060411188
  0
POLYLINE
  5
1BE
100
AcDbEntity
  8
0
370
              15
  6
Continuous
 62
               7
100
AcDb2dPolyline
 66
               1
 10
0.0
 20
0.0
 30
0.0
 75
               5
  0
VERTEX
  5
1BF
100
AcDbEntity
  8
0
370
              15
  6
Continuous
 62
               7
100
AcDbVertex
100
AcDb2dVertex
 10
220.586723067251
 20
228.04686616963673
 30
0.0
  0
VERTEX
  5
1C0
100
AcDbEntity
  8
0
370
              15
  6
Continuous
 62
               7
100
AcDbVertex
100
AcDb2dVertex
 10
220.58526834869099
 20
228.03901097555672
 30
0.0
  0
VERTEX
  5
1C1
100
AcDbEntity
  8
0
370
              15
  6
Continuous
 62
               7
100
AcDbVertex
100
AcDb2dVertex
 10
220.57700477209102
 20
228.02792105555673
 30
0.0
  0
VERTEX
  5
1C2
100
AcDbEntity
  8
0
370
              15
  6
Continuous
 62
               7
100
AcDbVertex
100
AcDb2dVertex
 10
220.561768027131
 20
228.01734793987671
 30
0.0
  0
VERTEX
  5
1C3
100
AcDbEntity
  8
0
370
              15
  6
Continuous
 62
               7
100
AcDbVertex
100
AcDb2dVertex
 10
220.54014403417102
 20
228.00769831207674
 30
0.0
  0
SEQEND
  5
1C4
100
AcDbEntity
  8
0
370
              15
  6
Continuous
 62
               7
  0
ENDSEC
  0
SECTION
  2
OBJECTS
  0
DICTIONARY
  5
19
100
AcDbDictionary
280
               0
281
               1
  3
ACAD_GROUP
350
1A
  3
ACAD_MLINESTYLE
350
1B
  3
ACAD_LAYOUT
350
1E
  3
ACAD_PLOTSETTINGS
350
22
  3
ACAD_PLOTSTYLENAME
350
1F
  3
ACAD_WIPEOUT_VARS
350
23
  0
DICTIONARY
  5
1A
102
{ACAD_REACTORS
330
19
102
}
100
AcDbDictionary
280
               0
281
               1
  0
DICTIONARY
  5
1B
102
{ACAD_REACTORS
330
19
102
}
100
AcDbDictionary
280
               0
281
               1
  3
Standard
350
1C
  0
MLINESTYLE
  5
1C
102
{ACAD_REACTORS
330
1B
102
}
100
AcDbMlineStyle
  2
Standard
 70
               0
  3

 62
               0
 51
90.0
 52
90.0
 71
               2
 49
0.5
 62
             256
  6
ByLayer
 49
-0.5
 62
             256
  6
ByLayer
  0
ACDBDICTIONARYWDFLT
  5
1F
102
{ACAD_REACTORS
330
19
102
}
100
AcDbDictionary
281
               1
  3
Normal
350
1D
100
AcDbDictionaryWithDefault
340
1D
  0
ACDBPLACEHOLDER
  5
1D
102
{ACAD_REACTORS
330
1F
102
}
  0
LAYOUT
  5
20
102
{ACAD_REACTORS
330
1E
102
}
100
AcDbPlotSettings
  1

  2

  4

  6

 40
0.0
 41
0.0
 42
0.0
 43
0.0
 44
0.0
 45
0.0
 46
0.0
 47
0.0
 48
0.0
 49
0.0
140
0.0
141
0.0
142
1.0
143
1.0
 70
            1024
 72
               0
 73
               0
 74
               0
  7

 75
               0
147
1.0
148
0.0
149
0.0
100
AcDbLayout
  1
Model
 70
               0
 71
               0
 10
0.0
 20
0.0
 11
0.0
 21
0.0
 12
0.0
 22
0.0
 32
0.0
 14
0.0
 24
0.0
 34
0.0
 15
0.0
 25
0.0
 35
0.0
146
0.0
 13
0.0
 23
0.0
 33
0.0
 16
0.0
 26
0.0
 36
0.0
 17
0.0
 27
0.0
 37
0.0
 76
               0
330
A
331
0
345
0
346
0
  0
LAYOUT
  5
21
102
{ACAD_REACTORS
330
1E
102
}
100
AcDbPlotSettings
  1

  2

  4

  6

 40
0.0
 41
0.0
 42
0.0
 43
0.0
 44
0.0
 45
0.0
 46
0.0
 47
0.0
 48
0.0
 49
0.0
140
0.0
141
0.0
142
1.0
143
1.0
 70
               0
 72
               0
 73
               0
 74
               0
  7

 75
               0
147
1.0
148
0.0
149
0.0
100
AcDbLayout
  1
Layout1
 70
               0
 71
               0
 10
0.0
 20
0.0
 11
0.0
 21
0.0
 12
0.0
 22
0.0
 32
0.0
 14
0.0
 24
0.0
 34
0.0
 15
0.0
 25
0.0
 35
0.0
146
0.0
 13
0.0
 23
0.0
 33
0.0
 16
0.0
 26
0.0
 36
0.0
 17
0.0
 27
0.0
 37
0.0
 76
               0
330
B
331
0
345
0
346
0
  0
DICTIONARY
  5
1E
102
{ACAD_REACTORS
330
19
102
}
100
AcDbDictionary
280
               0
281
               1
  3
Layout1
350
21
  3
Model
350
20
  0
DICTIONARY
  5
22
102
{ACAD_REACTORS
330
19
102
}
100
AcDbDictionary
280
               0
281
               1
  0
WIPEOUTVARIABLES
  5
23
100
AcDbWipeoutVariables
 70
               1
  0
ENDSEC
  0
EOF
