  0
SECTION
  2
HEADER
  9
$ACADVER
  1
AC1015
  9
$ACADMAINTVER
 70
               6
  9
$DWGCODEPAGE
  3
ANSI_932
  9
$INSBASE
 10
0.0
 20
0.0
 30
0.0
  9
$EXTMIN
 10
261.04670212314932
 20
51.694999999999993
 30
0.0
  9
$EXTMAX
 10
294.02120907690545
 20
66.299999999999997
 30
0.0
  9
$LIMMIN
 10
0.0
 20
0.0
  9
$LIMMAX
 10
0.0
 20
0.0
  9
$ORTHOMODE
 70
               0
  9
$REGENMODE
 70
               1
  9
$FILLMODE
 70
               1
  9
$QTEXTMODE
 70
               0
  9
$MIRRTEXT
 70
               1
  9
$LTSCALE
 40
5.0800000000000001
  9
$ATTMODE
 70
               1
  9
$TEXTSIZE
 40
0.2
  9
$TRACEWID
 40
1.0
  9
$TEXTSTYLE
  7
Standard
  9
$CLAYER
  8
0
  9
$CELTYPE
  6
Continuous
  9
$CECOLOR
 62
             256
  9
$CELTSCALE
 40
1.0
  9
$DISPSILH
 70
               0
  9
$DIMSCALE
 40
1.0
  9
$DIMASZ
 40
0.18
  9
$DIMEXO
 40
0.0625
  9
$DIMDLI
 40
0.38
  9
$DIMRND
 40
0.0
  9
$DIMDLE
 40
0.0
  9
$DIMEXE
 40
0.18
  9
$DIMTP
 40
0.0
  9
$DIMTM
 40
0.0
  9
$DIMTXT
 40
0.18
  9
$DIMCEN
 40
0.09
  9
$DIMTSZ
 40
0.0
  9
$DIMTOL
 70
               0
  9
$DIMLIM
 70
               0
  9
$DIMTIH
 70
               1
  9
$DIMTOH
 70
               1
  9
$DIMSE1
 70
               0
  9
$DIMSE2
 70
               0
  9
$DIMTAD
 70
               0
  9
$DIMZIN
 70
               0
  9
$DIMBLK
  1

  9
$DIMASO
 70
               1
  9
$DIMSHO
 70
               1
  9
$DIMPOST
  1

  9
$DIMAPOST
  1

  9
$DIMALT
 70
               0
  9
$DIMALTD
 70
               2
  9
$DIMALTF
 40
25.399999999999999
  9
$DIMLFAC
 40
1.0
  9
$DIMTOFL
 70
               0
  9
$DIMTVP
 40
0.0
  9
$DIMTIX
 70
               0
  9
$DIMSOXD
 70
               0
  9
$DIMSAH
 70
               0
  9
$DIMBLK1
  1

  9
$DIMBLK2
  1

  9
$DIMSTYLE
  2
Standard
  9
$DIMCLRD
 70
               0
  9
$DIMCLRE
 70
               0
  9
$DIMCLRT
 70
               0
  9
$DIMTFAC
 40
1.0
  9
$DIMGAP
 40
0.09
  9
$DIMJUST
 70
               0
  9
$DIMSD1
 70
               0
  9
$DIMSD2
 70
               0
  9
$DIMTOLJ
 70
               1
  9
$DIMTZIN
 70
               0
  9
$DIMALTZ
 70
               0
  9
$DIMALTTZ
 70
               0
  9
$DIMUPT
 70
               0
  9
$DIMDEC
 70
               4
  9
$DIMTDEC
 70
               4
  9
$DIMALTU
 70
               2
  9
$DIMALTTD
 70
               2
  9
$DIMTXSTY
  7
Standard
  9
$DIMAUNIT
 70
               0
  9
$DIMADEC
 70
               0
  9
$DIMALTRND
 40
0.0
  9
$DIMAZIN
 70
               0
  9
$DIMDSEP
 70
               0
  9
$DIMATFIT
 70
               3
  9
$DIMFRAC
 70
               0
  9
$DIMLDRBLK
  1

  9
$DIMLUNIT
 70
               2
  9
$DIMLWD
 70
               0
  9
$DIMLWE
 70
               0
  9
$DIMTMOVE
 70
               0
  9
$LUNITS
 70
               2
  9
$LUPREC
 70
               4
  9
$SKETCHINC
 40
0.1
  9
$FILLETRAD
 40
0.0
  9
$AUNITS
 70
               0
  9
$AUPREC
 70
               0
  9
$MENU
  1
acad
  9
$ELEVATION
 40
0.0
  9
$PELEVATION
 40
0.0
  9
$THICKNESS
 40
0.0
  9
$LIMCHECK
 70
               0
  9
$CHAMFERA
 40
0.0
  9
$CHAMFERB
 40
0.0
  9
$CHAMFERC
 40
0.0
  9
$CHAMFERD
 40
0.0
  9
$SKPOLY
 70
               0
  9
$TDCREATE
 40
2458068.659097222
  9
$TDUCREATE
 40
0.000000000
  9
$TDUPDATE
 40
2458068.659097222
  9
$TDUUPDATE
 40
0.000000000
  9
$TDINDWG
 40
0.0000000000
  9
$TDUSRTIMER
 40
0.0000000000
  9
$USRTIMER
 70
               1
  9
$ANGBASE
 50
0.0
  9
$ANGDIR
 70
               0
  9
$PDMODE
 70
               1
  9
$PDSIZE
 40
-2.0
  9
$PLINEWID
 40
0.0
  9
$SPLFRAME
 70
               0
  9
$SPLINETYPE
 70
               6
  9
$SPLINESEGS
 70
               8
  9
$HANDSEED
  5
2AD
  9
$SURFTAB1
 70
               6
  9
$SURFTAB2
 70
               6
  9
$SURFTYPE
 70
               6
  9
$SURFU
 70
               6
  9
$SURFV
 70
               6
  9
$UCSBASE
  2

  9
$UCSNAME
  2

  9
$UCSORG
 10
0.0
 20
0.0
 30
0.0
  9
$UCSXDIR
 10
1.0
 20
0.0
 30
0.0
  9
$UCSYDIR
 10
0.0
 20
1.0
 30
0.0
  9
$UCSORTHOREF
  2

  9
$UCSORTHOVIEW
 70
               0
  9
$UCSORGTOP
 10
0.0
 20
0.0
 30
0.0
  9
$UCSORGBOTTOM
 10
0.0
 20
0.0
 30
0.0
  9
$UCSORGLEFT
 10
0.0
 20
0.0
 30
0.0
  9
$UCSORGRIGHT
 10
0.0
 20
0.0
 30
0.0
  9
$UCSORGFRONT
 10
0.0
 20
0.0
 30
0.0
  9
$UCSORGBACK
 10
0.0
 20
0.0
 30
0.0
  9
$PUCSBASE
  2

  9
$PUCSNAME
  2

  9
$PUCSORG
 10
0.0
 20
0.0
 30
0.0
  9
$PUCSXDIR
 10
1.0
 20
0.0
 30
0.0
  9
$PUCSYDIR
 10
0.0
 20
1.0
 30
0.0
  9
$PUCSORTHOREF
  2

  9
$PUCSORTHOVIEW
 70
               0
  9
$PUCSORGTOP
 10
0.0
 20
0.0
 30
0.0
  9
$PUCSORGBOTTOM
 10
0.0
 20
0.0
 30
0.0
  9
$PUCSORGLEFT
 10
0.0
 20
0.0
 30
0.0
  9
$PUCSORGRIGHT
 10
0.0
 20
0.0
 30
0.0
  9
$PUCSORGFRONT
 10
0.0
 20
0.0
 30
0.0
  9
$PUCSORGBACK
 10
0.0
 20
0.0
 30
0.0
  9
$USERI1
 70
               0
  9
$USERI2
 70
               0
  9
$USERI3
 70
               0
  9
$USERI4
 70
               0
  9
$USERI5
 70
               0
  9
$USERR1
 40
0.0
  9
$USERR2
 40
0.0
  9
$USERR3
 40
0.0
  9
$USERR4
 40
0.0
  9
$USERR5
 40
0.0
  9
$WORLDVIEW
 70
               1
  9
$SHADEDGE
 70
               3
  9
$SHADEDIF
 70
              70
  9
$TILEMODE
 70
               1
  9
$MAXACTVP
 70
              16
  9
$PINSBASE
 10
0.0
 20
0.0
 30
0.0
  9
$PLIMCHECK
 70
               0
  9
$PEXTMIN
 10
1.0000000000000000E+20
 20
1.0000000000000000E+20
 30
1.0000000000000000E+20
  9
$PEXTMAX
 10
-1.0000000000000000E+20
 20
-1.0000000000000000E+20
 30
-1.0000000000000000E+20
  9
$PLIMMIN
 10
0.0
 20
0.0
  9
$PLIMMAX
 10
12.0
 20
9.0
  9
$UNITMODE
 70
               0
  9
$VISRETAIN
 70
               0
  9
$PLINEGEN
 70
               1
  9
$PSLTSCALE
 70
               0
  9
$TREEDEPTH
 70
            3020
  9
$CMLSTYLE
  2
Standard
  9
$CMLJUST
 70
               0
  9
$CMLSCALE
 40
1.0
  9
$PROXYGRAPHICS
 70
               0
  9
$MEASUREMENT
 70
               1
  9
$CELWEIGHT
370
               0
  9
$ENDCAPS
280
               0
  9
$JOINSTYLE
280
               0
  9
$LWDISPLAY
290
               1
  9
$INSUNITS
 70
               4
  9
$HYPERLINKBASE
  1

  9
$STYLESHEET
  1

  9
$XEDIT
290
               1
  9
$CEPSNTYPE
380
               0
  9
$PSTYLEMODE
290
               1
  9
$FINGERPRINTGUID
  2

  9
$VERSIONGUID
  2

  9
$EXTNAMES
290
               1
  9
$PSVPSCALE
 40
0.0
  0
ENDSEC
  0
SECTION
  2
CLASSES
  0
CLASS
  1
LWPOLYLINE
  2
AcDbPolyline
  3
AutoCAD 2000
 90
    32768
280
               0
281
               1
  0
CLASS
  1
IMAGE
  2
AcDbRasterImage
  3
ISM
 90
    32895
280
               0
281
               1
  0
CLASS
  1
OLE2FRAME
  2
AcDbOle2Frame
  3
AutoCAD 2000
 90
    32768
280
               0
281
               1
  0
CLASS
  1
HATCH
  2
AcDbHatch
  3
AutoCAD 2000
 90
    32768
280
               0
281
               1
  0
CLASS
  1
DICTIONARYVAR
  2
AcDbDictionaryVar
  3
AutoCAD 2000
 90
    32768
280
               0
281
               0
  0
CLASS
  1
RASTERVARIABLES
  2
AcDbRasterVariables
  3
ISM
 90
    32768
280
               0
281
               0
  0
CLASS
  1
IMAGEDEF
  2
AcDbRasterImageDef
  3
ISM
 90
    32768
280
               0
281
               0
  0
CLASS
  1
IMAGEDEF_REACTOR
  2
AcDbRasterImageDefReactor
  3
ISM
 90
    32769
280
               0
281
               0
  0
CLASS
  1
IDBUFFER
  2
AcDbIdBuffer
  3
AutoCAD 2000
 90
    32768
280
               0
281
               0
  0
CLASS
  1
SPATIAL_FILTER
  2
AcDbSpatialFilter
  3
AutoCAD 2000
 90
    32768
280
               0
281
               0
  0
CLASS
  1
XRECORD
  2
AcDbXrecord
  3
AutoCAD 2000
 90
    32768
280
               0
281
               0
  0
CLASS
  1
SORTENTSTABLE
  2
AcDbSortentsTable
  3
AutoCAD 2000
 90
    32768
280
               0
281
               0
  0
CLASS
  1
LAYER_INDEX
  2
AcDbLayerIndex
  3
AutoCAD 2000
 90
    32768
280
               0
281
               0
  0
CLASS
  1
SPATIAL_INDEX
  2
AcDbSpatialIndex
  3
AutoCAD 2000
 90
    32768
280
               0
281
               0
  0
CLASS
  1
OBJECT_PTR
  2
CAseDLPNTableRecord
  3
"ASE-LPNTableRecord"
 90
    32769
280
               0
281
               0
  0
CLASS
  1
LAYOUT
  2
AcDbLayout
  3
AutoCAD 2000
 90
        0
280
               0
281
               0
  0
CLASS
  1
PLOTSETTINGS
  2
AcDbPlotSettings
  3
AutoCAD 2000
 90
    32768
280
               0
281
               0
  0
CLASS
  1
ACDBDICTIONARYWDFLT
  2
AcDbDictionaryWithDefault
  3
AutoCAD 2000
 90
        0
280
               0
281
               0
  0
CLASS
  1
ACDBPLACEHOLDER
  2
AcDbPlaceHolder
  3
AutoCAD 2000
 90
        0
280
               0
281
               0
  0
CLASS
  1
VBA_PROJECT
  2
AcDbVbaProject
  3
acadvba
 90
    32768
280
               0
281
               0
  0
CLASS
  1
WIPEOUT
  2
AcDbWipeout
  3
WipeOut|AutoCAD Express Tool|expresstools@autodesk.com
 90
    32895
280
               0
281
               1
  0
CLASS
  1
WIPEOUTVARIABLES
  2
AcDbWipeoutVariables
  3
WipeOut|AutoCAD Express Tool|expresstools@autodesk.com
 90
        0
280
               0
281
               0
  0
CLASS
  1
RTEXT
  2
RText
  3
RText|AutoCAD Express Tool|expresstools@autodesk.com
 90
    32768
280
               0
281
               1
  0
CLASS
  1
ARCALIGNEDTEXT
  2
AcDbArcAlignedText
  3
ATEXT|AutoCAD Express Tool|expresstools@autodesk.com
 90
    32768
280
               0
281
               1
  0
ENDSEC
  0
SECTION
  2
TABLES
  0
TABLE
  2
VPORT
  5
7
100
AcDbSymbolTable
 70
               1
  0
VPORT
  5
15
100
AcDbSymbolTableRecord
100
AcDbViewportTableRecord
  2
*ACTIVE
 70
               0
 10
0.0
 20
0.0
 11
1.0
 21
1.0
 12
277.53395560002741
 22
58.997499999999995
 13
0.0
 23
0.0
 14
1.0
 24
1.0
 15
0.0
 25
0.0
 16
0.0
 26
0.0
 36
1.0
 17
0.0
 27
0.0
 37
0.0
 40
14.605000000000004
 41
0.688564
 42
50.0
 43
0.0
 44
0.0
 50
0.0
 51
0.0
 71
               0
 72
             100
 73
               1
 74
               1
 75
               0
 76
               0
 77
               0
 78
               0
281
               0
 65
               0
110
0.0
120
0.0
130
0.0
111
1.0
121
0.0
131
0.0
112
0.0
122
1.0
132
0.0
345
0
346
0
 79
               0
146
0.0
  0
ENDTAB
  0
TABLE
  2
LTYPE
  5
4
100
AcDbSymbolTable
 70
              14
  0
LTYPE
  5
11
100
AcDbSymbolTableRecord
100
AcDbLinetypeTableRecord
  2
ByBlock
 70
              64
  3

 72
              65
 73
               0
 40
0.0
  0
LTYPE
  5
12
100
AcDbSymbolTableRecord
100
AcDbLinetypeTableRecord
  2
ByLayer
 70
              64
  3

 72
              65
 73
               0
 40
0.0
  0
LTYPE
  5
13
100
AcDbSymbolTableRecord
100
AcDbLinetypeTableRecord
  2
Continuous
 70
              64
  3
Solid line
 72
              65
 73
               0
 40
0.0
  0
LTYPE
  5
26
100
AcDbSymbolTableRecord
100
AcDbLinetypeTableRecord
  2
STYLE_01
 70
               0
  3

 72
              65
 73
               2
 40
0.075
 49
0.05
 74
               0
 49
-0.025
 74
               0
  0
LTYPE
  5
27
100
AcDbSymbolTableRecord
100
AcDbLinetypeTableRecord
  2
STYLE_02
 70
               0
  3

 72
              65
 73
               6
 40
0.4999999999999999
 49
0.25
 74
               0
 49
-0.05
 74
               0
 49
0.05
 74
               0
 49
-0.05
 74
               0
 49
0.05
 74
               0
 49
-0.05
 74
               0
  0
LTYPE
  5
28
100
AcDbSymbolTableRecord
100
AcDbLinetypeTableRecord
  2
STYLE_03
 70
               0
  3

 72
              65
 73
               4
 40
0.3999999999999999
 49
0.25
 74
               0
 49
-0.05
 74
               0
 49
0.05
 74
               0
 49
-0.05
 74
               0
  0
LTYPE
  5
29
100
AcDbSymbolTableRecord
100
AcDbLinetypeTableRecord
  2
STYLE_04
 70
               0
  3

 72
              65
 73
               4
 40
0.7999999999999998
 49
0.4999999999999999
 74
               0
 49
-0.1
 74
               0
 49
0.1
 74
               0
 49
-0.1
 74
               0
  0
LTYPE
  5
2A
100
AcDbSymbolTableRecord
100
AcDbLinetypeTableRecord
  2
STYLE_05
 70
               0
  3

 72
              65
 73
               2
 40
0.025
 49
0.0005
 74
               0
 49
-0.0245
 74
               0
  0
LTYPE
  5
2B
100
AcDbSymbolTableRecord
100
AcDbLinetypeTableRecord
  2
STYLE_06
 70
               0
  3

 72
              65
 73
               4
 40
1.0416400000000001
 49
0.625
 74
               0
 49
-0.20828
 74
               0
 49
0.06943
 74
               0
 49
-0.13893
 74
               0
  0
LTYPE
  5
2C
100
AcDbSymbolTableRecord
100
AcDbLinetypeTableRecord
  2
STYLE_07
 70
               0
  3

 72
              65
 73
               6
 40
1.875
 49
0.625
 74
               0
 49
-0.20828
 74
               0
 49
0.6250000000000001
 74
               0
 49
-0.2083599999999999
 74
               0
 49
0.06943
 74
               0
 49
-0.1389299999999999
 74
               0
  0
LTYPE
  5
2D
100
AcDbSymbolTableRecord
100
AcDbLinetypeTableRecord
  2
STYLE_08
 70
               0
  3

 72
              65
 73
               6
 40
1.25
 49
0.625
 74
               0
 49
-0.20828
 74
               0
 49
0.06943
 74
               0
 49
-0.13893
 74
               0
 49
0.0694299999999999
 74
               0
 49
-0.13893
 74
               0
  0
LTYPE
  5
2E
100
AcDbSymbolTableRecord
100
AcDbLinetypeTableRecord
  2
STYLE_09
 70
               0
  3

 72
              65
 73
               4
 40
5.0
 49
3.75
 74
               0
 49
-0.2777849999999998
 74
               0
 49
0.6944300000000003
 74
               0
 49
-0.2777849999999998
 74
               0
  0
LTYPE
  5
2F
100
AcDbSymbolTableRecord
100
AcDbLinetypeTableRecord
  2
STYLE_10
 70
               0
  3

 72
              65
 73
               6
 40
5.9375
 49
3.75
 74
               0
 49
-0.2777849999999998
 74
               0
 49
0.6944300000000003
 74
               0
 49
-0.2777849999999998
 74
               0
 49
0.625
 74
               0
 49
-0.3125
 74
               0
  0
LTYPE
  5
30
100
AcDbSymbolTableRecord
100
AcDbLinetypeTableRecord
  2
STYLE_11
 70
               0
  3

 72
              65
 73
               2
 40
0.1875
 49
0.125
 74
               0
 49
-0.0625
 74
               0
  0
ENDTAB
  0
TABLE
  2
LAYER
  5
2
100
AcDbSymbolTable
 70
               6
  0
LAYER
  5
14
100
AcDbSymbolTableRecord
100
AcDbLayerTableRecord
  2
0
 70
               0
 62
               7
  6
Continuous
290
               1
370
              15
390
1D
  0
LAYER
  5
31
100
AcDbSymbolTableRecord
100
AcDbLayerTableRecord
  2
Defpoints
 70
               0
 62
               7
  6
Continuous
290
               0
370
              -3
390
1D
  0
LAYER
  5
32
100
AcDbSymbolTableRecord
100
AcDbLayerTableRecord
  2
一般
 70
               0
 62
               7
  6
Continuous
290
               1
370
               5
390
1D
  0
LAYER
  5
33
100
AcDbSymbolTableRecord
100
AcDbLayerTableRecord
  2
寸法
 70
               0
 62
               7
  6
Continuous
290
               1
370
               5
390
1D
  0
LAYER
  5
34
100
AcDbSymbolTableRecord
100
AcDbLayerTableRecord
  2
レイヤー_1
 70
               0
 62
              19
  6
Continuous
290
               1
370
              15
390
1D
  0
LAYER
  5
35
100
AcDbSymbolTableRecord
100
AcDbLayerTableRecord
  2
FORMAT
 70
               0
 62
               7
  6
Continuous
290
               1
370
              15
390
1D
  0
ENDTAB
  0
TABLE
  2
STYLE
  5
3
100
AcDbSymbolTable
 70
               2
  0
STYLE
  5
17
100
AcDbSymbolTableRecord
100
AcDbTextStyleTableRecord
  2
Standard
 70
               0
 40
0.0
 41
1.0
 50
0.0
 71
               0
 42
0.0
  3
txt
  4
BIGFONT.SHX
  0
STYLE
  5
25
100
AcDbSymbolTableRecord
100
AcDbTextStyleTableRecord
  2
Arial
 70
               0
 40
0.0
 41
1.0
 50
0.0
 71
               0
 42
0.0
  3
Arial
  4

1001
ACAD
1000
Arial
1071
        0
  0
ENDTAB
  0
TABLE
  2
VIEW
  5
5
100
AcDbSymbolTable
 70
               0
  0
ENDTAB
  0
TABLE
  2
UCS
  5
6
100
AcDbSymbolTable
 70
               0
  0
ENDTAB
  0
TABLE
  2
APPID
  5
8
100
AcDbSymbolTable
 70
               1
  0
APPID
  5
16
100
AcDbSymbolTableRecord
100
AcDbRegAppTableRecord
  2
ACAD
 70
               0
  0
ENDTAB
  0
TABLE
  2
DIMSTYLE
  5
9
100
AcDbSymbolTable
 70
               1
100
AcDbDimStyleTable
 71
               0
  0
DIMSTYLE
105
18
100
AcDbSymbolTableRecord
100
AcDbDimStyleTableRecord
  2
Standard
 70
               0
  3

  4

 40
1.0
 41
0.18
 42
0.0625
 43
0.38
 44
0.18
 45
0.0
 46
0.0
 47
0.0
 48
0.0
 71
               0
 72
               0
 73
               1
 74
               1
 75
               0
 76
               0
 77
               0
 78
               0
 79
               0
140
0.18
141
0.09
142
0.0
143
25.399999999999999
144
1.0
145
0.0
146
1.0
147
0.09
148
0.0
170
               0
171
               2
172
               0
173
               0
174
               0
175
               0
176
               0
177
               0
178
               0
179
               0
271
               4
272
               4
273
               2
274
               2
275
               0
276
               0
277
               2
278
              46
279
               0
280
               0
281
               0
282
               0
283
               1
284
               0
285
               0
286
               0
288
               0
340
17
341
0
342
0
343
0
344
0
371
              -2
372
              -2
  0
ENDTAB
  0
TABLE
  2
BLOCK_RECORD
  5
1
100
AcDbSymbolTable
 70
               1
  0
BLOCK_RECORD
  5
A
100
AcDbSymbolTableRecord
100
AcDbBlockTableRecord
  2
*MODEL_SPACE
340
20
  0
BLOCK_RECORD
  5
B
100
AcDbSymbolTableRecord
100
AcDbBlockTableRecord
  2
*PAPER_SPACE
340
21
  0
BLOCK_RECORD
  5
24
100
AcDbSymbolTableRecord
100
AcDbBlockTableRecord
  2
*U0
340
0
102
{BLKREFS
331
2AC
102
}
  0
ENDTAB
  0
ENDSEC
  0
SECTION
  2
BLOCKS
  0
BLOCK
  5
D
100
AcDbEntity
  8
0
100
AcDbBlockBegin
  2
*MODEL_SPACE
 70
               0
 10
0.0
 20
0.0
 30
0.0
  3
*MODEL_SPACE
  1

  0
ENDBLK
  5
E
100
AcDbEntity
  8
0
100
AcDbBlockEnd
  0
BLOCK
  5
F
100
AcDbEntity
 67
               1
  8
0
100
AcDbBlockBegin
  2
*PAPER_SPACE
 70
               0
 10
0.0
 20
0.0
 30
0.0
  3
*PAPER_SPACE
  1

  0
ENDBLK
  5
10
100
AcDbEntity
 67
               1
  8
0
100
AcDbBlockEnd
  0
BLOCK
  5
36
100
AcDbEntity
  8
一般
100
AcDbBlockBegin
  2
*U0
 70
               1
 10
0.0
 20
0.0
 30
0.0
  3
*U0
  1

  0
SPLINE
  5
37
100
AcDbEntity
  8
0
370
              15
  6
Continuous
 62
               7
100
AcDbSpline
210
0.0
220
0.0
230
1.0
 70
               8
 71
               2
 72
              11
 73
               8
 74
               0
 42
0.000001
 43
0.000001
 40
0.0
 40
0.0
 40
0.0
 40
1.0
 40
1.0
 40
2.0
 40
3.0
 40
3.0
 40
4.0
 40
4.0
 40
4.0
 10
0.6339119534582665
 20
448.13127865843853
 30
0.0
 10
0.6453427093703681
 20
447.99318885437867
 30
0.0
 10
0.6567734652824697
 20
447.85509905031881
 30
0.0
 10
2.2734690027655802
 20
427.40374436257252
 30
0.0
 10
6.1947504743114337
 20
400.0729987364507
 30
0.0
 10
7.3609527821805045
 20
392.54771856042635
 30
0.0
 10
7.3610588857284824
 20
392.5470291368257
 30
0.0
 10
7.3611649892764603
 20
392.54633971322505
 30
0.0
  0
SPLINE
  5
38
100
AcDbEntity
  8
0
370
              15
  6
Continuous
 62
               7
100
AcDbSpline
210
0.0
220
0.0
230
1.0
 70
               8
 71
               2
 72
              17
 73
              14
 74
               0
 42
0.000001
 43
0.000001
 40
0.0
 40
0.0
 40
0.0
 40
1.0
 40
1.0
 40
2.0
 40
3.0
 40
4.0
 40
5.0
 40
6.0
 40
7.0
 40
8.0
 40
9.0
 40
9.0
 40
10.0
 40
10.0
 40
10.0
 10
26.785274252950387
 20
399.71238398331388
 30
0.0
 10
26.786419564818345
 20
399.70218300328099
 30
0.0
 10
26.787564876686304
 20
399.6919820232481
 30
0.0
 10
26.831215745364318
 20
399.38621786304998
 30
0.0
 10
26.798771973770329
 20
398.53686394243368
 30
0.0
 10
25.751038571040738
 20
397.04800659495299
 30
0.0
 10
22.661010313385361
 20
395.28929765702583
 30
0.0
 10
19.047923900034959
 20
394.1845006404883
 30
0.0
 10
15.974151957777451
 20
393.48468187150274
 30
0.0
 10
11.817126055212668
 20
392.84774892139762
 30
0.0
 10
8.4552712681721118
 20
392.60804542417054
 30
0.0
 10
7.4294952098983345
 20
392.55027739835327
 30
0.0
 10
7.3953274731495071
 20
392.54830843435047
 30
0.0
 10
7.3611597364006798
 20
392.54633947034768
 30
0.0
  0
SPLINE
  5
39
100
AcDbEntity
  8
0
370
              15
  6
Continuous
 62
               7
100
AcDbSpline
210
0.0
220
0.0
230
1.0
 70
               8
 71
               2
 72
              11
 73
               8
 74
               0
 42
0.000001
 43
0.000001
 40
0.0
 40
0.0
 40
0.0
 40
1.0
 40
1.0
 40
2.0
 40
3.0
 40
3.0
 40
4.0
 40
4.0
 40
4.0
 10
19.857399499226915
 20
452.09906272541389
 30
0.0
 10
19.88262406032942
 20
451.97010173736271
 30
0.0
 10
19.907848621431924
 20
451.84114074931153
 30
0.0
 10
22.481985799114739
 20
438.99822150857517
 30
0.0
 10
26.208951983616601
 20
413.07903426732196
 30
0.0
 10
26.785219382282833
 20
399.71371110641849
 30
0.0
 10
26.785246627681602
 20
399.7130483223151
 30
0.0
 10
26.785273873080371
 20
399.71238553821172
 30
0.0
  0
SPLINE
  5
3A
100
AcDbEntity
  8
0
370
              15
  6
Continuous
 62
               7
100
AcDbSpline
210
0.0
220
0.0
230
1.0
 70
               8
 71
               2
 72
              11
 73
               8
 74
               0
 42
0.000001
 43
0.000001
 40
0.0
 40
0.0
 40
0.0
 40
1.0
 40
1.0
 40
2.0
 40
3.0
 40
3.0
 40
4.0
 40
4.0
 40
4.0
 10
10.315847871539574
 20
448.57894262031596
 30
0.0
 10
10.362251344100116
 20
448.59658712999067
 30
0.0
 10
10.408654816660658
 20
448.61423163966538
 30
0.0
 10
13.851835277079829
 20
449.93292378992351
 30
0.0
 10
18.406894086907698
 20
451.5811829068557
 30
0.0
 10
19.766714901967191
 20
452.06665690162913
 30
0.0
 10
19.812057200597053
 20
452.08285981352151
 30
0.0
 10
19.857399499226915
 20
452.09906272541389
 30
0.0
  0
SPLINE
  5
3B
100
AcDbEntity
  8
0
370
              15
  6
Continuous
 62
               7
100
AcDbSpline
210
0.0
220
0.0
230
1.0
 70
               8
 71
               2
 72
              12
 73
               9
 74
               0
 42
0.000001
 43
0.000001
 40
0.0
 40
0.0
 40
0.0
 40
1.0
 40
1.0
 40
2.0
 40
3.0
 40
4.0
 40
4.0
 40
5.0
 40
5.0
 40
5.0
 10
7.3611649892764603
 20
392.54633971322505
 30
0.0
 10
7.3612315998501003
 20
392.5470371226138
 30
0.0
 10
7.3612982104237403
 20
392.54773453200255
 30
0.0
 10
7.9229454942060897
 20
398.37419551988523
 30
0.0
 10
9.9805445140210054
 20
422.64228946732078
 30
0.0
 10
10.287505766751849
 20
444.69594828238633
 30
0.0
 10
10.313673328034668
 20
448.30160541935379
 30
0.0
 10
10.314760599787121
 20
448.44027401983487
 30
0.0
 10
10.315847871539574
 20
448.57894262031596
 30
0.0
  0
SPLINE
  5
3C
100
AcDbEntity
  8
0
370
              15
  6
Continuous
 62
               7
100
AcDbSpline
210
0.0
220
0.0
230
1.0
 70
               8
 71
               2
 72
              16
 73
              13
 74
               0
 42
0.000001
 43
0.000001
 40
0.0
 40
0.0
 40
0.0
 40
1.0
 40
1.0
 40
2.0
 40
3.0
 40
4.0
 40
5.0
 40
6.0
 40
7.0
 40
8.0
 40
8.0
 40
9.0
 40
9.0
 40
9.0
 10
8.7824357506047477
 20
450.67761208389766
 30
0.0
 10
8.7713388407415209
 20
450.67429051431952
 30
0.0
 10
8.7602419308782942
 20
450.67096894474139
 30
0.0
 10
8.4730564593249369
 20
450.58403458751377
 30
0.0
 10
7.5630973177167675
 20
450.32552279529909
 30
0.0
 10
6.5412587649439615
 20
450.18878924557112
 30
0.0
 10
5.359301711239425
 20
450.07299829898511
 30
0.0
 10
3.9242780717041228
 20
450.09315077408928
 30
0.0
 10
2.8270782010072821
 20
450.17638197204201
 30
0.0
 10
2.0852411216336009
 20
450.31439110017777
 30
0.0
 10
1.8804495410832374
 20
450.35514959632633
 30
0.0
 10
1.8736084362870429
 20
450.35650085589566
 30
0.0
 10
1.8667673314908484
 20
450.35785211546499
 30
0.0
  0
SPLINE
  5
3D
100
AcDbEntity
  8
0
370
              15
  6
Continuous
 62
               7
100
AcDbSpline
210
0.0
220
0.0
230
1.0
 70
               8
 71
               2
 72
              16
 73
              13
 74
               0
 42
0.000001
 43
0.000001
 40
0.0
 40
0.0
 40
0.0
 40
1.0
 40
1.0
 40
2.0
 40
3.0
 40
4.0
 40
5.0
 40
6.0
 40
7.0
 40
8.0
 40
8.0
 40
9.0
 40
9.0
 40
9.0
 10
0.6339119534582665
 20
448.13127865843853
 30
0.0
 10
0.6442179044451564
 20
448.12952807047338
 30
0.0
 10
0.6545238554320463
 20
448.12777748250824
 30
0.0
 10
0.9625044011627892
 20
448.07471878446131
 30
0.0
 10
2.1994189928512355
 20
447.8807946966906
 30
0.0
 10
4.0171989017131295
 20
447.80522148537125
 30
0.0
 10
5.4604383819351483
 20
447.82464089278619
 30
0.0
 10
6.9024125842325361
 20
447.92007037888243
 30
0.0
 10
8.5221610710069058
 20
448.12681116271392
 30
0.0
 10
9.7823363894661384
 20
448.43314189249077
 30
0.0
 10
10.282342556565084
 20
448.56989113617192
 30
0.0
 10
10.299095214052329
 20
448.57441687824394
 30
0.0
 10
10.315847871539574
 20
448.57894262031596
 30
0.0
  0
ARC
  5
3E
100
AcDbEntity
  8
0
370
              15
  6
Continuous
 62
               7
100
AcDbCircle
 10
3.1065323464745802
 20
448.21679010713865
 30
0.0
 40
2.4740985864275391
100
AcDbArc
 50
120.07264728100387
 51
181.98068950349736
  0
SPLINE
  5
3F
100
AcDbEntity
  8
0
370
              15
  6
Continuous
 62
               7
100
AcDbSpline
210
0.0
220
0.0
230
1.0
 70
               8
 71
               2
 72
              10
 73
               7
 74
               0
 42
0.000001
 43
0.000001
 40
0.0
 40
0.0
 40
0.0
 40
1.0
 40
1.0
 40
2.0
 40
2.0
 40
3.0
 40
3.0
 40
3.0
 10
1.8667673314908484
 20
450.35785211546499
 30
0.0
 10
1.8089916107584827
 20
450.37096257624421
 30
0.0
 10
1.751215890026117
 20
450.38407303702343
 30
0.0
 10
-3.6891851342970199
 20
451.61333066823499
 30
0.0
 10
-9.0034680527371052
 20
452.88913275881009
 30
0.0
 10
-9.0601037708439094
 20
452.90267190365262
 30
0.0
 10
-9.1167394889507136
 20
452.91621104849514
 30
0.0
  0
SPLINE
  5
40
100
AcDbEntity
  8
0
370
              15
  6
Continuous
 62
               7
100
AcDbSpline
210
0.0
220
0.0
230
1.0
 70
               8
 71
               2
 72
              10
 73
               7
 74
               0
 42
0.000001
 43
0.000001
 40
0.0
 40
0.0
 40
0.0
 40
1.0
 40
1.0
 40
2.0
 40
2.0
 40
3.0
 40
3.0
 40
3.0
 10
-10.395243344421431
 20
450.70027036950046
 30
0.0
 10
-10.338331669933666
 20
450.68761618329904
 30
0.0
 10
-10.281419995445901
 20
450.67496199709763
 30
0.0
 10
-4.9406140755995125
 20
449.49678345810025
 30
0.0
 10
0.5179614028552919
 20
448.15949071822479
 30
0.0
 10
0.5759366781567792
 20
448.14538468833166
 30
0.0
 10
0.6339119534582665
 20
448.13127865843853
 30
0.0
  0
ARC
  5
41
100
AcDbEntity
  8
0
370
              15
  6
Continuous
 62
               7
100
AcDbCircle
 10
7.964609870674451
 20
448.47052453513857
 30
0.0
 40
2.3537363101589883
100
AcDbArc
 50
2.640099244600878
 51
69.668050824499147
  0
SPLINE
  5
42
100
AcDbEntity
  8
0
370
              15
  6
Continuous
 62
               7
100
AcDbSpline
210
0.0
220
0.0
230
1.0
 70
               8
 71
               2
 72
              10
 73
               7
 74
               0
 42
0.000001
 43
0.000001
 40
0.0
 40
0.0
 40
0.0
 40
1.0
 40
1.0
 40
2.0
 40
2.0
 40
3.0
 40
3.0
 40
3.0
 10
18.284495931083313
 20
454.18316279370993
 30
0.0
 10
18.239433654486959
 20
454.16616784286077
 30
0.0
 10
18.194371377890604
 20
454.14917289201162
 30
0.0
 10
13.60600769822446
 20
452.41350344092234
 30
0.0
 10
8.8750433171717873
 20
450.71103657392223
 30
0.0
 10
8.8287395338882675
 20
450.69432432890994
 30
0.0
 10
8.7824357506047477
 20
450.67761208389766
 30
0.0
  0
POLYLINE
  5
43
100
AcDbEntity
  8
0
370
              15
  6
Continuous
 62
               7
100
AcDb2dPolyline
 66
               1
 10
0.0
 20
0.0
 30
0.0
 75
               5
  0
VERTEX
  5
44
100
AcDbEntity
  8
0
370
              15
  6
Continuous
 62
               7
100
AcDbVertex
100
AcDb2dVertex
 10
-15.091317100325512
 20
397.77613791593876
 30
0.0
  0
VERTEX
  5
45
100
AcDbEntity
  8
0
370
              15
  6
Continuous
 62
               7
100
AcDbVertex
100
AcDb2dVertex
 10
-15.109827406125476
 20
398.59340982093863
 30
0.0
  0
VERTEX
  5
46
100
AcDbEntity
  8
0
370
              15
  6
Continuous
 62
               7
100
AcDbVertex
100
AcDb2dVertex
 10
-14.46684332752551
 20
399.8197712319386
 30
0.0
  0
VERTEX
  5
47
100
AcDbEntity
  8
0
370
              15
  6
Continuous
 62
               7
100
AcDbVertex
100
AcDb2dVertex
 10
-13.043209729925536
 20
401.00480100673872
 30
0.0
  0
VERTEX
  5
48
100
AcDbEntity
  8
0
370
              15
  6
Continuous
 62
               7
100
AcDbVertex
100
AcDb2dVertex
 10
-10.893637389125558
 20
402.10295967493857
 30
0.0
  0
VERTEX
  5
49
100
AcDbEntity
  8
0
370
              15
  6
Continuous
 62
               7
100
AcDbVertex
100
AcDb2dVertex
 10
-8.1007324861256507
 20
403.07204542573868
 30
0.0
  0
VERTEX
  5
4A
100
AcDbEntity
  8
0
370
              15
  6
Continuous
 62
               7
100
AcDbVertex
100
AcDb2dVertex
 10
-4.7718247449255955
 20
403.87481686573869
 30
0.0
  0
VERTEX
  5
4B
100
AcDbEntity
  8
0
370
              15
  6
Continuous
 62
               7
100
AcDbVertex
100
AcDb2dVertex
 10
-1.0348429713255314
 20
404.48042395113862
 30
0.0
  0
VERTEX
  5
4C
100
AcDbEntity
  8
0
370
              15
  6
Continuous
 62
               7
100
AcDbVertex
100
AcDb2dVertex
 10
1.6127531004745492
 20
404.76279254413862
 30
0.0
  0
VERTEX
  5
4D
100
AcDbEntity
  8
0
370
              15
  6
Continuous
 62
               7
100
AcDbVertex
100
AcDb2dVertex
 10
4.3327974162744454
 20
404.94218242893862
 30
0.0
  0
SEQEND
  5
4E
100
AcDbEntity
  8
0
370
              15
  6
Continuous
 62
               7
  0
POLYLINE
  5
4F
100
AcDbEntity
  8
0
370
              15
  6
Continuous
 62
               7
100
AcDb2dPolyline
 66
               1
 10
0.0
 20
0.0
 30
0.0
 75
               5
  0
VERTEX
  5
50
100
AcDbEntity
  8
0
370
              15
  6
Continuous
 62
               7
100
AcDbVertex
100
AcDb2dVertex
 10
4.3327974162744454
 20
404.94218242893862
 30
0.0
  0
VERTEX
  5
51
100
AcDbEntity
  8
0
370
              15
  6
Continuous
 62
               7
100
AcDbVertex
100
AcDb2dVertex
 10
7.0787420410743493
 20
405.0155236389387
 30
0.0
  0
VERTEX
  5
52
100
AcDbEntity
  8
0
370
              15
  6
Continuous
 62
               7
100
AcDbVertex
100
AcDb2dVertex
 10
11.143544738074581
 20
404.92445275693876
 30
0.0
  0
VERTEX
  5
53
100
AcDbEntity
  8
0
370
              15
  6
Continuous
 62
               7
100
AcDbVertex
100
AcDb2dVertex
 10
15.00480203407443
 20
404.59588031753856
 30
0.0
  0
VERTEX
  5
54
100
AcDbEntity
  8
0
370
              15
  6
Continuous
 62
               7
100
AcDbVertex
100
AcDb2dVertex
 10
18.514129964474535
 20
404.04243362233865
 30
0.0
  0
VERTEX
  5
55
100
AcDbEntity
  8
0
370
              15
  6
Continuous
 62
               7
100
AcDbVertex
100
AcDb2dVertex
 10
21.536666334674521
 20
403.28538109813871
 30
0.0
  0
VERTEX
  5
56
100
AcDbEntity
  8
0
370
              15
  6
Continuous
 62
               7
100
AcDbVertex
100
AcDb2dVertex
 10
23.956256858074596
 20
402.35381583773869
 30
0.0
  0
VERTEX
  5
57
100
AcDbEntity
  8
0
370
              15
  6
Continuous
 62
               7
100
AcDbVertex
100
AcDb2dVertex
 10
25.679918131874558
 20
401.28353759713877
 30
0.0
  0
VERTEX
  5
58
100
AcDbEntity
  8
0
370
              15
  6
Continuous
 62
               7
100
AcDbVertex
100
AcDb2dVertex
 10
26.408502800274448
 20
400.51309331553875
 30
0.0
  0
VERTEX
  5
59
100
AcDbEntity
  8
0
370
              15
  6
Continuous
 62
               7
100
AcDbVertex
100
AcDb2dVertex
 10
26.785274252874444
 20
399.71238398333867
 30
0.0
  0
SEQEND
  5
5A
100
AcDbEntity
  8
0
370
              15
  6
Continuous
 62
               7
  0
POLYLINE
  5
5B
100
AcDbEntity
  8
0
370
              15
  6
Continuous
 62
               7
100
AcDb2dPolyline
 66
               1
 10
0.0
 20
0.0
 30
0.0
 75
               5
  0
VERTEX
  5
5C
100
AcDbEntity
  8
0
370
              15
  6
Continuous
 62
               7
100
AcDbVertex
100
AcDb2dVertex
 10
7.3611597364743488
 20
392.54633947033858
 30
0.0
  0
VERTEX
  5
5D
100
AcDbEntity
  8
0
370
              15
  6
Continuous
 62
               7
100
AcDbVertex
100
AcDb2dVertex
 10
4.6152151116744449
 20
392.47299826033873
 30
0.0
  0
VERTEX
  5
5E
100
AcDbEntity
  8
0
370
              15
  6
Continuous
 62
               7
100
AcDbVertex
100
AcDb2dVertex
 10
0.5504124144745788
 20
392.56406914233867
 30
0.0
  0
VERTEX
  5
5F
100
AcDbEntity
  8
0
370
              15
  6
Continuous
 62
               7
100
AcDbVertex
100
AcDb2dVertex
 10
-3.3108448813254086
 20
392.89264158173864
 30
0.0
  0
VERTEX
  5
60
100
AcDbEntity
  8
0
370
              15
  6
Continuous
 62
               7
100
AcDbVertex
100
AcDb2dVertex
 10
-6.8201728117255129
 20
393.44608827693878
 30
0.0
  0
VERTEX
  5
61
100
AcDbEntity
  8
0
370
              15
  6
Continuous
 62
               7
100
AcDbVertex
100
AcDb2dVertex
 10
-9.8427091819254997
 20
394.20314080113872
 30
0.0
  0
VERTEX
  5
62
100
AcDbEntity
  8
0
370
              15
  6
Continuous
 62
               7
100
AcDbVertex
100
AcDb2dVertex
 10
-12.262299705325574
 20
395.13470606153874
 30
0.0
  0
VERTEX
  5
63
100
AcDbEntity
  8
0
370
              15
  6
Continuous
 62
               7
100
AcDbVertex
100
AcDb2dVertex
 10
-13.985960979125537
 20
396.20498430213866
 30
0.0
  0
VERTEX
  5
64
100
AcDbEntity
  8
0
370
              15
  6
Continuous
 62
               7
100
AcDbVertex
100
AcDb2dVertex
 10
-14.714545647525426
 20
396.97542858353859
 30
0.0
  0
VERTEX
  5
65
100
AcDbEntity
  8
0
370
              15
  6
Continuous
 62
               7
100
AcDbVertex
100
AcDb2dVertex
 10
-15.091317100325512
 20
397.77613791593876
 30
0.0
  0
SEQEND
  5
66
100
AcDbEntity
  8
0
370
              15
  6
Continuous
 62
               7
  0
SPLINE
  5
67
100
AcDbEntity
  8
0
370
              15
  6
Continuous
 62
               7
100
AcDbSpline
210
0.0
220
0.0
230
1.0
 70
               8
 71
               2
 72
              18
 73
              15
 74
               0
 42
0.000001
 43
0.000001
 40
0.0
 40
0.0
 40
0.0
 40
1.0
 40
1.0
 40
2.0
 40
3.0
 40
4.0
 40
5.0
 40
6.0
 40
7.0
 40
8.0
 40
9.0
 40
10.0
 40
10.0
 40
11.0
 40
11.0
 40
11.0
 10
-11.095408071789677
 20
453.5662093289834
 30
0.0
 10
-11.101272877532494
 20
453.56392727127013
 30
0.0
 10
-11.107137683275312
 20
453.56164521355686
 30
0.0
 10
-11.283942739049451
 20
453.49334946915815
 30
0.0
 10
-11.627008468072461
 20
453.35478336734559
 30
0.0
 10
-12.298212966623794
 20
453.02866998329023
 30
0.0
 10
-12.718843335958752
 20
452.50472240130557
 30
0.0
 10
-12.721308780734205
 20
452.0141255311396
 30
0.0
 10
-12.407334633468224
 20
451.60976731240817
 30
0.0
 10
-12.005462382752
 20
451.32274276129601
 30
0.0
 10
-11.449125218664392
 20
451.06220130116731
 30
0.0
 10
-10.773449711554292
 20
450.82402311456417
 30
0.0
 10
-10.418770753577007
 20
450.70802526880902
 30
0.0
 10
-10.407007048999219
 20
450.70414781915474
 30
0.0
 10
-10.395243344421431
 20
450.70027036950046
 30
0.0
  0
SPLINE
  5
68
100
AcDbEntity
  8
0
370
              15
  6
Continuous
 62
               7
100
AcDbSpline
210
0.0
220
0.0
230
1.0
 70
               8
 71
               2
 72
              11
 73
               8
 74
               0
 42
0.000001
 43
0.000001
 40
0.0
 40
0.0
 40
0.0
 40
1.0
 40
1.0
 40
2.0
 40
3.0
 40
3.0
 40
4.0
 40
4.0
 40
4.0
 10
-11.095408071789677
 20
453.5662093289834
 30
0.0
 10
-11.113486789987689
 20
453.43149850077941
 30
0.0
 10
-11.131565508185702
 20
453.29678767257542
 30
0.0
 10
-12.99462840664313
 20
439.90736174741869
 30
0.0
 10
-15.267477832450766
 20
412.24076829866658
 30
0.0
 10
-15.091336931392959
 20
397.77756691834247
 30
0.0
 10
-15.091326825886938
 20
397.77685163968204
 30
0.0
 10
-15.091316720380917
 20
397.7761363610216
 30
0.0
  0
SPLINE
  5
69
100
AcDbEntity
  8
0
370
              15
  6
Continuous
 62
               7
100
AcDbSpline
210
0.0
220
0.0
230
1.0
 70
               8
 71
               2
 72
              11
 73
               8
 74
               0
 42
0.000001
 43
0.000001
 40
0.0
 40
0.0
 40
0.0
 40
1.0
 40
1.0
 40
2.0
 40
3.0
 40
3.0
 40
4.0
 40
4.0
 40
4.0
 10
-15.091316720380917
 20
397.7761363610216
 30
0.0
 10
-15.091314335788127
 20
397.77680051476921
 30
0.0
 10
-15.091311951195337
 20
397.77746466851681
 30
0.0
 10
-14.98392127603887
 20
411.16757636640841
 30
0.0
 10
-12.361364812858881
 20
437.39292479201367
 30
0.0
 10
-10.433211303320775
 20
450.4382596076664
 30
0.0
 10
-10.414227323871103
 20
450.56926498858343
 30
0.0
 10
-10.395243344421431
 20
450.70027036950046
 30
0.0
  0
ARC
  5
6A
100
AcDbEntity
  8
0
370
              15
  6
Continuous
 62
               7
100
AcDbCircle
 10
-9.8211459965254448
 20
453.69858385773864
 30
0.0
 40
1.2811193746684661
100
AcDbArc
 50
80.824375394698862
 51
185.93080022469766
  0
ARC
  5
6B
100
AcDbEntity
  8
0
370
              15
  6
Continuous
 62
               7
100
AcDbCircle
 10
-7.9563034931256311
 20
450.76989705173878
 30
0.0
 40
2.439933497701483
100
AcDbArc
 50
118.39851990899547
 51
181.63523172460125
  0
SPLINE
  5
6C
100
AcDbEntity
  8
0
370
              15
  6
Continuous
 62
               7
100
AcDbSpline
210
0.0
220
0.0
230
1.0
 70
               8
 71
               2
 72
              18
 73
              15
 74
               0
 42
0.000001
 43
0.000001
 40
0.0
 40
0.0
 40
0.0
 40
1.0
 40
1.0
 40
2.0
 40
3.0
 40
4.0
 40
5.0
 40
6.0
 40
7.0
 40
8.0
 40
9.0
 40
10.0
 40
10.0
 40
11.0
 40
11.0
 40
11.0
 10
-9.1167394889507136
 20
452.91621104849514
 30
0.0
 10
-9.1239028734502767
 20
452.91834732677717
 30
0.0
 10
-9.1310662579498398
 20
452.92048360505919
 30
0.0
 10
-9.3471883665876589
 20
452.9843040580588
 30
0.0
 10
-9.7641882259703721
 20
453.11529889839312
 30
0.0
 10
-10.298982734163872
 20
453.32533239273516
 30
0.0
 10
-10.721243481055751
 20
453.67303258066636
 30
0.0
 10
-10.813828743763622
 20
454.05890985187398
 30
0.0
 10
-10.646832635613634
 20
454.34694751688403
 30
0.0
 10
-10.36416677216215
 20
454.61826120780529
 30
0.0
 10
-9.9417597303101388
 20
454.82336504654404
 30
0.0
 10
-9.731450060905388
 20
454.91489028363958
 30
0.0
 10
-9.6240041471791642
 20
454.96028158840431
 30
0.0
 10
-9.6204306458761835
 20
454.96179593295346
 30
0.0
 10
-9.6168571445732027
 20
454.96331027750261
 30
0.0
  0
SPLINE
  5
6D
100
AcDbEntity
  8
0
370
              15
  6
Continuous
 62
               7
100
AcDbSpline
210
0.0
220
0.0
230
1.0
 70
               8
 71
               2
 72
              11
 73
               8
 74
               0
 42
0.000001
 43
0.000001
 40
0.0
 40
0.0
 40
0.0
 40
1.0
 40
1.0
 40
2.0
 40
3.0
 40
3.0
 40
4.0
 40
4.0
 40
4.0
 10
26.785273873080371
 20
399.71238553821172
 30
0.0
 10
26.785234137718646
 20
399.71309944666643
 30
0.0
 10
26.785194402356922
 20
399.71381335512115
 30
0.0
 10
25.935608377218216
 20
414.157316940594
 30
0.0
 10
21.85103381736036
 20
441.51279662334287
 30
0.0
 10
19.209494676079714
 20
454.69966775660328
 30
0.0
 10
19.183364723969191
 20
454.83233472075005
 30
0.0
 10
19.157234771858668
 20
454.96500168489683
 30
0.0
  0
SPLINE
  5
6E
100
AcDbEntity
  8
0
370
              15
  6
Continuous
 62
               7
100
AcDbSpline
210
0.0
220
0.0
230
1.0
 70
               8
 71
               2
 72
              18
 73
              15
 74
               0
 42
0.000001
 43
0.000001
 40
0.0
 40
0.0
 40
0.0
 40
1.0
 40
1.0
 40
2.0
 40
3.0
 40
4.0
 40
5.0
 40
6.0
 40
7.0
 40
8.0
 40
9.0
 40
10.0
 40
10.0
 40
11.0
 40
11.0
 40
11.0
 10
19.857399499226915
 20
452.09906272541389
 30
0.0
 10
19.863252850709102
 20
452.10176739539668
 30
0.0
 10
19.86910620219129
 20
452.10447206537947
 30
0.0
 10
20.045566156796269
 20
452.1855005380803
 30
0.0
 10
20.387959747329489
 20
452.34886561083181
 30
0.0
 10
21.057826779075469
 20
452.72432571794434
 30
0.0
 10
21.477483524019874
 20
453.2841996769896
 30
0.0
 10
21.47973203313569
 20
453.78279802748648
 30
0.0
 10
21.166139192336743
 20
454.17308638421378
 30
0.0
 10
20.76485620596992
 20
454.43836956271434
 30
0.0
 10
20.209396052763452
 20
454.66655314449395
 30
0.0
 10
19.534820911663076
 20
454.86413262370479
 30
0.0
 10
19.180723623418146
 20
454.95866939274015
 30
0.0
 10
19.168979197638407
 20
454.96183553881849
 30
0.0
 10
19.157234771858668
 20
454.96500168489683
 30
0.0
  0
SPLINE
  5
6F
100
AcDbEntity
  8
0
370
              15
  6
Continuous
 62
               7
100
AcDbSpline
210
0.0
220
0.0
230
1.0
 70
               8
 71
               2
 72
              11
 73
               8
 74
               0
 42
0.000001
 43
0.000001
 40
0.0
 40
0.0
 40
0.0
 40
1.0
 40
1.0
 40
2.0
 40
3.0
 40
3.0
 40
4.0
 40
4.0
 40
4.0
 10
8.1280794739787439
 20
457.53399339595853
 30
0.0
 10
8.1237951482298172
 20
457.40841108966799
 30
0.0
 10
8.1195108224808905
 20
457.28282878337745
 30
0.0
 10
7.5464530917607249
 20
438.78045930073517
 30
0.0
 10
5.0919656285025781
 20
412.45900449358896
 30
0.0
 10
4.3329296699603788
 20
404.94355946367523
 30
0.0
 10
4.3328609166915726
 20
404.94287082484186
 30
0.0
 10
4.3327921634227664
 20
404.94218218600849
 30
0.0
  0
SPLINE
  5
70
100
AcDbEntity
  8
0
370
              15
  6
Continuous
 62
               7
100
AcDbSpline
210
0.0
220
0.0
230
1.0
 70
               8
 71
               2
 72
              11
 73
               8
 74
               0
 42
0.000001
 43
0.000001
 40
0.0
 40
0.0
 40
0.0
 40
1.0
 40
1.0
 40
2.0
 40
3.0
 40
3.0
 40
4.0
 40
4.0
 40
4.0
 10
19.157234771858668
 20
454.96500168489683
 30
0.0
 10
19.100273384660056
 20
454.97949005334874
 30
0.0
 10
19.043311997461444
 20
454.99397842180065
 30
0.0
 10
15.520350564861758
 20
455.91135165948685
 30
0.0
 10
10.214257023068114
 20
457.09413639236936
 30
0.0
 10
8.2439306147705906
 20
457.50944912472528
 30
0.0
 10
8.1860050443746672
 20
457.52172126034191
 30
0.0
 10
8.1280794739787439
 20
457.53399339595853
 30
0.0
  0
POLYLINE
  5
71
100
AcDbEntity
  8
0
370
              15
  6
Continuous
 62
               7
100
AcDb2dPolyline
 66
               1
 10
0.0
 20
0.0
 30
0.0
 75
               5
  0
VERTEX
  5
72
100
AcDbEntity
  8
0
370
              15
  6
Continuous
 62
               7
100
AcDbVertex
100
AcDb2dVertex
 10
19.157234771874357
 20
454.96500168493867
 30
0.0
  0
VERTEX
  5
73
100
AcDbEntity
  8
0
370
              15
  6
Continuous
 62
               7
100
AcDbVertex
100
AcDb2dVertex
 10
19.103520547874552
 20
455.29658223713864
 30
0.0
  0
VERTEX
  5
74
100
AcDbEntity
  8
0
370
              15
  6
Continuous
 62
               7
100
AcDbVertex
100
AcDb2dVertex
 10
19.006399849074626
 20
455.59477229353865
 30
0.0
  0
VERTEX
  5
75
100
AcDbEntity
  8
0
370
              15
  6
Continuous
 62
               7
100
AcDbVertex
100
AcDb2dVertex
 10
18.869198920674592
 20
455.84935961453857
 30
0.0
  0
VERTEX
  5
76
100
AcDbEntity
  8
0
370
              15
  6
Continuous
 62
               7
100
AcDbVertex
100
AcDb2dVertex
 10
18.696616919074643
 20
456.05161890233876
 30
0.0
  0
VERTEX
  5
77
100
AcDbEntity
  8
0
370
              15
  6
Continuous
 62
               7
100
AcDbVertex
100
AcDb2dVertex
 10
18.494564094074633
 20
456.19463061593865
 30
0.0
  0
VERTEX
  5
78
100
AcDbEntity
  8
0
370
              15
  6
Continuous
 62
               7
100
AcDbVertex
100
AcDb2dVertex
 10
18.269960092674467
 20
456.27349508993871
 30
0.0
  0
VERTEX
  5
79
100
AcDbEntity
  8
0
370
              15
  6
Continuous
 62
               7
100
AcDbVertex
100
AcDb2dVertex
 10
18.030497840074588
 20
456.28550734933856
 30
0.0
  0
VERTEX
  5
7A
100
AcDbEntity
  8
0
370
              15
  6
Continuous
 62
               7
100
AcDbVertex
100
AcDb2dVertex
 10
17.784378275474467
 20
456.23026202273877
 30
0.0
  0
SEQEND
  5
7B
100
AcDbEntity
  8
0
370
              15
  6
Continuous
 62
               7
  0
ARC
  5
7C
100
AcDbEntity
  8
0
370
              15
  6
Continuous
 62
               7
100
AcDbCircle
 10
17.527961113274444
 20
451.97659615673865
 30
0.0
 40
2.3326554083643671
100
AcDbArc
 50
3.0094650776004226
 51
71.075409371097479
  0
SPLINE
  5
7D
100
AcDbEntity
  8
0
370
              15
  6
Continuous
 62
               7
100
AcDbSpline
210
0.0
220
0.0
230
1.0
 70
               8
 71
               2
 72
              18
 73
              15
 74
               0
 42
0.000001
 43
0.000001
 40
0.0
 40
0.0
 40
0.0
 40
1.0
 40
1.0
 40
2.0
 40
3.0
 40
4.0
 40
5.0
 40
6.0
 40
7.0
 40
8.0
 40
9.0
 40
10.0
 40
10.0
 40
11.0
 40
11.0
 40
11.0
 10
17.784378275460824
 20
456.2302620227174
 30
0.0
 10
17.791541659960387
 20
456.22812574443537
 30
0.0
 10
17.79870504445995
 20
456.22598946615335
 30
0.0
 10
18.014827153097542
 20
456.16216901315306
 30
0.0
 10
18.43182701248071
 20
456.03117417282101
 30
0.0
 10
18.966621520673982
 20
455.8211406784767
 30
0.0
 10
19.388882267566089
 20
455.47344049054686
 30
0.0
 10
19.481467530273733
 20
455.08756321933834
 30
0.0
 10
19.314471422123518
 20
454.79952555432828
 30
0.0
 10
19.031805558672033
 20
454.52821186340771
 30
0.0
 10
18.609398516820249
 20
454.32310802466873
 30
0.0
 10
18.399088847415499
 20
454.23158278757273
 30
0.0
 10
18.291642933689502
 20
454.18619148280823
 30
0.0
 10
18.288069432386408
 20
454.18467713825908
 30
0.0
 10
18.284495931083313
 20
454.18316279370993
 30
0.0
  0
SPLINE
  5
7E
100
AcDbEntity
  8
0
370
              15
  6
Continuous
 62
               7
100
AcDbSpline
210
0.0
220
0.0
230
1.0
 70
               8
 71
               2
 72
              11
 73
               8
 74
               0
 42
0.000001
 43
0.000001
 40
0.0
 40
0.0
 40
0.0
 40
1.0
 40
1.0
 40
2.0
 40
3.0
 40
3.0
 40
4.0
 40
4.0
 40
4.0
 10
-1.5538564441025642
 20
457.08632943408134
 30
0.0
 10
-1.6003058053190102
 20
457.07037801571482
 30
0.0
 10
-1.6467551665354563
 20
457.05442659734831
 30
0.0
 10
-5.0941667417018266
 20
455.89184413109024
 30
0.0
 10
-9.6464100199445397
 20
454.13970417604787
 30
0.0
 10
-11.004815237432638
 20
453.60200080374034
 30
0.0
 10
-11.050111654611158
 20
453.58410506636187
 30
0.0
 10
-11.095408071789677
 20
453.5662093289834
 30
0.0
  0
SPLINE
  5
7F
100
AcDbEntity
  8
0
370
              15
  6
Continuous
 62
               7
100
AcDbSpline
210
0.0
220
0.0
230
1.0
 70
               8
 71
               2
 72
              11
 73
               8
 74
               0
 42
0.000001
 43
0.000001
 40
0.0
 40
0.0
 40
0.0
 40
1.0
 40
1.0
 40
2.0
 40
3.0
 40
3.0
 40
4.0
 40
4.0
 40
4.0
 10
4.3327921634227664
 20
404.94218218600849
 30
0.0
 10
4.3326882025700684
 20
404.94286283905387
 30
0.0
 10
4.3325842417173703
 20
404.94354349209925
 30
0.0
 10
2.9012800164614987
 20
414.11283263298151
 30
0.0
 10
-0.4865272715059632
 20
440.06010369564501
 30
0.0
 10
-1.5373890402710799
 20
456.83632241434248
 30
0.0
 10
-1.5456227421868221
 20
456.96132592421191
 30
0.0
 10
-1.5538564441025642
 20
457.08632943408134
 30
0.0
  0
POLYLINE
  5
80
100
AcDbEntity
  8
0
370
              15
  6
Continuous
 62
               7
100
AcDb2dPolyline
 66
               1
 10
0.0
 20
0.0
 30
0.0
 75
               5
  0
VERTEX
  5
81
100
AcDbEntity
  8
0
370
              15
  6
Continuous
 62
               7
100
AcDbVertex
100
AcDb2dVertex
 10
8.1280794740744682
 20
457.53399339593875
 30
0.0
  0
VERTEX
  5
82
100
AcDbEntity
  8
0
370
              15
  6
Continuous
 62
               7
100
AcDbVertex
100
AcDb2dVertex
 10
8.075890316074549
 20
457.8652187185387
 30
0.0
  0
VERTEX
  5
83
100
AcDbEntity
  8
0
370
              15
  6
Continuous
 62
               7
100
AcDbVertex
100
AcDb2dVertex
 10
7.9818063712744447
 20
458.16270143213865
 30
0.0
  0
VERTEX
  5
84
100
AcDbEntity
  8
0
370
              15
  6
Continuous
 62
               7
100
AcDbVertex
100
AcDb2dVertex
 10
7.8490489752744566
 20
458.4162537327386
 30
0.0
  0
VERTEX
  5
85
100
AcDbEntity
  8
0
370
              15
  6
Continuous
 62
               7
100
AcDbVertex
100
AcDb2dVertex
 10
7.6821652004744578
 20
458.61718574793872
 30
0.0
  0
VERTEX
  5
86
100
AcDbEntity
  8
0
370
              15
  6
Continuous
 62
               7
100
AcDbVertex
100
AcDb2dVertex
 10
7.4868709666744166
 20
458.7586232009387
 30
0.0
  0
VERTEX
  5
87
100
AcDbEntity
  8
0
370
              15
  6
Continuous
 62
               7
100
AcDbVertex
100
AcDb2dVertex
 10
7.2698535698744422
 20
458.83572054733872
 30
0.0
  0
VERTEX
  5
88
100
AcDbEntity
  8
0
370
              15
  6
Continuous
 62
               7
100
AcDbVertex
100
AcDb2dVertex
 10
7.0385468292743667
 20
458.84583316493877
 30
0.0
  0
VERTEX
  5
89
100
AcDbEntity
  8
0
370
              15
  6
Continuous
 62
               7
100
AcDbVertex
100
AcDb2dVertex
 10
6.800871455074514
 20
458.78862095573868
 30
0.0
  0
SEQEND
  5
8A
100
AcDbEntity
  8
0
370
              15
  6
Continuous
 62
               7
  0
SPLINE
  5
8B
100
AcDbEntity
  8
0
370
              15
  6
Continuous
 62
               7
100
AcDbSpline
210
0.0
220
0.0
230
1.0
 70
               8
 71
               2
 72
              10
 73
               7
 74
               0
 42
0.000001
 43
0.000001
 40
0.0
 40
0.0
 40
0.0
 40
1.0
 40
1.0
 40
2.0
 40
2.0
 40
3.0
 40
3.0
 40
3.0
 10
6.8008714550192622
 20
458.78862095574755
 30
0.0
 10
6.8586471757517415
 20
458.77551049496833
 30
0.0
 10
6.9164228964842209
 20
458.76240003418911
 30
0.0
 10
12.35682392080713
 20
457.53314240297823
 30
0.0
 10
17.671106839247216
 20
456.25734031240245
 30
0.0
 10
17.72774255735402
 20
456.24380116755992
 30
0.0
 10
17.784378275460824
 20
456.2302620227174
 30
0.0
  0
ARC
  5
8C
100
AcDbEntity
  8
0
370
              15
  6
Continuous
 62
               7
100
AcDbCircle
 10
-0.3158073445255809
 20
457.23787501533866
 30
0.0
 40
1.247289716231599
100
AcDbArc
 50
80.725898560400864
 51
186.97867422760493
  0
SPLINE
  5
8D
100
AcDbEntity
  8
0
370
              15
  6
Continuous
 62
               7
100
AcDbSpline
210
0.0
220
0.0
230
1.0
 70
               8
 71
               2
 72
              10
 73
               7
 74
               0
 42
0.000001
 43
0.000001
 40
0.0
 40
0.0
 40
0.0
 40
1.0
 40
1.0
 40
2.0
 40
2.0
 40
3.0
 40
3.0
 40
3.0
 10
-9.6168571445732027
 20
454.96331027750261
 30
0.0
 10
-9.5717948679768483
 20
454.98030522835177
 30
0.0
 10
-9.5267325913804939
 20
454.99730017920092
 30
0.0
 10
-4.9383689117145764
 20
456.7329696302902
 30
0.0
 10
-0.2074045306616767
 20
458.43543649729031
 30
0.0
 10
-0.1611007473781569
 20
458.4521487423026
 30
0.0
 10
-0.1147969640946371
 20
458.46886098731488
 30
0.0
  0
SPLINE
  5
8E
100
AcDbEntity
  8
0
370
              15
  6
Continuous
 62
               7
100
AcDbSpline
210
0.0
220
0.0
230
1.0
 70
               8
 71
               2
 72
              16
 73
              13
 74
               0
 42
0.000001
 43
0.000001
 40
0.0
 40
0.0
 40
0.0
 40
1.0
 40
1.0
 40
2.0
 40
3.0
 40
4.0
 40
5.0
 40
6.0
 40
7.0
 40
8.0
 40
8.0
 40
9.0
 40
9.0
 40
9.0
 10
8.1280794739787439
 20
457.53399339595853
 30
0.0
 10
8.1177585443434168
 20
457.53629663073775
 30
0.0
 10
8.1074376147080898
 20
457.53859986551697
 30
0.0
 10
7.7990044176477227
 20
457.60835942381436
 30
0.0
 10
6.5604020420421989
 20
457.864555378369
 30
0.0
 10
4.7415541389948999
 20
457.97953291804606
 30
0.0
 10
3.2979984734998311
 20
457.97177936845287
 30
0.0
 10
1.8562161290099652
 20
457.86927116587754
 30
0.0
 10
0.2373497481985964
 20
457.6299845185215
 30
0.0
 10
-1.021159104103333
 20
457.26216845431281
 30
0.0
 10
-1.5204015505991606
 20
457.09724125065486
 30
0.0
 10
-1.5371289973508624
 20
457.0917853423681
 30
0.0
 10
-1.5538564441025642
 20
457.08632943408134
 30
0.0
  0
SPLINE
  5
8F
100
AcDbEntity
  8
0
370
              15
  6
Continuous
 62
               7
100
AcDbSpline
210
0.0
220
0.0
230
1.0
 70
               8
 71
               2
 72
              16
 73
              13
 74
               0
 42
0.000001
 43
0.000001
 40
0.0
 40
0.0
 40
0.0
 40
1.0
 40
1.0
 40
2.0
 40
3.0
 40
4.0
 40
5.0
 40
6.0
 40
7.0
 40
8.0
 40
8.0
 40
9.0
 40
9.0
 40
9.0
 10
-0.1147969640946371
 20
458.46886098731488
 30
0.0
 10
-0.1037000542314104
 20
458.47218255689302
 30
0.0
 10
-0.0926031443681836
 20
458.47550412647115
 30
0.0
 10
0.194582327185401
 20
458.56243848369968
 30
0.0
 10
1.104541468793343
 20
458.82095027591254
 30
0.0
 10
2.126380021566149
 20
458.95768382564188
 30
0.0
 10
3.3083370752706855
 20
459.07347477222629
 30
0.0
 10
4.7433607148059878
 20
459.05332229712349
 30
0.0
 10
5.8405605855028284
 20
458.97009109917008
 30
0.0
 10
6.5823976648762823
 20
458.832081971035
 30
0.0
 10
6.7871892454268732
 20
458.79132347488621
 30
0.0
 10
6.7940303502230677
 20
458.78997221531688
 30
0.0
 10
6.8008714550192622
 20
458.78862095574755
 30
0.0
  0
LINE
  5
90
100
AcDbEntity
  8
0
370
              15
  6
Continuous
 62
               7
100
AcDbLine
 10
26.6532046970745
 20
398.4262700763386
 30
0.0
 11
26.576273374474624
 21
403.55177763913866
 31
0.0
  0
SPLINE
  5
91
100
AcDbEntity
  8
0
370
              15
  6
Continuous
 62
               7
100
AcDbSpline
210
0.0
220
0.0
230
1.0
 70
               8
 71
               2
 72
              11
 73
               8
 74
               0
 42
0.000001
 43
0.000001
 40
0.0
 40
0.0
 40
0.0
 40
1.0
 40
1.0
 40
2.0
 40
3.0
 40
3.0
 40
4.0
 40
4.0
 40
4.0
 10
-12.676159433794226
 20
452.32157808244619
 30
0.0
 10
-12.687124464027931
 20
452.21535261317786
 30
0.0
 10
-12.698089494261637
 20
452.10912714390952
 30
0.0
 10
-13.328553697317773
 20
446.21816452636972
 30
0.0
 10
-15.111879184159022
 20
421.5822098526528
 30
0.0
 10
-15.091036597866093
 20
402.34180818470668
 30
0.0
 10
-15.091166144241186
 20
402.19851109242484
 30
0.0
 10
-15.091295690616278
 20
402.055214000143
 30
0.0
  0
SPLINE
  5
92
100
AcDbEntity
  8
0
370
              15
  6
Continuous
 62
               7
100
AcDbSpline
210
0.0
220
0.0
230
1.0
 70
               8
 71
               2
 72
              17
 73
              14
 74
               0
 42
0.000001
 43
0.000001
 40
0.0
 40
0.0
 40
0.0
 40
1.0
 40
1.0
 40
2.0
 40
3.0
 40
4.0
 40
5.0
 40
6.0
 40
7.0
 40
8.0
 40
9.0
 40
9.0
 40
10.0
 40
10.0
 40
10.0
 10
-10.258525549106423
 20
454.91610087980757
 30
0.0
 10
-10.260033970861457
 20
454.91562357196005
 30
0.0
 10
-10.261542392616491
 20
454.91514626411254
 30
0.0
 10
-10.584521710579509
 20
454.81782408607614
 30
0.0
 10
-11.082404500147447
 20
454.57232370169459
 30
0.0
 10
-11.489998897286284
 20
454.30201780412699
 30
0.0
 10
-11.917271332482585
 20
453.9546248894012
 30
0.0
 10
-12.23899129127193
 20
453.57761335928944
 30
0.0
 10
-12.456686264839789
 20
453.23983150297295
 30
0.0
 10
-12.595191058993066
 20
452.86252263581059
 30
0.0
 10
-12.674469478456729
 20
452.53515887704953
 30
0.0
 10
-12.70933496029096
 20
452.36889441460062
 30
0.0
 10
-12.710513853754435
 20
452.36336129071549
 30
0.0
 10
-12.71169274721791
 20
452.35782816683036
 30
0.0
  0
SPLINE
  5
93
100
AcDbEntity
  8
0
370
              15
  6
Continuous
 62
               7
100
AcDbSpline
210
0.0
220
0.0
230
1.0
 70
               8
 71
               2
 72
              11
 73
               8
 74
               0
 42
0.000001
 43
0.000001
 40
0.0
 40
0.0
 40
0.0
 40
1.0
 40
1.0
 40
2.0
 40
3.0
 40
3.0
 40
4.0
 40
4.0
 40
4.0
 10
26.630085969293816
 20
402.74980052358114
 30
0.0
 10
26.626071583495275
 20
402.82552380632114
 30
0.0
 10
26.622057197696734
 20
402.90124708906114
 30
0.0
 10
25.652152933448235
 20
421.64886139781538
 30
0.0
 10
22.546452817159263
 20
446.63272243216488
 30
0.0
 10
21.468039911725612
 20
453.37450630126841
 30
0.0
 10
21.447686557117265
 20
453.50398846800977
 30
0.0
 10
21.427333202508919
 20
453.63347063475112
 30
0.0
  0
SPLINE
  5
94
100
AcDbEntity
  8
0
370
              15
  6
Continuous
 62
               7
100
AcDbSpline
210
0.0
220
0.0
230
1.0
 70
               8
 71
               2
 72
              17
 73
              14
 74
               0
 42
0.000001
 43
0.000001
 40
0.0
 40
0.0
 40
0.0
 40
1.0
 40
1.0
 40
2.0
 40
3.0
 40
4.0
 40
5.0
 40
6.0
 40
7.0
 40
8.0
 40
9.0
 40
9.0
 40
10.0
 40
10.0
 40
10.0
 10
21.436303391288959
 20
453.63665149127587
 30
0.0
 10
21.43621712996827
 20
453.63870190296439
 30
0.0
 10
21.436130868647581
 20
453.6407523146529
 30
0.0
 10
21.433758623723236
 20
453.70231435415303
 30
0.0
 10
21.418873677583463
 20
453.97137886287283
 30
0.0
 10
21.271675030639756
 20
454.34598243036453
 30
0.0
 10
20.841772903367257
 20
455.02079784615603
 30
0.0
 10
20.085958350408475
 20
455.59385453194204
 30
0.0
 10
19.420427041238838
 20
455.92946742755385
 30
0.0
 10
18.874796309588476
 20
456.10328213311868
 30
0.0
 10
18.49155539838199
 20
456.20196094058406
 30
0.0
 10
18.297190152891801
 20
456.24891029540049
 30
0.0
 10
18.290720934132025
 20
456.25048364277768
 30
0.0
 10
18.28425171537225
 20
456.25205699015487
 30
0.0
  0
LINE
  5
95
100
AcDbEntity
  8
0
370
              15
  6
Continuous
 62
               7
100
AcDbLine
 10
-15.09763212632555
 20
402.89486511173868
 30
0.0
 11
-14.93241431972541
 21
399.12034978673864
 31
0.0
  0
SPLINE
  5
96
100
AcDbEntity
  8
0
370
              15
  6
Continuous
 62
               7
100
AcDbSpline
210
0.0
220
0.0
230
1.0
 70
               8
 71
               2
 72
              10
 73
               7
 74
               0
 42
0.000001
 43
0.000001
 40
0.0
 40
0.0
 40
0.0
 40
1.0
 40
1.0
 40
2.0
 40
2.0
 40
3.0
 40
3.0
 40
3.0
 10
18.282005685810702
 20
456.25815977893694
 30
0.0
 10
18.226851542713973
 20
456.27153724133518
 30
0.0
 10
18.171697399617244
 20
456.28491470373342
 30
0.0
 10
12.879536236702336
 20
457.57548623318053
 30
0.0
 10
7.3984302384790794
 20
458.7994716757787
 30
0.0
 10
7.3389486187950865
 20
458.81283502252199
 30
0.0
 10
7.2794669991110936
 20
458.82619836926528
 30
0.0
  0
SPLINE
  5
97
100
AcDbEntity
  8
0
370
              15
  6
Continuous
 62
               7
100
AcDbSpline
210
0.0
220
0.0
230
1.0
 70
               8
 71
               2
 72
              11
 73
               8
 74
               0
 42
0.000001
 43
0.000001
 40
0.0
 40
0.0
 40
0.0
 40
1.0
 40
1.0
 40
2.0
 40
3.0
 40
3.0
 40
4.0
 40
4.0
 40
4.0
 10
-0.7147963202027654
 20
458.43664724662017
 30
0.0
 10
-0.7596406308658175
 20
458.42065958028081
 30
0.0
 10
-0.8044849415288695
 20
458.40467191394146
 30
0.0
 10
-4.2242866768517047
 20
457.1946816161892
 30
0.0
 10
-8.7598896686251351
 20
455.49175048848747
 30
0.0
 10
-10.165421200080289
 20
454.95670744670474
 30
0.0
 10
-10.212299916727545
 20
454.93887932389521
 30
0.0
 10
-10.259178633374802
 20
454.92105120108567
 30
0.0
  0
SPLINE
  5
98
100
AcDbEntity
  8
0
370
              15
  6
Continuous
 62
               7
100
AcDbSpline
210
0.0
220
0.0
230
1.0
 70
               8
 71
               2
 72
              15
 73
              12
 74
               0
 42
0.000001
 43
0.000001
 40
0.0
 40
0.0
 40
0.0
 40
1.0
 40
1.0
 40
2.0
 40
3.0
 40
4.0
 40
5.0
 40
6.0
 40
7.0
 40
7.0
 40
8.0
 40
8.0
 40
8.0
 10
7.2805736126577472
 20
458.82277745781221
 30
0.0
 10
7.2789361889046518
 20
458.82323900624442
 30
0.0
 10
7.2772987651515564
 20
458.82370055467663
 30
0.0
 10
6.872060843583597
 20
458.94081364092881
 30
0.0
 10
5.7686799051026014
 20
459.08170960172038
 30
0.0
 10
4.2685747639325768
 20
459.17317520339407
 30
0.0
 10
2.3437563629716465
 20
459.10167431598643
 30
0.0
 10
0.5191999661051909
 20
458.82789676618563
 30
0.0
 10
-0.4385893536593244
 20
458.53270634351179
 30
0.0
 10
-0.7081890192382048
 20
458.443429876555
 30
0.0
 10
-0.717198018015381
 20
458.44046860451726
 30
0.0
 10
-0.7262070167925572
 20
458.43750733247953
 30
0.0
  0
ARC
  5
99
100
AcDbEntity
  8
0
370
              15
  6
Continuous
 62
               7
100
AcDbCircle
 10
-0.6701287725254019
 20
288.41470126353875
 30
0.0
 40
1.0000000000000144
100
AcDbArc
 50
1.552534576393666
 51
76.888040768303981
  0
LINE
  5
9A
100
AcDbEntity
  8
0
370
              15
  6
Continuous
 62
               7
100
AcDbLine
 10
1.3641437792746842
 20
250.26814329193871
 30
0.0
 11
0.329505256874711
 21
288.44179313713857
 31
0.0
  0
LINE
  5
9B
100
AcDbEntity
  8
0
370
              15
  6
Continuous
 62
               7
100
AcDbLine
 10
-0.4432749345252773
 20
289.38863137033877
 30
0.0
 11
-29.171819940125431
 21
296.0802946933386
 31
0.0
  0
LINE
  5
9C
100
AcDbEntity
  8
0
370
              15
  6
Continuous
 62
               7
100
AcDbLine
 10
-3.2017603875253258
 20
247.85947884553866
 30
0.0
 11
0.7106321242745821
 21
249.30285955313866
 31
0.0
  0
ARC
  5
9D
100
AcDbEntity
  8
0
370
              15
  6
Continuous
 62
               7
100
AcDbCircle
 10
0.3645099658745608
 20
250.2410434547387
 30
0.0
 40
1.0000000000000548
100
AcDbArc
 50
290.25029528889524
 51
1.5525345763936118
  0
LINE
  5
9E
100
AcDbEntity
  8
0
370
              15
  6
Continuous
 62
               7
100
AcDbLine
 10
-29.744794938125267
 20
296.04455331913869
 30
0.0
 11
-33.657552925525295
 21
294.60103777833865
 31
0.0
  0
ARC
  5
9F
100
AcDbEntity
  8
0
370
              15
  6
Continuous
 62
               7
100
AcDbCircle
 10
-29.398674701925472
 20
295.10636480173866
 30
0.0
 40
1.0000000000002223
100
AcDbArc
 50
76.888040768293493
 51
110.25029528890219
  0
SPLINE
  5
A0
100
AcDbEntity
  8
0
370
              15
  6
Continuous
 62
               7
100
AcDbSpline
210
0.0
220
0.0
230
1.0
 70
               8
 71
               2
 72
              17
 73
              14
 74
               0
 42
0.000001
 43
0.000001
 40
0.0
 40
0.0
 40
0.0
 40
1.0
 40
1.0
 40
2.0
 40
3.0
 40
4.0
 40
5.0
 40
6.0
 40
7.0
 40
8.0
 40
9.0
 40
9.0
 40
10.0
 40
10.0
 40
10.0
 10
-35.796547212931898
 20
264.82317143002433
 30
0.0
 10
-35.786217322149184
 20
264.79753996883414
 30
0.0
 10
-35.775887431366471
 20
264.77190850764396
 30
0.0
 10
-35.510288848225343
 20
264.10386868107094
 30
0.0
 10
-34.6790748345108
 20
262.22020395449272
 30
0.0
 10
-32.561017232439042
 20
258.88133786342746
 30
0.0
 10
-29.775212479537402
 20
256.41629239667236
 30
0.0
 10
-27.464599840905692
 20
255.00957018363374
 30
0.0
 10
-24.723119577271689
 20
254.11844536391209
 30
0.0
 10
-22.518792051268463
 20
254.08451836431982
 30
0.0
 10
-20.843499722331842
 20
254.31853711413055
 30
0.0
 10
-19.994651872704424
 20
254.70542760302806
 30
0.0
 10
-19.986660245040014
 20
254.70890924375476
 30
0.0
 10
-19.978668617375604
 20
254.71239088448147
 30
0.0
  0
SPLINE
  5
A1
100
AcDbEntity
  8
0
370
              15
  6
Continuous
 62
               7
100
AcDbSpline
210
0.0
220
0.0
230
1.0
 70
               8
 71
               2
 72
              18
 73
              15
 74
               0
 42
0.000001
 43
0.000001
 40
0.0
 40
0.0
 40
0.0
 40
1.0
 40
1.0
 40
2.0
 40
3.0
 40
4.0
 40
5.0
 40
6.0
 40
7.0
 40
8.0
 40
9.0
 40
10.0
 40
10.0
 40
11.0
 40
11.0
 40
11.0
 10
-29.860932505025801
 20
282.96095445511992
 30
0.0
 10
-29.862595954286633
 20
282.96063032602217
 30
0.0
 10
-29.864259403547464
 20
282.96030619692442
 30
0.0
 10
-30.524384596380685
 20
282.82329948763982
 30
0.0
 10
-31.88186598538158
 20
282.14235064958461
 30
0.0
 10
-33.159354767950788
 20
281.23106315866403
 30
0.0
 10
-34.932657281942681
 20
279.43281881274856
 30
0.0
 10
-36.311259039964796
 20
276.47832689595907
 30
0.0
 10
-36.945051867964764
 20
273.69900605067892
 30
0.0
 10
-37.062680446271941
 20
270.8633774756629
 30
0.0
 10
-36.715422884350289
 20
267.71734097945182
 30
0.0
 10
-36.014240903063126
 20
265.45294346100059
 30
0.0
 10
-35.810045493539008
 20
264.86255997587023
 30
0.0
 10
-35.803296353235453
 20
264.84286570294728
 30
0.0
 10
-35.796547212931898
 20
264.82317143002433
 30
0.0
  0
LINE
  5
A2
100
AcDbEntity
  8
0
370
              15
  6
Continuous
 62
               7
100
AcDbLine
 10
-20.116975018725441
 20
254.6195261113387
 30
0.0
 11
-18.481867198725411
 21
255.22275880713869
 31
0.0
  0
LINE
  5
A3
100
AcDbEntity
  8
0
370
              15
  6
Continuous
 62
               7
100
AcDbLine
 10
-28.865523666325259
 20
283.36844032053864
 30
0.0
 11
-30.50063148632529
 21
282.76520762473865
 31
0.0
  0
SPLINE
  5
A4
100
AcDbEntity
  8
0
370
              15
  6
Continuous
 62
               7
100
AcDbSpline
210
0.0
220
0.0
230
1.0
 70
               8
 71
               2
 72
              14
 73
              11
 74
               0
 42
0.000001
 43
0.000001
 40
0.0
 40
0.0
 40
0.0
 40
1.0
 40
1.0
 40
2.0
 40
3.0
 40
4.0
 40
5.0
 40
6.0
 40
6.0
 40
7.0
 40
7.0
 40
7.0
 10
-7.7255873258863517
 20
246.73750233236433
 30
0.0
 10
-7.7228046007519993
 20
246.73700970950597
 30
0.0
 10
-7.7200218756176469
 20
246.73651708664761
 30
0.0
 10
-7.5586834762445392
 20
246.70584499710662
 30
0.0
 10
-7.3133309975582392
 20
246.67913195991423
 30
0.0
 10
-7.1234698596110206
 20
246.68054171017729
 30
0.0
 10
-6.933277105426157
 20
246.71184546630752
 30
0.0
 10
-6.7091602770244094
 20
246.77074666423323
 30
0.0
 10
-6.5688733273286175
 20
246.81509027239463
 30
0.0
 10
-6.566068028431971
 20
246.81596165322799
 30
0.0
 10
-6.5632627295353245
 20
246.81683303406135
 30
0.0
  0
LINE
  5
A5
100
AcDbEntity
  8
0
370
              15
  6
Continuous
 62
               7
100
AcDbLine
 10
-36.196539790525264
 20
253.36855527853868
 30
0.0
 11
-7.6633736197254052
 21
246.72240102613864
 31
0.0
  0
LINE
  5
A6
100
AcDbEntity
  8
0
370
              15
  6
Continuous
 62
               7
100
AcDbLine
 10
-6.6814404633252593
 20
246.76594729013868
 30
0.0
 11
-3.2373935943252832
 21
247.84682841133872
 31
0.0
  0
SPLINE
  5
A7
100
AcDbEntity
  8
0
370
              15
  6
Continuous
 62
               7
100
AcDbSpline
210
0.0
220
0.0
230
1.0
 70
               8
 71
               2
 72
              16
 73
              13
 74
               0
 42
0.000001
 43
0.000001
 40
0.0
 40
0.0
 40
0.0
 40
1.0
 40
1.0
 40
2.0
 40
3.0
 40
4.0
 40
5.0
 40
6.0
 40
7.0
 40
8.0
 40
8.0
 40
9.0
 40
9.0
 40
9.0
 10
-36.999602902068034
 20
293.16454130558441
 30
0.0
 10
-37.00487703558764
 20
293.16134790839999
 30
0.0
 10
-37.010151169107246
 20
293.15815451121557
 30
0.0
 10
-37.254582801309368
 20
293.01778726180351
 30
0.0
 10
-37.719316652538907
 20
292.66342798889991
 30
0.0
 10
-38.063613861236661
 20
292.1963257134496
 30
0.0
 10
-38.299380592108207
 20
291.76575329458205
 30
0.0
 10
-38.551959558335909
 20
291.15602416718298
 30
0.0
 10
-38.662869804899344
 20
290.52575845966157
 30
0.0
 10
-38.694809447343403
 20
290.07862978522508
 30
0.0
 10
-38.704349327734178
 20
289.85483079658047
 30
0.0
 10
-38.704689857543315
 20
289.84737163870659
 30
0.0
 10
-38.705030387352451
 20
289.83991248083271
 30
0.0
  0
LINE
  5
A8
100
AcDbEntity
  8
0
370
              15
  6
Continuous
 62
               7
100
AcDbLine
 10
-38.706981616725386
 20
289.87876926453873
 30
0.0
 11
-37.782456089125333
 21
255.76780877293868
 31
0.0
  0
LINE
  5
A9
100
AcDbEntity
  8
0
370
              15
  6
Continuous
 62
               7
100
AcDbLine
 10
-33.693464891125302
 20
294.58725206993859
 30
0.0
 11
-36.928432711125367
 21
293.20407547753871
 31
0.0
  0
SPLINE
  5
AA
100
AcDbEntity
  8
0
370
              15
  6
Continuous
 62
               7
100
AcDbSpline
210
0.0
220
0.0
230
1.0
 70
               8
 71
               2
 72
              16
 73
              13
 74
               0
 42
0.000001
 43
0.000001
 40
0.0
 40
0.0
 40
0.0
 40
1.0
 40
1.0
 40
2.0
 40
3.0
 40
4.0
 40
5.0
 40
6.0
 40
7.0
 40
8.0
 40
8.0
 40
9.0
 40
9.0
 40
9.0
 10
-37.781545295238118
 20
255.76003047586232
 30
0.0
 10
-37.780939069600265
 20
255.75452253803905
 30
0.0
 10
-37.780332843962412
 20
255.74901460021579
 30
0.0
 10
-37.762728997453621
 20
255.58349635656054
 30
0.0
 10
-37.720331529833345
 20
255.25599559975853
 30
0.0
 10
-37.601080189985794
 20
254.71681892822312
 30
0.0
 10
-37.315011372455672
 20
254.19441123969091
 30
0.0
 10
-36.957405640498735
 20
253.73936566193652
 30
0.0
 10
-36.55348404314708
 20
253.50998505706502
 30
0.0
 10
-36.296269452084459
 20
253.40839062899931
 30
0.0
 10
-36.165676429168968
 20
253.36263603247767
 30
0.0
 10
-36.161330241266739
 20
253.36109327815905
 30
0.0
 10
-36.156984053364511
 20
253.35955052384043
 30
0.0
  0
SPLINE
  5
AB
100
AcDbEntity
  8
0
370
              15
  6
Continuous
 62
               7
100
AcDbSpline
210
0.0
220
0.0
230
1.0
 70
               8
 71
               2
 72
              17
 73
              14
 74
               0
 42
0.000001
 43
0.000001
 40
0.0
 40
0.0
 40
0.0
 40
1.0
 40
1.0
 40
2.0
 40
3.0
 40
4.0
 40
5.0
 40
6.0
 40
7.0
 40
8.0
 40
9.0
 40
9.0
 40
10.0
 40
10.0
 40
10.0
 10
-33.357045046991232
 20
276.60069401120518
 30
0.0
 10
-33.362449908389237
 20
276.59392238588964
 30
0.0
 10
-33.367854769787243
 20
276.5871507605741
 30
0.0
 10
-34.050934177201896
 20
275.75274711030102
 30
0.0
 10
-35.499513465081407
 20
272.73562940201168
 30
0.0
 10
-35.858348155404371
 20
268.90109492333249
 30
0.0
 10
-35.335179658652066
 20
265.77041592461092
 30
0.0
 10
-33.854427579732089
 20
262.48788712692203
 30
0.0
 10
-31.665725489409112
 20
260.12777112158119
 30
0.0
 10
-29.276946814090195
 20
258.42165906664923
 30
0.0
 10
-26.965977085487964
 20
257.54490474018053
 30
0.0
 10
-26.230555829674529
 20
257.40832520664048
 30
0.0
 10
-26.228741362611061
 20
257.40799000811853
 30
0.0
 10
-26.226926895547592
 20
257.40765480959658
 30
0.0
  0
SPLINE
  5
AC
100
AcDbEntity
  8
0
370
              15
  6
Continuous
 62
               7
100
AcDbSpline
210
0.0
220
0.0
230
1.0
 70
               8
 71
               2
 72
              13
 73
              10
 74
               0
 42
0.000001
 43
0.000001
 40
0.0
 40
0.0
 40
0.0
 40
1.0
 40
1.0
 40
2.0
 40
3.0
 40
4.0
 40
5.0
 40
5.0
 40
6.0
 40
6.0
 40
6.0
 10
-27.427717902379243
 20
257.78731207145847
 30
0.0
 10
-27.427117595879793
 20
257.78701441403894
 30
0.0
 10
-27.426517289380342
 20
257.7867167566194
 30
0.0
 10
-27.358226998207726
 20
257.75191002232555
 30
0.0
 10
-27.254397830407868
 20
257.70732634378237
 30
0.0
 10
-27.165664783197315
 20
257.67768860677643
 30
0.0
 10
-27.066335412991918
 20
257.65268951452845
 30
0.0
 10
-27.018157960108908
 20
257.64162301477677
 30
0.0
 10
-27.017327666135031
 20
257.64143008814051
 30
0.0
 10
-27.016497372161155
 20
257.64123716150425
 30
0.0
  0
SPLINE
  5
AD
100
AcDbEntity
  8
0
370
              15
  6
Continuous
 62
               7
100
AcDbSpline
210
0.0
220
0.0
230
1.0
 70
               8
 71
               2
 72
              13
 73
              10
 74
               0
 42
0.000001
 43
0.000001
 40
0.0
 40
0.0
 40
0.0
 40
1.0
 40
1.0
 40
2.0
 40
3.0
 40
4.0
 40
5.0
 40
5.0
 40
6.0
 40
6.0
 40
6.0
 10
-24.944397359924722
 20
257.24070122229182
 30
0.0
 10
-24.94245205597116
 20
257.24047535165835
 30
0.0
 10
-24.940506752017598
 20
257.24024948102488
 30
0.0
 10
-24.819906573810101
 20
257.22563910709687
 30
0.0
 10
-24.377576436566585
 20
257.18489554564826
 30
0.0
 10
-23.572040364153906
 20
257.24121210284079
 30
0.0
 10
-22.820841438344303
 20
257.45243849298595
 30
0.0
 10
-22.523631704774914
 20
257.55167719002247
 30
0.0
 10
-22.518828643231643
 20
257.55324963052635
 30
0.0
 10
-22.514025581688372
 20
257.55482207103023
 30
0.0
  0
SPLINE
  5
AE
100
AcDbEntity
  8
0
370
              15
  6
Continuous
 62
               7
100
AcDbSpline
210
0.0
220
0.0
230
1.0
 70
               8
 71
               2
 72
              14
 73
              11
 74
               0
 42
0.000001
 43
0.000001
 40
0.0
 40
0.0
 40
0.0
 40
1.0
 40
1.0
 40
2.0
 40
3.0
 40
4.0
 40
5.0
 40
6.0
 40
6.0
 40
7.0
 40
7.0
 40
7.0
 10
-30.411928713727718
 20
279.01398485908817
 30
0.0
 10
-30.420129372213694
 20
279.01012418271307
 30
0.0
 10
-30.428330030699669
 20
279.00626350633797
 30
0.0
 10
-30.576037361180568
 20
278.93692898240374
 30
0.0
 10
-30.96853639340469
 20
278.74974643229461
 30
0.0
 10
-31.605231734489223
 20
278.39361216373004
 30
0.0
 10
-32.083960677252151
 20
277.98304651078638
 30
0.0
 10
-32.2878377086451
 20
277.79401439166168
 30
0.0
 10
-32.364042173435507
 20
277.72271550667574
 30
0.0
 10
-32.368276991337041
 20
277.71875649923277
 30
0.0
 10
-32.372511809238574
 20
277.7147974917898
 30
0.0
  0
LINE
  5
AF
100
AcDbEntity
  8
0
370
              15
  6
Continuous
 62
               7
100
AcDbLine
 10
-29.180299128125341
 20
279.50806025493875
 30
0.0
 11
-30.294798796525299
 21
279.06489229713861
 31
0.0
  0
LINE
  5
B0
100
AcDbEntity
  8
0
370
              15
  6
Continuous
 62
               7
100
AcDbLine
 10
-22.363652179125381
 20
257.56691807633865
 30
0.0
 11
-21.228367281725411
 21
257.9537440917386
 31
0.0
  0
LINE
  5
B1
100
AcDbEntity
  8
0
370
              15
  6
Continuous
 62
               7
100
AcDbLine
 10
-43.323733400525441
 20
394.32668260153878
 30
0.0
 11
-19.378308505525354
 21
-489.15507978646133
 31
0.0
  0
LINE
  5
B2
100
AcDbEntity
  8
0
370
              15
  6
Continuous
 62
               7
100
AcDbLine
 10
79.079504152674701
 20
-484.61415877226136
 30
0.0
 11
55.134634191074667
 21
398.84712900293857
 31
0.0
  0
LINE
  5
B3
100
AcDbEntity
  8
0
370
              15
  6
Continuous
 62
               7
100
AcDbLine
 10
-40.463154007925311
 20
399.44592350733865
 30
0.0
 11
8.2997700668746006
 21
388.08770573153856
 31
0.0
  0
ARC
  5
B4
100
AcDbEntity
  8
0
370
              15
  6
Continuous
 62
               7
100
AcDbCircle
 10
8.9803350914747284
 20
391.00949128093862
 30
0.0
 40
3.0000000000001212
100
AcDbArc
 50
256.88804076829996
 51
290.25029528889905
  0
LINE
  5
B5
100
AcDbEntity
  8
0
370
              15
  6
Continuous
 62
               7
100
AcDbLine
 10
10.018702972674703
 20
388.19492277453878
 30
0.0
 11
52.204522739474726
 21
403.75834035113871
 31
0.0
  0
LINE
  5
B6
100
AcDbEntity
  8
0
370
              15
  6
Continuous
 62
               7
100
AcDbLine
 10
50.178364495874632
 20
471.04972180773871
 30
0.0
 11
1.4154404210747202
 21
482.4079395833387
 31
0.0
  0
ARC
  5
B7
100
AcDbEntity
  8
0
370
              15
  6
Continuous
 62
               7
100
AcDbCircle
 10
-41.450946517525324
 20
463.92273287153876
 30
0.0
 40
3.0000000000000298
100
AcDbArc
 50
110.25029528890084
 51
181.55253457639799
  0
LINE
  5
B8
100
AcDbEntity
  8
0
370
              15
  6
Continuous
 62
               7
100
AcDbLine
 10
-44.449844369925302
 20
463.84145198013857
 30
0.0
 11
-42.781489419925435
 21
402.2864293395387
 31
0.0
  0
LINE
  5
B9
100
AcDbEntity
  8
0
370
              15
  6
Continuous
 62
               7
100
AcDbLine
 10
-0.303492454525383
 20
482.30072142953873
 30
0.0
 11
-42.489312221525267
 21
466.73730385273871
 31
0.0
  0
ARC
  5
BA
100
AcDbEntity
  8
0
370
              15
  6
Continuous
 62
               7
100
AcDbCircle
 10
49.49780211487456
 20
468.12793289393858
 30
0.0
 40
3.0000000000000493
100
AcDbArc
 50
1.5525345763980067
 51
76.888040768299717
  0
LINE
  5
BB
100
AcDbEntity
  8
0
370
              15
  6
Continuous
 62
               7
100
AcDbLine
 10
54.165054954274694
 20
406.65418977973877
 30
0.0
 11
52.496700004274601
 21
468.20921242013856
 31
0.0
  0
ARC
  5
BC
100
AcDbEntity
  8
0
370
              15
  6
Continuous
 62
               7
100
AcDbCircle
 10
-39.78259155192535
 20
402.36770965493861
 30
0.0
 40
3.0000000000000493
100
AcDbArc
 50
181.55253457639802
 51
256.88804076829973
  0
ARC
  5
BD
100
AcDbEntity
  8
0
370
              15
  6
Continuous
 62
               7
100
AcDbCircle
 10
51.166157080474534
 20
406.57290967753875
 30
0.0
 40
3.0000000000000298
100
AcDbArc
 50
290.25029528890087
 51
1.5525345763980456
  0
ARC
  5
BE
100
AcDbEntity
  8
0
370
              15
  6
Continuous
 62
               7
100
AcDbCircle
 10
0.7348754714747088
 20
479.48615126793857
 30
0.0
 40
2.9999999999998996
100
AcDbArc
 50
76.888040768298993
 51
110.2502952889006
  0
SPLINE
  5
BF
100
AcDbEntity
  8
0
370
              15
  6
Continuous
 62
               7
100
AcDbSpline
210
0.0
220
0.0
230
1.0
 70
               8
 71
               2
 72
              16
 73
              13
 74
               0
 42
0.000001
 43
0.000001
 40
0.0
 40
0.0
 40
0.0
 40
1.0
 40
1.0
 40
2.0
 40
3.0
 40
4.0
 40
5.0
 40
6.0
 40
7.0
 40
8.0
 40
8.0
 40
9.0
 40
9.0
 40
9.0
 10
-43.380648094295054
 20
397.49691692991246
 30
0.0
 10
-43.381304347105072
 20
397.49654219717547
 30
0.0
 10
-43.381960599915089
 20
397.49616746443849
 30
0.0
 10
-43.422873586114463
 20
397.47310503770314
 30
0.0
 10
-43.527191318379835
 20
397.41050906621558
 30
0.0
 10
-43.639706519047138
 20
397.30469921032477
 30
0.0
 10
-43.708386571670587
 20
397.20205959029863
 30
0.0
 10
-43.745929714315196
 20
397.11812299568464
 30
0.0
 10
-43.75895127715097
 20
397.05218033013807
 30
0.0
 10
-43.766060572914
 20
396.9904861776381
 30
0.0
 10
-43.768450313792925
 20
396.94865263909378
 30
0.0
 10
-43.768493612993154
 20
396.94797841359264
 30
0.0
 10
-43.768536912193383
 20
396.94730418809149
 30
0.0
  0
LINE
  5
C0
100
AcDbEntity
  8
0
370
              15
  6
Continuous
 62
               7
100
AcDbLine
 10
-43.769072628925358
 20
396.95610721933872
 30
0.0
 11
-43.747958407325257
 21
394.56081062013868
 31
0.0
  0
LINE
  5
C1
100
AcDbEntity
  8
0
370
              15
  6
Continuous
 62
               7
100
AcDbLine
 10
-39.023721330725436
 20
399.11064016133878
 30
0.0
 11
-43.330978366525358
 21
397.52158392813863
 31
0.0
  0
SPLINE
  5
C2
100
AcDbEntity
  8
0
370
              15
  6
Continuous
 62
               7
100
AcDbSpline
210
0.0
220
0.0
230
1.0
 70
               8
 71
               2
 72
              16
 73
              13
 74
               0
 42
0.000001
 43
0.000001
 40
0.0
 40
0.0
 40
0.0
 40
1.0
 40
1.0
 40
2.0
 40
3.0
 40
4.0
 40
5.0
 40
6.0
 40
7.0
 40
8.0
 40
8.0
 40
9.0
 40
9.0
 40
9.0
 10
55.435966335840988
 20
401.51392372874625
 30
0.0
 10
55.435828648258678
 20
401.51464672708016
 30
0.0
 10
55.435690960676368
 20
401.51536972541408
 30
0.0
 10
55.427677577040697
 20
401.56029078012307
 30
0.0
 10
55.411082168027917
 20
401.62609206927527
 30
0.0
 10
55.380827316874331
 20
401.71238737167891
 30
0.0
 10
55.305950466399338
 20
401.81184537132958
 30
0.0
 10
55.231392340580499
 20
401.8860638577396
 30
0.0
 10
55.120785134944583
 20
401.96868354660137
 30
0.0
 10
54.994831668928157
 20
402.02658922002706
 30
0.0
 10
54.946951492819892
 20
402.04680927728145
 30
0.0
 10
54.946181785004853
 20
402.04713807437679
 30
0.0
 10
54.945412077189815
 20
402.04746687147212
 30
0.0
  0
LINE
  5
C3
100
AcDbEntity
  8
0
370
              15
  6
Continuous
 62
               7
100
AcDbLine
 10
55.545289899874717
 20
399.11358224333867
 30
0.0
 11
55.436628343074574
 21
401.50650637213857
 31
0.0
  0
LINE
  5
C4
100
AcDbEntity
  8
0
370
              15
  6
Continuous
 62
               7
100
AcDbLine
 10
54.89290751347454
 20
402.06778768333857
 30
0.0
 11
50.436057816274626
 21
403.10590978973869
 31
0.0
  0
ARC
  5
C5
100
AcDbEntity
  8
0
370
              15
  6
Continuous
 62
               7
100
AcDbCircle
 10
-33.482512254525261
 20
294.08109939633869
 30
0.0
 40
0.5483971924322691
100
AcDbArc
 50
75.887921618113779
 51
109.88696112850047
  0
LINE
  5
C6
100
AcDbEntity
  8
0
370
              15
  6
Continuous
 62
               7
100
AcDbLine
 10
-33.34880234572546
 20
294.61294631133865
 30
0.0
 11
-4.6202573399254447
 21
287.92128298833859
 31
0.0
  0
ARC
  5
C7
100
AcDbEntity
  8
0
370
              15
  6
Continuous
 62
               7
100
AcDbCircle
 10
-5.0246793269254226
 20
286.80594247413865
 30
0.0
 40
1.1863985865717968
100
AcDbArc
 50
359.27077654409987
 51
70.069377340197548
  0
LINE
  5
C8
100
AcDbEntity
  8
0
370
              15
  6
Continuous
 62
               7
100
AcDbLine
 10
-3.8383768287253019
 20
286.79084317133857
 30
0.0
 11
-2.8037383061254673
 21
248.61719332633857
 31
0.0
  0
ARC
  5
C9
100
AcDbEntity
  8
0
370
              15
  6
Continuous
 62
               7
100
AcDbCircle
 10
-3.5407750265252957
 20
248.52233157213868
 30
0.0
 40
0.7431163298508279
100
AcDbArc
 50
296.11871970359891
 51
7.3340455060015293
  0
LINE
  5
CA
100
AcDbEntity
  8
0
370
              15
  6
Continuous
 62
               7
100
AcDbLine
 10
-4.6202573399254447
 20
287.92128298833859
 30
0.0
 11
-0.6959941861254606
 21
289.36904307653867
 31
0.0
  0
ARC
  5
CB
100
AcDbEntity
  8
0
370
              15
  6
Continuous
 62
               7
100
AcDbCircle
 10
-1.1004161731254385
 20
288.25370256213864
 30
0.0
 40
1.186398586572706
100
AcDbArc
 50
359.27077654410039
 51
70.069377340201299
  0
LINE
  5
CC
100
AcDbEntity
  8
0
370
              15
  6
Continuous
 62
               7
100
AcDbLine
 10
0.0858863252745437
 20
288.23860325953865
 30
0.0
 11
-3.8383768287253019
 21
286.79084317133857
 31
0.0
  0
LINE
  5
CD
100
AcDbEntity
  8
0
370
              15
  6
Continuous
 62
               7
100
AcDbLine
 10
-2.8037383061254673
 20
248.61719332633857
 30
0.0
 11
1.1205248476747443
 21
250.06495341433856
 31
0.0
  0
LINE
  5
CE
100
AcDbEntity
  8
0
370
              15
  6
Continuous
 62
               7
100
AcDbLine
 10
1.1205248476747443
 20
250.06495341433856
 30
0.0
 11
0.0858863252745437
 21
288.23860325953865
 31
0.0
  0
LINE
  5
CF
100
AcDbEntity
  8
0
370
              15
  6
Continuous
 62
               7
100
AcDbLine
 10
-29.424539191925476
 20
296.06070639953873
 30
0.0
 11
-33.34880234572546
 21
294.61294631133865
 31
0.0
  0
LINE
  5
D0
100
AcDbEntity
  8
0
370
              15
  6
Continuous
 62
               7
100
AcDbLine
 10
-0.6959941861254606
 20
289.36904307653867
 30
0.0
 11
-29.424539191925476
 21
296.06070639953873
 31
0.0
  0
SPLINE
  5
D1
100
AcDbEntity
  8
0
370
              15
  6
Continuous
 62
               7
100
AcDbSpline
210
0.0
220
0.0
230
1.0
 70
               8
 71
               2
 72
              17
 73
              14
 74
               0
 42
0.000001
 43
0.000001
 40
0.0
 40
0.0
 40
0.0
 40
1.0
 40
1.0
 40
2.0
 40
3.0
 40
4.0
 40
5.0
 40
6.0
 40
7.0
 40
8.0
 40
9.0
 40
9.0
 40
10.0
 40
10.0
 40
10.0
 10
-7.2570667729868887
 20
285.46225927136129
 30
0.0
 10
-7.2604623081345494
 20
285.46038693503294
 30
0.0
 10
-7.2638578432822101
 20
285.4585145987046
 30
0.0
 10
-7.3659498154895005
 20
285.4030779791301
 30
0.0
 10
-7.5672688288834138
 20
285.28321431696168
 30
0.0
 10
-7.7974883471410408
 20
285.09993633502017
 30
0.0
 10
-8.0032629709032221
 20
284.84463266784701
 30
0.0
 10
-8.2489190267103254
 20
284.44456013531931
 30
0.0
 10
-8.4294350979795922
 20
283.92613802059714
 30
0.0
 10
-8.4884149176309052
 20
283.55121514530197
 30
0.0
 10
-8.5099880448794352
 20
283.25283081676139
 30
0.0
 10
-8.5172467574595316
 20
283.10323160951134
 30
0.0
 10
-8.5175010363317938
 20
283.09824638410169
 30
0.0
 10
-8.5177553152040559
 20
283.09326115869203
 30
0.0
  0
SPLINE
  5
D2
100
AcDbEntity
  8
0
370
              15
  6
Continuous
 62
               7
100
AcDbSpline
210
0.0
220
0.0
230
1.0
 70
               8
 71
               2
 72
              15
 73
              12
 74
               0
 42
0.000001
 43
0.000001
 40
0.0
 40
0.0
 40
0.0
 40
1.0
 40
1.0
 40
2.0
 40
3.0
 40
4.0
 40
5.0
 40
6.0
 40
7.0
 40
7.0
 40
8.0
 40
8.0
 40
8.0
 10
-8.5177553152040559
 20
283.09326115869203
 30
0.0
 10
-8.5192791317866181
 20
283.09282618768827
 30
0.0
 10
-8.5208029483691803
 20
283.09239121668452
 30
0.0
 10
-8.6024059244613795
 20
283.06855630645805
 30
0.0
 10
-8.780110367401619
 20
283.02333472162513
 30
0.0
 10
-9.010528926998802
 20
282.99020150961633
 30
0.0
 10
-9.271112271644995
 20
282.97502619240413
 30
0.0
 10
-9.5600698166014695
 20
282.97986585203807
 30
0.0
 10
-9.8041000215181953
 20
283.01474376643455
 30
0.0
 10
-9.907093408290109
 20
283.03372038499697
 30
0.0
 10
-9.9087639397042153
 20
283.03402015717813
 30
0.0
 10
-9.9104344711183217
 20
283.0343199293593
 30
0.0
  0
SPLINE
  5
D3
100
AcDbEntity
  8
0
370
              15
  6
Continuous
 62
               7
100
AcDbSpline
210
0.0
220
0.0
230
1.0
 70
               8
 71
               2
 72
              16
 73
              13
 74
               0
 42
0.000001
 43
0.000001
 40
0.0
 40
0.0
 40
0.0
 40
1.0
 40
1.0
 40
2.0
 40
3.0
 40
4.0
 40
5.0
 40
6.0
 40
7.0
 40
8.0
 40
8.0
 40
9.0
 40
9.0
 40
9.0
 10
-8.0386793130764431
 20
286.59231165712663
 30
0.0
 10
-8.0421349037295045
 20
286.59060389367392
 30
0.0
 10
-8.0455904943825658
 20
286.5888961302212
 30
0.0
 10
-8.2049345434961083
 20
286.51322581514023
 30
0.0
 10
-8.5436599017563708
 20
286.31436889829229
 30
0.0
 10
-9.008886238612547
 20
285.87145315673183
 30
0.0
 10
-9.4213062012335627
 20
285.21731514929388
 30
0.0
 10
-9.667467785555516
 20
284.64057043580351
 30
0.0
 10
-9.8524240451862966
 20
283.94989972114286
 30
0.0
 10
-9.898539171202799
 20
283.29446882698539
 30
0.0
 10
-9.9096455389655489
 20
283.05057590393062
 30
0.0
 10
-9.9100400050419353
 20
283.04244791664496
 30
0.0
 10
-9.9104344711183217
 20
283.0343199293593
 30
0.0
  0
SPLINE
  5
D4
100
AcDbEntity
  8
0
370
              15
  6
Continuous
 62
               7
100
AcDbSpline
210
0.0
220
0.0
230
1.0
 70
               8
 71
               2
 72
              17
 73
              14
 74
               0
 42
0.000001
 43
0.000001
 40
0.0
 40
0.0
 40
0.0
 40
1.0
 40
1.0
 40
2.0
 40
3.0
 40
4.0
 40
5.0
 40
6.0
 40
7.0
 40
8.0
 40
9.0
 40
9.0
 40
10.0
 40
10.0
 40
10.0
 10
-8.0386793130764431
 20
286.59231165712663
 30
0.0
 10
-8.037157517573803
 20
286.5917147258383
 30
0.0
 10
-8.0356357220711629
 20
286.59111779454997
 30
0.0
 10
-7.9531765092924047
 20
286.56009990158555
 30
0.0
 10
-7.827687498887542
 20
286.4998638146144
 30
0.0
 10
-7.7062506641900086
 20
286.420506849405
 30
0.0
 10
-7.5951528558409223
 20
286.30589941917015
 30
0.0
 10
-7.4770099113392803
 20
286.15593618351272
 30
0.0
 10
-7.3308258891142373
 20
285.87983299850657
 30
0.0
 10
-7.2828115224144199
 20
285.64435225780494
 30
0.0
 10
-7.2653606005259803
 20
285.52572015412852
 30
0.0
 10
-7.2575914205512504
 20
285.4662243957539
 30
0.0
 10
-7.2573290967690696
 20
285.46424183355759
 30
0.0
 10
-7.2570667729868887
 20
285.46225927136129
 30
0.0
  0
SPLINE
  5
D5
100
AcDbEntity
  8
0
370
              15
  6
Continuous
 62
               7
100
AcDbSpline
210
0.0
220
0.0
230
1.0
 70
               8
 71
               2
 72
              18
 73
              15
 74
               0
 42
0.000001
 43
0.000001
 40
0.0
 40
0.0
 40
0.0
 40
1.0
 40
1.0
 40
2.0
 40
3.0
 40
4.0
 40
5.0
 40
6.0
 40
7.0
 40
8.0
 40
9.0
 40
10.0
 40
10.0
 40
11.0
 40
11.0
 40
11.0
 10
-38.361304815034998
 20
289.6613052343962
 30
0.0
 10
-38.360935688231336
 20
289.66943930297384
 30
0.0
 10
-38.360566561427675
 20
289.67757337155149
 30
0.0
 10
-38.350592491637997
 20
289.92166914707786
 30
0.0
 10
-38.317208278847318
 20
290.40876660994218
 30
0.0
 10
-38.232643312195876
 20
290.90310010364465
 30
0.0
 10
-38.082418368460083
 20
291.40240310002582
 30
0.0
 10
-37.882637720434502
 20
291.85370731857529
 30
0.0
 10
-37.58425849988356
 20
292.38137224015054
 30
0.0
 10
-37.168875019924542
 20
292.85701305097996
 30
0.0
 10
-36.870900258772679
 20
293.07089964051738
 30
0.0
 10
-36.672959615728757
 20
293.181995152323
 30
0.0
 10
-36.573303716820817
 20
293.23378046799053
 30
0.0
 10
-36.569984241261579
 20
293.23551982331787
 30
0.0
 10
-36.566664765702342
 20
293.23725917864522
 30
0.0
  0
LINE
  5
D6
100
AcDbEntity
  8
0
370
              15
  6
Continuous
 62
               7
100
AcDbLine
 10
-36.566664765725307
 20
293.23725917873867
 30
0.0
 11
-8.0386793131253285
 21
286.59231165713868
 31
0.0
  0
LINE
  5
D7
100
AcDbEntity
  8
0
370
              15
  6
Continuous
 62
               7
100
AcDbLine
 10
-9.9104344711253702
 20
283.03431992933861
 30
0.0
 11
-38.361304815125266
 21
289.66130523433867
 31
0.0
  0
LINE
  5
D8
100
AcDbEntity
  8
0
370
              15
  6
Continuous
 62
               7
100
AcDbLine
 10
-2.8037294411253129
 20
248.61686624793856
 30
0.0
 11
-6.2292899207254209
 21
247.54177514193861
 31
0.0
  0
SPLINE
  5
D9
100
AcDbEntity
  8
0
370
              15
  6
Continuous
 62
               7
100
AcDbSpline
210
0.0
220
0.0
230
1.0
 70
               8
 71
               2
 72
              17
 73
              14
 74
               0
 42
0.000001
 43
0.000001
 40
0.0
 40
0.0
 40
0.0
 40
1.0
 40
1.0
 40
2.0
 40
3.0
 40
4.0
 40
5.0
 40
6.0
 40
7.0
 40
8.0
 40
9.0
 40
9.0
 40
10.0
 40
10.0
 40
10.0
 10
-7.5934068939952226
 20
248.98883512264115
 30
0.0
 10
-7.5929389830825471
 20
248.98456978968306
 30
0.0
 10
-7.5924710721698716
 20
248.98030445672498
 30
0.0
 10
-7.5788529348416773
 20
248.85199684079384
 30
0.0
 10
-7.5463828057310707
 20
248.59971744589393
 30
0.0
 10
-7.4755316570467016
 20
248.26660987536798
 30
0.0
 10
-7.3363257705847786
 20
247.99352233006402
 30
0.0
 10
-7.1458701804323823
 20
247.73763277067701
 30
0.0
 10
-6.8129666032502314
 20
247.51510977703083
 30
0.0
 10
-6.5135884433267961
 20
247.50463519571758
 30
0.0
 10
-6.3287413574589095
 20
247.52613862525482
 30
0.0
 10
-6.235500262893936
 20
247.54082370562287
 30
0.0
 10
-6.2323950918535616
 20
247.54129942377733
 30
0.0
 10
-6.2292899208131871
 20
247.54177514193179
 30
0.0
  0
LINE
  5
DA
100
AcDbEntity
  8
0
370
              15
  6
Continuous
 62
               7
100
AcDbLine
 10
-8.5177553151253846
 20
283.09326115873864
 30
0.0
 11
-7.5934068939254189
 21
248.98883512273869
 31
0.0
  0
LINE
  5
DB
100
AcDbEntity
  8
0
370
              15
  6
Continuous
 62
               7
100
AcDbLine
 10
-3.8383856935253675
 20
286.79117024953871
 30
0.0
 11
-7.2570667729252705
 21
285.46225927133878
 31
0.0
  0
LINE
  5
DC
100
AcDbEntity
  8
0
370
              15
  6
Continuous
 62
               7
100
AcDbLine
 10
-2.8037294411253129
 20
248.61686624793856
 30
0.0
 11
-3.8383856935253675
 21
286.79117024953871
 31
0.0
  0
SPLINE
  5
DD
100
AcDbEntity
  8
0
370
              15
  6
Continuous
 62
               7
100
AcDbSpline
210
0.0
220
0.0
230
1.0
 70
               8
 71
               2
 72
              15
 73
              12
 74
               0
 42
0.000001
 43
0.000001
 40
0.0
 40
0.0
 40
0.0
 40
1.0
 40
1.0
 40
2.0
 40
3.0
 40
4.0
 40
5.0
 40
6.0
 40
7.0
 40
7.0
 40
8.0
 40
8.0
 40
8.0
 10
-7.5934068939952226
 20
248.98883512264115
 30
0.0
 10
-7.5949307105777848
 20
248.98840015163728
 30
0.0
 10
-7.596454527160347
 20
248.98796518063341
 30
0.0
 10
-7.6780575032520915
 20
248.96413027040671
 30
0.0
 10
-7.8557619461925583
 20
248.91890868557448
 30
0.0
 10
-8.0861805057901961
 20
248.88577547356545
 30
0.0
 10
-8.3467638504359343
 20
248.87060015635234
 30
0.0
 10
-8.6357213953930909
 20
248.87543981598742
 30
0.0
 10
-8.8797516003095893
 20
248.91031773038276
 30
0.0
 10
-8.9827449870812757
 20
248.92929434894586
 30
0.0
 10
-8.984415518495382
 20
248.92959412112702
 30
0.0
 10
-8.9860860499094883
 20
248.92989389330819
 30
0.0
  0
LINE
  5
DE
100
AcDbEntity
  8
0
370
              15
  6
Continuous
 62
               7
100
AcDbLine
 10
-8.9860860499254045
 20
248.92989389333866
 30
0.0
 11
-9.9104344711253702
 21
283.03431992933861
 31
0.0
  0
LINE
  5
DF
100
AcDbEntity
  8
0
370
              15
  6
Continuous
 62
               7
100
AcDbLine
 10
-38.361304815125266
 20
289.66130523433867
 30
0.0
 11
-37.4369563939253
 21
255.55687919833872
 31
0.0
  0
LINE
  5
E0
100
AcDbEntity
  8
0
370
              15
  6
Continuous
 62
               7
100
AcDbLine
 10
-8.9860860499254045
 20
248.92989389333866
 30
0.0
 11
-37.4369563939253
 21
255.55687919833872
 31
0.0
  0
POLYLINE
  5
E1
100
AcDbEntity
  8
0
370
              15
  6
Continuous
 62
               7
100
AcDb2dPolyline
 66
               1
 10
0.0
 20
0.0
 30
0.0
 75
               5
  0
VERTEX
  5
E2
100
AcDbEntity
  8
0
370
              15
  6
Continuous
 62
               7
100
AcDbVertex
100
AcDb2dVertex
 10
-18.481867198725411
 20
255.22275880713869
 30
0.0
  0
VERTEX
  5
E3
100
AcDbEntity
  8
0
370
              15
  6
Continuous
 62
               7
100
AcDbVertex
100
AcDb2dVertex
 10
-18.294114073125399
 20
255.29481553273877
 30
0.0
  0
VERTEX
  5
E4
100
AcDbEntity
  8
0
370
              15
  6
Continuous
 62
               7
100
AcDbVertex
100
AcDb2dVertex
 10
-16.83210941432543
 20
256.06716299893856
 30
0.0
  0
VERTEX
  5
E5
100
AcDbEntity
  8
0
370
              15
  6
Continuous
 62
               7
100
AcDbVertex
100
AcDb2dVertex
 10
-15.530466646525326
 20
257.14957764553856
 30
0.0
  0
VERTEX
  5
E6
100
AcDbEntity
  8
0
370
              15
  6
Continuous
 62
               7
100
AcDbVertex
100
AcDb2dVertex
 10
-14.41969376932542
 20
258.51667840973869
 30
0.0
  0
VERTEX
  5
E7
100
AcDbEntity
  8
0
370
              15
  6
Continuous
 62
               7
100
AcDbVertex
100
AcDb2dVertex
 10
-13.525826856925448
 20
260.13643258053867
 30
0.0
  0
VERTEX
  5
E8
100
AcDbEntity
  8
0
370
              15
  6
Continuous
 62
               7
100
AcDbVertex
100
AcDb2dVertex
 10
-12.869817774125465
 20
261.97087517393857
 30
0.0
  0
VERTEX
  5
E9
100
AcDbEntity
  8
0
370
              15
  6
Continuous
 62
               7
100
AcDbVertex
100
AcDb2dVertex
 10
-12.467041921125372
 20
263.97699757493865
 30
0.0
  0
VERTEX
  5
EA
100
AcDbEntity
  8
0
370
              15
  6
Continuous
 62
               7
100
AcDbVertex
100
AcDb2dVertex
 10
-12.326940726725468
 20
266.10778061553856
 30
0.0
  0
VERTEX
  5
EB
100
AcDbEntity
  8
0
370
              15
  6
Continuous
 62
               7
100
AcDbVertex
100
AcDb2dVertex
 10
-12.452797283725374
 20
268.31328692533862
 30
0.0
  0
VERTEX
  5
EC
100
AcDbEntity
  8
0
370
              15
  6
Continuous
 62
               7
100
AcDbVertex
100
AcDb2dVertex
 10
-12.841662724525293
 20
270.54181665853866
 30
0.0
  0
VERTEX
  5
ED
100
AcDbEntity
  8
0
370
              15
  6
Continuous
 62
               7
100
AcDbVertex
100
AcDb2dVertex
 10
-13.484422462125337
 20
272.74113818893875
 30
0.0
  0
VERTEX
  5
EE
100
AcDbEntity
  8
0
370
              15
  6
Continuous
 62
               7
100
AcDbVertex
100
AcDb2dVertex
 10
-14.366009450525269
 20
274.85969652953872
 30
0.0
  0
VERTEX
  5
EF
100
AcDbEntity
  8
0
370
              15
  6
Continuous
 62
               7
100
AcDbVertex
100
AcDb2dVertex
 10
-15.465760503325271
 20
276.84783387433868
 30
0.0
  0
VERTEX
  5
F0
100
AcDbEntity
  8
0
370
              15
  6
Continuous
 62
               7
100
AcDbVertex
100
AcDb2dVertex
 10
-16.757898638325457
 20
278.65896177593868
 30
0.0
  0
VERTEX
  5
F1
100
AcDbEntity
  8
0
370
              15
  6
Continuous
 62
               7
100
AcDbVertex
100
AcDb2dVertex
 10
-18.212137405125475
 20
280.25061336213867
 30
0.0
  0
VERTEX
  5
F2
100
AcDbEntity
  8
0
370
              15
  6
Continuous
 62
               7
100
AcDbVertex
100
AcDb2dVertex
 10
-19.794390410725271
 20
281.58549179073862
 30
0.0
  0
VERTEX
  5
F3
100
AcDbEntity
  8
0
370
              15
  6
Continuous
 62
               7
100
AcDbVertex
100
AcDb2dVertex
 10
-21.467571120525406
 20
282.63230657213876
 30
0.0
  0
VERTEX
  5
F4
100
AcDbEntity
  8
0
370
              15
  6
Continuous
 62
               7
100
AcDbVertex
100
AcDb2dVertex
 10
-23.192461393325345
 20
283.36651285493872
 30
0.0
  0
VERTEX
  5
F5
100
AcDbEntity
  8
0
370
              15
  6
Continuous
 62
               7
100
AcDbVertex
100
AcDb2dVertex
 10
-24.928631418325438
 20
283.77091430573864
 30
0.0
  0
VERTEX
  5
F6
100
AcDbEntity
  8
0
370
              15
  6
Continuous
 62
               7
100
AcDbVertex
100
AcDb2dVertex
 10
-26.635387070125432
 20
283.83603215053859
 30
0.0
  0
VERTEX
  5
F7
100
AcDbEntity
  8
0
370
              15
  6
Continuous
 62
               7
100
AcDbVertex
100
AcDb2dVertex
 10
-28.272722899525377
 20
283.56032715193874
 30
0.0
  0
VERTEX
  5
F8
100
AcDbEntity
  8
0
370
              15
  6
Continuous
 62
               7
100
AcDbVertex
100
AcDb2dVertex
 10
-28.865523666325259
 20
283.36844032053864
 30
0.0
  0
SEQEND
  5
F9
100
AcDbEntity
  8
0
370
              15
  6
Continuous
 62
               7
  0
SPLINE
  5
FA
100
AcDbEntity
  8
0
370
              15
  6
Continuous
 62
               7
100
AcDbSpline
210
0.0
220
0.0
230
1.0
 70
               8
 71
               2
 72
              20
 73
              17
 74
               0
 42
0.000001
 43
0.000001
 40
0.0
 40
0.0
 40
0.0
 40
1.0
 40
1.0
 40
2.0
 40
3.0
 40
4.0
 40
5.0
 40
6.0
 40
7.0
 40
8.0
 40
9.0
 40
10.0
 40
11.0
 40
12.0
 40
12.0
 40
13.0
 40
13.0
 40
13.0
 10
-26.639061379356178
 20
281.21403334997922
 30
0.0
 10
-26.664951350548051
 20
281.21833319598363
 30
0.0
 10
-26.690841321739924
 20
281.22263304198805
 30
0.0
 10
-27.468951297229239
 20
281.36737808708858
 30
0.0
 10
-29.153131305461727
 20
281.47516292737669
 30
0.0
 10
-31.910848475041519
 20
280.84158670919192
 30
0.0
 10
-34.70497667564058
 20
278.27024961122265
 30
0.0
 10
-36.278344088166421
 20
274.5564520890839
 30
0.0
 10
-36.615142332869652
 20
270.33049854370711
 30
0.0
 10
-35.824882212352293
 20
265.84985720581676
 30
0.0
 10
-33.9267690542992
 20
261.69818558373322
 30
0.0
 10
-31.174341940032889
 20
258.21449960950622
 30
0.0
 10
-28.470593118878412
 20
256.3557989016349
 30
0.0
 10
-26.772663882593122
 20
255.68838164433646
 30
0.0
 10
-25.992648941609048
 20
255.46237803390432
 30
0.0
 10
-25.966664553131011
 20
255.4545949585214
 30
0.0
 10
-25.940680164652974
 20
255.44681188313848
 30
0.0
  0
SPLINE
  5
FB
100
AcDbEntity
  8
0
370
              15
  6
Continuous
 62
               7
100
AcDbSpline
210
0.0
220
0.0
230
1.0
 70
               8
 71
               2
 72
              20
 73
              17
 74
               0
 42
0.000001
 43
0.000001
 40
0.0
 40
0.0
 40
0.0
 40
1.0
 40
1.0
 40
2.0
 40
3.0
 40
4.0
 40
5.0
 40
6.0
 40
7.0
 40
8.0
 40
9.0
 40
10.0
 40
11.0
 40
12.0
 40
12.0
 40
13.0
 40
13.0
 40
13.0
 10
-25.940680164652974
 20
255.44681188313848
 30
0.0
 10
-25.914790182781587
 20
255.4425119998682
 30
0.0
 10
-25.8889002009102
 20
255.43821211659792
 30
0.0
 10
-25.110789616474619
 20
255.29346502537464
 30
0.0
 10
-23.426610768882881
 20
255.18568589191409
 30
0.0
 10
-20.668891400708787
 20
255.81926025797839
 30
0.0
 10
-17.874764465440819
 20
258.39059838143112
 30
0.0
 10
-16.301397683988114
 20
262.10439683236632
 30
0.0
 10
-15.964598865598589
 20
266.33035355027323
 30
0.0
 10
-16.754862499643821
 20
270.81098937763704
 30
0.0
 10
-18.652969062281215
 20
274.96266628031526
 30
0.0
 10
-21.40540068847298
 20
278.44635191461884
 30
0.0
 10
-24.109148543729759
 20
280.3050483364716
 30
0.0
 10
-25.807078025650924
 20
280.97246225145068
 30
0.0
 10
-26.587092619964949
 20
281.19846713374795
 30
0.0
 10
-26.613076999660564
 20
281.20625024186359
 30
0.0
 10
-26.639061379356178
 20
281.21403334997922
 30
0.0
  0
POLYLINE
  5
FC
100
AcDbEntity
  8
0
370
              15
  6
Continuous
 62
               7
100
AcDb2dPolyline
 66
               1
 10
0.0
 20
0.0
 30
0.0
 75
               5
  0
VERTEX
  5
FD
100
AcDbEntity
  8
0
370
              15
  6
Continuous
 62
               7
100
AcDbVertex
100
AcDb2dVertex
 10
-20.116975018725441
 20
254.6195261113387
 30
0.0
  0
VERTEX
  5
FE
100
AcDbEntity
  8
0
370
              15
  6
Continuous
 62
               7
100
AcDbVertex
100
AcDb2dVertex
 10
-19.994674679125353
 20
254.66582036593877
 30
0.0
  0
VERTEX
  5
FF
100
AcDbEntity
  8
0
370
              15
  6
Continuous
 62
               7
100
AcDbVertex
100
AcDb2dVertex
 10
-19.978204477125416
 20
254.67224312473877
 30
0.0
  0
SEQEND
  5
100
100
AcDbEntity
  8
0
370
              15
  6
Continuous
 62
               7
  0
LINE
  5
101
100
AcDbEntity
  8
0
370
              15
  6
Continuous
 62
               7
100
AcDbLine
 10
-29.919502751325297
 20
282.95382163973863
 30
0.0
 11
-30.50063148632529
 21
282.76520762473865
 31
0.0
  0
LINE
  5
102
100
AcDbEntity
  8
0
370
              15
  6
Continuous
 62
               7
100
AcDbLine
 10
-8.0386793131253285
 20
286.59231165713868
 30
0.0
 11
-4.6199982337254255
 21
287.92122263533861
 31
0.0
  0
SPLINE
  5
103
100
AcDbEntity
  8
0
370
              15
  6
Continuous
 62
               7
100
AcDbSpline
210
0.0
220
0.0
230
1.0
 70
               8
 71
               2
 72
              15
 73
              12
 74
               0
 42
0.000001
 43
0.000001
 40
0.0
 40
0.0
 40
0.0
 40
1.0
 40
1.0
 40
2.0
 40
3.0
 40
4.0
 40
5.0
 40
6.0
 40
7.0
 40
7.0
 40
8.0
 40
8.0
 40
8.0
 10
-3.8383857802315902
 20
286.79117203275428
 30
0.0
 10
-3.8385763010380174
 20
286.79820141972357
 30
0.0
 10
-3.8387668218444446
 20
286.80523080669286
 30
0.0
 10
-3.844767048390338
 20
286.93483468796899
 30
0.0
 10
-3.8972410675425522
 20
287.15487496526612
 30
0.0
 10
-3.9849534677020415
 20
287.37569097828873
 30
0.0
 10
-4.133910631165179
 20
287.60344440046538
 30
0.0
 10
-4.3153214184514468
 20
287.78006083221908
 30
0.0
 10
-4.5068171719473753
 20
287.89149526154551
 30
0.0
 10
-4.608861043548302
 20
287.9186283695708
 30
0.0
 10
-4.6144296139622725
 20
287.9199254418171
 30
0.0
 10
-4.619998184376243
 20
287.9212225140634
 30
0.0
  0
LINE
  5
104
100
AcDbEntity
  8
0
370
              15
  6
Continuous
 62
               7
100
AcDbLine
 10
-33.349061451925252
 20
294.61300666433863
 30
0.0
 11
-36.566664765725307
 21
293.23725917873867
 31
0.0
  0
LINE
  5
105
100
AcDbEntity
  8
0
370
              15
  6
Continuous
 62
               7
100
AcDbLine
 10
-4.6199982337254255
 20
287.92122263533861
 30
0.0
 11
-33.349061451925252
 21
294.61300666433863
 31
0.0
  0
LINE
  5
106
100
AcDbEntity
  8
0
370
              15
  6
Continuous
 62
               7
100
AcDbLine
 10
-26.39495231352538
 20
257.36615671873869
 30
0.0
 11
-26.540285238725289
 21
257.40992870353875
 31
0.0
  0
POLYLINE
  5
107
100
AcDbEntity
  8
0
370
              15
  6
Continuous
 62
               7
100
AcDb2dPolyline
 66
               1
 10
0.0
 20
0.0
 30
0.0
 75
               5
  0
VERTEX
  5
108
100
AcDbEntity
  8
0
370
              15
  6
Continuous
 62
               7
100
AcDbVertex
100
AcDb2dVertex
 10
-34.102698237325455
 20
275.49023872833868
 30
0.0
  0
VERTEX
  5
109
100
AcDbEntity
  8
0
370
              15
  6
Continuous
 62
               7
100
AcDbVertex
100
AcDb2dVertex
 10
-34.034734027325328
 20
275.63465374873863
 30
0.0
  0
VERTEX
  5
10A
100
AcDbEntity
  8
0
370
              15
  6
Continuous
 62
               7
100
AcDbVertex
100
AcDb2dVertex
 10
-33.879696118925438
 20
275.9411406443387
 30
0.0
  0
SEQEND
  5
10B
100
AcDbEntity
  8
0
370
              15
  6
Continuous
 62
               7
  0
POLYLINE
  5
10C
100
AcDbEntity
  8
0
370
              15
  6
Continuous
 62
               7
100
AcDb2dPolyline
 66
               1
 10
0.0
 20
0.0
 30
0.0
 75
               5
  0
VERTEX
  5
10D
100
AcDbEntity
  8
0
370
              15
  6
Continuous
 62
               7
100
AcDbVertex
100
AcDb2dVertex
 10
-32.74535853052538
 20
277.5574288121386
 30
0.0
  0
VERTEX
  5
10E
100
AcDbEntity
  8
0
370
              15
  6
Continuous
 62
               7
100
AcDbVertex
100
AcDb2dVertex
 10
-32.156816073525476
 20
278.12384684573863
 30
0.0
  0
VERTEX
  5
10F
100
AcDbEntity
  8
0
370
              15
  6
Continuous
 62
               7
100
AcDbVertex
100
AcDb2dVertex
 10
-30.934600902925411
 20
278.93899784233872
 30
0.0
  0
VERTEX
  5
110
100
AcDbEntity
  8
0
370
              15
  6
Continuous
 62
               7
100
AcDbVertex
100
AcDb2dVertex
 10
-29.571257934125413
 20
279.43180948273857
 30
0.0
  0
VERTEX
  5
111
100
AcDbEntity
  8
0
370
              15
  6
Continuous
 62
               7
100
AcDbVertex
100
AcDb2dVertex
 10
-28.108211717925258
 20
279.58731444393857
 30
0.0
  0
VERTEX
  5
112
100
AcDbEntity
  8
0
370
              15
  6
Continuous
 62
               7
100
AcDbVertex
100
AcDb2dVertex
 10
-26.58991597832545
 20
279.40078235153874
 30
0.0
  0
VERTEX
  5
113
100
AcDbEntity
  8
0
370
              15
  6
Continuous
 62
               7
100
AcDbVertex
100
AcDb2dVertex
 10
-25.062503592725477
 20
278.87788577813876
 30
0.0
  0
VERTEX
  5
114
100
AcDbEntity
  8
0
370
              15
  6
Continuous
 62
               7
100
AcDbVertex
100
AcDb2dVertex
 10
-23.572384179525386
 20
278.03450782773871
 30
0.0
  0
VERTEX
  5
115
100
AcDbEntity
  8
0
370
              15
  6
Continuous
 62
               7
100
AcDbVertex
100
AcDb2dVertex
 10
-22.16483436232528
 20
276.89627952513865
 30
0.0
  0
VERTEX
  5
116
100
AcDbEntity
  8
0
370
              15
  6
Continuous
 62
               7
100
AcDbVertex
100
AcDb2dVertex
 10
-20.88262153992531
 20
275.49777879933868
 30
0.0
  0
VERTEX
  5
117
100
AcDbEntity
  8
0
370
              15
  6
Continuous
 62
               7
100
AcDbVertex
100
AcDb2dVertex
 10
-19.764705052325269
 20
273.88150020273861
 30
0.0
  0
VERTEX
  5
118
100
AcDbEntity
  8
0
370
              15
  6
Continuous
 62
               7
100
AcDbVertex
100
AcDb2dVertex
 10
-18.845053011925472
 20
272.09656188493864
 30
0.0
  0
VERTEX
  5
119
100
AcDbEntity
  8
0
370
              15
  6
Continuous
 62
               7
100
AcDbVertex
100
AcDb2dVertex
 10
-18.151607609125392
 20
270.19718572773877
 30
0.0
  0
VERTEX
  5
11A
100
AcDbEntity
  8
0
370
              15
  6
Continuous
 62
               7
100
AcDbVertex
100
AcDb2dVertex
 10
-17.705438622325289
 20
268.24108707193864
 30
0.0
  0
VERTEX
  5
11B
100
AcDbEntity
  8
0
370
              15
  6
Continuous
 62
               7
100
AcDbVertex
100
AcDb2dVertex
 10
-17.520104327725392
 20
266.28770785453867
 30
0.0
  0
VERTEX
  5
11C
100
AcDbEntity
  8
0
370
              15
  6
Continuous
 62
               7
100
AcDbVertex
100
AcDb2dVertex
 10
-17.601233929525449
 20
264.39638829593878
 30
0.0
  0
VERTEX
  5
11D
100
AcDbEntity
  8
0
370
              15
  6
Continuous
 62
               7
100
AcDbVertex
100
AcDb2dVertex
 10
-17.94636455492531
 20
262.62461201253859
 30
0.0
  0
VERTEX
  5
11E
100
AcDbEntity
  8
0
370
              15
  6
Continuous
 62
               7
100
AcDbVertex
100
AcDb2dVertex
 10
-18.545007516525345
 20
261.02619148453869
 30
0.0
  0
VERTEX
  5
11F
100
AcDbEntity
  8
0
370
              15
  6
Continuous
 62
               7
100
AcDbVertex
100
AcDb2dVertex
 10
-19.378974532725294
 20
259.6497260393387
 30
0.0
  0
VERTEX
  5
120
100
AcDbEntity
  8
0
370
              15
  6
Continuous
 62
               7
100
AcDbVertex
100
AcDb2dVertex
 10
-20.422925663325429
 20
258.53700549773862
 30
0.0
  0
VERTEX
  5
121
100
AcDbEntity
  8
0
370
              15
  6
Continuous
 62
               7
100
AcDbVertex
100
AcDb2dVertex
 10
-21.645140641125352
 20
257.72184739073873
 30
0.0
  0
VERTEX
  5
122
100
AcDbEntity
  8
0
370
              15
  6
Continuous
 62
               7
100
AcDbVertex
100
AcDb2dVertex
 10
-23.008483609925349
 20
257.22903575033865
 30
0.0
  0
VERTEX
  5
123
100
AcDbEntity
  8
0
370
              15
  6
Continuous
 62
               7
100
AcDbVertex
100
AcDb2dVertex
 10
-24.471530018925421
 20
257.07353789953868
 30
0.0
  0
VERTEX
  5
124
100
AcDbEntity
  8
0
370
              15
  6
Continuous
 62
               7
100
AcDbVertex
100
AcDb2dVertex
 10
-25.989825565725312
 20
257.26006288153872
 30
0.0
  0
VERTEX
  5
125
100
AcDbEntity
  8
0
370
              15
  6
Continuous
 62
               7
100
AcDbVertex
100
AcDb2dVertex
 10
-25.989825565725312
 20
257.26006288153872
 30
0.0
  0
SEQEND
  5
126
100
AcDbEntity
  8
0
370
              15
  6
Continuous
 62
               7
  0
POLYLINE
  5
127
100
AcDbEntity
  8
0
370
              15
  6
Continuous
 62
               7
100
AcDb2dPolyline
 66
               1
 10
0.0
 20
0.0
 30
0.0
 75
               5
  0
VERTEX
  5
128
100
AcDbEntity
  8
0
370
              15
  6
Continuous
 62
               7
100
AcDbVertex
100
AcDb2dVertex
 10
-22.898531082325405
 20
257.45646251533867
 30
0.0
  0
VERTEX
  5
129
100
AcDbEntity
  8
0
370
              15
  6
Continuous
 62
               7
100
AcDbVertex
100
AcDb2dVertex
 10
-22.02741599412542
 20
257.59097644653866
 30
0.0
  0
VERTEX
  5
12A
100
AcDbEntity
  8
0
370
              15
  6
Continuous
 62
               7
100
AcDbVertex
100
AcDb2dVertex
 10
-21.792264773725435
 20
257.64992973173867
 30
0.0
  0
SEQEND
  5
12B
100
AcDbEntity
  8
0
370
              15
  6
Continuous
 62
               7
  0
SPLINE
  5
12C
100
AcDbEntity
  8
0
370
              15
  6
Continuous
 62
               7
100
AcDbSpline
210
0.0
220
0.0
230
1.0
 70
               8
 71
               2
 72
              15
 73
              12
 74
               0
 42
0.000001
 43
0.000001
 40
0.0
 40
0.0
 40
0.0
 40
1.0
 40
1.0
 40
2.0
 40
3.0
 40
4.0
 40
5.0
 40
6.0
 40
7.0
 40
7.0
 40
8.0
 40
8.0
 40
8.0
 10
-3.2373937564577204
 20
247.84683296063395
 30
0.0
 10
-3.2340327605083417
 20
247.84788778068298
 30
0.0
 10
-3.2306717645589629
 20
247.84894260073202
 30
0.0
 10
-3.1288916486566336
 20
247.88338091087735
 30
0.0
 10
-2.9993548229123803
 20
247.99673805005796
 30
0.0
 10
-2.920348111023884
 20
248.10370542228929
 30
0.0
 10
-2.8599648511244027
 20
248.23110196466132
 30
0.0
 10
-2.8205166515701308
 20
248.37306122061477
 30
0.0
 10
-2.8024339137288621
 20
248.52276795063517
 30
0.0
 10
-2.8034752207708493
 20
248.60748521779806
 30
0.0
 10
-2.8036022676035941
 20
248.6121726919273
 30
0.0
 10
-2.8037293144363389
 20
248.61686016605654
 30
0.0
  0
SPLINE
  5
12D
100
AcDbEntity
  8
0
370
              15
  6
Continuous
 62
               7
100
AcDbSpline
210
0.0
220
0.0
230
1.0
 70
               8
 71
               2
 72
              12
 73
               9
 74
               0
 42
0.000001
 43
0.000001
 40
0.0
 40
0.0
 40
0.0
 40
1.0
 40
1.0
 40
2.0
 40
3.0
 40
4.0
 40
4.0
 40
5.0
 40
5.0
 40
5.0
 10
-33.349062248132611
 20
294.6130067398035
 30
0.0
 10
-33.350238167165287
 20
294.61328064348572
 30
0.0
 10
-33.351414086197963
 20
294.61355454716795
 30
0.0
 10
-33.419943261668493
 20
294.62901533035483
 30
0.0
 10
-33.522711843237346
 20
294.62915140486461
 30
0.0
 10
-33.627340224342504
 20
294.61489775958171
 30
0.0
 10
-33.691414233385728
 20
294.58812660377112
 30
0.0
 10
-33.692439935130267
 20
294.587688045194
 30
0.0
 10
-33.693465636874805
 20
294.58724948661688
 30
0.0
  0
LINE
  5
12E
100
AcDbEntity
  8
0
370
              15
  6
Continuous
 62
               7
100
AcDbLine
 10
-29.289204949325438
 20
279.48154149613856
 30
0.0
 11
-29.843186576925461
 21
279.24447254813867
 31
0.0
  0
POLYLINE
  5
12F
100
AcDbEntity
  8
0
370
              15
  6
Continuous
 62
               7
100
AcDb2dPolyline
 66
               1
 10
0.0
 20
0.0
 30
0.0
 75
               5
  0
VERTEX
  5
130
100
AcDbEntity
  8
0
370
              15
  6
Continuous
 62
               7
100
AcDbVertex
100
AcDb2dVertex
 10
-33.362541763725346
 20
276.65166915013856
 30
0.0
  0
VERTEX
  5
131
100
AcDbEntity
  8
0
370
              15
  6
Continuous
 62
               7
100
AcDbVertex
100
AcDb2dVertex
 10
-33.537131532125329
 20
276.40363211913859
 30
0.0
  0
VERTEX
  5
132
100
AcDbEntity
  8
0
370
              15
  6
Continuous
 62
               7
100
AcDbVertex
100
AcDb2dVertex
 10
-33.862935755725346
 20
275.87665627893875
 30
0.0
  0
SEQEND
  5
133
100
AcDbEntity
  8
0
370
              15
  6
Continuous
 62
               7
  0
POLYLINE
  5
134
100
AcDbEntity
  8
0
370
              15
  6
Continuous
 62
               7
100
AcDb2dPolyline
 66
               1
 10
0.0
 20
0.0
 30
0.0
 75
               5
  0
VERTEX
  5
135
100
AcDbEntity
  8
0
370
              15
  6
Continuous
 62
               7
100
AcDbVertex
100
AcDb2dVertex
 10
-27.351020186925268
 20
257.75098961053868
 30
0.0
  0
VERTEX
  5
136
100
AcDbEntity
  8
0
370
              15
  6
Continuous
 62
               7
100
AcDbVertex
100
AcDb2dVertex
 10
-26.851465783525271
 20
257.57265109213859
 30
0.0
  0
VERTEX
  5
137
100
AcDbEntity
  8
0
370
              15
  6
Continuous
 62
               7
100
AcDbVertex
100
AcDb2dVertex
 10
-25.314901493725472
 20
257.25332095133876
 30
0.0
  0
VERTEX
  5
138
100
AcDbEntity
  8
0
370
              15
  6
Continuous
 62
               7
100
AcDbVertex
100
AcDb2dVertex
 10
-23.817914919525435
 20
257.28697481313861
 30
0.0
  0
VERTEX
  5
139
100
AcDbEntity
  8
0
370
              15
  6
Continuous
 62
               7
100
AcDbVertex
100
AcDb2dVertex
 10
-22.40862091992534
 20
257.67254008873874
 30
0.0
  0
VERTEX
  5
13A
100
AcDbEntity
  8
0
370
              15
  6
Continuous
 62
               7
100
AcDbVertex
100
AcDb2dVertex
 10
-21.132314304125373
 20
258.39760427293868
 30
0.0
  0
VERTEX
  5
13B
100
AcDbEntity
  8
0
370
              15
  6
Continuous
 62
               7
100
AcDbVertex
100
AcDb2dVertex
 10
-20.03001734092544
 20
259.43888208853878
 30
0.0
  0
VERTEX
  5
13C
100
AcDbEntity
  8
0
370
              15
  6
Continuous
 62
               7
100
AcDbVertex
100
AcDb2dVertex
 10
-19.137159315125416
 20
260.7629112189386
 30
0.0
  0
VERTEX
  5
13D
100
AcDbEntity
  8
0
370
              15
  6
Continuous
 62
               7
100
AcDbVertex
100
AcDb2dVertex
 10
-18.482436393725436
 20
262.32711505813859
 30
0.0
  0
VERTEX
  5
13E
100
AcDbEntity
  8
0
370
              15
  6
Continuous
 62
               7
100
AcDbVertex
100
AcDb2dVertex
 10
-18.086891728725448
 20
264.08122763713868
 30
0.0
  0
VERTEX
  5
13F
100
AcDbEntity
  8
0
370
              15
  6
Continuous
 62
               7
100
AcDbVertex
100
AcDb2dVertex
 10
-17.963240305725265
 20
265.96888154593876
 30
0.0
  0
VERTEX
  5
140
100
AcDbEntity
  8
0
370
              15
  6
Continuous
 62
               7
100
AcDbVertex
100
AcDb2dVertex
 10
-18.115454290525292
 20
267.92939783753877
 30
0.0
  0
VERTEX
  5
141
100
AcDbEntity
  8
0
370
              15
  6
Continuous
 62
               7
100
AcDbVertex
100
AcDb2dVertex
 10
-18.538642247725363
 20
269.89975743633863
 30
0.0
  0
VERTEX
  5
142
100
AcDbEntity
  8
0
370
              15
  6
Continuous
 62
               7
100
AcDbVertex
100
AcDb2dVertex
 10
-19.219202957525283
 20
271.81663650333871
 30
0.0
  0
VERTEX
  5
143
100
AcDbEntity
  8
0
370
              15
  6
Continuous
 62
               7
100
AcDbVertex
100
AcDb2dVertex
 10
-20.135261371525473
 20
273.61842273613865
 30
0.0
  0
VERTEX
  5
144
100
AcDbEntity
  8
0
370
              15
  6
Continuous
 62
               7
100
AcDbVertex
100
AcDb2dVertex
 10
-21.257376343325348
 20
275.2472172505386
 30
0.0
  0
VERTEX
  5
145
100
AcDbEntity
  8
0
370
              15
  6
Continuous
 62
               7
100
AcDbVertex
100
AcDb2dVertex
 10
-22.549480844725338
 20
276.65065038793864
 30
0.0
  0
VERTEX
  5
146
100
AcDbEntity
  8
0
370
              15
  6
Continuous
 62
               7
100
AcDbVertex
100
AcDb2dVertex
 10
-23.97004615192526
 20
277.7836295775387
 30
0.0
  0
VERTEX
  5
147
100
AcDbEntity
  8
0
370
              15
  6
Continuous
 62
               7
100
AcDbVertex
100
AcDb2dVertex
 10
-25.473413992325447
 20
278.60973065193866
 30
0.0
  0
VERTEX
  5
148
100
AcDbEntity
  8
0
370
              15
  6
Continuous
 62
               7
100
AcDbVertex
100
AcDb2dVertex
 10
-27.011264926325282
 20
279.10240893173864
 30
0.0
  0
VERTEX
  5
149
100
AcDbEntity
  8
0
370
              15
  6
Continuous
 62
               7
100
AcDbVertex
100
AcDb2dVertex
 10
-27.011264926325282
 20
279.10240893173864
 30
0.0
  0
SEQEND
  5
14A
100
AcDbEntity
  8
0
370
              15
  6
Continuous
 62
               7
  0
LINE
  5
14B
100
AcDbEntity
  8
0
370
              15
  6
Continuous
 62
               7
100
AcDbLine
 10
-22.485807664925403
 20
257.52677946713857
 30
0.0
 11
-22.363652179125381
 21
257.56691807633865
 31
0.0
  0
ARC
  5
14C
100
AcDbEntity
  8
0
370
              15
  6
Continuous
 62
               7
100
AcDbCircle
 10
33.366448608274652
 20
-500.61258157386135
 30
0.0
 40
0.8458722299540424
100
AcDbArc
 50
258.15106891790396
 51
287.14353354279348
  0
LINE
  5
14D
100
AcDbEntity
  8
0
370
              15
  6
Continuous
 62
               7
100
AcDbLine
 10
33.192764023874645
 20
-501.44043028866133
 30
0.0
 11
-19.274631195325298
 21
-489.21933993506127
 31
0.0
  0
POLYLINE
  5
14E
100
AcDbEntity
  8
0
370
              15
  6
Continuous
 62
               7
100
AcDb2dPolyline
 66
               1
 10
0.0
 20
0.0
 30
0.0
 75
               5
  0
VERTEX
  5
14F
100
AcDbEntity
  8
0
370
              15
  6
Continuous
 62
               7
100
AcDbVertex
100
AcDb2dVertex
 10
3.4671609188745265
 20
-366.49379910886137
 30
0.0
  0
VERTEX
  5
150
100
AcDbEntity
  8
0
370
              15
  6
Continuous
 62
               7
100
AcDbVertex
100
AcDb2dVertex
 10
5.1936885442747212
 20
-366.7292085706614
 30
0.0
  0
VERTEX
  5
151
100
AcDbEntity
  8
0
370
              15
  6
Continuous
 62
               7
100
AcDbVertex
100
AcDb2dVertex
 10
6.8706546330745937
 20
-366.62359498426133
 30
0.0
  0
VERTEX
  5
152
100
AcDbEntity
  8
0
370
              15
  6
Continuous
 62
               7
100
AcDbVertex
100
AcDb2dVertex
 10
8.4587523504745263
 20
-366.17944667206132
 30
0.0
  0
VERTEX
  5
153
100
AcDbEntity
  8
0
370
              15
  6
Continuous
 62
               7
100
AcDbVertex
100
AcDb2dVertex
 10
9.9207566238745244
 20
-365.40708498506137
 30
0.0
  0
VERTEX
  5
154
100
AcDbEntity
  8
0
370
              15
  6
Continuous
 62
               7
100
AcDbVertex
100
AcDb2dVertex
 10
11.222398620674596
 20
-364.32464189686141
 30
0.0
  0
VERTEX
  5
155
100
AcDbEntity
  8
0
370
              15
  6
Continuous
 62
               7
100
AcDbVertex
100
AcDb2dVertex
 10
12.333172268874534
 20
-362.95756957426136
 30
0.0
  0
VERTEX
  5
156
100
AcDbEntity
  8
0
370
              15
  6
Continuous
 62
               7
100
AcDbVertex
100
AcDb2dVertex
 10
13.227038410474563
 20
-361.33778696186141
 30
0.0
  0
VERTEX
  5
157
100
AcDbEntity
  8
0
370
              15
  6
Continuous
 62
               7
100
AcDbVertex
100
AcDb2dVertex
 10
13.883048264074716
 20
-359.50337281006136
 30
0.0
  0
VERTEX
  5
158
100
AcDbEntity
  8
0
370
              15
  6
Continuous
 62
               7
100
AcDbVertex
100
AcDb2dVertex
 10
14.285824502674643
 20
-357.49726462986132
 30
0.0
  0
VERTEX
  5
159
100
AcDbEntity
  8
0
370
              15
  6
Continuous
 62
               7
100
AcDbVertex
100
AcDb2dVertex
 10
14.425924540674544
 20
-355.36643892686141
 30
0.0
  0
VERTEX
  5
15A
100
AcDbEntity
  8
0
370
              15
  6
Continuous
 62
               7
100
AcDbVertex
100
AcDb2dVertex
 10
14.300068369074609
 20
-353.16094683786139
 30
0.0
  0
VERTEX
  5
15B
100
AcDbEntity
  8
0
370
              15
  6
Continuous
 62
               7
100
AcDbVertex
100
AcDb2dVertex
 10
13.91120254267463
 20
-350.93240288386141
 30
0.0
  0
VERTEX
  5
15C
100
AcDbEntity
  8
0
370
              15
  6
Continuous
 62
               7
100
AcDbVertex
100
AcDb2dVertex
 10
13.268443961474588
 20
-348.73312401586134
 30
0.0
  0
VERTEX
  5
15D
100
AcDbEntity
  8
0
370
              15
  6
Continuous
 62
               7
100
AcDbVertex
100
AcDb2dVertex
 10
12.386856587674686
 20
-346.61455145446132
 30
0.0
  0
VERTEX
  5
15E
100
AcDbEntity
  8
0
370
              15
  6
Continuous
 62
               7
100
AcDbVertex
100
AcDb2dVertex
 10
11.287106113074572
 20
-344.62643544086131
 30
0.0
  0
VERTEX
  5
15F
100
AcDbEntity
  8
0
370
              15
  6
Continuous
 62
               7
100
AcDbVertex
100
AcDb2dVertex
 10
9.9949679780746123
 20
-342.81530753926131
 30
0.0
  0
VERTEX
  5
160
100
AcDbEntity
  8
0
370
              15
  6
Continuous
 62
               7
100
AcDbVertex
100
AcDb2dVertex
 10
8.5407278622745366
 20
-341.22360618026141
 30
0.0
  0
VERTEX
  5
161
100
AcDbEntity
  8
0
370
              15
  6
Continuous
 62
               7
100
AcDbVertex
100
AcDb2dVertex
 10
6.9584762054747102
 20
-339.88877752446137
 30
0.0
  0
VERTEX
  5
162
100
AcDbEntity
  8
0
370
              15
  6
Continuous
 62
               7
100
AcDbVertex
100
AcDb2dVertex
 10
5.2852953032746086
 20
-338.84195563266132
 30
0.0
  0
VERTEX
  5
163
100
AcDbEntity
  8
0
370
              15
  6
Continuous
 62
               7
100
AcDbVertex
100
AcDb2dVertex
 10
3.560403874074666
 20
-338.10770668746136
 30
0.0
  0
VERTEX
  5
164
100
AcDbEntity
  8
0
370
              15
  6
Continuous
 62
               7
100
AcDbVertex
100
AcDb2dVertex
 10
1.8242338490745738
 20
-337.70330523666132
 30
0.0
  0
VERTEX
  5
165
100
AcDbEntity
  8
0
370
              15
  6
Continuous
 62
               7
100
AcDbVertex
100
AcDb2dVertex
 10
0.1174793534747209
 20
-337.63823005426138
 30
0.0
  0
VERTEX
  5
166
100
AcDbEntity
  8
0
370
              15
  6
Continuous
 62
               7
100
AcDbVertex
100
AcDb2dVertex
 10
-1.5198562831253071
 20
-337.91394216326137
 30
0.0
  0
VERTEX
  5
167
100
AcDbEntity
  8
0
370
              15
  6
Continuous
 62
               7
100
AcDbVertex
100
AcDb2dVertex
 10
-3.0493961273254513
 20
-338.52394952886141
 30
0.0
  0
VERTEX
  5
168
100
AcDbEntity
  8
0
370
              15
  6
Continuous
 62
               7
100
AcDbVertex
100
AcDb2dVertex
 10
-4.4352851029254339
 20
-339.45410719766141
 30
0.0
  0
VERTEX
  5
169
100
AcDbEntity
  8
0
370
              15
  6
Continuous
 62
               7
100
AcDbVertex
100
AcDb2dVertex
 10
-5.6450423375253536
 20
-340.6824752876613
 30
0.0
  0
VERTEX
  5
16A
100
AcDbEntity
  8
0
370
              15
  6
Continuous
 62
               7
100
AcDbVertex
100
AcDb2dVertex
 10
-6.6503124003253902
 20
-342.18027448466137
 30
0.0
  0
VERTEX
  5
16B
100
AcDbEntity
  8
0
370
              15
  6
Continuous
 62
               7
100
AcDbVertex
100
AcDb2dVertex
 10
-7.4275306939254619
 20
-343.91246586866134
 30
0.0
  0
VERTEX
  5
16C
100
AcDbEntity
  8
0
370
              15
  6
Continuous
 62
               7
100
AcDbVertex
100
AcDb2dVertex
 10
-7.9584828805254233
 20
-345.83835541986139
 30
0.0
  0
VERTEX
  5
16D
100
AcDbEntity
  8
0
370
              15
  6
Continuous
 62
               7
100
AcDbVertex
100
AcDb2dVertex
 10
-8.2307197751253511
 20
-347.91291048126141
 30
0.0
  0
VERTEX
  5
16E
100
AcDbEntity
  8
0
370
              15
  6
Continuous
 62
               7
100
AcDbVertex
100
AcDb2dVertex
 10
-8.2378625931252714
 20
-350.08742347046132
 30
0.0
  0
VERTEX
  5
16F
100
AcDbEntity
  8
0
370
              15
  6
Continuous
 62
               7
100
AcDbVertex
100
AcDb2dVertex
 10
-7.9797429811252982
 20
-352.31100541386138
 30
0.0
  0
VERTEX
  5
170
100
AcDbEntity
  8
0
370
              15
  6
Continuous
 62
               7
100
AcDbVertex
100
AcDb2dVertex
 10
-7.4624129817254357
 20
-354.53143148466131
 30
0.0
  0
VERTEX
  5
171
100
AcDbEntity
  8
0
370
              15
  6
Continuous
 62
               7
100
AcDbVertex
100
AcDb2dVertex
 10
-6.6979977939253672
 20
-356.69670145086138
 30
0.0
  0
VERTEX
  5
172
100
AcDbEntity
  8
0
370
              15
  6
Continuous
 62
               7
100
AcDbVertex
100
AcDb2dVertex
 10
-5.7044124357252599
 20
-358.75612310426141
 30
0.0
  0
VERTEX
  5
173
100
AcDbEntity
  8
0
370
              15
  6
Continuous
 62
               7
100
AcDbVertex
100
AcDb2dVertex
 10
-4.5049491205253958
 20
-360.66131275766134
 30
0.0
  0
VERTEX
  5
174
100
AcDbEntity
  8
0
370
              15
  6
Continuous
 62
               7
100
AcDbVertex
100
AcDb2dVertex
 10
-3.1277190939253501
 20
-362.36773835746135
 30
0.0
  0
VERTEX
  5
175
100
AcDbEntity
  8
0
370
              15
  6
Continuous
 62
               7
100
AcDbVertex
100
AcDb2dVertex
 10
-1.6050045033254605
 20
-363.8353226442614
 30
0.0
  0
VERTEX
  5
176
100
AcDbEntity
  8
0
370
              15
  6
Continuous
 62
               7
100
AcDbVertex
100
AcDb2dVertex
 10
0.0275012586747039
 20
-365.0296375304614
 30
0.0
  0
VERTEX
  5
177
100
AcDbEntity
  8
0
370
              15
  6
Continuous
 62
               7
100
AcDbVertex
100
AcDb2dVertex
 10
1.7315370756746802
 20
-365.92277886826139
 30
0.0
  0
VERTEX
  5
178
100
AcDbEntity
  8
0
370
              15
  6
Continuous
 62
               7
100
AcDbVertex
100
AcDb2dVertex
 10
3.4671609188745265
 20
-366.49379910886137
 30
0.0
  0
SEQEND
  5
179
100
AcDbEntity
  8
0
370
              15
  6
Continuous
 62
               7
  0
POLYLINE
  5
17A
100
AcDbEntity
  8
0
370
              15
  6
Continuous
 62
               7
100
AcDb2dPolyline
 66
               1
 10
0.0
 20
0.0
 30
0.0
 75
               5
  0
VERTEX
  5
17B
100
AcDbEntity
  8
0
370
              15
  6
Continuous
 62
               7
100
AcDbVertex
100
AcDb2dVertex
 10
5.8338966258746154
 20
-453.8160263290614
 30
0.0
  0
VERTEX
  5
17C
100
AcDbEntity
  8
0
370
              15
  6
Continuous
 62
               7
100
AcDbVertex
100
AcDb2dVertex
 10
6.9626318500746152
 20
-453.91275884286131
 30
0.0
  0
VERTEX
  5
17D
100
AcDbEntity
  8
0
370
              15
  6
Continuous
 62
               7
100
AcDbVertex
100
AcDb2dVertex
 10
8.0214536690746741
 20
-453.66988892566133
 30
0.0
  0
VERTEX
  5
17E
100
AcDbEntity
  8
0
370
              15
  6
Continuous
 62
               7
100
AcDbVertex
100
AcDb2dVertex
 10
8.9532791388747341
 20
-453.10046061706134
 30
0.0
  0
VERTEX
  5
17F
100
AcDbEntity
  8
0
370
              15
  6
Continuous
 62
               7
100
AcDbVertex
100
AcDb2dVertex
 10
9.7078751260747254
 20
-452.23522282466138
 30
0.0
  0
VERTEX
  5
180
100
AcDbEntity
  8
0
370
              15
  6
Continuous
 62
               7
100
AcDbVertex
100
AcDb2dVertex
 10
10.244559230674724
 20
-451.12077138426139
 30
0.0
  0
VERTEX
  5
181
100
AcDbEntity
  8
0
370
              15
  6
Continuous
 62
               7
100
AcDbVertex
100
AcDb2dVertex
 10
10.534400880274745
 20
-449.81723555166138
 30
0.0
  0
VERTEX
  5
182
100
AcDbEntity
  8
0
370
              15
  6
Continuous
 62
               7
100
AcDbVertex
100
AcDb2dVertex
 10
10.561771112274585
 20
-448.39479535126134
 30
0.0
  0
VERTEX
  5
183
100
AcDbEntity
  8
0
370
              15
  6
Continuous
 62
               7
100
AcDbVertex
100
AcDb2dVertex
 10
10.325196759274661
 20
-446.93020647526134
 30
0.0
  0
VERTEX
  5
184
100
AcDbEntity
  8
0
370
              15
  6
Continuous
 62
               7
100
AcDbVertex
100
AcDb2dVertex
 10
9.8374328972745957
 20
-445.50246480586134
 30
0.0
  0
VERTEX
  5
185
100
AcDbEntity
  8
0
370
              15
  6
Continuous
 62
               7
100
AcDbVertex
100
AcDb2dVertex
 10
9.1247728092747025
 20
-444.18846290426131
 30
0.0
  0
VERTEX
  5
186
100
AcDbEntity
  8
0
370
              15
  6
Continuous
 62
               7
100
AcDbVertex
100
AcDb2dVertex
 10
8.2256358278746688
 20
-443.05904354146139
 30
0.0
  0
VERTEX
  5
187
100
AcDbEntity
  8
0
370
              15
  6
Continuous
 62
               7
100
AcDbVertex
100
AcDb2dVertex
 10
7.1884976956746982
 20
-442.17518270126141
 30
0.0
  0
VERTEX
  5
188
100
AcDbEntity
  8
0
370
              15
  6
Continuous
 62
               7
100
AcDbVertex
100
AcDb2dVertex
 10
6.0692664170747435
 20
-441.58438256966133
 30
0.0
  0
VERTEX
  5
189
100
AcDbEntity
  8
0
370
              15
  6
Continuous
 62
               7
100
AcDbVertex
100
AcDb2dVertex
 10
4.9282835754746088
 20
-441.31861648126142
 30
0.0
  0
VERTEX
  5
18A
100
AcDbEntity
  8
0
370
              15
  6
Continuous
 62
               7
100
AcDbVertex
100
AcDb2dVertex
 10
3.8270597250746619
 20
-441.39221192506136
 30
0.0
  0
VERTEX
  5
18B
100
AcDbEntity
  8
0
370
              15
  6
Continuous
 62
               7
100
AcDbVertex
100
AcDb2dVertex
 10
2.8249589912746274
 20
-441.80107829806138
 30
0.0
  0
VERTEX
  5
18C
100
AcDbEntity
  8
0
370
              15
  6
Continuous
 62
               7
100
AcDbVertex
100
AcDb2dVertex
 10
1.9760084654745356
 20
-442.52332030286141
 30
0.0
  0
VERTEX
  5
18D
100
AcDbEntity
  8
0
370
              15
  6
Continuous
 62
               7
100
AcDbVertex
100
AcDb2dVertex
 10
1.3259735254746943
 20
-443.51991328806139
 30
0.0
  0
VERTEX
  5
18E
100
AcDbEntity
  8
0
370
              15
  6
Continuous
 62
               7
100
AcDbVertex
100
AcDb2dVertex
 10
0.9098971116746384
 20
-444.73712585426131
 30
0.0
  0
VERTEX
  5
18F
100
AcDbEntity
  8
0
370
              15
  6
Continuous
 62
               7
100
AcDbVertex
100
AcDb2dVertex
 10
0.750212010274538
 20
-446.10941507266136
 30
0.0
  0
VERTEX
  5
190
100
AcDbEntity
  8
0
370
              15
  6
Continuous
 62
               7
100
AcDbVertex
100
AcDb2dVertex
 10
0.8555260382746042
 20
-447.56276106386133
 30
0.0
  0
VERTEX
  5
191
100
AcDbEntity
  8
0
370
              15
  6
Continuous
 62
               7
100
AcDbVertex
100
AcDb2dVertex
 10
1.2201601838747251
 20
-449.01874219686135
 30
0.0
  0
VERTEX
  5
192
100
AcDbEntity
  8
0
370
              15
  6
Continuous
 62
               7
100
AcDbVertex
100
AcDb2dVertex
 10
1.8244584808747391
 20
-450.39895962306139
 30
0.0
  0
VERTEX
  5
193
100
AcDbEntity
  8
0
370
              15
  6
Continuous
 62
               7
100
AcDbVertex
100
AcDb2dVertex
 10
2.6358426196746336
 20
-451.6289569872614
 30
0.0
  0
VERTEX
  5
194
100
AcDbEntity
  8
0
370
              15
  6
Continuous
 62
               7
100
AcDbVertex
100
AcDb2dVertex
 10
3.610571403674669
 20
-452.64247389046136
 30
0.0
  0
VERTEX
  5
195
100
AcDbEntity
  8
0
370
              15
  6
Continuous
 62
               7
100
AcDbVertex
100
AcDb2dVertex
 10
4.6960960182746589
 20
-453.38482070006137
 30
0.0
  0
VERTEX
  5
196
100
AcDbEntity
  8
0
370
              15
  6
Continuous
 62
               7
100
AcDbVertex
100
AcDb2dVertex
 10
5.8338966258746154
 20
-453.8160263290614
 30
0.0
  0
SEQEND
  5
197
100
AcDbEntity
  8
0
370
              15
  6
Continuous
 62
               7
  0
LINE
  5
198
100
AcDbEntity
  8
0
370
              15
  6
Continuous
 62
               7
100
AcDbLine
 10
79.006418164674699
 20
-484.67511610366137
 30
0.0
 11
33.615783367074584
 21
-501.42087113046148
 31
0.0
  0
POLYLINE
  5
199
100
AcDbEntity
  8
0
370
              15
  6
Continuous
 62
               7
100
AcDb2dPolyline
 66
               1
 10
0.0
 20
0.0
 30
0.0
 75
               5
  0
VERTEX
  5
19A
100
AcDbEntity
  8
0
370
              15
  6
Continuous
 62
               7
100
AcDbVertex
100
AcDb2dVertex
 10
-19.274631195325298
 20
-489.21933993506127
 30
0.0
  0
VERTEX
  5
19B
100
AcDbEntity
  8
0
370
              15
  6
Continuous
 62
               7
100
AcDbVertex
100
AcDb2dVertex
 10
-19.315109961325277
 20
-489.2076427790613
 30
0.0
  0
VERTEX
  5
19C
100
AcDbEntity
  8
0
370
              15
  6
Continuous
 62
               7
100
AcDbVertex
100
AcDb2dVertex
 10
-19.346490415525466
 20
-489.19361283026137
 30
0.0
  0
VERTEX
  5
19D
100
AcDbEntity
  8
0
370
              15
  6
Continuous
 62
               7
100
AcDbVertex
100
AcDb2dVertex
 10
-19.367570322325435
 20
-489.17778967806134
 30
0.0
  0
VERTEX
  5
19E
100
AcDbEntity
  8
0
370
              15
  6
Continuous
 62
               7
100
AcDbVertex
100
AcDb2dVertex
 10
-19.377536945925328
 20
-489.16078202546134
 30
0.0
  0
VERTEX
  5
19F
100
AcDbEntity
  8
0
370
              15
  6
Continuous
 62
               7
100
AcDbVertex
100
AcDb2dVertex
 10
-19.378308505525354
 20
-489.15507978646133
 30
0.0
  0
SEQEND
  5
1A0
100
AcDbEntity
  8
0
370
              15
  6
Continuous
 62
               7
  0
POLYLINE
  5
1A1
100
AcDbEntity
  8
0
370
              15
  6
Continuous
 62
               7
100
AcDb2dPolyline
 66
               1
 10
0.0
 20
0.0
 30
0.0
 75
               5
  0
VERTEX
  5
1A2
100
AcDbEntity
  8
0
370
              15
  6
Continuous
 62
               7
100
AcDbVertex
100
AcDb2dVertex
 10
79.079504152674701
 20
-484.61415877226136
 30
0.0
  0
VERTEX
  5
1A3
100
AcDbEntity
  8
0
370
              15
  6
Continuous
 62
               7
100
AcDbVertex
100
AcDb2dVertex
 10
79.077205924274551
 20
-484.62599560146134
 30
0.0
  0
VERTEX
  5
1A4
100
AcDbEntity
  8
0
370
              15
  6
Continuous
 62
               7
100
AcDbVertex
100
AcDb2dVertex
 10
79.064241943074705
 20
-484.6433928420613
 30
0.0
  0
VERTEX
  5
1A5
100
AcDbEntity
  8
0
370
              15
  6
Continuous
 62
               7
100
AcDbVertex
100
AcDb2dVertex
 10
79.040341131874641
 20
-484.65997883226134
 30
0.0
  0
VERTEX
  5
1A6
100
AcDbEntity
  8
0
370
              15
  6
Continuous
 62
               7
100
AcDbVertex
100
AcDb2dVertex
 10
79.006418164674699
 20
-484.67511610366137
 30
0.0
  0
SEQEND
  5
1A7
100
AcDbEntity
  8
0
370
              15
  6
Continuous
 62
               7
  0
LINE
  5
1A8
100
AcDbEntity
  8
0
370
              15
  6
Continuous
 62
               7
100
AcDbLine
 10
-6.5445937749254313
 20
-352.49074526586139
 30
0.0
 11
-6.4427017419254184
 21
-353.07208308826137
 31
0.0
  0
SPLINE
  5
1A9
100
AcDbEntity
  8
0
370
              15
  6
Continuous
 62
               7
100
AcDbSpline
210
0.0
220
0.0
230
1.0
 70
               8
 71
               2
 72
              10
 73
               7
 74
               0
 42
0.000001
 43
0.000001
 40
0.0
 40
0.0
 40
0.0
 40
1.0
 40
1.0
 40
2.0
 40
2.0
 40
3.0
 40
3.0
 40
3.0
 10
-6.442702282458356
 20
-353.07206391998932
 30
0.0
 10
-6.4397614897473545
 20
-353.09510426622415
 30
0.0
 10
-6.4368206970363531
 20
-353.11814461245899
 30
0.0
 10
-6.2258479328131102
 20
-354.74177738891899
 30
0.0
 10
-5.9012377221287693
 20
-356.3399196198468
 30
0.0
 10
-5.8965751931208956
 20
-356.36261670933055
 30
0.0
 10
-5.8919126641130219
 20
-356.38531379881431
 30
0.0
  0
LINE
  5
1AA
100
AcDbEntity
  8
0
370
              15
  6
Continuous
 62
               7
100
AcDbLine
 10
-5.8919120053253096
 20
-356.38530780026133
 30
0.0
 11
-5.7978195937254782
 21
-356.67887360086138
 31
0.0
  0
POLYLINE
  5
1AB
100
AcDbEntity
  8
0
370
              15
  6
Continuous
 62
               7
100
AcDb2dPolyline
 66
               1
 10
0.0
 20
0.0
 30
0.0
 75
               5
  0
VERTEX
  5
1AC
100
AcDbEntity
  8
0
370
              15
  6
Continuous
 62
               7
100
AcDbVertex
100
AcDb2dVertex
 10
-5.7978195937254782
 20
-356.67887360086138
 30
0.0
  0
VERTEX
  5
1AD
100
AcDbEntity
  8
0
370
              15
  6
Continuous
 62
               7
100
AcDbVertex
100
AcDb2dVertex
 10
-4.7116151619254083
 20
-358.83340658466136
 30
0.0
  0
VERTEX
  5
1AE
100
AcDbEntity
  8
0
370
              15
  6
Continuous
 62
               7
100
AcDbVertex
100
AcDb2dVertex
 10
-3.4008266725253975
 20
-360.80607210626135
 30
0.0
  0
VERTEX
  5
1AF
100
AcDbEntity
  8
0
370
              15
  6
Continuous
 62
               7
100
AcDbVertex
100
AcDb2dVertex
 10
-1.8997833289253663
 20
-362.54518084846131
 30
0.0
  0
VERTEX
  5
1B0
100
AcDbEntity
  8
0
370
              15
  6
Continuous
 62
               7
100
AcDbVertex
100
AcDb2dVertex
 10
-0.2477932191254126
 20
-364.00523190546141
 30
0.0
  0
VERTEX
  5
1B1
100
AcDbEntity
  8
0
370
              15
  6
Continuous
 62
               7
100
AcDbVertex
100
AcDb2dVertex
 10
1.5118805024745257
 20
-365.14799911866135
 30
0.0
  0
VERTEX
  5
1B2
100
AcDbEntity
  8
0
370
              15
  6
Continuous
 62
               7
100
AcDbVertex
100
AcDb2dVertex
 10
3.3331532694747352
 20
-365.94352994866131
 30
0.0
  0
VERTEX
  5
1B3
100
AcDbEntity
  8
0
370
              15
  6
Continuous
 62
               7
100
AcDbVertex
100
AcDb2dVertex
 10
5.1683288380746149
 20
-366.37099249666142
 30
0.0
  0
VERTEX
  5
1B4
100
AcDbEntity
  8
0
370
              15
  6
Continuous
 62
               7
100
AcDbVertex
100
AcDb2dVertex
 10
6.969346331874533
 20
-366.41919207046135
 30
0.0
  0
VERTEX
  5
1B5
100
AcDbEntity
  8
0
370
              15
  6
Continuous
 62
               7
100
AcDbVertex
100
AcDb2dVertex
 10
8.6594986138746322
 20
-366.09609298246141
 30
0.0
  0
SEQEND
  5
1B6
100
AcDbEntity
  8
0
370
              15
  6
Continuous
 62
               7
  0
LINE
  5
1B7
100
AcDbEntity
  8
0
370
              15
  6
Continuous
 62
               7
100
AcDbLine
 10
-6.6545125737254125
 20
-345.25718701426138
 30
0.0
 11
-6.7268511487254159
 21
-345.76624292366137
 31
0.0
  0
LINE
  5
1B8
100
AcDbEntity
  8
0
370
              15
  6
Continuous
 62
               7
100
AcDbLine
 10
-6.1818757927252932
 20
-342.50887457406134
 30
0.0
 11
-6.262013989125478
 21
-342.73015846126134
 31
0.0
  0
SPLINE
  5
1B9
100
AcDbEntity
  8
0
370
              15
  6
Continuous
 62
               7
100
AcDbSpline
210
0.0
220
0.0
230
1.0
 70
               8
 71
               2
 72
              11
 73
               8
 74
               0
 42
0.000001
 43
0.000001
 40
0.0
 40
0.0
 40
0.0
 40
1.0
 40
1.0
 40
2.0
 40
3.0
 40
3.0
 40
4.0
 40
4.0
 40
4.0
 10
-6.2620141409635721
 20
-342.73018315508932
 30
0.0
 10
-6.2652714991191374
 20
-342.744397752748
 30
0.0
 10
-6.2685288572747027
 20
-342.75861235040668
 30
0.0
 10
-6.3651856597973051
 20
-343.18800355847338
 30
0.0
 10
-6.5680725169428911
 20
-344.36550900152395
 30
0.0
 10
-6.6512747336686857
 20
-345.22281821804302
 30
0.0
 10
-6.6528937640532035
 20
-345.23999892989531
 30
0.0
 10
-6.6545127944377214
 20
-345.2571796417476
 30
0.0
  0
ARC
  5
1BA
100
AcDbEntity
  8
0
370
              15
  6
Continuous
 62
               7
100
AcDbCircle
 10
1.9750571894747395
 20
-346.07091991706136
 30
0.0
 40
8.9007709048579873
100
AcDbArc
 50
114.50190329340028
 51
156.4096212173996
  0
ARC
  5
1BB
100
AcDbEntity
  8
0
370
              15
  6
Continuous
 62
               7
100
AcDbCircle
 10
11.125507752074611
 20
-348.64710305506139
 30
0.0
 40
18.083309249745525
100
AcDbArc
 50
170.83312545720014
 51
192.27194369559984
  0
POLYLINE
  5
1BC
100
AcDbEntity
  8
0
370
              15
  6
Continuous
 62
               7
100
AcDb2dPolyline
 66
               1
 10
0.0
 20
0.0
 30
0.0
 75
               5
  0
VERTEX
  5
1BD
100
AcDbEntity
  8
0
370
              15
  6
Continuous
 62
               7
100
AcDbVertex
100
AcDb2dVertex
 10
6.618750231274646
 20
-453.52647395186136
 30
0.0
  0
VERTEX
  5
1BE
100
AcDbEntity
  8
0
370
              15
  6
Continuous
 62
               7
100
AcDbVertex
100
AcDb2dVertex
 10
7.7474854554746457
 20
-453.62320646566138
 30
0.0
  0
VERTEX
  5
1BF
100
AcDbEntity
  8
0
370
              15
  6
Continuous
 62
               7
100
AcDbVertex
100
AcDb2dVertex
 10
8.2989068194745528
 20
-453.54166064746141
 30
0.0
  0
SEQEND
  5
1C0
100
AcDbEntity
  8
0
370
              15
  6
Continuous
 62
               7
  0
POLYLINE
  5
1C1
100
AcDbEntity
  8
0
370
              15
  6
Continuous
 62
               7
100
AcDb2dPolyline
 66
               1
 10
0.0
 20
0.0
 30
0.0
 75
               5
  0
VERTEX
  5
1C2
100
AcDbEntity
  8
0
370
              15
  6
Continuous
 62
               7
100
AcDbVertex
100
AcDb2dVertex
 10
3.8174834184745237
 20
-441.39439565026134
 30
0.0
  0
VERTEX
  5
1C3
100
AcDbEntity
  8
0
370
              15
  6
Continuous
 62
               7
100
AcDbVertex
100
AcDb2dVertex
 10
3.6098125966746579
 20
-441.51152592086135
 30
0.0
  0
VERTEX
  5
1C4
100
AcDbEntity
  8
0
370
              15
  6
Continuous
 62
               7
100
AcDbVertex
100
AcDb2dVertex
 10
2.7608620708745661
 20
-442.23376792566137
 30
0.0
  0
VERTEX
  5
1C5
100
AcDbEntity
  8
0
370
              15
  6
Continuous
 62
               7
100
AcDbVertex
100
AcDb2dVertex
 10
2.1108271308747248
 20
-443.23036091086135
 30
0.0
  0
VERTEX
  5
1C6
100
AcDbEntity
  8
0
370
              15
  6
Continuous
 62
               7
100
AcDbVertex
100
AcDb2dVertex
 10
1.694750717074669
 20
-444.44757347706138
 30
0.0
  0
VERTEX
  5
1C7
100
AcDbEntity
  8
0
370
              15
  6
Continuous
 62
               7
100
AcDbVertex
100
AcDb2dVertex
 10
1.5350656156745686
 20
-445.81986269566141
 30
0.0
  0
VERTEX
  5
1C8
100
AcDbEntity
  8
0
370
              15
  6
Continuous
 62
               7
100
AcDbVertex
100
AcDb2dVertex
 10
1.6403796436746347
 20
-447.27320868666141
 30
0.0
  0
VERTEX
  5
1C9
100
AcDbEntity
  8
0
370
              15
  6
Continuous
 62
               7
100
AcDbVertex
100
AcDb2dVertex
 10
2.0050137892745283
 20
-448.72918981966131
 30
0.0
  0
VERTEX
  5
1CA
100
AcDbEntity
  8
0
370
              15
  6
Continuous
 62
               7
100
AcDbVertex
100
AcDb2dVertex
 10
2.6093120862745423
 20
-450.10940724586135
 30
0.0
  0
VERTEX
  5
1CB
100
AcDbEntity
  8
0
370
              15
  6
Continuous
 62
               7
100
AcDbVertex
100
AcDb2dVertex
 10
3.4206962248745754
 20
-451.33940461006137
 30
0.0
  0
VERTEX
  5
1CC
100
AcDbEntity
  8
0
370
              15
  6
Continuous
 62
               7
100
AcDbVertex
100
AcDb2dVertex
 10
4.3954250090746996
 20
-452.35292151346141
 30
0.0
  0
VERTEX
  5
1CD
100
AcDbEntity
  8
0
370
              15
  6
Continuous
 62
               7
100
AcDbVertex
100
AcDb2dVertex
 10
5.4809496236746895
 20
-453.09526832286133
 30
0.0
  0
VERTEX
  5
1CE
100
AcDbEntity
  8
0
370
              15
  6
Continuous
 62
               7
100
AcDbVertex
100
AcDb2dVertex
 10
6.618750231274646
 20
-453.52647395186136
 30
0.0
  0
SEQEND
  5
1CF
100
AcDbEntity
  8
0
370
              15
  6
Continuous
 62
               7
  0
LINE
  5
1D0
100
AcDbEntity
  8
0
370
              15
  6
Continuous
 62
               7
100
AcDbLine
 10
-41.528541973525478
 20
466.78575532693867
 30
0.0
 11
7.2343821012746616
 21
455.42753755133867
 31
0.0
  0
ARC
  5
1D1
100
AcDbEntity
  8
0
370
              15
  6
Continuous
 62
               7
100
AcDbCircle
 10
9.0946690726746624
 20
452.16164258733875
 30
0.0
 40
3.7585552451974524
100
AcDbArc
 50
119.66627882439883
 51
184.89945428639868
  0
LINE
  5
1D2
100
AcDbEntity
  8
0
370
              15
  6
Continuous
 62
               7
100
AcDbLine
 10
5.3498471758746859
 20
451.84063403053869
 30
0.0
 11
-43.413076898925453
 21
463.19885180613869
 31
0.0
  0
ARC
  5
1D3
100
AcDbEntity
  8
0
370
              15
  6
Continuous
 62
               7
100
AcDbCircle
 10
-39.668255002125477
 20
463.5198603631386
 30
0.0
 40
3.75855524519858
100
AcDbArc
 50
119.666278824401
 51
184.89945428640075
  0
LINE
  5
1D4
100
AcDbEntity
  8
0
370
              15
  6
Continuous
 62
               7
100
AcDbLine
 10
7.018202126074641
 20
390.28561138993859
 30
0.0
 11
5.3498471758746859
 21
451.84063403053869
 31
0.0
  0
LINE
  5
1D5
100
AcDbEntity
  8
0
370
              15
  6
Continuous
 62
               7
100
AcDbLine
 10
-41.74472194892536
 20
401.64382916553859
 30
0.0
 11
7.018202126074641
 21
390.28561138993859
 31
0.0
  0
LINE
  5
1D6
100
AcDbEntity
  8
0
370
              15
  6
Continuous
 62
               7
100
AcDbLine
 10
-43.413076898925453
 20
463.19885180613869
 30
0.0
 11
-41.74472194892536
 21
401.64382916553859
 31
0.0
  0
LINE
  5
1D7
100
AcDbEntity
  8
0
370
              15
  6
Continuous
 62
               7
100
AcDbLine
 10
49.420201868074685
 20
470.99095512793861
 30
0.0
 11
0.6572777932745453
 21
482.34917290373869
 31
0.0
  0
LINE
  5
1D8
100
AcDbEntity
  8
0
370
              15
  6
Continuous
 62
               7
100
AcDbLine
 10
7.2343821012746616
 20
455.42753755133867
 30
0.0
 11
49.420201868074685
 21
470.99095512793861
 31
0.0
  0
LINE
  5
1D9
100
AcDbEntity
  8
0
370
              15
  6
Continuous
 62
               7
100
AcDbLine
 10
0.6572777932745453
 20
482.34917290373869
 30
0.0
 11
-41.528541973525478
 21
466.78575532693867
 31
0.0
  0
ARC
  5
1DA
100
AcDbEntity
  8
0
370
              15
  6
Continuous
 62
               7
100
AcDbCircle
 10
6.0211294098747317
 20
452.08152400133872
 30
0.0
 40
3.5591837222667135
100
AcDbArc
 50
359.27075458899981
 51
70.06953429430115
  0
ARC
  5
1DB
100
AcDbEntity
  8
0
370
              15
  6
Continuous
 62
               7
100
AcDbCircle
 10
7.0866858310747034
 20
460.11910589553872
 30
0.0
 40
8.4587058665051149
100
AcDbArc
 50
258.15109532390062
 51
287.14350713679966
  0
LINE
  5
1DC
100
AcDbEntity
  8
0
370
              15
  6
Continuous
 62
               7
100
AcDbLine
 10
9.580024850674647
 20
452.03622488273868
 30
0.0
 11
11.248379800874602
 21
390.48120224213858
 31
0.0
  0
ARC
  5
1DD
100
AcDbEntity
  8
0
370
              15
  6
Continuous
 62
               7
100
AcDbCircle
 10
8.7550407810745696
 20
398.56408325493862
 30
0.0
 40
8.4587058665035109
100
AcDbArc
 50
258.15109532389988
 51
287.14350713679937
  0
ARC
  5
1DE
100
AcDbEntity
  8
0
370
              15
  6
Continuous
 62
               7
100
AcDbCircle
 10
48.206949176874616
 20
467.64494157813874
 30
0.0
 40
3.5591837222673957
100
AcDbArc
 50
359.27075458900003
 51
70.069534294299856
  0
LINE
  5
1DF
100
AcDbEntity
  8
0
370
              15
  6
Continuous
 62
               7
100
AcDbLine
 10
51.765844617674531
 20
467.59964245933861
 30
0.0
 11
9.580024850674647
 21
452.03622488273868
 31
0.0
  0
LINE
  5
1E0
100
AcDbEntity
  8
0
370
              15
  6
Continuous
 62
               7
100
AcDbLine
 10
53.434199567674625
 20
406.04461981873874
 30
0.0
 11
51.765844617674531
 21
467.59964245933861
 31
0.0
  0
LINE
  5
1E1
100
AcDbEntity
  8
0
370
              15
  6
Continuous
 62
               7
100
AcDbLine
 10
11.248379800874602
 20
390.48120224213858
 30
0.0
 11
53.434199567674625
 21
406.04461981873874
 31
0.0
  0
ARC
  5
1E2
100
AcDbEntity
  8
0
370
              15
  6
Continuous
 62
               7
100
AcDbCircle
 10
9.2799960972745907
 20
387.23774897973863
 30
0.0
 40
2.6961087421817953
100
AcDbArc
 50
258.1511373682003
 51
287.1434650925018
  0
ARC
  5
1E3
100
AcDbEntity
  8
0
370
              15
  6
Continuous
 62
               7
100
AcDbCircle
 10
9.3488265616745707
 20
384.64576176633864
 30
0.0
 40
0.6241721153759947
100
AcDbArc
 50
119.58476778819711
 51
184.28848665069236
  0
ARC
  5
1E4
100
AcDbEntity
  8
0
370
              15
  6
Continuous
 62
               7
100
AcDbCircle
 10
9.3048315926747023
 20
386.44769804533871
 30
0.0
 40
1.2865521945753382
100
AcDbArc
 50
258.15128632700475
 51
287.14331613360116
  0
ARC
  5
1E5
100
AcDbEntity
  8
0
370
              15
  6
Continuous
 62
               7
100
AcDbCircle
 10
9.4828533448747407
 20
384.66169476793857
 30
0.0
 40
0.5918621510208981
100
AcDbArc
 50
359.97429305030761
 51
70.125917451811347
  0
ARC
  5
1E6
100
AcDbEntity
  8
0
370
              15
  6
Continuous
 62
               7
100
AcDbCircle
 10
9.3415975340745376
 20
384.95385422693857
 30
0.0
 40
2.8195922682128129
100
AcDbArc
 50
258.15120116119937
 51
287.14340129949932
  0
LINE
  5
1E7
100
AcDbEntity
  8
0
370
              15
  6
Continuous
 62
               7
100
AcDbLine
 10
8.7626515578745625
 20
382.19433939353871
 30
0.0
 11
8.7264020158746121
 21
384.59908720853878
 31
0.0
  0
LINE
  5
1E8
100
AcDbEntity
  8
0
370
              15
  6
Continuous
 62
               7
100
AcDbLine
 10
10.074715436474719
 20
384.66142921673872
 30
0.0
 11
10.172712533674542
 21
382.25953642533864
 31
0.0
  0
LINE
  5
1E9
100
AcDbEntity
  8
0
370
              15
  6
Continuous
 62
               7
100
AcDbLine
 10
8.7264020158746121
 20
384.59908720853878
 30
0.0
 11
-43.438587970325386
 21
396.74973911813868
 31
0.0
  0
ARC
  5
1EA
100
AcDbEntity
  8
0
370
              15
  6
Continuous
 62
               7
100
AcDbCircle
 10
-42.816163424325339
 20
396.79641367613863
 30
0.0
 40
0.6241721153763047
100
AcDbArc
 50
119.58476778820497
 51
184.2884866506904
  0
LINE
  5
1EB
100
AcDbEntity
  8
0
370
              15
  6
Continuous
 62
               7
100
AcDbLine
 10
-43.12432387132543
 20
397.33921010973859
 30
0.0
 11
9.0406661146747069
 21
385.18855820013869
 31
0.0
  0
ARC
  5
1EC
100
AcDbEntity
  8
0
370
              15
  6
Continuous
 62
               7
100
AcDbCircle
 10
16.078239410274648
 20
425.62822046313863
 30
0.0
 40
33.155321668946307
100
AcDbArc
 50
285.11402805830005
 51
295.38656251950022
  0
ARC
  5
1ED
100
AcDbEntity
  8
0
370
              15
  6
Continuous
 62
               7
100
AcDbCircle
 10
-2.3202084555254601
 20
436.65742730053876
 30
0.0
 40
45.263192994822873
100
AcDbArc
 50
249.48451039609989
 51
264.20851377050002
  0
POLYLINE
  5
1EE
100
AcDbEntity
  8
0
370
              15
  6
Continuous
 62
               7
100
AcDb2dPolyline
 66
               1
 10
0.0
 20
0.0
 30
0.0
 75
               5
  0
VERTEX
  5
1EF
100
AcDbEntity
  8
0
370
              15
  6
Continuous
 62
               7
100
AcDbVertex
100
AcDb2dVertex
 10
54.813077099074746
 20
401.86754466033858
 30
0.0
  0
VERTEX
  5
1F0
100
AcDbEntity
  8
0
370
              15
  6
Continuous
 62
               7
100
AcDbVertex
100
AcDb2dVertex
 10
54.864670029074716
 20
401.89056872713877
 30
0.0
  0
VERTEX
  5
1F1
100
AcDbEntity
  8
0
370
              15
  6
Continuous
 62
               7
100
AcDbVertex
100
AcDb2dVertex
 10
54.901023435074706
 20
401.91579485933858
 30
0.0
  0
VERTEX
  5
1F2
100
AcDbEntity
  8
0
370
              15
  6
Continuous
 62
               7
100
AcDbVertex
100
AcDb2dVertex
 10
54.920737857074585
 20
401.94225418473866
 30
0.0
  0
VERTEX
  5
1F3
100
AcDbEntity
  8
0
370
              15
  6
Continuous
 62
               7
100
AcDbVertex
100
AcDb2dVertex
 10
54.923062792874646
 20
401.96893078593871
 30
0.0
  0
VERTEX
  5
1F4
100
AcDbEntity
  8
0
370
              15
  6
Continuous
 62
               7
100
AcDbVertex
100
AcDb2dVertex
 10
54.90790090527463
 20
401.99479884833863
 30
0.0
  0
VERTEX
  5
1F5
100
AcDbEntity
  8
0
370
              15
  6
Continuous
 62
               7
100
AcDbVertex
100
AcDb2dVertex
 10
54.875842983074619
 20
402.01886437413873
 30
0.0
  0
VERTEX
  5
1F6
100
AcDbEntity
  8
0
370
              15
  6
Continuous
 62
               7
100
AcDbVertex
100
AcDb2dVertex
 10
54.828113605674673
 20
402.04020276833876
 30
0.0
  0
VERTEX
  5
1F7
100
AcDbEntity
  8
0
370
              15
  6
Continuous
 62
               7
100
AcDbVertex
100
AcDb2dVertex
 10
54.766549084474548
 20
402.0579947705387
 30
0.0
  0
SEQEND
  5
1F8
100
AcDbEntity
  8
0
370
              15
  6
Continuous
 62
               7
  0
LINE
  5
1F9
100
AcDbEntity
  8
0
370
              15
  6
Continuous
 62
               7
100
AcDbLine
 10
9.6840593576746983
 20
385.21830679293862
 30
0.0
 11
54.813077099074746
 21
401.86754466033858
 31
0.0
  0
POLYLINE
  5
1FA
100
AcDbEntity
  8
0
370
              15
  6
Continuous
 62
               7
100
AcDb2dPolyline
 66
               1
 10
0.0
 20
0.0
 30
0.0
 75
               5
  0
VERTEX
  5
1FB
100
AcDbEntity
  8
0
370
              15
  6
Continuous
 62
               7
100
AcDbVertex
100
AcDb2dVertex
 10
-43.170851885925401
 20
397.52966021993871
 30
0.0
  0
VERTEX
  5
1FC
100
AcDbEntity
  8
0
370
              15
  6
Continuous
 62
               7
100
AcDbVertex
100
AcDb2dVertex
 10
-43.222444815725282
 20
397.50663615313874
 30
0.0
  0
VERTEX
  5
1FD
100
AcDbEntity
  8
0
370
              15
  6
Continuous
 62
               7
100
AcDbVertex
100
AcDb2dVertex
 10
-43.25879822192536
 20
397.48141002093871
 30
0.0
  0
VERTEX
  5
1FE
100
AcDbEntity
  8
0
370
              15
  6
Continuous
 62
               7
100
AcDbVertex
100
AcDb2dVertex
 10
-43.278512643725378
 20
397.45495069553863
 30
0.0
  0
VERTEX
  5
1FF
100
AcDbEntity
  8
0
370
              15
  6
Continuous
 62
               7
100
AcDbVertex
100
AcDb2dVertex
 10
-43.280837579725301
 20
397.42827409433858
 30
0.0
  0
VERTEX
  5
200
100
AcDbEntity
  8
0
370
              15
  6
Continuous
 62
               7
100
AcDbVertex
100
AcDb2dVertex
 10
-43.265675692125285
 20
397.40240603213874
 30
0.0
  0
VERTEX
  5
201
100
AcDbEntity
  8
0
370
              15
  6
Continuous
 62
               7
100
AcDbVertex
100
AcDb2dVertex
 10
-43.233617769725413
 20
397.37834050613856
 30
0.0
  0
VERTEX
  5
202
100
AcDbEntity
  8
0
370
              15
  6
Continuous
 62
               7
100
AcDbVertex
100
AcDb2dVertex
 10
-43.185888392525328
 20
397.35700211213862
 30
0.0
  0
VERTEX
  5
203
100
AcDbEntity
  8
0
370
              15
  6
Continuous
 62
               7
100
AcDbVertex
100
AcDb2dVertex
 10
-43.12432387132543
 20
397.33921010973859
 30
0.0
  0
SEQEND
  5
204
100
AcDbEntity
  8
0
370
              15
  6
Continuous
 62
               7
  0
LINE
  5
205
100
AcDbEntity
  8
0
370
              15
  6
Continuous
 62
               7
100
AcDbLine
 10
55.203733177674678
 20
401.31066708413869
 30
0.0
 11
10.074715436474719
 21
384.66142921673872
 31
0.0
  0
ARC
  5
206
100
AcDbEntity
  8
0
370
              15
  6
Continuous
 62
               7
100
AcDbCircle
 10
54.611871086274562
 20
401.31093263553862
 30
0.0
 40
0.5918621510213529
100
AcDbArc
 50
359.97429305030761
 51
70.125917451709711
  0
LINE
  5
207
100
AcDbEntity
  8
0
370
              15
  6
Continuous
 62
               7
100
AcDbLine
 10
-43.402338428325436
 20
394.34499130313861
 30
0.0
 11
8.7626515578745625
 21
382.19433939353871
 31
0.0
  0
LINE
  5
208
100
AcDbEntity
  8
0
370
              15
  6
Continuous
 62
               7
100
AcDbLine
 10
-43.438587970325386
 20
396.74973911813868
 30
0.0
 11
-43.402338428325436
 21
394.34499130313861
 31
0.0
  0
LINE
  5
209
100
AcDbEntity
  8
0
370
              15
  6
Continuous
 62
               7
100
AcDbLine
 10
10.172712533674542
 20
382.25953642533864
 30
0.0
 11
55.30173027507459
 21
398.9087742927386
 31
0.0
  0
LINE
  5
20A
100
AcDbEntity
  8
0
370
              15
  6
Continuous
 62
               7
100
AcDbLine
 10
55.30173027507459
 20
398.9087742927386
 30
0.0
 11
55.203733177674678
 21
401.31066708413869
 31
0.0
  0
LINE
  5
20B
100
AcDbEntity
  8
0
370
              15
  6
Continuous
 62
               7
100
AcDbLine
 10
-43.768529629325428
 20
396.94725263353871
 30
0.0
 11
-43.769072628925358
 21
396.95610721933872
 31
0.0
  0
POLYLINE
  5
20C
100
AcDbEntity
  8
0
370
              15
  6
Continuous
 62
               7
100
AcDb2dPolyline
 66
               1
 10
0.0
 20
0.0
 30
0.0
 75
               5
  0
VERTEX
  5
20D
100
AcDbEntity
  8
0
370
              15
  6
Continuous
 62
               7
100
AcDbVertex
100
AcDb2dVertex
 10
-43.330978366525358
 20
397.52158392813863
 30
0.0
  0
VERTEX
  5
20E
100
AcDbEntity
  8
0
370
              15
  6
Continuous
 62
               7
100
AcDbVertex
100
AcDb2dVertex
 10
-43.376665980725363
 20
397.49940554653858
 30
0.0
  0
VERTEX
  5
20F
100
AcDbEntity
  8
0
370
              15
  6
Continuous
 62
               7
100
AcDbVertex
100
AcDb2dVertex
 10
-43.381231314325476
 20
397.49654495813866
 30
0.0
  0
SEQEND
  5
210
100
AcDbEntity
  8
0
370
              15
  6
Continuous
 62
               7
  0
POLYLINE
  5
211
100
AcDbEntity
  8
0
370
              15
  6
Continuous
 62
               7
100
AcDb2dPolyline
 66
               1
 10
0.0
 20
0.0
 30
0.0
 75
               5
  0
VERTEX
  5
212
100
AcDbEntity
  8
0
370
              15
  6
Continuous
 62
               7
100
AcDbVertex
100
AcDb2dVertex
 10
-43.402338428325436
 20
394.34499130313861
 30
0.0
  0
VERTEX
  5
213
100
AcDbEntity
  8
0
370
              15
  6
Continuous
 62
               7
100
AcDbVertex
100
AcDb2dVertex
 10
-43.537261583525321
 20
394.38398236593866
 30
0.0
  0
VERTEX
  5
214
100
AcDbEntity
  8
0
370
              15
  6
Continuous
 62
               7
100
AcDbVertex
100
AcDb2dVertex
 10
-43.641865660525298
 20
394.43074848113861
 30
0.0
  0
VERTEX
  5
215
100
AcDbEntity
  8
0
370
              15
  6
Continuous
 62
               7
100
AcDbVertex
100
AcDb2dVertex
 10
-43.712130824925396
 20
394.48349106693877
 30
0.0
  0
VERTEX
  5
216
100
AcDbEntity
  8
0
370
              15
  6
Continuous
 62
               7
100
AcDbVertex
100
AcDb2dVertex
 10
-43.74535747072531
 20
394.54018381693868
 30
0.0
  0
VERTEX
  5
217
100
AcDbEntity
  8
0
370
              15
  6
Continuous
 62
               7
100
AcDbVertex
100
AcDb2dVertex
 10
-43.747958407325257
 20
394.56081062013868
 30
0.0
  0
SEQEND
  5
218
100
AcDbEntity
  8
0
370
              15
  6
Continuous
 62
               7
  0
LINE
  5
219
100
AcDbEntity
  8
0
370
              15
  6
Continuous
 62
               7
100
AcDbLine
 10
54.89290751347454
 20
402.06778768333857
 30
0.0
 11
54.945801881274576
 21
402.04724885613859
 31
0.0
  0
LINE
  5
21A
100
AcDbEntity
  8
0
370
              15
  6
Continuous
 62
               7
100
AcDbLine
 10
55.435878116674587
 20
401.51456750413877
 30
0.0
 11
55.436628343074574
 21
401.50650637213857
 31
0.0
  0
POLYLINE
  5
21B
100
AcDbEntity
  8
0
370
              15
  6
Continuous
 62
               7
100
AcDb2dPolyline
 66
               1
 10
0.0
 20
0.0
 30
0.0
 75
               5
  0
VERTEX
  5
21C
100
AcDbEntity
  8
0
370
              15
  6
Continuous
 62
               7
100
AcDbVertex
100
AcDb2dVertex
 10
55.545289899874717
 20
399.11358224333867
 30
0.0
  0
VERTEX
  5
21D
100
AcDbEntity
  8
0
370
              15
  6
Continuous
 62
               7
100
AcDbVertex
100
AcDb2dVertex
 10
55.537685412674648
 20
399.07250780153868
 30
0.0
  0
VERTEX
  5
21E
100
AcDbEntity
  8
0
370
              15
  6
Continuous
 62
               7
100
AcDbVertex
100
AcDb2dVertex
 10
55.494472700474546
 20
399.01451833593865
 30
0.0
  0
VERTEX
  5
21F
100
AcDbEntity
  8
0
370
              15
  6
Continuous
 62
               7
100
AcDbVertex
100
AcDb2dVertex
 10
55.414800640674741
 20
398.95923183953869
 30
0.0
  0
VERTEX
  5
220
100
AcDbEntity
  8
0
370
              15
  6
Continuous
 62
               7
100
AcDbVertex
100
AcDb2dVertex
 10
55.30173027507459
 20
398.9087742927386
 30
0.0
  0
SEQEND
  5
221
100
AcDbEntity
  8
0
370
              15
  6
Continuous
 62
               7
  0
ARC
  5
222
100
AcDbEntity
  8
0
370
              15
  6
Continuous
 62
               7
100
AcDbCircle
 10
-0.5375111267252919
 20
288.96439530593875
 30
0.0
 40
0.4345764584918534
100
AcDbArc
 50
77.476145929210048
 51
111.38813374870786
  0
POLYLINE
  5
223
100
AcDbEntity
  8
0
370
              15
  6
Continuous
 62
               7
100
AcDb2dPolyline
 66
               1
 10
0.0
 20
0.0
 30
0.0
 75
               5
  0
VERTEX
  5
224
100
AcDbEntity
  8
0
370
              15
  6
Continuous
 62
               7
100
AcDbVertex
100
AcDb2dVertex
 10
0.0858863252745437
 20
288.23860325953865
 30
0.0
  0
VERTEX
  5
225
100
AcDbEntity
  8
0
370
              15
  6
Continuous
 62
               7
100
AcDbVertex
100
AcDb2dVertex
 10
0.1989566906746063
 20
288.28906080613865
 30
0.0
  0
VERTEX
  5
226
100
AcDbEntity
  8
0
370
              15
  6
Continuous
 62
               7
100
AcDbVertex
100
AcDb2dVertex
 10
0.2786277222747344
 20
288.34434607573871
 30
0.0
  0
VERTEX
  5
227
100
AcDbEntity
  8
0
370
              15
  6
Continuous
 62
               7
100
AcDbVertex
100
AcDb2dVertex
 10
0.3218404344746091
 20
288.40233554133874
 30
0.0
  0
VERTEX
  5
228
100
AcDbEntity
  8
0
370
              15
  6
Continuous
 62
               7
100
AcDbVertex
100
AcDb2dVertex
 10
0.329505256874711
 20
288.44179313713857
 30
0.0
  0
SEQEND
  5
229
100
AcDbEntity
  8
0
370
              15
  6
Continuous
 62
               7
  0
POLYLINE
  5
22A
100
AcDbEntity
  8
0
370
              15
  6
Continuous
 62
               7
100
AcDb2dPolyline
 66
               1
 10
0.0
 20
0.0
 30
0.0
 75
               5
  0
VERTEX
  5
22B
100
AcDbEntity
  8
0
370
              15
  6
Continuous
 62
               7
100
AcDbVertex
100
AcDb2dVertex
 10
1.3641437792746842
 20
250.26814329193871
 30
0.0
  0
VERTEX
  5
22C
100
AcDbEntity
  8
0
370
              15
  6
Continuous
 62
               7
100
AcDbVertex
100
AcDb2dVertex
 10
1.3564789570746711
 20
250.22868569633874
 30
0.0
  0
VERTEX
  5
22D
100
AcDbEntity
  8
0
370
              15
  6
Continuous
 62
               7
100
AcDbVertex
100
AcDb2dVertex
 10
1.3132662448745691
 20
250.17069623053862
 30
0.0
  0
VERTEX
  5
22E
100
AcDbEntity
  8
0
370
              15
  6
Continuous
 62
               7
100
AcDbVertex
100
AcDb2dVertex
 10
1.2335952132746684
 20
250.11541096113865
 30
0.0
  0
VERTEX
  5
22F
100
AcDbEntity
  8
0
370
              15
  6
Continuous
 62
               7
100
AcDbVertex
100
AcDb2dVertex
 10
1.1205248476747443
 20
250.06495341433856
 30
0.0
  0
SEQEND
  5
230
100
AcDbEntity
  8
0
370
              15
  6
Continuous
 62
               7
  0
ARC
  5
231
100
AcDbEntity
  8
0
370
              15
  6
Continuous
 62
               7
100
AcDbCircle
 10
-29.266056132325446
 20
295.65605862913867
 30
0.0
 40
0.4345764584155961
100
AcDbArc
 50
77.47614592608619
 51
111.38813375180843
  0
ARC
  5
232
100
AcDbEntity
  8
0
370
              15
  6
Continuous
 62
               7
100
AcDbCircle
 10
0.3834881272746884
 20
249.97009166033877
 30
0.0
 40
0.7431163298503194
100
AcDbArc
 50
296.11871970359857
 51
7.3340455060951513
  0
ARC
  5
233
100
AcDbEntity
  8
0
370
              15
  6
Continuous
 62
               7
100
AcDbCircle
 10
-29.558249100725277
 20
295.52885948453877
 30
0.0
 40
0.5483971924304508
100
AcDbArc
 50
75.887921617992532
 51
109.88696112859351
  0
POLYLINE
  5
234
100
AcDbEntity
  8
0
370
              15
  6
Continuous
 62
               7
100
AcDb2dPolyline
 66
               1
 10
0.0
 20
0.0
 30
0.0
 75
               5
  0
VERTEX
  5
235
100
AcDbEntity
  8
0
370
              15
  6
Continuous
 62
               7
100
AcDbVertex
100
AcDb2dVertex
 10
-19.978204477125416
 20
254.67224312473877
 30
0.0
  0
VERTEX
  5
236
100
AcDbEntity
  8
0
370
              15
  6
Continuous
 62
               7
100
AcDbVertex
100
AcDb2dVertex
 10
-18.526565420325312
 20
255.42448018033861
 30
0.0
  0
VERTEX
  5
237
100
AcDbEntity
  8
0
370
              15
  6
Continuous
 62
               7
100
AcDbVertex
100
AcDb2dVertex
 10
-17.217426181925418
 20
256.49412650013869
 30
0.0
  0
VERTEX
  5
238
100
AcDbEntity
  8
0
370
              15
  6
Continuous
 62
               7
100
AcDbVertex
100
AcDb2dVertex
 10
-16.097941654325439
 20
257.84970203893863
 30
0.0
  0
VERTEX
  5
239
100
AcDbEntity
  8
0
370
              15
  6
Continuous
 62
               7
100
AcDbVertex
100
AcDb2dVertex
 10
-15.194352180725389
 20
259.45940536873877
 30
0.0
  0
VERTEX
  5
23A
100
AcDbEntity
  8
0
370
              15
  6
Continuous
 62
               7
100
AcDbVertex
100
AcDb2dVertex
 10
-14.527836811725308
 20
261.28552225753856
 30
0.0
  0
VERTEX
  5
23B
100
AcDbEntity
  8
0
370
              15
  6
Continuous
 62
               7
100
AcDbVertex
100
AcDb2dVertex
 10
-14.114018099125303
 20
263.28525709993869
 30
0.0
  0
VERTEX
  5
23C
100
AcDbEntity
  8
0
370
              15
  6
Continuous
 62
               7
100
AcDbVertex
100
AcDb2dVertex
 10
-13.962595881725463
 20
265.41172863913857
 30
0.0
  0
VERTEX
  5
23D
100
AcDbEntity
  8
0
370
              15
  6
Continuous
 62
               7
100
AcDbVertex
100
AcDb2dVertex
 10
-14.077119466125339
 20
267.61508977553876
 30
0.0
  0
VERTEX
  5
23E
100
AcDbEntity
  8
0
370
              15
  6
Continuous
 62
               7
100
AcDbVertex
100
AcDb2dVertex
 10
-14.454903508725408
 20
269.84370911033875
 30
0.0
  0
VERTEX
  5
23F
100
AcDbEntity
  8
0
370
              15
  6
Continuous
 62
               7
100
AcDbVertex
100
AcDb2dVertex
 10
-15.087093736125269
 20
272.04533086613856
 30
0.0
  0
VERTEX
  5
240
100
AcDbEntity
  8
0
370
              15
  6
Continuous
 62
               7
100
AcDbVertex
100
AcDb2dVertex
 10
-15.958872855525385
 20
274.16837344353871
 30
0.0
  0
VERTEX
  5
241
100
AcDbEntity
  8
0
370
              15
  6
Continuous
 62
               7
100
AcDbVertex
100
AcDb2dVertex
 10
-17.049805917525362
 20
276.16305556153861
 30
0.0
  0
VERTEX
  5
242
100
AcDbEntity
  8
0
370
              15
  6
Continuous
 62
               7
100
AcDbVertex
100
AcDb2dVertex
 10
-18.334322986925315
 20
277.98263210013874
 30
0.0
  0
VERTEX
  5
243
100
AcDbEntity
  8
0
370
              15
  6
Continuous
 62
               7
100
AcDbVertex
100
AcDb2dVertex
 10
-19.782315567325384
 20
279.58445154093874
 30
0.0
  0
VERTEX
  5
244
100
AcDbEntity
  8
0
370
              15
  6
Continuous
 62
               7
100
AcDbVertex
100
AcDb2dVertex
 10
-21.359845001725432
 20
280.93097589873878
 30
0.0
  0
VERTEX
  5
245
100
AcDbEntity
  8
0
370
              15
  6
Continuous
 62
               7
100
AcDbVertex
100
AcDb2dVertex
 10
-23.029934404725452
 20
281.99063640753866
 30
0.0
  0
VERTEX
  5
246
100
AcDbEntity
  8
0
370
              15
  6
Continuous
 62
               7
100
AcDbVertex
100
AcDb2dVertex
 10
-24.753438285725395
 20
282.73858719013856
 30
0.0
  0
VERTEX
  5
247
100
AcDbEntity
  8
0
370
              15
  6
Continuous
 62
               7
100
AcDbVertex
100
AcDb2dVertex
 10
-26.489959774125452
 20
283.15731457233869
 30
0.0
  0
VERTEX
  5
248
100
AcDbEntity
  8
0
370
              15
  6
Continuous
 62
               7
100
AcDbVertex
100
AcDb2dVertex
 10
-28.19879593472541
 20
283.23699858353871
 30
0.0
  0
VERTEX
  5
249
100
AcDbEntity
  8
0
370
              15
  6
Continuous
 62
               7
100
AcDbVertex
100
AcDb2dVertex
 10
-29.839892935525256
 20
282.97576370373872
 30
0.0
  0
VERTEX
  5
24A
100
AcDbEntity
  8
0
370
              15
  6
Continuous
 62
               7
100
AcDbVertex
100
AcDb2dVertex
 10
-29.919502751325297
 20
282.95382163973863
 30
0.0
  0
SEQEND
  5
24B
100
AcDbEntity
  8
0
370
              15
  6
Continuous
 62
               7
  0
SPLINE
  5
24C
100
AcDbEntity
  8
0
370
              15
  6
Continuous
 62
               7
100
AcDbSpline
210
0.0
220
0.0
230
1.0
 70
               8
 71
               2
 72
              16
 73
              13
 74
               0
 42
0.000001
 43
0.000001
 40
0.0
 40
0.0
 40
0.0
 40
1.0
 40
1.0
 40
2.0
 40
3.0
 40
4.0
 40
5.0
 40
6.0
 40
7.0
 40
8.0
 40
8.0
 40
9.0
 40
9.0
 40
9.0
 10
-6.2292899208131871
 20
247.54177514193179
 30
0.0
 10
-6.2294265326793834
 20
247.54020244435208
 30
0.0
 10
-6.2295631445455797
 20
247.53862974677236
 30
0.0
 10
-6.2350423925531118
 20
247.47244032602612
 30
0.0
 10
-6.2471842440679097
 20
247.36043198443713
 30
0.0
 10
-6.2700457294692455
 20
247.21445499611787
 30
0.0
 10
-6.3192832207411698
 20
247.08343245894594
 30
0.0
 10
-6.3617189301325539
 20
247.00516112598962
 30
0.0
 10
-6.4365183339816099
 20
246.91047112550041
 30
0.0
 10
-6.5337478440159771
 20
246.85288980779114
 30
0.0
 10
-6.570875053922407
 20
246.83396745785171
 30
0.0
 10
-6.5714712475417514
 20
246.83365728898036
 30
0.0
 10
-6.5720674411610958
 20
246.83334712010901
 30
0.0
  0
SPLINE
  5
24D
100
AcDbEntity
  8
0
370
              15
  6
Continuous
 62
               7
100
AcDbSpline
210
0.0
220
0.0
230
1.0
 70
               8
 71
               2
 72
              16
 73
              13
 74
               0
 42
0.000001
 43
0.000001
 40
0.0
 40
0.0
 40
0.0
 40
1.0
 40
1.0
 40
2.0
 40
3.0
 40
4.0
 40
5.0
 40
6.0
 40
7.0
 40
8.0
 40
8.0
 40
9.0
 40
9.0
 40
9.0
 10
-7.682923523758916
 20
246.74207519946663
 30
0.0
 10
-7.6837953541231059
 20
246.74221118606579
 30
0.0
 10
-7.6846671844872958
 20
246.74234717266495
 30
0.0
 10
-7.8739707083734061
 20
246.76448493116004
 30
0.0
 10
-8.1519958487853614
 20
246.92786485174815
 30
0.0
 10
-8.4100655429426183
 20
247.16872570249325
 30
0.0
 10
-8.643021664636251
 20
247.50532078294759
 30
0.0
 10
-8.8002095938033449
 20
247.84894317205135
 30
0.0
 10
-8.9087947534546288
 20
248.28049946934493
 30
0.0
 10
-8.9642641295355929
 20
248.71962461110229
 30
0.0
 10
-8.9846945803855647
 20
248.91677533707934
 30
0.0
 10
-8.9853903151475265
 20
248.92333461519377
 30
0.0
 10
-8.9860860499094883
 20
248.92989389330819
 30
0.0
  0
SPLINE
  5
24E
100
AcDbEntity
  8
0
370
              15
  6
Continuous
 62
               7
100
AcDbSpline
210
0.0
220
0.0
230
1.0
 70
               8
 71
               2
 72
              17
 73
              14
 74
               0
 42
0.000001
 43
0.000001
 40
0.0
 40
0.0
 40
0.0
 40
1.0
 40
1.0
 40
2.0
 40
3.0
 40
4.0
 40
5.0
 40
6.0
 40
7.0
 40
8.0
 40
9.0
 40
9.0
 40
10.0
 40
10.0
 40
10.0
 10
-37.436956393825938
 20
255.55687919834531
 30
0.0
 10
-37.436281987694599
 20
255.55032536442093
 30
0.0
 10
-37.435607581563261
 20
255.54377153049654
 30
0.0
 10
-37.421015399182068
 20
255.39937026619737
 30
0.0
 10
-37.383200292811523
 20
255.06099706390023
 30
0.0
 10
-37.288320928824248
 20
254.53354855805333
 30
0.0
 10
-37.083064859307058
 20
254.09557474191411
 30
0.0
 10
-36.866387919490251
 20
253.7858714449153
 30
0.0
 10
-36.633540234017971
 20
253.56174161698596
 30
0.0
 10
-36.411599716850958
 20
253.42519699536615
 30
0.0
 10
-36.232994806674185
 20
253.3874854430062
 30
0.0
 10
-36.178595585460414
 20
253.37963080754389
 30
0.0
 10
-36.177719731376044
 20
253.37949804888262
 30
0.0
 10
-36.176843877291674
 20
253.37936529022136
 30
0.0
  0
SPLINE
  5
24F
100
AcDbEntity
  8
0
370
              15
  6
Continuous
 62
               7
100
AcDbSpline
210
0.0
220
0.0
230
1.0
 70
               8
 71
               2
 72
              16
 73
              13
 74
               0
 42
0.000001
 43
0.000001
 40
0.0
 40
0.0
 40
0.0
 40
1.0
 40
1.0
 40
2.0
 40
3.0
 40
4.0
 40
5.0
 40
6.0
 40
7.0
 40
8.0
 40
8.0
 40
9.0
 40
9.0
 40
9.0
 10
-36.991065109744056
 20
293.14756094163181
 30
0.0
 10
-36.990611175031916
 20
293.14790424402179
 30
0.0
 10
-36.990157240319775
 20
293.14824754641177
 30
0.0
 10
-36.962127397149686
 20
293.16985223919323
 30
0.0
 10
-36.919511346219622
 20
293.1990414092129
 30
0.0
 10
-36.8701899438949
 20
293.22816255636712
 30
0.0
 10
-36.801836085666707
 20
293.24673732296264
 30
0.0
 10
-36.736240613621419
 20
293.25188130515335
 30
0.0
 10
-36.667762584822583
 20
293.24894302728262
 30
0.0
 10
-36.601985666435155
 20
293.24176176582091
 30
0.0
 10
-36.568870841448359
 20
293.23753643910254
 30
0.0
 10
-36.56776780357535
 20
293.23739780887388
 30
0.0
 10
-36.566664765702342
 20
293.23725917864522
 30
0.0
  0
SPLINE
  5
250
100
AcDbEntity
  8
0
370
              15
  6
Continuous
 62
               7
100
AcDbSpline
210
0.0
220
0.0
230
1.0
 70
               8
 71
               2
 72
              16
 73
              13
 74
               0
 42
0.000001
 43
0.000001
 40
0.0
 40
0.0
 40
0.0
 40
1.0
 40
1.0
 40
2.0
 40
3.0
 40
4.0
 40
5.0
 40
6.0
 40
7.0
 40
8.0
 40
8.0
 40
9.0
 40
9.0
 40
9.0
 10
-38.699112854331531
 20
289.864245229669
 30
0.0
 10
-38.69912944270169
 20
289.86420489913235
 30
0.0
 10
-38.699146031071848
 20
289.8641645685957
 30
0.0
 10
-38.70849846239156
 20
289.84476467180866
 30
0.0
 10
-38.695728170337532
 20
289.81330098700823
 30
0.0
 10
-38.672028582524661
 20
289.78900647809246
 30
0.0
 10
-38.637806141495446
 20
289.76575247747473
 30
0.0
 10
-38.595754356504301
 20
289.74387858963382
 30
0.0
 10
-38.524249996702963
 20
289.71358484379698
 30
0.0
 10
-38.418187115844091
 20
289.67866974332674
 30
0.0
 10
-38.363074142525363
 20
289.66185040481105
 30
0.0
 10
-38.362189478780181
 20
289.66157781960362
 30
0.0
 10
-38.361304815034998
 20
289.6613052343962
 30
0.0
  0
SPLINE
  5
251
100
AcDbEntity
  8
0
370
              15
  6
Continuous
 62
               7
100
AcDbSpline
210
0.0
220
0.0
230
1.0
 70
               8
 71
               2
 72
              18
 73
              15
 74
               0
 42
0.000001
 43
0.000001
 40
0.0
 40
0.0
 40
0.0
 40
1.0
 40
1.0
 40
2.0
 40
3.0
 40
4.0
 40
5.0
 40
6.0
 40
7.0
 40
8.0
 40
9.0
 40
10.0
 40
10.0
 40
11.0
 40
11.0
 40
11.0
 10
-37.436956393825938
 20
255.55687919834531
 30
0.0
 10
-37.437845653213742
 20
255.55715172017699
 30
0.0
 10
-37.438734912601547
 20
255.55742424200866
 30
0.0
 10
-37.487008119094469
 20
255.57206781628452
 30
0.0
 10
-37.559568075449704
 20
255.59557293438274
 30
0.0
 10
-37.635188071156733
 20
255.62240215273141
 30
0.0
 10
-37.698145463339813
 20
255.65295438690828
 30
0.0
 10
-37.73482993536885
 20
255.67574416115167
 30
0.0
 10
-37.762276494823652
 20
255.69969134062922
 30
0.0
 10
-37.782981787700635
 20
255.73132655412383
 30
0.0
 10
-37.777074030958318
 20
255.75610793615579
 30
0.0
 10
-37.773060374597605
 20
255.76592175656583
 30
0.0
 10
-37.770813306828529
 20
255.77083202500262
 30
0.0
 10
-37.770777553792698
 20
255.77091121612546
 30
0.0
 10
-37.770741800756866
 20
255.77099040724829
 30
0.0
  0
ARC
  5
252
100
AcDbEntity
  8
0
370
              15
  6
Continuous
 62
               7
100
AcDbCircle
 10
-28.343826639925453
 20
273.10056686153871
 30
0.0
 40
6.1479938968974777
100
AcDbArc
 50
77.481936157299671
 51
144.71784423279965
  0
ARC
  5
253
100
AcDbEntity
  8
0
370
              15
  6
Continuous
 62
               7
100
AcDbCircle
 10
-28.024699305925367
 20
273.25572004813876
 30
0.0
 40
6.2362527000217334
100
AcDbArc
 50
77.363606522401028
 51
112.36706967009984
  0
POLYLINE
  5
254
100
AcDbEntity
  8
0
370
              15
  6
Continuous
 62
               7
100
AcDb2dPolyline
 66
               1
 10
0.0
 20
0.0
 30
0.0
 75
               5
  0
VERTEX
  5
255
100
AcDbEntity
  8
0
370
              15
  6
Continuous
 62
               7
100
AcDbVertex
100
AcDb2dVertex
 10
-22.363652179125381
 20
257.56691807633865
 30
0.0
  0
VERTEX
  5
256
100
AcDbEntity
  8
0
370
              15
  6
Continuous
 62
               7
100
AcDbVertex
100
AcDb2dVertex
 10
-22.012310532525305
 20
257.69927897253865
 30
0.0
  0
VERTEX
  5
257
100
AcDbEntity
  8
0
370
              15
  6
Continuous
 62
               7
100
AcDbVertex
100
AcDb2dVertex
 10
-20.723391778325265
 20
258.43150912293868
 30
0.0
  0
VERTEX
  5
258
100
AcDbEntity
  8
0
370
              15
  6
Continuous
 62
               7
100
AcDbVertex
100
AcDb2dVertex
 10
-19.610202531325456
 20
259.48308079213871
 30
0.0
  0
VERTEX
  5
259
100
AcDbEntity
  8
0
370
              15
  6
Continuous
 62
               7
100
AcDbVertex
100
AcDb2dVertex
 10
-18.708521009125377
 20
260.82018900913863
 30
0.0
  0
VERTEX
  5
25A
100
AcDbEntity
  8
0
370
              15
  6
Continuous
 62
               7
100
AcDbVertex
100
AcDb2dVertex
 10
-18.04732849072542
 20
262.39985725473866
 30
0.0
  0
VERTEX
  5
25B
100
AcDbEntity
  8
0
370
              15
  6
Continuous
 62
               7
100
AcDbVertex
100
AcDb2dVertex
 10
-17.647875203925366
 20
264.17130255313873
 30
0.0
  0
VERTEX
  5
25C
100
AcDbEntity
  8
0
370
              15
  6
Continuous
 62
               7
100
AcDbVertex
100
AcDb2dVertex
 10
-17.523001150925381
 20
266.07760724173863
 30
0.0
  0
VERTEX
  5
25D
100
AcDbEntity
  8
0
370
              15
  6
Continuous
 62
               7
100
AcDbVertex
100
AcDb2dVertex
 10
-17.676719658925265
 20
268.05749432793868
 30
0.0
  0
VERTEX
  5
25E
100
AcDbEntity
  8
0
370
              15
  6
Continuous
 62
               7
100
AcDbVertex
100
AcDb2dVertex
 10
-18.104089627125347
 20
270.04732553373856
 30
0.0
  0
VERTEX
  5
25F
100
AcDbEntity
  8
0
370
              15
  6
Continuous
 62
               7
100
AcDbVertex
100
AcDb2dVertex
 10
-18.791375166325395
 20
271.98314508373869
 30
0.0
  0
VERTEX
  5
260
100
AcDbEntity
  8
0
370
              15
  6
Continuous
 62
               7
100
AcDbVertex
100
AcDb2dVertex
 10
-19.716486234525462
 20
273.80273948793865
 30
0.0
  0
VERTEX
  5
261
100
AcDbEntity
  8
0
370
              15
  6
Continuous
 62
               7
100
AcDbVertex
100
AcDb2dVertex
 10
-20.849689500125294
 20
275.44762602213859
 30
0.0
  0
VERTEX
  5
262
100
AcDbEntity
  8
0
370
              15
  6
Continuous
 62
               7
100
AcDbVertex
100
AcDb2dVertex
 10
-22.154562421925391
 20
276.86492828833866
 30
0.0
  0
VERTEX
  5
263
100
AcDbEntity
  8
0
370
              15
  6
Continuous
 62
               7
100
AcDbVertex
100
AcDb2dVertex
 10
-23.589165835525307
 20
278.00910483753864
 30
0.0
  0
VERTEX
  5
264
100
AcDbEntity
  8
0
370
              15
  6
Continuous
 62
               7
100
AcDbVertex
100
AcDb2dVertex
 10
-25.107389719525315
 20
278.84337191953864
 30
0.0
  0
VERTEX
  5
265
100
AcDbEntity
  8
0
370
              15
  6
Continuous
 62
               7
100
AcDbVertex
100
AcDb2dVertex
 10
-26.660437419925472
 20
279.34091825733867
 30
0.0
  0
SEQEND
  5
266
100
AcDbEntity
  8
0
370
              15
  6
Continuous
 62
               7
  0
LINE
  5
267
100
AcDbEntity
  8
0
370
              15
  6
Continuous
 62
               7
100
AcDbLine
 10
9.244715631274687
 20
382.13812772293863
 30
0.0
 11
33.192764023874645
 21
-501.44043028866133
 31
0.0
  0
LINE
  5
268
100
AcDbEntity
  8
0
370
              15
  6
Continuous
 62
               7
100
AcDbLine
 10
9.6678433294746924
 20
382.15368905973878
 30
0.0
 11
33.615783367074584
 21
-501.42087113046148
 31
0.0
  0
LINE
  5
269
100
AcDbEntity
  8
0
370
              15
  6
Continuous
 62
               7
100
AcDbLine
 10
-43.22115013552542
 20
394.30278795933873
 30
0.0
 11
-19.274631195325298
 21
-489.21933993506127
 31
0.0
  0
LINE
  5
26A
100
AcDbEntity
  8
0
370
              15
  6
Continuous
 62
               7
100
AcDbLine
 10
55.060635973474575
 20
398.81982896193858
 30
0.0
 11
79.006418164674699
 21
-484.67511610366137
 31
0.0
  0
LINE
  5
26B
100
AcDbEntity
  8
0
370
              15
  6
Continuous
 62
               7
100
AcDbLine
 10
9.1371451750745223
 20
-341.82866560786135
 30
0.0
 11
9.7787276388747273
 21
-365.50026084626131
 31
0.0
  0
LINE
  5
26C
100
AcDbEntity
  8
0
370
              15
  6
Continuous
 62
               7
100
AcDbLine
 10
9.270321200674573
 20
-341.97236047706133
 30
0.0
 11
9.9057552378745299
 21
-365.41710558226134
 31
0.0
  0
LINE
  5
26D
100
AcDbEntity
  8
0
370
              15
  6
Continuous
 62
               7
100
AcDbLine
 10
10.681700581674534
 20
-343.72183630906136
 30
0.0
 11
11.239633300074559
 21
-364.30712069626134
 31
0.0
  0
LINE
  5
26E
100
AcDbEntity
  8
0
370
              15
  6
Continuous
 62
               7
100
AcDbLine
 10
10.816174745674573
 20
-343.91342681826131
 30
0.0
 11
11.365364302474575
 21
-364.17612667546132
 31
0.0
  0
LINE
  5
26F
100
AcDbEntity
  8
0
370
              15
  6
Continuous
 62
               7
100
AcDbLine
 10
14.253499685874715
 20
-352.79081083726135
 30
0.0
 11
14.362091569474671
 21
-356.79737782046141
 31
0.0
  0
LINE
  5
270
100
AcDbEntity
  8
0
370
              15
  6
Continuous
 62
               7
100
AcDbLine
 10
14.343661073674696
 20
-353.57553104206136
 30
0.0
 11
14.410590737274617
 21
-356.04494377546132
 31
0.0
  0
ARC
  5
271
100
AcDbEntity
  8
0
370
              15
  6
Continuous
 62
               7
100
AcDbCircle
 10
-39.624116867725377
 20
401.40773925613871
 30
0.0
 40
2.1337067172720836
100
AcDbArc
 50
173.64734147020079
 51
246.84438095529907
  0
ARC
  5
272
100
AcDbEntity
  8
0
370
              15
  6
Continuous
 62
               7
100
AcDbCircle
 10
9.1388072070745352
 20
390.04952148033863
 30
0.0
 40
2.1337067172718576
100
AcDbArc
 50
173.64734147020013
 51
246.84438095529669
  0
ARC
  5
273
100
AcDbEntity
  8
0
370
              15
  6
Continuous
 62
               7
100
AcDbCircle
 10
9.0372386600745926
 20
390.19663491873871
 30
0.0
 40
2.2293774255056196
100
AcDbArc
 50
296.11928652489729
 51
7.333486605301232
  0
ARC
  5
274
100
AcDbEntity
  8
0
370
              15
  6
Continuous
 62
               7
100
AcDbCircle
 10
51.223058427074704
 20
405.76005249553873
 30
0.0
 40
2.2293774255059238
100
AcDbArc
 50
296.11928652490008
 51
7.3334866053002097
  0
ARC
  5
275
100
AcDbEntity
  8
0
370
              15
  6
Continuous
 62
               7
100
AcDbCircle
 10
49.894672999074658
 20
469.7896922127386
 30
0.0
 40
1.2915709215617694
100
AcDbArc
 50
77.311616838298619
 51
111.55287619220161
  0
ARC
  5
276
100
AcDbEntity
  8
0
370
              15
  6
Continuous
 62
               7
100
AcDbCircle
 10
1.1317489240746568
 20
481.14790998853869
 30
0.0
 40
1.2915709214859463
100
AcDbArc
 50
77.311616837303504
 51
111.55287619320622
  0
POLYLINE
  5
277
100
AcDbEntity
  8
0
370
              15
  6
Continuous
 62
               7
100
AcDb2dPolyline
 66
               1
 10
0.0
 20
0.0
 30
0.0
 75
               5
  0
VERTEX
  5
278
100
AcDbEntity
  8
0
370
              15
  6
Continuous
 62
               7
100
AcDbVertex
100
AcDb2dVertex
 10
-44.449844369925302
 20
463.84145198013857
 30
0.0
  0
VERTEX
  5
279
100
AcDbEntity
  8
0
370
              15
  6
Continuous
 62
               7
100
AcDbVertex
100
AcDb2dVertex
 10
-44.442131209725346
 20
463.78442869153878
 30
0.0
  0
VERTEX
  5
27A
100
AcDbEntity
  8
0
370
              15
  6
Continuous
 62
               7
100
AcDbVertex
100
AcDb2dVertex
 10
-44.342456524925353
 20
463.61435019833857
 30
0.0
  0
VERTEX
  5
27B
100
AcDbEntity
  8
0
370
              15
  6
Continuous
 62
               7
100
AcDbVertex
100
AcDb2dVertex
 10
-44.131663468525346
 20
463.45612154213859
 30
0.0
  0
VERTEX
  5
27C
100
AcDbEntity
  8
0
370
              15
  6
Continuous
 62
               7
100
AcDbVertex
100
AcDb2dVertex
 10
-43.817849180925293
 20
463.31582565053873
 30
0.0
  0
VERTEX
  5
27D
100
AcDbEntity
  8
0
370
              15
  6
Continuous
 62
               7
100
AcDbVertex
100
AcDb2dVertex
 10
-43.413076898925453
 20
463.19885180613869
 30
0.0
  0
SEQEND
  5
27E
100
AcDbEntity
  8
0
370
              15
  6
Continuous
 62
               7
  0
ARC
  5
27F
100
AcDbEntity
  8
0
370
              15
  6
Continuous
 62
               7
100
AcDbCircle
 10
-41.929682568725354
 20
465.19014736113877
 30
0.0
 40
1.6452594196362942
100
AcDbArc
 50
75.888125310996557
 51
109.88581542620291
  0
POLYLINE
  5
280
100
AcDbEntity
  8
0
370
              15
  6
Continuous
 62
               7
100
AcDb2dPolyline
 66
               1
 10
0.0
 20
0.0
 30
0.0
 75
               5
  0
VERTEX
  5
281
100
AcDbEntity
  8
0
370
              15
  6
Continuous
 62
               7
100
AcDbVertex
100
AcDb2dVertex
 10
-42.781489419925435
 20
402.2864293395387
 30
0.0
  0
VERTEX
  5
282
100
AcDbEntity
  8
0
370
              15
  6
Continuous
 62
               7
100
AcDbVertex
100
AcDb2dVertex
 10
-42.773776259725253
 20
402.22940605093868
 30
0.0
  0
VERTEX
  5
283
100
AcDbEntity
  8
0
370
              15
  6
Continuous
 62
               7
100
AcDbVertex
100
AcDb2dVertex
 10
-42.67410157492526
 20
402.0593275577387
 30
0.0
  0
VERTEX
  5
284
100
AcDbEntity
  8
0
370
              15
  6
Continuous
 62
               7
100
AcDbVertex
100
AcDb2dVertex
 10
-42.463308518325391
 20
401.90109890153872
 30
0.0
  0
VERTEX
  5
285
100
AcDbEntity
  8
0
370
              15
  6
Continuous
 62
               7
100
AcDbVertex
100
AcDb2dVertex
 10
-42.149494230725338
 20
401.76080300993863
 30
0.0
  0
VERTEX
  5
286
100
AcDbEntity
  8
0
370
              15
  6
Continuous
 62
               7
100
AcDbVertex
100
AcDb2dVertex
 10
-41.74472194892536
 20
401.64382916553859
 30
0.0
  0
SEQEND
  5
287
100
AcDbEntity
  8
0
370
              15
  6
Continuous
 62
               7
  0
ARC
  5
288
100
AcDbEntity
  8
0
370
              15
  6
Continuous
 62
               7
100
AcDbCircle
 10
0.2561371980746685
 20
480.7535649377387
 30
0.0
 40
1.6452594196393269
100
AcDbArc
 50
75.888125310998618
 51
109.8858154262002
  0
POLYLINE
  5
289
100
AcDbEntity
  8
0
370
              15
  6
Continuous
 62
               7
100
AcDb2dPolyline
 66
               1
 10
0.0
 20
0.0
 30
0.0
 75
               5
  0
VERTEX
  5
28A
100
AcDbEntity
  8
0
370
              15
  6
Continuous
 62
               7
100
AcDbVertex
100
AcDb2dVertex
 10
52.496700004274601
 20
468.20921242013856
 30
0.0
  0
VERTEX
  5
28B
100
AcDbEntity
  8
0
370
              15
  6
Continuous
 62
               7
100
AcDbVertex
100
AcDb2dVertex
 10
52.473712847074523
 20
468.09084232973873
 30
0.0
  0
VERTEX
  5
28C
100
AcDbEntity
  8
0
370
              15
  6
Continuous
 62
               7
100
AcDbVertex
100
AcDb2dVertex
 10
52.344077526874628
 20
467.91687327653858
 30
0.0
  0
VERTEX
  5
28D
100
AcDbEntity
  8
0
370
              15
  6
Continuous
 62
               7
100
AcDbVertex
100
AcDb2dVertex
 10
52.105058150674552
 20
467.75101599833874
 30
0.0
  0
VERTEX
  5
28E
100
AcDbEntity
  8
0
370
              15
  6
Continuous
 62
               7
100
AcDbVertex
100
AcDb2dVertex
 10
51.765844617674531
 20
467.59964245933861
 30
0.0
  0
SEQEND
  5
28F
100
AcDbEntity
  8
0
370
              15
  6
Continuous
 62
               7
  0
POLYLINE
  5
290
100
AcDbEntity
  8
0
370
              15
  6
Continuous
 62
               7
100
AcDb2dPolyline
 66
               1
 10
0.0
 20
0.0
 30
0.0
 75
               5
  0
VERTEX
  5
291
100
AcDbEntity
  8
0
370
              15
  6
Continuous
 62
               7
100
AcDbVertex
100
AcDb2dVertex
 10
53.434199567674625
 20
406.04461981873874
 30
0.0
  0
VERTEX
  5
292
100
AcDbEntity
  8
0
370
              15
  6
Continuous
 62
               7
100
AcDbVertex
100
AcDb2dVertex
 10
53.773413100874734
 20
406.19599335773864
 30
0.0
  0
VERTEX
  5
293
100
AcDbEntity
  8
0
370
              15
  6
Continuous
 62
               7
100
AcDbVertex
100
AcDb2dVertex
 10
54.012432476874721
 20
406.36185063593871
 30
0.0
  0
VERTEX
  5
294
100
AcDbEntity
  8
0
370
              15
  6
Continuous
 62
               7
100
AcDbVertex
100
AcDb2dVertex
 10
54.142067797074617
 20
406.53581968913863
 30
0.0
  0
VERTEX
  5
295
100
AcDbEntity
  8
0
370
              15
  6
Continuous
 62
               7
100
AcDbVertex
100
AcDb2dVertex
 10
54.165054954274694
 20
406.65418977973877
 30
0.0
  0
SEQEND
  5
296
100
AcDbEntity
  8
0
370
              15
  6
Continuous
 62
               7
  0
LINE
  5
297
100
AcDbEntity
  8
0
370
              15
  6
Continuous
 62
               7
100
AcDbLine
 10
54.766549084474548
 20
402.0579947705387
 30
0.0
 11
50.370883682274609
 21
403.08186538233872
 31
0.0
  0
LINE
  5
298
100
AcDbEntity
  8
0
370
              15
  6
Continuous
 62
               7
100
AcDbLine
 10
-38.938985121125313
 20
399.09090307253859
 30
0.0
 11
-43.170851885925401
 21
397.52966021993871
 31
0.0
  0
POLYLINE
  5
299
100
AcDbEntity
  8
0
370
              15
  6
Continuous
 62
               7
100
AcDb2dPolyline
 66
               1
 10
0.0
 20
0.0
 30
0.0
 75
               5
  0
VERTEX
  5
29A
100
AcDbEntity
  8
0
370
              15
  6
Continuous
 62
               7
100
AcDbVertex
100
AcDb2dVertex
 10
-43.438587970325386
 20
396.74973911813868
 30
0.0
  0
VERTEX
  5
29B
100
AcDbEntity
  8
0
370
              15
  6
Continuous
 62
               7
100
AcDbVertex
100
AcDb2dVertex
 10
-43.567603831925396
 20
396.78702280093876
 30
0.0
  0
VERTEX
  5
29C
100
AcDbEntity
  8
0
370
              15
  6
Continuous
 62
               7
100
AcDbVertex
100
AcDb2dVertex
 10
-43.667627826725436
 20
396.83174105773878
 30
0.0
  0
VERTEX
  5
29D
100
AcDbEntity
  8
0
370
              15
  6
Continuous
 62
               7
100
AcDbVertex
100
AcDb2dVertex
 10
-43.734813346925364
 20
396.88217378253876
 30
0.0
  0
VERTEX
  5
29E
100
AcDbEntity
  8
0
370
              15
  6
Continuous
 62
               7
100
AcDbVertex
100
AcDb2dVertex
 10
-43.766586199725396
 20
396.93638400473856
 30
0.0
  0
VERTEX
  5
29F
100
AcDbEntity
  8
0
370
              15
  6
Continuous
 62
               7
100
AcDbVertex
100
AcDb2dVertex
 10
-43.768529629325428
 20
396.94725263353871
 30
0.0
  0
SEQEND
  5
2A0
100
AcDbEntity
  8
0
370
              15
  6
Continuous
 62
               7
  0
ARC
  5
2A1
100
AcDbEntity
  8
0
370
              15
  6
Continuous
 62
               7
100
AcDbCircle
 10
-43.237700422325304
 20
397.26361766793866
 30
0.0
 40
0.2743125338432229
100
AcDbArc
 50
75.895286783108432
 51
109.87946884179421
  0
ARC
  5
2A2
100
AcDbEntity
  8
0
370
              15
  6
Continuous
 62
               7
100
AcDbCircle
 10
54.845560714274654
 20
401.85860480793872
 30
0.0
 40
0.2144742287897415
100
AcDbArc
 50
77.24647022749663
 51
111.61678060410834
  0
POLYLINE
  5
2A3
100
AcDbEntity
  8
0
370
              15
  6
Continuous
 62
               7
100
AcDb2dPolyline
 66
               1
 10
0.0
 20
0.0
 30
0.0
 75
               5
  0
VERTEX
  5
2A4
100
AcDbEntity
  8
0
370
              15
  6
Continuous
 62
               7
100
AcDbVertex
100
AcDb2dVertex
 10
55.436628343074574
 20
401.50650637213857
 30
0.0
  0
VERTEX
  5
2A5
100
AcDbEntity
  8
0
370
              15
  6
Continuous
 62
               7
100
AcDbVertex
100
AcDb2dVertex
 10
55.429354750274626
 20
401.46723040173856
 30
0.0
  0
VERTEX
  5
2A6
100
AcDbEntity
  8
0
370
              15
  6
Continuous
 62
               7
100
AcDbVertex
100
AcDb2dVertex
 10
55.388036867274707
 20
401.41178080153873
 30
0.0
  0
VERTEX
  5
2A7
100
AcDbEntity
  8
0
370
              15
  6
Continuous
 62
               7
100
AcDbVertex
100
AcDb2dVertex
 10
55.311853142474604
 20
401.35891522333873
 30
0.0
  0
VERTEX
  5
2A8
100
AcDbEntity
  8
0
370
              15
  6
Continuous
 62
               7
100
AcDbVertex
100
AcDb2dVertex
 10
55.203733177674678
 20
401.31066708413869
 30
0.0
  0
SEQEND
  5
2A9
100
AcDbEntity
  8
0
370
              15
  6
Continuous
 62
               7
  0
ENDBLK
  5
2AA
100
AcDbEntity
  8
一般
100
AcDbBlockEnd
  0
ENDSEC
  0
SECTION
  2
ENTITIES
  0
MTEXT
  5
2AB
100
AcDbEntity
  8
0
 62
               7
100
AcDbMText
 10
261.04670212314932
 20
65.521684027777781
 30
0.0
 40
3.0316840277777772
 41
0.0
 71
               1
 72
               1
  1
HBC-D62P^I\PHBC-D62B^I\PHBC-D62E
  7
Arial
 73
               1
 44
0.9673603504928806
  0
INSERT
  5
2AC
100
AcDbEntity
  8
一般
 62
               7
100
AcDbBlockReference
  2
*U0
 10
210.0
 20
148.5
 30
0.0
 41
0.2
 42
0.2
 43
0.2
  0
ENDSEC
  0
SECTION
  2
OBJECTS
  0
DICTIONARY
  5
19
100
AcDbDictionary
280
               0
281
               1
  3
ACAD_GROUP
350
1A
  3
ACAD_MLINESTYLE
350
1B
  3
ACAD_LAYOUT
350
1E
  3
ACAD_PLOTSETTINGS
350
22
  3
ACAD_PLOTSTYLENAME
350
1F
  3
ACAD_WIPEOUT_VARS
350
23
  0
DICTIONARY
  5
1A
102
{ACAD_REACTORS
330
19
102
}
100
AcDbDictionary
280
               0
281
               1
  0
DICTIONARY
  5
1B
102
{ACAD_REACTORS
330
19
102
}
100
AcDbDictionary
280
               0
281
               1
  3
Standard
350
1C
  0
MLINESTYLE
  5
1C
102
{ACAD_REACTORS
330
1B
102
}
100
AcDbMlineStyle
  2
Standard
 70
               0
  3

 62
               0
 51
90.0
 52
90.0
 71
               2
 49
0.5
 62
             256
  6
ByLayer
 49
-0.5
 62
             256
  6
ByLayer
  0
ACDBDICTIONARYWDFLT
  5
1F
102
{ACAD_REACTORS
330
19
102
}
100
AcDbDictionary
281
               1
  3
Normal
350
1D
100
AcDbDictionaryWithDefault
340
1D
  0
ACDBPLACEHOLDER
  5
1D
102
{ACAD_REACTORS
330
1F
102
}
  0
LAYOUT
  5
20
102
{ACAD_REACTORS
330
1E
102
}
100
AcDbPlotSettings
  1

  2

  4

  6

 40
0.0
 41
0.0
 42
0.0
 43
0.0
 44
0.0
 45
0.0
 46
0.0
 47
0.0
 48
0.0
 49
0.0
140
0.0
141
0.0
142
1.0
143
1.0
 70
            1024
 72
               0
 73
               0
 74
               0
  7

 75
               0
147
1.0
148
0.0
149
0.0
100
AcDbLayout
  1
Model
 70
               0
 71
               0
 10
0.0
 20
0.0
 11
0.0
 21
0.0
 12
0.0
 22
0.0
 32
0.0
 14
0.0
 24
0.0
 34
0.0
 15
0.0
 25
0.0
 35
0.0
146
0.0
 13
0.0
 23
0.0
 33
0.0
 16
0.0
 26
0.0
 36
0.0
 17
0.0
 27
0.0
 37
0.0
 76
               0
330
A
331
0
345
0
346
0
  0
LAYOUT
  5
21
102
{ACAD_REACTORS
330
1E
102
}
100
AcDbPlotSettings
  1

  2

  4

  6

 40
0.0
 41
0.0
 42
0.0
 43
0.0
 44
0.0
 45
0.0
 46
0.0
 47
0.0
 48
0.0
 49
0.0
140
0.0
141
0.0
142
1.0
143
1.0
 70
               0
 72
               0
 73
               0
 74
               0
  7

 75
               0
147
1.0
148
0.0
149
0.0
100
AcDbLayout
  1
Layout1
 70
               0
 71
               0
 10
0.0
 20
0.0
 11
0.0
 21
0.0
 12
0.0
 22
0.0
 32
0.0
 14
0.0
 24
0.0
 34
0.0
 15
0.0
 25
0.0
 35
0.0
146
0.0
 13
0.0
 23
0.0
 33
0.0
 16
0.0
 26
0.0
 36
0.0
 17
0.0
 27
0.0
 37
0.0
 76
               0
330
B
331
0
345
0
346
0
  0
DICTIONARY
  5
1E
102
{ACAD_REACTORS
330
19
102
}
100
AcDbDictionary
280
               0
281
               1
  3
Layout1
350
21
  3
Model
350
20
  0
DICTIONARY
  5
22
102
{ACAD_REACTORS
330
19
102
}
100
AcDbDictionary
280
               0
281
               1
  0
WIPEOUTVARIABLES
  5
23
100
AcDbWipeoutVariables
 70
               1
  0
ENDSEC
  0
EOF
