  0
SECTION
  2
HEADER
  9
$ACADVER
  1
AC1015
  9
$ACADMAINTVER
 70
               6
  9
$DWGCODEPAGE
  3
ANSI_932
  9
$INSBASE
 10
0.0
 20
0.0
 30
0.0
  9
$EXTMIN
 10
261.04670212314932
 20
50.519554381625213
 30
0.0
  9
$EXTMAX
 10
293.42132632545184
 20
66.299999999999997
 30
0.0
  9
$LIMMIN
 10
0.0
 20
0.0
  9
$LIMMAX
 10
0.0
 20
0.0
  9
$ORTHOMODE
 70
               0
  9
$REGENMODE
 70
               1
  9
$FILLMODE
 70
               1
  9
$QTEXTMODE
 70
               0
  9
$MIRRTEXT
 70
               1
  9
$LTSCALE
 40
5.0800000000000001
  9
$ATTMODE
 70
               1
  9
$TEXTSIZE
 40
0.2
  9
$TRACEWID
 40
1.0
  9
$TEXTSTYLE
  7
Standard
  9
$CLAYER
  8
0
  9
$CELTYPE
  6
Continuous
  9
$CECOLOR
 62
             256
  9
$CELTSCALE
 40
1.0
  9
$DISPSILH
 70
               0
  9
$DIMSCALE
 40
1.0
  9
$DIMASZ
 40
0.18
  9
$DIMEXO
 40
0.0625
  9
$DIMDLI
 40
0.38
  9
$DIMRND
 40
0.0
  9
$DIMDLE
 40
0.0
  9
$DIMEXE
 40
0.18
  9
$DIMTP
 40
0.0
  9
$DIMTM
 40
0.0
  9
$DIMTXT
 40
0.18
  9
$DIMCEN
 40
0.09
  9
$DIMTSZ
 40
0.0
  9
$DIMTOL
 70
               0
  9
$DIMLIM
 70
               0
  9
$DIMTIH
 70
               1
  9
$DIMTOH
 70
               1
  9
$DIMSE1
 70
               0
  9
$DIMSE2
 70
               0
  9
$DIMTAD
 70
               0
  9
$DIMZIN
 70
               0
  9
$DIMBLK
  1

  9
$DIMASO
 70
               1
  9
$DIMSHO
 70
               1
  9
$DIMPOST
  1

  9
$DIMAPOST
  1

  9
$DIMALT
 70
               0
  9
$DIMALTD
 70
               2
  9
$DIMALTF
 40
25.399999999999999
  9
$DIMLFAC
 40
1.0
  9
$DIMTOFL
 70
               0
  9
$DIMTVP
 40
0.0
  9
$DIMTIX
 70
               0
  9
$DIMSOXD
 70
               0
  9
$DIMSAH
 70
               0
  9
$DIMBLK1
  1

  9
$DIMBLK2
  1

  9
$DIMSTYLE
  2
Standard
  9
$DIMCLRD
 70
               0
  9
$DIMCLRE
 70
               0
  9
$DIMCLRT
 70
               0
  9
$DIMTFAC
 40
1.0
  9
$DIMGAP
 40
0.09
  9
$DIMJUST
 70
               0
  9
$DIMSD1
 70
               0
  9
$DIMSD2
 70
               0
  9
$DIMTOLJ
 70
               1
  9
$DIMTZIN
 70
               0
  9
$DIMALTZ
 70
               0
  9
$DIMALTTZ
 70
               0
  9
$DIMUPT
 70
               0
  9
$DIMDEC
 70
               4
  9
$DIMTDEC
 70
               4
  9
$DIMALTU
 70
               2
  9
$DIMALTTD
 70
               2
  9
$DIMTXSTY
  7
Standard
  9
$DIMAUNIT
 70
               0
  9
$DIMADEC
 70
               0
  9
$DIMALTRND
 40
0.0
  9
$DIMAZIN
 70
               0
  9
$DIMDSEP
 70
               0
  9
$DIMATFIT
 70
               3
  9
$DIMFRAC
 70
               0
  9
$DIMLDRBLK
  1

  9
$DIMLUNIT
 70
               2
  9
$DIMLWD
 70
               0
  9
$DIMLWE
 70
               0
  9
$DIMTMOVE
 70
               0
  9
$LUNITS
 70
               2
  9
$LUPREC
 70
               4
  9
$SKETCHINC
 40
0.1
  9
$FILLETRAD
 40
0.0
  9
$AUNITS
 70
               0
  9
$AUPREC
 70
               0
  9
$MENU
  1
acad
  9
$ELEVATION
 40
0.0
  9
$PELEVATION
 40
0.0
  9
$THICKNESS
 40
0.0
  9
$LIMCHECK
 70
               0
  9
$CHAMFERA
 40
0.0
  9
$CHAMFERB
 40
0.0
  9
$CHAMFERC
 40
0.0
  9
$CHAMFERD
 40
0.0
  9
$SKPOLY
 70
               0
  9
$TDCREATE
 40
2458068.659814815
  9
$TDUCREATE
 40
0.000000000
  9
$TDUPDATE
 40
2458068.659814815
  9
$TDUUPDATE
 40
0.000000000
  9
$TDINDWG
 40
0.0000000000
  9
$TDUSRTIMER
 40
0.0000000000
  9
$USRTIMER
 70
               1
  9
$ANGBASE
 50
0.0
  9
$ANGDIR
 70
               0
  9
$PDMODE
 70
               1
  9
$PDSIZE
 40
-2.0
  9
$PLINEWID
 40
0.0
  9
$SPLFRAME
 70
               0
  9
$SPLINETYPE
 70
               6
  9
$SPLINESEGS
 70
               8
  9
$HANDSEED
  5
1C9
  9
$SURFTAB1
 70
               6
  9
$SURFTAB2
 70
               6
  9
$SURFTYPE
 70
               6
  9
$SURFU
 70
               6
  9
$SURFV
 70
               6
  9
$UCSBASE
  2

  9
$UCSNAME
  2

  9
$UCSORG
 10
0.0
 20
0.0
 30
0.0
  9
$UCSXDIR
 10
1.0
 20
0.0
 30
0.0
  9
$UCSYDIR
 10
0.0
 20
1.0
 30
0.0
  9
$UCSORTHOREF
  2

  9
$UCSORTHOVIEW
 70
               0
  9
$UCSORGTOP
 10
0.0
 20
0.0
 30
0.0
  9
$UCSORGBOTTOM
 10
0.0
 20
0.0
 30
0.0
  9
$UCSORGLEFT
 10
0.0
 20
0.0
 30
0.0
  9
$UCSORGRIGHT
 10
0.0
 20
0.0
 30
0.0
  9
$UCSORGFRONT
 10
0.0
 20
0.0
 30
0.0
  9
$UCSORGBACK
 10
0.0
 20
0.0
 30
0.0
  9
$PUCSBASE
  2

  9
$PUCSNAME
  2

  9
$PUCSORG
 10
0.0
 20
0.0
 30
0.0
  9
$PUCSXDIR
 10
1.0
 20
0.0
 30
0.0
  9
$PUCSYDIR
 10
0.0
 20
1.0
 30
0.0
  9
$PUCSORTHOREF
  2

  9
$PUCSORTHOVIEW
 70
               0
  9
$PUCSORGTOP
 10
0.0
 20
0.0
 30
0.0
  9
$PUCSORGBOTTOM
 10
0.0
 20
0.0
 30
0.0
  9
$PUCSORGLEFT
 10
0.0
 20
0.0
 30
0.0
  9
$PUCSORGRIGHT
 10
0.0
 20
0.0
 30
0.0
  9
$PUCSORGFRONT
 10
0.0
 20
0.0
 30
0.0
  9
$PUCSORGBACK
 10
0.0
 20
0.0
 30
0.0
  9
$USERI1
 70
               0
  9
$USERI2
 70
               0
  9
$USERI3
 70
               0
  9
$USERI4
 70
               0
  9
$USERI5
 70
               0
  9
$USERR1
 40
0.0
  9
$USERR2
 40
0.0
  9
$USERR3
 40
0.0
  9
$USERR4
 40
0.0
  9
$USERR5
 40
0.0
  9
$WORLDVIEW
 70
               1
  9
$SHADEDGE
 70
               3
  9
$SHADEDIF
 70
              70
  9
$TILEMODE
 70
               1
  9
$MAXACTVP
 70
              16
  9
$PINSBASE
 10
0.0
 20
0.0
 30
0.0
  9
$PLIMCHECK
 70
               0
  9
$PEXTMIN
 10
1.0000000000000000E+20
 20
1.0000000000000000E+20
 30
1.0000000000000000E+20
  9
$PEXTMAX
 10
-1.0000000000000000E+20
 20
-1.0000000000000000E+20
 30
-1.0000000000000000E+20
  9
$PLIMMIN
 10
0.0
 20
0.0
  9
$PLIMMAX
 10
12.0
 20
9.0
  9
$UNITMODE
 70
               0
  9
$VISRETAIN
 70
               0
  9
$PLINEGEN
 70
               1
  9
$PSLTSCALE
 70
               0
  9
$TREEDEPTH
 70
            3020
  9
$CMLSTYLE
  2
Standard
  9
$CMLJUST
 70
               0
  9
$CMLSCALE
 40
1.0
  9
$PROXYGRAPHICS
 70
               0
  9
$MEASUREMENT
 70
               1
  9
$CELWEIGHT
370
               0
  9
$ENDCAPS
280
               0
  9
$JOINSTYLE
280
               0
  9
$LWDISPLAY
290
               1
  9
$INSUNITS
 70
               4
  9
$HYPERLINKBASE
  1

  9
$STYLESHEET
  1

  9
$XEDIT
290
               1
  9
$CEPSNTYPE
380
               0
  9
$PSTYLEMODE
290
               1
  9
$FINGERPRINTGUID
  2

  9
$VERSIONGUID
  2

  9
$EXTNAMES
290
               1
  9
$PSVPSCALE
 40
0.0
  0
ENDSEC
  0
SECTION
  2
CLASSES
  0
CLASS
  1
LWPOLYLINE
  2
AcDbPolyline
  3
AutoCAD 2000
 90
    32768
280
               0
281
               1
  0
CLASS
  1
IMAGE
  2
AcDbRasterImage
  3
ISM
 90
    32895
280
               0
281
               1
  0
CLASS
  1
OLE2FRAME
  2
AcDbOle2Frame
  3
AutoCAD 2000
 90
    32768
280
               0
281
               1
  0
CLASS
  1
HATCH
  2
AcDbHatch
  3
AutoCAD 2000
 90
    32768
280
               0
281
               1
  0
CLASS
  1
DICTIONARYVAR
  2
AcDbDictionaryVar
  3
AutoCAD 2000
 90
    32768
280
               0
281
               0
  0
CLASS
  1
RASTERVARIABLES
  2
AcDbRasterVariables
  3
ISM
 90
    32768
280
               0
281
               0
  0
CLASS
  1
IMAGEDEF
  2
AcDbRasterImageDef
  3
ISM
 90
    32768
280
               0
281
               0
  0
CLASS
  1
IMAGEDEF_REACTOR
  2
AcDbRasterImageDefReactor
  3
ISM
 90
    32769
280
               0
281
               0
  0
CLASS
  1
IDBUFFER
  2
AcDbIdBuffer
  3
AutoCAD 2000
 90
    32768
280
               0
281
               0
  0
CLASS
  1
SPATIAL_FILTER
  2
AcDbSpatialFilter
  3
AutoCAD 2000
 90
    32768
280
               0
281
               0
  0
CLASS
  1
XRECORD
  2
AcDbXrecord
  3
AutoCAD 2000
 90
    32768
280
               0
281
               0
  0
CLASS
  1
SORTENTSTABLE
  2
AcDbSortentsTable
  3
AutoCAD 2000
 90
    32768
280
               0
281
               0
  0
CLASS
  1
LAYER_INDEX
  2
AcDbLayerIndex
  3
AutoCAD 2000
 90
    32768
280
               0
281
               0
  0
CLASS
  1
SPATIAL_INDEX
  2
AcDbSpatialIndex
  3
AutoCAD 2000
 90
    32768
280
               0
281
               0
  0
CLASS
  1
OBJECT_PTR
  2
CAseDLPNTableRecord
  3
"ASE-LPNTableRecord"
 90
    32769
280
               0
281
               0
  0
CLASS
  1
LAYOUT
  2
AcDbLayout
  3
AutoCAD 2000
 90
        0
280
               0
281
               0
  0
CLASS
  1
PLOTSETTINGS
  2
AcDbPlotSettings
  3
AutoCAD 2000
 90
    32768
280
               0
281
               0
  0
CLASS
  1
ACDBDICTIONARYWDFLT
  2
AcDbDictionaryWithDefault
  3
AutoCAD 2000
 90
        0
280
               0
281
               0
  0
CLASS
  1
ACDBPLACEHOLDER
  2
AcDbPlaceHolder
  3
AutoCAD 2000
 90
        0
280
               0
281
               0
  0
CLASS
  1
VBA_PROJECT
  2
AcDbVbaProject
  3
acadvba
 90
    32768
280
               0
281
               0
  0
CLASS
  1
WIPEOUT
  2
AcDbWipeout
  3
WipeOut|AutoCAD Express Tool|expresstools@autodesk.com
 90
    32895
280
               0
281
               1
  0
CLASS
  1
WIPEOUTVARIABLES
  2
AcDbWipeoutVariables
  3
WipeOut|AutoCAD Express Tool|expresstools@autodesk.com
 90
        0
280
               0
281
               0
  0
CLASS
  1
RTEXT
  2
RText
  3
RText|AutoCAD Express Tool|expresstools@autodesk.com
 90
    32768
280
               0
281
               1
  0
CLASS
  1
ARCALIGNEDTEXT
  2
AcDbArcAlignedText
  3
ATEXT|AutoCAD Express Tool|expresstools@autodesk.com
 90
    32768
280
               0
281
               1
  0
ENDSEC
  0
SECTION
  2
TABLES
  0
TABLE
  2
VPORT
  5
7
100
AcDbSymbolTable
 70
               1
  0
VPORT
  5
15
100
AcDbSymbolTableRecord
100
AcDbViewportTableRecord
  2
*ACTIVE
 70
               0
 10
0.0
 20
0.0
 11
1.0
 21
1.0
 12
277.23401422430061
 22
58.409777190812605
 13
0.0
 23
0.0
 14
1.0
 24
1.0
 15
0.0
 25
0.0
 16
0.0
 26
0.0
 36
1.0
 17
0.0
 27
0.0
 37
0.0
 40
15.780445618374785
 41
0.688564
 42
50.0
 43
0.0
 44
0.0
 50
0.0
 51
0.0
 71
               0
 72
             100
 73
               1
 74
               1
 75
               0
 76
               0
 77
               0
 78
               0
281
               0
 65
               0
110
0.0
120
0.0
130
0.0
111
1.0
121
0.0
131
0.0
112
0.0
122
1.0
132
0.0
345
0
346
0
 79
               0
146
0.0
  0
ENDTAB
  0
TABLE
  2
LTYPE
  5
4
100
AcDbSymbolTable
 70
              14
  0
LTYPE
  5
11
100
AcDbSymbolTableRecord
100
AcDbLinetypeTableRecord
  2
ByBlock
 70
              64
  3

 72
              65
 73
               0
 40
0.0
  0
LTYPE
  5
12
100
AcDbSymbolTableRecord
100
AcDbLinetypeTableRecord
  2
ByLayer
 70
              64
  3

 72
              65
 73
               0
 40
0.0
  0
LTYPE
  5
13
100
AcDbSymbolTableRecord
100
AcDbLinetypeTableRecord
  2
Continuous
 70
              64
  3
Solid line
 72
              65
 73
               0
 40
0.0
  0
LTYPE
  5
26
100
AcDbSymbolTableRecord
100
AcDbLinetypeTableRecord
  2
STYLE_01
 70
               0
  3

 72
              65
 73
               2
 40
0.075
 49
0.05
 74
               0
 49
-0.025
 74
               0
  0
LTYPE
  5
27
100
AcDbSymbolTableRecord
100
AcDbLinetypeTableRecord
  2
STYLE_02
 70
               0
  3

 72
              65
 73
               6
 40
0.4999999999999999
 49
0.25
 74
               0
 49
-0.05
 74
               0
 49
0.05
 74
               0
 49
-0.05
 74
               0
 49
0.05
 74
               0
 49
-0.05
 74
               0
  0
LTYPE
  5
28
100
AcDbSymbolTableRecord
100
AcDbLinetypeTableRecord
  2
STYLE_03
 70
               0
  3

 72
              65
 73
               4
 40
0.3999999999999999
 49
0.25
 74
               0
 49
-0.05
 74
               0
 49
0.05
 74
               0
 49
-0.05
 74
               0
  0
LTYPE
  5
29
100
AcDbSymbolTableRecord
100
AcDbLinetypeTableRecord
  2
STYLE_04
 70
               0
  3

 72
              65
 73
               4
 40
0.7999999999999998
 49
0.4999999999999999
 74
               0
 49
-0.1
 74
               0
 49
0.1
 74
               0
 49
-0.1
 74
               0
  0
LTYPE
  5
2A
100
AcDbSymbolTableRecord
100
AcDbLinetypeTableRecord
  2
STYLE_05
 70
               0
  3

 72
              65
 73
               2
 40
0.025
 49
0.0005
 74
               0
 49
-0.0245
 74
               0
  0
LTYPE
  5
2B
100
AcDbSymbolTableRecord
100
AcDbLinetypeTableRecord
  2
STYLE_06
 70
               0
  3

 72
              65
 73
               4
 40
1.0416400000000001
 49
0.625
 74
               0
 49
-0.20828
 74
               0
 49
0.06943
 74
               0
 49
-0.13893
 74
               0
  0
LTYPE
  5
2C
100
AcDbSymbolTableRecord
100
AcDbLinetypeTableRecord
  2
STYLE_07
 70
               0
  3

 72
              65
 73
               6
 40
1.875
 49
0.625
 74
               0
 49
-0.20828
 74
               0
 49
0.6250000000000001
 74
               0
 49
-0.2083599999999999
 74
               0
 49
0.06943
 74
               0
 49
-0.1389299999999999
 74
               0
  0
LTYPE
  5
2D
100
AcDbSymbolTableRecord
100
AcDbLinetypeTableRecord
  2
STYLE_08
 70
               0
  3

 72
              65
 73
               6
 40
1.25
 49
0.625
 74
               0
 49
-0.20828
 74
               0
 49
0.06943
 74
               0
 49
-0.13893
 74
               0
 49
0.0694299999999999
 74
               0
 49
-0.13893
 74
               0
  0
LTYPE
  5
2E
100
AcDbSymbolTableRecord
100
AcDbLinetypeTableRecord
  2
STYLE_09
 70
               0
  3

 72
              65
 73
               4
 40
5.0
 49
3.75
 74
               0
 49
-0.2777849999999998
 74
               0
 49
0.6944300000000003
 74
               0
 49
-0.2777849999999998
 74
               0
  0
LTYPE
  5
2F
100
AcDbSymbolTableRecord
100
AcDbLinetypeTableRecord
  2
STYLE_10
 70
               0
  3

 72
              65
 73
               6
 40
5.9375
 49
3.75
 74
               0
 49
-0.2777849999999998
 74
               0
 49
0.6944300000000003
 74
               0
 49
-0.2777849999999998
 74
               0
 49
0.625
 74
               0
 49
-0.3125
 74
               0
  0
LTYPE
  5
30
100
AcDbSymbolTableRecord
100
AcDbLinetypeTableRecord
  2
STYLE_11
 70
               0
  3

 72
              65
 73
               2
 40
0.1875
 49
0.125
 74
               0
 49
-0.0625
 74
               0
  0
ENDTAB
  0
TABLE
  2
LAYER
  5
2
100
AcDbSymbolTable
 70
               6
  0
LAYER
  5
14
100
AcDbSymbolTableRecord
100
AcDbLayerTableRecord
  2
0
 70
               0
 62
               7
  6
Continuous
290
               1
370
              15
390
1D
  0
LAYER
  5
31
100
AcDbSymbolTableRecord
100
AcDbLayerTableRecord
  2
Defpoints
 70
               0
 62
               7
  6
Continuous
290
               0
370
              -3
390
1D
  0
LAYER
  5
32
100
AcDbSymbolTableRecord
100
AcDbLayerTableRecord
  2
一般
 70
               0
 62
               7
  6
Continuous
290
               1
370
               5
390
1D
  0
LAYER
  5
33
100
AcDbSymbolTableRecord
100
AcDbLayerTableRecord
  2
寸法
 70
               0
 62
               7
  6
Continuous
290
               1
370
               5
390
1D
  0
LAYER
  5
34
100
AcDbSymbolTableRecord
100
AcDbLayerTableRecord
  2
レイヤー_1
 70
               0
 62
              19
  6
Continuous
290
               1
370
              15
390
1D
  0
LAYER
  5
35
100
AcDbSymbolTableRecord
100
AcDbLayerTableRecord
  2
FORMAT
 70
               0
 62
               7
  6
Continuous
290
               1
370
              15
390
1D
  0
ENDTAB
  0
TABLE
  2
STYLE
  5
3
100
AcDbSymbolTable
 70
               2
  0
STYLE
  5
17
100
AcDbSymbolTableRecord
100
AcDbTextStyleTableRecord
  2
Standard
 70
               0
 40
0.0
 41
1.0
 50
0.0
 71
               0
 42
0.0
  3
txt
  4
BIGFONT.SHX
  0
STYLE
  5
25
100
AcDbSymbolTableRecord
100
AcDbTextStyleTableRecord
  2
Arial
 70
               0
 40
0.0
 41
1.0
 50
0.0
 71
               0
 42
0.0
  3
Arial
  4

1001
ACAD
1000
Arial
1071
        0
  0
ENDTAB
  0
TABLE
  2
VIEW
  5
5
100
AcDbSymbolTable
 70
               0
  0
ENDTAB
  0
TABLE
  2
UCS
  5
6
100
AcDbSymbolTable
 70
               0
  0
ENDTAB
  0
TABLE
  2
APPID
  5
8
100
AcDbSymbolTable
 70
               1
  0
APPID
  5
16
100
AcDbSymbolTableRecord
100
AcDbRegAppTableRecord
  2
ACAD
 70
               0
  0
ENDTAB
  0
TABLE
  2
DIMSTYLE
  5
9
100
AcDbSymbolTable
 70
               1
100
AcDbDimStyleTable
 71
               0
  0
DIMSTYLE
105
18
100
AcDbSymbolTableRecord
100
AcDbDimStyleTableRecord
  2
Standard
 70
               0
  3

  4

 40
1.0
 41
0.18
 42
0.0625
 43
0.38
 44
0.18
 45
0.0
 46
0.0
 47
0.0
 48
0.0
 71
               0
 72
               0
 73
               1
 74
               1
 75
               0
 76
               0
 77
               0
 78
               0
 79
               0
140
0.18
141
0.09
142
0.0
143
25.399999999999999
144
1.0
145
0.0
146
1.0
147
0.09
148
0.0
170
               0
171
               2
172
               0
173
               0
174
               0
175
               0
176
               0
177
               0
178
               0
179
               0
271
               4
272
               4
273
               2
274
               2
275
               0
276
               0
277
               2
278
              46
279
               0
280
               0
281
               0
282
               0
283
               1
284
               0
285
               0
286
               0
288
               0
340
17
341
0
342
0
343
0
344
0
371
              -2
372
              -2
  0
ENDTAB
  0
TABLE
  2
BLOCK_RECORD
  5
1
100
AcDbSymbolTable
 70
               1
  0
BLOCK_RECORD
  5
A
100
AcDbSymbolTableRecord
100
AcDbBlockTableRecord
  2
*MODEL_SPACE
340
20
  0
BLOCK_RECORD
  5
B
100
AcDbSymbolTableRecord
100
AcDbBlockTableRecord
  2
*PAPER_SPACE
340
21
  0
BLOCK_RECORD
  5
24
100
AcDbSymbolTableRecord
100
AcDbBlockTableRecord
  2
*U0
340
0
102
{BLKREFS
331
1C8
102
}
  0
ENDTAB
  0
ENDSEC
  0
SECTION
  2
BLOCKS
  0
BLOCK
  5
D
100
AcDbEntity
  8
0
100
AcDbBlockBegin
  2
*MODEL_SPACE
 70
               0
 10
0.0
 20
0.0
 30
0.0
  3
*MODEL_SPACE
  1

  0
ENDBLK
  5
E
100
AcDbEntity
  8
0
100
AcDbBlockEnd
  0
BLOCK
  5
F
100
AcDbEntity
 67
               1
  8
0
100
AcDbBlockBegin
  2
*PAPER_SPACE
 70
               0
 10
0.0
 20
0.0
 30
0.0
  3
*PAPER_SPACE
  1

  0
ENDBLK
  5
10
100
AcDbEntity
 67
               1
  8
0
100
AcDbBlockEnd
  0
BLOCK
  5
36
100
AcDbEntity
  8
一般
100
AcDbBlockBegin
  2
*U0
 70
               1
 10
0.0
 20
0.0
 30
0.0
  3
*U0
  1

  0
SPLINE
  5
37
100
AcDbEntity
  8
0
370
              15
  6
Continuous
 62
               7
100
AcDbSpline
210
0.0
220
0.0
230
1.0
 70
               8
 71
               2
 72
              11
 73
               8
 74
               0
 42
0.000001
 43
0.000001
 40
0.0
 40
0.0
 40
0.0
 40
1.0
 40
1.0
 40
2.0
 40
3.0
 40
3.0
 40
4.0
 40
4.0
 40
4.0
 10
-55.529754233013193
 20
197.1451273904039
 30
0.0
 10
-55.518323477101092
 20
197.00703758634404
 30
0.0
 10
-55.50689272118899
 20
196.86894778228418
 30
0.0
 10
-53.890197183705652
 20
176.41759309453795
 30
0.0
 10
-49.968915712160026
 20
149.08684746841612
 30
0.0
 10
-48.802713404290728
 20
141.56156729239177
 30
0.0
 10
-48.802607300742864
 20
141.56087786879112
 30
0.0
 10
-48.802501197194999
 20
141.56018844519048
 30
0.0
  0
SPLINE
  5
38
100
AcDbEntity
  8
0
370
              15
  6
Continuous
 62
               7
100
AcDbSpline
210
0.0
220
0.0
230
1.0
 70
               8
 71
               2
 72
              17
 73
              14
 74
               0
 42
0.000001
 43
0.000001
 40
0.0
 40
0.0
 40
0.0
 40
1.0
 40
1.0
 40
2.0
 40
3.0
 40
4.0
 40
5.0
 40
6.0
 40
7.0
 40
8.0
 40
9.0
 40
9.0
 40
10.0
 40
10.0
 40
10.0
 10
-29.378391933520845
 20
148.72623271527931
 30
0.0
 10
-29.377246621653114
 20
148.71603173524642
 30
0.0
 10
-29.376101309785383
 20
148.70583075521353
 30
0.0
 10
-29.332450441107369
 20
148.4000665950154
 30
0.0
 10
-29.364894212701131
 20
147.55071267439911
 30
0.0
 10
-30.412627615430949
 20
146.06185532691842
 30
0.0
 10
-33.502655873086098
 20
144.30314638899125
 30
0.0
 10
-37.1157422864365
 20
143.19834937245372
 30
0.0
 10
-40.189514228694009
 20
142.49853060346817
 30
0.0
 10
-44.346540131259019
 20
141.86159765336305
 30
0.0
 10
-47.70839491829912
 20
141.62189415613597
 30
0.0
 10
-48.734170976573125
 20
141.5641261303187
 30
0.0
 10
-48.768338713321953
 20
141.5621571663159
 30
0.0
 10
-48.80250645007078
 20
141.5601882023131
 30
0.0
  0
SPLINE
  5
39
100
AcDbEntity
  8
0
370
              15
  6
Continuous
 62
               7
100
AcDbSpline
210
0.0
220
0.0
230
1.0
 70
               8
 71
               2
 72
              11
 73
               8
 74
               0
 42
0.000001
 43
0.000001
 40
0.0
 40
0.0
 40
0.0
 40
1.0
 40
1.0
 40
2.0
 40
3.0
 40
3.0
 40
4.0
 40
4.0
 40
4.0
 10
-36.306266687244545
 20
201.11291145737925
 30
0.0
 10
-36.28104212614204
 20
200.98395046932808
 30
0.0
 10
-36.255817565039536
 20
200.8549894812769
 30
0.0
 10
-33.681680387356948
 20
188.0120702405406
 30
0.0
 10
-29.954714202854859
 20
162.09288299928738
 30
0.0
 10
-29.378446804188627
 20
148.72755983838391
 30
0.0
 10
-29.378419558789972
 20
148.72689705428053
 30
0.0
 10
-29.378392313391316
 20
148.72623427017714
 30
0.0
  0
SPLINE
  5
3A
100
AcDbEntity
  8
0
370
              15
  6
Continuous
 62
               7
100
AcDbSpline
210
0.0
220
0.0
230
1.0
 70
               8
 71
               2
 72
              11
 73
               8
 74
               0
 42
0.000001
 43
0.000001
 40
0.0
 40
0.0
 40
0.0
 40
1.0
 40
1.0
 40
2.0
 40
3.0
 40
3.0
 40
4.0
 40
4.0
 40
4.0
 10
-45.847818314931658
 20
197.59279135228132
 30
0.0
 10
-45.801414842371344
 20
197.61043586195603
 30
0.0
 10
-45.755011369811029
 20
197.62808037163074
 30
0.0
 10
-42.311830909391404
 20
198.94677252188887
 30
0.0
 10
-37.756772099563761
 20
200.59503163882107
 30
0.0
 10
-36.396951284504496
 20
201.0805056335945
 30
0.0
 10
-36.35160898587452
 20
201.09670854548688
 30
0.0
 10
-36.306266687244545
 20
201.11291145737925
 30
0.0
  0
SPLINE
  5
3B
100
AcDbEntity
  8
0
370
              15
  6
Continuous
 62
               7
100
AcDbSpline
210
0.0
220
0.0
230
1.0
 70
               8
 71
               2
 72
              12
 73
               9
 74
               0
 42
0.000001
 43
0.000001
 40
0.0
 40
0.0
 40
0.0
 40
1.0
 40
1.0
 40
2.0
 40
3.0
 40
4.0
 40
4.0
 40
5.0
 40
5.0
 40
5.0
 10
-48.802501197194999
 20
141.56018844519048
 30
0.0
 10
-48.802434586621473
 20
141.56088585457923
 30
0.0
 10
-48.802367976047947
 20
141.56158326396798
 30
0.0
 10
-48.24072069226537
 20
147.38804425185066
 30
0.0
 10
-46.183121672450454
 20
171.6561381992862
 30
0.0
 10
-45.876160419719611
 20
193.70979701435169
 30
0.0
 10
-45.849992858436792
 20
197.31545415131916
 30
0.0
 10
-45.848905586684225
 20
197.45412275180024
 30
0.0
 10
-45.847818314931658
 20
197.59279135228132
 30
0.0
  0
SPLINE
  5
3C
100
AcDbEntity
  8
0
370
              15
  6
Continuous
 62
               7
100
AcDbSpline
210
0.0
220
0.0
230
1.0
 70
               8
 71
               2
 72
              16
 73
              13
 74
               0
 42
0.000001
 43
0.000001
 40
0.0
 40
0.0
 40
0.0
 40
1.0
 40
1.0
 40
2.0
 40
3.0
 40
4.0
 40
5.0
 40
6.0
 40
7.0
 40
8.0
 40
8.0
 40
9.0
 40
9.0
 40
9.0
 10
-47.381230435866712
 20
199.69146081586302
 30
0.0
 10
-47.392327345730052
 20
199.68813924628489
 30
0.0
 10
-47.403424255593393
 20
199.68481767670676
 30
0.0
 10
-47.690609727146523
 20
199.59788331947914
 30
0.0
 10
-48.600568868754692
 20
199.33937152726446
 30
0.0
 10
-49.622407421527498
 20
199.20263797753648
 30
0.0
 10
-50.804364475232035
 20
199.08684703095048
 30
0.0
 10
-52.239388114767337
 20
199.10699950605465
 30
0.0
 10
-53.336587985464178
 20
199.19023070400738
 30
0.0
 10
-54.078425064837859
 20
199.32823983214314
 30
0.0
 10
-54.283216645388222
 20
199.3689983282917
 30
0.0
 10
-54.290057750184417
 20
199.37034958786103
 30
0.0
 10
-54.296898854980611
 20
199.37170084743036
 30
0.0
  0
SPLINE
  5
3D
100
AcDbEntity
  8
0
370
              15
  6
Continuous
 62
               7
100
AcDbSpline
210
0.0
220
0.0
230
1.0
 70
               8
 71
               2
 72
              16
 73
              13
 74
               0
 42
0.000001
 43
0.000001
 40
0.0
 40
0.0
 40
0.0
 40
1.0
 40
1.0
 40
2.0
 40
3.0
 40
4.0
 40
5.0
 40
6.0
 40
7.0
 40
8.0
 40
8.0
 40
9.0
 40
9.0
 40
9.0
 10
-55.529754233013193
 20
197.1451273904039
 30
0.0
 10
-55.519448282026303
 20
197.14337680243875
 30
0.0
 10
-55.509142331039413
 20
197.1416262144736
 30
0.0
 10
-55.201161785308898
 20
197.08856751642668
 30
0.0
 10
-53.964247193620224
 20
196.89464342865597
 30
0.0
 10
-52.146467284758558
 20
196.81907021733662
 30
0.0
 10
-50.703227804536539
 20
196.83848962475156
 30
0.0
 10
-49.261253602239151
 20
196.9339191108478
 30
0.0
 10
-47.641505115464781
 20
197.14065989467929
 30
0.0
 10
-46.381329797005321
 20
197.44699062445613
 30
0.0
 10
-45.881323629906376
 20
197.58373986813729
 30
0.0
 10
-45.864570972419017
 20
197.58826561020931
 30
0.0
 10
-45.847818314931658
 20
197.59279135228132
 30
0.0
  0
ARC
  5
3E
100
AcDbEntity
  8
0
370
              15
  6
Continuous
 62
               7
100
AcDbCircle
 10
-53.057133839997107
 20
197.23063883910402
 30
0.0
 40
2.4740985864273113
100
AcDbArc
 50
120.07264728099473
 51
181.98068950349756
  0
SPLINE
  5
3F
100
AcDbEntity
  8
0
370
              15
  6
Continuous
 62
               7
100
AcDbSpline
210
0.0
220
0.0
230
1.0
 70
               8
 71
               2
 72
              10
 73
               7
 74
               0
 42
0.000001
 43
0.000001
 40
0.0
 40
0.0
 40
0.0
 40
1.0
 40
1.0
 40
2.0
 40
2.0
 40
3.0
 40
3.0
 40
3.0
 10
-54.296898854980611
 20
199.37170084743036
 30
0.0
 10
-54.354674575712977
 20
199.38481130820958
 30
0.0
 10
-54.412450296445343
 20
199.39792176898879
 30
0.0
 10
-59.85285132076848
 20
200.62717940020036
 30
0.0
 10
-65.167134239208565
 20
201.90298149077546
 30
0.0
 10
-65.223769957315369
 20
201.91652063561799
 30
0.0
 10
-65.280405675422173
 20
201.93005978046051
 30
0.0
  0
SPLINE
  5
40
100
AcDbEntity
  8
0
370
              15
  6
Continuous
 62
               7
100
AcDbSpline
210
0.0
220
0.0
230
1.0
 70
               8
 71
               2
 72
              10
 73
               7
 74
               0
 42
0.000001
 43
0.000001
 40
0.0
 40
0.0
 40
0.0
 40
1.0
 40
1.0
 40
2.0
 40
2.0
 40
3.0
 40
3.0
 40
3.0
 10
-66.558909530893118
 20
199.71411910146583
 30
0.0
 10
-66.501997856405239
 20
199.70146491526441
 30
0.0
 10
-66.445086181917361
 20
199.68881072906299
 30
0.0
 10
-61.1042802620712
 20
198.51063219006562
 30
0.0
 10
-55.645704783616395
 20
197.17333945019016
 30
0.0
 10
-55.587729508314794
 20
197.15923342029703
 30
0.0
 10
-55.529754233013193
 20
197.1451273904039
 30
0.0
  0
ARC
  5
41
100
AcDbEntity
  8
0
370
              15
  6
Continuous
 62
               7
100
AcDbCircle
 10
-48.199056315797009
 20
197.48437326710393
 30
0.0
 40
2.3537363101589883
100
AcDbArc
 50
2.640099244600878
 51
69.668050824498494
  0
SPLINE
  5
42
100
AcDbEntity
  8
0
370
              15
  6
Continuous
 62
               7
100
AcDbSpline
210
0.0
220
0.0
230
1.0
 70
               8
 71
               2
 72
              10
 73
               7
 74
               0
 42
0.000001
 43
0.000001
 40
0.0
 40
0.0
 40
0.0
 40
1.0
 40
1.0
 40
2.0
 40
2.0
 40
3.0
 40
3.0
 40
3.0
 10
-37.879170255388146
 20
203.19701152567529
 30
0.0
 10
-37.924232531984501
 20
203.18001657482614
 30
0.0
 10
-37.969294808580855
 20
203.16302162397699
 30
0.0
 10
-42.557658488246773
 20
201.42735217288771
 30
0.0
 10
-47.288622869299672
 20
199.7248853058876
 30
0.0
 10
-47.334926652583192
 20
199.70817306087531
 30
0.0
 10
-47.381230435866712
 20
199.69146081586302
 30
0.0
  0
POLYLINE
  5
43
100
AcDbEntity
  8
0
370
              15
  6
Continuous
 62
               7
100
AcDb2dPolyline
 66
               1
 10
0.0
 20
0.0
 30
0.0
 75
               5
  0
VERTEX
  5
44
100
AcDbEntity
  8
0
370
              15
  6
Continuous
 62
               7
100
AcDbVertex
100
AcDb2dVertex
 10
-71.254983286796971
 20
146.78998664790419
 30
0.0
  0
VERTEX
  5
45
100
AcDbEntity
  8
0
370
              15
  6
Continuous
 62
               7
100
AcDbVertex
100
AcDb2dVertex
 10
-71.273493592596935
 20
147.60725855290406
 30
0.0
  0
VERTEX
  5
46
100
AcDbEntity
  8
0
370
              15
  6
Continuous
 62
               7
100
AcDbVertex
100
AcDb2dVertex
 10
-70.630509513996969
 20
148.83361996390403
 30
0.0
  0
VERTEX
  5
47
100
AcDbEntity
  8
0
370
              15
  6
Continuous
 62
               7
100
AcDbVertex
100
AcDb2dVertex
 10
-69.206875916396996
 20
150.01864973870414
 30
0.0
  0
VERTEX
  5
48
100
AcDbEntity
  8
0
370
              15
  6
Continuous
 62
               7
100
AcDbVertex
100
AcDb2dVertex
 10
-67.057303575597018
 20
151.116808406904
 30
0.0
  0
VERTEX
  5
49
100
AcDbEntity
  8
0
370
              15
  6
Continuous
 62
               7
100
AcDbVertex
100
AcDb2dVertex
 10
-64.264398672596883
 20
152.0858941577041
 30
0.0
  0
VERTEX
  5
4A
100
AcDbEntity
  8
0
370
              15
  6
Continuous
 62
               7
100
AcDbVertex
100
AcDb2dVertex
 10
-60.935490931396828
 20
152.88866559770412
 30
0.0
  0
VERTEX
  5
4B
100
AcDbEntity
  8
0
370
              15
  6
Continuous
 62
               7
100
AcDbVertex
100
AcDb2dVertex
 10
-57.198509157796991
 20
153.49427268310404
 30
0.0
  0
VERTEX
  5
4C
100
AcDbEntity
  8
0
370
              15
  6
Continuous
 62
               7
100
AcDbVertex
100
AcDb2dVertex
 10
-54.55091308599691
 20
153.77664127610404
 30
0.0
  0
VERTEX
  5
4D
100
AcDbEntity
  8
0
370
              15
  6
Continuous
 62
               7
100
AcDbVertex
100
AcDb2dVertex
 10
-51.830868770197014
 20
153.95603116090405
 30
0.0
  0
SEQEND
  5
4E
100
AcDbEntity
  8
0
370
              15
  6
Continuous
 62
               7
  0
POLYLINE
  5
4F
100
AcDbEntity
  8
0
370
              15
  6
Continuous
 62
               7
100
AcDb2dPolyline
 66
               1
 10
0.0
 20
0.0
 30
0.0
 75
               5
  0
VERTEX
  5
50
100
AcDbEntity
  8
0
370
              15
  6
Continuous
 62
               7
100
AcDbVertex
100
AcDb2dVertex
 10
-51.830868770197014
 20
153.95603116090405
 30
0.0
  0
VERTEX
  5
51
100
AcDbEntity
  8
0
370
              15
  6
Continuous
 62
               7
100
AcDbVertex
100
AcDb2dVertex
 10
-49.084924145396883
 20
154.02937237090413
 30
0.0
  0
VERTEX
  5
52
100
AcDbEntity
  8
0
370
              15
  6
Continuous
 62
               7
100
AcDbVertex
100
AcDb2dVertex
 10
-45.020121448397106
 20
153.93830148890419
 30
0.0
  0
VERTEX
  5
53
100
AcDbEntity
  8
0
370
              15
  6
Continuous
 62
               7
100
AcDbVertex
100
AcDb2dVertex
 10
-41.15886415239703
 20
153.60972904950398
 30
0.0
  0
VERTEX
  5
54
100
AcDbEntity
  8
0
370
              15
  6
Continuous
 62
               7
100
AcDbVertex
100
AcDb2dVertex
 10
-37.649536221996925
 20
153.05628235430407
 30
0.0
  0
VERTEX
  5
55
100
AcDbEntity
  8
0
370
              15
  6
Continuous
 62
               7
100
AcDbVertex
100
AcDb2dVertex
 10
-34.626999851796938
 20
152.29922983010414
 30
0.0
  0
VERTEX
  5
56
100
AcDbEntity
  8
0
370
              15
  6
Continuous
 62
               7
100
AcDbVertex
100
AcDb2dVertex
 10
-32.207409328397091
 20
151.36766456970412
 30
0.0
  0
VERTEX
  5
57
100
AcDbEntity
  8
0
370
              15
  6
Continuous
 62
               7
100
AcDbVertex
100
AcDb2dVertex
 10
-30.483748054596902
 20
150.2973863291042
 30
0.0
  0
VERTEX
  5
58
100
AcDbEntity
  8
0
370
              15
  6
Continuous
 62
               7
100
AcDbVertex
100
AcDb2dVertex
 10
-29.755163386197012
 20
149.52694204750418
 30
0.0
  0
VERTEX
  5
59
100
AcDbEntity
  8
0
370
              15
  6
Continuous
 62
               7
100
AcDbVertex
100
AcDb2dVertex
 10
-29.378391933597015
 20
148.72623271530409
 30
0.0
  0
SEQEND
  5
5A
100
AcDbEntity
  8
0
370
              15
  6
Continuous
 62
               7
  0
POLYLINE
  5
5B
100
AcDbEntity
  8
0
370
              15
  6
Continuous
 62
               7
100
AcDb2dPolyline
 66
               1
 10
0.0
 20
0.0
 30
0.0
 75
               5
  0
VERTEX
  5
5C
100
AcDbEntity
  8
0
370
              15
  6
Continuous
 62
               7
100
AcDbVertex
100
AcDb2dVertex
 10
-48.802506449996883
 20
141.560188202304
 30
0.0
  0
VERTEX
  5
5D
100
AcDbEntity
  8
0
370
              15
  6
Continuous
 62
               7
100
AcDbVertex
100
AcDb2dVertex
 10
-51.548451074797015
 20
141.48684699230415
 30
0.0
  0
VERTEX
  5
5E
100
AcDbEntity
  8
0
370
              15
  6
Continuous
 62
               7
100
AcDbVertex
100
AcDb2dVertex
 10
-55.613253771997108
 20
141.57791787430409
 30
0.0
  0
VERTEX
  5
5F
100
AcDbEntity
  8
0
370
              15
  6
Continuous
 62
               7
100
AcDbVertex
100
AcDb2dVertex
 10
-59.474511067797096
 20
141.90649031370407
 30
0.0
  0
VERTEX
  5
60
100
AcDbEntity
  8
0
370
              15
  6
Continuous
 62
               7
100
AcDbVertex
100
AcDb2dVertex
 10
-62.983838998196973
 20
142.45993700890421
 30
0.0
  0
VERTEX
  5
61
100
AcDbEntity
  8
0
370
              15
  6
Continuous
 62
               7
100
AcDbVertex
100
AcDb2dVertex
 10
-66.006375368396959
 20
143.21698953310414
 30
0.0
  0
VERTEX
  5
62
100
AcDbEntity
  8
0
370
              15
  6
Continuous
 62
               7
100
AcDbVertex
100
AcDb2dVertex
 10
-68.425965891797034
 20
144.14855479350416
 30
0.0
  0
VERTEX
  5
63
100
AcDbEntity
  8
0
370
              15
  6
Continuous
 62
               7
100
AcDbVertex
100
AcDb2dVertex
 10
-70.149627165596996
 20
145.21883303410408
 30
0.0
  0
VERTEX
  5
64
100
AcDbEntity
  8
0
370
              15
  6
Continuous
 62
               7
100
AcDbVertex
100
AcDb2dVertex
 10
-70.878211833997113
 20
145.98927731550401
 30
0.0
  0
VERTEX
  5
65
100
AcDbEntity
  8
0
370
              15
  6
Continuous
 62
               7
100
AcDbVertex
100
AcDb2dVertex
 10
-71.254983286796971
 20
146.78998664790419
 30
0.0
  0
SEQEND
  5
66
100
AcDbEntity
  8
0
370
              15
  6
Continuous
 62
               7
  0
SPLINE
  5
67
100
AcDbEntity
  8
0
370
              15
  6
Continuous
 62
               7
100
AcDbSpline
210
0.0
220
0.0
230
1.0
 70
               8
 71
               2
 72
              18
 73
              15
 74
               0
 42
0.000001
 43
0.000001
 40
0.0
 40
0.0
 40
0.0
 40
1.0
 40
1.0
 40
2.0
 40
3.0
 40
4.0
 40
5.0
 40
6.0
 40
7.0
 40
8.0
 40
9.0
 40
10.0
 40
10.0
 40
11.0
 40
11.0
 40
11.0
 10
-67.259074258261137
 20
202.58005806094877
 30
0.0
 10
-67.264939064003954
 20
202.5777760032355
 30
0.0
 10
-67.270803869746771
 20
202.57549394552223
 30
0.0
 10
-67.447608925520683
 20
202.50719820112351
 30
0.0
 10
-67.79067465454392
 20
202.36863209931096
 30
0.0
 10
-68.461879153095254
 20
202.0425187152556
 30
0.0
 10
-68.882509522430212
 20
201.51857113327094
 30
0.0
 10
-68.884974967205665
 20
201.02797426310497
 30
0.0
 10
-68.571000819939684
 20
200.62361604437353
 30
0.0
 10
-68.16912856922346
 20
200.33659149326138
 30
0.0
 10
-67.612791405136079
 20
200.07605003313267
 30
0.0
 10
-66.937115898025979
 20
199.83787184652954
 30
0.0
 10
-66.58243694004824
 20
199.72187400077439
 30
0.0
 10
-66.570673235470679
 20
199.71799655112011
 30
0.0
 10
-66.558909530893118
 20
199.71411910146583
 30
0.0
  0
SPLINE
  5
68
100
AcDbEntity
  8
0
370
              15
  6
Continuous
 62
               7
100
AcDbSpline
210
0.0
220
0.0
230
1.0
 70
               8
 71
               2
 72
              11
 73
               8
 74
               0
 42
0.000001
 43
0.000001
 40
0.0
 40
0.0
 40
0.0
 40
1.0
 40
1.0
 40
2.0
 40
3.0
 40
3.0
 40
4.0
 40
4.0
 40
4.0
 10
-67.259074258261137
 20
202.58005806094877
 30
0.0
 10
-67.277152976459149
 20
202.44534723274478
 30
0.0
 10
-67.295231694657161
 20
202.31063640454079
 30
0.0
 10
-69.15829459311459
 20
188.92121047938411
 30
0.0
 10
-71.431144018922453
 20
161.25461703063201
 30
0.0
 10
-71.255003117864192
 20
146.7914156503079
 30
0.0
 10
-71.254993012358284
 20
146.79070037164746
 30
0.0
 10
-71.254982906852376
 20
146.78998509298702
 30
0.0
  0
SPLINE
  5
69
100
AcDbEntity
  8
0
370
              15
  6
Continuous
 62
               7
100
AcDbSpline
210
0.0
220
0.0
230
1.0
 70
               8
 71
               2
 72
              11
 73
               8
 74
               0
 42
0.000001
 43
0.000001
 40
0.0
 40
0.0
 40
0.0
 40
1.0
 40
1.0
 40
2.0
 40
3.0
 40
3.0
 40
4.0
 40
4.0
 40
4.0
 10
-71.254982906852376
 20
146.78998509298702
 30
0.0
 10
-71.254980522259586
 20
146.79064924673463
 30
0.0
 10
-71.254978137666797
 20
146.79131340048224
 30
0.0
 10
-71.147587462510103
 20
160.18142509837384
 30
0.0
 10
-68.525030999330113
 20
186.4067735239791
 30
0.0
 10
-66.596877489792234
 20
199.45210833963176
 30
0.0
 10
-66.577893510342676
 20
199.58311372054879
 30
0.0
 10
-66.558909530893118
 20
199.71411910146583
 30
0.0
  0
ARC
  5
6A
100
AcDbEntity
  8
0
370
              15
  6
Continuous
 62
               7
100
AcDbCircle
 10
-65.984812182996905
 20
202.71243258970401
 30
0.0
 40
1.2811193746684297
100
AcDbArc
 50
80.824375394708895
 51
185.93080022469792
  0
ARC
  5
6B
100
AcDbEntity
  8
0
370
              15
  6
Continuous
 62
               7
100
AcDbCircle
 10
-64.119969679596863
 20
199.78374578370415
 30
0.0
 40
2.4399334977016993
100
AcDbArc
 50
118.39851990900486
 51
181.63523172460111
  0
SPLINE
  5
6C
100
AcDbEntity
  8
0
370
              15
  6
Continuous
 62
               7
100
AcDbSpline
210
0.0
220
0.0
230
1.0
 70
               8
 71
               2
 72
              18
 73
              15
 74
               0
 42
0.000001
 43
0.000001
 40
0.0
 40
0.0
 40
0.0
 40
1.0
 40
1.0
 40
2.0
 40
3.0
 40
4.0
 40
5.0
 40
6.0
 40
7.0
 40
8.0
 40
9.0
 40
10.0
 40
10.0
 40
11.0
 40
11.0
 40
11.0
 10
-65.280405675422173
 20
201.93005978046051
 30
0.0
 10
-65.28756905992185
 20
201.93219605874253
 30
0.0
 10
-65.294732444421527
 20
201.93433233702456
 30
0.0
 10
-65.510854553059119
 20
201.99815279002416
 30
0.0
 10
-65.927854412441604
 20
202.12914763035849
 30
0.0
 10
-66.462648920635559
 20
202.33918112470053
 30
0.0
 10
-66.884909667527438
 20
202.68688131263173
 30
0.0
 10
-66.977494930235082
 20
203.07275858383935
 30
0.0
 10
-66.810498822085094
 20
203.3607962488494
 30
0.0
 10
-66.527832958633837
 20
203.63210993977066
 30
0.0
 10
-66.105425916781599
 20
203.83721377850941
 30
0.0
 10
-65.895116247376848
 20
203.92873901560495
 30
0.0
 10
-65.787670333650851
 20
203.97413032036968
 30
0.0
 10
-65.784096832347643
 20
203.97564466491883
 30
0.0
 10
-65.780523331044435
 20
203.97715900946798
 30
0.0
  0
SPLINE
  5
6D
100
AcDbEntity
  8
0
370
              15
  6
Continuous
 62
               7
100
AcDbSpline
210
0.0
220
0.0
230
1.0
 70
               8
 71
               2
 72
              11
 73
               8
 74
               0
 42
0.000001
 43
0.000001
 40
0.0
 40
0.0
 40
0.0
 40
1.0
 40
1.0
 40
2.0
 40
3.0
 40
3.0
 40
4.0
 40
4.0
 40
4.0
 10
-29.378392313391316
 20
148.72623427017714
 30
0.0
 10
-29.378432048752813
 20
148.72694817863186
 30
0.0
 10
-29.378471784114311
 20
148.72766208708657
 30
0.0
 10
-30.228057809253016
 20
163.17116567255943
 30
0.0
 10
-34.3126323691111
 20
190.52664535530829
 30
0.0
 10
-36.954171510391745
 20
203.71351648856864
 30
0.0
 10
-36.980301462502268
 20
203.84618345271542
 30
0.0
 10
-37.006431414612791
 20
203.9788504168622
 30
0.0
  0
SPLINE
  5
6E
100
AcDbEntity
  8
0
370
              15
  6
Continuous
 62
               7
100
AcDbSpline
210
0.0
220
0.0
230
1.0
 70
               8
 71
               2
 72
              18
 73
              15
 74
               0
 42
0.000001
 43
0.000001
 40
0.0
 40
0.0
 40
0.0
 40
1.0
 40
1.0
 40
2.0
 40
3.0
 40
4.0
 40
5.0
 40
6.0
 40
7.0
 40
8.0
 40
9.0
 40
10.0
 40
10.0
 40
11.0
 40
11.0
 40
11.0
 10
-36.306266687244545
 20
201.11291145737925
 30
0.0
 10
-36.300413335762357
 20
201.11561612736205
 30
0.0
 10
-36.29455998428017
 20
201.11832079734484
 30
0.0
 10
-36.118100029675418
 20
201.19934927004567
 30
0.0
 10
-35.77570643914197
 20
201.36271434279718
 30
0.0
 10
-35.10583940739599
 20
201.73817444990971
 30
0.0
 10
-34.686182662451586
 20
202.29804840895497
 30
0.0
 10
-34.68393415333577
 20
202.79664675945185
 30
0.0
 10
-34.997526994134944
 20
203.18693511617914
 30
0.0
 10
-35.398809980501767
 20
203.45221829467971
 30
0.0
 10
-35.954270133708008
 20
203.68040187645931
 30
0.0
 10
-36.628845274808384
 20
203.87798135567016
 30
0.0
 10
-36.982942563053314
 20
203.97251812470552
 30
0.0
 10
-36.994686988833053
 20
203.97568427078386
 30
0.0
 10
-37.006431414612791
 20
203.9788504168622
 30
0.0
  0
SPLINE
  5
6F
100
AcDbEntity
  8
0
370
              15
  6
Continuous
 62
               7
100
AcDbSpline
210
0.0
220
0.0
230
1.0
 70
               8
 71
               2
 72
              11
 73
               8
 74
               0
 42
0.000001
 43
0.000001
 40
0.0
 40
0.0
 40
0.0
 40
1.0
 40
1.0
 40
2.0
 40
3.0
 40
3.0
 40
4.0
 40
4.0
 40
4.0
 10
-48.035586712492488
 20
206.5478421279239
 30
0.0
 10
-48.039871038241529
 20
206.42225982163336
 30
0.0
 10
-48.044155363990569
 20
206.29667751534282
 30
0.0
 10
-48.617213094710507
 20
187.7943080327006
 30
0.0
 10
-51.071700557968882
 20
161.47285322555439
 30
0.0
 10
-51.830736516511081
 20
153.95740819564065
 30
0.0
 10
-51.830805269779773
 20
153.95671955680729
 30
0.0
 10
-51.830874023048466
 20
153.95603091797392
 30
0.0
  0
SPLINE
  5
70
100
AcDbEntity
  8
0
370
              15
  6
Continuous
 62
               7
100
AcDbSpline
210
0.0
220
0.0
230
1.0
 70
               8
 71
               2
 72
              11
 73
               8
 74
               0
 42
0.000001
 43
0.000001
 40
0.0
 40
0.0
 40
0.0
 40
1.0
 40
1.0
 40
2.0
 40
3.0
 40
3.0
 40
4.0
 40
4.0
 40
4.0
 10
-37.006431414612791
 20
203.9788504168622
 30
0.0
 10
-37.063392801811403
 20
203.99333878531411
 30
0.0
 10
-37.120354189010015
 20
204.00782715376602
 30
0.0
 10
-40.643315621609702
 20
204.92520039145222
 30
0.0
 10
-45.949409163403345
 20
206.10798512433473
 30
0.0
 10
-47.919735571700869
 20
206.52329785669065
 30
0.0
 10
-47.977661142096679
 20
206.53556999230727
 30
0.0
 10
-48.035586712492488
 20
206.5478421279239
 30
0.0
  0
POLYLINE
  5
71
100
AcDbEntity
  8
0
370
              15
  6
Continuous
 62
               7
100
AcDb2dPolyline
 66
               1
 10
0.0
 20
0.0
 30
0.0
 75
               5
  0
VERTEX
  5
72
100
AcDbEntity
  8
0
370
              15
  6
Continuous
 62
               7
100
AcDbVertex
100
AcDb2dVertex
 10
-37.006431414596875
 20
203.97885041690404
 30
0.0
  0
VERTEX
  5
73
100
AcDbEntity
  8
0
370
              15
  6
Continuous
 62
               7
100
AcDbVertex
100
AcDb2dVertex
 10
-37.060145638596907
 20
204.310430969104
 30
0.0
  0
VERTEX
  5
74
100
AcDbEntity
  8
0
370
              15
  6
Continuous
 62
               7
100
AcDbVertex
100
AcDb2dVertex
 10
-37.157266337397061
 20
204.60862102550402
 30
0.0
  0
VERTEX
  5
75
100
AcDbEntity
  8
0
370
              15
  6
Continuous
 62
               7
100
AcDbVertex
100
AcDb2dVertex
 10
-37.294467265797095
 20
204.86320834650394
 30
0.0
  0
VERTEX
  5
76
100
AcDbEntity
  8
0
370
              15
  6
Continuous
 62
               7
100
AcDbVertex
100
AcDb2dVertex
 10
-37.467049267397044
 20
205.06546763430413
 30
0.0
  0
VERTEX
  5
77
100
AcDbEntity
  8
0
370
              15
  6
Continuous
 62
               7
100
AcDbVertex
100
AcDb2dVertex
 10
-37.669102092397054
 20
205.20847934790402
 30
0.0
  0
VERTEX
  5
78
100
AcDbEntity
  8
0
370
              15
  6
Continuous
 62
               7
100
AcDbVertex
100
AcDb2dVertex
 10
-37.893706093796993
 20
205.28734382190407
 30
0.0
  0
VERTEX
  5
79
100
AcDbEntity
  8
0
370
              15
  6
Continuous
 62
               7
100
AcDbVertex
100
AcDb2dVertex
 10
-38.133168346397099
 20
205.29935608130393
 30
0.0
  0
VERTEX
  5
7A
100
AcDbEntity
  8
0
370
              15
  6
Continuous
 62
               7
100
AcDbVertex
100
AcDb2dVertex
 10
-38.379287910996993
 20
205.24411075470414
 30
0.0
  0
SEQEND
  5
7B
100
AcDbEntity
  8
0
370
              15
  6
Continuous
 62
               7
  0
ARC
  5
7C
100
AcDbEntity
  8
0
370
              15
  6
Continuous
 62
               7
100
AcDbCircle
 10
-38.635705073197016
 20
200.99044488870402
 30
0.0
 40
2.3326554083643671
100
AcDbArc
 50
3.0094650776004226
 51
71.075409371096796
  0
SPLINE
  5
7D
100
AcDbEntity
  8
0
370
              15
  6
Continuous
 62
               7
100
AcDbSpline
210
0.0
220
0.0
230
1.0
 70
               8
 71
               2
 72
              18
 73
              15
 74
               0
 42
0.000001
 43
0.000001
 40
0.0
 40
0.0
 40
0.0
 40
1.0
 40
1.0
 40
2.0
 40
3.0
 40
4.0
 40
5.0
 40
6.0
 40
7.0
 40
8.0
 40
9.0
 40
10.0
 40
10.0
 40
11.0
 40
11.0
 40
11.0
 10
-38.379287911010408
 20
205.24411075468277
 30
0.0
 10
-38.372124526510845
 20
205.24197447640074
 30
0.0
 10
-38.364961142011282
 20
205.23983819811872
 30
0.0
 10
-38.14883903337369
 20
205.17601774511843
 30
0.0
 10
-37.73183917399075
 20
205.04502290478638
 30
0.0
 10
-37.197044665797478
 20
204.83498941044206
 30
0.0
 10
-36.774783918905371
 20
204.48728922251223
 30
0.0
 10
-36.682198656197727
 20
204.1014119513037
 30
0.0
 10
-36.849194764347715
 20
203.81337428629365
 30
0.0
 10
-37.131860627799426
 20
203.54206059537307
 30
0.0
 10
-37.55426766965121
 20
203.33695675663409
 30
0.0
 10
-37.764577339055961
 20
203.2454315195381
 30
0.0
 10
-37.872023252781958
 20
203.20004021477359
 30
0.0
 10
-37.875596754085052
 20
203.19852587022444
 30
0.0
 10
-37.879170255388146
 20
203.19701152567529
 30
0.0
  0
SPLINE
  5
7E
100
AcDbEntity
  8
0
370
              15
  6
Continuous
 62
               7
100
AcDbSpline
210
0.0
220
0.0
230
1.0
 70
               8
 71
               2
 72
              11
 73
               8
 74
               0
 42
0.000001
 43
0.000001
 40
0.0
 40
0.0
 40
0.0
 40
1.0
 40
1.0
 40
2.0
 40
3.0
 40
3.0
 40
4.0
 40
4.0
 40
4.0
 10
-57.717522630573797
 20
206.1001781660467
 30
0.0
 10
-57.76397199179047
 20
206.08422674768019
 30
0.0
 10
-57.810421353007143
 20
206.06827532931368
 30
0.0
 10
-61.257832928173514
 20
204.90569286305561
 30
0.0
 10
-65.810076206415772
 20
203.15355290801324
 30
0.0
 10
-67.168481423904097
 20
202.61584953570571
 30
0.0
 10
-67.213777841082617
 20
202.59795379832724
 30
0.0
 10
-67.259074258261137
 20
202.58005806094877
 30
0.0
  0
SPLINE
  5
7F
100
AcDbEntity
  8
0
370
              15
  6
Continuous
 62
               7
100
AcDbSpline
210
0.0
220
0.0
230
1.0
 70
               8
 71
               2
 72
              11
 73
               8
 74
               0
 42
0.000001
 43
0.000001
 40
0.0
 40
0.0
 40
0.0
 40
1.0
 40
1.0
 40
2.0
 40
3.0
 40
3.0
 40
4.0
 40
4.0
 40
4.0
 10
-51.830874023048466
 20
153.95603091797392
 30
0.0
 10
-51.830977983901278
 20
153.9567115710193
 30
0.0
 10
-51.831081944754089
 20
153.95739222406468
 30
0.0
 10
-53.262386170009734
 20
163.12668136494693
 30
0.0
 10
-56.650193457977196
 20
189.07395242761044
 30
0.0
 10
-57.701055226742767
 20
205.85017114630784
 30
0.0
 10
-57.709288928658282
 20
205.97517465617727
 30
0.0
 10
-57.717522630573797
 20
206.1001781660467
 30
0.0
  0
POLYLINE
  5
80
100
AcDbEntity
  8
0
370
              15
  6
Continuous
 62
               7
100
AcDb2dPolyline
 66
               1
 10
0.0
 20
0.0
 30
0.0
 75
               5
  0
VERTEX
  5
81
100
AcDbEntity
  8
0
370
              15
  6
Continuous
 62
               7
100
AcDbVertex
100
AcDb2dVertex
 10
-48.035586712396992
 20
206.54784212790412
 30
0.0
  0
VERTEX
  5
82
100
AcDbEntity
  8
0
370
              15
  6
Continuous
 62
               7
100
AcDbVertex
100
AcDb2dVertex
 10
-48.087775870396911
 20
206.87906745050407
 30
0.0
  0
VERTEX
  5
83
100
AcDbEntity
  8
0
370
              15
  6
Continuous
 62
               7
100
AcDbVertex
100
AcDb2dVertex
 10
-48.181859815197015
 20
207.17655016410401
 30
0.0
  0
VERTEX
  5
84
100
AcDbEntity
  8
0
370
              15
  6
Continuous
 62
               7
100
AcDbVertex
100
AcDb2dVertex
 10
-48.314617211197003
 20
207.43010246470396
 30
0.0
  0
VERTEX
  5
85
100
AcDbEntity
  8
0
370
              15
  6
Continuous
 62
               7
100
AcDbVertex
100
AcDb2dVertex
 10
-48.481500985997002
 20
207.63103447990409
 30
0.0
  0
VERTEX
  5
86
100
AcDbEntity
  8
0
370
              15
  6
Continuous
 62
               7
100
AcDbVertex
100
AcDb2dVertex
 10
-48.676795219796816
 20
207.77247193290407
 30
0.0
  0
VERTEX
  5
87
100
AcDbEntity
  8
0
370
              15
  6
Continuous
 62
               7
100
AcDbVertex
100
AcDb2dVertex
 10
-48.893812616597017
 20
207.84956927930409
 30
0.0
  0
VERTEX
  5
88
100
AcDbEntity
  8
0
370
              15
  6
Continuous
 62
               7
100
AcDbVertex
100
AcDb2dVertex
 10
-49.125119357196866
 20
207.85968189690414
 30
0.0
  0
VERTEX
  5
89
100
AcDbEntity
  8
0
370
              15
  6
Continuous
 62
               7
100
AcDbVertex
100
AcDb2dVertex
 10
-49.362794731396946
 20
207.80246968770405
 30
0.0
  0
SEQEND
  5
8A
100
AcDbEntity
  8
0
370
              15
  6
Continuous
 62
               7
  0
SPLINE
  5
8B
100
AcDbEntity
  8
0
370
              15
  6
Continuous
 62
               7
100
AcDbSpline
210
0.0
220
0.0
230
1.0
 70
               8
 71
               2
 72
              10
 73
               7
 74
               0
 42
0.000001
 43
0.000001
 40
0.0
 40
0.0
 40
0.0
 40
1.0
 40
1.0
 40
2.0
 40
2.0
 40
3.0
 40
3.0
 40
3.0
 10
-49.362794731452198
 20
207.80246968771291
 30
0.0
 10
-49.305019010719832
 20
207.7893592269337
 30
0.0
 10
-49.247243289987466
 20
207.77624876615448
 30
0.0
 10
-43.806842265664329
 20
206.5469911349436
 30
0.0
 10
-38.492559347224244
 20
205.27118904436782
 30
0.0
 10
-38.435923629117326
 20
205.25764989952529
 30
0.0
 10
-38.379287911010408
 20
205.24411075468277
 30
0.0
  0
ARC
  5
8C
100
AcDbEntity
  8
0
370
              15
  6
Continuous
 62
               7
100
AcDbCircle
 10
-56.479473530996813
 20
206.25172374730403
 30
0.0
 40
1.247289716231599
100
AcDbArc
 50
80.725898560400864
 51
186.97867422760493
  0
SPLINE
  5
8D
100
AcDbEntity
  8
0
370
              15
  6
Continuous
 62
               7
100
AcDbSpline
210
0.0
220
0.0
230
1.0
 70
               8
 71
               2
 72
              10
 73
               7
 74
               0
 42
0.000001
 43
0.000001
 40
0.0
 40
0.0
 40
0.0
 40
1.0
 40
1.0
 40
2.0
 40
2.0
 40
3.0
 40
3.0
 40
3.0
 10
-65.780523331044435
 20
203.97715900946798
 30
0.0
 10
-65.735461054448194
 20
203.99415396031713
 30
0.0
 10
-65.690398777851954
 20
204.01114891116629
 30
0.0
 10
-61.102035098186036
 20
205.74681836225557
 30
0.0
 10
-56.371070717133136
 20
207.44928522925568
 30
0.0
 10
-56.324766933849617
 20
207.46599747426797
 30
0.0
 10
-56.278463150566097
 20
207.48270971928025
 30
0.0
  0
SPLINE
  5
8E
100
AcDbEntity
  8
0
370
              15
  6
Continuous
 62
               7
100
AcDbSpline
210
0.0
220
0.0
230
1.0
 70
               8
 71
               2
 72
              16
 73
              13
 74
               0
 42
0.000001
 43
0.000001
 40
0.0
 40
0.0
 40
0.0
 40
1.0
 40
1.0
 40
2.0
 40
3.0
 40
4.0
 40
5.0
 40
6.0
 40
7.0
 40
8.0
 40
8.0
 40
9.0
 40
9.0
 40
9.0
 10
-48.035586712492488
 20
206.5478421279239
 30
0.0
 10
-48.045907642127929
 20
206.55014536270312
 30
0.0
 10
-48.05622857176337
 20
206.55244859748234
 30
0.0
 10
-48.364661768823964
 20
206.62220815577973
 30
0.0
 10
-49.603264144429261
 20
206.87840411033437
 30
0.0
 10
-51.42211204747656
 20
206.99338165001143
 30
0.0
 10
-52.865667712971629
 20
206.98562810041824
 30
0.0
 10
-54.307450057461494
 20
206.8831198978429
 30
0.0
 10
-55.926316438272863
 20
206.64383325048686
 30
0.0
 10
-57.18482529057502
 20
206.27601718627818
 30
0.0
 10
-57.684067737070848
 20
206.11108998262023
 30
0.0
 10
-57.700795183822322
 20
206.10563407433347
 30
0.0
 10
-57.717522630573797
 20
206.1001781660467
 30
0.0
  0
SPLINE
  5
8F
100
AcDbEntity
  8
0
370
              15
  6
Continuous
 62
               7
100
AcDbSpline
210
0.0
220
0.0
230
1.0
 70
               8
 71
               2
 72
              16
 73
              13
 74
               0
 42
0.000001
 43
0.000001
 40
0.0
 40
0.0
 40
0.0
 40
1.0
 40
1.0
 40
2.0
 40
3.0
 40
4.0
 40
5.0
 40
6.0
 40
7.0
 40
8.0
 40
8.0
 40
9.0
 40
9.0
 40
9.0
 10
-56.278463150566097
 20
207.48270971928025
 30
0.0
 10
-56.267366240702756
 20
207.48603128885838
 30
0.0
 10
-56.256269330839416
 20
207.48935285843652
 30
0.0
 10
-55.969083859286059
 20
207.57628721566505
 30
0.0
 10
-55.059124717678344
 20
207.8347990078779
 30
0.0
 10
-54.037286164905311
 20
207.97153255760725
 30
0.0
 10
-52.855329111200547
 20
208.08732350419166
 30
0.0
 10
-51.420305471665472
 20
208.06717102908885
 30
0.0
 10
-50.323105600968631
 20
207.98393983113544
 30
0.0
 10
-49.581268521595177
 20
207.84593070300036
 30
0.0
 10
-49.376476941044359
 20
207.80517220685158
 30
0.0
 10
-49.369635836248278
 20
207.80382094728225
 30
0.0
 10
-49.362794731452198
 20
207.80246968771291
 30
0.0
  0
LINE
  5
90
100
AcDbEntity
  8
0
370
              15
  6
Continuous
 62
               7
100
AcDbLine
 10
-29.51046148939696
 20
147.44011880830402
 30
0.0
 11
-29.587392811997063
 21
152.56562637110409
 31
0.0
  0
SPLINE
  5
91
100
AcDbEntity
  8
0
370
              15
  6
Continuous
 62
               7
100
AcDbSpline
210
0.0
220
0.0
230
1.0
 70
               8
 71
               2
 72
              11
 73
               8
 74
               0
 42
0.000001
 43
0.000001
 40
0.0
 40
0.0
 40
0.0
 40
1.0
 40
1.0
 40
2.0
 40
3.0
 40
3.0
 40
4.0
 40
4.0
 40
4.0
 10
-68.839825620265685
 20
201.33542681441156
 30
0.0
 10
-68.850790650499391
 20
201.22920134514322
 30
0.0
 10
-68.861755680733097
 20
201.12297587587489
 30
0.0
 10
-69.492219883789232
 20
195.23201325833509
 30
0.0
 10
-71.275545370630482
 20
170.59605858461822
 30
0.0
 10
-71.254702784337553
 20
151.3556569166721
 30
0.0
 10
-71.254832330712759
 20
151.21235982439026
 30
0.0
 10
-71.254961877087965
 20
151.06906273210842
 30
0.0
  0
SPLINE
  5
92
100
AcDbEntity
  8
0
370
              15
  6
Continuous
 62
               7
100
AcDbSpline
210
0.0
220
0.0
230
1.0
 70
               8
 71
               2
 72
              17
 73
              14
 74
               0
 42
0.000001
 43
0.000001
 40
0.0
 40
0.0
 40
0.0
 40
1.0
 40
1.0
 40
2.0
 40
3.0
 40
4.0
 40
5.0
 40
6.0
 40
7.0
 40
8.0
 40
9.0
 40
9.0
 40
10.0
 40
10.0
 40
10.0
 10
-66.422191735577883
 20
203.92994961177294
 30
0.0
 10
-66.423700157332917
 20
203.92947230392542
 30
0.0
 10
-66.425208579087951
 20
203.9289949960779
 30
0.0
 10
-66.748187897050968
 20
203.83167281804151
 30
0.0
 10
-67.246070686618907
 20
203.58617243365995
 30
0.0
 10
-67.653665083757744
 20
203.31586653609236
 30
0.0
 10
-68.080937518954045
 20
202.96847362136657
 30
0.0
 10
-68.402657477743389
 20
202.59146209125481
 30
0.0
 10
-68.620352451311476
 20
202.25368023493832
 30
0.0
 10
-68.758857245464526
 20
201.87637136777596
 30
0.0
 10
-68.838135664928188
 20
201.54900760901489
 30
0.0
 10
-68.873001146762647
 20
201.38274314656599
 30
0.0
 10
-68.874180040226008
 20
201.37721002268086
 30
0.0
 10
-68.87535893368937
 20
201.37167689879573
 30
0.0
  0
SPLINE
  5
93
100
AcDbEntity
  8
0
370
              15
  6
Continuous
 62
               7
100
AcDbSpline
210
0.0
220
0.0
230
1.0
 70
               8
 71
               2
 72
              11
 73
               8
 74
               0
 42
0.000001
 43
0.000001
 40
0.0
 40
0.0
 40
0.0
 40
1.0
 40
1.0
 40
2.0
 40
3.0
 40
3.0
 40
4.0
 40
4.0
 40
4.0
 10
-29.533580217177416
 20
151.76364925554657
 30
0.0
 10
-29.537594602976071
 20
151.83937253828657
 30
0.0
 10
-29.541608988774726
 20
151.91509582102657
 30
0.0
 10
-30.511513253023452
 20
170.66271012978081
 30
0.0
 10
-33.617213369312196
 20
195.64657116413025
 30
0.0
 10
-34.695626274745848
 20
202.38835503323378
 30
0.0
 10
-34.715979629354194
 20
202.51783719997513
 30
0.0
 10
-34.736332983962541
 20
202.64731936671649
 30
0.0
  0
SPLINE
  5
94
100
AcDbEntity
  8
0
370
              15
  6
Continuous
 62
               7
100
AcDbSpline
210
0.0
220
0.0
230
1.0
 70
               8
 71
               2
 72
              17
 73
              14
 74
               0
 42
0.000001
 43
0.000001
 40
0.0
 40
0.0
 40
0.0
 40
1.0
 40
1.0
 40
2.0
 40
3.0
 40
4.0
 40
5.0
 40
6.0
 40
7.0
 40
8.0
 40
9.0
 40
9.0
 40
10.0
 40
10.0
 40
10.0
 10
-34.727362795182501
 20
202.65050022324124
 30
0.0
 10
-34.72744905650319
 20
202.65255063492975
 30
0.0
 10
-34.727535317823879
 20
202.65460104661827
 30
0.0
 10
-34.729907562748224
 20
202.7161630861184
 30
0.0
 10
-34.744792508887997
 20
202.98522759483819
 30
0.0
 10
-34.891991155831704
 20
203.3598311623299
 30
0.0
 10
-35.321893283103975
 20
204.0346465781214
 30
0.0
 10
-36.077707836062984
 20
204.60770326390741
 30
0.0
 10
-36.743239145232394
 20
204.94331615951921
 30
0.0
 10
-37.288869876882984
 20
205.11713086508405
 30
0.0
 10
-37.672110788089242
 20
205.21580967254943
 30
0.0
 10
-37.866476033579431
 20
205.26275902736586
 30
0.0
 10
-37.872945252339434
 20
205.26433237474305
 30
0.0
 10
-37.879414471099437
 20
205.26590572212024
 30
0.0
  0
LINE
  5
95
100
AcDbEntity
  8
0
370
              15
  6
Continuous
 62
               7
100
AcDbLine
 10
-71.26129831279701
 20
151.90871384370411
 30
0.0
 11
-71.096080506197097
 21
148.13419851870407
 31
0.0
  0
SPLINE
  5
96
100
AcDbEntity
  8
0
370
              15
  6
Continuous
 62
               7
100
AcDbSpline
210
0.0
220
0.0
230
1.0
 70
               8
 71
               2
 72
              10
 73
               7
 74
               0
 42
0.000001
 43
0.000001
 40
0.0
 40
0.0
 40
0.0
 40
1.0
 40
1.0
 40
2.0
 40
2.0
 40
3.0
 40
3.0
 40
3.0
 10
-37.881660500660757
 20
205.27200851090231
 30
0.0
 10
-37.936814643757486
 20
205.28538597330055
 30
0.0
 10
-37.991968786854216
 20
205.29876343569879
 30
0.0
 10
-43.284129949768896
 20
206.58933496514589
 30
0.0
 10
-48.76523594799238
 20
207.81332040774407
 30
0.0
 10
-48.824717567676373
 20
207.82668375448736
 30
0.0
 10
-48.884199187360366
 20
207.84004710123065
 30
0.0
  0
SPLINE
  5
97
100
AcDbEntity
  8
0
370
              15
  6
Continuous
 62
               7
100
AcDbSpline
210
0.0
220
0.0
230
1.0
 70
               8
 71
               2
 72
              11
 73
               8
 74
               0
 42
0.000001
 43
0.000001
 40
0.0
 40
0.0
 40
0.0
 40
1.0
 40
1.0
 40
2.0
 40
3.0
 40
3.0
 40
4.0
 40
4.0
 40
4.0
 10
-56.878462506674225
 20
207.45049597858554
 30
0.0
 10
-56.923306817337277
 20
207.43450831224618
 30
0.0
 10
-56.968151128000329
 20
207.41852064590682
 30
0.0
 10
-60.387952863323164
 20
206.20853034815457
 30
0.0
 10
-64.923555855096595
 20
204.50559922045284
 30
0.0
 10
-66.329087386551748
 20
203.97055617867011
 30
0.0
 10
-66.375966103199005
 20
203.95272805586058
 30
0.0
 10
-66.422844819846262
 20
203.93489993305104
 30
0.0
  0
SPLINE
  5
98
100
AcDbEntity
  8
0
370
              15
  6
Continuous
 62
               7
100
AcDbSpline
210
0.0
220
0.0
230
1.0
 70
               8
 71
               2
 72
              15
 73
              12
 74
               0
 42
0.000001
 43
0.000001
 40
0.0
 40
0.0
 40
0.0
 40
1.0
 40
1.0
 40
2.0
 40
3.0
 40
4.0
 40
5.0
 40
6.0
 40
7.0
 40
7.0
 40
8.0
 40
8.0
 40
8.0
 10
-48.883092573813713
 20
207.83662618977758
 30
0.0
 10
-48.884729997566922
 20
207.83708773820979
 30
0.0
 10
-48.886367421320131
 20
207.837549286642
 30
0.0
 10
-49.291605342887863
 20
207.95466237289418
 30
0.0
 10
-50.394986281368858
 20
208.09555833368574
 30
0.0
 10
-51.895091422538655
 20
208.18702393535943
 30
0.0
 10
-53.819909823499813
 20
208.1155230479518
 30
0.0
 10
-55.644466220366496
 20
207.841745498151
 30
0.0
 10
-56.602255540130784
 20
207.54655507547716
 30
0.0
 10
-56.871855205709664
 20
207.45727860852037
 30
0.0
 10
-56.880864204486841
 20
207.45431733648263
 30
0.0
 10
-56.889873203264017
 20
207.45135606444489
 30
0.0
  0
LINE
  5
99
100
AcDbEntity
  8
0
370
              15
  6
Continuous
 62
               7
100
AcDbLine
 10
-99.48739958693028
 20
143.34053133360032
 30
0.0
 11
-83.301765538330358
 21
-453.83878611259979
 31
0.0
  0
LINE
  5
9A
100
AcDbEntity
  8
0
370
              15
  6
Continuous
 62
               7
100
AcDbLine
 10
15.156047120069786
 20
-449.29786509839983
 30
0.0
 11
-1.0290319955302607
 21
147.86097773500012
 31
0.0
  0
LINE
  5
9B
100
AcDbEntity
  8
0
370
              15
  6
Continuous
 62
               7
100
AcDbLine
 10
-96.626820194530239
 20
148.45977223940019
 30
0.0
 11
-47.863896119730327
 21
137.10155446360011
 31
0.0
  0
ARC
  5
9C
100
AcDbEntity
  8
0
370
              15
  6
Continuous
 62
               7
100
AcDbCircle
 10
-47.183331094930338
 20
140.02334001300017
 30
0.0
 40
3.0000000000001212
100
AcDbArc
 50
256.88804076829996
 51
290.2502952889011
  0
LINE
  5
9D
100
AcDbEntity
  8
0
370
              15
  6
Continuous
 62
               7
100
AcDbLine
 10
-46.144963213730364
 20
137.20877150660033
 30
0.0
 11
-3.9591434469303408
 21
152.77218908320026
 31
0.0
  0
LINE
  5
9E
100
AcDbEntity
  8
0
370
              15
  6
Continuous
 62
               7
100
AcDbLine
 10
-5.985301690530207
 20
220.06357053980025
 30
0.0
 11
-54.748225765330346
 21
231.42178831540025
 31
0.0
  0
ARC
  5
9F
100
AcDbEntity
  8
0
370
              15
  6
Continuous
 62
               7
100
AcDbCircle
 10
-97.614612703930391
 20
212.9365816036003
 30
0.0
 40
3.0000000000002434
100
AcDbArc
 50
110.25029528889935
 51
181.5525345763979
  0
LINE
  5
A0
100
AcDbEntity
  8
0
370
              15
  6
Continuous
 62
               7
100
AcDbLine
 10
-100.61351055653023
 20
212.85530071220012
 30
0.0
 11
-98.945155606330275
 21
151.30027807160025
 31
0.0
  0
LINE
  5
A1
100
AcDbEntity
  8
0
370
              15
  6
Continuous
 62
               7
100
AcDbLine
 10
-56.467158641130311
 20
231.31457016160027
 30
0.0
 11
-98.652978407930334
 21
215.75115258480025
 31
0.0
  0
ARC
  5
A2
100
AcDbEntity
  8
0
370
              15
  6
Continuous
 62
               7
100
AcDbCircle
 10
-6.6658640717303683
 20
217.14178162600012
 30
0.0
 40
3.0000000000002767
100
AcDbArc
 50
1.5525345763978893
 51
76.88804076829966
  0
LINE
  5
A3
100
AcDbEntity
  8
0
370
              15
  6
Continuous
 62
               7
100
AcDbLine
 10
-1.9986112321301448
 20
155.66803851180032
 30
0.0
 11
-3.6669661821304658
 21
217.2230611522001
 31
0.0
  0
ARC
  5
A4
100
AcDbEntity
  8
0
370
              15
  6
Continuous
 62
               7
100
AcDbCircle
 10
-95.946257738330416
 20
151.38155838700015
 30
0.0
 40
2.9999999999998219
100
AcDbArc
 50
181.5525345763981
 51
256.88804076830326
  0
ARC
  5
A5
100
AcDbEntity
  8
0
370
              15
  6
Continuous
 62
               7
100
AcDbCircle
 10
-4.9975091059303054
 20
155.58675840960029
 30
0.0
 40
2.9999999999998166
100
AcDbArc
 50
290.25029528890229
 51
1.5525345763981593
  0
ARC
  5
A6
100
AcDbEntity
  8
0
370
              15
  6
Continuous
 62
               7
100
AcDbCircle
 10
-55.428790714930358
 20
228.50000000000011
 30
0.0
 40
2.9999999999998996
100
AcDbArc
 50
76.888040768298993
 51
110.2502952889006
  0
SPLINE
  5
A7
100
AcDbEntity
  8
0
370
              15
  6
Continuous
 62
               7
100
AcDbSpline
210
0.0
220
0.0
230
1.0
 70
               8
 71
               2
 72
              16
 73
              13
 74
               0
 42
0.000001
 43
0.000001
 40
0.0
 40
0.0
 40
0.0
 40
1.0
 40
1.0
 40
2.0
 40
3.0
 40
4.0
 40
5.0
 40
6.0
 40
7.0
 40
8.0
 40
8.0
 40
9.0
 40
9.0
 40
9.0
 10
-99.544314280760148
 20
146.51076566197401
 30
0.0
 10
-99.544970533570165
 20
146.51039092923702
 30
0.0
 10
-99.545626786380183
 20
146.51001619650003
 30
0.0
 10
-99.586539772580011
 20
146.48695376976468
 30
0.0
 10
-99.690857504844928
 20
146.42435779827713
 30
0.0
 10
-99.803372705511777
 20
146.31854794238632
 30
0.0
 10
-99.872052758135681
 20
146.21590832236018
 30
0.0
 10
-99.909595900779834
 20
146.13197172774619
 30
0.0
 10
-99.922617463616291
 20
146.06602906219962
 30
0.0
 10
-99.929726759379321
 20
146.00433490969965
 30
0.0
 10
-99.932116500258019
 20
145.96250137115533
 30
0.0
 10
-99.932159799458248
 20
145.96182714565418
 30
0.0
 10
-99.932203098658476
 20
145.96115292015304
 30
0.0
  0
LINE
  5
A8
100
AcDbEntity
  8
0
370
              15
  6
Continuous
 62
               7
100
AcDbLine
 10
-99.932738815330424
 20
145.96995595140027
 30
0.0
 11
-99.911624593930185
 21
143.57465935220023
 31
0.0
  0
LINE
  5
A9
100
AcDbEntity
  8
0
370
              15
  6
Continuous
 62
               7
100
AcDbLine
 10
-95.187387517130276
 20
148.12448889340033
 30
0.0
 11
-99.494644552930197
 21
146.53543266020017
 31
0.0
  0
SPLINE
  5
AA
100
AcDbEntity
  8
0
370
              15
  6
Continuous
 62
               7
100
AcDbSpline
210
0.0
220
0.0
230
1.0
 70
               8
 71
               2
 72
              16
 73
              13
 74
               0
 42
0.000001
 43
0.000001
 40
0.0
 40
0.0
 40
0.0
 40
1.0
 40
1.0
 40
2.0
 40
3.0
 40
4.0
 40
5.0
 40
6.0
 40
7.0
 40
8.0
 40
8.0
 40
9.0
 40
9.0
 40
9.0
 10
-0.7276998506238783
 20
150.5277724608078
 30
0.0
 10
-0.7278375382061881
 20
150.52849545914171
 30
0.0
 10
-0.7279752257884979
 20
150.52921845747562
 30
0.0
 10
-0.735988609423714
 20
150.57413951218462
 30
0.0
 10
-0.7525840184369486
 20
150.63994080133682
 30
0.0
 10
-0.7828388695914441
 20
150.72623610374046
 30
0.0
 10
-0.8577157200650731
 20
150.82569410339113
 30
0.0
 10
-0.9322738458845947
 20
150.89991258980115
 30
0.0
 10
-1.0428810515200553
 20
150.98253227866292
 30
0.0
 10
-1.1688345175380732
 20
151.04043795208861
 30
0.0
 10
-1.216714693644974
 20
151.060658009343
 30
0.0
 10
-1.2174844014600126
 20
151.06098680643834
 30
0.0
 10
-1.2182541092750512
 20
151.06131560353367
 30
0.0
  0
LINE
  5
AB
100
AcDbEntity
  8
0
370
              15
  6
Continuous
 62
               7
100
AcDbLine
 10
-0.6183762865303493
 20
148.12743097540022
 30
0.0
 11
-0.7270378433302653
 21
150.52035510420012
 31
0.0
  0
LINE
  5
AC
100
AcDbEntity
  8
0
370
              15
  6
Continuous
 62
               7
100
AcDbLine
 10
-1.2707586731301603
 20
151.08163641540011
 30
0.0
 11
-5.7276083701302127
 21
152.11975852180024
 31
0.0
  0
ARC
  5
AD
100
AcDbEntity
  8
0
370
              15
  6
Continuous
 62
               7
100
AcDbCircle
 10
-30.557008424530352
 20
-465.29628789999981
 30
0.0
 40
0.8458722299546454
100
AcDbArc
 50
258.15106891789679
 51
287.14353354279729
  0
LINE
  5
AE
100
AcDbEntity
  8
0
370
              15
  6
Continuous
 62
               7
100
AcDbLine
 10
-30.730693008930359
 20
-466.1241366147998
 30
0.0
 11
-83.198088227930214
 21
-453.90304626119973
 31
0.0
  0
POLYLINE
  5
AF
100
AcDbEntity
  8
0
370
              15
  6
Continuous
 62
               7
100
AcDb2dPolyline
 66
               1
 10
0.0
 20
0.0
 30
0.0
 75
               5
  0
VERTEX
  5
B0
100
AcDbEntity
  8
0
370
              15
  6
Continuous
 62
               7
100
AcDbVertex
100
AcDb2dVertex
 10
-60.456296884730193
 20
-331.17747699339975
 30
0.0
  0
VERTEX
  5
B1
100
AcDbEntity
  8
0
370
              15
  6
Continuous
 62
               7
100
AcDbVertex
100
AcDb2dVertex
 10
-58.729767717530478
 20
-331.41294333839983
 30
0.0
  0
VERTEX
  5
B2
100
AcDbEntity
  8
0
370
              15
  6
Continuous
 62
               7
100
AcDbVertex
100
AcDb2dVertex
 10
-57.052801628730151
 20
-331.30732975199976
 30
0.0
  0
VERTEX
  5
B3
100
AcDbEntity
  8
0
370
              15
  6
Continuous
 62
               7
100
AcDbVertex
100
AcDb2dVertex
 10
-55.464704682130389
 20
-330.86315299819978
 30
0.0
  0
VERTEX
  5
B4
100
AcDbEntity
  8
0
370
              15
  6
Continuous
 62
               7
100
AcDbVertex
100
AcDb2dVertex
 10
-54.002700408730391
 20
-330.09079131119984
 30
0.0
  0
VERTEX
  5
B5
100
AcDbEntity
  8
0
370
              15
  6
Continuous
 62
               7
100
AcDbVertex
100
AcDb2dVertex
 10
-52.701057641130149
 20
-329.00837666459984
 30
0.0
  0
VERTEX
  5
B6
100
AcDbEntity
  8
0
370
              15
  6
Continuous
 62
               7
100
AcDbVertex
100
AcDb2dVertex
 10
-51.590284763930242
 20
-327.64127590039982
 30
0.0
  0
VERTEX
  5
B7
100
AcDbEntity
  8
0
370
              15
  6
Continuous
 62
               7
100
AcDbVertex
100
AcDb2dVertex
 10
-50.696417851530271
 20
-326.02152172959984
 30
0.0
  0
VERTEX
  5
B8
100
AcDbEntity
  8
0
370
              15
  6
Continuous
 62
               7
100
AcDbVertex
100
AcDb2dVertex
 10
-50.040408768730288
 20
-324.18707913619983
 30
0.0
  0
VERTEX
  5
B9
100
AcDbEntity
  8
0
370
              15
  6
Continuous
 62
               7
100
AcDbVertex
100
AcDb2dVertex
 10
-49.637632530130361
 20
-322.18097095599978
 30
0.0
  0
VERTEX
  5
BA
100
AcDbEntity
  8
0
370
              15
  6
Continuous
 62
               7
100
AcDbVertex
100
AcDb2dVertex
 10
-49.497531721130429
 20
-320.05017369459983
 30
0.0
  0
VERTEX
  5
BB
100
AcDbEntity
  8
0
370
              15
  6
Continuous
 62
               7
100
AcDbVertex
100
AcDb2dVertex
 10
-49.623387892730364
 20
-317.84468160559982
 30
0.0
  0
VERTEX
  5
BC
100
AcDbEntity
  8
0
370
              15
  6
Continuous
 62
               7
100
AcDbVertex
100
AcDb2dVertex
 10
-50.012253719130342
 20
-315.61613765159973
 30
0.0
  0
VERTEX
  5
BD
100
AcDbEntity
  8
0
370
              15
  6
Continuous
 62
               7
100
AcDbVertex
100
AcDb2dVertex
 10
-50.655013071330188
 20
-313.4168303419998
 30
0.0
  0
VERTEX
  5
BE
100
AcDbEntity
  8
0
370
              15
  6
Continuous
 62
               7
100
AcDbVertex
100
AcDb2dVertex
 10
-51.536600444930457
 20
-311.29825778059978
 30
0.0
  0
VERTEX
  5
BF
100
AcDbEntity
  8
0
370
              15
  6
Continuous
 62
               7
100
AcDbVertex
100
AcDb2dVertex
 10
-52.636350919730205
 20
-309.31014176719975
 30
0.0
  0
VERTEX
  5
C0
100
AcDbEntity
  8
0
370
              15
  6
Continuous
 62
               7
100
AcDbVertex
100
AcDb2dVertex
 10
-53.928489054530303
 20
-307.49901386539977
 30
0.0
  0
VERTEX
  5
C1
100
AcDbEntity
  8
0
370
              15
  6
Continuous
 62
               7
100
AcDbVertex
100
AcDb2dVertex
 10
-55.382728399730297
 20
-305.90734094799973
 30
0.0
  0
VERTEX
  5
C2
100
AcDbEntity
  8
0
370
              15
  6
Continuous
 62
               7
100
AcDbVertex
100
AcDb2dVertex
 10
-56.964980827130432
 20
-304.57248385059984
 30
0.0
  0
VERTEX
  5
C3
100
AcDbEntity
  8
0
370
              15
  6
Continuous
 62
               7
100
AcDbVertex
100
AcDb2dVertex
 10
-58.638161729530395
 20
-303.52566195879979
 30
0.0
  0
VERTEX
  5
C4
100
AcDbEntity
  8
0
370
              15
  6
Continuous
 62
               7
100
AcDbVertex
100
AcDb2dVertex
 10
-60.363052387730306
 20
-302.79144145519979
 30
0.0
  0
VERTEX
  5
C5
100
AcDbEntity
  8
0
370
              15
  6
Continuous
 62
               7
100
AcDbVertex
100
AcDb2dVertex
 10
-62.099222412730171
 20
-302.38704000439975
 30
0.0
  0
VERTEX
  5
C6
100
AcDbEntity
  8
0
370
              15
  6
Continuous
 62
               7
100
AcDbVertex
100
AcDb2dVertex
 10
-63.805977679130422
 20
-302.32193638039973
 30
0.0
  0
VERTEX
  5
C7
100
AcDbEntity
  8
0
370
              15
  6
Continuous
 62
               7
100
AcDbVertex
100
AcDb2dVertex
 10
-65.443313315730222
 20
-302.59764848939983
 30
0.0
  0
VERTEX
  5
C8
100
AcDbEntity
  8
0
370
              15
  6
Continuous
 62
               7
100
AcDbVertex
100
AcDb2dVertex
 10
-66.972852389130196
 20
-303.20768429659984
 30
0.0
  0
VERTEX
  5
C9
100
AcDbEntity
  8
0
370
              15
  6
Continuous
 62
               7
100
AcDbVertex
100
AcDb2dVertex
 10
-68.358742135530349
 20
-304.13781352379976
 30
0.0
  0
VERTEX
  5
CA
100
AcDbEntity
  8
0
370
              15
  6
Continuous
 62
               7
100
AcDbVertex
100
AcDb2dVertex
 10
-69.568499370130269
 20
-305.36618161379977
 30
0.0
  0
VERTEX
  5
CB
100
AcDbEntity
  8
0
370
              15
  6
Continuous
 62
               7
100
AcDbVertex
100
AcDb2dVertex
 10
-70.573769432930305
 20
-306.86398081079983
 30
0.0
  0
VERTEX
  5
CC
100
AcDbEntity
  8
0
370
              15
  6
Continuous
 62
               7
100
AcDbVertex
100
AcDb2dVertex
 10
-71.350987726530377
 20
-308.59617219479981
 30
0.0
  0
VERTEX
  5
CD
100
AcDbEntity
  8
0
370
              15
  6
Continuous
 62
               7
100
AcDbVertex
100
AcDb2dVertex
 10
-71.881939142330168
 20
-310.52209018759982
 30
0.0
  0
VERTEX
  5
CE
100
AcDbEntity
  8
0
370
              15
  6
Continuous
 62
               7
100
AcDbVertex
100
AcDb2dVertex
 10
-72.154176036930323
 20
-312.59664524899983
 30
0.0
  0
VERTEX
  5
CF
100
AcDbEntity
  8
0
370
              15
  6
Continuous
 62
               7
100
AcDbVertex
100
AcDb2dVertex
 10
-72.161318854930244
 20
-314.77115823819975
 30
0.0
  0
VERTEX
  5
D0
100
AcDbEntity
  8
0
370
              15
  6
Continuous
 62
               7
100
AcDbVertex
100
AcDb2dVertex
 10
-71.903200013930302
 20
-316.99471173999973
 30
0.0
  0
VERTEX
  5
D1
100
AcDbEntity
  8
0
370
              15
  6
Continuous
 62
               7
100
AcDbVertex
100
AcDb2dVertex
 10
-71.38587001453044
 20
-319.21513781079977
 30
0.0
  0
VERTEX
  5
D2
100
AcDbEntity
  8
0
370
              15
  6
Continuous
 62
               7
100
AcDbVertex
100
AcDb2dVertex
 10
-70.621454055930201
 20
-321.38043621859981
 30
0.0
  0
VERTEX
  5
D3
100
AcDbEntity
  8
0
370
              15
  6
Continuous
 62
               7
100
AcDbVertex
100
AcDb2dVertex
 10
-69.627869468330402
 20
-323.43982943039975
 30
0.0
  0
VERTEX
  5
D4
100
AcDbEntity
  8
0
370
              15
  6
Continuous
 62
               7
100
AcDbVertex
100
AcDb2dVertex
 10
-68.428405382330141
 20
-325.34504752539976
 30
0.0
  0
VERTEX
  5
D5
100
AcDbEntity
  8
0
370
              15
  6
Continuous
 62
               7
100
AcDbVertex
100
AcDb2dVertex
 10
-67.051176126530265
 20
-327.05144468359981
 30
0.0
  0
VERTEX
  5
D6
100
AcDbEntity
  8
0
370
              15
  6
Continuous
 62
               7
100
AcDbVertex
100
AcDb2dVertex
 10
-65.528461535930376
 20
-328.51902897039975
 30
0.0
  0
VERTEX
  5
D7
100
AcDbEntity
  8
0
370
              15
  6
Continuous
 62
               7
100
AcDbVertex
100
AcDb2dVertex
 10
-63.895955003130268
 20
-329.71337229819983
 30
0.0
  0
VERTEX
  5
D8
100
AcDbEntity
  8
0
370
              15
  6
Continuous
 62
               7
100
AcDbVertex
100
AcDb2dVertex
 10
-62.191919186330153
 20
-330.60651363599982
 30
0.0
  0
VERTEX
  5
D9
100
AcDbEntity
  8
0
370
              15
  6
Continuous
 62
               7
100
AcDbVertex
100
AcDb2dVertex
 10
-60.456296884730193
 20
-331.17747699339975
 30
0.0
  0
SEQEND
  5
DA
100
AcDbEntity
  8
0
370
              15
  6
Continuous
 62
               7
  0
POLYLINE
  5
DB
100
AcDbEntity
  8
0
370
              15
  6
Continuous
 62
               7
100
AcDb2dPolyline
 66
               1
 10
0.0
 20
0.0
 30
0.0
 75
               5
  0
VERTEX
  5
DC
100
AcDbEntity
  8
0
370
              15
  6
Continuous
 62
               7
100
AcDbVertex
100
AcDb2dVertex
 10
-58.0895604067303
 20
-418.49973265519975
 30
0.0
  0
VERTEX
  5
DD
100
AcDbEntity
  8
0
370
              15
  6
Continuous
 62
               7
100
AcDbVertex
100
AcDb2dVertex
 10
-56.9608251825303
 20
-418.59646516899977
 30
0.0
  0
VERTEX
  5
DE
100
AcDbEntity
  8
0
370
              15
  6
Continuous
 62
               7
100
AcDbVertex
100
AcDb2dVertex
 10
-55.902003363530469
 20
-418.35359525179979
 30
0.0
  0
VERTEX
  5
DF
100
AcDbEntity
  8
0
370
              15
  6
Continuous
 62
               7
100
AcDbVertex
100
AcDb2dVertex
 10
-54.970176352130295
 20
-417.78422382639974
 30
0.0
  0
VERTEX
  5
E0
100
AcDbEntity
  8
0
370
              15
  6
Continuous
 62
               7
100
AcDbVertex
100
AcDb2dVertex
 10
-54.215581906530417
 20
-416.91892915079984
 30
0.0
  0
VERTEX
  5
E1
100
AcDbEntity
  8
0
370
              15
  6
Continuous
 62
               7
100
AcDbVertex
100
AcDb2dVertex
 10
-53.67889780213028
 20
-415.80447771039974
 30
0.0
  0
VERTEX
  5
E2
100
AcDbEntity
  8
0
370
              15
  6
Continuous
 62
               7
100
AcDbVertex
100
AcDb2dVertex
 10
-53.389056152530259
 20
-414.50094187779973
 30
0.0
  0
VERTEX
  5
E3
100
AcDbEntity
  8
0
370
              15
  6
Continuous
 62
               7
100
AcDbVertex
100
AcDb2dVertex
 10
-53.361685920530192
 20
-413.0785016773998
 30
0.0
  0
VERTEX
  5
E4
100
AcDbEntity
  8
0
370
              15
  6
Continuous
 62
               7
100
AcDbVertex
100
AcDb2dVertex
 10
-53.598258731730141
 20
-411.61396968459974
 30
0.0
  0
VERTEX
  5
E5
100
AcDbEntity
  8
0
370
              15
  6
Continuous
 62
               7
100
AcDbVertex
100
AcDb2dVertex
 10
-54.086024135330319
 20
-410.1861711319998
 30
0.0
  0
VERTEX
  5
E6
100
AcDbEntity
  8
0
370
              15
  6
Continuous
 62
               7
100
AcDbVertex
100
AcDb2dVertex
 10
-54.798684223530302
 20
-408.87216923039978
 30
0.0
  0
VERTEX
  5
E7
100
AcDbEntity
  8
0
370
              15
  6
Continuous
 62
               7
100
AcDbVertex
100
AcDb2dVertex
 10
-55.69781966313036
 20
-407.74280675059981
 30
0.0
  0
VERTEX
  5
E8
100
AcDbEntity
  8
0
370
              15
  6
Continuous
 62
               7
100
AcDbVertex
100
AcDb2dVertex
 10
-56.734959336930217
 20
-406.85888902739975
 30
0.0
  0
VERTEX
  5
E9
100
AcDbEntity
  8
0
370
              15
  6
Continuous
 62
               7
100
AcDbVertex
100
AcDb2dVertex
 10
-57.854189073730424
 20
-406.26814577899984
 30
0.0
  0
VERTEX
  5
EA
100
AcDbEntity
  8
0
370
              15
  6
Continuous
 62
               7
100
AcDbVertex
100
AcDb2dVertex
 10
-58.995171915330332
 20
-406.00237969059981
 30
0.0
  0
VERTEX
  5
EB
100
AcDbEntity
  8
0
370
              15
  6
Continuous
 62
               7
100
AcDbVertex
100
AcDb2dVertex
 10
-60.096397307730342
 20
-406.07591825119982
 30
0.0
  0
VERTEX
  5
EC
100
AcDbEntity
  8
0
370
              15
  6
Continuous
 62
               7
100
AcDbVertex
100
AcDb2dVertex
 10
-61.098496499730402
 20
-406.48484150739978
 30
0.0
  0
VERTEX
  5
ED
100
AcDbEntity
  8
0
370
              15
  6
Continuous
 62
               7
100
AcDbVertex
100
AcDb2dVertex
 10
-61.947448567330241
 20
-407.20702662899976
 30
0.0
  0
VERTEX
  5
EE
100
AcDbEntity
  8
0
370
              15
  6
Continuous
 62
               7
100
AcDbVertex
100
AcDb2dVertex
 10
-62.597483507130448
 20
-408.20361961419974
 30
0.0
  0
VERTEX
  5
EF
100
AcDbEntity
  8
0
370
              15
  6
Continuous
 62
               7
100
AcDbVertex
100
AcDb2dVertex
 10
-63.013558379130302
 20
-409.42088906359982
 30
0.0
  0
VERTEX
  5
F0
100
AcDbEntity
  8
0
370
              15
  6
Continuous
 62
               7
100
AcDbVertex
100
AcDb2dVertex
 10
-63.173245022530239
 20
-410.7931213989998
 30
0.0
  0
VERTEX
  5
F1
100
AcDbEntity
  8
0
370
              15
  6
Continuous
 62
               7
100
AcDbVertex
100
AcDb2dVertex
 10
-63.067930994530172
 20
-412.24646738999979
 30
0.0
  0
VERTEX
  5
F2
100
AcDbEntity
  8
0
370
              15
  6
Continuous
 62
               7
100
AcDbVertex
100
AcDb2dVertex
 10
-62.703296848730417
 20
-413.70244852299982
 30
0.0
  0
VERTEX
  5
F3
100
AcDbEntity
  8
0
370
              15
  6
Continuous
 62
               7
100
AcDbVertex
100
AcDb2dVertex
 10
-62.098998551730176
 20
-415.08266594919974
 30
0.0
  0
VERTEX
  5
F4
100
AcDbEntity
  8
0
370
              15
  6
Continuous
 62
               7
100
AcDbVertex
100
AcDb2dVertex
 10
-61.287612871330396
 20
-416.3127201965998
 30
0.0
  0
VERTEX
  5
F5
100
AcDbEntity
  8
0
370
              15
  6
Continuous
 62
               7
100
AcDbVertex
100
AcDb2dVertex
 10
-60.312885629130335
 20
-417.32618021659982
 30
0.0
  0
VERTEX
  5
F6
100
AcDbEntity
  8
0
370
              15
  6
Continuous
 62
               7
100
AcDbVertex
100
AcDb2dVertex
 10
-59.227361014330256
 20
-418.06852702619983
 30
0.0
  0
VERTEX
  5
F7
100
AcDbEntity
  8
0
370
              15
  6
Continuous
 62
               7
100
AcDbVertex
100
AcDb2dVertex
 10
-58.0895604067303
 20
-418.49973265519975
 30
0.0
  0
SEQEND
  5
F8
100
AcDbEntity
  8
0
370
              15
  6
Continuous
 62
               7
  0
LINE
  5
F9
100
AcDbEntity
  8
0
370
              15
  6
Continuous
 62
               7
100
AcDbLine
 10
15.082961132069784
 20
-449.35882242979983
 30
0.0
 11
-30.307673665530331
 21
-466.10457745659983
 31
0.0
  0
POLYLINE
  5
FA
100
AcDbEntity
  8
0
370
              15
  6
Continuous
 62
               7
100
AcDb2dPolyline
 66
               1
 10
0.0
 20
0.0
 30
0.0
 75
               5
  0
VERTEX
  5
FB
100
AcDbEntity
  8
0
370
              15
  6
Continuous
 62
               7
100
AcDbVertex
100
AcDb2dVertex
 10
-83.198088227930214
 20
-453.90304626119973
 30
0.0
  0
VERTEX
  5
FC
100
AcDbEntity
  8
0
370
              15
  6
Continuous
 62
               7
100
AcDbVertex
100
AcDb2dVertex
 10
-83.238566993930192
 20
-453.89134910519977
 30
0.0
  0
VERTEX
  5
FD
100
AcDbEntity
  8
0
370
              15
  6
Continuous
 62
               7
100
AcDbVertex
100
AcDb2dVertex
 10
-83.269947448130381
 20
-453.87731915639984
 30
0.0
  0
VERTEX
  5
FE
100
AcDbEntity
  8
0
370
              15
  6
Continuous
 62
               7
100
AcDbVertex
100
AcDb2dVertex
 10
-83.291027355130439
 20
-453.86149600419981
 30
0.0
  0
VERTEX
  5
FF
100
AcDbEntity
  8
0
370
              15
  6
Continuous
 62
               7
100
AcDbVertex
100
AcDb2dVertex
 10
-83.300993978730332
 20
-453.84448835159981
 30
0.0
  0
VERTEX
  5
100
100
AcDbEntity
  8
0
370
              15
  6
Continuous
 62
               7
100
AcDbVertex
100
AcDb2dVertex
 10
-83.301765538330358
 20
-453.83878611259979
 30
0.0
  0
SEQEND
  5
101
100
AcDbEntity
  8
0
370
              15
  6
Continuous
 62
               7
  0
POLYLINE
  5
102
100
AcDbEntity
  8
0
370
              15
  6
Continuous
 62
               7
100
AcDb2dPolyline
 66
               1
 10
0.0
 20
0.0
 30
0.0
 75
               5
  0
VERTEX
  5
103
100
AcDbEntity
  8
0
370
              15
  6
Continuous
 62
               7
100
AcDbVertex
100
AcDb2dVertex
 10
15.156047120069786
 20
-449.29786509839983
 30
0.0
  0
VERTEX
  5
104
100
AcDbEntity
  8
0
370
              15
  6
Continuous
 62
               7
100
AcDbVertex
100
AcDb2dVertex
 10
15.153748891669636
 20
-449.3097019275998
 30
0.0
  0
VERTEX
  5
105
100
AcDbEntity
  8
0
370
              15
  6
Continuous
 62
               7
100
AcDbVertex
100
AcDb2dVertex
 10
15.140784910269701
 20
-449.32709916819977
 30
0.0
  0
VERTEX
  5
106
100
AcDbEntity
  8
0
370
              15
  6
Continuous
 62
               7
100
AcDbVertex
100
AcDb2dVertex
 10
15.116884099269726
 20
-449.34368515839981
 30
0.0
  0
VERTEX
  5
107
100
AcDbEntity
  8
0
370
              15
  6
Continuous
 62
               7
100
AcDbVertex
100
AcDb2dVertex
 10
15.082961132069784
 20
-449.35882242979983
 30
0.0
  0
SEQEND
  5
108
100
AcDbEntity
  8
0
370
              15
  6
Continuous
 62
               7
  0
LINE
  5
109
100
AcDbEntity
  8
0
370
              15
  6
Continuous
 62
               7
100
AcDbLine
 10
-70.468050036730176
 20
-317.17448003359982
 30
0.0
 11
-70.366158774530334
 21
-317.75578941439983
 31
0.0
  0
SPLINE
  5
10A
100
AcDbEntity
  8
0
370
              15
  6
Continuous
 62
               7
100
AcDbSpline
210
0.0
220
0.0
230
1.0
 70
               8
 71
               2
 72
              10
 73
               7
 74
               0
 42
0.000001
 43
0.000001
 40
0.0
 40
0.0
 40
0.0
 40
1.0
 40
1.0
 40
2.0
 40
2.0
 40
3.0
 40
3.0
 40
3.0
 10
-70.366159006863256
 20
-317.75578162292788
 30
0.0
 10
-70.363218214152255
 20
-317.77882196916278
 30
0.0
 10
-70.360277421441253
 20
-317.80186231539767
 30
0.0
 10
-70.149304657217783
 20
-319.42549509185835
 30
0.0
 10
-69.824694446533442
 20
-321.02363732278559
 30
0.0
 10
-69.820031917525682
 20
-321.04633441226935
 30
0.0
 10
-69.815369388517922
 20
-321.0690315017531
 30
0.0
  0
LINE
  5
10B
100
AcDbEntity
  8
0
370
              15
  6
Continuous
 62
               7
100
AcDbLine
 10
-69.815368267130282
 20
-321.06904256799976
 30
0.0
 11
-69.721276626530255
 21
-321.36257992699973
 31
0.0
  0
POLYLINE
  5
10C
100
AcDbEntity
  8
0
370
              15
  6
Continuous
 62
               7
100
AcDb2dPolyline
 66
               1
 10
0.0
 20
0.0
 30
0.0
 75
               5
  0
VERTEX
  5
10D
100
AcDbEntity
  8
0
370
              15
  6
Continuous
 62
               7
100
AcDbVertex
100
AcDb2dVertex
 10
-69.721276626530255
 20
-321.36257992699973
 30
0.0
  0
VERTEX
  5
10E
100
AcDbEntity
  8
0
370
              15
  6
Continuous
 62
               7
100
AcDbVertex
100
AcDb2dVertex
 10
-68.635072194530323
 20
-323.51711291079982
 30
0.0
  0
VERTEX
  5
10F
100
AcDbEntity
  8
0
370
              15
  6
Continuous
 62
               7
100
AcDbVertex
100
AcDb2dVertex
 10
-67.324283705330174
 20
-325.48977843239982
 30
0.0
  0
VERTEX
  5
110
100
AcDbEntity
  8
0
370
              15
  6
Continuous
 62
               7
100
AcDbVertex
100
AcDb2dVertex
 10
-65.823239590730338
 20
-327.22891561619974
 30
0.0
  0
VERTEX
  5
111
100
AcDbEntity
  8
0
370
              15
  6
Continuous
 62
               7
100
AcDbVertex
100
AcDb2dVertex
 10
-64.171249480930157
 20
-328.68896667319973
 30
0.0
  0
VERTEX
  5
112
100
AcDbEntity
  8
0
370
              15
  6
Continuous
 62
               7
100
AcDbVertex
100
AcDb2dVertex
 10
-62.411575759330219
 20
-329.83173388639977
 30
0.0
  0
VERTEX
  5
113
100
AcDbEntity
  8
0
370
              15
  6
Continuous
 62
               7
100
AcDbVertex
100
AcDb2dVertex
 10
-60.590302992530326
 20
-330.62726471639974
 30
0.0
  0
VERTEX
  5
114
100
AcDbEntity
  8
0
370
              15
  6
Continuous
 62
               7
100
AcDbVertex
100
AcDb2dVertex
 10
-58.755127423730357
 20
-331.05472726439973
 30
0.0
  0
VERTEX
  5
115
100
AcDbEntity
  8
0
370
              15
  6
Continuous
 62
               7
100
AcDbVertex
100
AcDb2dVertex
 10
-56.954109929930212
 20
-331.10292683819978
 30
0.0
  0
VERTEX
  5
116
100
AcDbEntity
  8
0
370
              15
  6
Continuous
 62
               7
100
AcDbVertex
100
AcDb2dVertex
 10
-55.26395954173023
 20
-330.77977078499976
 30
0.0
  0
SEQEND
  5
117
100
AcDbEntity
  8
0
370
              15
  6
Continuous
 62
               7
  0
ARC
  5
118
100
AcDbEntity
  8
0
370
              15
  6
Continuous
 62
               7
100
AcDbCircle
 10
-52.797948509730361
 20
-313.33083782279982
 30
0.0
 40
18.083309249740459
100
AcDbArc
 50
170.83312545720008
 51
192.27194369560004
  0
LINE
  5
119
100
AcDbEntity
  8
0
370
              15
  6
Continuous
 62
               7
100
AcDbLine
 10
-70.577969606530417
 20
-309.94089334039984
 30
0.0
 11
-70.650307410530161
 21
-310.44997769139979
 31
0.0
  0
SPLINE
  5
11A
100
AcDbEntity
  8
0
370
              15
  6
Continuous
 62
               7
100
AcDbSpline
210
0.0
220
0.0
230
1.0
 70
               8
 71
               2
 72
              11
 73
               8
 74
               0
 42
0.000001
 43
0.000001
 40
0.0
 40
0.0
 40
0.0
 40
1.0
 40
1.0
 40
2.0
 40
3.0
 40
3.0
 40
4.0
 40
4.0
 40
4.0
 10
-70.185470865368472
 20
-307.41390085802777
 30
0.0
 10
-70.188728223524151
 20
-307.42811545568645
 30
0.0
 10
-70.19198558167983
 20
-307.44233005334513
 30
0.0
 10
-70.288642384202433
 20
-307.87172126141172
 30
0.0
 10
-70.491529241347791
 20
-309.04922670446194
 30
0.0
 10
-70.574731458073586
 20
-309.90653592098147
 30
0.0
 10
-70.576350488458104
 20
-309.92371663283376
 30
0.0
 10
-70.577969518842622
 20
-309.94089734468605
 30
0.0
  0
LINE
  5
11B
100
AcDbEntity
  8
0
370
              15
  6
Continuous
 62
               7
100
AcDbLine
 10
-70.105333596130379
 20
-307.19255245859983
 30
0.0
 11
-70.185470250930223
 21
-307.41389322899977
 31
0.0
  0
ARC
  5
11C
100
AcDbEntity
  8
0
370
              15
  6
Continuous
 62
               7
100
AcDbCircle
 10
-61.948169073530437
 20
-310.75487665419973
 30
0.0
 40
8.9010946925961889
100
AcDbArc
 50
114.50258833429943
 51
156.40857272169976
  0
POLYLINE
  5
11D
100
AcDbEntity
  8
0
370
              15
  6
Continuous
 62
               7
100
AcDb2dPolyline
 66
               1
 10
0.0
 20
0.0
 30
0.0
 75
               5
  0
VERTEX
  5
11E
100
AcDbEntity
  8
0
370
              15
  6
Continuous
 62
               7
100
AcDbVertex
100
AcDb2dVertex
 10
-57.304706801330269
 20
-418.21018027799983
 30
0.0
  0
VERTEX
  5
11F
100
AcDbEntity
  8
0
370
              15
  6
Continuous
 62
               7
100
AcDbVertex
100
AcDb2dVertex
 10
-56.175971577130269
 20
-418.30691279179973
 30
0.0
  0
VERTEX
  5
120
100
AcDbEntity
  8
0
370
              15
  6
Continuous
 62
               7
100
AcDbVertex
100
AcDb2dVertex
 10
-55.624550213130362
 20
-418.22536697359976
 30
0.0
  0
SEQEND
  5
121
100
AcDbEntity
  8
0
370
              15
  6
Continuous
 62
               7
  0
POLYLINE
  5
122
100
AcDbEntity
  8
0
370
              15
  6
Continuous
 62
               7
100
AcDb2dPolyline
 66
               1
 10
0.0
 20
0.0
 30
0.0
 75
               5
  0
VERTEX
  5
123
100
AcDbEntity
  8
0
370
              15
  6
Continuous
 62
               7
100
AcDbVertex
100
AcDb2dVertex
 10
-60.10597361433048
 20
-406.07810197639981
 30
0.0
  0
VERTEX
  5
124
100
AcDbEntity
  8
0
370
              15
  6
Continuous
 62
               7
100
AcDbVertex
100
AcDb2dVertex
 10
-60.313642894330144
 20
-406.19528913019974
 30
0.0
  0
VERTEX
  5
125
100
AcDbEntity
  8
0
370
              15
  6
Continuous
 62
               7
100
AcDbVertex
100
AcDb2dVertex
 10
-61.162594961930438
 20
-406.91747425179983
 30
0.0
  0
VERTEX
  5
126
100
AcDbEntity
  8
0
370
              15
  6
Continuous
 62
               7
100
AcDbVertex
100
AcDb2dVertex
 10
-61.81262990173019
 20
-407.91406723699981
 30
0.0
  0
VERTEX
  5
127
100
AcDbEntity
  8
0
370
              15
  6
Continuous
 62
               7
100
AcDbVertex
100
AcDb2dVertex
 10
-62.22870477393036
 20
-409.13133668639978
 30
0.0
  0
VERTEX
  5
128
100
AcDbEntity
  8
0
370
              15
  6
Continuous
 62
               7
100
AcDbVertex
100
AcDb2dVertex
 10
-62.388391417130435
 20
-410.50356902179976
 30
0.0
  0
VERTEX
  5
129
100
AcDbEntity
  8
0
370
              15
  6
Continuous
 62
               7
100
AcDbVertex
100
AcDb2dVertex
 10
-62.283077389130369
 20
-411.95691501279975
 30
0.0
  0
VERTEX
  5
12A
100
AcDbEntity
  8
0
370
              15
  6
Continuous
 62
               7
100
AcDbVertex
100
AcDb2dVertex
 10
-61.918443243530248
 20
-413.41289614579978
 30
0.0
  0
VERTEX
  5
12B
100
AcDbEntity
  8
0
370
              15
  6
Continuous
 62
               7
100
AcDbVertex
100
AcDb2dVertex
 10
-61.314144946330373
 20
-414.79311357199981
 30
0.0
  0
VERTEX
  5
12C
100
AcDbEntity
  8
0
370
              15
  6
Continuous
 62
               7
100
AcDbVertex
100
AcDb2dVertex
 10
-60.502759265930365
 20
-416.02316781939976
 30
0.0
  0
VERTEX
  5
12D
100
AcDbEntity
  8
0
370
              15
  6
Continuous
 62
               7
100
AcDbVertex
100
AcDb2dVertex
 10
-59.528032023730304
 20
-417.03662783959976
 30
0.0
  0
VERTEX
  5
12E
100
AcDbEntity
  8
0
370
              15
  6
Continuous
 62
               7
100
AcDbVertex
100
AcDb2dVertex
 10
-58.442507408930226
 20
-417.77897464899979
 30
0.0
  0
VERTEX
  5
12F
100
AcDbEntity
  8
0
370
              15
  6
Continuous
 62
               7
100
AcDbVertex
100
AcDb2dVertex
 10
-57.304706801330269
 20
-418.21018027799983
 30
0.0
  0
SEQEND
  5
130
100
AcDbEntity
  8
0
370
              15
  6
Continuous
 62
               7
  0
LINE
  5
131
100
AcDbEntity
  8
0
370
              15
  6
Continuous
 62
               7
100
AcDbLine
 10
-97.692208160130406
 20
215.79960405900022
 30
0.0
 11
-48.929284085330266
 21
204.44138628340022
 31
0.0
  0
ARC
  5
132
100
AcDbEntity
  8
0
370
              15
  6
Continuous
 62
               7
100
AcDbCircle
 10
-47.068997113930266
 20
201.17549131940029
 30
0.0
 40
3.7585552451975648
100
AcDbArc
 50
119.66627882440184
 51
184.89945428639859
  0
LINE
  5
133
100
AcDbEntity
  8
0
370
              15
  6
Continuous
 62
               7
100
AcDbLine
 10
-50.813819010530381
 20
200.85448276260024
 30
0.0
 11
-99.576743085330293
 21
212.21270053820024
 31
0.0
  0
ARC
  5
134
100
AcDbEntity
  8
0
370
              15
  6
Continuous
 62
               7
100
AcDbCircle
 10
-95.831921188730405
 20
212.53370909520015
 30
0.0
 40
3.75855524519796
100
AcDbArc
 50
119.6662788243984
 51
184.89945428640158
  0
LINE
  5
135
100
AcDbEntity
  8
0
370
              15
  6
Continuous
 62
               7
100
AcDbLine
 10
-49.145464060530287
 20
139.29946012200014
 30
0.0
 11
-50.813819010530381
 21
200.85448276260024
 31
0.0
  0
LINE
  5
136
100
AcDbEntity
  8
0
370
              15
  6
Continuous
 62
               7
100
AcDbLine
 10
-97.908388135330199
 20
150.65767789760014
 30
0.0
 11
-49.145464060530287
 21
139.29946012200014
 31
0.0
  0
LINE
  5
137
100
AcDbEntity
  8
0
370
              15
  6
Continuous
 62
               7
100
AcDbLine
 10
-99.576743085330293
 20
212.21270053820024
 30
0.0
 11
-97.908388135330199
 21
150.65767789760014
 31
0.0
  0
LINE
  5
138
100
AcDbEntity
  8
0
370
              15
  6
Continuous
 62
               7
100
AcDbLine
 10
-6.743464318330382
 20
220.00480386000015
 30
0.0
 11
-55.506388393130294
 21
231.36302163580024
 31
0.0
  0
LINE
  5
139
100
AcDbEntity
  8
0
370
              15
  6
Continuous
 62
               7
100
AcDbLine
 10
-48.929284085330266
 20
204.44138628340022
 30
0.0
 11
-6.743464318330382
 21
220.00480386000015
 31
0.0
  0
LINE
  5
13A
100
AcDbEntity
  8
0
370
              15
  6
Continuous
 62
               7
100
AcDbLine
 10
-55.506388393130294
 20
231.36302163580024
 30
0.0
 11
-97.692208160130406
 21
215.79960405900022
 31
0.0
  0
ARC
  5
13B
100
AcDbEntity
  8
0
370
              15
  6
Continuous
 62
               7
100
AcDbCircle
 10
-50.142536776530335
 20
201.09537273340027
 30
0.0
 40
3.5591837222662588
100
AcDbArc
 50
359.27075458899969
 51
70.069534294298307
  0
ARC
  5
13C
100
AcDbEntity
  8
0
370
              15
  6
Continuous
 62
               7
100
AcDbCircle
 10
-49.076980355330363
 20
209.13295462760027
 30
0.0
 40
8.4587058665051611
100
AcDbArc
 50
258.15109532389909
 51
287.14350713679954
  0
LINE
  5
13D
100
AcDbEntity
  8
0
370
              15
  6
Continuous
 62
               7
100
AcDbLine
 10
-46.58364133573042
 20
201.05007361480023
 30
0.0
 11
-44.915286385730326
 21
139.49505097420013
 31
0.0
  0
ARC
  5
13E
100
AcDbEntity
  8
0
370
              15
  6
Continuous
 62
               7
100
AcDbCircle
 10
-47.40862540533027
 20
147.57793198700017
 30
0.0
 40
8.4587058665021289
100
AcDbArc
 50
258.15109532389948
 51
287.14350713680096
  0
ARC
  5
13F
100
AcDbEntity
  8
0
370
              15
  6
Continuous
 62
               7
100
AcDbCircle
 10
-7.9567170097303119
 20
216.65879031020029
 30
0.0
 40
3.5591837222673957
100
AcDbArc
 50
359.27075458900003
 51
70.069534294300297
  0
LINE
  5
140
100
AcDbEntity
  8
0
370
              15
  6
Continuous
 62
               7
100
AcDbLine
 10
-4.3978215689301692
 20
216.61349119140016
 30
0.0
 11
-46.58364133573042
 21
201.05007361480023
 31
0.0
  0
LINE
  5
141
100
AcDbEntity
  8
0
370
              15
  6
Continuous
 62
               7
100
AcDbLine
 10
-2.7294666187302141
 20
155.05846855080028
 30
0.0
 11
-4.3978215689301692
 21
216.61349119140016
 31
0.0
  0
LINE
  5
142
100
AcDbEntity
  8
0
370
              15
  6
Continuous
 62
               7
100
AcDbLine
 10
-44.915286385730326
 20
139.49505097420013
 30
0.0
 11
-2.7294666187302141
 21
155.05846855080028
 31
0.0
  0
ARC
  5
143
100
AcDbEntity
  8
0
370
              15
  6
Continuous
 62
               7
100
AcDbCircle
 10
-46.883670089330337
 20
136.25159771180017
 30
0.0
 40
2.6961087421806362
100
AcDbArc
 50
258.15113736820012
 51
287.14346509249816
  0
ARC
  5
144
100
AcDbEntity
  8
0
370
              15
  6
Continuous
 62
               7
100
AcDbCircle
 10
-46.814839624730268
 20
133.65961049840018
 30
0.0
 40
0.6241721153752893
100
AcDbArc
 50
119.58476778820989
 51
184.28848665069748
  0
ARC
  5
145
100
AcDbEntity
  8
0
370
              15
  6
Continuous
 62
               7
100
AcDbCircle
 10
-46.858834593730364
 20
135.46154677740026
 30
0.0
 40
1.2865521945755609
100
AcDbArc
 50
258.15128632700686
 51
287.14331613360736
  0
ARC
  5
146
100
AcDbEntity
  8
0
370
              15
  6
Continuous
 62
               7
100
AcDbCircle
 10
-46.680812841530326
 20
133.67554350000012
 30
0.0
 40
0.5918621510215801
100
AcDbArc
 50
359.97429305030761
 51
70.125917451706826
  0
ARC
  5
147
100
AcDbEntity
  8
0
370
              15
  6
Continuous
 62
               7
100
AcDbCircle
 10
-46.822068652330302
 20
133.96770295900012
 30
0.0
 40
2.8195922682113843
100
AcDbArc
 50
258.15120116120272
 51
287.14340129950284
  0
LINE
  5
148
100
AcDbEntity
  8
0
370
              15
  6
Continuous
 62
               7
100
AcDbLine
 10
-47.401014628730366
 20
131.20818812560026
 30
0.0
 11
-47.437264170530227
 21
133.61293594060032
 31
0.0
  0
LINE
  5
149
100
AcDbEntity
  8
0
370
              15
  6
Continuous
 62
               7
100
AcDbLine
 10
-46.088950750130437
 20
133.67527794880027
 30
0.0
 11
-45.990953652730298
 21
131.27338515740018
 31
0.0
  0
LINE
  5
14A
100
AcDbEntity
  8
0
370
              15
  6
Continuous
 62
               7
100
AcDbLine
 10
-47.437264170530227
 20
133.61293594060032
 30
0.0
 11
-99.602254156730226
 21
145.76358785020022
 31
0.0
  0
ARC
  5
14B
100
AcDbEntity
  8
0
370
              15
  6
Continuous
 62
               7
100
AcDbCircle
 10
-98.979829610930267
 20
145.81026240820017
 30
0.0
 40
0.6241721153759947
100
AcDbArc
 50
119.58476778819711
 51
184.28848665069236
  0
LINE
  5
14C
100
AcDbEntity
  8
0
370
              15
  6
Continuous
 62
               7
100
AcDbLine
 10
-99.287990057930358
 20
146.35305884180013
 30
0.0
 11
-47.12300007173036
 21
134.20240693220023
 31
0.0
  0
ARC
  5
14D
100
AcDbEntity
  8
0
370
              15
  6
Continuous
 62
               7
100
AcDbCircle
 10
-40.085426776130419
 20
174.64206919520018
 30
0.0
 40
33.155321668939969
100
AcDbArc
 50
285.11402805830016
 51
295.38656251950022
  0
ARC
  5
14E
100
AcDbEntity
  8
0
370
              15
  6
Continuous
 62
               7
100
AcDbCircle
 10
-58.483874641930299
 20
185.6712760326003
 30
0.0
 40
45.263192994811433
100
AcDbArc
 50
249.48451039610001
 51
264.20851377050002
  0
POLYLINE
  5
14F
100
AcDbEntity
  8
0
370
              15
  6
Continuous
 62
               7
100
AcDb2dPolyline
 66
               1
 10
0.0
 20
0.0
 30
0.0
 75
               5
  0
VERTEX
  5
150
100
AcDbEntity
  8
0
370
              15
  6
Continuous
 62
               7
100
AcDbVertex
100
AcDb2dVertex
 10
-1.3505890873303201
 20
150.88139339240013
 30
0.0
  0
VERTEX
  5
151
100
AcDbEntity
  8
0
370
              15
  6
Continuous
 62
               7
100
AcDbVertex
100
AcDb2dVertex
 10
-1.2989961575302118
 20
150.90441745920032
 30
0.0
  0
VERTEX
  5
152
100
AcDbEntity
  8
0
370
              15
  6
Continuous
 62
               7
100
AcDbVertex
100
AcDb2dVertex
 10
-1.2626427513303611
 20
150.92964359140012
 30
0.0
  0
VERTEX
  5
153
100
AcDbEntity
  8
0
370
              15
  6
Continuous
 62
               7
100
AcDbVertex
100
AcDb2dVertex
 10
-1.2429283295303435
 20
150.95610291680021
 30
0.0
  0
VERTEX
  5
154
100
AcDbEntity
  8
0
370
              15
  6
Continuous
 62
               7
100
AcDbVertex
100
AcDb2dVertex
 10
-1.2406033935301934
 20
150.98277951800026
 30
0.0
  0
VERTEX
  5
155
100
AcDbEntity
  8
0
370
              15
  6
Continuous
 62
               7
100
AcDbVertex
100
AcDb2dVertex
 10
-1.2557652811304365
 20
151.00864758040018
 30
0.0
  0
VERTEX
  5
156
100
AcDbEntity
  8
0
370
              15
  6
Continuous
 62
               7
100
AcDbVertex
100
AcDb2dVertex
 10
-1.2878232035303085
 20
151.03271310620028
 30
0.0
  0
VERTEX
  5
157
100
AcDbEntity
  8
0
370
              15
  6
Continuous
 62
               7
100
AcDbVertex
100
AcDb2dVertex
 10
-1.3355525807303934
 20
151.05405150040031
 30
0.0
  0
VERTEX
  5
158
100
AcDbEntity
  8
0
370
              15
  6
Continuous
 62
               7
100
AcDbVertex
100
AcDb2dVertex
 10
-1.3971171019302915
 20
151.07184350260025
 30
0.0
  0
SEQEND
  5
159
100
AcDbEntity
  8
0
370
              15
  6
Continuous
 62
               7
  0
LINE
  5
15A
100
AcDbEntity
  8
0
370
              15
  6
Continuous
 62
               7
100
AcDbLine
 10
-46.479606828730368
 20
134.23215552500017
 30
0.0
 11
-1.3505890873303201
 21
150.88139339240013
 31
0.0
  0
POLYLINE
  5
15B
100
AcDbEntity
  8
0
370
              15
  6
Continuous
 62
               7
100
AcDb2dPolyline
 66
               1
 10
0.0
 20
0.0
 30
0.0
 75
               5
  0
VERTEX
  5
15C
100
AcDbEntity
  8
0
370
              15
  6
Continuous
 62
               7
100
AcDbVertex
100
AcDb2dVertex
 10
-99.334518072330241
 20
146.54350895200025
 30
0.0
  0
VERTEX
  5
15D
100
AcDbEntity
  8
0
370
              15
  6
Continuous
 62
               7
100
AcDbVertex
100
AcDb2dVertex
 10
-99.38611100233021
 20
146.52048488520029
 30
0.0
  0
VERTEX
  5
15E
100
AcDbEntity
  8
0
370
              15
  6
Continuous
 62
               7
100
AcDbVertex
100
AcDb2dVertex
 10
-99.422464408330427
 20
146.49525875300026
 30
0.0
  0
VERTEX
  5
15F
100
AcDbEntity
  8
0
370
              15
  6
Continuous
 62
               7
100
AcDbVertex
100
AcDb2dVertex
 10
-99.442178830330306
 20
146.46879942760017
 30
0.0
  0
VERTEX
  5
160
100
AcDbEntity
  8
0
370
              15
  6
Continuous
 62
               7
100
AcDbVertex
100
AcDb2dVertex
 10
-99.444503766330229
 20
146.44212282640012
 30
0.0
  0
VERTEX
  5
161
100
AcDbEntity
  8
0
370
              15
  6
Continuous
 62
               7
100
AcDbVertex
100
AcDb2dVertex
 10
-99.429341878530352
 20
146.41625476420029
 30
0.0
  0
VERTEX
  5
162
100
AcDbEntity
  8
0
370
              15
  6
Continuous
 62
               7
100
AcDbVertex
100
AcDb2dVertex
 10
-99.397283956330341
 20
146.3921892382001
 30
0.0
  0
VERTEX
  5
163
100
AcDbEntity
  8
0
370
              15
  6
Continuous
 62
               7
100
AcDbVertex
100
AcDb2dVertex
 10
-99.349554578930395
 20
146.37085084420016
 30
0.0
  0
VERTEX
  5
164
100
AcDbEntity
  8
0
370
              15
  6
Continuous
 62
               7
100
AcDbVertex
100
AcDb2dVertex
 10
-99.287990057930358
 20
146.35305884180013
 30
0.0
  0
SEQEND
  5
165
100
AcDbEntity
  8
0
370
              15
  6
Continuous
 62
               7
  0
LINE
  5
166
100
AcDbEntity
  8
0
370
              15
  6
Continuous
 62
               7
100
AcDbLine
 10
-0.959933008730161
 20
150.32451581620023
 30
0.0
 11
-46.088950750130437
 21
133.67527794880027
 31
0.0
  0
ARC
  5
167
100
AcDbEntity
  8
0
370
              15
  6
Continuous
 62
               7
100
AcDbCircle
 10
-1.5517951001302777
 20
150.32478136760017
 30
0.0
 40
0.5918621510218076
100
AcDbArc
 50
359.97429305030761
 51
70.12591745170397
  0
LINE
  5
168
100
AcDbEntity
  8
0
370
              15
  6
Continuous
 62
               7
100
AcDbLine
 10
-99.566004614730275
 20
143.35884003520016
 30
0.0
 11
-47.401014628730366
 21
131.20818812560026
 31
0.0
  0
LINE
  5
169
100
AcDbEntity
  8
0
370
              15
  6
Continuous
 62
               7
100
AcDbLine
 10
-99.602254156730226
 20
145.76358785020022
 30
0.0
 11
-99.566004614730275
 21
143.35884003520016
 31
0.0
  0
LINE
  5
16A
100
AcDbEntity
  8
0
370
              15
  6
Continuous
 62
               7
100
AcDbLine
 10
-45.990953652730298
 20
131.27338515740018
 30
0.0
 11
-0.8619359113302494
 21
147.92262302480015
 31
0.0
  0
LINE
  5
16B
100
AcDbEntity
  8
0
370
              15
  6
Continuous
 62
               7
100
AcDbLine
 10
-0.8619359113302494
 20
147.92262302480015
 30
0.0
 11
-0.959933008730161
 21
150.32451581620023
 31
0.0
  0
LINE
  5
16C
100
AcDbEntity
  8
0
370
              15
  6
Continuous
 62
               7
100
AcDbLine
 10
-99.932195815730267
 20
145.96110136560026
 30
0.0
 11
-99.932738815330424
 21
145.96995595140027
 31
0.0
  0
POLYLINE
  5
16D
100
AcDbEntity
  8
0
370
              15
  6
Continuous
 62
               7
100
AcDb2dPolyline
 66
               1
 10
0.0
 20
0.0
 30
0.0
 75
               5
  0
VERTEX
  5
16E
100
AcDbEntity
  8
0
370
              15
  6
Continuous
 62
               7
100
AcDbVertex
100
AcDb2dVertex
 10
-99.494644552930197
 20
146.53543266020017
 30
0.0
  0
VERTEX
  5
16F
100
AcDbEntity
  8
0
370
              15
  6
Continuous
 62
               7
100
AcDbVertex
100
AcDb2dVertex
 10
-99.54033216713043
 20
146.51325427860013
 30
0.0
  0
VERTEX
  5
170
100
AcDbEntity
  8
0
370
              15
  6
Continuous
 62
               7
100
AcDbVertex
100
AcDb2dVertex
 10
-99.544897500730315
 20
146.5103936902002
 30
0.0
  0
SEQEND
  5
171
100
AcDbEntity
  8
0
370
              15
  6
Continuous
 62
               7
  0
POLYLINE
  5
172
100
AcDbEntity
  8
0
370
              15
  6
Continuous
 62
               7
100
AcDb2dPolyline
 66
               1
 10
0.0
 20
0.0
 30
0.0
 75
               5
  0
VERTEX
  5
173
100
AcDbEntity
  8
0
370
              15
  6
Continuous
 62
               7
100
AcDbVertex
100
AcDb2dVertex
 10
-99.566004614730275
 20
143.35884003520016
 30
0.0
  0
VERTEX
  5
174
100
AcDbEntity
  8
0
370
              15
  6
Continuous
 62
               7
100
AcDbVertex
100
AcDb2dVertex
 10
-99.700927769930161
 20
143.39783109800021
 30
0.0
  0
VERTEX
  5
175
100
AcDbEntity
  8
0
370
              15
  6
Continuous
 62
               7
100
AcDbVertex
100
AcDb2dVertex
 10
-99.805531846930364
 20
143.44459721320015
 30
0.0
  0
VERTEX
  5
176
100
AcDbEntity
  8
0
370
              15
  6
Continuous
 62
               7
100
AcDbVertex
100
AcDb2dVertex
 10
-99.875797011330462
 20
143.49733979900031
 30
0.0
  0
VERTEX
  5
177
100
AcDbEntity
  8
0
370
              15
  6
Continuous
 62
               7
100
AcDbVertex
100
AcDb2dVertex
 10
-99.909023657130376
 20
143.55403254900023
 30
0.0
  0
VERTEX
  5
178
100
AcDbEntity
  8
0
370
              15
  6
Continuous
 62
               7
100
AcDbVertex
100
AcDb2dVertex
 10
-99.911624593930185
 20
143.57465935220023
 30
0.0
  0
SEQEND
  5
179
100
AcDbEntity
  8
0
370
              15
  6
Continuous
 62
               7
  0
LINE
  5
17A
100
AcDbEntity
  8
0
370
              15
  6
Continuous
 62
               7
100
AcDbLine
 10
-1.2707586731301603
 20
151.08163641540011
 30
0.0
 11
-1.2178643053303517
 21
151.06109758820014
 31
0.0
  0
LINE
  5
17B
100
AcDbEntity
  8
0
370
              15
  6
Continuous
 62
               7
100
AcDbLine
 10
-0.7277880697304795
 20
150.52841623620031
 30
0.0
 11
-0.7270378433302653
 21
150.52035510420012
 31
0.0
  0
POLYLINE
  5
17C
100
AcDbEntity
  8
0
370
              15
  6
Continuous
 62
               7
100
AcDb2dPolyline
 66
               1
 10
0.0
 20
0.0
 30
0.0
 75
               5
  0
VERTEX
  5
17D
100
AcDbEntity
  8
0
370
              15
  6
Continuous
 62
               7
100
AcDbVertex
100
AcDb2dVertex
 10
-0.6183762865303493
 20
148.12743097540022
 30
0.0
  0
VERTEX
  5
17E
100
AcDbEntity
  8
0
370
              15
  6
Continuous
 62
               7
100
AcDbVertex
100
AcDb2dVertex
 10
-0.6259807737304186
 20
148.08635653360022
 30
0.0
  0
VERTEX
  5
17F
100
AcDbEntity
  8
0
370
              15
  6
Continuous
 62
               7
100
AcDbVertex
100
AcDb2dVertex
 10
-0.6691934859302933
 20
148.02836706800019
 30
0.0
  0
VERTEX
  5
180
100
AcDbEntity
  8
0
370
              15
  6
Continuous
 62
               7
100
AcDbVertex
100
AcDb2dVertex
 10
-0.7488655459304141
 20
147.97308057160024
 30
0.0
  0
VERTEX
  5
181
100
AcDbEntity
  8
0
370
              15
  6
Continuous
 62
               7
100
AcDbVertex
100
AcDb2dVertex
 10
-0.8619359113302494
 20
147.92262302480015
 30
0.0
  0
SEQEND
  5
182
100
AcDbEntity
  8
0
370
              15
  6
Continuous
 62
               7
  0
LINE
  5
183
100
AcDbEntity
  8
0
370
              15
  6
Continuous
 62
               7
100
AcDbLine
 10
-46.918950555330241
 20
131.15197645500018
 30
0.0
 11
-30.730693008930359
 21
-466.1241366147998
 31
0.0
  0
LINE
  5
184
100
AcDbEntity
  8
0
370
              15
  6
Continuous
 62
               7
100
AcDbLine
 10
-46.495822857130236
 20
131.16753779180033
 30
0.0
 11
-30.307673665530331
 21
-466.10457745659983
 31
0.0
  0
LINE
  5
185
100
AcDbEntity
  8
0
370
              15
  6
Continuous
 62
               7
100
AcDbLine
 10
-99.384816322130348
 20
143.31663669140028
 30
0.0
 11
-83.198088227930214
 21
-453.90304626119973
 31
0.0
  0
LINE
  5
186
100
AcDbEntity
  8
0
370
              15
  6
Continuous
 62
               7
100
AcDbLine
 10
-1.103030212930264
 20
147.83367769400013
 30
0.0
 11
15.082961132069784
 21
-449.35882242979983
 31
0.0
  0
LINE
  5
187
100
AcDbEntity
  8
0
370
              15
  6
Continuous
 62
               7
100
AcDbLine
 10
-54.786311857730254
 20
-306.51237193399982
 30
0.0
 11
-54.144729393730188
 21
-330.18396717239978
 31
0.0
  0
LINE
  5
188
100
AcDbEntity
  8
0
370
              15
  6
Continuous
 62
               7
100
AcDbLine
 10
-54.653135832130204
 20
-306.65606680319979
 30
0.0
 11
-54.017700253130272
 21
-330.10086879159974
 31
0.0
  0
LINE
  5
189
100
AcDbEntity
  8
0
370
              15
  6
Continuous
 62
               7
100
AcDbLine
 10
-53.241757221730325
 20
-308.40551419359974
 30
0.0
 11
-52.683823732730445
 21
-328.9908270223998
 31
0.0
  0
LINE
  5
18A
100
AcDbEntity
  8
0
370
              15
  6
Continuous
 62
               7
100
AcDbLine
 10
-53.107281516130399
 20
-308.59716158599974
 30
0.0
 11
-52.55809273013034
 21
-328.85983300159978
 31
0.0
  0
LINE
  5
18B
100
AcDbEntity
  8
0
370
              15
  6
Continuous
 62
               7
100
AcDbLine
 10
-49.669956575930257
 20
-317.47454560499978
 30
0.0
 11
-49.561365463130471
 21
-321.48108414659976
 31
0.0
  0
LINE
  5
18C
100
AcDbEntity
  8
0
370
              15
  6
Continuous
 62
               7
100
AcDbLine
 10
-49.579794417330334
 20
-318.25929425139975
 30
0.0
 11
-49.512866295330298
 21
-320.72865010159978
 31
0.0
  0
ARC
  5
18D
100
AcDbEntity
  8
0
370
              15
  6
Continuous
 62
               7
100
AcDbCircle
 10
-95.787783054130443
 20
150.42158798820026
 30
0.0
 40
2.1337067172711799
100
AcDbArc
 50
173.64734147019811
 51
246.84438095530192
  0
ARC
  5
18E
100
AcDbEntity
  8
0
370
              15
  6
Continuous
 62
               7
100
AcDbCircle
 10
-47.024858979330304
 20
139.06337021240017
 30
0.0
 40
2.1337067172720836
100
AcDbArc
 50
173.64734147020079
 51
246.84438095529566
  0
ARC
  5
18F
100
AcDbEntity
  8
0
370
              15
  6
Continuous
 62
               7
100
AcDbCircle
 10
-47.126427526330474
 20
139.21048365080026
 30
0.0
 40
2.2293774255060241
100
AcDbArc
 50
296.11928652490519
 51
7.3334866052998668
  0
ARC
  5
190
100
AcDbEntity
  8
0
370
              15
  6
Continuous
 62
               7
100
AcDbCircle
 10
-4.9406077595302236
 20
154.77390122760028
 30
0.0
 40
2.2293774255058239
100
AcDbArc
 50
296.11928652489468
 51
7.3334866053006067
  0
ARC
  5
191
100
AcDbEntity
  8
0
370
              15
  6
Continuous
 62
               7
100
AcDbCircle
 10
-6.2689931875302705
 20
218.80354094480015
 30
0.0
 40
1.2915709215615476
100
AcDbArc
 50
77.311616838296416
 51
111.55287619220532
  0
ARC
  5
192
100
AcDbEntity
  8
0
370
              15
  6
Continuous
 62
               7
100
AcDbCircle
 10
-55.031917262330182
 20
230.16175872060023
 30
0.0
 40
1.2915709215587359
100
AcDbArc
 50
77.311616838299329
 51
111.55287619219777
  0
POLYLINE
  5
193
100
AcDbEntity
  8
0
370
              15
  6
Continuous
 62
               7
100
AcDb2dPolyline
 66
               1
 10
0.0
 20
0.0
 30
0.0
 75
               5
  0
VERTEX
  5
194
100
AcDbEntity
  8
0
370
              15
  6
Continuous
 62
               7
100
AcDbVertex
100
AcDb2dVertex
 10
-100.61351055653023
 20
212.85530071220012
 30
0.0
  0
VERTEX
  5
195
100
AcDbEntity
  8
0
370
              15
  6
Continuous
 62
               7
100
AcDbVertex
100
AcDb2dVertex
 10
-100.60579739613041
 20
212.79827742360033
 30
0.0
  0
VERTEX
  5
196
100
AcDbEntity
  8
0
370
              15
  6
Continuous
 62
               7
100
AcDbVertex
100
AcDb2dVertex
 10
-100.50612271133042
 20
212.62819893040012
 30
0.0
  0
VERTEX
  5
197
100
AcDbEntity
  8
0
370
              15
  6
Continuous
 62
               7
100
AcDbVertex
100
AcDb2dVertex
 10
-100.29532965493019
 20
212.46997027420014
 30
0.0
  0
VERTEX
  5
198
100
AcDbEntity
  8
0
370
              15
  6
Continuous
 62
               7
100
AcDbVertex
100
AcDb2dVertex
 10
-99.98151536733036
 20
212.32967438260027
 30
0.0
  0
VERTEX
  5
199
100
AcDbEntity
  8
0
370
              15
  6
Continuous
 62
               7
100
AcDbVertex
100
AcDb2dVertex
 10
-99.576743085330293
 20
212.21270053820024
 30
0.0
  0
SEQEND
  5
19A
100
AcDbEntity
  8
0
370
              15
  6
Continuous
 62
               7
  0
ARC
  5
19B
100
AcDbEntity
  8
0
370
              15
  6
Continuous
 62
               7
100
AcDbCircle
 10
-98.093348755130421
 20
214.20399609320032
 30
0.0
 40
1.6452594196374519
100
AcDbArc
 50
75.888125310998532
 51
109.88581542618994
  0
POLYLINE
  5
19C
100
AcDbEntity
  8
0
370
              15
  6
Continuous
 62
               7
100
AcDb2dPolyline
 66
               1
 10
0.0
 20
0.0
 30
0.0
 75
               5
  0
VERTEX
  5
19D
100
AcDbEntity
  8
0
370
              15
  6
Continuous
 62
               7
100
AcDbVertex
100
AcDb2dVertex
 10
-98.945155606330275
 20
151.30027807160025
 30
0.0
  0
VERTEX
  5
19E
100
AcDbEntity
  8
0
370
              15
  6
Continuous
 62
               7
100
AcDbVertex
100
AcDb2dVertex
 10
-98.937442446130319
 20
151.24325478300022
 30
0.0
  0
VERTEX
  5
19F
100
AcDbEntity
  8
0
370
              15
  6
Continuous
 62
               7
100
AcDbVertex
100
AcDb2dVertex
 10
-98.837767761330326
 20
151.07317628980024
 30
0.0
  0
VERTEX
  5
1A0
100
AcDbEntity
  8
0
370
              15
  6
Continuous
 62
               7
100
AcDbVertex
100
AcDb2dVertex
 10
-98.626974704930319
 20
150.91494763360026
 30
0.0
  0
VERTEX
  5
1A1
100
AcDbEntity
  8
0
370
              15
  6
Continuous
 62
               7
100
AcDbVertex
100
AcDb2dVertex
 10
-98.313160417330266
 20
150.77465174200017
 30
0.0
  0
VERTEX
  5
1A2
100
AcDbEntity
  8
0
370
              15
  6
Continuous
 62
               7
100
AcDbVertex
100
AcDb2dVertex
 10
-97.908388135330199
 20
150.65767789760014
 30
0.0
  0
SEQEND
  5
1A3
100
AcDbEntity
  8
0
370
              15
  6
Continuous
 62
               7
  0
ARC
  5
1A4
100
AcDbEntity
  8
0
370
              15
  6
Continuous
 62
               7
100
AcDbCircle
 10
-55.907528988330171
 20
229.76741366980025
 30
0.0
 40
1.6452594196416428
100
AcDbArc
 50
75.888125311002568
 51
109.88581542620253
  0
POLYLINE
  5
1A5
100
AcDbEntity
  8
0
370
              15
  6
Continuous
 62
               7
100
AcDb2dPolyline
 66
               1
 10
0.0
 20
0.0
 30
0.0
 75
               5
  0
VERTEX
  5
1A6
100
AcDbEntity
  8
0
370
              15
  6
Continuous
 62
               7
100
AcDbVertex
100
AcDb2dVertex
 10
-3.6669661821304658
 20
217.2230611522001
 30
0.0
  0
VERTEX
  5
1A7
100
AcDbEntity
  8
0
370
              15
  6
Continuous
 62
               7
100
AcDbVertex
100
AcDb2dVertex
 10
-3.6899533395301773
 20
217.10469106180028
 30
0.0
  0
VERTEX
  5
1A8
100
AcDbEntity
  8
0
370
              15
  6
Continuous
 62
               7
100
AcDbVertex
100
AcDb2dVertex
 10
-3.8195886595302113
 20
216.93072200860013
 30
0.0
  0
VERTEX
  5
1A9
100
AcDbEntity
  8
0
370
              15
  6
Continuous
 62
               7
100
AcDbVertex
100
AcDb2dVertex
 10
-4.0586080357302876
 20
216.76486473040029
 30
0.0
  0
VERTEX
  5
1AA
100
AcDbEntity
  8
0
370
              15
  6
Continuous
 62
               7
100
AcDbVertex
100
AcDb2dVertex
 10
-4.3978215689301692
 20
216.61349119140016
 30
0.0
  0
SEQEND
  5
1AB
100
AcDbEntity
  8
0
370
              15
  6
Continuous
 62
               7
  0
POLYLINE
  5
1AC
100
AcDbEntity
  8
0
370
              15
  6
Continuous
 62
               7
100
AcDb2dPolyline
 66
               1
 10
0.0
 20
0.0
 30
0.0
 75
               5
  0
VERTEX
  5
1AD
100
AcDbEntity
  8
0
370
              15
  6
Continuous
 62
               7
100
AcDbVertex
100
AcDb2dVertex
 10
-2.7294666187302141
 20
155.05846855080028
 30
0.0
  0
VERTEX
  5
1AE
100
AcDbEntity
  8
0
370
              15
  6
Continuous
 62
               7
100
AcDbVertex
100
AcDb2dVertex
 10
-2.390253085730194
 20
155.20984208980019
 30
0.0
  0
VERTEX
  5
1AF
100
AcDbEntity
  8
0
370
              15
  6
Continuous
 62
               7
100
AcDbVertex
100
AcDb2dVertex
 10
-2.1512337095303451
 20
155.37569936800026
 30
0.0
  0
VERTEX
  5
1B0
100
AcDbEntity
  8
0
370
              15
  6
Continuous
 62
               7
100
AcDbVertex
100
AcDb2dVertex
 10
-2.0215983893302223
 20
155.54966842120018
 30
0.0
  0
VERTEX
  5
1B1
100
AcDbEntity
  8
0
370
              15
  6
Continuous
 62
               7
100
AcDbVertex
100
AcDb2dVertex
 10
-1.9986112321301448
 20
155.66803851180032
 30
0.0
  0
SEQEND
  5
1B2
100
AcDbEntity
  8
0
370
              15
  6
Continuous
 62
               7
  0
LINE
  5
1B3
100
AcDbEntity
  8
0
370
              15
  6
Continuous
 62
               7
100
AcDbLine
 10
-1.3971171019302915
 20
151.07184350260025
 30
0.0
 11
-5.7927825041304573
 21
152.09571411440027
 31
0.0
  0
LINE
  5
1B4
100
AcDbEntity
  8
0
370
              15
  6
Continuous
 62
               7
100
AcDbLine
 10
-95.102651307530152
 20
148.10475180460014
 30
0.0
 11
-99.334518072330241
 21
146.54350895200025
 31
0.0
  0
POLYLINE
  5
1B5
100
AcDbEntity
  8
0
370
              15
  6
Continuous
 62
               7
100
AcDb2dPolyline
 66
               1
 10
0.0
 20
0.0
 30
0.0
 75
               5
  0
VERTEX
  5
1B6
100
AcDbEntity
  8
0
370
              15
  6
Continuous
 62
               7
100
AcDbVertex
100
AcDb2dVertex
 10
-99.602254156730226
 20
145.76358785020022
 30
0.0
  0
VERTEX
  5
1B7
100
AcDbEntity
  8
0
370
              15
  6
Continuous
 62
               7
100
AcDbVertex
100
AcDb2dVertex
 10
-99.731270018330463
 20
145.8008715330003
 30
0.0
  0
VERTEX
  5
1B8
100
AcDbEntity
  8
0
370
              15
  6
Continuous
 62
               7
100
AcDbVertex
100
AcDb2dVertex
 10
-99.831294013330364
 20
145.84558978980033
 30
0.0
  0
VERTEX
  5
1B9
100
AcDbEntity
  8
0
370
              15
  6
Continuous
 62
               7
100
AcDbVertex
100
AcDb2dVertex
 10
-99.898479533330203
 20
145.8960225146003
 30
0.0
  0
VERTEX
  5
1BA
100
AcDbEntity
  8
0
370
              15
  6
Continuous
 62
               7
100
AcDbVertex
100
AcDb2dVertex
 10
-99.930252386130462
 20
145.9502327368001
 30
0.0
  0
VERTEX
  5
1BB
100
AcDbEntity
  8
0
370
              15
  6
Continuous
 62
               7
100
AcDbVertex
100
AcDb2dVertex
 10
-99.932195815730267
 20
145.96110136560026
 30
0.0
  0
SEQEND
  5
1BC
100
AcDbEntity
  8
0
370
              15
  6
Continuous
 62
               7
  0
ARC
  5
1BD
100
AcDbEntity
  8
0
370
              15
  6
Continuous
 62
               7
100
AcDbCircle
 10
-99.401366608730143
 20
146.27746640000021
 30
0.0
 40
0.2743125338437736
100
AcDbArc
 50
75.895286783235278
 51
109.87946884179139
  0
ARC
  5
1BE
100
AcDbEntity
  8
0
370
              15
  6
Continuous
 62
               7
100
AcDbCircle
 10
-1.3181054723302736
 20
150.87245354000027
 30
0.0
 40
0.2144742287950136
100
AcDbArc
 50
77.246470227877694
 51
111.61678060358277
  0
POLYLINE
  5
1BF
100
AcDbEntity
  8
0
370
              15
  6
Continuous
 62
               7
100
AcDb2dPolyline
 66
               1
 10
0.0
 20
0.0
 30
0.0
 75
               5
  0
VERTEX
  5
1C0
100
AcDbEntity
  8
0
370
              15
  6
Continuous
 62
               7
100
AcDbVertex
100
AcDb2dVertex
 10
-0.7270378433302653
 20
150.52035510420012
 30
0.0
  0
VERTEX
  5
1C1
100
AcDbEntity
  8
0
370
              15
  6
Continuous
 62
               7
100
AcDbVertex
100
AcDb2dVertex
 10
-0.7343114363303016
 20
150.48107913380011
 30
0.0
  0
VERTEX
  5
1C2
100
AcDbEntity
  8
0
370
              15
  6
Continuous
 62
               7
100
AcDbVertex
100
AcDb2dVertex
 10
-0.7756293191303598
 20
150.42562953360027
 30
0.0
  0
VERTEX
  5
1C3
100
AcDbEntity
  8
0
370
              15
  6
Continuous
 62
               7
100
AcDbVertex
100
AcDb2dVertex
 10
-0.8518130439304628
 20
150.37276395540027
 30
0.0
  0
VERTEX
  5
1C4
100
AcDbEntity
  8
0
370
              15
  6
Continuous
 62
               7
100
AcDbVertex
100
AcDb2dVertex
 10
-0.959933008730161
 20
150.32451581620023
 30
0.0
  0
SEQEND
  5
1C5
100
AcDbEntity
  8
0
370
              15
  6
Continuous
 62
               7
  0
ENDBLK
  5
1C6
100
AcDbEntity
  8
一般
100
AcDbBlockEnd
  0
ENDSEC
  0
SECTION
  2
ENTITIES
  0
MTEXT
  5
1C7
100
AcDbEntity
  8
0
 62
               7
100
AcDbMText
 10
261.04670212314932
 20
65.459043281508698
 30
0.0
 40
3.2756812689108266
 41
0.0
 71
               1
 72
               1
  1
HBC-D63P^I\PHBC-D63B^I\PHBC-D63E
  7
Arial
 73
               1
 44
0.9673603504928809
  0
INSERT
  5
1C8
100
AcDbEntity
  8
一般
 62
               7
100
AcDbBlockReference
  2
*U0
 10
210.0
 20
148.5
 30
0.0
 41
0.2
 42
0.2
 43
0.2
  0
ENDSEC
  0
SECTION
  2
OBJECTS
  0
DICTIONARY
  5
19
100
AcDbDictionary
280
               0
281
               1
  3
ACAD_GROUP
350
1A
  3
ACAD_MLINESTYLE
350
1B
  3
ACAD_LAYOUT
350
1E
  3
ACAD_PLOTSETTINGS
350
22
  3
ACAD_PLOTSTYLENAME
350
1F
  3
ACAD_WIPEOUT_VARS
350
23
  0
DICTIONARY
  5
1A
102
{ACAD_REACTORS
330
19
102
}
100
AcDbDictionary
280
               0
281
               1
  0
DICTIONARY
  5
1B
102
{ACAD_REACTORS
330
19
102
}
100
AcDbDictionary
280
               0
281
               1
  3
Standard
350
1C
  0
MLINESTYLE
  5
1C
102
{ACAD_REACTORS
330
1B
102
}
100
AcDbMlineStyle
  2
Standard
 70
               0
  3

 62
               0
 51
90.0
 52
90.0
 71
               2
 49
0.5
 62
             256
  6
ByLayer
 49
-0.5
 62
             256
  6
ByLayer
  0
ACDBDICTIONARYWDFLT
  5
1F
102
{ACAD_REACTORS
330
19
102
}
100
AcDbDictionary
281
               1
  3
Normal
350
1D
100
AcDbDictionaryWithDefault
340
1D
  0
ACDBPLACEHOLDER
  5
1D
102
{ACAD_REACTORS
330
1F
102
}
  0
LAYOUT
  5
20
102
{ACAD_REACTORS
330
1E
102
}
100
AcDbPlotSettings
  1

  2

  4

  6

 40
0.0
 41
0.0
 42
0.0
 43
0.0
 44
0.0
 45
0.0
 46
0.0
 47
0.0
 48
0.0
 49
0.0
140
0.0
141
0.0
142
1.0
143
1.0
 70
            1024
 72
               0
 73
               0
 74
               0
  7

 75
               0
147
1.0
148
0.0
149
0.0
100
AcDbLayout
  1
Model
 70
               0
 71
               0
 10
0.0
 20
0.0
 11
0.0
 21
0.0
 12
0.0
 22
0.0
 32
0.0
 14
0.0
 24
0.0
 34
0.0
 15
0.0
 25
0.0
 35
0.0
146
0.0
 13
0.0
 23
0.0
 33
0.0
 16
0.0
 26
0.0
 36
0.0
 17
0.0
 27
0.0
 37
0.0
 76
               0
330
A
331
0
345
0
346
0
  0
LAYOUT
  5
21
102
{ACAD_REACTORS
330
1E
102
}
100
AcDbPlotSettings
  1

  2

  4

  6

 40
0.0
 41
0.0
 42
0.0
 43
0.0
 44
0.0
 45
0.0
 46
0.0
 47
0.0
 48
0.0
 49
0.0
140
0.0
141
0.0
142
1.0
143
1.0
 70
               0
 72
               0
 73
               0
 74
               0
  7

 75
               0
147
1.0
148
0.0
149
0.0
100
AcDbLayout
  1
Layout1
 70
               0
 71
               0
 10
0.0
 20
0.0
 11
0.0
 21
0.0
 12
0.0
 22
0.0
 32
0.0
 14
0.0
 24
0.0
 34
0.0
 15
0.0
 25
0.0
 35
0.0
146
0.0
 13
0.0
 23
0.0
 33
0.0
 16
0.0
 26
0.0
 36
0.0
 17
0.0
 27
0.0
 37
0.0
 76
               0
330
B
331
0
345
0
346
0
  0
DICTIONARY
  5
1E
102
{ACAD_REACTORS
330
19
102
}
100
AcDbDictionary
280
               0
281
               1
  3
Layout1
350
21
  3
Model
350
20
  0
DICTIONARY
  5
22
102
{ACAD_REACTORS
330
19
102
}
100
AcDbDictionary
280
               0
281
               1
  0
WIPEOUTVARIABLES
  5
23
100
AcDbWipeoutVariables
 70
               1
  0
ENDSEC
  0
EOF
