  0
SECTION
  2
HEADER
  9
$ACADVER
  1
AC1027
  9
$ACADMAINTVER
 70
   105
  9
$DWGCODEPAGE
  3
DOS932
  9
$REQUIREDVERSIONS
160
                 0
  9
$INSBASE
 10
0.0
 20
0.0
 30
0.0
  9
$EXTMIN
 10
0.0
 20
0.0
 30
0.0
  9
$EXTMAX
 10
210.0
 20
297.0
 30
0.0
  9
$LIMMIN
 10
0.0
 20
0.0
  9
$LIMMAX
 10
210.0
 20
297.0
  9
$ORTHOMODE
 70
     0
  9
$REGENMODE
 70
     1
  9
$FILLMODE
 70
     1
  9
$QTEXTMODE
 70
     0
  9
$MIRRTEXT
 70
     1
  9
$LTSCALE
 40
1.0
  9
$ATTMODE
 70
     1
  9
$TEXTSIZE
 40
3.5
  9
$TRACEWID
 40
1.0
  9
$TEXTSTYLE
  7
STANDARD
  9
$CLAYER
  8
0
  9
$CELTYPE
  6
ByLayer
  9
$CECOLOR
 62
   256
  9
$CELTSCALE
 40
1.0
  9
$DISPSILH
 70
     0
  9
$DIMSCALE
 40
1.0
  9
$DIMASZ
 40
3.302
  9
$DIMEXO
 40
1.0
  9
$DIMDLI
 40
3.75
  9
$DIMRND
 40
0.0
  9
$DIMDLE
 40
0.0
  9
$DIMEXE
 40
1.0
  9
$DIMTP
 40
0.0
  9
$DIMTM
 40
0.0
  9
$DIMTXT
 40
3.5
  9
$DIMCEN
 40
2.5
  9
$DIMTSZ
 40
0.0
  9
$DIMTOL
 70
     0
  9
$DIMLIM
 70
     0
  9
$DIMTIH
 70
     1
  9
$DIMTOH
 70
     1
  9
$DIMSE1
 70
     0
  9
$DIMSE2
 70
     0
  9
$DIMTAD
 70
     1
  9
$DIMZIN
 70
     1
  9
$DIMBLK
  1

  9
$DIMASO
 70
     1
  9
$DIMSHO
 70
     1
  9
$DIMPOST
  1

  9
$DIMAPOST
  1

  9
$DIMALT
 70
     0
  9
$DIMALTD
 70
     3
  9
$DIMALTF
 40
0.0393700787
  9
$DIMLFAC
 40
10.0
  9
$DIMTOFL
 70
     1
  9
$DIMTVP
 40
0.0
  9
$DIMTIX
 70
     0
  9
$DIMSOXD
 70
     0
  9
$DIMSAH
 70
     0
  9
$DIMBLK1
  1

  9
$DIMBLK2
  1

  9
$DIMSTYLE
  2
ISO-25
  9
$DIMCLRD
 70
     0
  9
$DIMCLRE
 70
     0
  9
$DIMCLRT
 70
     0
  9
$DIMTFAC
 40
1.0
  9
$DIMGAP
 40
1.524
  9
$DIMJUST
 70
     0
  9
$DIMSD1
 70
     0
  9
$DIMSD2
 70
     0
  9
$DIMTOLJ
 70
     0
  9
$DIMTZIN
 70
     1
  9
$DIMALTZ
 70
     0
  9
$DIMALTTZ
 70
     0
  9
$DIMUPT
 70
     0
  9
$DIMDEC
 70
     2
  9
$DIMTDEC
 70
     2
  9
$DIMALTU
 70
     2
  9
$DIMALTTD
 70
     3
  9
$DIMTXSTY
  7
STANDARD
  9
$DIMAUNIT
 70
     0
  9
$DIMADEC
 70
     2
  9
$DIMALTRND
 40
0.0
  9
$DIMAZIN
 70
     0
  9
$DIMDSEP
 70
    44
  9
$DIMATFIT
 70
     3
  9
$DIMFRAC
 70
     0
  9
$DIMLDRBLK
  1

  9
$DIMLUNIT
 70
     2
  9
$DIMLWD
 70
    -2
  9
$DIMLWE
 70
    -2
  9
$DIMTMOVE
 70
     0
  9
$DIMFXL
 40
1.0
  9
$DIMFXLON
 70
     0
  9
$DIMJOGANG
 40
0.7853981634
  9
$DIMTFILL
 70
     0
  9
$DIMTFILLCLR
 70
     0
  9
$DIMARCSYM
 70
     0
  9
$DIMLTYPE
  6

  9
$DIMLTEX1
  6

  9
$DIMLTEX2
  6

  9
$DIMTXTDIRECTION
 70
     0
  9
$LUNITS
 70
     2
  9
$LUPREC
 70
     2
  9
$SKETCHINC
 40
1.0
  9
$FILLETRAD
 40
10.0
  9
$AUNITS
 70
     0
  9
$AUPREC
 70
     2
  9
$MENU
  1
.
  9
$ELEVATION
 40
0.0
  9
$PELEVATION
 40
0.0
  9
$THICKNESS
 40
0.0
  9
$LIMCHECK
 70
     0
  9
$CHAMFERA
 40
0.0
  9
$CHAMFERB
 40
0.0
  9
$CHAMFERC
 40
0.0
  9
$CHAMFERD
 40
0.0
  9
$SKPOLY
 70
     0
  9
$TDCREATE
 40
2458612.404153877
  9
$TDUCREATE
 40
2458612.029153877
  9
$TDUPDATE
 40
2458612.404154283
  9
$TDUUPDATE
 40
2458612.029154283
  9
$TDINDWG
 40
0.0000000116
  9
$TDUSRTIMER
 40
0.0000000116
  9
$USRTIMER
 70
     1
  9
$ANGBASE
 50
0.0
  9
$ANGDIR
 70
     0
  9
$PDMODE
 70
     0
  9
$PDSIZE
 40
-1.0
  9
$PLINEWID
 40
0.0
  9
$SPLFRAME
 70
     0
  9
$SPLINETYPE
 70
     6
  9
$SPLINESEGS
 70
     8
  9
$HANDSEED
  5
190
  9
$SURFTAB1
 70
     6
  9
$SURFTAB2
 70
     6
  9
$SURFTYPE
 70
     6
  9
$SURFU
 70
     6
  9
$SURFV
 70
     6
  9
$UCSBASE
  2

  9
$UCSNAME
  2

  9
$UCSORG
 10
0.0
 20
0.0
 30
0.0
  9
$UCSXDIR
 10
1.0
 20
0.0
 30
0.0
  9
$UCSYDIR
 10
0.0
 20
1.0
 30
0.0
  9
$UCSORTHOREF
  2

  9
$UCSORTHOVIEW
 70
     0
  9
$UCSORGTOP
 10
0.0
 20
0.0
 30
0.0
  9
$UCSORGBOTTOM
 10
0.0
 20
0.0
 30
0.0
  9
$UCSORGLEFT
 10
0.0
 20
0.0
 30
0.0
  9
$UCSORGRIGHT
 10
0.0
 20
0.0
 30
0.0
  9
$UCSORGFRONT
 10
0.0
 20
0.0
 30
0.0
  9
$UCSORGBACK
 10
0.0
 20
0.0
 30
0.0
  9
$PUCSBASE
  2

  9
$PUCSNAME
  2

  9
$PUCSORG
 10
0.0
 20
0.0
 30
0.0
  9
$PUCSXDIR
 10
1.0
 20
0.0
 30
0.0
  9
$PUCSYDIR
 10
0.0
 20
1.0
 30
0.0
  9
$PUCSORTHOREF
  2

  9
$PUCSORTHOVIEW
 70
     0
  9
$PUCSORGTOP
 10
0.0
 20
0.0
 30
0.0
  9
$PUCSORGBOTTOM
 10
0.0
 20
0.0
 30
0.0
  9
$PUCSORGLEFT
 10
0.0
 20
0.0
 30
0.0
  9
$PUCSORGRIGHT
 10
0.0
 20
0.0
 30
0.0
  9
$PUCSORGFRONT
 10
0.0
 20
0.0
 30
0.0
  9
$PUCSORGBACK
 10
0.0
 20
0.0
 30
0.0
  9
$USERI1
 70
     0
  9
$USERI2
 70
     0
  9
$USERI3
 70
     0
  9
$USERI4
 70
     0
  9
$USERI5
 70
     0
  9
$USERR1
 40
0.0
  9
$USERR2
 40
0.0
  9
$USERR3
 40
0.0
  9
$USERR4
 40
0.0
  9
$USERR5
 40
0.0
  9
$WORLDVIEW
 70
     1
  9
$SHADEDGE
 70
     3
  9
$SHADEDIF
 70
    70
  9
$TILEMODE
 70
     1
  9
$MAXACTVP
 70
    64
  9
$PINSBASE
 10
0.0
 20
0.0
 30
0.0
  9
$PLIMCHECK
 70
     0
  9
$PEXTMIN
 10
1.0000000000E+20
 20
1.0000000000E+20
 30
1.0000000000E+20
  9
$PEXTMAX
 10
-1.0000000000E+20
 20
-1.0000000000E+20
 30
-1.0000000000E+20
  9
$PLIMMIN
 10
0.0
 20
0.0
  9
$PLIMMAX
 10
420.0
 20
297.0
  9
$UNITMODE
 70
     0
  9
$VISRETAIN
 70
     1
  9
$PLINEGEN
 70
     0
  9
$PSLTSCALE
 70
     1
  9
$TREEDEPTH
 70
  3020
  9
$CMLSTYLE
  2
Standard
  9
$CMLJUST
 70
     0
  9
$CMLSCALE
 40
20.0
  9
$PROXYGRAPHICS
 70
     1
  9
$MEASUREMENT
 70
     1
  9
$CELWEIGHT
370
    -1
  9
$ENDCAPS
280
     0
  9
$JOINSTYLE
280
     0
  9
$LWDISPLAY
290
     1
  9
$INSUNITS
 70
     4
  9
$HYPERLINKBASE
  1

  9
$STYLESHEET
  1

  9
$XEDIT
290
     1
  9
$CEPSNTYPE
380
     0
  9
$PSTYLEMODE
290
     1
  9
$FINGERPRINTGUID
  2
{10671459-7F73-45DF-94EA-A65D9884915D}
  9
$VERSIONGUID
  2
{FAEB1C32-E019-11D5-929B-00C0DF256EC4}
  9
$EXTNAMES
290
     1
  9
$PSVPSCALE
 40
0.0
  9
$OLESTARTUP
290
     0
  9
$SORTENTS
280
   127
  9
$INDEXCTL
280
     0
  9
$HIDETEXT
280
     1
  9
$XCLIPFRAME
280
     2
  9
$HALOGAP
280
     0
  9
$OBSCOLOR
 70
   257
  9
$OBSLTYPE
280
     0
  9
$INTERSECTIONDISPLAY
280
     0
  9
$INTERSECTIONCOLOR
 70
   257
  9
$DIMASSOC
280
     2
  9
$PROJECTNAME
  1

  9
$CAMERADISPLAY
290
     0
  9
$LENSLENGTH
 40
50.0
  9
$CAMERAHEIGHT
 40
0.0
  9
$STEPSPERSEC
 40
2.0
  9
$STEPSIZE
 40
6.0
  9
$3DDWFPREC
 40
2.0
  9
$PSOLWIDTH
 40
5.0
  9
$PSOLHEIGHT
 40
80.0
  9
$LOFTANG1
 40
1.5707963268
  9
$LOFTANG2
 40
1.5707963268
  9
$LOFTMAG1
 40
0.0
  9
$LOFTMAG2
 40
0.0
  9
$LOFTPARAM
 70
     7
  9
$LOFTNORMALS
280
     1
  9
$LATITUDE
 40
37.795
  9
$LONGITUDE
 40
-122.394
  9
$NORTHDIRECTION
 40
0.0
  9
$TIMEZONE
 70
 -8000
  9
$LIGHTGLYPHDISPLAY
280
     1
  9
$TILEMODELIGHTSYNCH
280
     1
  9
$CMATERIAL
347
44
  9
$SOLIDHIST
280
     0
  9
$SHOWHIST
280
     1
  9
$DWFFRAME
280
     2
  9
$DGNFRAME
280
     2
  9
$REALWORLDSCALE
290
     1
  9
$INTERFERECOLOR
 62
   256
  9
$CSHADOW
280
     0
  9
$SHADOWPLANELOCATION
 40
0.0
  0
ENDSEC
  0
SECTION
  2
CLASSES
  0
CLASS
  1
ACDBDICTIONARYWDFLT
  2
AcDbDictionaryWithDefault
  3
ObjectDBX Classes
 90
        0
 91
        4
280
     0
281
     0
  0
CLASS
  1
VISUALSTYLE
  2
AcDbVisualStyle
  3
ObjectDBX Classes
 90
     4095
 91
        4
280
     0
281
     0
  0
CLASS
  1
MATERIAL
  2
AcDbMaterial
  3
ObjectDBX Classes
 90
     1153
 91
        4
280
     0
281
     0
  0
CLASS
  1
SCALE
  2
AcDbScale
  3
ObjectDBX Classes
 90
     1153
 91
        4
280
     0
281
     0
  0
CLASS
  1
TABLESTYLE
  2
AcDbTableStyle
  3
ObjectDBX Classes
 90
     4095
 91
        4
280
     0
281
     0
  0
CLASS
  1
MLEADERSTYLE
  2
AcDbMLeaderStyle
  3
ACDB_MLEADERSTYLE_CLASS
 90
     4095
 91
        4
280
     0
281
     0
  0
CLASS
  1
SUN
  2
AcDbSun
  3
SCENEOE
 90
     1153
 91
        4
280
     0
281
     0
  0
CLASS
  1
DICTIONARYVAR
  2
AcDbDictionaryVar
  3
ObjectDBX Classes
 90
        0
 91
        4
280
     0
281
     0
  0
CLASS
  1
CELLSTYLEMAP
  2
AcDbCellStyleMap
  3
ObjectDBX Classes
 90
     1152
 91
        4
280
     0
281
     0
  0
ENDSEC
  0
SECTION
  2
TABLES
  0
TABLE
  2
VPORT
  5
8
330
0
100
AcDbSymbolTable
 70
     1
  0
VPORT
  5
29
330
8
100
AcDbSymbolTableRecord
100
AcDbViewportTableRecord
  2
*Active
 70
     0
 10
0.0
 20
0.0
 11
1.0
 21
1.0
 12
105.0
 22
148.5
 13
0.0
 23
0.0
 14
10.0
 24
10.0
 15
10.0
 25
10.0
 16
0.0
 26
0.0
 36
1.0
 17
0.0
 27
0.0
 37
0.0
 40
297.0
 41
0.7070707071
 42
50.0
 43
0.0
 44
0.0
 50
0.0
 51
0.0
 71
     0
 72
  2000
 73
     1
 74
     3
 75
     0
 76
     0
 77
     0
 78
     0
281
     0
 65
     1
110
0.0
120
0.0
130
0.0
111
1.0
121
0.0
131
0.0
112
0.0
122
1.0
132
0.0
 79
     0
146
0.0
348
2F
 60
     3
 61
     5
292
     1
282
     1
141
0.0
142
0.0
 63
   250
361
6D
  0
ENDTAB
  0
TABLE
  2
LTYPE
  5
5
330
0
100
AcDbSymbolTable
 70
     8
  0
LTYPE
  5
14
330
5
100
AcDbSymbolTableRecord
100
AcDbLinetypeTableRecord
  2
ByBlock
 70
     0
  3

 72
    65
 73
     0
 40
0.0
  0
LTYPE
  5
15
330
5
100
AcDbSymbolTableRecord
100
AcDbLinetypeTableRecord
  2
ByLayer
 70
     0
  3

 72
    65
 73
     0
 40
0.0
  0
LTYPE
  5
16
330
5
100
AcDbSymbolTableRecord
100
AcDbLinetypeTableRecord
  2
Continuous
 70
     0
  3
Solid line
 72
    65
 73
     0
 40
0.0
  0
LTYPE
  5
6E
330
5
100
AcDbSymbolTableRecord
100
AcDbLinetypeTableRecord
  2
SLD-実線
 70
     0
  3
SolidWorks Line Style
 72
    65
 73
     0
 40
0.0
  0
LTYPE
  5
6F
330
5
100
AcDbSymbolTableRecord
100
AcDbLinetypeTableRecord
  2
SLD-破線
 70
     0
  3
SolidWorks Line Style
 72
    65
 73
     2
 40
1.905
 49
1.27
 74
     0
 49
-0.635
 74
     0
  0
LTYPE
  5
70
330
5
100
AcDbSymbolTableRecord
100
AcDbLinetypeTableRecord
  2
SLD-2点鎖線
 70
     0
  3
SolidWorks Line Style
 72
    65
 73
     6
 40
12.7
 49
6.35
 74
     0
 49
-1.27
 74
     0
 49
1.27
 74
     0
 49
-1.27
 74
     0
 49
1.27
 74
     0
 49
-1.27
 74
     0
  0
LTYPE
  5
71
330
5
100
AcDbSymbolTableRecord
100
AcDbLinetypeTableRecord
  2
SLD-鎖線
 70
     0
  3
SolidWorks Line Style
 72
    65
 73
     4
 40
10.16
 49
6.35
 74
     0
 49
-1.27
 74
     0
 49
1.27
 74
     0
 49
-1.27
 74
     0
  0
LTYPE
  5
72
330
5
100
AcDbSymbolTableRecord
100
AcDbLinetypeTableRecord
  2
SLD-1点鎖線(中心線)
 70
     0
  3
SolidWorks Line Style
 72
    65
 73
     4
 40
34.29
 49
30.48
 74
     0
 49
-1.27
 74
     0
 49
1.27
 74
     0
 49
-1.27
 74
     0
  0
LTYPE
  5
73
330
5
100
AcDbSymbolTableRecord
100
AcDbLinetypeTableRecord
  2
SLD-点線
 70
     0
  3
SolidWorks Line Style
 72
    65
 73
     2
 40
0.635
 49
0.0
 74
     0
 49
-0.635
 74
     0
  0
LTYPE
  5
74
330
5
100
AcDbSymbolTableRecord
100
AcDbLinetypeTableRecord
  2
SLD-細-太鎖線(切断面)
 70
     0
  3
SolidWorks Line Style
 72
    65
 73
     4
 40
10.16
 49
6.35
 74
     0
 49
-1.27
 74
     0
 49
1.27
 74
     0
 49
-1.27
 74
     0
  0
ENDTAB
  0
TABLE
  2
LAYER
  5
2
330
0
100
AcDbSymbolTable
 70
     1
  0
LAYER
  5
10
330
2
100
AcDbSymbolTableRecord
100
AcDbLayerTableRecord
  2
0
 70
     0
 62
     7
  6
Continuous
370
    -3
390
F
347
46
348
0
  0
ENDTAB
  0
TABLE
  2
STYLE
  5
3
330
0
100
AcDbSymbolTable
 70
     2
  0
STYLE
  5
11
330
3
100
AcDbSymbolTableRecord
100
AcDbTextStyleTableRecord
  2
STANDARD
 70
     0
 40
0.0
 41
1.0
 50
0.0
 71
     0
 42
3.5
  3
GOTHIC.TTF
  4

1001
ACAD
1000
CENTURY GOTHIC
1071
       34
  0
STYLE
  5
75
330
3
100
AcDbSymbolTableRecord
100
AcDbTextStyleTableRecord
  2
SLDTEXTSTYLE0
 70
     0
 40
0.0
 41
1.0
 50
0.0
 71
     0
 42
3.5
  3
MSGOTHIC.TTC
  4

1001
ACAD
1000
ＭＳ Ｐゴシック
1071
      306
  0
ENDTAB
  0
TABLE
  2
VIEW
  5
6
330
0
100
AcDbSymbolTable
 70
     0
  0
ENDTAB
  0
TABLE
  2
UCS
  5
7
330
0
100
AcDbSymbolTable
 70
     0
  0
ENDTAB
  0
TABLE
  2
APPID
  5
9
330
0
100
AcDbSymbolTable
 70
     1
  0
APPID
  5
12
330
9
100
AcDbSymbolTableRecord
100
AcDbRegAppTableRecord
  2
ACAD
 70
     0
  0
ENDTAB
  0
TABLE
  2
DIMSTYLE
  5
A
330
0
100
AcDbSymbolTable
 70
     1
100
AcDbDimStyleTable
  0
DIMSTYLE
105
27
330
A
100
AcDbSymbolTableRecord
100
AcDbDimStyleTableRecord
  2
ISO-25
 70
     0
 41
2.5
 42
0.625
 43
3.75
 44
1.25
 73
     0
 74
     0
 77
     1
 78
     8
140
2.5
141
2.5
143
0.0393700787
147
0.625
171
     3
172
     1
178
     0
271
     2
272
     2
274
     3
278
    44
283
     0
284
     8
340
11
  0
ENDTAB
  0
TABLE
  2
BLOCK_RECORD
  5
1
330
0
100
AcDbSymbolTable
 70
     1
  0
BLOCK_RECORD
  5
1F
330
1
100
AcDbSymbolTableRecord
100
AcDbBlockTableRecord
  2
*Model_Space
340
22
 70
     0
280
     1
281
     0
  0
BLOCK_RECORD
  5
1B
330
1
100
AcDbSymbolTableRecord
100
AcDbBlockTableRecord
  2
*Paper_Space
340
1E
 70
     0
280
     1
281
     0
  0
BLOCK_RECORD
  5
23
330
1
100
AcDbSymbolTableRecord
100
AcDbBlockTableRecord
  2
*Paper_Space0
340
26
 70
     0
280
     1
281
     0
  0
ENDTAB
  0
ENDSEC
  0
SECTION
  2
BLOCKS
  0
BLOCK
  5
20
330
1F
100
AcDbEntity
  8
0
100
AcDbBlockBegin
  2
*Model_Space
 70
     0
 10
0.0
 20
0.0
 30
0.0
  3
*Model_Space
  1

  0
ENDBLK
  5
21
330
1F
100
AcDbEntity
  8
0
100
AcDbBlockEnd
  0
BLOCK
  5
1C
330
1B
100
AcDbEntity
 67
     1
  8
0
100
AcDbBlockBegin
  2
*Paper_Space
 70
     0
 10
0.0
 20
0.0
 30
0.0
  3
*Paper_Space
  1

  0
ENDBLK
  5
1D
330
1B
100
AcDbEntity
 67
     1
  8
0
100
AcDbBlockEnd
  0
BLOCK
  5
24
330
23
100
AcDbEntity
  8
0
100
AcDbBlockBegin
  2
*Paper_Space0
 70
     0
 10
0.0
 20
0.0
 30
0.0
  3
*Paper_Space0
  1

  0
ENDBLK
  5
25
330
23
100
AcDbEntity
  8
0
100
AcDbBlockEnd
  0
ENDSEC
  0
SECTION
  2
ENTITIES
  0
MTEXT
  5
76
330
1F
100
AcDbEntity
  8
0
  6
Continuous
 62
     7
370
     0
100
AcDbMText
 10
142.3079086983
 20
124.4952834214
 30
0.0
 40
3.5
 41
0.0
 46
0.0
 71
     1
 72
     1
  1
HBC-D71K
  7
SLDTEXTSTYLE0
 73
     1
 44
1.0
  0
LINE
  5
77
330
1F
100
AcDbEntity
  8
0
  6
SLD-実線
 62
     7
370
    25
100
AcDbLine
 10
103.548503643
 20
223.5440687216
 30
0.0
 11
103.5202194198
 21
223.5603968561
 31
0.0
  0
LINE
  5
78
330
1F
100
AcDbEntity
  8
0
  6
SLD-実線
 62
     7
370
    25
100
AcDbLine
 10
102.9702641596
 20
222.6077431356
 30
0.0
 11
102.9985483828
 21
222.5914150011
 31
0.0
  0
LINE
  5
79
330
1F
100
AcDbEntity
  8
0
  6
SLD-実線
 62
     7
370
    25
100
AcDbLine
 10
103.1884641896
 20
222.9212368095
 30
0.0
 11
103.0470428101
 21
223.002877634
 31
0.0
  0
LINE
  5
7A
330
1F
100
AcDbEntity
  8
0
  6
SLD-実線
 62
     7
370
    25
100
AcDbLine
 10
103.21716593
 20
223.2958874337
 30
0.0
 11
103.3585873094
 21
223.2142466091
 31
0.0
  0
LINE
  5
7B
330
1F
100
AcDbEntity
  8
0
  6
SLD-実線
 62
     7
370
    25
100
AcDbLine
 10
127.5178260716
 20
89.9039032751
 30
0.0
 11
110.6150906258
 21
80.1461618016
 31
0.0
  0
LINE
  5
7C
330
1F
100
AcDbEntity
  8
0
  6
SLD-実線
 62
     7
370
    25
100
AcDbLine
 10
102.7735003461
 20
75.6193080899
 30
0.0
 11
85.0914185683
 21
65.4116595554
 31
0.0
  0
LINE
  5
7D
330
1F
100
AcDbEntity
  8
0
  6
SLD-実線
 62
     7
370
    25
100
AcDbLine
 10
86.2913210378
 20
63.3331419668
 30
0.0
 11
104.071757755
 21
73.5975695992
 31
0.0
  0
LINE
  5
7E
330
1F
100
AcDbEntity
  8
0
  6
SLD-実線
 62
     7
370
    25
100
AcDbLine
 10
110.6150902307
 20
77.3749550335
 30
0.0
 11
128.7177285412
 21
87.8253856865
 31
0.0
  0
LINE
  5
7F
330
1F
100
AcDbEntity
  8
0
  6
SLD-実線
 62
     7
370
    25
100
AcDbLine
 10
110.6150897697
 20
229.8934706753
 30
0.0
 11
110.6150897697
 21
230.1874254766
 31
0.0
  0
LINE
  5
80
330
1F
100
AcDbEntity
  8
0
  6
SLD-実線
 62
     7
370
    25
100
AcDbLine
 10
101.8150899013
 20
230.1874256287
 30
0.0
 11
101.8150899013
 21
229.8934708274
 31
0.0
  0
LINE
  5
81
330
1F
100
AcDbEntity
  8
0
  6
SLD-実線
 62
     7
370
    25
100
AcDbLine
 10
110.6150897697
 20
68.0550771335
 30
0.0
 11
110.6150897697
 21
229.7301624862
 31
0.0
  0
LINE
  5
82
330
1F
100
AcDbEntity
  8
0
  6
SLD-実線
 62
     7
370
    25
100
AcDbLine
 10
101.8150899013
 20
229.7301626383
 30
0.0
 11
101.8150899013
 21
226.6289722681
 31
0.0
  0
LINE
  5
83
330
1F
100
AcDbEntity
  8
0
  6
SLD-実線
 62
     7
370
    25
100
AcDbLine
 10
101.8150899013
 20
221.2188946581
 30
0.0
 11
101.8150899013
 21
75.0660243775
 31
0.0
  0
LINE
  5
84
330
1F
100
AcDbEntity
  8
0
  6
SLD-実線
 62
     7
370
    25
100
AcDbLine
 10
101.8150899013
 20
72.2948245975
 30
0.0
 11
101.8150899013
 21
68.0550772856
 31
0.0
  0
LINE
  5
85
330
1F
100
AcDbEntity
  8
0
  6
SLD-実線
 62
     7
370
    25
100
AcDbLine
 10
109.6245999756
 20
227.4987684216
 30
0.0
 11
109.5963154889
 21
227.5150967081
 31
0.0
  0
LINE
  5
86
330
1F
100
AcDbEntity
  8
0
  6
SLD-実線
 62
     7
370
    25
100
AcDbLine
 10
109.0463591751
 20
226.5624423794
 30
0.0
 11
109.0746436618
 21
226.5461140928
 31
0.0
  0
LINE
  5
87
330
1F
100
AcDbEntity
  8
0
  6
SLD-実線
 62
     7
370
    25
100
AcDbLine
 10
108.9589950802
 20
226.6649626671
 30
0.0
 11
108.9668797019
 21
226.6493491485
 31
0.0
  0
LINE
  5
88
330
1F
100
AcDbEntity
  8
0
  6
SLD-実線
 62
     7
370
    25
100
AcDbLine
 10
109.2645605222
 20
226.875936557
 30
0.0
 11
109.1231391427
 21
226.9575773815
 31
0.0
  0
LINE
  5
89
330
1F
100
AcDbEntity
  8
0
  6
SLD-実線
 62
     7
370
    25
100
AcDbLine
 10
109.2932617357
 20
227.250586782
 30
0.0
 11
109.4346831152
 21
227.1689459574
 31
0.0
  0
LINE
  5
8A
330
1F
100
AcDbEntity
  8
0
  6
SLD-実線
 62
     7
370
    25
100
AcDbLine
 10
83.6276701757
 20
210.7195207984
 30
0.0
 11
83.8398015863
 21
210.8419816551
 31
0.0
  0
LINE
  5
8B
330
1F
100
AcDbEntity
  8
0
  6
SLD-実線
 62
     7
370
    25
100
AcDbLine
 10
80.93138086
 20
214.5730636521
 30
0.0
 11
80.7192494494
 21
214.4506027954
 31
0.0
  0
LINE
  5
8C
330
1F
100
AcDbEntity
  8
0
  6
SLD-実線
 62
     7
370
    25
100
AcDbLine
 10
97.0394309246
 20
198.4451809034
 30
0.0
 11
86.4149047926
 21
205.5986860837
 31
0.0
  0
SPLINE
  5
8D
330
1F
100
AcDbEntity
  8
0
  6
SLD-実線
 62
     7
370
    25
100
AcDbSpline
210
0.0
220
0.0
230
1.0
 70
     8
 71
     3
 72
    16
 73
    12
 74
     0
 42
0.000000001
 43
0.00000001
 40
0.0
 40
0.0
 40
0.0
 40
0.0
 40
0.0247891150035619
 40
0.151702595677339
 40
0.2782372633689402
 40
0.4042483979505251
 40
0.5296031561142045
 40
0.6542095935518399
 40
0.7780486310247432
 40
0.9011943906997444
 40
1.0
 40
1.0
 40
1.0
 40
1.0
 10
71.12991181172428
 20
196.9192024477472
 30
0.0
 10
71.09557413291682
 20
196.8856279554086
 30
0.0
 10
70.88543694149718
 20
196.6801612561907
 30
0.0
 10
70.55335308964754
 20
196.282408688554
 30
0.0
 10
70.13973138262145
 20
195.7277611781169
 30
0.0
 10
69.79138050497383
 20
195.1561080015508
 30
0.0
 10
69.50400899175791
 20
194.5727095236923
 30
0.0
 10
69.27967475449661
 20
193.979872125239
 30
0.0
 10
69.12100765643083
 20
193.3806749058257
 30
0.0
 10
69.02580266342761
 20
192.8168434534244
 30
0.0
 10
69.01359200844293
 20
192.4528358957726
 30
0.0
 10
69.00815621766007
 20
192.290791441216
 30
0.0
  0
LINE
  5
8E
330
1F
100
AcDbEntity
  8
0
  6
SLD-実線
 62
     7
370
    25
100
AcDbLine
 10
69.0018879276
 20
192.1686351641
 30
0.0
 11
69.0018879276
 21
191.8609847303
 31
0.0
  0
LINE
  5
8F
330
1F
100
AcDbEntity
  8
0
  6
SLD-実線
 62
     7
370
    25
100
AcDbLine
 10
83.5888683382
 20
205.5986858793
 30
0.0
 11
72.9643428564
 21
198.4451808084
 31
0.0
  0
SPLINE
  5
90
330
1F
100
AcDbEntity
  8
0
  6
SLD-実線
 62
     7
370
    25
100
AcDbSpline
210
0.0
220
0.0
230
1.0
 70
     8
 71
     3
 72
    17
 73
    13
 74
     0
 42
0.000000001
 43
0.00000001
 40
0.0
 40
0.0
 40
0.0
 40
0.0
 40
0.0227241349303666
 40
0.1394573774203947
 40
0.2561518268248743
 40
0.3730339647318335
 40
0.4903426925000801
 40
0.6082485722310262
 40
0.726836312841152
 40
0.8461059963720481
 40
0.9659897572488807
 40
1.0
 40
1.0
 40
1.0
 40
1.0
 10
100.9956175304804
 20
192.0464782786521
 30
0.0
 10
100.9980039055581
 20
192.0855013632812
 30
0.0
 10
101.0126490223422
 20
192.3249849369311
 30
0.0
 10
100.9778502549647
 20
192.7655771537831
 30
0.0
 10
100.8881601072496
 20
193.3643383074663
 30
0.0
 10
100.7304006697999
 20
193.9575894724459
 30
0.0
 10
100.5122998163002
 20
194.5433040481437
 30
0.0
 10
100.232135349325
 20
195.119472895673
 30
0.0
 10
99.89248395416456
 20
195.6845588030088
 30
0.0
 10
99.48907914267912
 20
196.2343091272698
 30
0.0
 10
99.14983605115377
 20
196.6443580107601
 30
0.0
 10
98.92820152791886
 20
196.8635457631883
 30
0.0
 10
98.87922077649549
 20
196.9119857835428
 30
0.0
  0
LINE
  5
91
330
1F
100
AcDbEntity
  8
0
  6
SLD-実線
 62
     7
370
    25
100
AcDbLine
 10
101.0018863474
 20
191.8609844261
 30
0.0
 11
101.0018863474
 21
192.1686348599
 31
0.0
  0
LINE
  5
92
330
1F
100
AcDbEntity
  8
0
  6
SLD-実線
 62
     7
370
    25
100
AcDbLine
 10
86.0018870387
 20
215.5080125186
 30
0.0
 11
86.0018870387
 21
217.8433192279
 31
0.0
  0
LINE
  5
93
330
1F
100
AcDbEntity
  8
0
  6
SLD-実線
 62
     7
370
    25
100
AcDbLine
 10
84.0018867094
 20
217.8433189998
 30
0.0
 11
84.0018867094
 21
215.5080122905
 31
0.0
  0
LINE
  5
94
330
1F
100
AcDbEntity
  8
0
  6
SLD-実線
 62
     7
370
    25
100
AcDbLine
 10
84.3229544208
 20
218.2677929247
 30
0.0
 11
84.2946657854
 21
218.2514571632
 31
0.0
  0
LINE
  5
95
330
1F
100
AcDbEntity
  8
0
  6
SLD-実線
 62
     7
370
    25
100
AcDbLine
 10
83.6018861826
 20
215.5080120244
 30
0.0
 11
83.6018861826
 21
215.2630498167
 31
0.0
  0
LINE
  5
96
330
1F
100
AcDbEntity
  8
0
  6
SLD-実線
 62
     7
370
    25
100
AcDbLine
 10
86.4018865119
 20
215.2630499688
 30
0.0
 11
86.4018865119
 21
215.5080121764
 31
0.0
  0
LINE
  5
97
330
1F
100
AcDbEntity
  8
0
  6
SLD-実線
 62
     7
370
    25
100
AcDbLine
 10
86.0018870387
 20
205.1706011951
 30
0.0
 11
86.0018870387
 21
212.0901271112
 31
0.0
  0
LINE
  5
98
330
1F
100
AcDbEntity
  8
0
  6
SLD-実線
 62
     7
370
    25
100
AcDbLine
 10
84.0018867094
 20
210.935551513
 30
0.0
 11
84.0018867094
 21
205.170600967
 31
0.0
  0
LINE
  5
99
330
1F
100
AcDbEntity
  8
0
  6
SLD-実線
 62
     7
370
    25
100
AcDbLine
 10
83.6018861826
 20
205.1706007009
 30
0.0
 11
83.6018861826
 21
204.9256379609
 31
0.0
  0
LINE
  5
9A
330
1F
100
AcDbEntity
  8
0
  6
SLD-実線
 62
     7
370
    25
100
AcDbLine
 10
86.4018865119
 20
204.9256381129
 30
0.0
 11
86.4018865119
 21
205.1706008529
 31
0.0
  0
LINE
  5
9B
330
1F
100
AcDbEntity
  8
0
  6
SLD-実線
 62
     7
370
    25
100
AcDbLine
 10
83.8398015863
 20
210.8419816551
 30
0.0
 11
104.9187966014
 21
223.0106264604
 31
0.0
  0
LINE
  5
9C
330
1F
100
AcDbEntity
  8
0
  6
SLD-実線
 62
     7
370
    25
100
AcDbLine
 10
102.0103758751
 20
226.7417084574
 30
0.0
 11
86.0018869729
 21
217.5002045251
 31
0.0
  0
LINE
  5
9D
330
1F
100
AcDbEntity
  8
0
  6
SLD-実線
 62
     7
370
    25
100
AcDbLine
 10
84.0018862484
 20
216.3456286828
 30
0.0
 11
80.93138086
 21
214.5730636521
 31
0.0
  0
LWPOLYLINE
  5
9E
330
1F
100
AcDbEntity
  8
0
  6
SLD-実線
 62
     7
370
    25
100
AcDbPolyline
 90
        3
 70
   128
 43
0.0
 10
103.2590701707
 20
223.5408663995
 10
103.3940707412
 20
223.5848990582
 10
103.5202194198
 20
223.5603968561
  0
LWPOLYLINE
  5
9F
330
1F
100
AcDbEntity
  8
0
  6
SLD-実線
 62
     7
370
    25
100
AcDbPolyline
 90
        9
 70
   128
 43
0.0
 10
103.662434477
 20
223.2922539388
 10
103.6328305306
 20
223.4470261053
 10
103.5485257701
 20
223.5440556966
 10
103.4223549644
 20
223.5685709237
 10
103.2735260129
 20
223.5168393055
 10
103.1246970614
 20
223.396736674
 10
102.9985257289
 20
223.2265474312
 10
102.9142209683
 20
223.0321816352
 10
102.8846170219
 20
222.8432294798
  0
ARC
  5
A0
330
1F
100
AcDbEntity
  8
0
  6
SLD-実線
 62
     7
370
    25
100
AcDbCircle
 10
103.0556568262
 20
223.1927247165
 30
0.0
 40
0.1536814337209324
100
AcDbArc
 50
302.6055989342
 51
357.3943354499
  0
LINE
  5
A1
330
1F
100
AcDbEntity
  8
0
  6
SLD-実線
 62
     7
370
    25
100
AcDbLine
 10
103.1384685442
 20
223.063263516
 30
0.0
 11
102.9906832541
 21
222.977948884
 31
0.0
  0
LINE
  5
A2
330
1F
100
AcDbEntity
  8
0
  6
SLD-実線
 62
     7
370
    25
100
AcDbLine
 10
102.9906832541
 20
222.977948884
 30
0.0
 11
102.9906832541
 21
222.8309715404
 31
0.0
  0
LINE
  5
A3
330
1F
100
AcDbEntity
  8
0
  6
SLD-実線
 62
     7
370
    25
100
AcDbLine
 10
102.9906832541
 20
222.8309715404
 30
0.0
 11
103.1384685442
 21
222.9162861724
 31
0.0
  0
ARC
  5
A4
330
1F
100
AcDbEntity
  8
0
  6
SLD-実線
 62
     7
370
    25
100
AcDbCircle
 10
103.1660717577
 20
222.8824450305
 30
0.0
 40
0.0436710463039471
100
AcDbArc
 50
350.7863420577
 51
129.2031025771
  0
LINE
  5
A5
330
1F
100
AcDbEntity
  8
0
  6
SLD-実線
 62
     7
370
    25
100
AcDbLine
 10
103.2091793656
 20
222.8754525757
 30
0.0
 11
103.2091793656
 21
222.7039789923
 31
0.0
  0
LINE
  5
A6
330
1F
100
AcDbEntity
  8
0
  6
SLD-実線
 62
     7
370
    25
100
AcDbLine
 10
103.2091793656
 20
222.7039789923
 30
0.0
 11
103.3378726602
 21
222.7782720499
 31
0.0
  0
LINE
  5
A7
330
1F
100
AcDbEntity
  8
0
  6
SLD-実線
 62
     7
370
    25
100
AcDbLine
 10
103.3378726602
 20
222.7782720499
 30
0.0
 11
103.3378726602
 21
222.9497456333
 31
0.0
  0
ARC
  5
A8
330
1F
100
AcDbEntity
  8
0
  6
SLD-実線
 62
     7
370
    25
100
AcDbCircle
 10
103.4913943881
 20
222.9427594747
 30
0.0
 40
0.1536806017571312
100
AcDbArc
 50
122.6054381929
 51
177.3944961912
  0
LINE
  5
A9
330
1F
100
AcDbEntity
  8
0
  6
SLD-実線
 62
     7
370
    25
100
AcDbLine
 10
103.4085834816
 20
223.0722202067
 30
0.0
 11
103.5563687717
 21
223.1575348387
 31
0.0
  0
LINE
  5
AA
330
1F
100
AcDbEntity
  8
0
  6
SLD-実線
 62
     7
370
    25
100
AcDbLine
 10
103.5563687717
 20
223.1575348387
 30
0.0
 11
103.5563687717
 21
223.3045121823
 31
0.0
  0
LINE
  5
AB
330
1F
100
AcDbEntity
  8
0
  6
SLD-実線
 62
     7
370
    25
100
AcDbLine
 10
103.5563687717
 20
223.3045121823
 30
0.0
 11
103.4085834816
 21
223.2191975503
 31
0.0
  0
ARC
  5
AC
330
1F
100
AcDbEntity
  8
0
  6
SLD-実線
 62
     7
370
    25
100
AcDbCircle
 10
103.3809801389
 20
223.2530384685
 30
0.0
 40
0.0436709545785727
100
AcDbArc
 50
170.7860251116
 51
309.2034195232
  0
LINE
  5
AD
330
1F
100
AcDbEntity
  8
0
  6
SLD-実線
 62
     7
370
    25
100
AcDbLine
 10
103.3378726602
 20
223.260031147
 30
0.0
 11
103.3378726602
 21
223.4315047304
 31
0.0
  0
LINE
  5
AE
330
1F
100
AcDbEntity
  8
0
  6
SLD-実線
 62
     7
370
    25
100
AcDbLine
 10
103.3378726602
 20
223.4315047304
 30
0.0
 11
103.2091793656
 21
223.3572116728
 31
0.0
  0
LINE
  5
AF
330
1F
100
AcDbEntity
  8
0
  6
SLD-実線
 62
     7
370
    25
100
AcDbLine
 10
103.2091793656
 20
223.3572116728
 30
0.0
 11
103.2091793656
 21
223.1857380894
 31
0.0
  0
LWPOLYLINE
  5
B0
330
1F
100
AcDbEntity
  8
0
  6
SLD-実線
 62
     7
370
    25
100
AcDbPolyline
 90
        9
 70
   128
 43
0.0
 10
102.8846170219
 20
222.8432294798
 10
102.9142209683
 20
222.6884573133
 10
102.9985257289
 20
222.591427722
 10
103.1246970614
 20
222.566912799
 10
103.2735260129
 20
222.6186444172
 10
103.4223549644
 20
222.7387470487
 10
103.5485257701
 20
222.9089359874
 10
103.6328305306
 20
223.1033017834
 10
103.662434477
 20
223.2922539388
  0
LWPOLYLINE
  5
B1
330
1F
100
AcDbEntity
  8
0
  6
SLD-実線
 62
     7
370
    25
100
AcDbPolyline
 90
        3
 70
   128
 43
0.0
 10
103.21716593
 20
223.2958874337
 10
103.2171617153
 20
223.2958896964
 10
103.2091791022
 20
223.3022837711
  0
LINE
  5
B2
330
1F
100
AcDbEntity
  8
0
  6
SLD-実線
 62
     7
370
    25
100
AcDbLine
 10
103.2671621022
 20
223.1538610312
 30
0.0
 11
103.3661877033
 21
223.2110272939
 31
0.0
  0
ARC
  5
B3
330
1F
100
AcDbEntity
  8
0
  6
SLD-実線
 62
     7
370
    25
100
AcDbCircle
 10
103.3499730087
 20
223.0244002993
 30
0.0
 40
0.1536806017572097
100
AcDbArc
 50
122.6054381929
 51
177.3944961912
  0
LINE
  5
B4
330
1F
100
AcDbEntity
  8
0
  6
SLD-実線
 62
     7
370
    25
100
AcDbLine
 10
103.1964512808
 20
222.9148406528
 30
0.0
 11
103.1964512808
 21
223.0313864578
 31
0.0
  0
LINE
  5
B5
330
1F
100
AcDbEntity
  8
0
  6
SLD-実線
 62
     7
370
    25
100
AcDbLine
 10
103.0394426797
 20
223.0060971299
 30
0.0
 11
103.0470428101
 21
223.002877634
 31
0.0
  0
ARC
  5
B6
330
1F
100
AcDbEntity
  8
0
  6
SLD-実線
 62
     7
370
    25
100
AcDbCircle
 10
103.1039454286
 20
222.8175103384
 30
0.0
 40
0.2487427608063422
100
AcDbArc
 50
173.9656516256
 51
237.4912924551
  0
LINE
  5
B7
330
1F
100
AcDbEntity
  8
0
  6
SLD-実線
 62
     7
370
    25
100
AcDbLine
 10
103.1964512808
 20
223.0313864578
 30
0.0
 11
103.3378726602
 21
222.9497456333
 31
0.0
  0
LINE
  5
B8
330
1F
100
AcDbEntity
  8
0
  6
SLD-実線
 62
     7
370
    25
100
AcDbLine
 10
103.2671621022
 20
223.1538610312
 30
0.0
 11
103.4085834816
 21
223.0722202067
 31
0.0
  0
LINE
  5
B9
330
1F
100
AcDbEntity
  8
0
  6
SLD-実線
 62
     7
370
    25
100
AcDbLine
 10
103.3378726602
 20
222.7782720499
 30
0.0
 11
103.2107494674
 21
222.851658707
 31
0.0
  0
LINE
  5
BA
330
1F
100
AcDbEntity
  8
0
  6
SLD-実線
 62
     7
370
    25
100
AcDbLine
 10
103.5563687717
 20
223.1575348387
 30
0.0
 11
103.4290895039
 21
223.231011596
 31
0.0
  0
LWPOLYLINE
  5
BB
330
1F
100
AcDbEntity
  8
0
  6
SLD-実線
 62
     7
370
    25
100
AcDbPolyline
 90
       19
 70
   128
 43
0.0
 10
101.8383489031
 20
229.6326444083
 10
101.8725617391
 20
229.4001246654
 10
101.9843350496
 20
229.0757335805
 10
102.1684979433
 20
228.7625400126
 10
102.4218990211
 20
228.4659027569
 10
102.7402025248
 20
228.1908971735
 10
103.1179626536
 20
227.9422290973
 10
103.5487150687
 20
227.7241528169
 10
104.0250903278
 20
227.5404001154
 10
104.5389368023
 20
227.394114787
 10
105.0814627584
 20
227.2877998115
 10
105.6433854845
 20
227.2232744528
 10
106.2150903624
 20
227.2016426475
 10
106.7867947134
 20
227.2232744528
 10
107.3487175712
 20
227.2877998875
 10
107.891243659
 20
227.3941146349
 10
108.4050901335
 20
227.5403999634
 10
108.8814651621
 20
227.7241528359
 10
109.3122183345
 20
227.9422292494
  0
LWPOLYLINE
  5
BC
330
1F
100
AcDbEntity
  8
0
  6
SLD-実線
 62
     7
370
    25
100
AcDbPolyline
 90
       15
 70
   128
 43
0.0
 10
109.3122183345
 20
228.1055374385
 10
108.8814651621
 20
227.887461025
 10
108.4050901335
 20
227.7037081525
 10
107.891243659
 20
227.5574228241
 10
107.3487175712
 20
227.4511080767
 10
106.7867947134
 20
227.3865826419
 10
106.2150903624
 20
227.3649508366
 10
105.6433854845
 20
227.3865826419
 10
105.0814627584
 20
227.4511080006
 10
104.5389368023
 20
227.5574229761
 10
104.0250903278
 20
227.7037083046
 10
103.5487150687
 20
227.887461006
 10
103.1179626536
 20
228.1055372865
 10
102.7402025248
 20
228.3542053627
 10
102.6039946118
 20
228.4624970493
  0
LINE
  5
BD
330
1F
100
AcDbEntity
  8
0
  6
SLD-実線
 62
     7
370
    25
100
AcDbLine
 10
109.6684885426
 20
228.3381716125
 30
0.0
 11
109.3122183345
 21
228.1055374385
 31
0.0
  0
LWPOLYLINE
  5
BE
330
1F
100
AcDbEntity
  8
0
  6
SLD-実線
 62
     7
370
    25
100
AcDbPolyline
 90
        7
 70
   128
 43
0.0
 10
109.3122183345
 20
227.9422292494
 10
109.6899776401
 20
228.1908971545
 10
110.0082814402
 20
228.4659026048
 10
110.261682518
 20
228.7625398605
 10
110.4458455434
 20
229.0757338086
 10
110.5576189856
 20
229.4001249695
 10
110.5918311631
 20
229.6326443323
  0
LWPOLYLINE
  5
BF
330
1F
100
AcDbEntity
  8
0
  6
SLD-実線
 62
     7
370
    25
100
AcDbPolyline
 90
       10
 70
   128
 43
0.0
 10
128.9663054512
 20
88.3747947425
 10
128.9373925814
 20
88.6450934691
 10
128.8526242055
 20
88.9303494422
 10
128.7177772735
 20
89.2111277876
 10
128.5420413788
 20
89.4682915585
 10
128.3373925485
 20
89.6843268973
 10
128.1177773064
 20
89.8444954408
 10
127.8981620644
 20
89.9378892586
 10
127.693513234
 20
89.9581364299
 10
127.5178260716
 20
89.9039032751
  0
LWPOLYLINE
  5
C0
330
1F
100
AcDbEntity
  8
0
  6
SLD-実線
 62
     7
370
    25
100
AcDbPolyline
 90
       13
 70
   128
 43
0.0
 10
84.8428416582
 20
64.8622407655
 10
84.871754528
 20
65.0991574032
 10
84.9565229039
 20
65.2865418928
 10
85.091369836
 20
65.4116292844
 10
85.2671057306
 20
65.4658927102
 10
85.471754561
 20
65.445645539
 10
85.691369803
 20
65.3522517211
 10
85.9109850451
 20
65.1920831777
 10
86.1156338754
 20
64.9760478389
 10
86.2913697701
 20
64.718884068
 10
86.4262167021
 20
64.4381057225
 10
86.5109850781
 20
64.1528497494
 10
86.5398979478
 20
63.8825510228
  0
LWPOLYLINE
  5
C1
330
1F
100
AcDbEntity
  8
0
  6
SLD-実線
 62
     7
370
    25
100
AcDbPolyline
 90
       12
 70
   128
 43
0.0
 10
86.3277658787
 20
64.0050122597
 10
86.3019874174
 20
64.2269344335
 10
86.226740278
 20
64.4606427146
 10
86.108120607
 20
64.6871993352
 10
85.9557382975
 20
64.8882565107
 10
85.7819384085
 20
65.047518233
 10
85.6008011976
 20
65.1520865191
 10
85.4270013085
 20
65.1934898774
 10
85.2746189991
 20
65.1683695714
 10
85.1559993281
 20
65.0787683078
 10
85.0807521887
 20
64.9319385246
 10
85.0549737274
 20
64.7397795287
  0
LWPOLYLINE
  5
C2
330
1F
100
AcDbEntity
  8
0
  6
SLD-実線
 62
     7
370
    25
100
AcDbPolyline
 90
       12
 70
   128
 43
0.0
 10
85.0549737274
 20
64.7397795287
 10
85.0807521887
 20
64.5178573548
 10
85.1559993281
 20
64.2841490737
 10
85.2746189991
 20
64.0575924532
 10
85.4270013085
 20
63.8565352776
 10
85.6008011976
 20
63.6972735553
 10
85.7819384085
 20
63.5927052693
 10
85.9557382975
 20
63.5513019109
 10
86.108120607
 20
63.5764222169
 10
86.226740278
 20
63.6660234806
 10
86.3019874174
 20
63.8128532637
 10
86.3277658787
 20
64.0050122597
  0
LWPOLYLINE
  5
C3
330
1F
100
AcDbEntity
  8
0
  6
SLD-実線
 62
     7
370
    25
100
AcDbPolyline
 90
       13
 70
   128
 43
0.0
 10
86.5398979478
 20
63.8825510228
 10
86.5109850781
 20
63.645644119
 10
86.4262167021
 20
63.4582596295
 10
86.2913697701
 20
63.3331722378
 10
86.1156338754
 20
63.2788990781
 10
85.9109850451
 20
63.2991559833
 10
85.691369803
 20
63.3925498011
 10
85.471754561
 20
63.5527183446
 10
85.2671057306
 20
63.7687439495
 10
85.091369836
 20
64.0259174543
 10
84.9565229039
 20
64.3066957997
 10
84.871754528
 20
64.5919517729
 10
84.8428416582
 20
64.8622407655
  0
ARC
  5
C4
330
1F
100
AcDbEntity
  8
0
  6
SLD-実線
 62
     7
370
    25
100
AcDbCircle
 10
128.3884693782
 20
88.3052951783
 30
0.0
 40
0.5820006157741564
100
AcDbArc
 50
304.4534713235
 51
6.8583378811
  0
LWPOLYLINE
  5
C5
330
1F
100
AcDbEntity
  8
0
  6
SLD-実線
 62
     7
370
    25
100
AcDbPolyline
 90
       25
 70
   128
 43
0.0
 10
109.3173565005
 20
231.9886558526
 10
109.6900056612
 20
231.7402904698
 10
110.0034356063
 20
231.4660180436
 10
110.2523033954
 20
231.1705117927
 10
110.4323686934
 20
230.8588084137
 10
110.5405634731
 20
230.5362203975
 10
110.5750418342
 20
230.2082440086
 10
110.5352184625
 20
229.8804701741
 10
110.4217704732
 20
229.5584836623
 10
110.2366309581
 20
229.2477719179
 10
109.9829575063
 20
228.9536313124
 10
109.6650712234
 20
228.6810733942
 10
109.2883892966
 20
228.4347433804
 10
108.8593327983
 20
228.2188395604
 10
108.3852123627
 20
228.0370412162
 10
107.8741083309
 20
227.8924464261
 10
107.3347316663
 20
227.7875197541
 10
106.7762735429
 20
227.72404891
 10
106.2082517728
 20
227.7031160086
 10
105.6403464333
 20
227.725077497
 10
105.0822358896
 20
227.7895590602
 10
104.5434317637
 20
227.8954620839
 10
104.0331160755
 20
228.0409816366
 10
103.5599859592
 20
228.2236377196
 10
103.1321045018
 20
228.4403175799
  0
ARC
  5
C6
330
1F
100
AcDbEntity
  8
0
  6
SLD-実線
 62
     7
370
    25
100
AcDbCircle
 10
107.3026587546
 20
228.5428979223
 30
0.0
 40
3.991522857378888
100
AcDbArc
 50
59.6856311528
 51
60.0057097086
  0
LWPOLYLINE
  5
C7
330
1F
100
AcDbEntity
  8
0
  6
SLD-実線
 62
     7
370
    25
100
AcDbPolyline
 90
       25
 70
   128
 43
0.0
 10
109.3263604461
 20
231.9835238451
 10
109.7058448091
 20
231.7337198791
 10
110.0256022803
 20
231.4574588804
 10
110.280160355
 20
231.1594669663
 10
110.4651640782
 20
230.8448433521
 10
110.5774471022
 20
230.5189706701
 10
110.6150897697
 20
230.1874254766
 10
110.5774472339
 20
229.8558805113
 10
110.4651643416
 20
229.5300085135
 10
110.2801596964
 20
229.2153843672
 10
110.0256022145
 20
228.9173927952
 10
109.7058448749
 20
228.6411315684
 10
109.3263604461
 20
228.3913281726
 10
108.893640333
 20
228.1722558666
 10
108.4150900002
 20
227.9876638837
 10
107.8988969999
 20
227.8407106732
 10
107.3538939944
 20
227.7339103731
 10
106.7894054473
 20
227.669090535
 10
106.2150899672
 20
227.6473596575
 10
105.6407746189
 20
227.6690903069
 10
105.0762864669
 20
227.7339105252
 10
104.5312828029
 20
227.8407105972
 10
104.0150902636
 20
227.9876641498
 10
103.536539799
 20
228.1722559047
 10
103.1038202786
 20
228.3913278685
  0
LWPOLYLINE
  5
C8
330
1F
100
AcDbEntity
  8
0
  6
SLD-実線
 62
     7
370
    25
100
AcDbPolyline
 90
       19
 70
   128
 43
0.0
 10
103.1038202786
 20
228.0973730672
 10
103.536539799
 20
227.8783011034
 10
104.0150902636
 20
227.6937093485
 10
104.5312828029
 20
227.5467557959
 10
105.0762864669
 20
227.4399557239
 10
105.6407746189
 20
227.3751355056
 10
106.2150899672
 20
227.3534048562
 10
106.7894054473
 20
227.3751357337
 10
107.3538939944
 20
227.4399555718
 10
107.8988969999
 20
227.5467558719
 10
108.4150900002
 20
227.6937090824
 10
108.893640333
 20
227.8783010653
 10
109.3263604461
 20
228.0973733713
 10
109.7058448749
 20
228.3471767671
 10
110.0256022145
 20
228.6234379939
 10
110.2801596964
 20
228.9214295659
 10
110.4651643416
 20
229.2360537122
 10
110.5774472339
 20
229.56192571
 10
110.6150897697
 20
229.8934706753
  0
ARC
  5
C9
330
1F
100
AcDbEntity
  8
0
  6
SLD-実線
 62
     7
370
    25
100
AcDbCircle
 10
105.1908001879
 20
232.0063942846
 30
0.0
 40
4.117660864048132
100
AcDbArc
 50
239.6918873267
 51
240.0021649725
  0
LWPOLYLINE
  5
CA
330
1F
100
AcDbEntity
  8
0
  6
SLD-実線
 62
     7
370
    25
100
AcDbPolyline
 90
       25
 70
   128
 43
0.0
 10
103.1128231706
 20
228.4515184067
 10
102.7401740098
 20
228.6998837895
 10
102.4267445916
 20
228.9741565198
 10
102.1778768024
 20
229.2696627708
 10
101.9978115044
 20
229.5813661497
 10
101.8896172516
 20
229.9039544701
 10
101.8551383636
 20
230.2319305548
 10
101.8949622622
 20
230.5597046934
 10
102.0084102515
 20
230.8816912053
 10
102.1935487129
 20
231.1924023414
 10
102.4472226916
 20
231.4865432511
 10
102.7651089744
 20
231.7591011692
 10
103.1417909012
 20
232.005431183
 10
103.5708473996
 20
232.221335003
 10
104.044968362
 20
232.4031336514
 10
104.5560713401
 20
232.5477278332
 10
105.0954490584
 20
232.6526551134
 10
105.6539071818
 20
232.7161259576
 10
106.2219289519
 20
232.737058859
 10
106.7898337646
 20
232.7150970664
 10
107.3479443082
 20
232.6506155033
 10
107.8867484342
 20
232.5447124796
 10
108.3970635955
 20
232.3991926227
 10
108.8701942387
 20
232.2165368438
 10
109.2980756961
 20
231.9998569835
  0
LWPOLYLINE
  5
CB
330
1F
100
AcDbEntity
  8
0
  6
SLD-実線
 62
     7
370
    25
100
AcDbPolyline
 90
        7
 70
   128
 43
0.0
 10
103.1038202786
 20
228.3913278685
 10
102.7243353888
 20
228.6411315304
 10
102.4045784444
 20
228.9173928332
 10
102.1500198429
 20
229.2153844432
 10
101.9650166465
 20
229.5300083615
 10
101.8527325688
 20
229.8558804352
 10
101.8150899013
 20
230.1874256287
  0
LWPOLYLINE
  5
CC
330
1F
100
AcDbEntity
  8
0
  6
SLD-実線
 62
     7
370
    25
100
AcDbPolyline
 90
        7
 70
   128
 43
0.0
 10
101.8150899013
 20
229.8934708274
 10
101.8527325688
 20
229.5619256339
 10
101.9650166465
 20
229.2360535602
 10
102.1500198429
 20
228.9214296419
 10
102.4045784444
 20
228.6234380319
 10
102.7243353888
 20
228.3471767291
 10
103.1038202786
 20
228.0973730672
  0
LWPOLYLINE
  5
CD
330
1F
100
AcDbEntity
  8
0
  6
SLD-実線
 62
     7
370
    25
100
AcDbPolyline
 90
        7
 70
   128
 43
0.0
 10
109.3263604461
 20
66.2589798295
 10
109.7058448749
 20
66.5087832253
 10
110.0256022145
 20
66.7850444521
 10
110.2801596964
 20
67.0830360241
 10
110.4651643416
 20
67.3976601704
 10
110.5774472339
 20
67.7235321682
 10
110.6150897697
 20
68.0550771335
  0
ARC
  5
CE
330
1F
100
AcDbEntity
  8
0
  6
SLD-実線
 62
     7
370
    25
100
AcDbCircle
 10
106.2150900689
 20
72.2637064888
 30
0.0
 40
6.762894765855486
100
AcDbArc
 50
242.6096655338
 51
297.390340067
  0
SPLINE
  5
CF
330
1F
100
AcDbEntity
  8
0
  6
SLD-実線
 62
     7
370
    25
100
AcDbSpline
210
0.0
220
0.0
230
1.0
 70
     8
 71
     3
 72
    24
 73
    20
 74
     0
 42
0.000000001
 43
0.00000001
 40
0.0
 40
0.0
 40
0.0
 40
0.0
 40
0.0608965278745922
 40
0.1422778716904267
 40
0.2019151272605561
 40
0.2501986866315836
 40
0.2871321223790886
 40
0.3603039346586537
 40
0.4287615253232369
 40
0.4970090035304139
 40
0.5328832299164387
 40
0.5699300926965749
 40
0.6295024776101064
 40
0.7137147438943778
 40
0.7708973478841443
 40
0.8189543699097482
 40
0.857885566651583
 40
0.9306330253260258
 40
1.0
 40
1.0
 40
1.0
 40
1.0
 10
103.4738512351043
 20
73.25239970655286
 30
0.0
 10
103.5263331861831
 20
73.25424848961791
 30
0.0
 10
103.6489513478791
 20
73.25856796281114
 30
0.0
 10
103.8074108187804
 20
73.32103222134737
 30
0.0
 10
103.9347462154799
 20
73.41408265885106
 30
0.0
 10
104.0163397824013
 20
73.50576058367515
 30
0.0
 10
104.089906842553
 20
73.62122959190182
 30
0.0
 10
104.1463919496729
 20
73.77130098127319
 30
0.0
 10
104.169272718487
 20
73.97018072899934
 30
0.0
 10
104.1510053978831
 20
74.14464276181785
 30
0.0
 10
104.1145176359927
 20
74.29003773579628
 30
0.0
 10
104.0668270824825
 20
74.42724432747616
 30
0.0
 10
103.9780078482903
 20
74.61282729834124
 30
0.0
 10
103.8476540033424
 20
74.81326931143099
 30
0.0
 10
103.7031682996551
 20
74.989186513338
 30
0.0
 10
103.5842385072637
 20
75.11402871748884
 30
0.0
 10
103.4468571740556
 20
75.24156973457319
 30
0.0
 10
103.2862746302544
 20
75.37260242479259
 30
0.0
 10
103.1636662315115
 20
75.44873350697266
 30
0.0
 10
103.1038202785704
 20
75.48589358090085
 30
0.0
  0
LWPOLYLINE
  5
D0
330
1F
100
AcDbEntity
  8
0
  6
SLD-実線
 62
     7
370
    25
100
AcDbPolyline
 90
        8
 70
   128
 43
0.0
 10
110.6128160789
 20
229.8118167688
 10
110.615089638
 20
229.7301625622
 10
110.5774472339
 20
229.3986175208
 10
110.4651640782
 20
229.0727456751
 10
110.2801596964
 20
228.7581213767
 10
110.025601951
 20
228.4601299568
 10
109.7058448749
 20
228.183868578
 10
109.3263604461
 20
227.9340651821
  0
SPLINE
  5
D1
330
1F
100
AcDbEntity
  8
0
  6
SLD-実線
 62
     7
370
    25
100
AcDbSpline
210
0.0
220
0.0
230
1.0
 70
     8
 71
     3
 72
    16
 73
    12
 74
     0
 42
0.000000001
 43
0.00000001
 40
0.0
 40
0.0
 40
0.0
 40
0.0
 40
0.1601564671677728
 40
0.2432789757709441
 40
0.328434573443007
 40
0.4718682149352475
 40
0.6615032141639974
 40
0.8004905840881803
 40
0.913053380333662
 40
0.9991819646887872
 40
0.9999999999999999
 40
0.9999999999999999
 40
0.9999999999999999
 40
0.9999999999999999
 10
103.1038202785704
 20
75.48589358090085
 30
0.0
 10
103.0464237330483
 20
75.5165670262371
 30
0.0
 10
102.9592379137409
 20
75.5631602390916
 30
0.0
 10
102.8517352498754
 20
75.60120098421825
 30
0.0
 10
102.7555802978613
 20
75.62559986279248
 30
0.0
 10
102.6396913459196
 20
75.63449439349205
 30
0.0
 10
102.5307586901328
 20
75.60324525788057
 30
0.0
 10
102.4503394700116
 20
75.53797707174014
 30
0.0
 10
102.404145029192
 20
75.46292134462018
 30
0.0
 10
102.378744031292
 20
75.41603068107183
 30
0.0
 10
102.3723284385941
 20
75.38794770596505
 30
0.0
 10
102.3722680776348
 20
75.38768348792675
 30
0.0
  0
LWPOLYLINE
  5
D2
330
1F
100
AcDbEntity
  8
0
  6
SLD-実線
 62
     7
370
    25
100
AcDbPolyline
 90
        7
 70
   128
 43
0.0
 10
101.8150899013
 20
68.0550772856
 10
101.8527325688
 20
67.7235320921
 10
101.9650166465
 20
67.3976600183
 10
102.1500198429
 20
67.0830361001
 10
102.4045784444
 20
66.7850444901
 10
102.7243353888
 20
66.5087831873
 10
103.1038202786
 20
66.2589795254
  0
LWPOLYLINE
  5
D3
330
1F
100
AcDbEntity
  8
0
  6
SLD-実線
 62
     7
370
    25
100
AcDbPolyline
 90
       20
 70
   128
 43
0.0
 10
109.3263604461
 20
227.9340651821
 10
108.893640333
 20
227.7149928762
 10
108.415090527
 20
227.5304011974
 10
107.8988975267
 20
227.3834479869
 10
107.3538939944
 20
227.2766473827
 10
106.7894057107
 20
227.2118273925
 10
106.2150904941
 20
227.1900969712
 10
105.6407752774
 20
227.2118275445
 10
105.0762865986
 20
227.2766474587
 10
104.5312833297
 20
227.3834479109
 10
104.0150903294
 20
227.5304011213
 10
103.5365398978
 20
227.7149928572
 10
103.1038203711
 20
227.9340648246
 10
102.7243354876
 20
228.1838684829
 10
102.4045785102
 20
228.4601298047
 10
102.1500199746
 20
228.7581213767
 10
101.9650166465
 20
229.072745371
 10
101.8527325688
 20
229.3986174448
 10
101.8150899013
 20
229.7301626383
 10
101.8173641189
 20
229.8118167688
  0
SPLINE
  5
D4
330
1F
100
AcDbEntity
  8
0
  6
SLD-実線
 62
     7
370
    25
100
AcDbSpline
210
0.0
220
0.0
230
1.0
 70
     8
 71
     3
 72
    10
 73
     6
 74
     0
 42
0.000000001
 43
0.00000001
 40
0.0
 40
0.0
 40
0.0
 40
0.0
 40
0.2867482870434698
 40
0.5806398377009896
 40
0.9999999999999999
 40
0.9999999999999999
 40
0.9999999999999999
 40
0.9999999999999999
 10
109.3263604461301
 20
227.4686369495441
 30
0.0
 10
109.3009350015526
 20
227.4529373655769
 30
0.0
 10
109.249450732317
 20
227.4211471010883
 30
0.0
 10
109.1602693107284
 20
227.344707440702
 30
0.0
 10
109.1058959880269
 20
227.2738557601476
 30
0.0
 10
109.0739269019124
 20
227.2321981353335
 30
0.0
  0
SPLINE
  5
D5
330
1F
100
AcDbEntity
  8
0
  6
SLD-実線
 62
     7
370
    25
100
AcDbSpline
210
0.0
220
0.0
230
1.0
 70
     8
 71
     3
 72
    10
 73
     6
 74
     0
 42
0.000000001
 43
0.00000001
 40
0.0
 40
0.0
 40
0.0
 40
0.0
 40
0.4805776470397309
 40
0.7482870512964072
 40
0.9999999999999999
 40
0.9999999999999999
 40
0.9999999999999999
 40
0.9999999999999999
 10
109.0141942808603
 20
227.146461334433
 30
0.0
 10
108.9854558145272
 20
227.0945203688993
 30
0.0
 10
108.9407083686906
 20
227.013645296619
 30
0.0
 10
108.9111197418858
 20
226.9024999789883
 30
0.0
 10
108.9096086812474
 20
226.8493389468946
 30
0.0
 10
108.9088764187123
 20
226.8235770210395
 30
0.0
  0
SPLINE
  5
D6
330
1F
100
AcDbEntity
  8
0
  6
SLD-実線
 62
     7
370
    25
100
AcDbSpline
210
0.0
220
0.0
230
1.0
 70
     8
 71
     3
 72
    10
 73
     6
 74
     0
 42
0.000000001
 43
0.00000001
 40
0.0
 40
0.0
 40
0.0
 40
0.0
 40
0.3737031610448144
 40
0.7587403407680944
 40
1.0
 40
1.0
 40
1.0
 40
1.0
 10
108.9088764187123
 20
226.8235770210395
 30
0.0
 10
108.9101793013661
 20
226.7977299987533
 30
0.0
 10
108.9128245817164
 20
226.745252041536
 30
0.0
 10
108.9311030484781
 20
226.6828037016036
 30
0.0
 10
108.9566831334039
 20
226.6591417047478
 30
0.0
 10
108.9665369953244
 20
226.6500267213356
 30
0.0
  0
SPLINE
  5
D7
330
1F
100
AcDbEntity
  8
0
  6
SLD-実線
 62
     7
370
    25
100
AcDbSpline
210
0.0
220
0.0
230
1.0
 70
     8
 71
     3
 72
    10
 73
     6
 74
     0
 42
0.000000001
 43
0.00000001
 40
0.0
 40
0.0
 40
0.0
 40
0.0
 40
0.4813410088653373
 40
0.9920743105565119
 40
1.0
 40
1.0
 40
1.0
 40
1.0
 10
103.9546188543429
 20
73.44210807153686
 30
0.0
 10
103.9241422892686
 20
73.43485626005564
 30
0.0
 10
103.8613281580656
 20
73.41990981721568
 30
0.0
 10
103.7944436052635
 20
73.41113943266775
 30
0.0
 10
103.7592638483225
 20
73.41676884284453
 30
0.0
 10
103.7587262622921
 20
73.41685486652797
 30
0.0
  0
LINE
  5
D8
330
1F
100
AcDbEntity
  8
0
  6
SLD-実線
 62
     7
370
    25
100
AcDbLine
 10
102.6679380981
 20
75.5583649665
 30
0.0
 11
102.6981668057
 21
75.6249248384
 31
0.0
  0
LINE
  5
D9
330
1F
100
AcDbEntity
  8
0
  6
SLD-実線
 62
     7
370
    25
100
AcDbLine
 10
108.911777439
 20
226.8500216221
 30
0.0
 11
108.9088764187
 21
226.823577021
 31
0.0
  0
LWPOLYLINE
  5
DA
330
1F
100
AcDbEntity
  8
0
  6
SLD-実線
 62
     7
370
    25
100
AcDbPolyline
 90
        7
 70
   128
 43
0.0
 10
109.5963154889
 20
227.5150967081
 10
109.4701657567
 20
227.5395981879
 10
109.3213378589
 20
227.4878672159
 10
109.1725089074
 20
227.3677645464
 10
109.046337048
 20
227.1975750566
 10
108.9620328143
 20
227.0032095647
 10
108.9324288679
 20
226.8142573902
  0
LWPOLYLINE
  5
DB
330
1F
100
AcDbEntity
  8
0
  6
SLD-実線
 62
     7
370
    25
100
AcDbPolyline
 90
        9
 70
   128
 43
0.0
 10
108.9607133545
 20
226.7979291037
 10
108.9903173009
 20
226.9868812781
 10
109.0746215347
 20
227.18124677
 10
109.200793394
 20
227.3514362599
 10
109.3496223455
 20
227.4715389294
 10
109.4984502433
 20
227.5232699014
 10
109.6246221027
 20
227.4987553395
 10
109.7089263364
 20
227.4017254441
 10
109.7385302828
 20
227.2469532586
  0
LINE
  5
DC
330
1F
100
AcDbEntity
  8
0
  6
SLD-実線
 62
     7
370
    25
100
AcDbLine
 10
108.9607133545
 20
226.7979291037
 30
0.0
 11
108.9324288679
 21
226.8142573902
 31
0.0
  0
ARC
  5
DD
330
1F
100
AcDbEntity
  8
0
  6
SLD-実線
 62
     7
370
    25
100
AcDbCircle
 10
109.1317553358
 20
227.1474218255
 30
0.0
 40
0.1536781179660013
100
AcDbArc
 50
302.6054261873
 51
357.3950050038
  0
LINE
  5
DE
330
1F
100
AcDbEntity
  8
0
  6
SLD-実線
 62
     7
370
    25
100
AcDbLine
 10
109.0667790598
 20
226.9326482323
 30
0.0
 11
109.2145648768
 21
227.0179631685
 31
0.0
  0
LINE
  5
DF
330
1F
100
AcDbEntity
  8
0
  6
SLD-実線
 62
     7
370
    25
100
AcDbLine
 10
109.0667790598
 20
226.7856709838
 30
0.0
 11
109.0667790598
 21
226.9326482323
 31
0.0
  0
LINE
  5
E0
330
1F
100
AcDbEntity
  8
0
  6
SLD-実線
 62
     7
370
    25
100
AcDbLine
 10
109.2145648768
 20
226.8709859199
 30
0.0
 11
109.0667790598
 21
226.7856709838
 31
0.0
  0
ARC
  5
E1
330
1F
100
AcDbEntity
  8
0
  6
SLD-実線
 62
     7
370
    25
100
AcDbCircle
 10
109.242167753
 20
226.8371452005
 30
0.0
 40
0.0436705057085317
100
AcDbArc
 50
350.7848442647
 51
129.2031101105
  0
LINE
  5
E2
330
1F
100
AcDbEntity
  8
0
  6
SLD-実線
 62
     7
370
    25
100
AcDbLine
 10
109.2852746445
 20
226.658678122
 30
0.0
 11
109.2852746445
 21
226.8301517054
 31
0.0
  0
LINE
  5
E3
330
1F
100
AcDbEntity
  8
0
  6
SLD-実線
 62
     7
370
    25
100
AcDbLine
 10
109.4139689928
 20
226.7329717879
 30
0.0
 11
109.2852746445
 21
226.658678122
 31
0.0
  0
LINE
  5
E4
330
1F
100
AcDbEntity
  8
0
  6
SLD-実線
 62
     7
370
    25
100
AcDbLine
 10
109.4139689928
 20
226.9044453713
 30
0.0
 11
109.4139689928
 21
226.7329717879
 31
0.0
  0
ARC
  5
E5
330
1F
100
AcDbEntity
  8
0
  6
SLD-実線
 62
     7
370
    25
100
AcDbCircle
 10
109.5674883015
 20
226.8974606889
 30
0.0
 40
0.1536781179660736
100
AcDbArc
 50
122.6054261874
 51
177.3950050038
  0
LINE
  5
E6
330
1F
100
AcDbEntity
  8
0
  6
SLD-実線
 62
     7
370
    25
100
AcDbLine
 10
109.6324645775
 20
227.112234282
 30
0.0
 11
109.4846787605
 21
227.0269193459
 31
0.0
  0
LINE
  5
E7
330
1F
100
AcDbEntity
  8
0
  6
SLD-実線
 62
     7
370
    25
100
AcDbLine
 10
109.6324645775
 20
227.2592115306
 30
0.0
 11
109.6324645775
 21
227.112234282
 31
0.0
  0
LINE
  5
E8
330
1F
100
AcDbEntity
  8
0
  6
SLD-実線
 62
     7
370
    25
100
AcDbLine
 10
109.4846787605
 20
227.1738965944
 30
0.0
 11
109.6324645775
 21
227.2592115306
 31
0.0
  0
ARC
  5
E9
330
1F
100
AcDbEntity
  8
0
  6
SLD-実線
 62
     7
370
    25
100
AcDbCircle
 10
109.4570758843
 20
227.2077373139
 30
0.0
 40
0.0436705057085357
100
AcDbArc
 50
170.7848442648
 51
309.2031101105
  0
LINE
  5
EA
330
1F
100
AcDbEntity
  8
0
  6
SLD-実線
 62
     7
370
    25
100
AcDbLine
 10
109.4139689928
 20
227.3862043924
 30
0.0
 11
109.4139689928
 21
227.214730809
 31
0.0
  0
LINE
  5
EB
330
1F
100
AcDbEntity
  8
0
  6
SLD-実線
 62
     7
370
    25
100
AcDbLine
 10
109.2852746445
 20
227.3119107265
 30
0.0
 11
109.4139689928
 21
227.3862043924
 31
0.0
  0
LINE
  5
EC
330
1F
100
AcDbEntity
  8
0
  6
SLD-実線
 62
     7
370
    25
100
AcDbLine
 10
109.2852746445
 20
227.1404371431
 30
0.0
 11
109.2852746445
 21
227.3119107265
 31
0.0
  0
LWPOLYLINE
  5
ED
330
1F
100
AcDbEntity
  8
0
  6
SLD-実線
 62
     7
370
    25
100
AcDbPolyline
 90
        9
 70
   128
 43
0.0
 10
109.7385302828
 20
227.2469532586
 10
109.7089263364
 20
227.0580012363
 10
109.6246221027
 20
226.8636357444
 10
109.4984502433
 20
226.6934461024
 10
109.3496223455
 20
226.5733440412
 10
109.200793394
 20
226.5216124609
 10
109.0746215347
 20
226.5461271748
 10
108.9903173009
 20
226.6431570703
 10
108.9607133545
 20
226.7979291037
  0
LINE
  5
EE
330
1F
100
AcDbEntity
  8
0
  6
SLD-実線
 62
     7
370
    25
100
AcDbLine
 10
109.2852749079
 20
227.2569831764
 30
0.0
 11
109.2932617357
 21
227.250586782
 31
0.0
  0
LINE
  5
EF
330
1F
100
AcDbEntity
  8
0
  6
SLD-実線
 62
     7
370
    25
100
AcDbLine
 10
109.442283509
 20
227.1657267373
 30
0.0
 11
109.3432573811
 21
227.1085601704
 31
0.0
  0
ARC
  5
F0
330
1F
100
AcDbEntity
  8
0
  6
SLD-実線
 62
     7
370
    25
100
AcDbCircle
 10
109.4260669221
 20
226.9791015135
 30
0.0
 40
0.153678117966031
100
AcDbArc
 50
122.6054261873
 51
177.3950050038
  0
LINE
  5
F1
330
1F
100
AcDbEntity
  8
0
  6
SLD-実線
 62
     7
370
    25
100
AcDbLine
 10
109.2725476134
 20
226.9860861958
 30
0.0
 11
109.2725476134
 21
226.8695403908
 31
0.0
  0
LINE
  5
F2
330
1F
100
AcDbEntity
  8
0
  6
SLD-実線
 62
     7
370
    25
100
AcDbLine
 10
109.1231391427
 20
226.9575773815
 30
0.0
 11
109.1155390123
 21
226.9607968299
 31
0.0
  0
LWPOLYLINE
  5
F3
330
1F
100
AcDbEntity
  8
0
  6
SLD-実線
 62
     7
370
    25
100
AcDbPolyline
 90
        4
 70
   128
 43
0.0
 10
108.9324288679
 20
226.8142573902
 10
108.9620328143
 20
226.6594853569
 10
109.046337048
 20
226.5624554614
 10
109.0463591751
 20
226.5624423794
  0
LINE
  5
F4
330
1F
100
AcDbEntity
  8
0
  6
SLD-実線
 62
     7
370
    25
100
AcDbLine
 10
109.4139689928
 20
226.9044453713
 30
0.0
 11
109.2725476134
 21
226.9860861958
 31
0.0
  0
LINE
  5
F5
330
1F
100
AcDbEntity
  8
0
  6
SLD-実線
 62
     7
370
    25
100
AcDbLine
 10
109.3432573811
 20
227.1085601704
 30
0.0
 11
109.4846787605
 21
227.0269193459
 31
0.0
  0
LINE
  5
F6
330
1F
100
AcDbEntity
  8
0
  6
SLD-実線
 62
     7
370
    25
100
AcDbLine
 10
109.3042939368
 20
226.79628585
 30
0.0
 11
109.4139689928
 21
226.7329717879
 31
0.0
  0
LINE
  5
F7
330
1F
100
AcDbEntity
  8
0
  6
SLD-実線
 62
     7
370
    25
100
AcDbLine
 10
109.5051644997
 20
227.1857230527
 30
0.0
 11
109.6324645775
 21
227.112234282
 31
0.0
  0
ARC
  5
F8
330
1F
100
AcDbEntity
  8
0
  6
SLD-実線
 62
     7
370
    25
100
AcDbCircle
 10
80.7371636802
 20
214.4195693252
 30
0.0
 40
0.0349367515283536
100
AcDbArc
 50
50.7967178088
 51
189.2139184226
  0
LINE
  5
F9
330
1F
100
AcDbEntity
  8
0
  6
SLD-実線
 62
     7
370
    25
100
AcDbLine
 10
80.7592462818
 20
214.4466421033
 30
0.0
 11
81.2895763229
 21
214.1404890872
 31
0.0
  0
LINE
  5
FA
330
1F
100
AcDbEntity
  8
0
  6
SLD-実線
 62
     7
370
    25
100
AcDbLine
 10
81.2895763229
 20
214.1404890872
 30
0.0
 11
81.4663530472
 21
213.8751299434
 31
0.0
  0
LINE
  5
FB
330
1F
100
AcDbEntity
  8
0
  6
SLD-実線
 62
     7
370
    25
100
AcDbLine
 10
81.4663530472
 20
213.8751299434
 30
0.0
 11
81.6431297385
 21
213.9363870448
 31
0.0
  0
LINE
  5
FC
330
1F
100
AcDbEntity
  8
0
  6
SLD-実線
 62
     7
370
    25
100
AcDbLine
 10
82.7037898866
 20
213.3240809746
 30
0.0
 11
81.6431297385
 21
213.9363870448
 31
0.0
  0
LINE
  5
FD
330
1F
100
AcDbEntity
  8
0
  6
SLD-実線
 62
     7
370
    25
100
AcDbLine
 10
82.7037898866
 20
213.3240809746
 30
0.0
 11
82.8805665779
 21
213.0587218498
 31
0.0
  0
LINE
  5
FE
330
1F
100
AcDbEntity
  8
0
  6
SLD-実線
 62
     7
370
    25
100
AcDbLine
 10
82.8805665779
 20
213.0587218498
 30
0.0
 11
83.0573433022
 21
213.1199789322
 31
0.0
  0
LINE
  5
FF
330
1F
100
AcDbEntity
  8
0
  6
SLD-実線
 62
     7
370
    25
100
AcDbLine
 10
83.0573433022
 20
213.1199789322
 30
0.0
 11
83.5876733433
 21
212.8138259161
 31
0.0
  0
ARC
  5
100
330
1F
100
AcDbEntity
  8
0
  6
SLD-実線
 62
     7
370
    25
100
AcDbCircle
 10
83.5214244705
 20
212.7102573396
 30
0.0
 40
0.1229445533199987
100
AcDbArc
 50
2.6055370785
 51
57.3945015791
  0
LINE
  5
101
330
1F
100
AcDbEntity
  8
0
  6
SLD-実線
 62
     7
370
    25
100
AcDbLine
 10
83.6442419214
 20
212.7158463411
 30
0.0
 11
83.6442419214
 21
212.5117111047
 31
0.0
  0
LINE
  5
102
330
1F
100
AcDbEntity
  8
0
  6
SLD-実線
 62
     7
370
    25
100
AcDbLine
 10
83.6442419214
 20
212.5117111047
 30
0.0
 11
83.502820542
 21
212.3892167688
 31
0.0
  0
LINE
  5
103
330
1F
100
AcDbEntity
  8
0
  6
SLD-実線
 62
     7
370
    25
100
AcDbLine
 10
83.502820542
 20
212.3892167688
 30
0.0
 11
83.6442419214
 21
212.1034407078
 31
0.0
  0
LINE
  5
104
330
1F
100
AcDbEntity
  8
0
  6
SLD-実線
 62
     7
370
    25
100
AcDbLine
 10
83.6442419214
 20
211.3685540088
 30
0.0
 11
83.6442419214
 21
212.1034407078
 31
0.0
  0
LINE
  5
105
330
1F
100
AcDbEntity
  8
0
  6
SLD-実線
 62
     7
370
    25
100
AcDbLine
 10
83.6442419214
 20
211.3685540088
 30
0.0
 11
83.502820542
 21
211.2460595969
 31
0.0
  0
LINE
  5
106
330
1F
100
AcDbEntity
  8
0
  6
SLD-実線
 62
     7
370
    25
100
AcDbLine
 10
83.502820542
 20
211.2460595969
 30
0.0
 11
83.6442419214
 21
210.960283612
 31
0.0
  0
LINE
  5
107
330
1F
100
AcDbEntity
  8
0
  6
SLD-実線
 62
     7
370
    25
100
AcDbLine
 10
83.6442419214
 20
210.960283612
 30
0.0
 11
83.6442419214
 21
210.7561483755
 31
0.0
  0
ARC
  5
108
330
1F
100
AcDbEntity
  8
0
  6
SLD-実線
 62
     7
370
    25
100
AcDbCircle
 10
83.6097559449
 20
210.7505542686
 30
0.0
 40
0.0349367515283497
100
AcDbArc
 50
230.7967178088
 51
9.2139184226
  0
LINE
  5
109
330
1F
100
AcDbEntity
  8
0
  6
SLD-実線
 62
     7
370
    25
100
AcDbLine
 10
83.5876733433
 20
210.7234814905
 30
0.0
 11
83.0573433022
 21
211.0296345066
 31
0.0
  0
LINE
  5
10A
330
1F
100
AcDbEntity
  8
0
  6
SLD-実線
 62
     7
370
    25
100
AcDbLine
 10
83.0573433022
 20
211.0296345066
 30
0.0
 11
82.8805665779
 21
211.2949936504
 31
0.0
  0
LINE
  5
10B
330
1F
100
AcDbEntity
  8
0
  6
SLD-実線
 62
     7
370
    25
100
AcDbLine
 10
82.8805665779
 20
211.2949936504
 30
0.0
 11
82.7037898866
 21
211.233736549
 31
0.0
  0
LINE
  5
10C
330
1F
100
AcDbEntity
  8
0
  6
SLD-実線
 62
     7
370
    25
100
AcDbLine
 10
81.6431297385
 20
211.8460426192
 30
0.0
 11
82.7037898866
 21
211.233736549
 31
0.0
  0
LINE
  5
10D
330
1F
100
AcDbEntity
  8
0
  6
SLD-実線
 62
     7
370
    25
100
AcDbLine
 10
81.6431297385
 20
211.8460426192
 30
0.0
 11
81.4663530472
 21
212.111401744
 31
0.0
  0
LINE
  5
10E
330
1F
100
AcDbEntity
  8
0
  6
SLD-実線
 62
     7
370
    25
100
AcDbLine
 10
81.4663530472
 20
212.111401744
 30
0.0
 11
81.2895763229
 21
212.0501446616
 31
0.0
  0
LINE
  5
10F
330
1F
100
AcDbEntity
  8
0
  6
SLD-実線
 62
     7
370
    25
100
AcDbLine
 10
81.2895763229
 20
212.0501446616
 30
0.0
 11
80.7592462818
 21
212.3562976777
 31
0.0
  0
ARC
  5
110
330
1F
100
AcDbEntity
  8
0
  6
SLD-実線
 62
     7
370
    25
100
AcDbCircle
 10
80.8254951546
 20
212.4598662542
 30
0.0
 40
0.1229445533201787
100
AcDbArc
 50
182.6055370785
 51
237.3945015791
  0
LINE
  5
111
330
1F
100
AcDbEntity
  8
0
  6
SLD-実線
 62
     7
370
    25
100
AcDbLine
 10
80.7026777037
 20
212.4542772527
 30
0.0
 11
80.7026777037
 21
212.6584124892
 31
0.0
  0
LINE
  5
112
330
1F
100
AcDbEntity
  8
0
  6
SLD-実線
 62
     7
370
    25
100
AcDbLine
 10
80.7026777037
 20
212.6584124892
 30
0.0
 11
80.8440990831
 21
212.780906825
 31
0.0
  0
LINE
  5
113
330
1F
100
AcDbEntity
  8
0
  6
SLD-実線
 62
     7
370
    25
100
AcDbLine
 10
80.8440990831
 20
212.780906825
 30
0.0
 11
80.7026777037
 21
213.066682886
 31
0.0
  0
LINE
  5
114
330
1F
100
AcDbEntity
  8
0
  6
SLD-実線
 62
     7
370
    25
100
AcDbLine
 10
80.7026777037
 20
213.801569585
 30
0.0
 11
80.7026777037
 21
213.066682886
 31
0.0
  0
LINE
  5
115
330
1F
100
AcDbEntity
  8
0
  6
SLD-実線
 62
     7
370
    25
100
AcDbLine
 10
80.7026777037
 20
213.801569585
 30
0.0
 11
80.8440990831
 21
213.9240639969
 31
0.0
  0
LINE
  5
116
330
1F
100
AcDbEntity
  8
0
  6
SLD-実線
 62
     7
370
    25
100
AcDbLine
 10
80.8440990831
 20
213.9240639969
 30
0.0
 11
80.7026777037
 21
214.2098399819
 31
0.0
  0
LINE
  5
117
330
1F
100
AcDbEntity
  8
0
  6
SLD-実線
 62
     7
370
    25
100
AcDbLine
 10
80.7026777037
 20
214.2098399819
 30
0.0
 11
80.7026777037
 21
214.4139752183
 31
0.0
  0
LINE
  5
118
330
1F
100
AcDbEntity
  8
0
  6
SLD-実線
 62
     7
370
    25
100
AcDbLine
 10
83.5876733433
 20
212.8138259161
 30
0.0
 11
83.7998047539
 21
212.9362867728
 31
0.0
  0
ARC
  5
119
330
1F
100
AcDbEntity
  8
0
  6
SLD-実線
 62
     7
370
    25
100
AcDbCircle
 10
83.7335558811
 20
212.8327181963
 30
0.0
 40
0.122944553319991
100
AcDbArc
 50
2.6055370785
 51
57.3945015791
  0
LINE
  5
11A
330
1F
100
AcDbEntity
  8
0
  6
SLD-実線
 62
     7
370
    25
100
AcDbLine
 10
83.856373332
 20
212.8383071978
 30
0.0
 11
83.6442419214
 21
212.7158463411
 31
0.0
  0
LINE
  5
11B
330
1F
100
AcDbEntity
  8
0
  6
SLD-実線
 62
     7
370
    25
100
AcDbLine
 10
83.856373332
 20
212.6341719613
 30
0.0
 11
83.856373332
 21
212.8383071978
 31
0.0
  0
LINE
  5
11C
330
1F
100
AcDbEntity
  8
0
  6
SLD-実線
 62
     7
370
    25
100
AcDbLine
 10
83.856373332
 20
212.6341719613
 30
0.0
 11
83.6442419214
 21
212.5117111047
 31
0.0
  0
LINE
  5
11D
330
1F
100
AcDbEntity
  8
0
  6
SLD-実線
 62
     7
370
    25
100
AcDbLine
 10
83.2694747128
 20
213.2424397889
 30
0.0
 11
83.0573433022
 21
213.1199789322
 31
0.0
  0
LINE
  5
11E
330
1F
100
AcDbEntity
  8
0
  6
SLD-実線
 62
     7
370
    25
100
AcDbLine
 10
83.7998047539
 20
212.9362867728
 30
0.0
 11
83.2694747128
 21
213.2424397889
 31
0.0
  0
LINE
  5
11F
330
1F
100
AcDbEntity
  8
0
  6
SLD-実線
 62
     7
370
    25
100
AcDbLine
 10
83.7149519526
 20
212.5116776255
 30
0.0
 11
83.502820542
 21
212.3892167688
 31
0.0
  0
LINE
  5
120
330
1F
100
AcDbEntity
  8
0
  6
SLD-実線
 62
     7
370
    25
100
AcDbLine
 10
83.7149519526
 20
212.5116776255
 30
0.0
 11
83.856373332
 21
212.6341719613
 31
0.0
  0
LINE
  5
121
330
1F
100
AcDbEntity
  8
0
  6
SLD-実線
 62
     7
370
    25
100
AcDbLine
 10
83.856373332
 20
212.2259015645
 30
0.0
 11
83.6442419214
 21
212.1034407078
 31
0.0
  0
LINE
  5
122
330
1F
100
AcDbEntity
  8
0
  6
SLD-実線
 62
     7
370
    25
100
AcDbLine
 10
83.856373332
 20
212.2259015645
 30
0.0
 11
83.7149519526
 21
212.5116776255
 31
0.0
  0
LINE
  5
123
330
1F
100
AcDbEntity
  8
0
  6
SLD-実線
 62
     7
370
    25
100
AcDbLine
 10
83.856373332
 20
211.4910148655
 30
0.0
 11
83.6442419214
 21
211.3685540088
 31
0.0
  0
LINE
  5
124
330
1F
100
AcDbEntity
  8
0
  6
SLD-実線
 62
     7
370
    25
100
AcDbLine
 10
83.856373332
 20
211.4910148655
 30
0.0
 11
83.856373332
 21
212.2259015645
 31
0.0
  0
LINE
  5
125
330
1F
100
AcDbEntity
  8
0
  6
SLD-実線
 62
     7
370
    25
100
AcDbLine
 10
83.0926979885
 20
213.1811827065
 30
0.0
 11
82.8805665779
 21
213.0587218498
 31
0.0
  0
LINE
  5
126
330
1F
100
AcDbEntity
  8
0
  6
SLD-実線
 62
     7
370
    25
100
AcDbLine
 10
83.2694747128
 20
213.2424397889
 30
0.0
 11
83.0926979885
 21
213.1811827065
 31
0.0
  0
LINE
  5
127
330
1F
100
AcDbEntity
  8
0
  6
SLD-実線
 62
     7
370
    25
100
AcDbLine
 10
82.9159212972
 20
213.4465418313
 30
0.0
 11
82.7037898866
 21
213.3240809746
 31
0.0
  0
LINE
  5
128
330
1F
100
AcDbEntity
  8
0
  6
SLD-実線
 62
     7
370
    25
100
AcDbLine
 10
83.0926979885
 20
213.1811827065
 30
0.0
 11
82.9159212972
 21
213.4465418313
 31
0.0
  0
LINE
  5
129
330
1F
100
AcDbEntity
  8
0
  6
SLD-実線
 62
     7
370
    25
100
AcDbLine
 10
81.8552611491
 20
214.0588479015
 30
0.0
 11
81.6431297385
 21
213.9363870448
 31
0.0
  0
LINE
  5
12A
330
1F
100
AcDbEntity
  8
0
  6
SLD-実線
 62
     7
370
    25
100
AcDbLine
 10
82.9159212972
 20
213.4465418313
 30
0.0
 11
81.8552611491
 21
214.0588479015
 31
0.0
  0
LINE
  5
12B
330
1F
100
AcDbEntity
  8
0
  6
SLD-実線
 62
     7
370
    25
100
AcDbLine
 10
83.7149519526
 20
211.3685204536
 30
0.0
 11
83.502820542
 21
211.2460595969
 31
0.0
  0
LINE
  5
12C
330
1F
100
AcDbEntity
  8
0
  6
SLD-実線
 62
     7
370
    25
100
AcDbLine
 10
83.7149519526
 20
211.3685204536
 30
0.0
 11
83.856373332
 21
211.4910148655
 31
0.0
  0
LINE
  5
12D
330
1F
100
AcDbEntity
  8
0
  6
SLD-実線
 62
     7
370
    25
100
AcDbLine
 10
83.856373332
 20
211.0827444686
 30
0.0
 11
83.6442419214
 21
210.960283612
 31
0.0
  0
LINE
  5
12E
330
1F
100
AcDbEntity
  8
0
  6
SLD-実線
 62
     7
370
    25
100
AcDbLine
 10
83.856373332
 20
211.0827444686
 30
0.0
 11
83.7149519526
 21
211.3685204536
 31
0.0
  0
LINE
  5
12F
330
1F
100
AcDbEntity
  8
0
  6
SLD-実線
 62
     7
370
    25
100
AcDbLine
 10
83.6442419214
 20
210.7561483755
 30
0.0
 11
83.856373332
 21
210.8786092322
 31
0.0
  0
LINE
  5
130
330
1F
100
AcDbEntity
  8
0
  6
SLD-実線
 62
     7
370
    25
100
AcDbLine
 10
83.856373332
 20
210.8786092322
 30
0.0
 11
83.856373332
 21
211.0827444686
 31
0.0
  0
ARC
  5
131
330
1F
100
AcDbEntity
  8
0
  6
SLD-実線
 62
     7
370
    25
100
AcDbCircle
 10
83.8168424379
 20
210.8744319109
 30
0.0
 40
0.0397509949404885
100
AcDbArc
 50
305.280103731
 51
6.0321912726
  0
LINE
  5
132
330
1F
100
AcDbEntity
  8
0
  6
SLD-実線
 62
     7
370
    25
100
AcDbLine
 10
81.6784844577
 20
213.9975908001
 30
0.0
 11
81.4663530472
 21
213.8751299434
 31
0.0
  0
LINE
  5
133
330
1F
100
AcDbEntity
  8
0
  6
SLD-実線
 62
     7
370
    25
100
AcDbLine
 10
81.8552611491
 20
214.0588479015
 30
0.0
 11
81.6784844577
 21
213.9975908001
 31
0.0
  0
LINE
  5
134
330
1F
100
AcDbEntity
  8
0
  6
SLD-実線
 62
     7
370
    25
100
AcDbLine
 10
81.5017077335
 20
214.2629499439
 30
0.0
 11
81.2895763229
 21
214.1404890872
 31
0.0
  0
LINE
  5
135
330
1F
100
AcDbEntity
  8
0
  6
SLD-実線
 62
     7
370
    25
100
AcDbLine
 10
81.6784844577
 20
213.9975908001
 30
0.0
 11
81.5017077335
 21
214.2629499439
 31
0.0
  0
LINE
  5
136
330
1F
100
AcDbEntity
  8
0
  6
SLD-実線
 62
     7
370
    25
100
AcDbLine
 10
80.9713776924
 20
214.56910296
 30
0.0
 11
80.7592462818
 21
214.4466421033
 31
0.0
  0
LINE
  5
137
330
1F
100
AcDbEntity
  8
0
  6
SLD-実線
 62
     7
370
    25
100
AcDbLine
 10
81.5017077335
 20
214.2629499439
 30
0.0
 11
80.9713776924
 21
214.56910296
 31
0.0
  0
ARC
  5
138
330
1F
100
AcDbEntity
  8
0
  6
SLD-実線
 62
     7
370
    25
100
AcDbCircle
 10
80.9479440209
 20
214.536392569
 30
0.0
 40
0.0402381241161397
100
AcDbArc
 50
54.3822492004
 51
114.3071793112
  0
LINE
  5
139
330
1F
100
AcDbEntity
  8
0
  6
SLD-実線
 62
     7
370
    25
100
AcDbLine
 10
86.3297597549
 20
205.6522370702
 30
0.0
 11
86.4149047926
 21
205.5986860837
 31
0.0
  0
ARC
  5
13A
330
1F
100
AcDbEntity
  8
0
  6
SLD-実線
 62
     7
370
    25
100
AcDbCircle
 10
85.4627472784
 20
204.1772211038
 30
0.0
 40
1.710959594970433
100
AcDbArc
 50
59.5530427738
 51
60.0081006171
  0
SPLINE
  5
13B
330
1F
100
AcDbEntity
  8
0
  6
SLD-実線
 62
     7
370
    25
100
AcDbSpline
210
0.0
220
0.0
230
1.0
 70
     8
 71
     3
 72
    19
 73
    15
 74
     0
 42
0.000000001
 43
0.00000001
 40
0.0
 40
0.0
 40
0.0
 40
0.0
 40
0.0876066829818944
 40
0.1752133715782507
 40
0.262820029857174
 40
0.3504266907580728
 40
0.4380333738824019
 40
0.5256400193295767
 40
0.6132467091923831
 40
0.7008533748307023
 40
0.7884600392117477
 40
0.8760667076076474
 40
0.9636733723265157
 40
1.0
 40
1.0
 40
1.0
 40
1.0
 10
96.21256872949584
 20
186.0170696038377
 30
0.0
 10
96.68321625093803
 20
186.3101399649485
 30
0.0
 10
97.6245113239849
 20
186.8962807059522
 30
0.0
 10
98.76907654633393
 20
187.9008544740563
 30
0.0
 10
99.6918573006641
 20
188.975979371408
 30
0.0
 10
100.3595926032929
 20
190.1133390494606
 30
0.0
 10
100.7655583539309
 20
191.2907822863066
 30
0.0
 10
100.9014757965438
 20
192.488845792656
 30
0.0
 10
100.7656560883785
 20
193.6869884014749
 30
0.0
 10
100.3592020340246
 20
194.8641942509429
 30
0.0
 10
99.69331846129504
 20
196.0024244082784
 30
0.0
 10
98.76362002764971
 20
197.0743049814745
 30
0.0
 10
97.86316091306632
 20
197.8926169016688
 30
0.0
 10
97.20567493146035
 20
198.3111106369107
 30
0.0
 10
97.01295634879958
 20
198.4337771602504
 30
0.0
  0
SPLINE
  5
13C
330
1F
100
AcDbEntity
  8
0
  6
SLD-実線
 62
     7
370
    25
100
AcDbSpline
210
0.0
220
0.0
230
1.0
 70
     8
 71
     3
 72
    19
 73
    15
 74
     0
 42
0.000000001
 43
0.00000001
 40
0.0
 40
0.0
 40
0.0
 40
0.0
 40
0.0833333381419578
 40
0.1666666779639263
 40
0.249999984382094
 40
0.333333339024414
 40
0.4166666550568772
 40
0.4999999910252809
 40
0.5833333495028191
 40
0.6666666739082727
 40
0.7500000020674591
 40
0.8333333560824505
 40
0.9166667105861481
 40
1.0
 40
1.0
 40
1.0
 40
1.0
 10
73.79120396497339
 20
186.0170696038377
 30
0.0
 10
74.29887204412734
 20
185.7453708598801
 30
0.0
 10
75.31420821266985
 20
185.2019733664875
 30
0.0
 10
77.05436947322744
 20
184.5412302145882
 30
0.0
 10
78.91674037107967
 20
184.0085190181888
 30
0.0
 10
80.88692159378931
 20
183.6230440461902
 30
0.0
 10
82.92652577089255
 20
183.3886890915571
 30
0.0
 10
85.00188659233334
 20
183.3102046426088
 30
0.0
 10
87.0772471338394
 20
183.388689860645
 30
0.0
 10
89.1168522054144
 20
183.6230427141991
 30
0.0
 10
91.08703252797297
 20
184.0085197259415
 30
0.0
 10
92.94940475309596
 20
184.5412295439556
 30
0.0
 10
94.68956608323671
 20
185.2019729567556
 30
0.0
 10
95.70490131291884
 20
185.7453707922163
 30
0.0
 10
96.21256872949584
 20
186.0170696038377
 30
0.0
  0
LINE
  5
13D
330
1F
100
AcDbEntity
  8
0
  6
SLD-実線
 62
     7
370
    25
100
AcDbLine
 10
69.0018879276
 20
192.1686351641
 30
0.0
 11
69.0030975422
 21
192.2823016322
 31
0.0
  0
SPLINE
  5
13E
330
1F
100
AcDbEntity
  8
0
  6
SLD-実線
 62
     7
370
    25
100
AcDbSpline
210
0.0
220
0.0
230
1.0
 70
     8
 71
     3
 72
    19
 73
    15
 74
     0
 42
0.000000001
 43
0.00000001
 40
0.0
 40
0.0
 40
0.0
 40
0.0
 40
0.0363266142097528
 40
0.1239333037037858
 40
0.2115399926840517
 40
0.2991466544826269
 40
0.3867533123349777
 40
0.47436000600663
 40
0.5619666760148792
 40
0.6495733250648726
 40
0.7371800147046365
 40
0.8247866536473133
 40
0.9123933277067379
 40
0.9999999999999999
 40
0.9999999999999999
 40
0.9999999999999999
 40
0.9999999999999999
 10
72.99081739934095
 20
198.4337772362843
 30
0.0
 10
72.7980986531471
 20
198.3111108759849
 30
0.0
 10
72.1406118099322
 20
197.8926175036752
 30
0.0
 10
71.24015458106143
 20
197.0743046489569
 30
0.0
 10
70.31045418349395
 20
196.0024245466305
 30
0.0
 10
69.64457025544759
 20
194.864194295328
 30
0.0
 10
69.2381183908321
 20
193.6869882944291
 30
0.0
 10
69.10229639957555
 20
192.4888457383807
 30
0.0
 10
69.23821451290863
 20
191.2907821626706
 30
0.0
 10
69.64418274568332
 20
190.1133392523843
 30
0.0
 10
70.31191477187386
 20
188.9759790425899
 30
0.0
 10
71.23469830052304
 20
187.9008548866115
 30
0.0
 10
72.37926284600022
 20
186.8962812583976
 30
0.0
 10
73.32055692847842
 20
186.3101401533882
 30
0.0
 10
73.79120396497339
 20
186.0170696038377
 30
0.0
  0
LWPOLYLINE
  5
13F
330
1F
100
AcDbEntity
  8
0
  6
SLD-実線
 62
     7
370
    25
100
AcDbPolyline
 90
       37
 70
   128
 43
0.0
 10
69.0018879276
 20
191.8609847303
 10
69.0041206569
 20
191.7066425424
 10
69.0577035259
 20
191.090136624
 10
69.1824956029
 20
190.4770723055
 10
69.3779426566
 20
189.8701904579
 10
69.6431685596
 20
189.2721988016
 10
69.9769916196
 20
188.6857697771
 10
70.3779187844
 20
188.1135219931
 10
70.8441606569
 20
187.5580115583
 10
71.3736333389
 20
187.0217188514
 10
71.963973841
 20
186.5070396256
 10
72.6125449559
 20
186.0162724626
 10
73.3164485937
 20
185.5516086414
 10
74.0725432338
 20
185.1151244965
 10
74.877451794
 20
184.7087695759
 10
75.7275775678
 20
184.3343574409
 10
76.6191247375
 20
183.9935611231
 10
77.5481116112
 20
183.6879030499
 10
78.5103881732
 20
183.418747346
 10
79.5016578158
 20
183.1872970204
 10
80.517492749
 20
182.9945850698
 10
81.5533569183
 20
182.8414734151
 10
82.6046210191
 20
182.7286442326
 10
83.6665946342
 20
182.6566033
 10
84.734529921
 20
182.6256705682
 10
85.8036595442
 20
182.635985027
 10
86.8692077389
 20
182.6875007522
 10
87.9264182332
 20
182.7799878169
 10
88.9705653119
 20
182.9130319884
 10
89.9969875335
 20
183.0860408103
 10
91.0011003744
 20
183.2982399531
 10
91.9784194101
 20
183.5486829464
 10
92.9245803343
 20
183.8362505706
 10
93.8353558183
 20
184.1596581566
 10
94.7066786909
 20
184.5174628845
 10
95.5346577446
 20
184.9080643921
 10
96.3155945933
 20
185.3297193734
  0
LWPOLYLINE
  5
140
330
1F
100
AcDbEntity
  8
0
  6
SLD-実線
 62
     7
370
    25
100
AcDbPolyline
 90
        8
 70
   128
 43
0.0
 10
83.1405970257
 20
204.8998267365
 10
83.1406381189
 20
204.9065122479
 10
83.1786327126
 20
205.1154040668
 10
83.286295059
 20
205.3160373462
 10
83.4595132064
 20
205.5007469537
 10
83.6916659505
 20
205.6624732527
 10
83.9738846725
 20
205.7950379543
 10
84.001886907
 20
205.8055404451
  0
LWPOLYLINE
  5
141
330
1F
100
AcDbEntity
  8
0
  6
SLD-実線
 62
     7
370
    25
100
AcDbPolyline
 90
        3
 70
   128
 43
0.0
 10
86.0018861497
 20
205.8055400839
 10
86.0368303652
 20
205.7923696385
 10
86.3180175761
 20
205.6590765129
  0
ARC
  5
142
330
1F
100
AcDbEntity
  8
0
  6
SLD-実線
 62
     7
370
    25
100
AcDbCircle
 10
84.5410264683
 20
205.621359756
 30
0.0
 40
1.71095959205616
100
AcDbArc
 50
239.5530427733
 51
240.0081006173
  0
ARC
  5
143
330
1F
100
AcDbEntity
  8
0
  6
SLD-実線
 62
     7
370
    25
100
AcDbCircle
 10
84.9807789227
 20
206.4648834457
 30
0.0
 40
2.588020331956582
100
AcDbArc
 50
242.3637152212
 51
307.0010522504
  0
ARC
  5
144
330
1F
100
AcDbEntity
  8
0
  6
SLD-実線
 62
     7
370
    25
100
AcDbCircle
 10
86.294935218
 20
205.6158782999
 30
0.0
 40
0.048978371358076
100
AcDbArc
 50
61.8828076968
 51
126.2167304346
  0
ARC
  5
145
330
1F
100
AcDbEntity
  8
0
  6
SLD-実線
 62
     7
370
    25
100
AcDbCircle
 10
83.8153470494
 20
204.0721200659
 30
0.0
 40
0.1460631272240398
100
AcDbArc
 50
122.0779321298
 51
152.5266029521
  0
LINE
  5
146
330
1F
100
AcDbEntity
  8
0
  6
SLD-実線
 62
     7
370
    25
100
AcDbLine
 10
101.0018863474
 20
192.1686348599
 30
0.0
 11
101.0006748889
 21
192.0549673273
 31
0.0
  0
LWPOLYLINE
  5
147
330
1F
100
AcDbEntity
  8
0
  6
SLD-実線
 62
     7
370
    25
100
AcDbPolyline
 90
       13
 70
   128
 43
0.0
 10
96.3155945933
 20
185.3297193734
 10
97.046002639
 20
185.7805452284
 10
97.7226176083
 20
186.2585273619
 10
98.3424207332
 20
186.7615313496
 10
98.9026398046
 20
187.2873108449
 10
99.4007749876
 20
187.833517616
 10
99.8346014556
 20
188.397711582
 10
100.202181507
 20
188.9773738907
 10
100.501874049
 20
189.5699148266
 10
100.7323388119
 20
190.1726884089
 10
100.8925474124
 20
190.7830024281
 10
100.9817854616
 20
191.3981306117
 10
101.0018863474
 20
191.8609844261
  0
LWPOLYLINE
  5
148
330
1F
100
AcDbEntity
  8
0
  6
SLD-実線
 62
     7
370
    25
100
AcDbPolyline
 90
       11
 70
   128
 43
0.0
 10
85.7784370755
 20
218.2018123621
 10
85.90508284
 20
218.0637853735
 10
85.9599850371
 20
217.9108406133
 10
85.9387815503
 20
217.7551264311
 10
85.8431581218
 20
217.6090127113
 10
85.6807086919
 20
217.4841045885
 10
85.4643380327
 20
217.3903245288
 10
85.2112342219
 20
217.3351222985
 10
84.9415001208
 20
217.3228817861
 10
84.6765633188
 20
217.3545761499
 10
84.4374676552
 20
217.4276871935
  0
SPLINE
  5
149
330
1F
100
AcDbEntity
  8
0
  6
SLD-実線
 62
     7
370
    25
100
AcDbSpline
210
0.0
220
0.0
230
1.0
 70
     8
 71
     3
 72
     9
 73
     5
 74
     0
 42
0.000000001
 43
0.00000001
 40
0.0
 40
0.0
 40
0.0
 40
0.0
 40
0.5600244009513706
 40
1.0
 40
1.0
 40
1.0
 40
1.0
 10
85.77843707550043
 20
218.2018123621397
 30
0.0
 10
85.78378093397222
 20
218.1988012113462
 30
0.0
 10
85.79332312260313
 20
218.1934243906427
 30
0.0
 10
85.80286205391509
 20
218.1880420136841
 30
0.0
 10
85.80705895093335
 20
218.1856738991574
 30
0.0
  0
LWPOLYLINE
  5
14A
330
1F
100
AcDbEntity
  8
0
  6
SLD-実線
 62
     7
370
    25
100
AcDbPolyline
 90
       11
 70
   128
 43
0.0
 10
85.8070589509
 20
218.1856738992
 10
85.9409894524
 20
218.0416945658
 10
85.9996601046
 20
217.88181764
 10
85.9783681094
 20
217.7188552954
 10
85.8788198216
 20
217.5658674619
 10
85.7089931126
 20
217.435114763
 10
85.4824982536
 20
217.3370758907
 10
85.2174869044
 20
217.2796078493
 10
84.9351972571
 20
217.2673162422
 10
84.6582523241
 20
217.3011860697
 10
84.4088457715
 20
217.3785025073
  0
SPLINE
  5
14B
330
1F
100
AcDbEntity
  8
0
  6
SLD-実線
 62
     7
370
    25
100
AcDbSpline
210
0.0
220
0.0
230
1.0
 70
     8
 71
     3
 72
     9
 73
     5
 74
     0
 42
0.000000001
 43
0.00000001
 40
0.0
 40
0.0
 40
0.0
 40
0.0
 40
0.5599867111231587
 40
1.0
 40
1.0
 40
1.0
 40
1.0
 10
84.408845771504
 20
217.3785025072501
 30
0.0
 10
84.41418753643943
 20
217.3876839391278
 30
0.0
 10
84.42372662875948
 20
217.4040797422696
 30
0.0
 10
84.4332689201504
 20
217.4204736543345
 30
0.0
 10
84.43746765516873
 20
217.4276871934998
 30
0.0
  0
LWPOLYLINE
  5
14C
330
1F
100
AcDbEntity
  8
0
  6
SLD-実線
 62
     7
370
    25
100
AcDbPolyline
 90
       10
 70
   128
 43
0.0
 10
84.2947802404
 20
215.0998084338
 10
84.5226371835
 20
215.0013387058
 10
84.789321779
 20
214.9439176439
 10
85.0732261774
 20
214.9321956069
 10
85.3513508271
 20
214.9671227242
 10
85.601163891
 20
215.0458693933
 10
85.8024277367
 20
215.1620565383
 10
85.9388368021
 20
215.3062711587
 10
85.9993388995
 20
215.4668291013
 10
86.0018870387
 20
215.5080125186
  0
ARC
  5
14D
330
1F
100
AcDbEntity
  8
0
  6
SLD-実線
 62
     7
370
    25
100
AcDbCircle
 10
84.8177836315
 20
218.1333656865
 30
0.0
 40
1.050064688065077
100
AcDbArc
 50
240.1277523316
 51
247.0802989409
  0
LINE
  5
14E
330
1F
100
AcDbEntity
  8
0
  6
SLD-実線
 62
     7
370
    25
100
AcDbLine
 10
84.4088457303
 20
217.1662019764
 30
0.0
 11
84.4088457715
 21
217.3785025073
 31
0.0
  0
LINE
  5
14F
330
1F
100
AcDbEntity
  8
0
  6
SLD-実線
 62
     7
370
    25
100
AcDbLine
 10
84.4374676552
 20
217.4276871935
 30
0.0
 11
85.7784370755
 21
218.2018123621
 31
0.0
  0
LWPOLYLINE
  5
150
330
1F
100
AcDbEntity
  8
0
  6
SLD-実線
 62
     7
370
    25
100
AcDbPolyline
 90
        6
 70
   128
 43
0.0
 10
84.1967147972
 20
217.5009643286
 10
84.062783242
 20
217.6449430537
 10
84.0041136435
 20
217.8048205878
 10
84.0254056387
 20
217.9677829324
 10
84.1249539266
 20
218.1207707659
 10
84.2946657854
 20
218.2514571632
  0
LINE
  5
151
330
1F
100
AcDbEntity
  8
0
  6
SLD-実線
 62
     7
370
    25
100
AcDbLine
 10
84.1967147972
 20
217.5009643286
 30
0.0
 11
84.1967136941
 21
217.2886631942
 31
0.0
  0
ARC
  5
152
330
1F
100
AcDbEntity
  8
0
  6
SLD-実線
 62
     7
370
    25
100
AcDbCircle
 10
84.7119396631
 20
217.9500270554
 30
0.0
 40
0.8383674349087814
100
AcDbArc
 50
232.0801411283
 51
240.1596183394
  0
ARC
  5
153
330
1F
100
AcDbEntity
  8
0
  6
SLD-実線
 62
     7
370
    25
100
AcDbCircle
 10
84.4942123606
 20
215.5520846173
 30
0.0
 40
0.4942943624677744
100
AcDbArc
 50
185.1154055663
 51
246.2048197272
  0
LINE
  5
154
330
1F
100
AcDbEntity
  8
0
  6
SLD-実線
 62
     7
370
    25
100
AcDbLine
 10
85.5949269641
 20
218.0958743821
 30
0.0
 11
85.5949279766
 21
218.3081357205
 31
0.0
  0
LINE
  5
155
330
1F
100
AcDbEntity
  8
0
  6
SLD-実線
 62
     7
370
    25
100
AcDbLine
 10
84.1967136941
 20
217.2886631942
 30
0.0
 11
84.4374322584
 21
217.4276270634
 31
0.0
  0
SPLINE
  5
156
330
1F
100
AcDbEntity
  8
0
  6
SLD-実線
 62
     7
370
    25
100
AcDbSpline
210
0.0
220
0.0
230
1.0
 70
     8
 71
     3
 72
     9
 73
     5
 74
     0
 42
0.000000001
 43
0.00000001
 40
0.0
 40
0.0
 40
0.0
 40
0.0
 40
0.5600430255395298
 40
1.0
 40
1.0
 40
1.0
 40
1.0
 10
84.22533667264005
 20
217.5501490196091
 30
0.0
 10
84.21999235246908
 20
217.5409678572583
 30
0.0
 10
84.21044965677025
 20
217.5245741840366
 30
0.0
 10
84.20091127485557
 20
217.5081779611994
 30
0.0
 10
84.19671479720714
 20
217.5009643286073
 30
0.0
  0
LINE
  5
157
330
1F
100
AcDbEntity
  8
0
  6
SLD-実線
 62
     7
370
    25
100
AcDbLine
 10
84.2253366726
 20
217.5501490196
 30
0.0
 11
85.566306093
 21
218.3242741882
 31
0.0
  0
SPLINE
  5
158
330
1F
100
AcDbEntity
  8
0
  6
SLD-実線
 62
     7
370
    25
100
AcDbSpline
210
0.0
220
0.0
230
1.0
 70
     8
 71
     3
 72
     9
 73
     5
 74
     0
 42
0.000000001
 43
0.00000001
 40
0.0
 40
0.0
 40
0.0
 40
0.0
 40
0.5599867111231587
 40
1.0
 40
1.0
 40
1.0
 40
1.0
 10
85.59492797663648
 20
218.3081357205146
 30
0.0
 10
85.58958621170108
 20
218.3111496413249
 30
0.0
 10
85.580047119381
 20
218.3165317704905
 30
0.0
 10
85.57050482799009
 20
218.3219083998719
 30
0.0
 10
85.56630609297176
 20
218.3242741882491
 30
0.0
  0
LWPOLYLINE
  5
159
330
1F
100
AcDbEntity
  8
0
  6
SLD-実線
 62
     7
370
    25
100
AcDbPolyline
 90
       11
 70
   128
 43
0.0
 10
84.2253366726
 20
217.5501490196
 10
84.0986898545
 20
217.6881754
 10
84.0437887111
 20
217.8411207685
 10
84.0649911442
 20
217.9968343423
 10
84.1606156263
 20
218.1429486705
 10
84.3230650563
 20
218.2678567932
 10
84.5394346618
 20
218.3616362447
 10
84.7925395262
 20
218.4168390832
 10
85.0622736274
 20
218.4290795956
 10
85.3272104293
 20
218.3973852319
 10
85.566306093
 20
218.3242741882
  0
LWPOLYLINE
  5
15A
330
1F
100
AcDbEntity
  8
0
  6
SLD-実線
 62
     7
370
    25
100
AcDbPolyline
 90
       15
 70
   128
 43
0.0
 10
85.9918358715
 20
214.9365264045
 10
85.7467320593
 20
214.8236877177
 10
85.4642772491
 20
214.7451631058
 10
85.1586373257
 20
214.7048915445
 10
84.84513662
 20
214.7048914304
 10
84.5394956101
 20
214.7451629347
 10
84.2570417218
 20
214.8236873946
 10
84.0119369547
 20
214.9365264805
 10
83.8164727459
 20
215.0780224507
 10
83.6804496534
 20
215.2410796097
 10
83.6106898031
 20
215.417522409
 10
83.6106900007
 20
215.5985025141
 10
83.6804499497
 20
215.7749446862
 10
83.8164733056
 20
215.9380023774
 10
84.011936823
 20
216.0794977963
  0
LWPOLYLINE
  5
15B
330
1F
100
AcDbEntity
  8
0
  6
SLD-実線
 62
     7
370
    25
100
AcDbPolyline
 90
        8
 70
   128
 43
0.0
 10
86.001886161
 20
216.073636125
 10
86.1873010023
 20
215.9380023584
 10
86.3233230411
 20
215.7749445912
 10
86.393083945
 20
215.5985024001
 10
86.3930837474
 20
215.4175222949
 10
86.3233237984
 20
215.2410801229
 10
86.1873004425
 20
215.0780224317
 10
85.9918358715
 20
214.9365264045
  0
LWPOLYLINE
  5
15C
330
1F
100
AcDbEntity
  8
0
  6
SLD-実線
 62
     7
370
    25
100
AcDbPolyline
 90
       12
 70
   128
 43
0.0
 10
83.6018861826
 20
215.2630498167
 10
83.6106898031
 20
215.1725602013
 10
83.6804496534
 20
214.996117402
 10
83.8164727459
 20
214.833060243
 10
84.0119369547
 20
214.6915642729
 10
84.2570417218
 20
214.5787251869
 10
84.5394956101
 20
214.5002007271
 10
84.84513662
 20
214.4599292227
 10
85.1586373257
 20
214.4599293368
 10
85.4642772491
 20
214.5002008981
 10
85.7467320593
 20
214.5787255101
 10
85.9918358715
 20
214.6915641968
  0
ARC
  5
15D
330
1F
100
AcDbEntity
  8
0
  6
SLD-実線
 62
     7
370
    25
100
AcDbCircle
 10
85.7163954125
 20
215.3220493496
 30
0.0
 40
0.6880254169115627
100
AcDbArc
 50
293.599104776
 51
355.0807454138
  0
LWPOLYLINE
  5
15E
330
1F
100
AcDbEntity
  8
0
  6
SLD-実線
 62
     7
370
    25
100
AcDbPolyline
 90
       10
 70
   128
 43
0.0
 10
84.2947802404
 20
204.7623971103
 10
84.5226371835
 20
204.6639273823
 10
84.789321779
 20
204.6065063204
 10
85.0732261774
 20
204.5947842834
 10
85.3513508271
 20
204.6297114007
 10
85.601163891
 20
204.7084580698
 10
85.8024277367
 20
204.8246452148
 10
85.9388368021
 20
204.9688598352
 10
85.9993388995
 20
205.1294177778
 10
86.0018870387
 20
205.1706011951
  0
ARC
  5
15F
330
1F
100
AcDbEntity
  8
0
  6
SLD-実線
 62
     7
370
    25
100
AcDbCircle
 10
84.4942123606
 20
205.2146732938
 30
0.0
 40
0.4942943624675943
100
AcDbArc
 50
185.1154055662
 51
246.2048197272
  0
LWPOLYLINE
  5
160
330
1F
100
AcDbEntity
  8
0
  6
SLD-実線
 62
     7
370
    25
100
AcDbPolyline
 90
       15
 70
   128
 43
0.0
 10
85.9918358715
 20
204.599115081
 10
85.7467320593
 20
204.4862763942
 10
85.4642772491
 20
204.4077517823
 10
85.1586373257
 20
204.367480221
 10
84.84513662
 20
204.3674801069
 10
84.5394956101
 20
204.4077516112
 10
84.2570417218
 20
204.4862760711
 10
84.0119369547
 20
204.599115157
 10
83.8164727459
 20
204.7406111272
 10
83.6804496534
 20
204.9036682861
 10
83.6106898031
 20
205.0801110855
 10
83.6106900007
 20
205.2610911906
 10
83.6804499497
 20
205.4375333627
 10
83.8164733056
 20
205.6005910539
 10
84.011936823
 20
205.7420864728
  0
LWPOLYLINE
  5
161
330
1F
100
AcDbEntity
  8
0
  6
SLD-実線
 62
     7
370
    25
100
AcDbPolyline
 90
        8
 70
   128
 43
0.0
 10
86.001886161
 20
205.7362248015
 10
86.1873010023
 20
205.6005910349
 10
86.3233230411
 20
205.4375332677
 10
86.393083945
 20
205.2610910766
 10
86.3930837474
 20
205.0801109714
 10
86.3233237984
 20
204.9036687994
 10
86.1873004425
 20
204.7406111082
 10
85.9918358715
 20
204.599115081
  0
LWPOLYLINE
  5
162
330
1F
100
AcDbEntity
  8
0
  6
SLD-実線
 62
     7
370
    25
100
AcDbPolyline
 90
       12
 70
   128
 43
0.0
 10
83.6018861826
 20
204.9256379609
 10
83.6106898031
 20
204.8351483455
 10
83.6804496534
 20
204.6587055462
 10
83.8164727459
 20
204.4956483872
 10
84.0119369547
 20
204.354152417
 10
84.2570417218
 20
204.2413133311
 10
84.5394956101
 20
204.1627888712
 10
84.84513662
 20
204.1225173669
 10
85.1586373257
 20
204.122517481
 10
85.4642772491
 20
204.1627890423
 10
85.7467320593
 20
204.2413136543
 10
85.9918358715
 20
204.354152341
  0
ARC
  5
163
330
1F
100
AcDbEntity
  8
0
  6
SLD-実線
 62
     7
370
    25
100
AcDbCircle
 10
85.7163954125
 20
204.9846374938
 30
0.0
 40
0.6880254169114909
100
AcDbArc
 50
293.599104776
 51
355.0807454138
  0
SPLINE
  5
164
330
1F
100
AcDbEntity
  8
0
  6
SLD-実線
 62
     7
370
    25
100
AcDbSpline
210
0.0
220
0.0
230
1.0
 70
     8
 71
     3
 72
    13
 73
     9
 74
     0
 42
0.000000001
 43
0.00000001
 40
0.0
 40
0.0
 40
0.0
 40
0.0
 40
0.1082794995055591
 40
0.2208882547684237
 40
0.338759637689079
 40
0.4627111374502391
 40
0.7210204224614366
 40
1.0
 40
1.0
 40
1.0
 40
1.0
 10
104.9441938972261
 20
225.0120468847319
 30
0.0
 10
104.9439121758181
 20
225.0160258822492
 30
0.0
 10
104.9433374691523
 20
225.0241429664741
 30
0.0
 10
104.9387262885093
 20
225.0367091790834
 30
0.0
 10
104.931305410262
 20
225.0493054240463
 30
0.0
 10
104.9172319441962
 20
225.0654950143673
 30
0.0
 10
104.8927424652521
 20
225.0833396900237
 30
0.0
 10
104.8698888434906
 20
225.0896569345025
 30
0.0
 10
104.8580224263942
 20
225.0929370735837
 30
0.0
  0
LINE
  5
165
330
1F
100
AcDbEntity
  8
0
  6
SLD-実線
 62
     7
370
    25
100
AcDbLine
 10
104.9441938972
 20
225.0120468847
 30
0.0
 11
83.856373332
 21
212.8383071978
 31
0.0
  0
LINE
  5
166
330
1F
100
AcDbEntity
  8
0
  6
SLD-実線
 62
     7
370
    25
100
AcDbLine
 10
83.7998047539
 20
212.9362867728
 30
0.0
 11
104.8580224264
 21
225.0929370736
 31
0.0
  0
LINE
  5
167
330
1F
100
AcDbEntity
  8
0
  6
SLD-実線
 62
     7
370
    25
100
AcDbLine
 10
83.856373332
 20
210.8786092322
 30
0.0
 11
83.856373332
 21
212.8383071978
 31
0.0
  0
ARC
  5
168
330
1F
100
AcDbEntity
  8
0
  6
SLD-実線
 62
     7
370
    25
100
AcDbCircle
 10
83.8179880254
 20
210.8739136024
 30
0.0
 40
0.0386714455097292
100
AcDbArc
 50
304.338019874
 51
6.9742751297
  0
LINE
  5
169
330
1F
100
AcDbEntity
  8
0
  6
SLD-実線
 62
     7
370
    25
100
AcDbLine
 10
80.9713776924
 20
214.56910296
 30
0.0
 11
83.7998047539
 21
212.9362867728
 31
0.0
  0
ARC
  5
16A
330
1F
100
AcDbEntity
  8
0
  6
SLD-実線
 62
     7
370
    25
100
AcDbCircle
 10
103.4363851004
 20
223.3498395358
 30
0.0
 40
0.2576582350386098
100
AcDbArc
 50
350.785840834
 51
129.2033094509
  0
ARC
  5
16B
330
1F
100
AcDbEntity
  8
0
  6
SLD-実線
 62
     7
370
    25
100
AcDbCircle
 10
103.762111368
 20
222.7856828246
 30
0.0
 40
0.906715937221413
100
AcDbArc
 50
122.605498071
 51
177.3944795704
  0
ARC
  5
16C
330
1F
100
AcDbEntity
  8
0
  6
SLD-実線
 62
     7
370
    25
100
AcDbCircle
 10
103.1106669248
 20
222.78564469
 30
0.0
 40
0.2576586252647496
100
AcDbArc
 50
170.7860367676
 51
309.2032388308
  0
ARC
  5
16D
330
1F
100
AcDbEntity
  8
0
  6
SLD-実線
 62
     7
370
    25
100
AcDbCircle
 10
102.7849428653
 20
223.3497989805
 30
0.0
 40
0.906713132373118
100
AcDbArc
 50
302.6054458548
 51
357.3945735623
  0
LINE
  5
16E
330
1F
100
AcDbEntity
  8
0
  6
SLD-実線
 62
     7
370
    25
100
AcDbLine
 10
104.9441938972
 20
223.0523489192
 30
0.0
 11
104.9441938972
 21
225.0120468847
 31
0.0
  0
LINE
  5
16F
330
1F
100
AcDbEntity
  8
0
  6
SLD-実線
 62
     7
370
    25
100
AcDbLine
 10
83.856373332
 20
210.8786092322
 30
0.0
 11
104.9441938972
 21
223.0523489192
 31
0.0
  0
LWPOLYLINE
  5
170
330
1F
100
AcDbEntity
  8
0
  6
SLD-実線
 62
     7
370
    25
100
AcDbPolyline
 90
        9
 70
   128
 43
0.0
 10
102.0295953649
 20
226.7257532607
 10
102.2184001412
 20
226.4468263984
 10
102.4627573614
 20
226.1826654775
 10
102.7592714713
 20
225.9369429938
 10
103.1038202786
 20
225.7130739163
 10
103.4916149134
 20
225.5141701236
 10
103.9172648598
 20
225.3429961715
 10
104.3748545771
 20
225.2019317509
 10
104.8580224264
 20
225.0929370736
  0
SPLINE
  5
171
330
1F
100
AcDbEntity
  8
0
  6
SLD-実線
 62
     7
370
    25
100
AcDbSpline
210
0.0
220
0.0
230
1.0
 70
     8
 71
     3
 72
    11
 73
     7
 74
     0
 42
0.000000001
 43
0.00000001
 40
0.0
 40
0.0
 40
0.0
 40
0.0
 40
0.2627857694424383
 40
0.5190711910328026
 40
0.7641399205661576
 40
1.0
 40
1.0
 40
1.0
 40
1.0
 10
104.9213301538712
 20
223.0122148369458
 30
0.0
 10
104.9248152383357
 20
223.0147706042133
 30
0.0
 10
104.931699199167
 20
223.0198189185204
 30
0.0
 10
104.938802327789
 20
223.0297446123591
 30
0.0
 10
104.9433589823392
 20
223.0406227666634
 30
0.0
 10
104.9439191676722
 20
223.0484904173076
 30
0.0
 10
104.9441938972261
 20
223.0523489191717
 30
0.0
  0
SPLINE
  5
172
330
1F
100
AcDbEntity
  8
0
  6
SLD-実線
 62
     7
370
    25
100
AcDbSpline
210
0.0
220
0.0
230
1.0
 70
     8
 71
     3
 72
    10
 73
     6
 74
     0
 42
0.000000001
 43
0.00000001
 40
0.0
 40
0.0
 40
0.0
 40
0.0
 40
0.5147487774187615
 40
0.9945992519055352
 40
1.0
 40
1.0
 40
1.0
 40
1.0
 10
102.0295953648683
 20
226.7257532607328
 30
0.0
 10
102.0257987090678
 20
226.7313881926645
 30
0.0
 10
102.0184627984554
 20
226.7422760263605
 30
0.0
 10
102.0118762740171
 20
226.744228542079
 30
0.0
 10
102.0096155249036
 20
226.7411633185903
 30
0.0
 10
102.0095903632226
 20
226.741129203272
 30
0.0
  0
LINE
  5
173
330
1F
100
AcDbEntity
  8
0
  6
SLD-実線
 62
     8
370
    25
100
AcDbLine
 10
102.8572322388
 20
222.8590383785
 30
0.0
 11
102.8846170219
 21
222.8432294798
 31
0.0
  0
LINE
  5
174
330
1F
100
AcDbEntity
  8
0
  6
SLD-実線
 62
     8
370
    25
100
AcDbLine
 10
103.0111685981
 20
222.9897748671
 30
0.0
 11
103.1384685442
 21
222.9162861724
 31
0.0
  0
LINE
  5
175
330
1F
100
AcDbEntity
  8
0
  6
SLD-実線
 62
     8
370
    25
100
AcDbLine
 10
103.2091792339
 20
223.3343242806
 30
0.0
 11
103.3378726602
 21
223.260031147
 31
0.0
  0
LINE
  5
176
330
1F
100
AcDbEntity
  8
0
  6
SLD-実線
 62
     8
370
    25
100
AcDbLine
 10
109.3122183345
 20
228.0892461941
 30
0.0
 11
109.3122183345
 21
227.9422292494
 31
0.0
  0
LINE
  5
177
330
1F
100
AcDbEntity
  8
0
  6
SLD-実線
 62
     8
370
    25
100
AcDbLine
 10
109.3263604461
 20
227.9340651821
 30
0.0
 11
109.3263604461
 21
227.484967738
 31
0.0
  0
LINE
  5
178
330
1F
100
AcDbEntity
  8
0
  6
SLD-実線
 62
     8
370
    25
100
AcDbLine
 10
108.9324288679
 20
226.8142573902
 30
0.0
 11
108.9117782292
 21
226.8500217742
 31
0.0
  0
LINE
  5
179
330
1F
100
AcDbEntity
  8
0
  6
SLD-実線
 62
     8
370
    25
100
AcDbLine
 10
109.2145648768
 20
226.8709859199
 30
0.0
 11
109.087264799
 21
226.9444746906
 31
0.0
  0
LINE
  5
17A
330
1F
100
AcDbEntity
  8
0
  6
SLD-実線
 62
     8
370
    25
100
AcDbLine
 10
109.2852754348
 20
227.2890240186
 30
0.0
 11
109.4139689928
 21
227.214730809
 31
0.0
  0
LWPOLYLINE
  5
17B
330
1F
100
AcDbEntity
  8
0
  6
SLD-実線
 62
     8
370
    25
100
AcDbPolyline
 90
       17
 70
   128
 43
0.0
 10
86.4149047926
 20
205.5986860837
 10
86.558126822
 20
205.4887235752
 10
86.727027354
 20
205.3026866814
 10
86.8300086673
 20
205.1012358662
 10
86.8631345756
 20
204.8920680061
 10
86.8251410356
 20
204.6831767955
 10
86.7174776354
 20
204.4825429078
 10
86.5442605418
 20
204.2978339086
 10
86.312106744
 20
204.1361070013
 10
86.0298880219
 20
204.0035422998
 10
85.7083880419
 20
203.9052052604
 10
85.3598926762
 20
203.8448537463
 10
84.9977163776
 20
203.8247929541
 10
84.6357003028
 20
203.8457904463
 10
84.2876756318
 20
203.9070429055
 10
83.9669423293
 20
204.0062106155
 10
83.6857561721
 20
204.1395043494
  0
LWPOLYLINE
  5
17C
330
1F
100
AcDbEntity
  8
0
  6
SLD-実線
 62
     8
370
    25
100
AcDbPolyline
 90
       37
 70
   128
 43
0.0
 10
96.3155945933
 20
185.6373698072
 10
95.5346577446
 20
185.2157148259
 10
94.7066786909
 20
184.8251133183
 10
93.8353558183
 20
184.4673085904
 10
92.9245803343
 20
184.1439010044
 10
91.9784194101
 20
183.8563333801
 10
91.0011003744
 20
183.6058903869
 10
89.9969875335
 20
183.3936912441
 10
88.9705653119
 20
183.2206824222
 10
87.9264182332
 20
183.0876382507
 10
86.8692077389
 20
182.9951511859
 10
85.8036595442
 20
182.9436354608
 10
84.734529921
 20
182.933321002
 10
83.6665946342
 20
182.9642537338
 10
82.6046210191
 20
183.0362946664
 10
81.5533569183
 20
183.1491238489
 10
80.517492749
 20
183.3022355036
 10
79.5016578158
 20
183.4949474541
 10
78.5103881732
 20
183.7263977798
 10
77.5481116112
 20
183.9955534837
 10
76.6191247375
 20
184.3012115569
 10
75.7275775678
 20
184.6420078747
 10
74.877451794
 20
185.0164200097
 10
74.0725432338
 20
185.4227749303
 10
73.3164485937
 20
185.8592590752
 10
72.6125449559
 20
186.3239228964
 10
71.963973841
 20
186.8146900594
 10
71.3736333389
 20
187.3293692851
 10
70.8441606569
 20
187.865661992
 10
70.3779187844
 20
188.4211724269
 10
69.9769916196
 20
188.9934202109
 10
69.6431685596
 20
189.5798492354
 10
69.3779426566
 20
190.1778408917
 10
69.1824956029
 20
190.7847227393
 10
69.0577035259
 20
191.3977870578
 10
69.0041206569
 20
192.0142929762
 10
69.0018879276
 20
192.1686351641
  0
ARC
  5
17D
330
1F
100
AcDbEntity
  8
0
  6
SLD-実線
 62
     8
370
    25
100
AcDbCircle
 10
84.0643148235
 20
204.9882051698
 30
0.0
 40
0.9279360524748665
100
AcDbArc
 50
185.4652453132
 51
245.1267825588
  0
LWPOLYLINE
  5
17E
330
1F
100
AcDbEntity
  8
0
  6
SLD-実線
 62
     8
370
    25
100
AcDbPolyline
 90
        8
 70
   128
 43
0.0
 10
86.2659967746
 20
205.6553934534
 10
86.5011959456
 20
205.4877217572
 10
86.6708688186
 20
205.2954847526
 10
86.767598536
 20
205.0870833145
 10
86.7871577688
 20
204.8716256997
 10
86.7286929777
 20
204.6585292045
 10
86.5947582615
 20
204.4571064647
 10
86.5383263972
 20
204.3980271123
  0
LINE
  5
17F
330
1F
100
AcDbEntity
  8
0
  6
SLD-実線
 62
     8
370
    25
100
AcDbLine
 10
83.7803071484
 20
204.17213035
 30
0.0
 11
83.7377769735
 21
204.1958832287
 31
0.0
  0
LWPOLYLINE
  5
180
330
1F
100
AcDbEntity
  8
0
  6
SLD-実線
 62
     8
370
    25
100
AcDbPolyline
 90
       10
 70
   128
 43
0.0
 10
83.7377769735
 20
204.1958832287
 10
83.5025767488
 20
204.3635543167
 10
83.3329049295
 20
204.5557919295
 10
83.2361752122
 20
204.7641933675
 10
83.2166149256
 20
204.9796503741
 10
83.2750797168
 20
205.1927468694
 10
83.4090154866
 20
205.3941702174
 10
83.6125655355
 20
205.5751153089
 10
83.8768368123
 20
205.7276758697
 10
84.0018863802
 20
205.7811052928
  0
LINE
  5
181
330
1F
100
AcDbEntity
  8
0
  6
SLD-実線
 62
     8
370
    25
100
AcDbLine
 10
86.0018867259
 20
205.7811055114
 30
0.0
 11
86.2659967746
 21
205.6553934534
 31
0.0
  0
LWPOLYLINE
  5
182
330
1F
100
AcDbEntity
  8
0
  6
SLD-実線
 62
     8
370
    25
100
AcDbPolyline
 90
       13
 70
   128
 43
0.0
 10
101.0006748889
 20
192.0549673273
 10
100.9817854616
 20
191.7057810455
 10
100.8925474124
 20
191.0906528619
 10
100.7323388119
 20
190.4803388427
 10
100.501874049
 20
189.8775652604
 10
100.202181507
 20
189.2850243245
 10
99.8346014556
 20
188.7053620157
 10
99.4007749876
 20
188.1411680498
 10
98.9026398046
 20
187.5949612787
 10
98.3424207332
 20
187.0691817834
 10
97.7226176083
 20
186.5661777957
 10
97.046002639
 20
186.0881956622
 10
96.3155945933
 20
185.6373698072
  0
LINE
  5
183
330
1F
100
AcDbEntity
  8
0
  6
SLD-実線
 62
     8
370
    25
100
AcDbLine
 10
102.0295953649
 20
226.7257532607
 30
0.0
 11
86.001886446
 21
217.473153849
 31
0.0
  0
LINE
  5
184
330
1F
100
AcDbEntity
  8
0
  6
SLD-実線
 62
     8
370
    25
100
AcDbLine
 10
84.0018867753
 20
216.3185786149
 30
0.0
 11
80.9713776924
 21
214.56910296
 31
0.0
  0
LINE
  5
185
330
1F
100
AcDbEntity
  8
0
  6
SLD-実線
 62
     8
370
    25
100
AcDbLine
 10
103.662172508
 20
223.3085820772
 30
0.0
 11
103.6907187002
 21
223.308581978
 31
0.0
  0
ENDSEC
  0
SECTION
  2
OBJECTS
  0
DICTIONARY
  5
C
330
0
100
AcDbDictionary
281
     1
  3
ACAD_DETAILVIEWSTYLE
350
18D
  3
ACAD_GROUP
350
D
  3
ACAD_LAYOUT
350
1A
  3
ACAD_MATERIAL
350
43
  3
ACAD_MLEADERSTYLE
350
6B
  3
ACAD_MLINESTYLE
350
17
  3
ACAD_PLOTSETTINGS
350
19
  3
ACAD_PLOTSTYLENAME
350
E
  3
ACAD_SCALELIST
350
47
  3
ACAD_SECTIONVIEWSTYLE
350
18E
  3
ACAD_TABLESTYLE
350
69
  3
ACAD_VISUALSTYLE
350
2A
  3
ACDB_RECOMPOSE_DATA
350
18A
  3
AcDbVariableDictionary
350
186
  0
SUN
  5
6D
330
29
100
AcDbSun
 90
        1
290
     0
 63
     7
421
 16777215
 40
1.0
291
     1
 91
  2455826
 92
 54000000
292
     0
 70
     2
 71
   256
280
     1
  0
DICTIONARY
  5
18D
102
{ACAD_REACTORS
330
C
102
}
330
C
100
AcDbDictionary
281
     1
  0
DICTIONARY
  5
D
102
{ACAD_REACTORS
330
C
102
}
330
C
100
AcDbDictionary
281
     1
  0
DICTIONARY
  5
1A
102
{ACAD_REACTORS
330
C
102
}
330
C
100
AcDbDictionary
281
     1
  3
Layout1
350
1E
  3
Layout2
350
26
  3
Model
350
22
  0
DICTIONARY
  5
43
102
{ACAD_REACTORS
330
C
102
}
330
C
100
AcDbDictionary
281
     1
  3
ByBlock
350
45
  3
ByLayer
350
44
  3
Global
350
46
  0
DICTIONARY
  5
6B
102
{ACAD_REACTORS
330
C
102
}
330
C
100
AcDbDictionary
281
     1
  3
Standard
350
6C
  0
DICTIONARY
  5
17
102
{ACAD_REACTORS
330
C
102
}
330
C
100
AcDbDictionary
281
     1
  3
Standard
350
18
  0
DICTIONARY
  5
19
102
{ACAD_REACTORS
330
C
102
}
330
C
100
AcDbDictionary
281
     1
  0
ACDBDICTIONARYWDFLT
  5
E
102
{ACAD_REACTORS
330
C
102
}
330
C
100
AcDbDictionary
281
     1
  3
Normal
350
F
100
AcDbDictionaryWithDefault
340
F
  0
DICTIONARY
  5
47
102
{ACAD_REACTORS
330
C
102
}
330
C
100
AcDbDictionary
281
     1
  3
A0
350
48
  3
A1
350
49
  3
A2
350
4A
  3
A3
350
4B
  3
A4
350
4C
  3
A5
350
4D
  3
A6
350
4E
  3
A7
350
4F
  3
A8
350
50
  3
A9
350
51
  3
B0
350
52
  3
B1
350
53
  3
B2
350
54
  3
B3
350
55
  3
B4
350
56
  3
B5
350
57
  3
B6
350
58
  3
B7
350
59
  3
B8
350
5A
  3
B9
350
5B
  3
C0
350
5C
  3
C1
350
5D
  3
C2
350
5E
  3
C3
350
5F
  3
C4
350
60
  3
C5
350
61
  3
C6
350
62
  3
C7
350
63
  3
C8
350
64
  3
C9
350
65
  3
D0
350
66
  3
D1
350
67
  3
D2
350
68
  0
DICTIONARY
  5
18E
102
{ACAD_REACTORS
330
C
102
}
330
C
100
AcDbDictionary
281
     1
  0
DICTIONARY
  5
69
102
{ACAD_REACTORS
330
C
102
}
330
C
100
AcDbDictionary
281
     1
  3
Standard
350
6A
  0
DICTIONARY
  5
2A
102
{ACAD_REACTORS
330
C
102
}
330
C
100
AcDbDictionary
281
     1
  3
2dWireframe
350
2F
  3
Basic
350
32
  3
Brighten
350
36
  3
ColorChange
350
3A
  3
Conceptual
350
34
  3
Dim
350
35
  3
EdgeColorOff
350
3D
  3
Facepattern
350
39
  3
Flat
350
2B
  3
FlatWithEdges
350
2C
  3
Gouraud
350
2D
  3
GouraudWithEdges
350
2E
  3
Hidden
350
31
  3
JitterOff
350
3B
  3
Linepattern
350
38
  3
OverhangOff
350
3C
  3
Realistic
350
33
  3
Shaded
350
42
  3
Shaded with edges
350
41
  3
Shades of Gray
350
3E
  3
Sketchy
350
3F
  3
Thicken
350
37
  3
Wireframe
350
30
  3
X-Ray
350
40
  0
XRECORD
  5
18A
102
{ACAD_REACTORS
330
C
102
}
330
C
100
AcDbXrecord
280
     1
 90
        1
330
6A
  0
DICTIONARY
  5
186
102
{ACAD_REACTORS
330
C
102
}
330
C
100
AcDbDictionary
281
     1
  3
CANNOSCALE
350
187
  3
CMLEADERSTYLE
350
18C
  3
CTABLESTYLE
350
18B
  3
SECTIONTHICKNESSINC
350
18F
  0
LAYOUT
  5
1E
102
{ACAD_REACTORS
330
1A
102
}
330
1A
100
AcDbPlotSettings
  1

  2
none_device
  4

  6

 40
0.0
 41
0.0
 42
0.0
 43
0.0
 44
0.0
 45
0.0
 46
0.0
 47
0.0
 48
0.0
 49
0.0
140
0.0
141
0.0
142
1.0
143
1.0
 70
   688
 72
     1
 73
     0
 74
     5
  7

 75
    16
 76
     0
 77
     2
 78
   300
147
1.0
148
0.0
149
0.0
100
AcDbLayout
  1
Layout1
 70
     1
 71
     1
 10
0.0
 20
0.0
 11
420.0
 21
297.0
 12
0.0
 22
0.0
 32
0.0
 14
1.0000000000E+20
 24
1.0000000000E+20
 34
1.0000000000E+20
 15
-1.0000000000E+20
 25
-1.0000000000E+20
 35
-1.0000000000E+20
146
0.0
 13
0.0
 23
0.0
 33
0.0
 16
1.0
 26
0.0
 36
0.0
 17
0.0
 27
1.0
 37
0.0
 76
     0
330
1B
  0
LAYOUT
  5
26
102
{ACAD_REACTORS
330
1A
102
}
330
1A
100
AcDbPlotSettings
  1

  2
none_device
  4

  6

 40
0.0
 41
0.0
 42
0.0
 43
0.0
 44
0.0
 45
0.0
 46
0.0
 47
0.0
 48
0.0
 49
0.0
140
0.0
141
0.0
142
1.0
143
1.0
 70
   688
 72
     1
 73
     0
 74
     5
  7

 75
    16
 76
     0
 77
     2
 78
   300
147
1.0
148
0.0
149
0.0
100
AcDbLayout
  1
Layout2
 70
     1
 71
     2
 10
0.0
 20
0.0
 11
0.0
 21
0.0
 12
0.0
 22
0.0
 32
0.0
 14
0.0
 24
0.0
 34
0.0
 15
0.0
 25
0.0
 35
0.0
146
0.0
 13
0.0
 23
0.0
 33
0.0
 16
1.0
 26
0.0
 36
0.0
 17
0.0
 27
1.0
 37
0.0
 76
     0
330
23
  0
LAYOUT
  5
22
102
{ACAD_REACTORS
330
1A
102
}
330
1A
100
AcDbPlotSettings
  1

  2
none_device
  4
Letter_(8.50_x_11.00_Inches)
  6

 40
6.35
 41
6.35
 42
6.35000508
 43
6.35000508
 44
215.9
 45
279.4
 46
0.0
 47
0.0
 48
0.0
 49
0.0
140
0.0
141
0.0
142
1.0
143
1.0
 70
  1712
 72
     1
 73
     0
 74
     0
  7

 75
     0
 76
     0
 77
     2
 78
   300
147
1.0
148
0.0
149
0.0
100
AcDbLayout
  1
Model
 70
     1
 71
     0
 10
0.0
 20
0.0
 11
210.0
 21
297.0
 12
0.0
 22
0.0
 32
0.0
 14
0.0
 24
0.0
 34
0.0
 15
210.0
 25
297.0
 35
0.0
146
0.0
 13
0.0
 23
0.0
 33
0.0
 16
1.0
 26
0.0
 36
0.0
 17
0.0
 27
1.0
 37
0.0
 76
     0
330
1F
331
29
  0
MATERIAL
  5
45
102
{ACAD_REACTORS
330
43
102
}
330
43
100
AcDbMaterial
  1
ByBlock
 72
     1
 94
      127
  0
MATERIAL
  5
44
102
{ACAD_REACTORS
330
43
102
}
330
43
100
AcDbMaterial
  1
ByLayer
 72
     1
 94
      127
  0
MATERIAL
  5
46
102
{ACAD_REACTORS
330
43
102
}
330
43
100
AcDbMaterial
  1
Global
 72
     1
 94
      127
  0
MLEADERSTYLE
  5
6C
102
{ACAD_REACTORS
330
6B
102
}
330
6B
100
AcDbMLeaderStyle
179
     2
170
     2
171
     1
172
     0
 90
        2
 40
0.0
 41
0.0
173
     1
 91
-1056964608
340
14
 92
       -2
290
     1
 42
2.0
291
     1
 43
8.0
  3
Standard
341
0
 44
4.0
300

342
11
174
     1
178
     6
175
     1
176
     0
 93
-1056964608
 45
4.0
292
     0
297
     0
 46
4.0
343
0
 94
-1056964608
 47
1.0
 49
1.0
140
1.0
293
     1
141
0.0
294
     1
177
     0
142
1.0
295
     0
296
     0
143
3.75
271
     0
272
     9
273
     9
298
     0
  0
MLINESTYLE
  5
18
102
{ACAD_REACTORS
330
17
102
}
330
17
100
AcDbMlineStyle
  2
Standard
 70
     0
  3

 62
   256
 51
90.0
 52
90.0
 71
     2
 49
0.5
 62
   256
  6
BYLAYER
 49
-0.5
 62
   256
  6
BYLAYER
  0
ACDBPLACEHOLDER
  5
F
102
{ACAD_REACTORS
330
E
102
}
330
E
  0
SCALE
  5
48
102
{ACAD_REACTORS
330
47
102
}
330
47
100
AcDbScale
 70
     0
300
1:1
140
1.0
141
1.0
290
     1
  0
SCALE
  5
49
102
{ACAD_REACTORS
330
47
102
}
330
47
100
AcDbScale
 70
     0
300
1:2
140
1.0
141
2.0
290
     0
  0
SCALE
  5
4A
102
{ACAD_REACTORS
330
47
102
}
330
47
100
AcDbScale
 70
     0
300
1:4
140
1.0
141
4.0
290
     0
  0
SCALE
  5
4B
102
{ACAD_REACTORS
330
47
102
}
330
47
100
AcDbScale
 70
     0
300
1:5
140
1.0
141
5.0
290
     0
  0
SCALE
  5
4C
102
{ACAD_REACTORS
330
47
102
}
330
47
100
AcDbScale
 70
     0
300
1:8
140
1.0
141
8.0
290
     0
  0
SCALE
  5
4D
102
{ACAD_REACTORS
330
47
102
}
330
47
100
AcDbScale
 70
     0
300
1:10
140
1.0
141
10.0
290
     0
  0
SCALE
  5
4E
102
{ACAD_REACTORS
330
47
102
}
330
47
100
AcDbScale
 70
     0
300
1:16
140
1.0
141
16.0
290
     0
  0
SCALE
  5
4F
102
{ACAD_REACTORS
330
47
102
}
330
47
100
AcDbScale
 70
     0
300
1:20
140
1.0
141
20.0
290
     0
  0
SCALE
  5
50
102
{ACAD_REACTORS
330
47
102
}
330
47
100
AcDbScale
 70
     0
300
1:30
140
1.0
141
30.0
290
     0
  0
SCALE
  5
51
102
{ACAD_REACTORS
330
47
102
}
330
47
100
AcDbScale
 70
     0
300
1:40
140
1.0
141
40.0
290
     0
  0
SCALE
  5
52
102
{ACAD_REACTORS
330
47
102
}
330
47
100
AcDbScale
 70
     0
300
1:50
140
1.0
141
50.0
290
     0
  0
SCALE
  5
53
102
{ACAD_REACTORS
330
47
102
}
330
47
100
AcDbScale
 70
     0
300
1:100
140
1.0
141
100.0
290
     0
  0
SCALE
  5
54
102
{ACAD_REACTORS
330
47
102
}
330
47
100
AcDbScale
 70
     0
300
2:1
140
2.0
141
1.0
290
     0
  0
SCALE
  5
55
102
{ACAD_REACTORS
330
47
102
}
330
47
100
AcDbScale
 70
     0
300
4:1
140
4.0
141
1.0
290
     0
  0
SCALE
  5
56
102
{ACAD_REACTORS
330
47
102
}
330
47
100
AcDbScale
 70
     0
300
8:1
140
8.0
141
1.0
290
     0
  0
SCALE
  5
57
102
{ACAD_REACTORS
330
47
102
}
330
47
100
AcDbScale
 70
     0
300
10:1
140
10.0
141
1.0
290
     0
  0
SCALE
  5
58
102
{ACAD_REACTORS
330
47
102
}
330
47
100
AcDbScale
 70
     0
300
100:1
140
100.0
141
1.0
290
     0
  0
SCALE
  5
59
102
{ACAD_REACTORS
330
47
102
}
330
47
100
AcDbScale
 70
     0
300
1/128" = 1'-0"
140
0.0078125
141
12.0
290
     0
  0
SCALE
  5
5A
102
{ACAD_REACTORS
330
47
102
}
330
47
100
AcDbScale
 70
     0
300
1/64" = 1'-0"
140
0.015625
141
12.0
290
     0
  0
SCALE
  5
5B
102
{ACAD_REACTORS
330
47
102
}
330
47
100
AcDbScale
 70
     0
300
1/32" = 1'-0"
140
0.03125
141
12.0
290
     0
  0
SCALE
  5
5C
102
{ACAD_REACTORS
330
47
102
}
330
47
100
AcDbScale
 70
     0
300
1/16" = 1'-0"
140
0.0625
141
12.0
290
     0
  0
SCALE
  5
5D
102
{ACAD_REACTORS
330
47
102
}
330
47
100
AcDbScale
 70
     0
300
3/32" = 1'-0"
140
0.09375
141
12.0
290
     0
  0
SCALE
  5
5E
102
{ACAD_REACTORS
330
47
102
}
330
47
100
AcDbScale
 70
     0
300
1/8" = 1'-0"
140
0.125
141
12.0
290
     0
  0
SCALE
  5
5F
102
{ACAD_REACTORS
330
47
102
}
330
47
100
AcDbScale
 70
     0
300
3/16" = 1'-0"
140
0.1875
141
12.0
290
     0
  0
SCALE
  5
60
102
{ACAD_REACTORS
330
47
102
}
330
47
100
AcDbScale
 70
     0
300
1/4" = 1'-0"
140
0.25
141
12.0
290
     0
  0
SCALE
  5
61
102
{ACAD_REACTORS
330
47
102
}
330
47
100
AcDbScale
 70
     0
300
3/8" = 1'-0"
140
0.375
141
12.0
290
     0
  0
SCALE
  5
62
102
{ACAD_REACTORS
330
47
102
}
330
47
100
AcDbScale
 70
     0
300
1/2" = 1'-0"
140
0.5
141
12.0
290
     0
  0
SCALE
  5
63
102
{ACAD_REACTORS
330
47
102
}
330
47
100
AcDbScale
 70
     0
300
3/4" = 1'-0"
140
0.75
141
12.0
290
     0
  0
SCALE
  5
64
102
{ACAD_REACTORS
330
47
102
}
330
47
100
AcDbScale
 70
     0
300
1" = 1'-0"
140
1.0
141
12.0
290
     0
  0
SCALE
  5
65
102
{ACAD_REACTORS
330
47
102
}
330
47
100
AcDbScale
 70
     0
300
1-1/2" = 1'-0"
140
1.5
141
12.0
290
     0
  0
SCALE
  5
66
102
{ACAD_REACTORS
330
47
102
}
330
47
100
AcDbScale
 70
     0
300
3" = 1'-0"
140
3.0
141
12.0
290
     0
  0
SCALE
  5
67
102
{ACAD_REACTORS
330
47
102
}
330
47
100
AcDbScale
 70
     0
300
6" = 1'-0"
140
6.0
141
12.0
290
     0
  0
SCALE
  5
68
102
{ACAD_REACTORS
330
47
102
}
330
47
100
AcDbScale
 70
     0
300
1'-0" = 1'-0"
140
12.0
141
12.0
290
     0
  0
TABLESTYLE
  5
6A
102
{ACAD_REACTORS
330
69
102
}
102
{ACAD_XDICTIONARY
360
188
102
}
330
69
100
AcDbTableStyle
  3
Standard
 70
     0
 71
     0
 40
0.06
 41
0.06
280
     0
281
     0
  7
STANDARD
140
4.5
170
     2
 62
     0
 63
   257
283
     0
 90
        4
 91
        0
  1

274
    -2
284
     1
 64
     0
275
    -2
285
     1
 65
     0
276
    -2
286
     1
 66
     0
277
    -2
287
     1
 67
     0
278
    -2
288
     1
 68
     0
279
    -2
289
     1
 69
     0
  7
STANDARD
140
6.0
170
     5
 62
     0
 63
   257
283
     0
 90
        4
 91
        0
  1

274
    -2
284
     1
 64
     0
275
    -2
285
     1
 65
     0
276
    -2
286
     1
 66
     0
277
    -2
287
     1
 67
     0
278
    -2
288
     1
 68
     0
279
    -2
289
     1
 69
     0
  7
STANDARD
140
4.5
170
     5
 62
     0
 63
   257
283
     0
 90
        4
 91
        0
  1

274
    -2
284
     1
 64
     0
275
    -2
285
     1
 65
     0
276
    -2
286
     1
 66
     0
277
    -2
287
     1
 67
     0
278
    -2
288
     1
 68
     0
279
    -2
289
     1
 69
     0
  0
VISUALSTYLE
  5
2F
102
{ACAD_REACTORS
330
2A
102
}
330
2A
100
AcDbVisualStyle
  2
2dWireframe
 70
     4
177
     3
291
     0
 70
    58
 90
        0
176
     1
 90
        2
176
     1
 90
        0
176
     1
 90
        0
176
     1
 40
0.6
176
     1
 40
30.0
176
     1
 62
     7
420
 16777215
176
     1
 90
        1
176
     1
 90
        4
176
     1
 62
     7
176
     1
 62
   257
176
     1
 90
        1
176
     1
 90
        1
176
     1
 40
1.0
176
     1
 90
        0
176
     1
 62
   257
176
     1
 40
1.0
176
     1
 90
        1
176
     1
 90
        6
176
     1
 90
        2
176
     1
 62
     7
176
     1
 90
        5
176
     1
 90
        0
176
     1
 90
        0
176
     1
290
     0
176
     1
 90
        1
176
     1
 40
0.0
176
     1
 90
        0
176
     1
290
     1
176
     1
290
     1
176
     1
290
     0
176
     1
290
     0
176
     1
290
     0
176
     1
290
     0
176
     1
290
     0
176
     1
290
     0
176
     1
290
     0
176
     1
 90
       50
176
     1
 40
0.0
176
     1
 40
1.0
176
     1
 90
        0
176
     1
 62
    18
420
        0
176
     1
 90
       50
176
     1
 90
        3
176
     1
 62
     5
420
      255
176
     1
290
     0
176
     1
 90
       50
176
     1
 90
       50
176
     1
 90
       50
176
     1
290
     0
176
     1
 90
       50
176
     1
 62
   256
176
     0
 40
1.0
176
     0
 90
        2
176
     1
  1
strokes_ogs.tif
176
     1
290
     0
176
     1
 40
1.0
176
     1
 40
1.0
176
     1
  0
VISUALSTYLE
  5
32
102
{ACAD_REACTORS
330
2A
102
}
330
2A
100
AcDbVisualStyle
  2
Basic
 70
     7
177
     3
291
     1
 70
    58
 90
        1
176
     1
 90
        0
176
     1
 90
        1
176
     1
 90
        0
176
     1
 40
0.6
176
     1
 40
30.0
176
     1
 62
     7
420
 16777215
176
     1
 90
        0
176
     1
 90
        4
176
     1
 62
     7
176
     1
 62
   257
176
     1
 90
        1
176
     1
 90
        1
176
     1
 40
1.0
176
     1
 90
        8
176
     1
 62
     7
176
     1
 40
1.0
176
     1
 90
        1
176
     1
 90
        6
176
     1
 90
        2
176
     1
 62
     7
176
     1
 90
        5
176
     1
 90
        0
176
     1
 90
        0
176
     1
290
     0
176
     1
 90
        1
176
     1
 40
0.0
176
     1
 90
        0
176
     1
290
     0
176
     1
290
     1
176
     1
290
     1
176
     1
290
     0
176
     1
290
     0
176
     1
290
     0
176
     1
290
     0
176
     1
290
     0
176
     1
290
     0
176
     1
 90
       50
176
     1
 40
0.0
176
     1
 40
1.0
176
     1
 90
        0
176
     1
 62
    18
420
        0
176
     1
 90
       50
176
     1
 90
        3
176
     1
 62
     5
420
      255
176
     1
290
     0
176
     1
 90
       50
176
     1
 90
       50
176
     1
 90
       50
176
     1
290
     0
176
     1
 90
       50
176
     1
 62
   256
176
     0
 40
1.0
176
     0
 90
        2
176
     1
  1
strokes_ogs.tif
176
     1
290
     0
176
     1
 40
1.0
176
     1
 40
1.0
176
     1
  0
VISUALSTYLE
  5
36
102
{ACAD_REACTORS
330
2A
102
}
330
2A
100
AcDbVisualStyle
  2
Brighten
 70
    12
177
     3
291
     1
 70
    58
 90
        2
176
     1
 90
        2
176
     1
 90
        0
176
     1
 90
        0
176
     1
 40
0.6
176
     1
 40
30.0
176
     1
 62
     7
420
 16777215
176
     1
 90
        1
176
     1
 90
        4
176
     1
 62
     7
176
     1
 62
   257
176
     1
 90
        1
176
     1
 90
        1
176
     1
 40
1.0
176
     1
 90
        8
176
     1
 62
     7
176
     1
 40
1.0
176
     1
 90
        1
176
     1
 90
        6
176
     1
 90
        2
176
     1
 62
     7
176
     1
 90
        5
176
     1
 90
        0
176
     1
 90
        0
176
     1
290
     0
176
     1
 90
        1
176
     1
 40
50.0
176
     1
 90
        0
176
     1
290
     0
176
     1
290
     1
176
     1
290
     1
176
     1
290
     0
176
     1
290
     0
176
     1
290
     0
176
     1
290
     0
176
     1
290
     0
176
     1
290
     0
176
     1
 90
       50
176
     1
 40
0.0
176
     1
 40
1.0
176
     1
 90
        0
176
     1
 62
    18
420
        0
176
     1
 90
       50
176
     1
 90
        3
176
     1
 62
     5
420
      255
176
     1
290
     0
176
     1
 90
       50
176
     1
 90
       50
176
     1
 90
       50
176
     1
290
     0
176
     1
 90
       50
176
     1
 62
   256
176
     0
 40
1.0
176
     0
 90
        2
176
     1
  1
strokes_ogs.tif
176
     1
290
     0
176
     1
 40
1.0
176
     1
 40
1.0
176
     1
  0
VISUALSTYLE
  5
3A
102
{ACAD_REACTORS
330
2A
102
}
330
2A
100
AcDbVisualStyle
  2
ColorChange
 70
    16
177
     3
291
     1
 70
    58
 90
        2
176
     1
 90
        2
176
     1
 90
        3
176
     1
 90
        0
176
     1
 40
0.6
176
     1
 40
30.0
176
     1
 62
     8
420
  8421504
176
     1
 90
        1
176
     1
 90
        4
176
     1
 62
     7
176
     1
 62
   257
176
     1
 90
        1
176
     1
 90
        1
176
     1
 40
1.0
176
     1
 90
        8
176
     1
 62
     8
420
  8421504
176
     1
 40
1.0
176
     1
 90
        1
176
     1
 90
        6
176
     1
 90
        2
176
     1
 62
     7
176
     1
 90
        5
176
     1
 90
        0
176
     1
 90
        0
176
     1
290
     0
176
     1
 90
        1
176
     1
 40
0.0
176
     1
 90
        0
176
     1
290
     0
176
     1
290
     1
176
     1
290
     1
176
     1
290
     0
176
     1
290
     0
176
     1
290
     0
176
     1
290
     0
176
     1
290
     0
176
     1
290
     0
176
     1
 90
       50
176
     1
 40
0.0
176
     1
 40
1.0
176
     1
 90
        0
176
     1
 62
    18
420
        0
176
     1
 90
       50
176
     1
 90
        3
176
     1
 62
     5
420
      255
176
     1
290
     0
176
     1
 90
       50
176
     1
 90
       50
176
     1
 90
       50
176
     1
290
     0
176
     1
 90
       50
176
     1
 62
   256
176
     0
 40
1.0
176
     0
 90
        2
176
     1
  1
strokes_ogs.tif
176
     1
290
     0
176
     1
 40
1.0
176
     1
 40
1.0
176
     1
  0
VISUALSTYLE
  5
34
102
{ACAD_REACTORS
330
2A
102
}
330
2A
100
AcDbVisualStyle
  2
Conceptual
 70
     9
177
     3
291
     0
 70
    58
 90
        3
176
     1
 90
        2
176
     1
 90
        0
176
     1
 90
        0
176
     1
 40
0.6
176
     1
 40
30.0
176
     1
 62
     7
420
 16777215
176
     1
 90
        2
176
     1
 90
        2
176
     1
 62
     7
176
     1
 62
   257
176
     1
 90
        1
176
     1
 90
        1
176
     1
 40
179.0
176
     1
 90
        8
176
     1
 62
     7
176
     1
 40
1.0
176
     1
 90
        1
176
     1
 90
        6
176
     1
 90
        2
176
     1
 62
     7
176
     1
 90
        3
176
     1
 90
        0
176
     1
 90
        0
176
     1
290
     0
176
     1
 90
        1
176
     1
 40
0.0
176
     1
 90
        0
176
     1
290
     0
176
     1
290
     1
176
     1
290
     1
176
     1
290
     0
176
     1
290
     0
176
     1
290
     0
176
     1
290
     0
176
     1
290
     0
176
     1
290
     0
176
     1
 90
       50
176
     1
 40
0.0
176
     1
 40
1.0
176
     1
 90
        0
176
     1
 62
    18
420
        0
176
     1
 90
       50
176
     1
 90
        3
176
     1
 62
     5
420
      255
176
     1
290
     0
176
     1
 90
       50
176
     1
 90
       50
176
     1
 90
       50
176
     1
290
     0
176
     1
 90
       50
176
     1
 62
   256
176
     0
 40
1.0
176
     0
 90
        2
176
     1
  1
strokes_ogs.tif
176
     1
290
     0
176
     1
 40
1.0
176
     1
 40
1.0
176
     1
  0
VISUALSTYLE
  5
35
102
{ACAD_REACTORS
330
2A
102
}
330
2A
100
AcDbVisualStyle
  2
Dim
 70
    11
177
     3
291
     1
 70
    58
 90
        2
176
     1
 90
        2
176
     1
 90
        0
176
     1
 90
        0
176
     1
 40
0.6
176
     1
 40
30.0
176
     1
 62
     7
420
 16777215
176
     1
 90
        1
176
     1
 90
        4
176
     1
 62
     7
176
     1
 62
   257
176
     1
 90
        1
176
     1
 90
        1
176
     1
 40
1.0
176
     1
 90
        8
176
     1
 62
     7
176
     1
 40
1.0
176
     1
 90
        1
176
     1
 90
        6
176
     1
 90
        2
176
     1
 62
     7
176
     1
 90
        5
176
     1
 90
        0
176
     1
 90
        0
176
     1
290
     0
176
     1
 90
        1
176
     1
 40
-50.0
176
     1
 90
        0
176
     1
290
     0
176
     1
290
     1
176
     1
290
     1
176
     1
290
     0
176
     1
290
     0
176
     1
290
     0
176
     1
290
     0
176
     1
290
     0
176
     1
290
     0
176
     1
 90
       50
176
     1
 40
0.0
176
     1
 40
1.0
176
     1
 90
        0
176
     1
 62
    18
420
        0
176
     1
 90
       50
176
     1
 90
        3
176
     1
 62
     5
420
      255
176
     1
290
     0
176
     1
 90
       50
176
     1
 90
       50
176
     1
 90
       50
176
     1
290
     0
176
     1
 90
       50
176
     1
 62
   256
176
     0
 40
1.0
176
     0
 90
        2
176
     1
  1
strokes_ogs.tif
176
     1
290
     0
176
     1
 40
1.0
176
     1
 40
1.0
176
     1
  0
VISUALSTYLE
  5
3D
102
{ACAD_REACTORS
330
2A
102
}
330
2A
100
AcDbVisualStyle
  2
EdgeColorOff
 70
    22
177
     3
291
     1
 70
    58
 90
        2
176
     0
 90
        2
176
     0
 90
        0
176
     0
 90
        0
176
     0
 40
0.6
176
     0
 40
30.0
176
     0
 62
     7
420
 16777215
176
     0
 90
        1
176
     0
 90
        4
176
     0
 62
     7
176
     0
 62
   257
176
     0
 90
        1
176
     0
 90
        1
176
     0
 40
1.0
176
     0
 90
        8
176
     2
 62
     7
176
     0
 40
1.0
176
     0
 90
        1
176
     0
 90
        6
176
     0
 90
        2
176
     0
 62
     7
176
     0
 90
        5
176
     0
 90
        0
176
     0
 90
        0
176
     0
290
     0
176
     0
 90
        1
176
     0
 40
0.0
176
     0
 90
        0
176
     0
290
     0
176
     0
290
     1
176
     0
290
     1
176
     0
290
     0
176
     0
290
     0
176
     0
290
     0
176
     0
290
     0
176
     0
290
     0
176
     0
290
     0
176
     0
 90
       50
176
     0
 40
0.0
176
     0
 40
1.0
176
     0
 90
        0
176
     0
 62
    18
420
        0
176
     0
 90
       50
176
     0
 90
        3
176
     0
 62
     5
420
      255
176
     0
290
     0
176
     0
 90
       50
176
     0
 90
       50
176
     0
 90
       50
176
     0
290
     0
176
     0
 90
       50
176
     0
 62
   256
176
     0
 40
1.0
176
     0
 90
        2
176
     0
  1
strokes_ogs.tif
176
     0
290
     0
176
     0
 40
1.0
176
     0
 40
1.0
176
     0
  0
VISUALSTYLE
  5
39
102
{ACAD_REACTORS
330
2A
102
}
330
2A
100
AcDbVisualStyle
  2
Facepattern
 70
    15
177
     3
291
     1
 70
    58
 90
        2
176
     1
 90
        2
176
     1
 90
        0
176
     1
 90
        0
176
     1
 40
0.6
176
     1
 40
30.0
176
     1
 62
     7
420
 16777215
176
     1
 90
        1
176
     1
 90
        4
176
     1
 62
     7
176
     1
 62
   257
176
     1
 90
        1
176
     1
 90
        1
176
     1
 40
1.0
176
     1
 90
        8
176
     1
 62
     7
176
     1
 40
1.0
176
     1
 90
        1
176
     1
 90
        6
176
     1
 90
        2
176
     1
 62
     7
176
     1
 90
        5
176
     1
 90
        0
176
     1
 90
        0
176
     1
290
     0
176
     1
 90
        1
176
     1
 40
0.0
176
     1
 90
        0
176
     1
290
     0
176
     1
290
     1
176
     1
290
     1
176
     1
290
     0
176
     1
290
     0
176
     1
290
     0
176
     1
290
     0
176
     1
290
     0
176
     1
290
     0
176
     1
 90
       50
176
     1
 40
0.0
176
     1
 40
1.0
176
     1
 90
        0
176
     1
 62
    18
420
        0
176
     1
 90
       50
176
     1
 90
        3
176
     1
 62
     5
420
      255
176
     1
290
     0
176
     1
 90
       50
176
     1
 90
       50
176
     1
 90
       50
176
     1
290
     0
176
     1
 90
       50
176
     1
 62
   256
176
     0
 40
1.0
176
     0
 90
        2
176
     1
  1
strokes_ogs.tif
176
     1
290
     0
176
     1
 40
1.0
176
     1
 40
1.0
176
     1
  0
VISUALSTYLE
  5
2B
102
{ACAD_REACTORS
330
2A
102
}
330
2A
100
AcDbVisualStyle
  2
Flat
 70
     0
177
     3
291
     1
 70
    58
 90
        2
176
     1
 90
        1
176
     1
 90
        1
176
     1
 90
        2
176
     1
 40
0.6
176
     1
 40
30.0
176
     1
 62
     7
420
 16777215
176
     1
 90
        0
176
     1
 90
        0
176
     1
 62
     7
176
     1
 62
   257
176
     1
 90
        1
176
     1
 90
        1
176
     1
 40
1.0
176
     1
 90
        8
176
     1
 62
     7
176
     1
 40
1.0
176
     1
 90
        1
176
     1
 90
        6
176
     1
 90
        2
176
     1
 62
     7
176
     1
 90
        5
176
     1
 90
        0
176
     1
 90
        0
176
     1
290
     0
176
     1
 90
       13
176
     1
 40
0.0
176
     1
 90
        0
176
     1
290
     0
176
     1
290
     1
176
     1
290
     1
176
     1
290
     0
176
     1
290
     0
176
     1
290
     0
176
     1
290
     0
176
     1
290
     0
176
     1
290
     0
176
     1
 90
       50
176
     1
 40
0.0
176
     1
 40
1.0
176
     1
 90
        0
176
     1
 62
    18
420
        0
176
     1
 90
       50
176
     1
 90
        3
176
     1
 62
     5
420
      255
176
     1
290
     0
176
     1
 90
       50
176
     1
 90
       50
176
     1
 90
       50
176
     1
290
     0
176
     1
 90
       50
176
     1
 62
   256
176
     0
 40
1.0
176
     0
 90
        2
176
     1
  1
strokes_ogs.tif
176
     1
290
     0
176
     1
 40
1.0
176
     1
 40
1.0
176
     1
  0
VISUALSTYLE
  5
2C
102
{ACAD_REACTORS
330
2A
102
}
330
2A
100
AcDbVisualStyle
  2
FlatWithEdges
 70
     1
177
     3
291
     1
 70
    58
 90
        2
176
     1
 90
        1
176
     1
 90
        1
176
     1
 90
        2
176
     1
 40
0.6
176
     1
 40
30.0
176
     1
 62
     7
420
 16777215
176
     1
 90
        1
176
     1
 90
        0
176
     1
 62
     7
176
     1
 62
   257
176
     1
 90
        1
176
     1
 90
        1
176
     1
 40
1.0
176
     1
 90
        0
176
     1
 62
   257
176
     1
 40
1.0
176
     1
 90
        1
176
     1
 90
        6
176
     1
 90
        2
176
     1
 62
     7
176
     1
 90
        5
176
     1
 90
        0
176
     1
 90
        0
176
     1
290
     0
176
     1
 90
       13
176
     1
 40
0.0
176
     1
 90
        0
176
     1
290
     0
176
     1
290
     1
176
     1
290
     1
176
     1
290
     0
176
     1
290
     0
176
     1
290
     0
176
     1
290
     0
176
     1
290
     0
176
     1
290
     0
176
     1
 90
       50
176
     1
 40
0.0
176
     1
 40
1.0
176
     1
 90
        0
176
     1
 62
    18
420
        0
176
     1
 90
       50
176
     1
 90
        3
176
     1
 62
     5
420
      255
176
     1
290
     0
176
     1
 90
       50
176
     1
 90
       50
176
     1
 90
       50
176
     1
290
     0
176
     1
 90
       50
176
     1
 62
   256
176
     0
 40
1.0
176
     0
 90
        2
176
     1
  1
strokes_ogs.tif
176
     1
290
     0
176
     1
 40
1.0
176
     1
 40
1.0
176
     1
  0
VISUALSTYLE
  5
2D
102
{ACAD_REACTORS
330
2A
102
}
330
2A
100
AcDbVisualStyle
  2
Gouraud
 70
     2
177
     3
291
     1
 70
    58
 90
        2
176
     1
 90
        2
176
     1
 90
        1
176
     1
 90
        2
176
     1
 40
0.6
176
     1
 40
30.0
176
     1
 62
     7
420
 16777215
176
     1
 90
        0
176
     1
 90
        0
176
     1
 62
     7
176
     1
 62
   257
176
     1
 90
        1
176
     1
 90
        1
176
     1
 40
1.0
176
     1
 90
        0
176
     1
 62
     7
176
     1
 40
1.0
176
     1
 90
        1
176
     1
 90
        6
176
     1
 90
        2
176
     1
 62
     7
176
     1
 90
        5
176
     1
 90
        0
176
     1
 90
        0
176
     1
290
     0
176
     1
 90
       13
176
     1
 40
0.0
176
     1
 90
        0
176
     1
290
     0
176
     1
290
     1
176
     1
290
     1
176
     1
290
     0
176
     1
290
     0
176
     1
290
     0
176
     1
290
     0
176
     1
290
     0
176
     1
290
     0
176
     1
 90
       50
176
     1
 40
0.0
176
     1
 40
1.0
176
     1
 90
        0
176
     1
 62
    18
420
        0
176
     1
 90
       50
176
     1
 90
        3
176
     1
 62
     5
420
      255
176
     1
290
     0
176
     1
 90
       50
176
     1
 90
       50
176
     1
 90
       50
176
     1
290
     0
176
     1
 90
       50
176
     1
 62
   256
176
     0
 40
1.0
176
     0
 90
        2
176
     1
  1
strokes_ogs.tif
176
     1
290
     0
176
     1
 40
1.0
176
     1
 40
1.0
176
     1
  0
VISUALSTYLE
  5
2E
102
{ACAD_REACTORS
330
2A
102
}
330
2A
100
AcDbVisualStyle
  2
GouraudWithEdges
 70
     3
177
     3
291
     1
 70
    58
 90
        2
176
     1
 90
        2
176
     1
 90
        1
176
     1
 90
        2
176
     1
 40
0.6
176
     1
 40
30.0
176
     1
 62
     7
420
 16777215
176
     1
 90
        1
176
     1
 90
        0
176
     1
 62
     7
176
     1
 62
   257
176
     1
 90
        1
176
     1
 90
        1
176
     1
 40
1.0
176
     1
 90
        0
176
     1
 62
   257
176
     1
 40
1.0
176
     1
 90
        1
176
     1
 90
        6
176
     1
 90
        2
176
     1
 62
     7
176
     1
 90
        5
176
     1
 90
        0
176
     1
 90
        0
176
     1
290
     0
176
     1
 90
       13
176
     1
 40
0.0
176
     1
 90
        0
176
     1
290
     0
176
     1
290
     1
176
     1
290
     1
176
     1
290
     0
176
     1
290
     0
176
     1
290
     0
176
     1
290
     0
176
     1
290
     0
176
     1
290
     0
176
     1
 90
       50
176
     1
 40
0.0
176
     1
 40
1.0
176
     1
 90
        0
176
     1
 62
    18
420
        0
176
     1
 90
       50
176
     1
 90
        3
176
     1
 62
     5
420
      255
176
     1
290
     0
176
     1
 90
       50
176
     1
 90
       50
176
     1
 90
       50
176
     1
290
     0
176
     1
 90
       50
176
     1
 62
   256
176
     0
 40
1.0
176
     0
 90
        2
176
     1
  1
strokes_ogs.tif
176
     1
290
     0
176
     1
 40
1.0
176
     1
 40
1.0
176
     1
  0
VISUALSTYLE
  5
31
102
{ACAD_REACTORS
330
2A
102
}
330
2A
100
AcDbVisualStyle
  2
Hidden
 70
     6
177
     3
291
     0
 70
    58
 90
        1
176
     1
 90
        2
176
     1
 90
        2
176
     1
 90
        0
176
     1
 40
0.6
176
     1
 40
30.0
176
     1
 62
     7
420
 16777215
176
     1
 90
        2
176
     1
 90
        2
176
     1
 62
     7
176
     1
 62
   257
176
     1
 90
        2
176
     1
 90
        1
176
     1
 40
40.0
176
     1
 90
        0
176
     1
 62
   257
176
     1
 40
1.0
176
     1
 90
        1
176
     1
 90
        6
176
     1
 90
        2
176
     1
 62
     7
176
     1
 90
        3
176
     1
 90
        0
176
     1
 90
        0
176
     1
290
     0
176
     1
 90
        1
176
     1
 40
0.0
176
     1
 90
        0
176
     1
290
     0
176
     1
290
     1
176
     1
290
     1
176
     1
290
     0
176
     1
290
     0
176
     1
290
     0
176
     1
290
     0
176
     1
290
     0
176
     1
290
     0
176
     1
 90
       50
176
     1
 40
0.0
176
     1
 40
1.0
176
     1
 90
        0
176
     1
 62
    18
420
        0
176
     1
 90
       50
176
     1
 90
        3
176
     1
 62
     5
420
      255
176
     1
290
     0
176
     1
 90
       50
176
     1
 90
       50
176
     1
 90
       50
176
     1
290
     0
176
     1
 90
       50
176
     1
 62
   256
176
     0
 40
1.0
176
     0
 90
        2
176
     1
  1
strokes_ogs.tif
176
     1
290
     0
176
     1
 40
1.0
176
     1
 40
1.0
176
     1
  0
VISUALSTYLE
  5
3B
102
{ACAD_REACTORS
330
2A
102
}
330
2A
100
AcDbVisualStyle
  2
JitterOff
 70
    20
177
     3
291
     1
 70
    58
 90
        2
176
     0
 90
        2
176
     0
 90
        0
176
     0
 90
        0
176
     0
 40
0.6
176
     0
 40
30.0
176
     0
 62
     7
420
 16777215
176
     0
 90
        1
176
     0
 90
        4
176
     0
 62
     7
176
     0
 62
   257
176
     0
 90
        1
176
     0
 90
        1
176
     0
 40
1.0
176
     0
 90
       10
176
     2
 62
     7
176
     0
 40
1.0
176
     0
 90
        1
176
     0
 90
        6
176
     0
 90
        2
176
     0
 62
     7
176
     0
 90
        5
176
     0
 90
        0
176
     0
 90
        0
176
     0
290
     0
176
     0
 90
        1
176
     0
 40
0.0
176
     0
 90
        0
176
     0
290
     0
176
     0
290
     1
176
     0
290
     1
176
     0
290
     0
176
     0
290
     0
176
     0
290
     0
176
     0
290
     0
176
     0
290
     0
176
     0
290
     0
176
     0
 90
       50
176
     0
 40
0.0
176
     0
 40
1.0
176
     0
 90
        0
176
     0
 62
    18
420
        0
176
     0
 90
       50
176
     0
 90
        3
176
     0
 62
     5
420
      255
176
     0
290
     0
176
     0
 90
       50
176
     0
 90
       50
176
     0
 90
       50
176
     0
290
     0
176
     0
 90
       50
176
     0
 62
   256
176
     0
 40
1.0
176
     0
 90
        2
176
     0
  1
strokes_ogs.tif
176
     0
290
     0
176
     0
 40
1.0
176
     0
 40
1.0
176
     0
  0
VISUALSTYLE
  5
38
102
{ACAD_REACTORS
330
2A
102
}
330
2A
100
AcDbVisualStyle
  2
Linepattern
 70
    14
177
     3
291
     1
 70
    58
 90
        2
176
     1
 90
        2
176
     1
 90
        0
176
     1
 90
        0
176
     1
 40
0.6
176
     1
 40
30.0
176
     1
 62
     7
420
 16777215
176
     1
 90
        1
176
     1
 90
        4
176
     1
 62
     7
176
     1
 62
   257
176
     1
 90
        7
176
     1
 90
        7
176
     1
 40
1.0
176
     1
 90
        8
176
     1
 62
     7
176
     1
 40
1.0
176
     1
 90
        1
176
     1
 90
        6
176
     1
 90
        2
176
     1
 62
     7
176
     1
 90
        5
176
     1
 90
        0
176
     1
 90
        0
176
     1
290
     0
176
     1
 90
        1
176
     1
 40
0.0
176
     1
 90
        0
176
     1
290
     0
176
     1
290
     1
176
     1
290
     1
176
     1
290
     0
176
     1
290
     0
176
     1
290
     0
176
     1
290
     0
176
     1
290
     0
176
     1
290
     0
176
     1
 90
       50
176
     1
 40
0.0
176
     1
 40
1.0
176
     1
 90
        0
176
     1
 62
    18
420
        0
176
     1
 90
       50
176
     1
 90
        3
176
     1
 62
     5
420
      255
176
     1
290
     0
176
     1
 90
       50
176
     1
 90
       50
176
     1
 90
       50
176
     1
290
     0
176
     1
 90
       50
176
     1
 62
   256
176
     0
 40
1.0
176
     0
 90
        2
176
     1
  1
strokes_ogs.tif
176
     1
290
     0
176
     1
 40
1.0
176
     1
 40
1.0
176
     1
  0
VISUALSTYLE
  5
3C
102
{ACAD_REACTORS
330
2A
102
}
330
2A
100
AcDbVisualStyle
  2
OverhangOff
 70
    21
177
     3
291
     1
 70
    58
 90
        2
176
     0
 90
        2
176
     0
 90
        0
176
     0
 90
        0
176
     0
 40
0.6
176
     0
 40
30.0
176
     0
 62
     7
420
 16777215
176
     0
 90
        1
176
     0
 90
        4
176
     0
 62
     7
176
     0
 62
   257
176
     0
 90
        1
176
     0
 90
        1
176
     0
 40
1.0
176
     0
 90
        9
176
     2
 62
     7
176
     0
 40
1.0
176
     0
 90
        1
176
     0
 90
        6
176
     0
 90
        2
176
     0
 62
     7
176
     0
 90
        5
176
     0
 90
        0
176
     0
 90
        0
176
     0
290
     0
176
     0
 90
        1
176
     0
 40
0.0
176
     0
 90
        0
176
     0
290
     0
176
     0
290
     1
176
     0
290
     1
176
     0
290
     0
176
     0
290
     0
176
     0
290
     0
176
     0
290
     0
176
     0
290
     0
176
     0
290
     0
176
     0
 90
       50
176
     0
 40
0.0
176
     0
 40
1.0
176
     0
 90
        0
176
     0
 62
    18
420
        0
176
     0
 90
       50
176
     0
 90
        3
176
     0
 62
     5
420
      255
176
     0
290
     0
176
     0
 90
       50
176
     0
 90
       50
176
     0
 90
       50
176
     0
290
     0
176
     0
 90
       50
176
     0
 62
   256
176
     0
 40
1.0
176
     0
 90
        2
176
     0
  1
strokes_ogs.tif
176
     0
290
     0
176
     0
 40
1.0
176
     0
 40
1.0
176
     0
  0
VISUALSTYLE
  5
33
102
{ACAD_REACTORS
330
2A
102
}
330
2A
100
AcDbVisualStyle
  2
Realistic
 70
     8
177
     3
291
     0
 70
    58
 90
        2
176
     1
 90
        3
176
     1
 90
        0
176
     1
 90
        2
176
     1
 40
0.6
176
     1
 40
30.0
176
     1
 62
     7
420
 16777215
176
     1
 90
        0
176
     1
 90
        0
176
     1
 62
     7
176
     1
 62
   257
176
     1
 90
        1
176
     1
 90
        1
176
     1
 40
1.0
176
     1
 90
        8
176
     1
 62
   257
176
     1
 40
1.0
176
     1
 90
        1
176
     1
 90
        6
176
     1
 90
        2
176
     1
 62
     7
176
     1
 90
        3
176
     1
 90
        0
176
     1
 90
        0
176
     1
290
     0
176
     1
 90
       13
176
     1
 40
0.0
176
     1
 90
        0
176
     1
290
     0
176
     1
290
     1
176
     1
290
     1
176
     1
290
     0
176
     1
290
     0
176
     1
290
     0
176
     1
290
     0
176
     1
290
     0
176
     1
290
     0
176
     1
 90
       50
176
     1
 40
0.0
176
     1
 40
1.0
176
     1
 90
        0
176
     1
 62
    18
420
        0
176
     1
 90
       50
176
     1
 90
        3
176
     1
 62
     5
420
      255
176
     1
290
     0
176
     1
 90
       50
176
     1
 90
       50
176
     1
 90
       50
176
     1
290
     0
176
     1
 90
       50
176
     1
 62
   256
176
     0
 40
1.0
176
     0
 90
        2
176
     1
  1
strokes_ogs.tif
176
     1
290
     0
176
     1
 40
1.0
176
     1
 40
1.0
176
     1
  0
VISUALSTYLE
  5
42
102
{ACAD_REACTORS
330
2A
102
}
330
2A
100
AcDbVisualStyle
  2
Shaded
 70
    27
177
     3
291
     0
 70
    58
 90
        2
176
     1
 90
        2
176
     1
 90
        1
176
     1
 90
        2
176
     1
 40
0.6
176
     1
 40
30.0
176
     1
 62
     7
420
 16777215
176
     1
 90
        0
176
     1
 90
        4
176
     1
 62
     7
176
     1
 62
   257
176
     1
 90
        1
176
     1
 90
        1
176
     1
 40
1.0
176
     1
 90
        8
176
     1
 62
   257
176
     1
 40
1.0
176
     1
 90
        1
176
     1
 90
        6
176
     1
 90
        2
176
     1
 62
     8
420
  7895160
176
     1
 90
        3
176
     1
 90
        0
176
     1
 90
        0
176
     1
290
     0
176
     1
 90
        5
176
     1
 40
0.0
176
     1
 90
        0
176
     1
290
     0
176
     1
290
     1
176
     1
290
     1
176
     1
290
     0
176
     1
290
     0
176
     1
290
     0
176
     1
290
     0
176
     1
290
     0
176
     1
290
     0
176
     1
 90
       50
176
     1
 40
0.0
176
     1
 40
1.0
176
     1
 90
        0
176
     1
 62
    18
420
        0
176
     1
 90
       50
176
     1
 90
        3
176
     1
 62
     5
420
      255
176
     1
290
     0
176
     1
 90
       50
176
     1
 90
       50
176
     1
 90
       50
176
     1
290
     0
176
     1
 90
       50
176
     1
 62
   256
176
     0
 40
1.0
176
     0
 90
        2
176
     1
  1
strokes_ogs.tif
176
     1
290
     0
176
     1
 40
1.0
176
     1
 40
1.0
176
     1
  0
VISUALSTYLE
  5
41
102
{ACAD_REACTORS
330
2A
102
}
330
2A
100
AcDbVisualStyle
  2
Shaded with edges
 70
    26
177
     3
291
     0
 70
    58
 90
        2
176
     1
 90
        2
176
     1
 90
        1
176
     1
 90
        2
176
     1
 40
0.6
176
     1
 40
30.0
176
     1
 62
     7
420
 16777215
176
     1
 90
        1
176
     1
 90
       10
176
     1
 62
     7
176
     1
 62
   257
176
     1
 90
        2
176
     1
 90
        1
176
     1
 40
1.0
176
     1
 90
        8
176
     1
 62
   257
176
     1
 40
1.0
176
     1
 90
        1
176
     1
 90
        6
176
     1
 90
        2
176
     1
 62
     7
176
     1
 90
        3
176
     1
 90
        0
176
     1
 90
        0
176
     1
290
     0
176
     1
 90
        5
176
     1
 40
0.0
176
     1
 90
        0
176
     1
290
     0
176
     1
290
     1
176
     1
290
     1
176
     1
290
     0
176
     1
290
     0
176
     1
290
     0
176
     1
290
     0
176
     1
290
     0
176
     1
290
     0
176
     1
 90
       50
176
     1
 40
0.0
176
     1
 40
1.0
176
     1
 90
        0
176
     1
 62
    18
420
        0
176
     1
 90
       50
176
     1
 90
        3
176
     1
 62
     5
420
      255
176
     1
290
     0
176
     1
 90
       50
176
     1
 90
       50
176
     1
 90
       50
176
     1
290
     0
176
     1
 90
       50
176
     1
 62
   256
176
     0
 40
1.0
176
     0
 90
        2
176
     1
  1
strokes_ogs.tif
176
     1
290
     0
176
     1
 40
1.0
176
     1
 40
1.0
176
     1
  0
VISUALSTYLE
  5
3E
102
{ACAD_REACTORS
330
2A
102
}
330
2A
100
AcDbVisualStyle
  2
Shades of Gray
 70
    23
177
     3
291
     0
 70
    58
 90
        2
176
     1
 90
        2
176
     1
 90
        3
176
     1
 90
        0
176
     1
 40
0.6
176
     1
 40
30.0
176
     1
 62
     7
420
 16777215
176
     1
 90
        2
176
     1
 90
        2
176
     1
 62
     7
176
     1
 62
     7
176
     1
 90
        1
176
     1
 90
        1
176
     1
 40
40.0
176
     1
 90
        8
176
     1
 62
     7
176
     1
 40
1.0
176
     1
 90
        1
176
     1
 90
        6
176
     1
 90
        2
176
     1
 62
     7
176
     1
 90
        3
176
     1
 90
        0
176
     1
 90
        0
176
     1
290
     0
176
     1
 90
        1
176
     1
 40
0.0
176
     1
 90
        0
176
     1
290
     0
176
     1
290
     1
176
     1
290
     1
176
     1
290
     0
176
     1
290
     0
176
     1
290
     0
176
     1
290
     0
176
     1
290
     0
176
     1
290
     0
176
     1
 90
       50
176
     1
 40
0.0
176
     1
 40
1.0
176
     1
 90
        0
176
     1
 62
    18
420
        0
176
     1
 90
       50
176
     1
 90
        3
176
     1
 62
     5
420
      255
176
     1
290
     0
176
     1
 90
       50
176
     1
 90
       50
176
     1
 90
       50
176
     1
290
     0
176
     1
 90
       50
176
     1
 62
   256
176
     0
 40
1.0
176
     0
 90
        2
176
     1
  1
strokes_ogs.tif
176
     1
290
     0
176
     1
 40
1.0
176
     1
 40
1.0
176
     1
  0
VISUALSTYLE
  5
3F
102
{ACAD_REACTORS
330
2A
102
}
330
2A
100
AcDbVisualStyle
  2
Sketchy
 70
    24
177
     3
291
     0
 70
    58
 90
        1
176
     1
 90
        2
176
     1
 90
        2
176
     1
 90
        0
176
     1
 40
0.6
176
     1
 40
30.0
176
     1
 62
     7
420
 16777215
176
     1
 90
        2
176
     1
 90
        2
176
     1
 62
     7
176
     1
 62
     7
176
     1
 90
        1
176
     1
 90
        1
176
     1
 40
40.0
176
     1
 90
       11
176
     1
 62
     7
176
     1
 40
1.0
176
     1
 90
        1
176
     1
 90
        6
176
     1
 90
        2
176
     1
 62
     7
176
     1
 90
        6
176
     1
 90
        0
176
     1
 90
        0
176
     1
290
     0
176
     1
 90
        1
176
     1
 40
0.0
176
     1
 90
        0
176
     1
290
     0
176
     1
290
     1
176
     1
290
     1
176
     1
290
     0
176
     1
290
     0
176
     1
290
     0
176
     1
290
     0
176
     1
290
     0
176
     1
290
     0
176
     1
 90
       50
176
     1
 40
0.0
176
     1
 40
1.0
176
     1
 90
        0
176
     1
 62
    18
420
        0
176
     1
 90
       50
176
     1
 90
        3
176
     1
 62
     5
420
      255
176
     1
290
     0
176
     1
 90
       50
176
     1
 90
       50
176
     1
 90
       50
176
     1
290
     0
176
     1
 90
       50
176
     1
 62
   256
176
     0
 40
1.0
176
     0
 90
        2
176
     1
  1
strokes_ogs.tif
176
     1
290
     0
176
     1
 40
1.0
176
     1
 40
1.0
176
     1
  0
VISUALSTYLE
  5
37
102
{ACAD_REACTORS
330
2A
102
}
330
2A
100
AcDbVisualStyle
  2
Thicken
 70
    13
177
     3
291
     1
 70
    58
 90
        2
176
     1
 90
        2
176
     1
 90
        0
176
     1
 90
        0
176
     1
 40
0.6
176
     1
 40
30.0
176
     1
 62
     7
420
 16777215
176
     1
 90
        1
176
     1
 90
        4
176
     1
 62
     7
176
     1
 62
   257
176
     1
 90
        1
176
     1
 90
        1
176
     1
 40
1.0
176
     1
 90
       12
176
     1
 62
     7
176
     1
 40
1.0
176
     1
 90
        1
176
     1
 90
        6
176
     1
 90
        2
176
     1
 62
     7
176
     1
 90
        5
176
     1
 90
        0
176
     1
 90
        0
176
     1
290
     0
176
     1
 90
        1
176
     1
 40
0.0
176
     1
 90
        0
176
     1
290
     0
176
     1
290
     1
176
     1
290
     1
176
     1
290
     0
176
     1
290
     0
176
     1
290
     0
176
     1
290
     0
176
     1
290
     0
176
     1
290
     0
176
     1
 90
       50
176
     1
 40
0.0
176
     1
 40
1.0
176
     1
 90
        0
176
     1
 62
    18
420
        0
176
     1
 90
       50
176
     1
 90
        3
176
     1
 62
     5
420
      255
176
     1
290
     0
176
     1
 90
       50
176
     1
 90
       50
176
     1
 90
       50
176
     1
290
     0
176
     1
 90
       50
176
     1
 62
   256
176
     0
 40
1.0
176
     0
 90
        2
176
     1
  1
strokes_ogs.tif
176
     1
290
     0
176
     1
 40
1.0
176
     1
 40
1.0
176
     1
  0
VISUALSTYLE
  5
30
102
{ACAD_REACTORS
330
2A
102
}
330
2A
100
AcDbVisualStyle
  2
Wireframe
 70
     5
177
     3
291
     0
 70
    58
 90
        0
176
     1
 90
        2
176
     1
 90
        0
176
     1
 90
        0
176
     1
 40
0.6
176
     1
 40
30.0
176
     1
 62
     7
420
 16777215
176
     1
 90
        1
176
     1
 90
        4
176
     1
 62
     7
176
     1
 62
   257
176
     1
 90
        1
176
     1
 90
        1
176
     1
 40
1.0
176
     1
 90
        0
176
     1
 62
   257
176
     1
 40
1.0
176
     1
 90
        1
176
     1
 90
        6
176
     1
 90
        2
176
     1
 62
     7
176
     1
 90
        3
176
     1
 90
        0
176
     1
 90
        0
176
     1
290
     0
176
     1
 90
        1
176
     1
 40
0.0
176
     1
 90
        0
176
     1
290
     0
176
     1
290
     1
176
     1
290
     1
176
     1
290
     0
176
     1
290
     0
176
     1
290
     0
176
     1
290
     0
176
     1
290
     0
176
     1
290
     0
176
     1
 90
       50
176
     1
 40
0.0
176
     1
 40
1.0
176
     1
 90
        0
176
     1
 62
    18
420
        0
176
     1
 90
       50
176
     1
 90
        3
176
     1
 62
     5
420
      255
176
     1
290
     0
176
     1
 90
       50
176
     1
 90
       50
176
     1
 90
       50
176
     1
290
     0
176
     1
 90
       50
176
     1
 62
   256
176
     0
 40
1.0
176
     0
 90
        2
176
     1
  1
strokes_ogs.tif
176
     1
290
     0
176
     1
 40
1.0
176
     1
 40
1.0
176
     1
  0
VISUALSTYLE
  5
40
102
{ACAD_REACTORS
330
2A
102
}
330
2A
100
AcDbVisualStyle
  2
X-Ray
 70
    25
177
     3
291
     0
 70
    58
 90
        2
176
     1
 90
        2
176
     1
 90
        1
176
     1
 90
        1
176
     1
 40
0.5
176
     1
 40
30.0
176
     1
 62
     7
420
 16777215
176
     1
 90
        1
176
     1
 90
        0
176
     1
 62
     7
176
     1
 62
   257
176
     1
 90
        1
176
     1
 90
        1
176
     1
 40
1.0
176
     1
 90
        8
176
     1
 62
     7
176
     1
 40
1.0
176
     1
 90
        1
176
     1
 90
        6
176
     1
 90
        2
176
     1
 62
     7
176
     1
 90
        3
176
     1
 90
        0
176
     1
 90
        0
176
     1
290
     0
176
     1
 90
       13
176
     1
 40
0.0
176
     1
 90
        0
176
     1
290
     0
176
     1
290
     1
176
     1
290
     1
176
     1
290
     0
176
     1
290
     0
176
     1
290
     0
176
     1
290
     0
176
     1
290
     0
176
     1
290
     0
176
     1
 90
       50
176
     1
 40
0.0
176
     1
 40
1.0
176
     1
 90
        0
176
     1
 62
    18
420
        0
176
     1
 90
       50
176
     1
 90
        3
176
     1
 62
     5
420
      255
176
     1
290
     0
176
     1
 90
       50
176
     1
 90
       50
176
     1
 90
       50
176
     1
290
     0
176
     1
 90
       50
176
     1
 62
   256
176
     0
 40
1.0
176
     0
 90
        2
176
     1
  1
strokes_ogs.tif
176
     1
290
     0
176
     1
 40
1.0
176
     1
 40
1.0
176
     1
  0
DICTIONARYVAR
  5
187
102
{ACAD_REACTORS
330
186
102
}
330
186
100
DictionaryVariables
280
     0
  1
1:1
  0
DICTIONARYVAR
  5
18C
102
{ACAD_REACTORS
330
186
102
}
330
186
100
DictionaryVariables
280
     0
  1
Standard
  0
DICTIONARYVAR
  5
18B
102
{ACAD_REACTORS
330
186
102
}
330
186
100
DictionaryVariables
280
     0
  1
Standard
  0
DICTIONARYVAR
  5
18F
102
{ACAD_REACTORS
330
186
102
}
330
186
100
DictionaryVariables
280
     0
  1
6.000000
  0
DICTIONARY
  5
188
330
6A
100
AcDbDictionary
280
     1
281
     1
  3
ACAD_ROUNDTRIP_2008_TABLESTYLE_CELLSTYLEMAP
360
189
  0
CELLSTYLEMAP
  5
189
102
{ACAD_REACTORS
330
188
102
}
330
188
100
AcDbCellStyleMap
 90
        3
300
CELLSTYLE
  1
TABLEFORMAT_BEGIN
 90
        5
170
     1
 91
        0
 92
    32768
 62
   257
 93
        1
300
CONTENTFORMAT
  1
CONTENTFORMAT_BEGIN
 90
        0
 91
        0
 92
        4
 93
        0
300

 40
0.0
140
1.0
 94
        5
 62
     0
340
11
144
6.0
309
CONTENTFORMAT_END
171
     1
301
MARGIN
  1
CELLMARGIN_BEGIN
 40
1.5
 40
1.5
 40
1.5
 40
1.5
 40
1.5
 40
1.5
309
CELLMARGIN_END
 94
        6
 95
        1
302
GRIDFORMAT
  1
GRIDFORMAT_BEGIN
 90
        0
 91
        1
 62
     0
 92
       -2
340
14
 93
        0
 40
0.045
309
GRIDFORMAT_END
 95
        2
302
GRIDFORMAT
  1
GRIDFORMAT_BEGIN
 90
        0
 91
        1
 62
     0
 92
       -2
340
14
 93
        0
 40
0.045
309
GRIDFORMAT_END
 95
        4
302
GRIDFORMAT
  1
GRIDFORMAT_BEGIN
 90
        0
 91
        1
 62
     0
 92
       -2
340
14
 93
        0
 40
0.045
309
GRIDFORMAT_END
 95
        8
302
GRIDFORMAT
  1
GRIDFORMAT_BEGIN
 90
        0
 91
        1
 62
     0
 92
       -2
340
14
 93
        0
 40
0.045
309
GRIDFORMAT_END
 95
       16
302
GRIDFORMAT
  1
GRIDFORMAT_BEGIN
 90
        0
 91
        1
 62
     0
 92
       -2
340
14
 93
        0
 40
0.045
309
GRIDFORMAT_END
 95
       32
302
GRIDFORMAT
  1
GRIDFORMAT_BEGIN
 90
        0
 91
        1
 62
     0
 92
       -2
340
14
 93
        0
 40
0.045
309
GRIDFORMAT_END
309
TABLEFORMAT_END
  1
CELLSTYLE_BEGIN
 90
        1
 91
        1
300
_TITLE
309
CELLSTYLE_END
300
CELLSTYLE
  1
TABLEFORMAT_BEGIN
 90
        5
170
     1
 91
        0
 92
        0
 62
   257
 93
        1
300
CONTENTFORMAT
  1
CONTENTFORMAT_BEGIN
 90
        0
 91
        0
 92
        4
 93
        0
300

 40
0.0
140
1.0
 94
        5
 62
     0
340
11
144
4.5
309
CONTENTFORMAT_END
171
     1
301
MARGIN
  1
CELLMARGIN_BEGIN
 40
1.5
 40
1.5
 40
1.5
 40
1.5
 40
1.5
 40
1.5
309
CELLMARGIN_END
 94
        6
 95
        1
302
GRIDFORMAT
  1
GRIDFORMAT_BEGIN
 90
        0
 91
        1
 62
     0
 92
       -2
340
14
 93
        0
 40
0.045
309
GRIDFORMAT_END
 95
        2
302
GRIDFORMAT
  1
GRIDFORMAT_BEGIN
 90
        0
 91
        1
 62
     0
 92
       -2
340
14
 93
        0
 40
0.045
309
GRIDFORMAT_END
 95
        4
302
GRIDFORMAT
  1
GRIDFORMAT_BEGIN
 90
        0
 91
        1
 62
     0
 92
       -2
340
14
 93
        0
 40
0.045
309
GRIDFORMAT_END
 95
        8
302
GRIDFORMAT
  1
GRIDFORMAT_BEGIN
 90
        0
 91
        1
 62
     0
 92
       -2
340
14
 93
        0
 40
0.045
309
GRIDFORMAT_END
 95
       16
302
GRIDFORMAT
  1
GRIDFORMAT_BEGIN
 90
        0
 91
        1
 62
     0
 92
       -2
340
14
 93
        0
 40
0.045
309
GRIDFORMAT_END
 95
       32
302
GRIDFORMAT
  1
GRIDFORMAT_BEGIN
 90
        0
 91
        1
 62
     0
 92
       -2
340
14
 93
        0
 40
0.045
309
GRIDFORMAT_END
309
TABLEFORMAT_END
  1
CELLSTYLE_BEGIN
 90
        2
 91
        1
300
_HEADER
309
CELLSTYLE_END
300
CELLSTYLE
  1
TABLEFORMAT_BEGIN
 90
        5
170
     1
 91
        0
 92
        0
 62
   257
 93
        1
300
CONTENTFORMAT
  1
CONTENTFORMAT_BEGIN
 90
        0
 91
        0
 92
        4
 93
        0
300

 40
0.0
140
1.0
 94
        2
 62
     0
340
11
144
4.5
309
CONTENTFORMAT_END
171
     1
301
MARGIN
  1
CELLMARGIN_BEGIN
 40
1.5
 40
1.5
 40
1.5
 40
1.5
 40
1.5
 40
1.5
309
CELLMARGIN_END
 94
        6
 95
        1
302
GRIDFORMAT
  1
GRIDFORMAT_BEGIN
 90
        0
 91
        1
 62
     0
 92
       -2
340
14
 93
        0
 40
0.045
309
GRIDFORMAT_END
 95
        2
302
GRIDFORMAT
  1
GRIDFORMAT_BEGIN
 90
        0
 91
        1
 62
     0
 92
       -2
340
14
 93
        0
 40
0.045
309
GRIDFORMAT_END
 95
        4
302
GRIDFORMAT
  1
GRIDFORMAT_BEGIN
 90
        0
 91
        1
 62
     0
 92
       -2
340
14
 93
        0
 40
0.045
309
GRIDFORMAT_END
 95
        8
302
GRIDFORMAT
  1
GRIDFORMAT_BEGIN
 90
        0
 91
        1
 62
     0
 92
       -2
340
14
 93
        0
 40
0.045
309
GRIDFORMAT_END
 95
       16
302
GRIDFORMAT
  1
GRIDFORMAT_BEGIN
 90
        0
 91
        1
 62
     0
 92
       -2
340
14
 93
        0
 40
0.045
309
GRIDFORMAT_END
 95
       32
302
GRIDFORMAT
  1
GRIDFORMAT_BEGIN
 90
        0
 91
        1
 62
     0
 92
       -2
340
14
 93
        0
 40
0.045
309
GRIDFORMAT_END
309
TABLEFORMAT_END
  1
CELLSTYLE_BEGIN
 90
        3
 91
        2
300
_DATA
309
CELLSTYLE_END
  0
ENDSEC
  0
EOF
